  0
SECTION
  2
HEADER
  9
$ACADVER
  1
AC1018
  9
$ACADMAINTVER
 70
     0
  9
$DWGCODEPAGE
  3
ANSI_932
  9
$INSBASE
 10
0.0
 20
0.0
 30
0.0
  9
$EXTMIN
 10
-1260.0
 20
-891.0
 30
0.0
  9
$EXTMAX
 10
1260.0
 20
891.0
 30
0.0
  9
$LIMMIN
 10
-1260.0
 20
-891.0
  9
$LIMMAX
 10
1260.0
 20
891.0
  9
$ORTHOMODE
 70
     0
  9
$REGENMODE
 70
     1
  9
$FILLMODE
 70
     1
  9
$QTEXTMODE
 70
     0
  9
$MIRRTEXT
 70
     1
  9
$LTSCALE
 40
6.0
  9
$ATTMODE
 70
     1
  9
$TEXTSIZE
 40
2.5
  9
$TRACEWID
 40
1.0
  9
$TEXTSTYLE
  7
Standard
  9
$CLAYER
  8
0
  9
$CELTYPE
  6
ByLayer
  9
$CECOLOR
 62
   256
  9
$CELTSCALE
 40
1.0
  9
$DISPSILH
 70
     0
  9
$DIMSCALE
 40
1.0
  9
$DIMASZ
 40
2.5
  9
$DIMEXO
 40
0.625
  9
$DIMDLI
 40
3.75
  9
$DIMRND
 40
0.0
  9
$DIMDLE
 40
0.0
  9
$DIMEXE
 40
1.25
  9
$DIMTP
 40
0.0
  9
$DIMTM
 40
0.0
  9
$DIMTXT
 40
2.5
  9
$DIMCEN
 40
2.5
  9
$DIMTSZ
 40
0.0
  9
$DIMTOL
 70
     0
  9
$DIMLIM
 70
     0
  9
$DIMTIH
 70
     0
  9
$DIMTOH
 70
     0
  9
$DIMSE1
 70
     0
  9
$DIMSE2
 70
     0
  9
$DIMTAD
 70
     1
  9
$DIMZIN
 70
     8
  9
$DIMBLK
  1

  9
$DIMASO
 70
     1
  9
$DIMSHO
 70
     1
  9
$DIMPOST
  1

  9
$DIMAPOST
  1

  9
$DIMALT
 70
     0
  9
$DIMALTD
 70
     3
  9
$DIMALTF
 40
0.03937007874016
  9
$DIMLFAC
 40
1.0
  9
$DIMTOFL
 70
     1
  9
$DIMTVP
 40
0.0
  9
$DIMTIX
 70
     0
  9
$DIMSOXD
 70
     0
  9
$DIMSAH
 70
     0
  9
$DIMBLK1
  1

  9
$DIMBLK2
  1

  9
$DIMSTYLE
  2
ISO-25
  9
$DIMCLRD
 70
     0
  9
$DIMCLRE
 70
     0
  9
$DIMCLRT
 70
     0
  9
$DIMTFAC
 40
1.0
  9
$DIMGAP
 40
0.625
  9
$DIMJUST
 70
     0
  9
$DIMSD1
 70
     0
  9
$DIMSD2
 70
     0
  9
$DIMTOLJ
 70
     0
  9
$DIMTZIN
 70
     8
  9
$DIMALTZ
 70
     0
  9
$DIMALTTZ
 70
     0
  9
$DIMUPT
 70
     0
  9
$DIMDEC
 70
     2
  9
$DIMTDEC
 70
     2
  9
$DIMALTU
 70
     2
  9
$DIMALTTD
 70
     3
  9
$DIMTXSTY
  7
Standard
  9
$DIMAUNIT
 70
     0
  9
$DIMADEC
 70
     0
  9
$DIMALTRND
 40
0.0
  9
$DIMAZIN
 70
     0
  9
$DIMDSEP
 70
    44
  9
$DIMATFIT
 70
     3
  9
$DIMFRAC
 70
     0
  9
$DIMLDRBLK
  1

  9
$DIMLUNIT
 70
     2
  9
$DIMLWD
 70
    -2
  9
$DIMLWE
 70
    -2
  9
$DIMTMOVE
 70
     0
  9
$LUNITS
 70
     2
  9
$LUPREC
 70
     4
  9
$SKETCHINC
 40
1.0
  9
$FILLETRAD
 40
10.0
  9
$AUNITS
 70
     0
  9
$AUPREC
 70
     0
  9
$MENU
  1
.
  9
$ELEVATION
 40
0.0
  9
$PELEVATION
 40
0.0
  9
$THICKNESS
 40
0.0
  9
$LIMCHECK
 70
     0
  9
$CHAMFERA
 40
0.0
  9
$CHAMFERB
 40
0.0
  9
$CHAMFERC
 40
0.0
  9
$CHAMFERD
 40
0.0
  9
$SKPOLY
 70
     0
  9
$TDCREATE
 40
2459485.439406516
  9
$TDUCREATE
 40
2459485.064406516
  9
$TDUPDATE
 40
2459485.439406597
  9
$TDUUPDATE
 40
2459485.064406597
  9
$TDINDWG
 40
0.0000000116
  9
$TDUSRTIMER
 40
0.0000000116
  9
$USRTIMER
 70
     1
  9
$ANGBASE
 50
0.0
  9
$ANGDIR
 70
     0
  9
$PDMODE
 70
     0
  9
$PDSIZE
 40
0.0
  9
$PLINEWID
 40
0.0
  9
$SPLFRAME
 70
     0
  9
$SPLINETYPE
 70
     6
  9
$SPLINESEGS
 70
     8
  9
$HANDSEED
  5
29C
  9
$SURFTAB1
 70
     6
  9
$SURFTAB2
 70
     6
  9
$SURFTYPE
 70
     6
  9
$SURFU
 70
     6
  9
$SURFV
 70
     6
  9
$UCSBASE
  2

  9
$UCSNAME
  2

  9
$UCSORG
 10
0.0
 20
0.0
 30
0.0
  9
$UCSXDIR
 10
1.0
 20
0.0
 30
0.0
  9
$UCSYDIR
 10
0.0
 20
1.0
 30
0.0
  9
$UCSORTHOREF
  2

  9
$UCSORTHOVIEW
 70
     0
  9
$UCSORGTOP
 10
0.0
 20
0.0
 30
0.0
  9
$UCSORGBOTTOM
 10
0.0
 20
0.0
 30
0.0
  9
$UCSORGLEFT
 10
0.0
 20
0.0
 30
0.0
  9
$UCSORGRIGHT
 10
0.0
 20
0.0
 30
0.0
  9
$UCSORGFRONT
 10
0.0
 20
0.0
 30
0.0
  9
$UCSORGBACK
 10
0.0
 20
0.0
 30
0.0
  9
$PUCSBASE
  2

  9
$PUCSNAME
  2

  9
$PUCSORG
 10
0.0
 20
0.0
 30
0.0
  9
$PUCSXDIR
 10
1.0
 20
0.0
 30
0.0
  9
$PUCSYDIR
 10
0.0
 20
1.0
 30
0.0
  9
$PUCSORTHOREF
  2

  9
$PUCSORTHOVIEW
 70
     0
  9
$PUCSORGTOP
 10
0.0
 20
0.0
 30
0.0
  9
$PUCSORGBOTTOM
 10
0.0
 20
0.0
 30
0.0
  9
$PUCSORGLEFT
 10
0.0
 20
0.0
 30
0.0
  9
$PUCSORGRIGHT
 10
0.0
 20
0.0
 30
0.0
  9
$PUCSORGFRONT
 10
0.0
 20
0.0
 30
0.0
  9
$PUCSORGBACK
 10
0.0
 20
0.0
 30
0.0
  9
$USERI1
 70
     0
  9
$USERI2
 70
     0
  9
$USERI3
 70
     0
  9
$USERI4
 70
     0
  9
$USERI5
 70
     0
  9
$USERR1
 40
0.0
  9
$USERR2
 40
0.0
  9
$USERR3
 40
0.0
  9
$USERR4
 40
0.0
  9
$USERR5
 40
0.0
  9
$WORLDVIEW
 70
     1
  9
$SHADEDGE
 70
     3
  9
$SHADEDIF
 70
    70
  9
$TILEMODE
 70
     1
  9
$MAXACTVP
 70
    64
  9
$PINSBASE
 10
0.0
 20
0.0
 30
0.0
  9
$PLIMCHECK
 70
     0
  9
$PEXTMIN
 10
1.000000000000000E+20
 20
1.000000000000000E+20
 30
1.000000000000000E+20
  9
$PEXTMAX
 10
-1.000000000000000E+20
 20
-1.000000000000000E+20
 30
-1.000000000000000E+20
  9
$PLIMMIN
 10
0.0
 20
0.0
  9
$PLIMMAX
 10
420.0
 20
297.0
  9
$UNITMODE
 70
     0
  9
$VISRETAIN
 70
     1
  9
$PLINEGEN
 70
     0
  9
$PSLTSCALE
 70
     1
  9
$TREEDEPTH
 70
  3020
  9
$CMLSTYLE
  2
Standard
  9
$CMLJUST
 70
     0
  9
$CMLSCALE
 40
20.0
  9
$PROXYGRAPHICS
 70
     1
  9
$MEASUREMENT
 70
     1
  9
$CELWEIGHT
370
    -1
  9
$ENDCAPS
280
     0
  9
$JOINSTYLE
280
     0
  9
$LWDISPLAY
290
     0
  9
$INSUNITS
 70
     4
  9
$HYPERLINKBASE
  1

  9
$STYLESHEET
  1

  9
$XEDIT
290
     1
  9
$CEPSNTYPE
380
     0
  9
$PSTYLEMODE
290
     1
  9
$FINGERPRINTGUID
  2
{CBFA1B9C-E068-43D7-8039-41594DC09794}
  9
$VERSIONGUID
  2
{FAEB1C32-E019-11D5-929B-00C0DF256EC4}
  9
$EXTNAMES
290
     1
  9
$PSVPSCALE
 40
0.0
  9
$OLESTARTUP
290
     0
  9
$SORTENTS
280
   127
  9
$INDEXCTL
280
     0
  9
$HIDETEXT
280
     1
  9
$XCLIPFRAME
290
     0
  9
$HALOGAP
280
     0
  9
$OBSCOLOR
 70
   257
  9
$OBSLTYPE
280
     0
  9
$INTERSECTIONDISPLAY
280
     0
  9
$INTERSECTIONCOLOR
 70
   257
  9
$DIMASSOC
280
     2
  9
$PROJECTNAME
  1

  0
ENDSEC
  0
SECTION
  2
CLASSES
  0
CLASS
  1
ACDBDICTIONARYWDFLT
  2
AcDbDictionaryWithDefault
  3
ObjectDBX Classes
 90
        0
 91
        4
280
     0
281
     0
  0
CLASS
  1
VISUALSTYLE
  2
AcDbVisualStyle
  3
ObjectDBX Classes
 90
     4095
 91
        4
280
     0
281
     0
  0
CLASS
  1
MATERIAL
  2
AcDbMaterial
  3
ObjectDBX Classes
 90
     1153
 91
        4
280
     0
281
     0
  0
CLASS
  1
SCALE
  2
AcDbScale
  3
ObjectDBX Classes
 90
     1153
 91
        4
280
     0
281
     0
  0
CLASS
  1
TABLESTYLE
  2
AcDbTableStyle
  3
ObjectDBX Classes
 90
     4095
 91
        4
280
     0
281
     0
  0
CLASS
  1
MLEADERSTYLE
  2
AcDbMLeaderStyle
  3
ACDB_MLEADERSTYLE_CLASS
 90
     4095
 91
        4
280
     0
281
     0
  0
CLASS
  1
SUN
  2
AcDbSun
  3
SCENEOE
 90
     1153
 91
        4
280
     0
281
     0
  0
CLASS
  1
DICTIONARYVAR
  2
AcDbDictionaryVar
  3
ObjectDBX Classes
 90
        0
 91
        4
280
     0
281
     0
  0
CLASS
  1
CELLSTYLEMAP
  2
AcDbCellStyleMap
  3
ObjectDBX Classes
 90
     1152
 91
        4
280
     0
281
     0
  0
ENDSEC
  0
SECTION
  2
TABLES
  0
TABLE
  2
VPORT
  5
8
102
{ACAD_XDICTIONARY
360
253
102
}
330
0
100
AcDbSymbolTable
 70
     1
  0
VPORT
  5
29
330
8
100
AcDbSymbolTableRecord
100
AcDbViewportTableRecord
  2
*Active
 70
     0
 10
0.0
 20
0.0
 11
1.0
 21
1.0
 12
0.0
 22
0.0
 13
0.0
 23
0.0
 14
10.0
 24
10.0
 15
10.0
 25
10.0
 16
0.0
 26
0.0
 36
1.0
 17
0.0
 27
0.0
 37
0.0
 40
1960.2
 41
1.414141414141414
 42
50.0
 43
0.0
 44
0.0
 50
0.0
 51
0.0
 71
     0
 72
 10000
 73
     1
 74
     3
 75
     0
 76
     0
 77
     0
 78
     0
281
     0
 65
     1
110
0.0
120
0.0
130
0.0
111
1.0
121
0.0
131
0.0
112
0.0
122
1.0
132
0.0
 79
     0
146
0.0
  0
ENDTAB
  0
TABLE
  2
LTYPE
  5
5
330
0
100
AcDbSymbolTable
 70
     3
  0
LTYPE
  5
14
330
5
100
AcDbSymbolTableRecord
100
AcDbLinetypeTableRecord
  2
ByBlock
 70
     0
  3

 72
    65
 73
     0
 40
0.0
  0
LTYPE
  5
15
330
5
100
AcDbSymbolTableRecord
100
AcDbLinetypeTableRecord
  2
ByLayer
 70
     0
  3

 72
    65
 73
     0
 40
0.0
  0
LTYPE
  5
16
330
5
100
AcDbSymbolTableRecord
100
AcDbLinetypeTableRecord
  2
Continuous
 70
     0
  3
Solid line
 72
    65
 73
     0
 40
0.0
  0
LTYPE
  5
6F
330
5
100
AcDbSymbolTableRecord
100
AcDbLinetypeTableRecord
  2
JWW_CENTER1
 70
     0
  3
-----  --  ----------  --  -----
 72
    65
 73
     4
 40
6.773333333333333
 49
4.233333333333333
 74
     0
 49
-0.8466666666666667
 74
     0
 49
0.8466666666666667
 74
     0
 49
-0.8466666666666667
 74
     0
  0
LTYPE
  5
70
330
5
100
AcDbSymbolTableRecord
100
AcDbLinetypeTableRecord
  2
JWW_DASHED1
 70
     0
  3
-  --  --  --  --  --  --  --  -
 72
    65
 73
     2
 40
1.693333333333333
 49
0.8466666666666667
 74
     0
 49
-0.8466666666666667
 74
     0
  0
ENDTAB
  0
TABLE
  2
LAYER
  5
2
330
0
100
AcDbSymbolTable
 70
     6
  0
LAYER
  5
10
330
2
100
AcDbSymbolTableRecord
100
AcDbLayerTableRecord
  2
0
 70
     0
 62
     7
  6
Continuous
370
    -3
390
F
  0
LAYER
  5
71
330
2
100
AcDbSymbolTableRecord
100
AcDbLayerTableRecord
  2
B-4_寸法
 70
     0
 62
     7
  6
Continuous
370
    -3
390
F
  0
LAYER
  5
72
330
2
100
AcDbSymbolTableRecord
100
AcDbLayerTableRecord
  2
B-2_蓋
 70
     0
 62
     7
  6
Continuous
370
    -3
390
F
  0
LAYER
  5
73
330
2
100
AcDbSymbolTableRecord
100
AcDbLayerTableRecord
  2
B-1_ピット
 70
     0
 62
     7
  6
Continuous
370
    -3
390
F
  0
LAYER
  5
74
330
2
100
AcDbSymbolTableRecord
100
AcDbLayerTableRecord
  2
F-4ﾚｲﾔ
 70
     0
 62
     7
  6
Continuous
370
    -3
390
F
  0
LAYER
  5
75
330
2
100
AcDbSymbolTableRecord
100
AcDbLayerTableRecord
  2
F-5ﾚｲﾔ
 70
     0
 62
     7
  6
Continuous
370
    -3
390
F
  0
ENDTAB
  0
TABLE
  2
STYLE
  5
3
330
0
100
AcDbSymbolTable
 70
     2
  0
STYLE
  5
11
330
3
100
AcDbSymbolTableRecord
100
AcDbTextStyleTableRecord
  2
Standard
 70
     0
 40
0.0
 41
1.0
 50
0.0
 71
     0
 42
2.5
  3
txt
  4

  0
STYLE
  5
6E
330
3
100
AcDbSymbolTableRecord
100
AcDbTextStyleTableRecord
  2
ＭＳ ゴシック
 70
     0
 40
1.0
 41
1.0
 50
0.0
 71
     0
 42
2.5
  3

  4

1001
ACAD
1000
MS Gothic
1071
    32817
  0
ENDTAB
  0
TABLE
  2
VIEW
  5
6
330
0
100
AcDbSymbolTable
 70
     0
  0
ENDTAB
  0
TABLE
  2
UCS
  5
7
330
0
100
AcDbSymbolTable
 70
     0
  0
ENDTAB
  0
TABLE
  2
APPID
  5
9
330
0
100
AcDbSymbolTable
 70
     2
  0
APPID
  5
12
330
9
100
AcDbSymbolTableRecord
100
AcDbRegAppTableRecord
  2
ACAD
 70
     0
  0
APPID
  5
292
330
9
100
AcDbSymbolTableRecord
100
AcDbRegAppTableRecord
  2
ACAD_MLEADERVER
 70
     0
  0
ENDTAB
  0
TABLE
  2
DIMSTYLE
  5
A
330
0
100
AcDbSymbolTable
 70
     1
100
AcDbDimStyleTable
  0
DIMSTYLE
105
27
330
A
100
AcDbSymbolTableRecord
100
AcDbDimStyleTableRecord
  2
ISO-25
 70
     0
 41
2.5
 42
0.625
 43
3.75
 44
1.25
 73
     0
 74
     0
 77
     1
 78
     8
140
2.5
141
2.5
143
0.03937007874016
147
0.625
171
     3
172
     1
178
     0
271
     2
272
     2
274
     3
278
    44
283
     0
284
     8
340
11
  0
ENDTAB
  0
TABLE
  2
BLOCK_RECORD
  5
1
330
0
100
AcDbSymbolTable
 70
     1
  0
BLOCK_RECORD
  5
1F
330
1
100
AcDbSymbolTableRecord
100
AcDbBlockTableRecord
  2
*Model_Space
340
22
  0
BLOCK_RECORD
  5
1B
330
1
100
AcDbSymbolTableRecord
100
AcDbBlockTableRecord
  2
*Paper_Space
340
1E
  0
BLOCK_RECORD
  5
23
330
1
100
AcDbSymbolTableRecord
100
AcDbBlockTableRecord
  2
*Paper_Space0
340
26
  0
ENDTAB
  0
ENDSEC
  0
SECTION
  2
BLOCKS
  0
BLOCK
  5
20
330
1F
100
AcDbEntity
  8
0
100
AcDbBlockBegin
  2
*Model_Space
 70
     0
 10
0.0
 20
0.0
 30
0.0
  3
*Model_Space
  1

  0
ENDBLK
  5
21
330
1F
100
AcDbEntity
  8
0
100
AcDbBlockEnd
  0
BLOCK
  5
1C
330
1B
100
AcDbEntity
 67
     1
  8
0
100
AcDbBlockBegin
  2
*Paper_Space
 70
     0
 10
0.0
 20
0.0
 30
0.0
  3
*Paper_Space
  1

  0
ENDBLK
  5
1D
330
1B
100
AcDbEntity
 67
     1
  8
0
100
AcDbBlockEnd
  0
BLOCK
  5
24
330
23
100
AcDbEntity
  8
0
100
AcDbBlockBegin
  2
*Paper_Space0
 70
     0
 10
0.0
 20
0.0
 30
0.0
  3
*Paper_Space0
  1

  0
ENDBLK
  5
25
330
23
100
AcDbEntity
  8
0
100
AcDbBlockEnd
  0
ENDSEC
  0
SECTION
  2
ENTITIES
  0
LWPOLYLINE
  5
76
330
1F
100
AcDbEntity
  8
B-4_寸法
  6
Continuous
 62
     7
370
     9
100
AcDbPolyline
 90
        4
 70
     1
 43
1.2
 10
-686.9691016944679
 20
-116.8953659648659
 42
0.4142135623731
 10
-687.5691016944679
 20
-116.2953659648659
 42
0.4142135623731
 10
-688.1691016944678
 20
-116.8953659648659
 42
0.4142135623731
 10
-687.5691016944679
 20
-117.4953659648659
 42
0.4142135623731
  0
LWPOLYLINE
  5
77
330
1F
100
AcDbEntity
  8
B-4_寸法
  6
Continuous
 62
     7
370
     9
100
AcDbPolyline
 90
        4
 70
     1
 43
1.2
 10
-79.9691280880489
 20
-116.8953659648659
 42
0.4142135623731
 10
-80.5691280880489
 20
-116.2953659648659
 42
0.4142135623731
 10
-81.1691280880489
 20
-116.8953659648659
 42
0.4142135623731
 10
-80.5691280880489
 20
-117.4953659648659
 42
0.4142135623731
  0
LWPOLYLINE
  5
78
330
1F
100
AcDbEntity
  8
B-4_寸法
  6
Continuous
 62
     7
370
     9
100
AcDbPolyline
 90
        4
 70
     1
 43
1.2
 10
-259.9695734797297
 20
571.4078896833605
 42
0.4142135623731
 10
-260.5695734797297
 20
572.0078896833604
 42
0.4142135623731
 10
-261.1695734797297
 20
571.4078896833605
 42
0.4142135623731
 10
-260.5695734797297
 20
570.8078896833605
 42
0.4142135623731
  0
LWPOLYLINE
  5
79
330
1F
100
AcDbEntity
  8
B-4_寸法
  6
Continuous
 62
     7
370
     9
100
AcDbPolyline
 90
        4
 70
     1
 43
1.2
 10
-224.6699073585303
 20
571.4078896833605
 42
0.4142135623731
 10
-225.2699073585303
 20
572.0078896833604
 42
0.4142135623731
 10
-225.8699073585303
 20
571.4078896833605
 42
0.4142135623731
 10
-225.2699073585303
 20
570.8078896833605
 42
0.4142135623731
  0
LWPOLYLINE
  5
7A
330
1F
100
AcDbEntity
  8
B-4_寸法
  6
Continuous
 62
     7
370
     9
100
AcDbPolyline
 90
        4
 70
     1
 43
1.2
 10
404.3837837837837
 20
-42.04788787153826
 42
0.4142135623731
 10
403.7837837837837
 20
-41.44788787153826
 42
0.4142135623731
 10
403.1837837837838
 20
-42.04788787153826
 42
0.4142135623731
 10
403.7837837837837
 20
-42.64788787153826
 42
0.4142135623731
  0
LWPOLYLINE
  5
7B
330
1F
100
AcDbEntity
  8
B-4_寸法
  6
Continuous
 62
     7
370
     9
100
AcDbPolyline
 90
        4
 70
     1
 43
1.2
 10
404.3837837837837
 20
547.9520791364855
 42
0.4142135623731
 10
403.7837837837837
 20
548.5520791364854
 42
0.4142135623731
 10
403.1837837837838
 20
547.9520791364855
 42
0.4142135623731
 10
403.7837837837837
 20
547.3520791364855
 42
0.4142135623731
  0
LWPOLYLINE
  5
7C
330
1F
100
AcDbEntity
  8
B-4_寸法
  6
Continuous
 62
     7
370
     9
100
AcDbPolyline
 90
        4
 70
     1
 43
1.2
 10
466.8162657041809
 20
-206.0355744411645
 42
0.4142135623731
 10
466.216265704181
 20
-205.4355744411645
 42
0.4142135623731
 10
465.616265704181
 20
-206.0355744411645
 42
0.4142135623731
 10
466.216265704181
 20
-206.6355744411645
 42
0.4142135623731
  0
LWPOLYLINE
  5
7D
330
1F
100
AcDbEntity
  8
B-4_寸法
  6
Continuous
 62
     7
370
     9
100
AcDbPolyline
 90
        4
 70
     1
 43
1.2
 10
566.8160512563347
 20
-206.0355744411645
 42
0.4142135623731
 10
566.2160512563347
 20
-205.4355744411645
 42
0.4142135623731
 10
565.6160512563347
 20
-206.0355744411645
 42
0.4142135623731
 10
566.2160512563347
 20
-206.6355744411645
 42
0.4142135623731
  0
LWPOLYLINE
  5
7E
330
1F
100
AcDbEntity
  8
B-4_寸法
  6
Continuous
 62
     7
370
     9
100
AcDbPolyline
 90
        4
 70
     1
 43
1.2
 10
466.8167110958615
 20
-143.1515024724673
 42
0.4142135623731
 10
466.2167110958616
 20
-142.5515024724673
 42
0.4142135623731
 10
465.6167110958616
 20
-143.1515024724673
 42
0.4142135623731
 10
466.2167110958616
 20
-143.7515024724673
 42
0.4142135623731
  0
LWPOLYLINE
  5
7F
330
1F
100
AcDbEntity
  8
B-4_寸法
  6
Continuous
 62
     7
370
     9
100
AcDbPolyline
 90
        4
 70
     1
 43
1.2
 10
526.8163151921453
 20
-143.1515024724673
 42
0.4142135623731
 10
526.2163151921453
 20
-142.5515024724673
 42
0.4142135623731
 10
525.6163151921453
 20
-143.1515024724673
 42
0.4142135623731
 10
526.2163151921453
 20
-143.7515024724673
 42
0.4142135623731
  0
LWPOLYLINE
  5
80
330
1F
100
AcDbEntity
  8
B-4_寸法
  6
Continuous
 62
     7
370
     9
100
AcDbPolyline
 90
        4
 70
     1
 43
1.2
 10
566.8157543285474
 20
-143.1515024724673
 42
0.4142135623731
 10
566.2157543285475
 20
-142.5515024724673
 42
0.4142135623731
 10
565.6157543285476
 20
-143.1515024724673
 42
0.4142135623731
 10
566.2157543285475
 20
-143.7515024724673
 42
0.4142135623731
  0
LWPOLYLINE
  5
81
330
1F
100
AcDbEntity
  8
B-4_寸法
  6
Continuous
 62
     7
370
     9
100
AcDbPolyline
 90
        4
 70
     1
 43
1.2
 10
637.8972972972974
 20
-42.04788787153826
 42
0.4142135623731
 10
637.2972972972975
 20
-41.44788787153826
 42
0.4142135623731
 10
636.6972972972976
 20
-42.04788787153826
 42
0.4142135623731
 10
637.2972972972975
 20
-42.64788787153826
 42
0.4142135623731
  0
LWPOLYLINE
  5
82
330
1F
100
AcDbEntity
  8
B-4_寸法
  6
Continuous
 62
     7
370
     9
100
AcDbPolyline
 90
        4
 70
     1
 43
1.2
 10
637.8972972972974
 20
-35.04796375308388
 42
0.4142135623731
 10
637.2972972972975
 20
-34.44796375308388
 42
0.4142135623731
 10
636.6972972972976
 20
-35.04796375308388
 42
0.4142135623731
 10
637.2972972972975
 20
-35.64796375308389
 42
0.4142135623731
  0
LWPOLYLINE
  5
83
330
1F
100
AcDbEntity
  8
B-4_寸法
  6
Continuous
 62
     7
370
     9
100
AcDbPolyline
 90
        4
 70
     1
 43
1.2
 10
637.8972972972974
 20
4.952069238892527
 42
0.4142135623731
 10
637.2972972972975
 20
5.552069238892527
 42
0.4142135623731
 10
636.6972972972976
 20
4.952069238892527
 42
0.4142135623731
 10
637.2972972972975
 20
4.352069238892527
 42
0.4142135623731
  0
LWPOLYLINE
  5
84
330
1F
100
AcDbEntity
  8
B-4_寸法
  6
Continuous
 62
     7
370
     9
100
AcDbPolyline
 90
        4
 70
     1
 43
1.2
 10
637.8972972972974
 20
500.9522704899483
 42
0.4142135623731
 10
637.2972972972975
 20
501.5522704899482
 42
0.4142135623731
 10
636.6972972972976
 20
500.9522704899483
 42
0.4142135623731
 10
637.2972972972975
 20
500.3522704899483
 42
0.4142135623731
  0
LWPOLYLINE
  5
85
330
1F
100
AcDbEntity
  8
B-4_寸法
  6
Continuous
 62
     7
370
     9
100
AcDbPolyline
 90
        4
 70
     1
 43
1.2
 10
637.8972972972974
 20
540.9521550180311
 42
0.4142135623731
 10
637.2972972972975
 20
541.552155018031
 42
0.4142135623731
 10
636.6972972972976
 20
540.9521550180311
 42
0.4142135623731
 10
637.2972972972975
 20
540.3521550180311
 42
0.4142135623731
  0
LWPOLYLINE
  5
86
330
1F
100
AcDbEntity
  8
B-4_寸法
  6
Continuous
 62
     7
370
     9
100
AcDbPolyline
 90
        4
 70
     1
 43
1.2
 10
637.8972972972974
 20
547.9520791364855
 42
0.4142135623731
 10
637.2972972972975
 20
548.5520791364854
 42
0.4142135623731
 10
636.6972972972976
 20
547.9520791364855
 42
0.4142135623731
 10
637.2972972972975
 20
547.3520791364855
 42
0.4142135623731
  0
LINE
  5
87
330
1F
100
AcDbEntity
  8
B-2_蓋
  6
Continuous
 62
     3
370
     9
100
AcDbLine
 10
-80.5691280880489
 20
-42.04773940764466
 30
0.0
 11
-687.569027462521
 21
-42.04773940764466
 31
0.0
  0
LINE
  5
88
330
1F
100
AcDbEntity
  8
B-2_蓋
  6
Continuous
 62
     3
370
     9
100
AcDbLine
 10
-80.5691280880489
 20
-37.54794725709568
 30
0.0
 11
-687.569027462521
 21
-37.54794725709568
 31
0.0
  0
LINE
  5
89
330
1F
100
AcDbEntity
  8
B-2_蓋
  6
Continuous
 62
     3
370
     9
100
AcDbLine
 10
-687.569027462521
 20
543.4522869859364
 30
0.0
 11
-80.5691280880489
 21
543.4522869859364
 31
0.0
  0
LINE
  5
8A
330
1F
100
AcDbEntity
  8
B-2_蓋
  6
Continuous
 62
     3
370
     9
100
AcDbLine
 10
-687.569027462521
 20
547.9520791364855
 30
0.0
 11
-80.5691280880489
 21
547.9520791364855
 31
0.0
  0
LINE
  5
8B
330
1F
100
AcDbEntity
  8
B-2_蓋
  6
Continuous
 62
     3
370
     9
100
AcDbLine
 10
-680.5685837204392
 20
458.4525509217472
 30
0.0
 11
-680.5685837204392
 21
543.4522869859364
 31
0.0
  0
LINE
  5
8C
330
1F
100
AcDbEntity
  8
B-2_蓋
  6
Continuous
 62
     3
370
     9
100
AcDbLine
 10
-87.56920067039687
 20
543.4522869859364
 30
0.0
 11
-87.56920067039687
 21
458.4525509217472
 31
0.0
  0
LINE
  5
8D
330
1F
100
AcDbEntity
  8
B-2_蓋
  6
Continuous
 62
     3
370
     9
100
AcDbLine
 10
-229.0686530035895
 20
543.4522869859364
 30
0.0
 11
-229.0686530035895
 21
458.4525509217472
 31
0.0
  0
LINE
  5
8E
330
1F
100
AcDbEntity
  8
B-2_蓋
  6
Continuous
 62
     3
370
     9
100
AcDbLine
 10
-222.0686546531883
 20
543.4522869859364
 30
0.0
 11
-222.0686546531883
 21
458.4525509217472
 31
0.0
  0
LINE
  5
8F
330
1F
100
AcDbEntity
  8
B-2_蓋
  6
Continuous
 62
     3
370
     9
100
AcDbLine
 10
-264.3689129803631
 20
543.4522869859364
 30
0.0
 11
-264.3689129803631
 21
458.4525509217472
 31
0.0
  0
LINE
  5
90
330
1F
100
AcDbEntity
  8
B-2_蓋
  6
Continuous
 62
     3
370
     9
100
AcDbLine
 10
-257.3688403980152
 20
543.4522869859364
 30
0.0
 11
-257.3688403980152
 21
458.4525509217472
 31
0.0
  0
LINE
  5
91
330
1F
100
AcDbEntity
  8
B-2_蓋
  6
Continuous
 62
     3
370
     9
100
AcDbLine
 10
-299.6685048696156
 20
543.4522869859364
 30
0.0
 11
-299.6685048696156
 21
458.4525509217472
 31
0.0
  0
LINE
  5
92
330
1F
100
AcDbEntity
  8
B-2_蓋
  6
Continuous
 62
     3
370
     9
100
AcDbLine
 10
-292.6685807511612
 20
543.4522869859364
 30
0.0
 11
-292.6685807511612
 21
458.4525509217472
 31
0.0
  0
LINE
  5
93
330
1F
100
AcDbEntity
  8
B-2_蓋
  6
Continuous
 62
     3
370
     9
100
AcDbLine
 10
-334.9686906144425
 20
543.4522869859364
 30
0.0
 11
-334.9686906144425
 21
458.4525509217472
 31
0.0
  0
LINE
  5
94
330
1F
100
AcDbEntity
  8
B-2_蓋
  6
Continuous
 62
     3
370
     9
100
AcDbLine
 10
-327.9686922640414
 20
543.4522869859364
 30
0.0
 11
-327.9686922640414
 21
458.4525509217472
 31
0.0
  0
LINE
  5
95
330
1F
100
AcDbEntity
  8
B-2_蓋
  6
Continuous
 62
     3
370
     9
100
AcDbLine
 10
-370.2684309675886
 20
543.4522869859364
 30
0.0
 11
-370.2684309675886
 21
458.4525509217472
 31
0.0
  0
LINE
  5
96
330
1F
100
AcDbEntity
  8
B-2_蓋
  6
Continuous
 62
     3
370
     9
100
AcDbLine
 10
-363.2683583852406
 20
543.4522869859364
 30
0.0
 11
-363.2683583852406
 21
458.4525509217472
 31
0.0
  0
LINE
  5
97
330
1F
100
AcDbEntity
  8
B-2_蓋
  6
Continuous
 62
     3
370
     9
100
AcDbLine
 10
-405.5685424804688
 20
543.4522869859364
 30
0.0
 11
-405.5685424804688
 21
458.4525509217472
 31
0.0
  0
LINE
  5
98
330
1F
100
AcDbEntity
  8
B-2_蓋
  6
Continuous
 62
     3
370
     9
100
AcDbLine
 10
-398.5686183620144
 20
543.4522869859364
 30
0.0
 11
-398.5686183620144
 21
458.4525509217472
 31
0.0
  0
LINE
  5
99
330
1F
100
AcDbEntity
  8
B-2_蓋
  6
Continuous
 62
     3
370
     9
100
AcDbLine
 10
-440.8687282252956
 20
543.4522869859364
 30
0.0
 11
-440.8687282252956
 21
458.4525509217472
 31
0.0
  0
LINE
  5
9A
330
1F
100
AcDbEntity
  8
B-2_蓋
  6
Continuous
 62
     3
370
     9
100
AcDbLine
 10
-433.8687298748944
 20
543.4522869859364
 30
0.0
 11
-433.8687298748944
 21
458.4525509217472
 31
0.0
  0
LINE
  5
9B
330
1F
100
AcDbEntity
  8
B-2_蓋
  6
Continuous
 62
     3
370
     9
100
AcDbLine
 10
-476.1683201145481
 20
543.4522869859364
 30
0.0
 11
-476.1683201145481
 21
458.4525509217472
 31
0.0
  0
LINE
  5
9C
330
1F
100
AcDbEntity
  8
B-2_蓋
  6
Continuous
 62
     3
370
     9
100
AcDbLine
 10
-469.1683959960938
 20
543.4522869859364
 30
0.0
 11
-469.1683959960938
 21
458.4525509217472
 31
0.0
  0
LINE
  5
9D
330
1F
100
AcDbEntity
  8
B-2_蓋
  6
Continuous
 62
     3
370
     9
100
AcDbLine
 10
-511.4685800913217
 20
543.4522869859364
 30
0.0
 11
-511.4685800913217
 21
458.4525509217472
 31
0.0
  0
LINE
  5
9E
330
1F
100
AcDbEntity
  8
B-2_蓋
  6
Continuous
 62
     3
370
     9
100
AcDbLine
 10
-504.4685075089737
 20
543.4522869859364
 30
0.0
 11
-504.4685075089737
 21
458.4525509217472
 31
0.0
  0
LINE
  5
9F
330
1F
100
AcDbEntity
  8
B-2_蓋
  6
Continuous
 62
     3
370
     9
100
AcDbLine
 10
-546.7687658361485
 20
543.4522869859364
 30
0.0
 11
-546.7687658361485
 21
458.4525509217472
 31
0.0
  0
LINE
  5
A0
330
1F
100
AcDbEntity
  8
B-2_蓋
  6
Continuous
 62
     3
370
     9
100
AcDbLine
 10
-539.7687674857474
 20
543.4522869859364
 30
0.0
 11
-539.7687674857474
 21
458.4525509217472
 31
0.0
  0
LINE
  5
A1
330
1F
100
AcDbEntity
  8
B-2_蓋
  6
Continuous
 62
     3
370
     9
100
AcDbLine
 10
-582.0683577254011
 20
543.4522869859364
 30
0.0
 11
-582.0683577254011
 21
458.4525509217472
 31
0.0
  0
LINE
  5
A2
330
1F
100
AcDbEntity
  8
B-2_蓋
  6
Continuous
 62
     3
370
     9
100
AcDbLine
 10
-575.0684336069467
 20
543.4522869859364
 30
0.0
 11
-575.0684336069467
 21
458.4525509217472
 31
0.0
  0
LINE
  5
A3
330
1F
100
AcDbEntity
  8
B-2_蓋
  6
Continuous
 62
     3
370
     9
100
AcDbLine
 10
-617.3684692382812
 20
543.4522869859364
 30
0.0
 11
-617.3684692382812
 21
458.4525509217472
 31
0.0
  0
LINE
  5
A4
330
1F
100
AcDbEntity
  8
B-2_蓋
  6
Continuous
 62
     3
370
     9
100
AcDbLine
 10
-610.3685451198268
 20
543.4522869859364
 30
0.0
 11
-610.3685451198268
 21
458.4525509217472
 31
0.0
  0
LINE
  5
A5
330
1F
100
AcDbEntity
  8
B-2_蓋
  6
Continuous
 62
     3
370
     9
100
AcDbLine
 10
-652.6687292150548
 20
543.4522869859364
 30
0.0
 11
-652.6687292150548
 21
458.4525509217472
 31
0.0
  0
LINE
  5
A6
330
1F
100
AcDbEntity
  8
B-2_蓋
  6
Continuous
 62
     3
370
     9
100
AcDbLine
 10
-645.6686566327069
 20
543.4522869859364
 30
0.0
 11
-645.6686566327069
 21
458.4525509217472
 31
0.0
  0
LINE
  5
A7
330
1F
100
AcDbEntity
  8
B-2_蓋
  6
Continuous
 62
     3
370
     9
100
AcDbLine
 10
-687.569027462521
 20
258.4520148021315
 30
0.0
 11
-80.5691280880489
 21
258.4520148021315
 31
0.0
  0
LINE
  5
A8
330
1F
100
AcDbEntity
  8
B-2_蓋
  6
Continuous
 62
     3
370
     9
100
AcDbLine
 10
-687.569027462521
 20
247.4523249267092
 30
0.0
 11
-80.5691280880489
 21
247.4523249267092
 31
0.0
  0
LINE
  5
A9
330
1F
100
AcDbEntity
  8
B-2_蓋
  6
Continuous
 62
     3
370
     9
100
AcDbLine
 10
-680.5685837204392
 20
247.4526960864431
 30
0.0
 11
-645.6686566327069
 21
258.4523859618655
 31
0.0
  0
LINE
  5
AA
330
1F
100
AcDbEntity
  8
B-2_蓋
  6
Continuous
 62
     3
370
     9
100
AcDbLine
 10
-645.2685464395058
 20
247.4526960864431
 30
0.0
 11
-610.3686935837204
 21
258.4523859618655
 31
0.0
  0
LINE
  5
AB
330
1F
100
AcDbEntity
  8
B-2_蓋
  6
Continuous
 62
     3
370
     9
100
AcDbLine
 10
-609.9685833905194
 20
247.4526960864431
 30
0.0
 11
-575.0688047666807
 21
258.4523859618655
 31
0.0
  0
LINE
  5
AC
330
1F
100
AcDbEntity
  8
B-2_蓋
  6
Continuous
 62
     3
370
     9
100
AcDbLine
 10
-574.668546109586
 20
247.4526960864431
 30
0.0
 11
-539.7687674857474
 21
258.4523859618655
 31
0.0
  0
LINE
  5
AD
330
1F
100
AcDbEntity
  8
B-2_蓋
  6
Continuous
 62
     3
370
     9
100
AcDbLine
 10
-539.3685830605996
 20
247.4526960864431
 30
0.0
 11
-504.4687302048142
 21
258.4523859618655
 31
0.0
  0
LINE
  5
AE
330
1F
100
AcDbEntity
  8
B-2_蓋
  6
Continuous
 62
     3
370
     9
100
AcDbLine
 10
-504.0685457796664
 20
247.4526960864431
 30
0.0
 11
-469.1687671558277
 21
258.4523859618655
 31
0.0
  0
LINE
  5
AF
330
1F
100
AcDbEntity
  8
B-2_蓋
  6
Continuous
 62
     3
370
     9
100
AcDbLine
 10
-468.7685084987331
 20
247.4526960864431
 30
0.0
 11
-433.8687298748944
 21
258.4523859618655
 31
0.0
  0
LINE
  5
B0
330
1F
100
AcDbEntity
  8
B-2_蓋
  6
Continuous
 62
     3
370
     9
100
AcDbLine
 10
-433.4686196816934
 20
247.4526960864431
 30
0.0
 11
-398.5688410578547
 21
258.4523859618655
 31
0.0
  0
LINE
  5
B1
330
1F
100
AcDbEntity
  8
B-2_蓋
  6
Continuous
 62
     3
370
     9
100
AcDbLine
 10
-398.1685824007602
 20
247.4526960864431
 30
0.0
 11
-363.2687295449747
 21
258.4523859618655
 31
0.0
  0
LINE
  5
B2
330
1F
100
AcDbEntity
  8
B-2_蓋
  6
Continuous
 62
     3
370
     9
100
AcDbLine
 10
-362.86847088788
 20
247.4526960864431
 30
0.0
 11
-327.9686922640414
 21
258.4523859618655
 31
0.0
  0
LINE
  5
B3
330
1F
100
AcDbEntity
  8
B-2_蓋
  6
Continuous
 62
     3
370
     9
100
AcDbLine
 10
-327.5685820708403
 20
247.4526960864431
 30
0.0
 11
-292.6688034470016
 21
258.4523859618655
 31
0.0
  0
LINE
  5
B4
330
1F
100
AcDbEntity
  8
B-2_蓋
  6
Continuous
 62
     3
370
     9
100
AcDbLine
 10
-292.2686932538006
 20
247.4526960864431
 30
0.0
 11
-257.3688403980152
 21
258.4523859618655
 31
0.0
  0
LINE
  5
B5
330
1F
100
AcDbEntity
  8
B-2_蓋
  6
Continuous
 62
     3
370
     9
100
AcDbLine
 10
-256.9687302048141
 20
247.4526960864431
 30
0.0
 11
-222.0688031170819
 21
258.4523859618655
 31
0.0
  0
LINE
  5
B6
330
1F
100
AcDbEntity
  8
B-2_蓋
  6
Continuous
 62
     3
370
     9
100
AcDbLine
 10
-221.6685444599873
 20
247.4526960864431
 30
0.0
 11
-186.7687658361486
 21
258.4523859618655
 31
0.0
  0
LINE
  5
B7
330
1F
100
AcDbEntity
  8
B-2_蓋
  6
Continuous
 62
     3
370
     9
100
AcDbLine
 10
-687.569027462521
 20
256.3721841169543
 30
0.0
 11
-680.9686939136402
 21
258.4523859618655
 31
0.0
  0
LINE
  5
B8
330
1F
100
AcDbEntity
  8
B-2_蓋
  6
Continuous
 62
     3
370
     9
100
AcDbLine
 10
-687.569027462521
 20
358.4520972820724
 30
0.0
 11
-80.5691280880489
 21
358.4520972820724
 31
0.0
  0
LINE
  5
B9
330
1F
100
AcDbEntity
  8
B-2_蓋
  6
Continuous
 62
     3
370
     9
100
AcDbLine
 10
-687.569027462521
 20
347.4524074066502
 30
0.0
 11
-80.5691280880489
 21
347.4524074066502
 31
0.0
  0
LINE
  5
BA
330
1F
100
AcDbEntity
  8
B-2_蓋
  6
Continuous
 62
     3
370
     9
100
AcDbLine
 10
-680.5685837204392
 20
347.452778566384
 30
0.0
 11
-645.6686566327069
 21
358.4524684418064
 31
0.0
  0
LINE
  5
BB
330
1F
100
AcDbEntity
  8
B-2_蓋
  6
Continuous
 62
     3
370
     9
100
AcDbLine
 10
-645.2685464395058
 20
347.452778566384
 30
0.0
 11
-610.3686935837204
 21
358.4524684418064
 31
0.0
  0
LINE
  5
BC
330
1F
100
AcDbEntity
  8
B-2_蓋
  6
Continuous
 62
     3
370
     9
100
AcDbLine
 10
-609.9685833905194
 20
347.452778566384
 30
0.0
 11
-575.0688047666807
 21
358.4524684418064
 31
0.0
  0
LINE
  5
BD
330
1F
100
AcDbEntity
  8
B-2_蓋
  6
Continuous
 62
     3
370
     9
100
AcDbLine
 10
-574.668546109586
 20
347.452778566384
 30
0.0
 11
-539.7687674857474
 21
358.4524684418064
 31
0.0
  0
LINE
  5
BE
330
1F
100
AcDbEntity
  8
B-2_蓋
  6
Continuous
 62
     3
370
     9
100
AcDbLine
 10
-539.3685830605996
 20
347.452778566384
 30
0.0
 11
-504.4687302048142
 21
358.4524684418064
 31
0.0
  0
LINE
  5
BF
330
1F
100
AcDbEntity
  8
B-2_蓋
  6
Continuous
 62
     3
370
     9
100
AcDbLine
 10
-504.0685457796664
 20
347.452778566384
 30
0.0
 11
-469.1687671558277
 21
358.4524684418064
 31
0.0
  0
LINE
  5
C0
330
1F
100
AcDbEntity
  8
B-2_蓋
  6
Continuous
 62
     3
370
     9
100
AcDbLine
 10
-468.7685084987331
 20
347.452778566384
 30
0.0
 11
-433.8687298748944
 21
358.4524684418064
 31
0.0
  0
LINE
  5
C1
330
1F
100
AcDbEntity
  8
B-2_蓋
  6
Continuous
 62
     3
370
     9
100
AcDbLine
 10
-433.4686196816934
 20
347.452778566384
 30
0.0
 11
-398.5688410578547
 21
358.4524684418064
 31
0.0
  0
LINE
  5
C2
330
1F
100
AcDbEntity
  8
B-2_蓋
  6
Continuous
 62
     3
370
     9
100
AcDbLine
 10
-398.1685824007602
 20
347.452778566384
 30
0.0
 11
-363.2687295449747
 21
358.4524684418064
 31
0.0
  0
LINE
  5
C3
330
1F
100
AcDbEntity
  8
B-2_蓋
  6
Continuous
 62
     3
370
     9
100
AcDbLine
 10
-362.86847088788
 20
347.452778566384
 30
0.0
 11
-327.9686922640414
 21
358.4524684418064
 31
0.0
  0
LINE
  5
C4
330
1F
100
AcDbEntity
  8
B-2_蓋
  6
Continuous
 62
     3
370
     9
100
AcDbLine
 10
-327.5685820708403
 20
347.452778566384
 30
0.0
 11
-292.6688034470016
 21
358.4524684418064
 31
0.0
  0
LINE
  5
C5
330
1F
100
AcDbEntity
  8
B-2_蓋
  6
Continuous
 62
     3
370
     9
100
AcDbLine
 10
-292.2686932538006
 20
347.452778566384
 30
0.0
 11
-257.3688403980152
 21
358.4524684418064
 31
0.0
  0
LINE
  5
C6
330
1F
100
AcDbEntity
  8
B-2_蓋
  6
Continuous
 62
     3
370
     9
100
AcDbLine
 10
-256.9687302048141
 20
347.452778566384
 30
0.0
 11
-222.0688031170819
 21
358.4524684418064
 31
0.0
  0
LINE
  5
C7
330
1F
100
AcDbEntity
  8
B-2_蓋
  6
Continuous
 62
     3
370
     9
100
AcDbLine
 10
-221.6685444599873
 20
347.452778566384
 30
0.0
 11
-186.7687658361486
 21
358.4524684418064
 31
0.0
  0
LINE
  5
C8
330
1F
100
AcDbEntity
  8
B-2_蓋
  6
Continuous
 62
     3
370
     9
100
AcDbLine
 10
-687.569027462521
 20
356.372266596895
 30
0.0
 11
-680.9686939136402
 21
358.4524684418064
 31
0.0
  0
LINE
  5
C9
330
1F
100
AcDbEntity
  8
B-2_蓋
  6
Continuous
 62
     3
370
     9
100
AcDbLine
 10
-680.5685837204392
 20
258.4521632660252
 30
0.0
 11
-680.5685837204392
 21
347.4524074066502
 31
0.0
  0
LINE
  5
CA
330
1F
100
AcDbEntity
  8
B-2_蓋
  6
Continuous
 62
     3
370
     9
100
AcDbLine
 10
-87.56920067039687
 20
347.4524074066502
 30
0.0
 11
-87.56920067039687
 21
258.4521632660252
 31
0.0
  0
LINE
  5
CB
330
1F
100
AcDbEntity
  8
B-2_蓋
  6
Continuous
 62
     3
370
     9
100
AcDbLine
 10
-229.0686530035895
 20
347.4524074066502
 30
0.0
 11
-229.0686530035895
 21
258.4521632660252
 31
0.0
  0
LINE
  5
CC
330
1F
100
AcDbEntity
  8
B-2_蓋
  6
Continuous
 62
     3
370
     9
100
AcDbLine
 10
-222.0686546531883
 20
347.4524074066502
 30
0.0
 11
-222.0686546531883
 21
258.4521632660252
 31
0.0
  0
LINE
  5
CD
330
1F
100
AcDbEntity
  8
B-2_蓋
  6
Continuous
 62
     3
370
     9
100
AcDbLine
 10
-264.3689129803631
 20
347.4524074066502
 30
0.0
 11
-264.3689129803631
 21
258.4521632660252
 31
0.0
  0
LINE
  5
CE
330
1F
100
AcDbEntity
  8
B-2_蓋
  6
Continuous
 62
     3
370
     9
100
AcDbLine
 10
-257.3688403980152
 20
347.4524074066502
 30
0.0
 11
-257.3688403980152
 21
258.4521632660252
 31
0.0
  0
LINE
  5
CF
330
1F
100
AcDbEntity
  8
B-2_蓋
  6
Continuous
 62
     3
370
     9
100
AcDbLine
 10
-299.6685048696156
 20
347.4524074066502
 30
0.0
 11
-299.6685048696156
 21
258.4521632660252
 31
0.0
  0
LINE
  5
D0
330
1F
100
AcDbEntity
  8
B-2_蓋
  6
Continuous
 62
     3
370
     9
100
AcDbLine
 10
-292.6685807511612
 20
347.4524074066502
 30
0.0
 11
-292.6685807511612
 21
258.4521632660252
 31
0.0
  0
LINE
  5
D1
330
1F
100
AcDbEntity
  8
B-2_蓋
  6
Continuous
 62
     3
370
     9
100
AcDbLine
 10
-334.9686906144425
 20
347.4524074066502
 30
0.0
 11
-334.9686906144425
 21
258.4521632660252
 31
0.0
  0
LINE
  5
D2
330
1F
100
AcDbEntity
  8
B-2_蓋
  6
Continuous
 62
     3
370
     9
100
AcDbLine
 10
-327.9686922640414
 20
347.4524074066502
 30
0.0
 11
-327.9686922640414
 21
258.4521632660252
 31
0.0
  0
LINE
  5
D3
330
1F
100
AcDbEntity
  8
B-2_蓋
  6
Continuous
 62
     3
370
     9
100
AcDbLine
 10
-370.2684309675886
 20
347.4524074066502
 30
0.0
 11
-370.2684309675886
 21
258.4521632660252
 31
0.0
  0
LINE
  5
D4
330
1F
100
AcDbEntity
  8
B-2_蓋
  6
Continuous
 62
     3
370
     9
100
AcDbLine
 10
-363.2683583852406
 20
347.4524074066502
 30
0.0
 11
-363.2683583852406
 21
258.4521632660252
 31
0.0
  0
LINE
  5
D5
330
1F
100
AcDbEntity
  8
B-2_蓋
  6
Continuous
 62
     3
370
     9
100
AcDbLine
 10
-405.5685424804688
 20
347.4524074066502
 30
0.0
 11
-405.5685424804688
 21
258.4521632660252
 31
0.0
  0
LINE
  5
D6
330
1F
100
AcDbEntity
  8
B-2_蓋
  6
Continuous
 62
     3
370
     9
100
AcDbLine
 10
-398.5686183620144
 20
347.4524074066502
 30
0.0
 11
-398.5686183620144
 21
258.4521632660252
 31
0.0
  0
LINE
  5
D7
330
1F
100
AcDbEntity
  8
B-2_蓋
  6
Continuous
 62
     3
370
     9
100
AcDbLine
 10
-440.8687282252956
 20
347.4524074066502
 30
0.0
 11
-440.8687282252956
 21
258.4521632660252
 31
0.0
  0
LINE
  5
D8
330
1F
100
AcDbEntity
  8
B-2_蓋
  6
Continuous
 62
     3
370
     9
100
AcDbLine
 10
-433.8687298748944
 20
347.4524074066502
 30
0.0
 11
-433.8687298748944
 21
258.4521632660252
 31
0.0
  0
LINE
  5
D9
330
1F
100
AcDbEntity
  8
B-2_蓋
  6
Continuous
 62
     3
370
     9
100
AcDbLine
 10
-476.1683201145481
 20
347.4524074066502
 30
0.0
 11
-476.1683201145481
 21
258.4521632660252
 31
0.0
  0
LINE
  5
DA
330
1F
100
AcDbEntity
  8
B-2_蓋
  6
Continuous
 62
     3
370
     9
100
AcDbLine
 10
-469.1683959960938
 20
347.4524074066502
 30
0.0
 11
-469.1683959960938
 21
258.4521632660252
 31
0.0
  0
LINE
  5
DB
330
1F
100
AcDbEntity
  8
B-2_蓋
  6
Continuous
 62
     3
370
     9
100
AcDbLine
 10
-511.4685800913217
 20
347.4524074066502
 30
0.0
 11
-511.4685800913217
 21
258.4521632660252
 31
0.0
  0
LINE
  5
DC
330
1F
100
AcDbEntity
  8
B-2_蓋
  6
Continuous
 62
     3
370
     9
100
AcDbLine
 10
-504.4685075089737
 20
347.4524074066502
 30
0.0
 11
-504.4685075089737
 21
258.4521632660252
 31
0.0
  0
LINE
  5
DD
330
1F
100
AcDbEntity
  8
B-2_蓋
  6
Continuous
 62
     3
370
     9
100
AcDbLine
 10
-546.7687658361485
 20
347.4524074066502
 30
0.0
 11
-546.7687658361485
 21
258.4521632660252
 31
0.0
  0
LINE
  5
DE
330
1F
100
AcDbEntity
  8
B-2_蓋
  6
Continuous
 62
     3
370
     9
100
AcDbLine
 10
-539.7687674857474
 20
347.4524074066502
 30
0.0
 11
-539.7687674857474
 21
258.4521632660252
 31
0.0
  0
LINE
  5
DF
330
1F
100
AcDbEntity
  8
B-2_蓋
  6
Continuous
 62
     3
370
     9
100
AcDbLine
 10
-582.0683577254011
 20
347.4524074066502
 30
0.0
 11
-582.0683577254011
 21
258.4521632660252
 31
0.0
  0
LINE
  5
E0
330
1F
100
AcDbEntity
  8
B-2_蓋
  6
Continuous
 62
     3
370
     9
100
AcDbLine
 10
-575.0684336069467
 20
347.4524074066502
 30
0.0
 11
-575.0684336069467
 21
258.4521632660252
 31
0.0
  0
LINE
  5
E1
330
1F
100
AcDbEntity
  8
B-2_蓋
  6
Continuous
 62
     3
370
     9
100
AcDbLine
 10
-617.3684692382812
 20
347.4524074066502
 30
0.0
 11
-617.3684692382812
 21
258.4521632660252
 31
0.0
  0
LINE
  5
E2
330
1F
100
AcDbEntity
  8
B-2_蓋
  6
Continuous
 62
     3
370
     9
100
AcDbLine
 10
-610.3685451198268
 20
347.4524074066502
 30
0.0
 11
-610.3685451198268
 21
258.4521632660252
 31
0.0
  0
LINE
  5
E3
330
1F
100
AcDbEntity
  8
B-2_蓋
  6
Continuous
 62
     3
370
     9
100
AcDbLine
 10
-652.6687292150548
 20
347.4524074066502
 30
0.0
 11
-652.6687292150548
 21
258.4521632660252
 31
0.0
  0
LINE
  5
E4
330
1F
100
AcDbEntity
  8
B-2_蓋
  6
Continuous
 62
     3
370
     9
100
AcDbLine
 10
-645.6686566327069
 20
347.4524074066502
 30
0.0
 11
-645.6686566327069
 21
258.4521632660252
 31
0.0
  0
LINE
  5
E5
330
1F
100
AcDbEntity
  8
B-2_蓋
  6
Continuous
 62
     3
370
     9
100
AcDbLine
 10
-687.569027462521
 20
447.4523414226974
 30
0.0
 11
-80.5691280880489
 21
447.4523414226974
 31
0.0
  0
LINE
  5
E6
330
1F
100
AcDbEntity
  8
B-2_蓋
  6
Continuous
 62
     3
370
     9
100
AcDbLine
 10
-680.5685837204392
 20
447.452861046325
 30
0.0
 11
-645.6686566327069
 21
458.4525509217472
 31
0.0
  0
LINE
  5
E7
330
1F
100
AcDbEntity
  8
B-2_蓋
  6
Continuous
 62
     3
370
     9
100
AcDbLine
 10
-645.2685464395058
 20
447.452861046325
 30
0.0
 11
-610.3686935837204
 21
458.4525509217472
 31
0.0
  0
LINE
  5
E8
330
1F
100
AcDbEntity
  8
B-2_蓋
  6
Continuous
 62
     3
370
     9
100
AcDbLine
 10
-609.9685833905194
 20
447.452861046325
 30
0.0
 11
-575.0688047666807
 21
458.4525509217472
 31
0.0
  0
LINE
  5
E9
330
1F
100
AcDbEntity
  8
B-2_蓋
  6
Continuous
 62
     3
370
     9
100
AcDbLine
 10
-574.668546109586
 20
447.452861046325
 30
0.0
 11
-539.7687674857474
 21
458.4525509217472
 31
0.0
  0
LINE
  5
EA
330
1F
100
AcDbEntity
  8
B-2_蓋
  6
Continuous
 62
     3
370
     9
100
AcDbLine
 10
-539.3685830605996
 20
447.452861046325
 30
0.0
 11
-504.4687302048142
 21
458.4525509217472
 31
0.0
  0
LINE
  5
EB
330
1F
100
AcDbEntity
  8
B-2_蓋
  6
Continuous
 62
     3
370
     9
100
AcDbLine
 10
-504.0685457796664
 20
447.452861046325
 30
0.0
 11
-469.1687671558277
 21
458.4525509217472
 31
0.0
  0
LINE
  5
EC
330
1F
100
AcDbEntity
  8
B-2_蓋
  6
Continuous
 62
     3
370
     9
100
AcDbLine
 10
-468.7685084987331
 20
447.452861046325
 30
0.0
 11
-433.8687298748944
 21
458.4525509217472
 31
0.0
  0
LINE
  5
ED
330
1F
100
AcDbEntity
  8
B-2_蓋
  6
Continuous
 62
     3
370
     9
100
AcDbLine
 10
-433.4686196816934
 20
447.452861046325
 30
0.0
 11
-398.5688410578547
 21
458.4525509217472
 31
0.0
  0
LINE
  5
EE
330
1F
100
AcDbEntity
  8
B-2_蓋
  6
Continuous
 62
     3
370
     9
100
AcDbLine
 10
-398.1685824007602
 20
447.452861046325
 30
0.0
 11
-363.2687295449747
 21
458.4525509217472
 31
0.0
  0
LINE
  5
EF
330
1F
100
AcDbEntity
  8
B-2_蓋
  6
Continuous
 62
     3
370
     9
100
AcDbLine
 10
-362.86847088788
 20
447.452861046325
 30
0.0
 11
-327.9686922640414
 21
458.4525509217472
 31
0.0
  0
LINE
  5
F0
330
1F
100
AcDbEntity
  8
B-2_蓋
  6
Continuous
 62
     3
370
     9
100
AcDbLine
 10
-327.5685820708403
 20
447.452861046325
 30
0.0
 11
-292.6688034470016
 21
458.4525509217472
 31
0.0
  0
LINE
  5
F1
330
1F
100
AcDbEntity
  8
B-2_蓋
  6
Continuous
 62
     3
370
     9
100
AcDbLine
 10
-292.2686932538006
 20
447.452861046325
 30
0.0
 11
-257.3688403980152
 21
458.4525509217472
 31
0.0
  0
LINE
  5
F2
330
1F
100
AcDbEntity
  8
B-2_蓋
  6
Continuous
 62
     3
370
     9
100
AcDbLine
 10
-256.9687302048141
 20
447.452861046325
 30
0.0
 11
-222.0688031170819
 21
458.4525509217472
 31
0.0
  0
LINE
  5
F3
330
1F
100
AcDbEntity
  8
B-2_蓋
  6
Continuous
 62
     3
370
     9
100
AcDbLine
 10
-221.6685444599873
 20
447.452861046325
 30
0.0
 11
-186.7687658361486
 21
458.4525509217472
 31
0.0
  0
LINE
  5
F4
330
1F
100
AcDbEntity
  8
B-2_蓋
  6
Continuous
 62
     3
370
     9
100
AcDbLine
 10
-687.569027462521
 20
456.3723490768359
 30
0.0
 11
-680.9686939136402
 21
458.4525509217472
 31
0.0
  0
LINE
  5
F5
330
1F
100
AcDbEntity
  8
B-2_蓋
  6
Continuous
 62
     3
370
     9
100
AcDbLine
 10
-680.5685837204392
 20
358.4520972820724
 30
0.0
 11
-680.5685837204392
 21
447.4523414226974
 31
0.0
  0
LINE
  5
F6
330
1F
100
AcDbEntity
  8
B-2_蓋
  6
Continuous
 62
     3
370
     9
100
AcDbLine
 10
-87.56920067039687
 20
447.4523414226974
 30
0.0
 11
-87.56920067039687
 21
358.4520972820724
 31
0.0
  0
LINE
  5
F7
330
1F
100
AcDbEntity
  8
B-2_蓋
  6
Continuous
 62
     3
370
     9
100
AcDbLine
 10
-229.0686530035895
 20
447.4523414226974
 30
0.0
 11
-229.0686530035895
 21
358.4520972820724
 31
0.0
  0
LINE
  5
F8
330
1F
100
AcDbEntity
  8
B-2_蓋
  6
Continuous
 62
     3
370
     9
100
AcDbLine
 10
-222.0686546531883
 20
447.4523414226974
 30
0.0
 11
-222.0686546531883
 21
358.4520972820724
 31
0.0
  0
LINE
  5
F9
330
1F
100
AcDbEntity
  8
B-2_蓋
  6
Continuous
 62
     3
370
     9
100
AcDbLine
 10
-264.3689129803631
 20
447.4523414226974
 30
0.0
 11
-264.3689129803631
 21
358.4520972820724
 31
0.0
  0
LINE
  5
FA
330
1F
100
AcDbEntity
  8
B-2_蓋
  6
Continuous
 62
     3
370
     9
100
AcDbLine
 10
-257.3688403980152
 20
447.4523414226974
 30
0.0
 11
-257.3688403980152
 21
358.4520972820724
 31
0.0
  0
LINE
  5
FB
330
1F
100
AcDbEntity
  8
B-2_蓋
  6
Continuous
 62
     3
370
     9
100
AcDbLine
 10
-299.6685048696156
 20
447.4523414226974
 30
0.0
 11
-299.6685048696156
 21
358.4520972820724
 31
0.0
  0
LINE
  5
FC
330
1F
100
AcDbEntity
  8
B-2_蓋
  6
Continuous
 62
     3
370
     9
100
AcDbLine
 10
-292.6685807511612
 20
447.4523414226974
 30
0.0
 11
-292.6685807511612
 21
358.4520972820724
 31
0.0
  0
LINE
  5
FD
330
1F
100
AcDbEntity
  8
B-2_蓋
  6
Continuous
 62
     3
370
     9
100
AcDbLine
 10
-334.9686906144425
 20
447.4523414226974
 30
0.0
 11
-334.9686906144425
 21
358.4520972820724
 31
0.0
  0
LINE
  5
FE
330
1F
100
AcDbEntity
  8
B-2_蓋
  6
Continuous
 62
     3
370
     9
100
AcDbLine
 10
-327.9686922640414
 20
447.4523414226974
 30
0.0
 11
-327.9686922640414
 21
358.4520972820724
 31
0.0
  0
LINE
  5
FF
330
1F
100
AcDbEntity
  8
B-2_蓋
  6
Continuous
 62
     3
370
     9
100
AcDbLine
 10
-370.2684309675886
 20
447.4523414226974
 30
0.0
 11
-370.2684309675886
 21
358.4520972820724
 31
0.0
  0
LINE
  5
100
330
1F
100
AcDbEntity
  8
B-2_蓋
  6
Continuous
 62
     3
370
     9
100
AcDbLine
 10
-363.2683583852406
 20
447.4523414226974
 30
0.0
 11
-363.2683583852406
 21
358.4520972820724
 31
0.0
  0
LINE
  5
101
330
1F
100
AcDbEntity
  8
B-2_蓋
  6
Continuous
 62
     3
370
     9
100
AcDbLine
 10
-405.5685424804688
 20
447.4523414226974
 30
0.0
 11
-405.5685424804688
 21
358.4520972820724
 31
0.0
  0
LINE
  5
102
330
1F
100
AcDbEntity
  8
B-2_蓋
  6
Continuous
 62
     3
370
     9
100
AcDbLine
 10
-398.5686183620144
 20
447.4523414226974
 30
0.0
 11
-398.5686183620144
 21
358.4520972820724
 31
0.0
  0
LINE
  5
103
330
1F
100
AcDbEntity
  8
B-2_蓋
  6
Continuous
 62
     3
370
     9
100
AcDbLine
 10
-440.8687282252956
 20
447.4523414226974
 30
0.0
 11
-440.8687282252956
 21
358.4520972820724
 31
0.0
  0
LINE
  5
104
330
1F
100
AcDbEntity
  8
B-2_蓋
  6
Continuous
 62
     3
370
     9
100
AcDbLine
 10
-433.8687298748944
 20
447.4523414226974
 30
0.0
 11
-433.8687298748944
 21
358.4520972820724
 31
0.0
  0
LINE
  5
105
330
1F
100
AcDbEntity
  8
B-2_蓋
  6
Continuous
 62
     3
370
     9
100
AcDbLine
 10
-476.1683201145481
 20
447.4523414226974
 30
0.0
 11
-476.1683201145481
 21
358.4520972820724
 31
0.0
  0
LINE
  5
106
330
1F
100
AcDbEntity
  8
B-2_蓋
  6
Continuous
 62
     3
370
     9
100
AcDbLine
 10
-469.1683959960938
 20
447.4523414226974
 30
0.0
 11
-469.1683959960938
 21
358.4520972820724
 31
0.0
  0
LINE
  5
107
330
1F
100
AcDbEntity
  8
B-2_蓋
  6
Continuous
 62
     3
370
     9
100
AcDbLine
 10
-511.4685800913217
 20
447.4523414226974
 30
0.0
 11
-511.4685800913217
 21
358.4520972820724
 31
0.0
  0
LINE
  5
108
330
1F
100
AcDbEntity
  8
B-2_蓋
  6
Continuous
 62
     3
370
     9
100
AcDbLine
 10
-504.4685075089737
 20
447.4523414226974
 30
0.0
 11
-504.4685075089737
 21
358.4520972820724
 31
0.0
  0
LINE
  5
109
330
1F
100
AcDbEntity
  8
B-2_蓋
  6
Continuous
 62
     3
370
     9
100
AcDbLine
 10
-546.7687658361485
 20
447.4523414226974
 30
0.0
 11
-546.7687658361485
 21
358.4520972820724
 31
0.0
  0
LINE
  5
10A
330
1F
100
AcDbEntity
  8
B-2_蓋
  6
Continuous
 62
     3
370
     9
100
AcDbLine
 10
-539.7687674857474
 20
447.4523414226974
 30
0.0
 11
-539.7687674857474
 21
358.4520972820724
 31
0.0
  0
LINE
  5
10B
330
1F
100
AcDbEntity
  8
B-2_蓋
  6
Continuous
 62
     3
370
     9
100
AcDbLine
 10
-582.0683577254011
 20
447.4523414226974
 30
0.0
 11
-582.0683577254011
 21
358.4520972820724
 31
0.0
  0
LINE
  5
10C
330
1F
100
AcDbEntity
  8
B-2_蓋
  6
Continuous
 62
     3
370
     9
100
AcDbLine
 10
-575.0684336069467
 20
447.4523414226974
 30
0.0
 11
-575.0684336069467
 21
358.4520972820724
 31
0.0
  0
LINE
  5
10D
330
1F
100
AcDbEntity
  8
B-2_蓋
  6
Continuous
 62
     3
370
     9
100
AcDbLine
 10
-617.3684692382812
 20
447.4523414226974
 30
0.0
 11
-617.3684692382812
 21
358.4520972820724
 31
0.0
  0
LINE
  5
10E
330
1F
100
AcDbEntity
  8
B-2_蓋
  6
Continuous
 62
     3
370
     9
100
AcDbLine
 10
-610.3685451198268
 20
447.4523414226974
 30
0.0
 11
-610.3685451198268
 21
358.4520972820724
 31
0.0
  0
LINE
  5
10F
330
1F
100
AcDbEntity
  8
B-2_蓋
  6
Continuous
 62
     3
370
     9
100
AcDbLine
 10
-652.6687292150548
 20
447.4523414226974
 30
0.0
 11
-652.6687292150548
 21
358.4520972820724
 31
0.0
  0
LINE
  5
110
330
1F
100
AcDbEntity
  8
B-2_蓋
  6
Continuous
 62
     3
370
     9
100
AcDbLine
 10
-645.6686566327069
 20
447.4523414226974
 30
0.0
 11
-645.6686566327069
 21
358.4520972820724
 31
0.0
  0
LINE
  5
111
330
1F
100
AcDbEntity
  8
B-2_蓋
  6
Continuous
 62
     3
370
     9
100
AcDbLine
 10
521.2163481841216
 20
547.9520791364855
 30
0.0
 11
521.2163481841216
 21
543.4521385220428
 31
0.0
  0
LINE
  5
112
330
1F
100
AcDbEntity
  8
B-2_蓋
  6
Continuous
 62
     3
370
     9
100
AcDbLine
 10
477.5299567145272
 20
452.9527059840361
 30
0.0
 11
471.8731854413006
 21
447.2957120149694
 31
0.0
  0
LINE
  5
113
330
1F
100
AcDbEntity
  8
B-2_蓋
  6
Continuous
 62
     3
370
     9
100
AcDbLine
 10
471.8731854413006
 20
447.2957120149694
 30
0.0
 11
466.2164141680744
 21
452.9527059840361
 31
0.0
  0
LINE
  5
114
330
1F
100
AcDbEntity
  8
B-2_蓋
  6
Continuous
 62
     3
370
     9
100
AcDbLine
 10
466.2164141680744
 20
452.9527059840361
 30
0.0
 11
471.8731854413006
 21
458.6094772572625
 31
0.0
  0
LINE
  5
115
330
1F
100
AcDbEntity
  8
B-2_蓋
  6
Continuous
 62
     3
370
     9
100
AcDbLine
 10
471.8731854413006
 20
458.6094772572625
 30
0.0
 11
477.5299567145272
 21
452.9527059840361
 31
0.0
  0
LINE
  5
116
330
1F
100
AcDbEntity
  8
B-2_蓋
  6
Continuous
 62
     3
370
     9
100
AcDbLine
 10
466.216265704181
 20
547.9520791364855
 30
0.0
 11
521.2163481841216
 21
547.9520791364855
 31
0.0
  0
LINE
  5
117
330
1F
100
AcDbEntity
  8
B-2_蓋
  6
Continuous
 62
     3
370
     9
100
AcDbLine
 10
466.216265704181
 20
543.4521385220428
 30
0.0
 11
526.2163151921453
 21
543.4521385220428
 31
0.0
  0
LINE
  5
118
330
1F
100
AcDbEntity
  8
B-2_蓋
  6
Continuous
 62
     3
370
     9
100
AcDbLine
 10
466.216265704181
 20
547.9520791364855
 30
0.0
 11
466.216265704181
 21
-42.04788787153826
 31
0.0
  0
LINE
  5
119
330
1F
100
AcDbEntity
  8
B-2_蓋
  6
Continuous
 62
     3
370
     9
100
AcDbLine
 10
526.2163151921453
 20
543.4521385220428
 30
0.0
 11
526.2163151921453
 21
-37.54794725709568
 31
0.0
  0
LINE
  5
11A
330
1F
100
AcDbEntity
  8
B-2_蓋
  6
Continuous
 62
     3
370
     9
100
AcDbLine
 10
514.7163019953547
 20
543.4521385220428
 30
0.0
 11
514.7163019953547
 21
-37.54794725709568
 31
0.0
  0
LINE
  5
11B
330
1F
100
AcDbEntity
  8
B-2_蓋
  6
Continuous
 62
     3
370
     9
100
AcDbLine
 10
516.2162327122044
 20
543.4521385220428
 30
0.0
 11
516.2162327122044
 21
-37.54794725709568
 31
0.0
  0
LINE
  5
11C
330
1F
100
AcDbEntity
  8
B-2_蓋
  6
Continuous
 62
     3
370
     9
100
AcDbLine
 10
476.2160512563347
 20
543.4521385220428
 30
0.0
 11
476.2160512563347
 21
454.2666114422286
 31
0.0
  0
LINE
  5
11D
330
1F
100
AcDbEntity
  8
B-2_蓋
  6
Continuous
 62
     3
370
     9
100
AcDbLine
 10
477.5299567145272
 20
352.9525492721484
 30
0.0
 11
471.8731854413006
 21
347.2957037669753
 31
0.0
  0
LINE
  5
11E
330
1F
100
AcDbEntity
  8
B-2_蓋
  6
Continuous
 62
     3
370
     9
100
AcDbLine
 10
471.8731854413006
 20
347.2957037669753
 30
0.0
 11
466.2164141680744
 21
352.9525492721484
 31
0.0
  0
LINE
  5
11F
330
1F
100
AcDbEntity
  8
B-2_蓋
  6
Continuous
 62
     3
370
     9
100
AcDbLine
 10
466.2164141680744
 20
352.9525492721484
 30
0.0
 11
471.8731854413006
 21
358.6093947773215
 31
0.0
  0
LINE
  5
120
330
1F
100
AcDbEntity
  8
B-2_蓋
  6
Continuous
 62
     3
370
     9
100
AcDbLine
 10
471.8731854413006
 20
358.6093947773215
 30
0.0
 11
477.5299567145272
 21
352.9525492721484
 31
0.0
  0
LINE
  5
121
330
1F
100
AcDbEntity
  8
B-2_蓋
  6
Continuous
 62
     3
370
     9
100
AcDbLine
 10
466.2164141680744
 20
252.9526152561011
 30
0.0
 11
471.8731854413006
 21
258.6094607612742
 31
0.0
  0
LINE
  5
122
330
1F
100
AcDbEntity
  8
B-2_蓋
  6
Continuous
 62
     3
370
     9
100
AcDbLine
 10
471.8731854413006
 20
258.6094607612742
 30
0.0
 11
477.5299567145272
 21
252.9526152561011
 31
0.0
  0
LINE
  5
123
330
1F
100
AcDbEntity
  8
B-2_蓋
  6
Continuous
 62
     3
370
     9
100
AcDbLine
 10
476.2160512563347
 20
451.6388005258436
 30
0.0
 11
476.2160512563347
 21
354.2664547303409
 31
0.0
  0
LINE
  5
124
330
1F
100
AcDbEntity
  8
B-2_蓋
  6
Continuous
 62
     3
370
     9
100
AcDbLine
 10
476.2160512563347
 20
351.6387180459027
 30
0.0
 11
476.2160512563347
 21
254.2664464823469
 31
0.0
  0
LINE
  5
125
330
1F
100
AcDbEntity
  8
B-2_蓋
  6
Continuous
 62
     3
370
     9
100
AcDbLine
 10
521.2163481841216
 20
-42.04788787153826
 30
0.0
 11
521.2163481841216
 21
-37.54794725709568
 31
0.0
  0
LINE
  5
126
330
1F
100
AcDbEntity
  8
B-2_蓋
  6
Continuous
 62
     3
370
     9
100
AcDbLine
 10
466.216265704181
 20
-42.04788787153826
 30
0.0
 11
521.2163481841216
 21
-42.04788787153826
 31
0.0
  0
LINE
  5
127
330
1F
100
AcDbEntity
  8
B-2_蓋
  6
Continuous
 62
     3
370
     9
100
AcDbLine
 10
466.216265704181
 20
-37.54794725709568
 30
0.0
 11
526.2163151921453
 21
-37.54794725709568
 31
0.0
  0
LINE
  5
128
330
1F
100
AcDbEntity
  8
B-2_蓋
  6
Continuous
 62
     3
370
     9
100
AcDbLine
 10
466.2164141680744
 20
252.9523925602608
 30
0.0
 11
471.8731854413006
 21
247.2954728231408
 31
0.0
  0
LINE
  5
129
330
1F
100
AcDbEntity
  8
B-2_蓋
  6
Continuous
 62
     3
370
     9
100
AcDbLine
 10
471.8731854413006
 20
247.2954728231408
 30
0.0
 11
477.5299567145272
 21
252.9523925602608
 31
0.0
  0
LINE
  5
12A
330
1F
100
AcDbEntity
  8
B-4_寸法
  6
Continuous
 62
     7
370
     9
100
AcDbLine
 10
-363.2683583852406
 20
479.0632736439812
 30
0.0
 11
-361.6368144267314
 21
491.4562971606618
 31
0.0
  0
LINE
  5
12B
330
1F
100
AcDbEntity
  8
B-4_寸法
  6
Continuous
 62
     7
370
     9
100
AcDbLine
 10
-363.2683583852406
 20
479.0632736439812
 30
0.0
 11
-358.4847775021114
 21
490.6116860700793
 31
0.0
  0
LINE
  5
12C
330
1F
100
AcDbEntity
  8
B-4_寸法
  6
Continuous
 62
     7
370
     9
100
AcDbLine
 10
-458.4240640176309
 20
547.9520791364855
 30
0.0
 11
-456.7924458271748
 21
560.3451026531661
 31
0.0
  0
LINE
  5
12D
330
1F
100
AcDbEntity
  8
B-4_寸法
  6
Continuous
 62
     7
370
     9
100
AcDbLine
 10
-458.4240640176309
 20
547.9520791364855
 30
0.0
 11
-453.6404831345017
 21
559.5006400264771
 31
0.0
  0
LINE
  5
12E
330
1F
100
AcDbEntity
  8
B-2_蓋
  6
JWW_CENTER1
 62
     3
370
     9
100
AcDbLine
 10
440.1856458509291
 20
252.9520956324736
 30
0.0
 11
552.4691854940878
 21
252.9520956324736
 31
0.0
  0
LINE
  5
12F
330
1F
100
AcDbEntity
  8
B-4_寸法
  6
Continuous
 62
     7
370
     9
100
AcDbLine
 10
-425.5983259871198
 20
458.4520312981197
 30
0.0
 11
-423.9667820286106
 21
470.8450548148005
 31
0.0
  0
LINE
  5
130
330
1F
100
AcDbEntity
  8
B-4_寸法
  6
Continuous
 62
     7
370
     9
100
AcDbLine
 10
-425.5983259871198
 20
458.4520312981197
 30
0.0
 11
-420.8148193359375
 21
470.0004437242177
 31
0.0
  0
LINE
  5
131
330
1F
100
AcDbEntity
  8
B-2_蓋
  6
Continuous
 62
     3
370
     9
100
AcDbLine
 10
-687.569027462521
 20
-42.04773940764466
 30
0.0
 11
-687.569027462521
 21
547.9520791364855
 31
0.0
  0
LINE
  5
132
330
1F
100
AcDbEntity
  8
B-2_蓋
  6
Continuous
 62
     3
370
     9
100
AcDbLine
 10
-80.5691280880489
 20
547.9520791364855
 30
0.0
 11
-80.5691280880489
 21
-42.04773940764466
 31
0.0
  0
LINE
  5
133
330
1F
100
AcDbEntity
  8
B-2_蓋
  6
Continuous
 62
     3
370
     9
100
AcDbLine
 10
477.7161304370778
 20
543.4521385220428
 30
0.0
 11
477.7161304370778
 21
-37.54794725709568
 31
0.0
  0
LINE
  5
134
330
1F
100
AcDbEntity
  8
B-2_蓋
  6
Continuous
 62
     3
370
     9
100
AcDbLine
 10
-687.569027462521
 20
158.4520065541375
 30
0.0
 11
-80.5691280880489
 21
158.4520065541375
 31
0.0
  0
LINE
  5
135
330
1F
100
AcDbEntity
  8
B-2_蓋
  6
Continuous
 62
     3
370
     9
100
AcDbLine
 10
-687.569027462521
 20
147.4523166787152
 30
0.0
 11
-80.5691280880489
 21
147.4523166787152
 31
0.0
  0
LINE
  5
136
330
1F
100
AcDbEntity
  8
B-2_蓋
  6
Continuous
 62
     3
370
     9
100
AcDbLine
 10
-680.5685837204392
 20
147.4526878384491
 30
0.0
 11
-645.6686566327069
 21
158.4523777138714
 31
0.0
  0
LINE
  5
137
330
1F
100
AcDbEntity
  8
B-2_蓋
  6
Continuous
 62
     3
370
     9
100
AcDbLine
 10
-645.2685464395058
 20
147.4526878384491
 30
0.0
 11
-610.3686935837204
 21
158.4523777138714
 31
0.0
  0
LINE
  5
138
330
1F
100
AcDbEntity
  8
B-2_蓋
  6
Continuous
 62
     3
370
     9
100
AcDbLine
 10
-609.9685833905194
 20
147.4526878384491
 30
0.0
 11
-575.0688047666807
 21
158.4523777138714
 31
0.0
  0
LINE
  5
139
330
1F
100
AcDbEntity
  8
B-2_蓋
  6
Continuous
 62
     3
370
     9
100
AcDbLine
 10
-574.668546109586
 20
147.4526878384491
 30
0.0
 11
-539.7687674857474
 21
158.4523777138714
 31
0.0
  0
LINE
  5
13A
330
1F
100
AcDbEntity
  8
B-2_蓋
  6
Continuous
 62
     3
370
     9
100
AcDbLine
 10
-539.3685830605996
 20
147.4526878384491
 30
0.0
 11
-504.4687302048142
 21
158.4523777138714
 31
0.0
  0
LINE
  5
13B
330
1F
100
AcDbEntity
  8
B-2_蓋
  6
Continuous
 62
     3
370
     9
100
AcDbLine
 10
-504.0685457796664
 20
147.4526878384491
 30
0.0
 11
-469.1687671558277
 21
158.4523777138714
 31
0.0
  0
LINE
  5
13C
330
1F
100
AcDbEntity
  8
B-2_蓋
  6
Continuous
 62
     3
370
     9
100
AcDbLine
 10
-468.7685084987331
 20
147.4526878384491
 30
0.0
 11
-433.8687298748944
 21
158.4523777138714
 31
0.0
  0
LINE
  5
13D
330
1F
100
AcDbEntity
  8
B-2_蓋
  6
Continuous
 62
     3
370
     9
100
AcDbLine
 10
-433.4686196816934
 20
147.4526878384491
 30
0.0
 11
-398.5688410578547
 21
158.4523777138714
 31
0.0
  0
LINE
  5
13E
330
1F
100
AcDbEntity
  8
B-2_蓋
  6
Continuous
 62
     3
370
     9
100
AcDbLine
 10
-398.1685824007602
 20
147.4526878384491
 30
0.0
 11
-363.2687295449747
 21
158.4523777138714
 31
0.0
  0
LINE
  5
13F
330
1F
100
AcDbEntity
  8
B-2_蓋
  6
Continuous
 62
     3
370
     9
100
AcDbLine
 10
-362.86847088788
 20
147.4526878384491
 30
0.0
 11
-327.9686922640414
 21
158.4523777138714
 31
0.0
  0
LINE
  5
140
330
1F
100
AcDbEntity
  8
B-2_蓋
  6
Continuous
 62
     3
370
     9
100
AcDbLine
 10
-327.5685820708403
 20
147.4526878384491
 30
0.0
 11
-292.6688034470016
 21
158.4523777138714
 31
0.0
  0
LINE
  5
141
330
1F
100
AcDbEntity
  8
B-2_蓋
  6
Continuous
 62
     3
370
     9
100
AcDbLine
 10
-292.2686932538006
 20
147.4526878384491
 30
0.0
 11
-257.3688403980152
 21
158.4523777138714
 31
0.0
  0
LINE
  5
142
330
1F
100
AcDbEntity
  8
B-2_蓋
  6
Continuous
 62
     3
370
     9
100
AcDbLine
 10
-256.9687302048141
 20
147.4526878384491
 30
0.0
 11
-222.0688031170819
 21
158.4523777138714
 31
0.0
  0
LINE
  5
143
330
1F
100
AcDbEntity
  8
B-2_蓋
  6
Continuous
 62
     3
370
     9
100
AcDbLine
 10
-221.6685444599873
 20
147.4526878384491
 30
0.0
 11
-186.7687658361486
 21
158.4523777138714
 31
0.0
  0
LINE
  5
144
330
1F
100
AcDbEntity
  8
B-2_蓋
  6
Continuous
 62
     3
370
     9
100
AcDbLine
 10
-687.569027462521
 20
156.37217586896
 30
0.0
 11
-680.9686939136402
 21
158.4523777138714
 31
0.0
  0
LINE
  5
145
330
1F
100
AcDbEntity
  8
B-2_蓋
  6
Continuous
 62
     3
370
     9
100
AcDbLine
 10
466.2164141680744
 20
152.9526070081071
 30
0.0
 11
471.8731854413006
 21
158.6094525132802
 31
0.0
  0
LINE
  5
146
330
1F
100
AcDbEntity
  8
B-2_蓋
  6
Continuous
 62
     3
370
     9
100
AcDbLine
 10
471.8731854413006
 20
158.6094525132802
 30
0.0
 11
477.5299567145272
 21
152.9526070081071
 31
0.0
  0
LINE
  5
147
330
1F
100
AcDbEntity
  8
B-2_蓋
  6
Continuous
 62
     3
370
     9
100
AcDbLine
 10
466.2164141680744
 20
152.9523100803199
 30
0.0
 11
471.8731854413006
 21
147.2955388070935
 31
0.0
  0
LINE
  5
148
330
1F
100
AcDbEntity
  8
B-2_蓋
  6
Continuous
 62
     3
370
     9
100
AcDbLine
 10
471.8731854413006
 20
147.2955388070935
 30
0.0
 11
477.5299567145272
 21
152.9523100803199
 31
0.0
  0
LINE
  5
149
330
1F
100
AcDbEntity
  8
B-2_蓋
  6
Continuous
 62
     3
370
     9
100
AcDbLine
 10
-687.569027462521
 20
58.45207253809019
 30
0.0
 11
-80.5691280880489
 21
58.45207253809019
 31
0.0
  0
LINE
  5
14A
330
1F
100
AcDbEntity
  8
B-2_蓋
  6
Continuous
 62
     3
370
     9
100
AcDbLine
 10
-687.569027462521
 20
47.45238266266784
 30
0.0
 11
-80.5691280880489
 21
47.45238266266784
 31
0.0
  0
LINE
  5
14B
330
1F
100
AcDbEntity
  8
B-2_蓋
  6
Continuous
 62
     3
370
     9
100
AcDbLine
 10
-680.5685837204392
 20
47.45267959045503
 30
0.0
 11
-645.6686566327069
 21
58.45236946587737
 31
0.0
  0
LINE
  5
14C
330
1F
100
AcDbEntity
  8
B-2_蓋
  6
Continuous
 62
     3
370
     9
100
AcDbLine
 10
-645.2685464395058
 20
47.45267959045503
 30
0.0
 11
-610.3686935837204
 21
58.45236946587737
 31
0.0
  0
LINE
  5
14D
330
1F
100
AcDbEntity
  8
B-2_蓋
  6
Continuous
 62
     3
370
     9
100
AcDbLine
 10
-609.9685833905194
 20
47.45267959045503
 30
0.0
 11
-575.0688047666807
 21
58.45236946587737
 31
0.0
  0
LINE
  5
14E
330
1F
100
AcDbEntity
  8
B-2_蓋
  6
Continuous
 62
     3
370
     9
100
AcDbLine
 10
-574.668546109586
 20
47.45267959045503
 30
0.0
 11
-539.7687674857474
 21
58.45236946587737
 31
0.0
  0
LINE
  5
14F
330
1F
100
AcDbEntity
  8
B-2_蓋
  6
Continuous
 62
     3
370
     9
100
AcDbLine
 10
-539.3685830605996
 20
47.45267959045503
 30
0.0
 11
-504.4687302048142
 21
58.45236946587737
 31
0.0
  0
LINE
  5
150
330
1F
100
AcDbEntity
  8
B-2_蓋
  6
Continuous
 62
     3
370
     9
100
AcDbLine
 10
-504.0685457796664
 20
47.45267959045503
 30
0.0
 11
-469.1687671558277
 21
58.45236946587737
 31
0.0
  0
LINE
  5
151
330
1F
100
AcDbEntity
  8
B-2_蓋
  6
Continuous
 62
     3
370
     9
100
AcDbLine
 10
-468.7685084987331
 20
47.45267959045503
 30
0.0
 11
-433.8687298748944
 21
58.45236946587737
 31
0.0
  0
LINE
  5
152
330
1F
100
AcDbEntity
  8
B-2_蓋
  6
Continuous
 62
     3
370
     9
100
AcDbLine
 10
-433.4686196816934
 20
47.45267959045503
 30
0.0
 11
-398.5688410578547
 21
58.45236946587737
 31
0.0
  0
LINE
  5
153
330
1F
100
AcDbEntity
  8
B-2_蓋
  6
Continuous
 62
     3
370
     9
100
AcDbLine
 10
-398.1685824007602
 20
47.45267959045503
 30
0.0
 11
-363.2687295449747
 21
58.45236946587737
 31
0.0
  0
LINE
  5
154
330
1F
100
AcDbEntity
  8
B-2_蓋
  6
Continuous
 62
     3
370
     9
100
AcDbLine
 10
-362.86847088788
 20
47.45267959045503
 30
0.0
 11
-327.9686922640414
 21
58.45236946587737
 31
0.0
  0
LINE
  5
155
330
1F
100
AcDbEntity
  8
B-2_蓋
  6
Continuous
 62
     3
370
     9
100
AcDbLine
 10
-327.5685820708403
 20
47.45267959045503
 30
0.0
 11
-292.6688034470016
 21
58.45236946587737
 31
0.0
  0
LINE
  5
156
330
1F
100
AcDbEntity
  8
B-2_蓋
  6
Continuous
 62
     3
370
     9
100
AcDbLine
 10
-292.2686932538006
 20
47.45267959045503
 30
0.0
 11
-257.3688403980152
 21
58.45236946587737
 31
0.0
  0
LINE
  5
157
330
1F
100
AcDbEntity
  8
B-2_蓋
  6
Continuous
 62
     3
370
     9
100
AcDbLine
 10
-256.9687302048141
 20
47.45267959045503
 30
0.0
 11
-222.0688031170819
 21
58.45236946587737
 31
0.0
  0
LINE
  5
158
330
1F
100
AcDbEntity
  8
B-2_蓋
  6
Continuous
 62
     3
370
     9
100
AcDbLine
 10
-221.6685444599873
 20
47.45267959045503
 30
0.0
 11
-186.7687658361486
 21
58.45236946587737
 31
0.0
  0
LINE
  5
159
330
1F
100
AcDbEntity
  8
B-2_蓋
  6
Continuous
 62
     3
370
     9
100
AcDbLine
 10
-687.569027462521
 20
56.37216762096596
 30
0.0
 11
-680.9686939136402
 21
58.45236946587737
 31
0.0
  0
LINE
  5
15A
330
1F
100
AcDbEntity
  8
B-2_蓋
  6
Continuous
 62
     3
370
     9
100
AcDbLine
 10
466.2164141680744
 20
52.95267299205971
 30
0.0
 11
471.8731854413006
 21
58.60944426528612
 31
0.0
  0
LINE
  5
15B
330
1F
100
AcDbEntity
  8
B-2_蓋
  6
Continuous
 62
     3
370
     9
100
AcDbLine
 10
471.8731854413006
 20
58.60944426528612
 30
0.0
 11
477.5299567145272
 21
52.95267299205971
 31
0.0
  0
LINE
  5
15C
330
1F
100
AcDbEntity
  8
B-2_蓋
  6
Continuous
 62
     3
370
     9
100
AcDbLine
 10
466.2164141680744
 20
52.95237606427252
 30
0.0
 11
471.8731854413006
 21
47.2955305590994
 31
0.0
  0
LINE
  5
15D
330
1F
100
AcDbEntity
  8
B-2_蓋
  6
Continuous
 62
     3
370
     9
100
AcDbLine
 10
471.8731854413006
 20
47.2955305590994
 30
0.0
 11
477.5299567145272
 21
52.95237606427252
 31
0.0
  0
LINE
  5
15E
330
1F
100
AcDbEntity
  8
B-2_蓋
  6
Continuous
 62
     3
370
     9
100
AcDbLine
 10
-680.5685837204392
 20
158.4520065541375
 30
0.0
 11
-680.5685837204392
 21
247.4523249267092
 31
0.0
  0
LINE
  5
15F
330
1F
100
AcDbEntity
  8
B-2_蓋
  6
Continuous
 62
     3
370
     9
100
AcDbLine
 10
-511.4685800913217
 20
247.4523249267092
 30
0.0
 11
-511.4685800913217
 21
158.4520065541375
 31
0.0
  0
LINE
  5
160
330
1F
100
AcDbEntity
  8
B-2_蓋
  6
Continuous
 62
     3
370
     9
100
AcDbLine
 10
-504.4685075089737
 20
247.4523249267092
 30
0.0
 11
-504.4685075089737
 21
158.4520065541375
 31
0.0
  0
LINE
  5
161
330
1F
100
AcDbEntity
  8
B-2_蓋
  6
Continuous
 62
     3
370
     9
100
AcDbLine
 10
-546.7687658361485
 20
247.4523249267092
 30
0.0
 11
-546.7687658361485
 21
158.4520065541375
 31
0.0
  0
LINE
  5
162
330
1F
100
AcDbEntity
  8
B-2_蓋
  6
Continuous
 62
     3
370
     9
100
AcDbLine
 10
-539.7687674857474
 20
247.4523249267092
 30
0.0
 11
-539.7687674857474
 21
158.4520065541375
 31
0.0
  0
LINE
  5
163
330
1F
100
AcDbEntity
  8
B-2_蓋
  6
Continuous
 62
     3
370
     9
100
AcDbLine
 10
-582.0683577254011
 20
247.4523249267092
 30
0.0
 11
-582.0683577254011
 21
158.4520065541375
 31
0.0
  0
LINE
  5
164
330
1F
100
AcDbEntity
  8
B-2_蓋
  6
Continuous
 62
     3
370
     9
100
AcDbLine
 10
-575.0684336069467
 20
247.4523249267092
 30
0.0
 11
-575.0684336069467
 21
158.4520065541375
 31
0.0
  0
LINE
  5
165
330
1F
100
AcDbEntity
  8
B-2_蓋
  6
Continuous
 62
     3
370
     9
100
AcDbLine
 10
-617.3684692382812
 20
247.4523249267092
 30
0.0
 11
-617.3684692382812
 21
158.4520065541375
 31
0.0
  0
LINE
  5
166
330
1F
100
AcDbEntity
  8
B-2_蓋
  6
Continuous
 62
     3
370
     9
100
AcDbLine
 10
-610.3685451198268
 20
247.4523249267092
 30
0.0
 11
-610.3685451198268
 21
158.4520065541375
 31
0.0
  0
LINE
  5
167
330
1F
100
AcDbEntity
  8
B-2_蓋
  6
Continuous
 62
     3
370
     9
100
AcDbLine
 10
-652.6687292150548
 20
247.4523249267092
 30
0.0
 11
-652.6687292150548
 21
158.4520065541375
 31
0.0
  0
LINE
  5
168
330
1F
100
AcDbEntity
  8
B-2_蓋
  6
Continuous
 62
     3
370
     9
100
AcDbLine
 10
-645.6686566327069
 20
247.4523249267092
 30
0.0
 11
-645.6686566327069
 21
158.4520065541375
 31
0.0
  0
LINE
  5
169
330
1F
100
AcDbEntity
  8
B-2_蓋
  6
Continuous
 62
     3
370
     9
100
AcDbLine
 10
-229.0686530035895
 20
247.4523249267092
 30
0.0
 11
-229.0686530035895
 21
158.4520065541375
 31
0.0
  0
LINE
  5
16A
330
1F
100
AcDbEntity
  8
B-2_蓋
  6
Continuous
 62
     3
370
     9
100
AcDbLine
 10
-222.0686546531883
 20
247.4523249267092
 30
0.0
 11
-222.0686546531883
 21
158.4520065541375
 31
0.0
  0
LINE
  5
16B
330
1F
100
AcDbEntity
  8
B-2_蓋
  6
Continuous
 62
     3
370
     9
100
AcDbLine
 10
-264.3689129803631
 20
247.4523249267092
 30
0.0
 11
-264.3689129803631
 21
158.4520065541375
 31
0.0
  0
LINE
  5
16C
330
1F
100
AcDbEntity
  8
B-2_蓋
  6
Continuous
 62
     3
370
     9
100
AcDbLine
 10
-257.3688403980152
 20
247.4523249267092
 30
0.0
 11
-257.3688403980152
 21
158.4520065541375
 31
0.0
  0
LINE
  5
16D
330
1F
100
AcDbEntity
  8
B-2_蓋
  6
Continuous
 62
     3
370
     9
100
AcDbLine
 10
-299.6685048696156
 20
247.4523249267092
 30
0.0
 11
-299.6685048696156
 21
158.4520065541375
 31
0.0
  0
LINE
  5
16E
330
1F
100
AcDbEntity
  8
B-2_蓋
  6
Continuous
 62
     3
370
     9
100
AcDbLine
 10
-292.6685807511612
 20
247.4523249267092
 30
0.0
 11
-292.6685807511612
 21
158.4520065541375
 31
0.0
  0
LINE
  5
16F
330
1F
100
AcDbEntity
  8
B-2_蓋
  6
Continuous
 62
     3
370
     9
100
AcDbLine
 10
-334.9686906144425
 20
247.4523249267092
 30
0.0
 11
-334.9686906144425
 21
158.4520065541375
 31
0.0
  0
LINE
  5
170
330
1F
100
AcDbEntity
  8
B-2_蓋
  6
Continuous
 62
     3
370
     9
100
AcDbLine
 10
-327.9686922640414
 20
247.4523249267092
 30
0.0
 11
-327.9686922640414
 21
158.4520065541375
 31
0.0
  0
LINE
  5
171
330
1F
100
AcDbEntity
  8
B-2_蓋
  6
Continuous
 62
     3
370
     9
100
AcDbLine
 10
-370.2684309675886
 20
247.4523249267092
 30
0.0
 11
-370.2684309675886
 21
158.4520065541375
 31
0.0
  0
LINE
  5
172
330
1F
100
AcDbEntity
  8
B-2_蓋
  6
Continuous
 62
     3
370
     9
100
AcDbLine
 10
-363.2683583852406
 20
247.4523249267092
 30
0.0
 11
-363.2683583852406
 21
158.4520065541375
 31
0.0
  0
LINE
  5
173
330
1F
100
AcDbEntity
  8
B-2_蓋
  6
Continuous
 62
     3
370
     9
100
AcDbLine
 10
-405.5685424804688
 20
247.4523249267092
 30
0.0
 11
-405.5685424804688
 21
158.4520065541375
 31
0.0
  0
LINE
  5
174
330
1F
100
AcDbEntity
  8
B-2_蓋
  6
Continuous
 62
     3
370
     9
100
AcDbLine
 10
-398.5686183620144
 20
247.4523249267092
 30
0.0
 11
-398.5686183620144
 21
158.4520065541375
 31
0.0
  0
LINE
  5
175
330
1F
100
AcDbEntity
  8
B-2_蓋
  6
Continuous
 62
     3
370
     9
100
AcDbLine
 10
-440.8687282252956
 20
247.4523249267092
 30
0.0
 11
-440.8687282252956
 21
158.4520065541375
 31
0.0
  0
LINE
  5
176
330
1F
100
AcDbEntity
  8
B-2_蓋
  6
Continuous
 62
     3
370
     9
100
AcDbLine
 10
-433.8687298748944
 20
247.4523249267092
 30
0.0
 11
-433.8687298748944
 21
158.4520065541375
 31
0.0
  0
LINE
  5
177
330
1F
100
AcDbEntity
  8
B-2_蓋
  6
Continuous
 62
     3
370
     9
100
AcDbLine
 10
-476.1683201145481
 20
247.4523249267092
 30
0.0
 11
-476.1683201145481
 21
158.4520065541375
 31
0.0
  0
LINE
  5
178
330
1F
100
AcDbEntity
  8
B-2_蓋
  6
Continuous
 62
     3
370
     9
100
AcDbLine
 10
-469.1683959960938
 20
247.4523249267092
 30
0.0
 11
-469.1683959960938
 21
158.4520065541375
 31
0.0
  0
LINE
  5
179
330
1F
100
AcDbEntity
  8
B-2_蓋
  6
Continuous
 62
     3
370
     9
100
AcDbLine
 10
-87.56920067039687
 20
247.4523249267092
 30
0.0
 11
-87.56920067039687
 21
158.4520065541375
 31
0.0
  0
LINE
  5
17A
330
1F
100
AcDbEntity
  8
B-2_蓋
  6
Continuous
 62
     3
370
     9
100
AcDbLine
 10
-680.5685837204392
 20
-37.54794725709568
 30
0.0
 11
-680.5685837204392
 21
47.45238266266784
 31
0.0
  0
LINE
  5
17B
330
1F
100
AcDbEntity
  8
B-2_蓋
  6
Continuous
 62
     3
370
     9
100
AcDbLine
 10
-680.5685837204392
 20
58.45207253809019
 30
0.0
 11
-680.5685837204392
 21
147.4523166787152
 31
0.0
  0
LINE
  5
17C
330
1F
100
AcDbEntity
  8
B-2_蓋
  6
Continuous
 62
     3
370
     9
100
AcDbLine
 10
-511.4685800913217
 20
147.4523166787152
 30
0.0
 11
-511.4685800913217
 21
58.45207253809019
 31
0.0
  0
LINE
  5
17D
330
1F
100
AcDbEntity
  8
B-2_蓋
  6
Continuous
 62
     3
370
     9
100
AcDbLine
 10
-511.4685800913217
 20
47.45238266266784
 30
0.0
 11
-511.4685800913217
 21
-37.54794725709568
 31
0.0
  0
LINE
  5
17E
330
1F
100
AcDbEntity
  8
B-2_蓋
  6
Continuous
 62
     3
370
     9
100
AcDbLine
 10
-504.4685075089737
 20
147.4523166787152
 30
0.0
 11
-504.4685075089737
 21
58.45207253809019
 31
0.0
  0
LINE
  5
17F
330
1F
100
AcDbEntity
  8
B-2_蓋
  6
Continuous
 62
     3
370
     9
100
AcDbLine
 10
-504.4685075089737
 20
47.45238266266784
 30
0.0
 11
-504.4685075089737
 21
-37.54794725709568
 31
0.0
  0
LINE
  5
180
330
1F
100
AcDbEntity
  8
B-2_蓋
  6
Continuous
 62
     3
370
     9
100
AcDbLine
 10
-546.7687658361485
 20
147.4523166787152
 30
0.0
 11
-546.7687658361485
 21
58.45207253809019
 31
0.0
  0
LINE
  5
181
330
1F
100
AcDbEntity
  8
B-2_蓋
  6
Continuous
 62
     3
370
     9
100
AcDbLine
 10
-546.7687658361485
 20
47.45238266266784
 30
0.0
 11
-546.7687658361485
 21
-37.54794725709568
 31
0.0
  0
LINE
  5
182
330
1F
100
AcDbEntity
  8
B-2_蓋
  6
Continuous
 62
     3
370
     9
100
AcDbLine
 10
-539.7687674857474
 20
147.4523166787152
 30
0.0
 11
-539.7687674857474
 21
58.45207253809019
 31
0.0
  0
LINE
  5
183
330
1F
100
AcDbEntity
  8
B-2_蓋
  6
Continuous
 62
     3
370
     9
100
AcDbLine
 10
-539.7687674857474
 20
47.45238266266784
 30
0.0
 11
-539.7687674857474
 21
-37.54794725709568
 31
0.0
  0
LINE
  5
184
330
1F
100
AcDbEntity
  8
B-2_蓋
  6
Continuous
 62
     3
370
     9
100
AcDbLine
 10
-582.0683577254011
 20
147.4523166787152
 30
0.0
 11
-582.0683577254011
 21
58.45207253809019
 31
0.0
  0
LINE
  5
185
330
1F
100
AcDbEntity
  8
B-2_蓋
  6
Continuous
 62
     3
370
     9
100
AcDbLine
 10
-582.0683577254011
 20
47.45238266266784
 30
0.0
 11
-582.0683577254011
 21
-37.54794725709568
 31
0.0
  0
LINE
  5
186
330
1F
100
AcDbEntity
  8
B-2_蓋
  6
Continuous
 62
     3
370
     9
100
AcDbLine
 10
-575.0684336069467
 20
147.4523166787152
 30
0.0
 11
-575.0684336069467
 21
58.45207253809019
 31
0.0
  0
LINE
  5
187
330
1F
100
AcDbEntity
  8
B-2_蓋
  6
Continuous
 62
     3
370
     9
100
AcDbLine
 10
-575.0684336069467
 20
47.45238266266784
 30
0.0
 11
-575.0684336069467
 21
-37.54794725709568
 31
0.0
  0
LINE
  5
188
330
1F
100
AcDbEntity
  8
B-2_蓋
  6
Continuous
 62
     3
370
     9
100
AcDbLine
 10
-617.3684692382812
 20
147.4523166787152
 30
0.0
 11
-617.3684692382812
 21
58.45207253809019
 31
0.0
  0
LINE
  5
189
330
1F
100
AcDbEntity
  8
B-2_蓋
  6
Continuous
 62
     3
370
     9
100
AcDbLine
 10
-617.3684692382812
 20
47.45238266266784
 30
0.0
 11
-617.3684692382812
 21
-37.54794725709568
 31
0.0
  0
LINE
  5
18A
330
1F
100
AcDbEntity
  8
B-2_蓋
  6
Continuous
 62
     3
370
     9
100
AcDbLine
 10
-610.3685451198268
 20
147.4523166787152
 30
0.0
 11
-610.3685451198268
 21
58.45207253809019
 31
0.0
  0
LINE
  5
18B
330
1F
100
AcDbEntity
  8
B-2_蓋
  6
Continuous
 62
     3
370
     9
100
AcDbLine
 10
-610.3685451198268
 20
47.45238266266784
 30
0.0
 11
-610.3685451198268
 21
-37.54794725709568
 31
0.0
  0
LINE
  5
18C
330
1F
100
AcDbEntity
  8
B-2_蓋
  6
Continuous
 62
     3
370
     9
100
AcDbLine
 10
-652.6687292150548
 20
147.4523166787152
 30
0.0
 11
-652.6687292150548
 21
58.45207253809019
 31
0.0
  0
LINE
  5
18D
330
1F
100
AcDbEntity
  8
B-2_蓋
  6
Continuous
 62
     3
370
     9
100
AcDbLine
 10
-652.6687292150548
 20
47.45238266266784
 30
0.0
 11
-652.6687292150548
 21
-37.54794725709568
 31
0.0
  0
LINE
  5
18E
330
1F
100
AcDbEntity
  8
B-2_蓋
  6
Continuous
 62
     3
370
     9
100
AcDbLine
 10
-645.6686566327069
 20
147.4523166787152
 30
0.0
 11
-645.6686566327069
 21
58.45207253809019
 31
0.0
  0
LINE
  5
18F
330
1F
100
AcDbEntity
  8
B-2_蓋
  6
Continuous
 62
     3
370
     9
100
AcDbLine
 10
-645.6686566327069
 20
47.45238266266784
 30
0.0
 11
-645.6686566327069
 21
-37.54794725709568
 31
0.0
  0
LINE
  5
190
330
1F
100
AcDbEntity
  8
B-2_蓋
  6
Continuous
 62
     3
370
     9
100
AcDbLine
 10
-229.0686530035895
 20
147.4523166787152
 30
0.0
 11
-229.0686530035895
 21
58.45207253809019
 31
0.0
  0
LINE
  5
191
330
1F
100
AcDbEntity
  8
B-2_蓋
  6
Continuous
 62
     3
370
     9
100
AcDbLine
 10
-229.0686530035895
 20
47.45238266266784
 30
0.0
 11
-229.0686530035895
 21
-37.54794725709568
 31
0.0
  0
LINE
  5
192
330
1F
100
AcDbEntity
  8
B-2_蓋
  6
Continuous
 62
     3
370
     9
100
AcDbLine
 10
-222.0686546531883
 20
147.4523166787152
 30
0.0
 11
-222.0686546531883
 21
58.45207253809019
 31
0.0
  0
LINE
  5
193
330
1F
100
AcDbEntity
  8
B-2_蓋
  6
Continuous
 62
     3
370
     9
100
AcDbLine
 10
-222.0686546531883
 20
47.45238266266784
 30
0.0
 11
-222.0686546531883
 21
-37.54794725709568
 31
0.0
  0
LINE
  5
194
330
1F
100
AcDbEntity
  8
B-2_蓋
  6
Continuous
 62
     3
370
     9
100
AcDbLine
 10
-264.3689129803631
 20
147.4523166787152
 30
0.0
 11
-264.3689129803631
 21
58.45207253809019
 31
0.0
  0
LINE
  5
195
330
1F
100
AcDbEntity
  8
B-2_蓋
  6
Continuous
 62
     3
370
     9
100
AcDbLine
 10
-264.3689129803631
 20
47.45238266266784
 30
0.0
 11
-264.3689129803631
 21
-37.54794725709568
 31
0.0
  0
LINE
  5
196
330
1F
100
AcDbEntity
  8
B-2_蓋
  6
Continuous
 62
     3
370
     9
100
AcDbLine
 10
-257.3688403980152
 20
147.4523166787152
 30
0.0
 11
-257.3688403980152
 21
58.45207253809019
 31
0.0
  0
LINE
  5
197
330
1F
100
AcDbEntity
  8
B-2_蓋
  6
Continuous
 62
     3
370
     9
100
AcDbLine
 10
-257.3688403980152
 20
47.45238266266784
 30
0.0
 11
-257.3688403980152
 21
-37.54794725709568
 31
0.0
  0
LINE
  5
198
330
1F
100
AcDbEntity
  8
B-2_蓋
  6
Continuous
 62
     3
370
     9
100
AcDbLine
 10
-299.6685048696156
 20
147.4523166787152
 30
0.0
 11
-299.6685048696156
 21
58.45207253809019
 31
0.0
  0
LINE
  5
199
330
1F
100
AcDbEntity
  8
B-2_蓋
  6
Continuous
 62
     3
370
     9
100
AcDbLine
 10
-299.6685048696156
 20
47.45238266266784
 30
0.0
 11
-299.6685048696156
 21
-37.54794725709568
 31
0.0
  0
LINE
  5
19A
330
1F
100
AcDbEntity
  8
B-2_蓋
  6
Continuous
 62
     3
370
     9
100
AcDbLine
 10
-292.6685807511612
 20
147.4523166787152
 30
0.0
 11
-292.6685807511612
 21
58.45207253809019
 31
0.0
  0
LINE
  5
19B
330
1F
100
AcDbEntity
  8
B-2_蓋
  6
Continuous
 62
     3
370
     9
100
AcDbLine
 10
-292.6685807511612
 20
47.45238266266784
 30
0.0
 11
-292.6685807511612
 21
-37.54794725709568
 31
0.0
  0
LINE
  5
19C
330
1F
100
AcDbEntity
  8
B-2_蓋
  6
Continuous
 62
     3
370
     9
100
AcDbLine
 10
-334.9686906144425
 20
147.4523166787152
 30
0.0
 11
-334.9686906144425
 21
58.45207253809019
 31
0.0
  0
LINE
  5
19D
330
1F
100
AcDbEntity
  8
B-2_蓋
  6
Continuous
 62
     3
370
     9
100
AcDbLine
 10
-334.9686906144425
 20
47.45238266266784
 30
0.0
 11
-334.9686906144425
 21
-37.54794725709568
 31
0.0
  0
LINE
  5
19E
330
1F
100
AcDbEntity
  8
B-2_蓋
  6
Continuous
 62
     3
370
     9
100
AcDbLine
 10
-327.9686922640414
 20
147.4523166787152
 30
0.0
 11
-327.9686922640414
 21
58.45207253809019
 31
0.0
  0
LINE
  5
19F
330
1F
100
AcDbEntity
  8
B-2_蓋
  6
Continuous
 62
     3
370
     9
100
AcDbLine
 10
-327.9686922640414
 20
47.45238266266784
 30
0.0
 11
-327.9686922640414
 21
-37.54794725709568
 31
0.0
  0
LINE
  5
1A0
330
1F
100
AcDbEntity
  8
B-2_蓋
  6
Continuous
 62
     3
370
     9
100
AcDbLine
 10
-370.2684309675886
 20
147.4523166787152
 30
0.0
 11
-370.2684309675886
 21
58.45207253809019
 31
0.0
  0
LINE
  5
1A1
330
1F
100
AcDbEntity
  8
B-2_蓋
  6
Continuous
 62
     3
370
     9
100
AcDbLine
 10
-370.2684309675886
 20
47.45238266266784
 30
0.0
 11
-370.2684309675886
 21
-37.54794725709568
 31
0.0
  0
LINE
  5
1A2
330
1F
100
AcDbEntity
  8
B-2_蓋
  6
Continuous
 62
     3
370
     9
100
AcDbLine
 10
-363.2683583852406
 20
147.4523166787152
 30
0.0
 11
-363.2683583852406
 21
58.45207253809019
 31
0.0
  0
LINE
  5
1A3
330
1F
100
AcDbEntity
  8
B-2_蓋
  6
Continuous
 62
     3
370
     9
100
AcDbLine
 10
-363.2683583852406
 20
47.45238266266784
 30
0.0
 11
-363.2683583852406
 21
-37.54794725709568
 31
0.0
  0
LINE
  5
1A4
330
1F
100
AcDbEntity
  8
B-2_蓋
  6
Continuous
 62
     3
370
     9
100
AcDbLine
 10
-405.5685424804688
 20
147.4523166787152
 30
0.0
 11
-405.5685424804688
 21
58.45207253809019
 31
0.0
  0
LINE
  5
1A5
330
1F
100
AcDbEntity
  8
B-2_蓋
  6
Continuous
 62
     3
370
     9
100
AcDbLine
 10
-405.5685424804688
 20
47.45238266266784
 30
0.0
 11
-405.5685424804688
 21
-37.54794725709568
 31
0.0
  0
LINE
  5
1A6
330
1F
100
AcDbEntity
  8
B-2_蓋
  6
Continuous
 62
     3
370
     9
100
AcDbLine
 10
-398.5686183620144
 20
147.4523166787152
 30
0.0
 11
-398.5686183620144
 21
58.45207253809019
 31
0.0
  0
LINE
  5
1A7
330
1F
100
AcDbEntity
  8
B-2_蓋
  6
Continuous
 62
     3
370
     9
100
AcDbLine
 10
-398.5686183620144
 20
47.45238266266784
 30
0.0
 11
-398.5686183620144
 21
-37.54794725709568
 31
0.0
  0
LINE
  5
1A8
330
1F
100
AcDbEntity
  8
B-2_蓋
  6
Continuous
 62
     3
370
     9
100
AcDbLine
 10
-440.8687282252956
 20
147.4523166787152
 30
0.0
 11
-440.8687282252956
 21
58.45207253809019
 31
0.0
  0
LINE
  5
1A9
330
1F
100
AcDbEntity
  8
B-2_蓋
  6
Continuous
 62
     3
370
     9
100
AcDbLine
 10
-440.8687282252956
 20
47.45238266266784
 30
0.0
 11
-440.8687282252956
 21
-37.54794725709568
 31
0.0
  0
LINE
  5
1AA
330
1F
100
AcDbEntity
  8
B-2_蓋
  6
Continuous
 62
     3
370
     9
100
AcDbLine
 10
-433.8687298748944
 20
147.4523166787152
 30
0.0
 11
-433.8687298748944
 21
58.45207253809019
 31
0.0
  0
LINE
  5
1AB
330
1F
100
AcDbEntity
  8
B-2_蓋
  6
Continuous
 62
     3
370
     9
100
AcDbLine
 10
-433.8687298748944
 20
47.45238266266784
 30
0.0
 11
-433.8687298748944
 21
-37.54794725709568
 31
0.0
  0
LINE
  5
1AC
330
1F
100
AcDbEntity
  8
B-2_蓋
  6
Continuous
 62
     3
370
     9
100
AcDbLine
 10
-476.1683201145481
 20
147.4523166787152
 30
0.0
 11
-476.1683201145481
 21
58.45207253809019
 31
0.0
  0
LINE
  5
1AD
330
1F
100
AcDbEntity
  8
B-2_蓋
  6
Continuous
 62
     3
370
     9
100
AcDbLine
 10
-476.1683201145481
 20
47.45238266266784
 30
0.0
 11
-476.1683201145481
 21
-37.54794725709568
 31
0.0
  0
LINE
  5
1AE
330
1F
100
AcDbEntity
  8
B-2_蓋
  6
Continuous
 62
     3
370
     9
100
AcDbLine
 10
-469.1683959960938
 20
147.4523166787152
 30
0.0
 11
-469.1683959960938
 21
58.45207253809019
 31
0.0
  0
LINE
  5
1AF
330
1F
100
AcDbEntity
  8
B-2_蓋
  6
Continuous
 62
     3
370
     9
100
AcDbLine
 10
-469.1683959960938
 20
47.45238266266784
 30
0.0
 11
-469.1683959960938
 21
-37.54794725709568
 31
0.0
  0
LINE
  5
1B0
330
1F
100
AcDbEntity
  8
B-2_蓋
  6
Continuous
 62
     3
370
     9
100
AcDbLine
 10
-87.56920067039687
 20
147.4523166787152
 30
0.0
 11
-87.56920067039687
 21
58.45207253809019
 31
0.0
  0
LINE
  5
1B1
330
1F
100
AcDbEntity
  8
B-2_蓋
  6
Continuous
 62
     3
370
     9
100
AcDbLine
 10
-87.56920067039687
 20
47.45238266266784
 30
0.0
 11
-87.56920067039687
 21
-37.54794725709568
 31
0.0
  0
LINE
  5
1B2
330
1F
100
AcDbEntity
  8
B-2_蓋
  6
Continuous
 62
     3
370
     9
100
AcDbLine
 10
476.2160512563347
 20
-37.54794725709568
 30
0.0
 11
476.2160512563347
 21
51.63847060608003
 31
0.0
  0
LINE
  5
1B3
330
1F
100
AcDbEntity
  8
B-2_蓋
  6
Continuous
 62
     3
370
     9
100
AcDbLine
 10
476.2160512563347
 20
54.26657845025237
 30
0.0
 11
476.2160512563347
 21
151.6384788540741
 31
0.0
  0
LINE
  5
1B4
330
1F
100
AcDbEntity
  8
B-2_蓋
  6
Continuous
 62
     3
370
     9
100
AcDbLine
 10
476.2160512563347
 20
154.2665124662996
 30
0.0
 11
476.2160512563347
 21
251.6384871020681
 31
0.0
  0
LINE
  5
1B5
330
1F
100
AcDbEntity
  8
B-4_寸法
  6
Continuous
 62
     7
370
     9
100
AcDbLine
 10
-458.4240640176309
 20
547.9520791364855
 30
0.0
 11
-401.9939030827701
 21
758.5521207063756
 31
0.0
  0
LINE
  5
1B6
330
1F
100
AcDbEntity
  8
B-2_蓋
  6
Continuous
 62
     3
370
     9
100
AcDbLine
 10
-687.569027462521
 20
458.4521055300665
 30
0.0
 11
-80.5691280880489
 21
458.4521055300665
 31
0.0
  0
LINE
  5
1B7
330
1F
100
AcDbEntity
  8
B-4_寸法
  6
Continuous
 62
     7
370
     9
100
AcDbLine
 10
-687.5691016944679
 20
-116.8953659648659
 30
0.0
 11
-80.5691280880489
 21
-116.8953659648659
 31
0.0
  0
LINE
  5
1B8
330
1F
100
AcDbEntity
  8
B-4_寸法
  6
Continuous
 62
     7
370
     9
100
AcDbLine
 10
-687.569027462521
 20
-51.04776910042342
 30
0.0
 11
-687.5691016944679
 21
-118.6953422106429
 31
0.0
  0
LINE
  5
1B9
330
1F
100
AcDbEntity
  8
B-4_寸法
  6
Continuous
 62
     7
370
     9
100
AcDbLine
 10
-80.5691280880489
 20
-51.04776910042342
 30
0.0
 11
-80.5691280880489
 21
-118.6953422106429
 31
0.0
  0
LINE
  5
1BA
330
1F
100
AcDbEntity
  8
B-4_寸法
  6
Continuous
 62
     7
370
     9
100
AcDbLine
 10
-260.5695734797297
 20
571.4078896833605
 30
0.0
 11
-225.2699073585303
 21
571.4078896833605
 31
0.0
  0
LINE
  5
1BB
330
1F
100
AcDbEntity
  8
B-4_寸法
  6
Continuous
 62
     7
370
     9
100
AcDbLine
 10
-260.5695734797297
 20
524.7691452260125
 30
0.0
 11
-260.5695734797297
 21
573.2078659291375
 31
0.0
  0
LINE
  5
1BC
330
1F
100
AcDbEntity
  8
B-4_寸法
  6
Continuous
 62
     7
370
     9
100
AcDbLine
 10
-225.2699073585303
 20
524.7691452260125
 30
0.0
 11
-225.2699073585303
 21
573.2078659291375
 31
0.0
  0
LINE
  5
1BD
330
1F
100
AcDbEntity
  8
B-4_寸法
  6
Continuous
 62
     7
370
     9
100
AcDbLine
 10
403.7837837837837
 20
-42.04788787153826
 30
0.0
 11
403.7837837837837
 21
547.9520791364855
 31
0.0
  0
LINE
  5
1BE
330
1F
100
AcDbEntity
  8
B-4_寸法
  6
Continuous
 62
     7
370
     9
100
AcDbLine
 10
457.2162360114022
 20
-42.04788787153826
 30
0.0
 11
401.9838075380069
 21
-42.04788787153826
 31
0.0
  0
LINE
  5
1BF
330
1F
100
AcDbEntity
  8
B-4_寸法
  6
Continuous
 62
     7
370
     9
100
AcDbLine
 10
457.2162360114022
 20
547.9520791364855
 30
0.0
 11
401.9838075380069
 21
547.9520791364855
 31
0.0
  0
LINE
  5
1C0
330
1F
100
AcDbEntity
  8
B-4_寸法
  6
Continuous
 62
     7
370
     9
100
AcDbLine
 10
-309.8156408361486
 20
678.552054722423
 30
0.0
 11
-33.61638249577703
 21
678.552054722423
 31
0.0
  0
LINE
  5
1C1
330
1F
100
AcDbEntity
  8
B-4_寸法
  6
Continuous
 62
     7
370
     9
100
AcDbLine
 10
-401.9939030827701
 20
758.5521207063756
 30
0.0
 11
-127.9246562236064
 21
758.5521207063756
 31
0.0
  0
LINE
  5
1C2
330
1F
100
AcDbEntity
  8
B-4_寸法
  6
Continuous
 62
     7
370
     9
100
AcDbLine
 10
-355.9047719594594
 20
718.5520877143992
 30
0.0
 11
-132.9010917044973
 21
718.5520877143992
 31
0.0
  0
LINE
  5
1C3
330
1F
100
AcDbEntity
  8
B-4_寸法
  6
Continuous
 62
     7
370
     9
100
AcDbLine
 10
-425.5983259871198
 20
458.4521055300665
 30
0.0
 11
-355.9047719594594
 21
718.5520877143992
 31
0.0
  0
LINE
  5
1C4
330
1F
100
AcDbEntity
  8
B-4_寸法
  6
Continuous
 62
     7
370
     9
100
AcDbLine
 10
-363.2683583852406
 20
479.0632736439812
 30
0.0
 11
-309.8156408361486
 21
678.552054722423
 31
0.0
  0
LINE
  5
1C5
330
1F
100
AcDbEntity
  8
B-1_ピット
  6
Continuous
 62
     2
370
     9
100
AcDbLine
 10
559.8160697318413
 20
500.9521220260547
 30
0.0
 11
532.6162967166388
 21
500.9521220260547
 31
0.0
  0
LINE
  5
1C6
330
1F
100
AcDbEntity
  8
B-1_ピット
  6
Continuous
 62
     2
370
     9
100
AcDbLine
 10
526.2163151921453
 20
507.3522520144415
 30
0.0
 11
526.2163151921453
 21
534.5521734935378
 31
0.0
  0
LINE
  5
1C7
330
1F
100
AcDbEntity
  8
B-1_ピット
  6
Continuous
 62
     2
370
     9
100
AcDbLine
 10
559.8160697318413
 20
537.7521642557844
 30
0.0
 11
532.616148252745
 21
537.7521642557844
 31
0.0
  0
LINE
  5
1C8
330
1F
100
AcDbEntity
  8
B-1_ピット
  6
Continuous
 62
     2
370
     9
100
AcDbLine
 10
563.0162089579816
 20
507.3522520144415
 30
0.0
 11
563.0162089579816
 21
534.5520250296443
 31
0.0
  0
LINE
  5
1C9
330
1F
100
AcDbEntity
  8
B-1_ピット
  6
Continuous
 62
     2
370
     9
100
AcDbLine
 10
559.8160697318413
 20
540.9521550180311
 30
0.0
 11
532.6162967166388
 21
540.9521550180311
 31
0.0
  0
LINE
  5
1CA
330
1F
100
AcDbEntity
  8
B-1_ピット
  6
Continuous
 62
     2
370
     9
100
AcDbLine
 10
566.2160512563347
 20
507.3522520144415
 30
0.0
 11
566.2160512563347
 21
534.5521734935378
 31
0.0
  0
LINE
  5
1CB
330
1F
100
AcDbEntity
  8
B-1_ピット
  6
Continuous
 62
     2
370
     9
100
AcDbLine
 10
532.6162967166388
 20
504.1522612521949
 30
0.0
 11
559.8160697318413
 21
504.1522612521949
 31
0.0
  0
LINE
  5
1CC
330
1F
100
AcDbEntity
  8
B-1_ピット
  6
Continuous
 62
     2
370
     9
100
AcDbLine
 10
529.4163059543919
 20
507.3522520144415
 30
0.0
 11
529.4163059543919
 21
534.5520250296443
 31
0.0
  0
LINE
  5
1CD
330
1F
100
AcDbEntity
  8
B-1_ピット
  6
Continuous
 62
     2
370
     9
100
AcDbLine
 10
559.8160697318413
 20
4.952069238892527
 30
0.0
 11
532.6162967166388
 21
4.952069238892527
 31
0.0
  0
LINE
  5
1CE
330
1F
100
AcDbEntity
  8
B-1_ピット
  6
Continuous
 62
     2
370
     9
100
AcDbLine
 10
526.2163151921453
 20
-1.448060749494353
 30
0.0
 11
526.2163151921453
 21
-28.6479822285906
 31
0.0
  0
LINE
  5
1CF
330
1F
100
AcDbEntity
  8
B-1_ピット
  6
Continuous
 62
     2
370
     9
100
AcDbLine
 10
559.8160697318413
 20
-31.84797299083724
 30
0.0
 11
532.616148252745
 21
-31.84797299083724
 31
0.0
  0
LINE
  5
1D0
330
1F
100
AcDbEntity
  8
B-1_ピット
  6
Continuous
 62
     2
370
     9
100
AcDbLine
 10
563.0162089579816
 20
-1.448060749494353
 30
0.0
 11
563.0162089579816
 21
-28.647833764697
 31
0.0
  0
LINE
  5
1D1
330
1F
100
AcDbEntity
  8
B-1_ピット
  6
Continuous
 62
     2
370
     9
100
AcDbLine
 10
559.8160697318413
 20
-35.04796375308388
 30
0.0
 11
532.6162967166388
 21
-35.04796375308388
 31
0.0
  0
LINE
  5
1D2
330
1F
100
AcDbEntity
  8
B-1_ピット
  6
Continuous
 62
     2
370
     9
100
AcDbLine
 10
566.2160512563347
 20
-1.448060749494353
 30
0.0
 11
566.2160512563347
 21
-28.6479822285906
 31
0.0
  0
LINE
  5
1D3
330
1F
100
AcDbEntity
  8
B-1_ピット
  6
Continuous
 62
     2
370
     9
100
AcDbLine
 10
532.6162967166388
 20
1.75193001275229
 30
0.0
 11
559.8160697318413
 21
1.75193001275229
 31
0.0
  0
LINE
  5
1D4
330
1F
100
AcDbEntity
  8
B-1_ピット
  6
Continuous
 62
     2
370
     9
100
AcDbLine
 10
529.4163059543919
 20
-1.448060749494353
 30
0.0
 11
529.4163059543919
 21
-28.647833764697
 31
0.0
  0
LINE
  5
1D5
330
1F
100
AcDbEntity
  8
B-4_寸法
  6
Continuous
 62
     7
370
     9
100
AcDbLine
 10
466.216265704181
 20
-206.0355744411645
 30
0.0
 11
566.2160512563347
 21
-206.0355744411645
 31
0.0
  0
LINE
  5
1D6
330
1F
100
AcDbEntity
  8
B-4_寸法
  6
Continuous
 62
     7
370
     9
100
AcDbLine
 10
466.216265704181
 20
-51.04791756431693
 30
0.0
 11
466.216265704181
 21
-207.8355878029149
 31
0.0
  0
LINE
  5
1D7
330
1F
100
AcDbEntity
  8
B-4_寸法
  6
Continuous
 62
     7
370
     9
100
AcDbLine
 10
566.2160512563347
 20
-37.64801192136935
 30
0.0
 11
566.2160512563347
 21
-207.8355878029149
 31
0.0
  0
LINE
  5
1D8
330
1F
100
AcDbEntity
  8
B-4_寸法
  6
Continuous
 62
     7
370
     9
100
AcDbLine
 10
466.2167110958616
 20
-143.1515024724673
 30
0.0
 11
526.2163151921453
 21
-143.1515024724673
 31
0.0
  0
LINE
  5
1D9
330
1F
100
AcDbEntity
  8
B-4_寸法
  6
Continuous
 62
     7
370
     9
100
AcDbLine
 10
466.2167110958616
 20
-152.1514950492726
 30
0.0
 11
466.2167110958616
 21
-144.9515158342177
 31
0.0
  0
LINE
  5
1DA
330
1F
100
AcDbEntity
  8
B-4_寸法
  6
Continuous
 62
     7
370
     9
100
AcDbLine
 10
526.2163151921453
 20
-46.54797694987435
 30
0.0
 11
526.2163151921453
 21
-144.9515158342177
 31
0.0
  0
LINE
  5
1DB
330
1F
100
AcDbEntity
  8
B-4_寸法
  6
Continuous
 62
     7
370
     9
100
AcDbLine
 10
526.2163151921453
 20
-143.1515024724673
 30
0.0
 11
566.2157543285475
 21
-143.1515024724673
 31
0.0
  0
LINE
  5
1DC
330
1F
100
AcDbEntity
  8
B-4_寸法
  6
Continuous
 62
     7
370
     9
100
AcDbLine
 10
566.2157543285475
 20
-152.1514950492726
 30
0.0
 11
566.2157543285475
 21
-144.9515158342177
 31
0.0
  0
LINE
  5
1DD
330
1F
100
AcDbEntity
  8
B-4_寸法
  6
Continuous
 62
     7
370
     9
100
AcDbLine
 10
637.2972972972975
 20
-65.92310891777981
 30
0.0
 11
637.2972972972975
 21
-35.04796375308388
 31
0.0
  0
LINE
  5
1DE
330
1F
100
AcDbEntity
  8
B-4_寸法
  6
Continuous
 62
     7
370
     9
100
AcDbLine
 10
530.2163778769003
 20
-42.04788787153826
 30
0.0
 11
639.0972735430744
 21
-42.04788787153826
 31
0.0
  0
LINE
  5
1DF
330
1F
100
AcDbEntity
  8
B-4_寸法
  6
Continuous
 62
     7
370
     9
100
AcDbLine
 10
568.81609942462
 20
-35.04796375308388
 30
0.0
 11
639.0972735430744
 21
-35.04796375308388
 31
0.0
  0
LINE
  5
1E0
330
1F
100
AcDbEntity
  8
B-4_寸法
  6
Continuous
 62
     7
370
     9
100
AcDbLine
 10
637.2972972972975
 20
-35.04796375308388
 30
0.0
 11
637.2972972972975
 21
4.952069238892527
 31
0.0
  0
LINE
  5
1E1
330
1F
100
AcDbEntity
  8
B-4_寸法
  6
Continuous
 62
     7
370
     9
100
AcDbLine
 10
568.81609942462
 20
4.952069238892527
 30
0.0
 11
639.0972735430744
 21
4.952069238892527
 31
0.0
  0
LINE
  5
1E2
330
1F
100
AcDbEntity
  8
B-4_寸法
  6
Continuous
 62
     7
370
     9
100
AcDbLine
 10
637.2972972972975
 20
4.952069238892527
 30
0.0
 11
637.2972972972975
 21
500.9522704899483
 31
0.0
  0
LINE
  5
1E3
330
1F
100
AcDbEntity
  8
B-4_寸法
  6
Continuous
 62
     7
370
     9
100
AcDbLine
 10
568.81609942462
 20
500.9522704899483
 30
0.0
 11
639.0972735430744
 21
500.9522704899483
 31
0.0
  0
LINE
  5
1E4
330
1F
100
AcDbEntity
  8
B-4_寸法
  6
Continuous
 62
     7
370
     9
100
AcDbLine
 10
637.2972972972975
 20
500.9522704899483
 30
0.0
 11
637.2972972972975
 21
540.9521550180311
 31
0.0
  0
LINE
  5
1E5
330
1F
100
AcDbEntity
  8
B-4_寸法
  6
Continuous
 62
     7
370
     9
100
AcDbLine
 10
568.81609942462
 20
540.9521550180311
 30
0.0
 11
639.0972735430744
 21
540.9521550180311
 31
0.0
  0
LINE
  5
1E6
330
1F
100
AcDbEntity
  8
B-4_寸法
  6
Continuous
 62
     7
370
     9
100
AcDbLine
 10
637.2972972972975
 20
540.9521550180311
 30
0.0
 11
637.2972972972975
 21
571.1912808626256
 31
0.0
  0
LINE
  5
1E7
330
1F
100
AcDbEntity
  8
B-4_寸法
  6
Continuous
 62
     7
370
     9
100
AcDbLine
 10
530.2163778769003
 20
547.9520791364855
 30
0.0
 11
639.0972735430744
 21
547.9520791364855
 31
0.0
  0
LINE
  5
1E8
330
1F
100
AcDbEntity
  8
B-4_寸法
  6
Continuous
 62
     7
370
     9
100
AcDbLine
 10
576.7128939241978
 20
663.4118553189178
 30
0.0
 11
931.6747716955238
 21
663.4118553189178
 31
0.0
  0
LINE
  5
1E9
330
1F
100
AcDbEntity
  8
B-4_寸法
  6
Continuous
 62
     7
370
     9
100
AcDbLine
 10
576.7128939241978
 20
663.4118553189178
 30
0.0
 11
547.9557346653294
 21
540.9521550180311
 31
0.0
  0
LINE
  5
1EA
330
1F
100
AcDbEntity
  8
B-4_寸法
  6
Continuous
 62
     7
370
     9
100
AcDbLine
 10
547.9557346653294
 20
540.9521550180311
 30
0.0
 11
549.4495783625422
 21
555.8775271675242
 31
0.0
  0
LINE
  5
1EB
330
1F
100
AcDbEntity
  8
B-4_寸法
  6
Continuous
 62
     7
370
     9
100
AcDbLine
 10
547.9557346653294
 20
540.9521550180311
 30
0.0
 11
553.2615372941303
 21
554.9824383531239
 31
0.0
  0
LINE
  5
1EC
330
1F
100
AcDbEntity
  8
B-1_ピット
  6
JWW_DASHED1
 62
     2
370
     9
100
AcDbLine
 10
-680.5685837204392
 20
540.9521550180311
 30
0.0
 11
-680.5685837204392
 21
500.9521220260547
 31
0.0
  0
LINE
  5
1ED
330
1F
100
AcDbEntity
  8
B-1_ピット
  6
JWW_DASHED1
 62
     2
370
     9
100
AcDbLine
 10
-87.56920067039687
 20
540.9521550180311
 30
0.0
 11
-680.5685837204392
 21
540.9521550180311
 31
0.0
  0
LINE
  5
1EE
330
1F
100
AcDbEntity
  8
B-1_ピット
  6
JWW_DASHED1
 62
     2
370
     9
100
AcDbLine
 10
-87.56920067039687
 20
540.9521550180311
 30
0.0
 11
-87.56920067039687
 21
500.9521220260547
 31
0.0
  0
LINE
  5
1EF
330
1F
100
AcDbEntity
  8
B-1_ピット
  6
JWW_DASHED1
 62
     2
370
     9
100
AcDbLine
 10
-87.56920067039687
 20
500.9521220260547
 30
0.0
 11
-680.5685837204392
 21
500.9521220260547
 31
0.0
  0
LINE
  5
1F0
330
1F
100
AcDbEntity
  8
B-1_ピット
  6
JWW_DASHED1
 62
     2
370
     9
100
AcDbLine
 10
-680.5685837204392
 20
-35.04796375308388
 30
0.0
 11
-680.5685837204392
 21
4.952069238892527
 31
0.0
  0
LINE
  5
1F1
330
1F
100
AcDbEntity
  8
B-1_ピット
  6
JWW_DASHED1
 62
     2
370
     9
100
AcDbLine
 10
-87.56920067039687
 20
-35.04796375308388
 30
0.0
 11
-680.5685837204392
 21
-35.04796375308388
 31
0.0
  0
LINE
  5
1F2
330
1F
100
AcDbEntity
  8
B-1_ピット
  6
JWW_DASHED1
 62
     2
370
     9
100
AcDbLine
 10
-87.56920067039687
 20
-35.04796375308388
 30
0.0
 11
-87.56920067039687
 21
4.952069238892527
 31
0.0
  0
LINE
  5
1F3
330
1F
100
AcDbEntity
  8
B-1_ピット
  6
JWW_DASHED1
 62
     2
370
     9
100
AcDbLine
 10
-87.56920067039687
 20
4.952069238892527
 30
0.0
 11
-680.5685837204392
 21
4.952069238892527
 31
0.0
  0
LINE
  5
1F4
330
1F
100
AcDbEntity
  8
B-2_蓋
  6
Continuous
 62
     3
370
     9
100
AcDbLine
 10
-193.7683930268158
 20
543.4522869859364
 30
0.0
 11
-193.7683930268158
 21
458.4525509217472
 31
0.0
  0
LINE
  5
1F5
330
1F
100
AcDbEntity
  8
B-2_蓋
  6
Continuous
 62
     3
370
     9
100
AcDbLine
 10
-186.7683946764147
 20
543.4522869859364
 30
0.0
 11
-186.7683946764147
 21
458.4525509217472
 31
0.0
  0
LINE
  5
1F6
330
1F
100
AcDbEntity
  8
B-2_蓋
  6
Continuous
 62
     3
370
     9
100
AcDbLine
 10
-186.3682844832136
 20
247.4526960864431
 30
0.0
 11
-151.468505859375
 21
258.4523859618655
 31
0.0
  0
LINE
  5
1F7
330
1F
100
AcDbEntity
  8
B-2_蓋
  6
Continuous
 62
     3
370
     9
100
AcDbLine
 10
-186.3682844832136
 20
347.452778566384
 30
0.0
 11
-151.468505859375
 21
358.4524684418064
 31
0.0
  0
LINE
  5
1F8
330
1F
100
AcDbEntity
  8
B-2_蓋
  6
Continuous
 62
     3
370
     9
100
AcDbLine
 10
-193.7683930268158
 20
347.4524074066502
 30
0.0
 11
-193.7683930268158
 21
258.4521632660252
 31
0.0
  0
LINE
  5
1F9
330
1F
100
AcDbEntity
  8
B-2_蓋
  6
Continuous
 62
     3
370
     9
100
AcDbLine
 10
-186.7683946764147
 20
347.4524074066502
 30
0.0
 11
-186.7683946764147
 21
258.4521632660252
 31
0.0
  0
LINE
  5
1FA
330
1F
100
AcDbEntity
  8
B-2_蓋
  6
Continuous
 62
     3
370
     9
100
AcDbLine
 10
-186.3682844832136
 20
447.452861046325
 30
0.0
 11
-151.468505859375
 21
458.4525509217472
 31
0.0
  0
LINE
  5
1FB
330
1F
100
AcDbEntity
  8
B-2_蓋
  6
Continuous
 62
     3
370
     9
100
AcDbLine
 10
-193.7683930268158
 20
447.4523414226974
 30
0.0
 11
-193.7683930268158
 21
358.4520972820724
 31
0.0
  0
LINE
  5
1FC
330
1F
100
AcDbEntity
  8
B-2_蓋
  6
Continuous
 62
     3
370
     9
100
AcDbLine
 10
-186.7683946764147
 20
447.4523414226974
 30
0.0
 11
-186.7683946764147
 21
358.4520972820724
 31
0.0
  0
LINE
  5
1FD
330
1F
100
AcDbEntity
  8
B-2_蓋
  6
Continuous
 62
     3
370
     9
100
AcDbLine
 10
-186.3682844832136
 20
147.4526878384491
 30
0.0
 11
-151.468505859375
 21
158.4523777138714
 31
0.0
  0
LINE
  5
1FE
330
1F
100
AcDbEntity
  8
B-2_蓋
  6
Continuous
 62
     3
370
     9
100
AcDbLine
 10
-186.3682844832136
 20
47.45267959045503
 30
0.0
 11
-151.468505859375
 21
58.45236946587737
 31
0.0
  0
LINE
  5
1FF
330
1F
100
AcDbEntity
  8
B-2_蓋
  6
Continuous
 62
     3
370
     9
100
AcDbLine
 10
-193.7683930268158
 20
247.4523249267092
 30
0.0
 11
-193.7683930268158
 21
158.4520065541375
 31
0.0
  0
LINE
  5
200
330
1F
100
AcDbEntity
  8
B-2_蓋
  6
Continuous
 62
     3
370
     9
100
AcDbLine
 10
-186.7683946764147
 20
247.4523249267092
 30
0.0
 11
-186.7683946764147
 21
158.4520065541375
 31
0.0
  0
LINE
  5
201
330
1F
100
AcDbEntity
  8
B-2_蓋
  6
Continuous
 62
     3
370
     9
100
AcDbLine
 10
-193.7683930268158
 20
147.4523166787152
 30
0.0
 11
-193.7683930268158
 21
58.45207253809019
 31
0.0
  0
LINE
  5
202
330
1F
100
AcDbEntity
  8
B-2_蓋
  6
Continuous
 62
     3
370
     9
100
AcDbLine
 10
-193.7683930268158
 20
47.45238266266784
 30
0.0
 11
-193.7683930268158
 21
-37.54794725709568
 31
0.0
  0
LINE
  5
203
330
1F
100
AcDbEntity
  8
B-2_蓋
  6
Continuous
 62
     3
370
     9
100
AcDbLine
 10
-186.7683946764147
 20
147.4523166787152
 30
0.0
 11
-186.7683946764147
 21
58.45207253809019
 31
0.0
  0
LINE
  5
204
330
1F
100
AcDbEntity
  8
B-2_蓋
  6
Continuous
 62
     3
370
     9
100
AcDbLine
 10
-186.7683946764147
 20
47.45238266266784
 30
0.0
 11
-186.7683946764147
 21
-37.54794725709568
 31
0.0
  0
LINE
  5
205
330
1F
100
AcDbEntity
  8
B-2_蓋
  6
Continuous
 62
     3
370
     9
100
AcDbLine
 10
-158.4681330500422
 20
543.4522869859364
 30
0.0
 11
-158.4681330500422
 21
458.4525509217472
 31
0.0
  0
LINE
  5
206
330
1F
100
AcDbEntity
  8
B-2_蓋
  6
Continuous
 62
     3
370
     9
100
AcDbLine
 10
-151.4681346996409
 20
543.4522869859364
 30
0.0
 11
-151.4681346996409
 21
458.4525509217472
 31
0.0
  0
LINE
  5
207
330
1F
100
AcDbEntity
  8
B-2_蓋
  6
Continuous
 62
     3
370
     9
100
AcDbLine
 10
-151.06802450644
 20
247.4526960864431
 30
0.0
 11
-116.1682458826012
 21
258.4523859618655
 31
0.0
  0
LINE
  5
208
330
1F
100
AcDbEntity
  8
B-2_蓋
  6
Continuous
 62
     3
370
     9
100
AcDbLine
 10
-151.06802450644
 20
347.452778566384
 30
0.0
 11
-116.1682458826012
 21
358.4524684418064
 31
0.0
  0
LINE
  5
209
330
1F
100
AcDbEntity
  8
B-2_蓋
  6
Continuous
 62
     3
370
     9
100
AcDbLine
 10
-158.4681330500422
 20
347.4524074066502
 30
0.0
 11
-158.4681330500422
 21
258.4521632660252
 31
0.0
  0
LINE
  5
20A
330
1F
100
AcDbEntity
  8
B-2_蓋
  6
Continuous
 62
     3
370
     9
100
AcDbLine
 10
-151.4681346996409
 20
347.4524074066502
 30
0.0
 11
-151.4681346996409
 21
258.4521632660252
 31
0.0
  0
LINE
  5
20B
330
1F
100
AcDbEntity
  8
B-2_蓋
  6
Continuous
 62
     3
370
     9
100
AcDbLine
 10
-151.06802450644
 20
447.452861046325
 30
0.0
 11
-116.1682458826012
 21
458.4525509217472
 31
0.0
  0
LINE
  5
20C
330
1F
100
AcDbEntity
  8
B-2_蓋
  6
Continuous
 62
     3
370
     9
100
AcDbLine
 10
-158.4681330500422
 20
447.4523414226974
 30
0.0
 11
-158.4681330500422
 21
358.4520972820724
 31
0.0
  0
LINE
  5
20D
330
1F
100
AcDbEntity
  8
B-2_蓋
  6
Continuous
 62
     3
370
     9
100
AcDbLine
 10
-151.4681346996409
 20
447.4523414226974
 30
0.0
 11
-151.4681346996409
 21
358.4520972820724
 31
0.0
  0
LINE
  5
20E
330
1F
100
AcDbEntity
  8
B-2_蓋
  6
Continuous
 62
     3
370
     9
100
AcDbLine
 10
-151.06802450644
 20
147.4526878384491
 30
0.0
 11
-116.1682458826012
 21
158.4523777138714
 31
0.0
  0
LINE
  5
20F
330
1F
100
AcDbEntity
  8
B-2_蓋
  6
Continuous
 62
     3
370
     9
100
AcDbLine
 10
-151.06802450644
 20
47.45267959045503
 30
0.0
 11
-116.1682458826012
 21
58.45236946587737
 31
0.0
  0
LINE
  5
210
330
1F
100
AcDbEntity
  8
B-2_蓋
  6
Continuous
 62
     3
370
     9
100
AcDbLine
 10
-158.4681330500422
 20
247.4523249267092
 30
0.0
 11
-158.4681330500422
 21
158.4520065541375
 31
0.0
  0
LINE
  5
211
330
1F
100
AcDbEntity
  8
B-2_蓋
  6
Continuous
 62
     3
370
     9
100
AcDbLine
 10
-151.4681346996409
 20
247.4523249267092
 30
0.0
 11
-151.4681346996409
 21
158.4520065541375
 31
0.0
  0
LINE
  5
212
330
1F
100
AcDbEntity
  8
B-2_蓋
  6
Continuous
 62
     3
370
     9
100
AcDbLine
 10
-158.4681330500422
 20
147.4523166787152
 30
0.0
 11
-158.4681330500422
 21
58.45207253809019
 31
0.0
  0
LINE
  5
213
330
1F
100
AcDbEntity
  8
B-2_蓋
  6
Continuous
 62
     3
370
     9
100
AcDbLine
 10
-158.4681330500422
 20
47.45238266266784
 30
0.0
 11
-158.4681330500422
 21
-37.54794725709568
 31
0.0
  0
LINE
  5
214
330
1F
100
AcDbEntity
  8
B-2_蓋
  6
Continuous
 62
     3
370
     9
100
AcDbLine
 10
-151.4681346996409
 20
147.4523166787152
 30
0.0
 11
-151.4681346996409
 21
58.45207253809019
 31
0.0
  0
LINE
  5
215
330
1F
100
AcDbEntity
  8
B-2_蓋
  6
Continuous
 62
     3
370
     9
100
AcDbLine
 10
-151.4681346996409
 20
47.45238266266784
 30
0.0
 11
-151.4681346996409
 21
-37.54794725709568
 31
0.0
  0
LINE
  5
216
330
1F
100
AcDbEntity
  8
B-2_蓋
  6
Continuous
 62
     3
370
     9
100
AcDbLine
 10
-123.1678730732686
 20
543.4522869859364
 30
0.0
 11
-123.1678730732686
 21
458.4525509217472
 31
0.0
  0
LINE
  5
217
330
1F
100
AcDbEntity
  8
B-2_蓋
  6
Continuous
 62
     3
370
     9
100
AcDbLine
 10
-116.1679489548141
 20
543.4522869859364
 30
0.0
 11
-116.1679489548141
 21
458.4525509217472
 31
0.0
  0
LINE
  5
218
330
1F
100
AcDbEntity
  8
B-2_蓋
  6
Continuous
 62
     3
370
     9
100
AcDbLine
 10
-115.7676902977195
 20
247.4526960864431
 30
0.0
 11
-80.86798590582765
 21
258.4523859618655
 31
0.0
  0
LINE
  5
219
330
1F
100
AcDbEntity
  8
B-2_蓋
  6
Continuous
 62
     3
370
     9
100
AcDbLine
 10
-115.7676902977195
 20
347.452778566384
 30
0.0
 11
-80.86798590582765
 21
358.4524684418064
 31
0.0
  0
LINE
  5
21A
330
1F
100
AcDbEntity
  8
B-2_蓋
  6
Continuous
 62
     3
370
     9
100
AcDbLine
 10
-123.1678730732686
 20
347.4524074066502
 30
0.0
 11
-123.1678730732686
 21
258.4521632660252
 31
0.0
  0
LINE
  5
21B
330
1F
100
AcDbEntity
  8
B-2_蓋
  6
Continuous
 62
     3
370
     9
100
AcDbLine
 10
-116.1679489548141
 20
347.4524074066502
 30
0.0
 11
-116.1679489548141
 21
258.4521632660252
 31
0.0
  0
LINE
  5
21C
330
1F
100
AcDbEntity
  8
B-2_蓋
  6
Continuous
 62
     3
370
     9
100
AcDbLine
 10
-115.7676902977195
 20
447.452861046325
 30
0.0
 11
-80.86798590582765
 21
458.4525509217472
 31
0.0
  0
LINE
  5
21D
330
1F
100
AcDbEntity
  8
B-2_蓋
  6
Continuous
 62
     3
370
     9
100
AcDbLine
 10
-123.1678730732686
 20
447.4523414226974
 30
0.0
 11
-123.1678730732686
 21
358.4520972820724
 31
0.0
  0
LINE
  5
21E
330
1F
100
AcDbEntity
  8
B-2_蓋
  6
Continuous
 62
     3
370
     9
100
AcDbLine
 10
-116.1679489548141
 20
447.4523414226974
 30
0.0
 11
-116.1679489548141
 21
358.4520972820724
 31
0.0
  0
LINE
  5
21F
330
1F
100
AcDbEntity
  8
B-2_蓋
  6
Continuous
 62
     3
370
     9
100
AcDbLine
 10
-115.7676902977195
 20
147.4526878384491
 30
0.0
 11
-80.86798590582765
 21
158.4523777138714
 31
0.0
  0
LINE
  5
220
330
1F
100
AcDbEntity
  8
B-2_蓋
  6
Continuous
 62
     3
370
     9
100
AcDbLine
 10
-115.7676902977195
 20
47.45267959045503
 30
0.0
 11
-80.86798590582765
 21
58.45236946587737
 31
0.0
  0
LINE
  5
221
330
1F
100
AcDbEntity
  8
B-2_蓋
  6
Continuous
 62
     3
370
     9
100
AcDbLine
 10
-123.1678730732686
 20
247.4523249267092
 30
0.0
 11
-123.1678730732686
 21
158.4520065541375
 31
0.0
  0
LINE
  5
222
330
1F
100
AcDbEntity
  8
B-2_蓋
  6
Continuous
 62
     3
370
     9
100
AcDbLine
 10
-116.1679489548141
 20
247.4523249267092
 30
0.0
 11
-116.1679489548141
 21
158.4520065541375
 31
0.0
  0
LINE
  5
223
330
1F
100
AcDbEntity
  8
B-2_蓋
  6
Continuous
 62
     3
370
     9
100
AcDbLine
 10
-123.1678730732686
 20
147.4523166787152
 30
0.0
 11
-123.1678730732686
 21
58.45207253809019
 31
0.0
  0
LINE
  5
224
330
1F
100
AcDbEntity
  8
B-2_蓋
  6
Continuous
 62
     3
370
     9
100
AcDbLine
 10
-123.1678730732686
 20
47.45238266266784
 30
0.0
 11
-123.1678730732686
 21
-37.54794725709568
 31
0.0
  0
LINE
  5
225
330
1F
100
AcDbEntity
  8
B-2_蓋
  6
Continuous
 62
     3
370
     9
100
AcDbLine
 10
-116.1679489548141
 20
147.4523166787152
 30
0.0
 11
-116.1679489548141
 21
58.45207253809019
 31
0.0
  0
LINE
  5
226
330
1F
100
AcDbEntity
  8
B-2_蓋
  6
Continuous
 62
     3
370
     9
100
AcDbLine
 10
-116.1679489548141
 20
47.45238266266784
 30
0.0
 11
-116.1679489548141
 21
-37.54794725709568
 31
0.0
  0
ARC
  5
227
330
1F
100
AcDbEntity
  8
B-1_ピット
  6
Continuous
 62
     2
370
     9
100
AcDbCircle
 10
532.6162967166388
 20
507.3522520144415
 30
0.0
 40
6.400000082479941
100
AcDbArc
 50
180.0
 51
270.0
  0
ARC
  5
228
330
1F
100
AcDbEntity
  8
B-1_ピット
  6
Continuous
 62
     2
370
     9
100
AcDbCircle
 10
559.8160697318413
 20
507.3522520144415
 30
0.0
 40
6.400000082479941
100
AcDbArc
 50
270.0
 51
0.0
  0
ARC
  5
229
330
1F
100
AcDbEntity
  8
B-1_ピット
  6
Continuous
 62
     2
370
     9
100
AcDbCircle
 10
559.8160697318413
 20
507.3522520144415
 30
0.0
 40
3.200000041239971
100
AcDbArc
 50
270.0
 51
0.0
  0
ARC
  5
22A
330
1F
100
AcDbEntity
  8
B-1_ピット
  6
Continuous
 62
     2
370
     9
100
AcDbCircle
 10
532.6162967166388
 20
534.5521734935378
 30
0.0
 40
6.400000082479941
100
AcDbArc
 50
90.0
 51
180.0
  0
ARC
  5
22B
330
1F
100
AcDbEntity
  8
B-1_ピット
  6
Continuous
 62
     2
370
     9
100
AcDbCircle
 10
532.616148252745
 20
534.5520250296443
 30
0.0
 40
3.200000041239971
100
AcDbArc
 50
90.0
 51
180.0
  0
ARC
  5
22C
330
1F
100
AcDbEntity
  8
B-1_ピット
  6
Continuous
 62
     2
370
     9
100
AcDbCircle
 10
559.8160697318413
 20
534.5520250296443
 30
0.0
 40
3.200000041239971
100
AcDbArc
 50
0.0
 51
90.0
  0
ARC
  5
22D
330
1F
100
AcDbEntity
  8
B-1_ピット
  6
Continuous
 62
     2
370
     9
100
AcDbCircle
 10
559.8160697318413
 20
534.5521734935378
 30
0.0
 40
6.400000082479941
100
AcDbArc
 50
0.0
 51
90.0
  0
ARC
  5
22E
330
1F
100
AcDbEntity
  8
B-1_ピット
  6
Continuous
 62
     2
370
     9
100
AcDbCircle
 10
532.6162967166388
 20
507.3522520144415
 30
0.0
 40
3.200000041239971
100
AcDbArc
 50
180.0
 51
270.0
  0
ARC
  5
22F
330
1F
100
AcDbEntity
  8
B-1_ピット
  6
Continuous
 62
     2
370
     9
100
AcDbCircle
 10
532.6162967166388
 20
-1.448060749494353
 30
0.0
 40
6.400000082479941
100
AcDbArc
 50
90.0
 51
180.0
  0
ARC
  5
230
330
1F
100
AcDbEntity
  8
B-1_ピット
  6
Continuous
 62
     2
370
     9
100
AcDbCircle
 10
559.8160697318413
 20
-1.448060749494353
 30
0.0
 40
6.400000082479941
100
AcDbArc
 50
0.0
 51
90.0
  0
ARC
  5
231
330
1F
100
AcDbEntity
  8
B-1_ピット
  6
Continuous
 62
     2
370
     9
100
AcDbCircle
 10
559.8160697318413
 20
-1.448060749494353
 30
0.0
 40
3.200000041239971
100
AcDbArc
 50
0.0
 51
90.0
  0
ARC
  5
232
330
1F
100
AcDbEntity
  8
B-1_ピット
  6
Continuous
 62
     2
370
     9
100
AcDbCircle
 10
532.6162967166388
 20
-28.6479822285906
 30
0.0
 40
6.400000082479941
100
AcDbArc
 50
180.0
 51
270.0
  0
ARC
  5
233
330
1F
100
AcDbEntity
  8
B-1_ピット
  6
Continuous
 62
     2
370
     9
100
AcDbCircle
 10
532.616148252745
 20
-28.647833764697
 30
0.0
 40
3.200000041239971
100
AcDbArc
 50
180.0
 51
270.0
  0
ARC
  5
234
330
1F
100
AcDbEntity
  8
B-1_ピット
  6
Continuous
 62
     2
370
     9
100
AcDbCircle
 10
559.8160697318413
 20
-28.647833764697
 30
0.0
 40
3.200000041239971
100
AcDbArc
 50
270.0
 51
0.0
  0
ARC
  5
235
330
1F
100
AcDbEntity
  8
B-1_ピット
  6
Continuous
 62
     2
370
     9
100
AcDbCircle
 10
559.8160697318413
 20
-28.6479822285906
 30
0.0
 40
6.400000082479941
100
AcDbArc
 50
270.0
 51
0.0
  0
ARC
  5
236
330
1F
100
AcDbEntity
  8
B-1_ピット
  6
Continuous
 62
     2
370
     9
100
AcDbCircle
 10
532.6162967166388
 20
-1.448060749494353
 30
0.0
 40
3.200000041239971
100
AcDbArc
 50
90.0
 51
180.0
  0
TEXT
  5
237
330
1F
100
AcDbEntity
  8
B-4_寸法
  6
Continuous
 62
     7
370
     9
100
AcDbText
 10
-309.8156408361486
 20
688.325739503884
 30
0.0
 40
13.716
  1
メインバー Ⅰ－６０ ＠35.3
 41
1.160256431405112
  7
ＭＳ ゴシック
100
AcDbText
  0
TEXT
  5
238
330
1F
100
AcDbEntity
  8
B-4_寸法
  6
Continuous
 62
     2
370
     9
100
AcDbText
 10
-269.1697899070945
 20
578.3918421749146
 30
0.0
 40
18.288
  1
35.3
 41
1.09375
  7
ＭＳ ゴシック
100
AcDbText
  0
TEXT
  5
239
330
1F
100
AcDbEntity
  8
B-4_寸法
  6
Continuous
 62
     7
370
     9
100
AcDbText
 10
-355.9047719594594
 20
727.0794181092472
 30
0.0
 40
13.716
  1
クロスバー □８ ＠100
 41
1.158730158730158
  7
ＭＳ ゴシック
100
AcDbText
  0
TEXT
  5
23A
330
1F
100
AcDbEntity
  8
B-4_寸法
  6
Continuous
 62
     2
370
     9
100
AcDbText
 10
496.7160941459038
 20
-199.0515848336371
 30
0.0
 40
18.288
  1
100
 41
1.083333333333333
  7
ＭＳ ゴシック
100
AcDbText
  0
TEXT
  5
23B
330
1F
100
AcDbEntity
  8
B-4_寸法
  6
Continuous
 62
     2
370
     9
100
AcDbText
 10
483.4665824271538
 20
-136.1675128649398
 30
0.0
 40
18.288
  1
60
 41
1.0625
  7
ＭＳ ゴシック
100
AcDbText
  0
TEXT
  5
23C
330
1F
100
AcDbEntity
  8
B-4_寸法
  6
Continuous
 62
     2
370
     9
100
AcDbText
 10
533.4661040434966
 20
-136.1675128649398
 30
0.0
 40
18.288
  1
40
 41
1.0625
  7
ＭＳ ゴシック
100
AcDbText
  0
TEXT
  5
23D
330
1F
100
AcDbEntity
  8
B-4_寸法
  6
Continuous
 62
     2
370
     9
100
AcDbText
 10
630.3133448057434
 20
-60.5902858603474
 30
0.0
 40
18.288
  1
7
 50
90.0
  7
ＭＳ ゴシック
100
AcDbText
  0
TEXT
  5
23E
330
1F
100
AcDbEntity
  8
B-4_寸法
  6
Continuous
 62
     2
370
     9
100
AcDbText
 10
630.3133448057434
 20
-27.79795220589208
 30
0.0
 40
18.288
  1
40
 50
90.0
 41
1.0625
  7
ＭＳ ゴシック
100
AcDbText
  0
TEXT
  5
23F
330
1F
100
AcDbEntity
  8
B-4_寸法
  6
Continuous
 62
     2
370
     9
100
AcDbText
 10
630.3133448057434
 20
233.4521797620133
 30
0.0
 40
18.288
  1
496
 50
90.0
 41
1.083333333333333
  7
ＭＳ ゴシック
100
AcDbText
  0
TEXT
  5
240
330
1F
100
AcDbEntity
  8
B-4_寸法
  6
Continuous
 62
     2
370
     9
100
AcDbText
 10
630.3133448057434
 20
508.2022078051931
 30
0.0
 40
18.288
  1
40
 50
90.0
 41
1.0625
  7
ＭＳ ゴシック
100
AcDbText
  0
TEXT
  5
241
330
1F
100
AcDbEntity
  8
B-4_寸法
  6
Continuous
 62
     2
370
     9
100
AcDbText
 10
630.3133448057434
 20
554.855204796325
 30
0.0
 40
18.288
  1
7
 50
90.0
  7
ＭＳ ゴシック
100
AcDbText
  0
TEXT
  5
242
330
1F
100
AcDbEntity
  8
B-4_寸法
  6
Continuous
 62
     7
370
     9
100
AcDbText
 10
586.1566821948903
 20
676.1855499979719
 30
0.0
 40
13.716
  1
かさ上げ材：□４０×４０×３．２
 41
1.15625
  7
ＭＳ ゴシック
100
AcDbText
  0
TEXT
  5
243
330
1F
100
AcDbEntity
  8
B-4_寸法
  6
Continuous
 62
     2
370
     9
100
AcDbText
 10
396.7998312922297
 20
233.4521055300664
 30
0.0
 40
18.288
  1
590
 50
90.0
 41
1.083333333333333
  7
ＭＳ ゴシック
100
AcDbText
  0
TEXT
  5
244
330
1F
100
AcDbEntity
  8
B-4_寸法
  6
Continuous
 62
     2
370
     9
100
AcDbText
 10
-403.5691049936655
 20
-109.9113763573385
 30
0.0
 40
18.288
  1
607
 41
1.083333333333333
  7
ＭＳ ゴシック
100
AcDbText
  0
TEXT
  5
245
330
1F
100
AcDbEntity
  8
B-4_寸法
  6
Continuous
 62
     7
370
     9
100
AcDbText
 10
686.0463075380069
 20
640.422231137119
 30
0.0
 40
13.716
  1
（Ｌ＝５９７）
 41
1.142857142857143
  7
ＭＳ ゴシック
100
AcDbText
  0
TEXT
  5
246
330
1F
100
AcDbEntity
  8
B-4_寸法
  6
Continuous
 62
     7
370
     9
100
AcDbText
 10
-401.9939030827701
 20
767.803361046325
 30
0.0
 40
13.716
  1
エンドプレート ＦＢ4.5×55
 41
1.16025641025641
  7
ＭＳ ゴシック
100
AcDbText
  0
LINE
  5
247
330
1F
100
AcDbEntity
  8
F-4ﾚｲﾔ
  6
Continuous
 62
     2
370
     9
100
AcDbLine
 10
291.0321374841641
 20
-459.8908427470439
 30
0.0
 11
291.0321374841641
 21
-429.8907066551415
 31
0.0
  0
LINE
  5
248
330
1F
100
AcDbEntity
  8
F-4ﾚｲﾔ
  6
Continuous
 62
     2
370
     9
100
AcDbLine
 10
291.0321374841641
 20
-429.8907066551415
 30
0.0
 11
426.0319890202703
 21
-429.8907066551415
 31
0.0
  0
LINE
  5
249
330
1F
100
AcDbEntity
  8
F-4ﾚｲﾔ
  6
Continuous
 62
     2
370
     9
100
AcDbLine
 10
426.0319890202703
 20
-429.8907066551415
 30
0.0
 11
426.0319890202703
 21
-459.8908427470439
 31
0.0
  0
LINE
  5
24A
330
1F
100
AcDbEntity
  8
F-4ﾚｲﾔ
  6
Continuous
 62
     2
370
     9
100
AcDbLine
 10
426.0319890202703
 20
-459.8908427470439
 30
0.0
 11
291.0321374841641
 21
-459.8908427470439
 31
0.0
  0
TEXT
  5
24B
330
1F
100
AcDbEntity
  8
F-4ﾚｲﾔ
  6
Continuous
 62
     2
370
     9
100
AcDbText
 10
319.5321572793497
 20
-453.5069813133446
 30
0.0
 40
18.288
  1
仕　様
 41
1.083333333333333
  7
ＭＳ ゴシック
100
AcDbText
  0
TEXT
  5
24C
330
1F
100
AcDbEntity
  8
F-4ﾚｲﾔ
  6
Continuous
 62
     2
370
     9
100
AcDbText
 10
351.5286502322638
 20
-491.2590111446896
 30
0.0
 40
18.288
  1
スチール製グレーチング　かさあげ型　プレーンタイプ
 41
1.12
  7
ＭＳ ゴシック
100
AcDbText
  0
TEXT
  5
24D
330
1F
100
AcDbEntity
  8
F-4ﾚｲﾔ
  6
Continuous
 62
     2
370
     9
100
AcDbText
 10
388.1131228885138
 20
-558.2247308742482
 30
0.0
 40
18.288
  1
材質：ＳＳ４００＋ＳＴＫＲ４００
 41
1.1171875
  7
ＭＳ ゴシック
100
AcDbText
  0
TEXT
  5
24E
330
1F
100
AcDbEntity
  8
F-4ﾚｲﾔ
  6
Continuous
 62
     2
370
     9
100
AcDbText
 10
388.1131228885138
 20
-590.2586358116744
 30
0.0
 40
18.288
  1
処理：溶融亜鉛めっき
 41
1.1125
  7
ＭＳ ゴシック
100
AcDbText
  0
TEXT
  5
24F
330
1F
100
AcDbEntity
  8
F-5ﾚｲﾔ
  6
Continuous
 62
     3
370
     9
100
AcDbText
 10
456.0319890202703
 20
-455.6608427470439
 30
0.0
 40
22.86
  1
※適用荷重：Ｔ－１４
 41
1.09
  7
ＭＳ ゴシック
100
AcDbText
  0
TEXT
  5
250
330
1F
100
AcDbEntity
  8
F-4ﾚｲﾔ
  6
Continuous
 62
     2
370
     9
100
AcDbText
 10
351.5286502322638
 20
-523.4052689857414
 30
0.0
 40
18.288
  1
側溝用　ＨＳＹ　５９６０Ａ
 41
1.115384615384615
  7
ＭＳ ゴシック
100
AcDbText
  0
TEXT
  5
251
330
1F
100
AcDbEntity
  8
F-4ﾚｲﾔ
  6
Continuous
 62
     2
370
     9
100
AcDbText
 10
388.1131228885138
 20
-625.0780977001812
 30
0.0
 40
18.288
  1
定尺：６０７
 41
1.104166666666667
  7
ＭＳ ゴシック
100
AcDbText
  0
TEXT
  5
252
330
1F
100
AcDbEntity
  8
F-4ﾚｲﾔ
  6
Continuous
 62
     2
370
     9
100
AcDbText
 10
-512.7959327842133
 20
-813.9383823923389
 30
0.0
 40
18.288
  1
スチール製グレーチング　かさあげ型　プレーンタイプ　側溝用　ＨＳＹ　５９６０Ａ
 41
0.7743589743589744
  7
ＭＳ ゴシック
100
AcDbText
  0
ENDSEC
  0
SECTION
  2
OBJECTS
  0
DICTIONARY
  5
C
330
0
100
AcDbDictionary
281
     1
  3
ACAD_DETAILVIEWSTYLE
350
298
  3
ACAD_GROUP
350
D
  3
ACAD_LAYOUT
350
1A
  3
ACAD_MATERIAL
350
43
  3
ACAD_MLEADERSTYLE
350
6B
  3
ACAD_MLINESTYLE
350
17
  3
ACAD_PLOTSETTINGS
350
19
  3
ACAD_PLOTSTYLENAME
350
E
  3
ACAD_SCALELIST
350
47
  3
ACAD_SECTIONVIEWSTYLE
350
299
  3
ACAD_TABLESTYLE
350
69
  3
ACAD_VISUALSTYLE
350
2A
  3
ACDB_RECOMPOSE_DATA
350
295
  3
AcDbVariableDictionary
350
255
  0
DICTIONARY
  5
253
330
8
100
AcDbDictionary
280
     1
281
     1
  3
ACAD_XREC_ROUNDTRIP
360
254
  0
DICTIONARY
  5
298
102
{ACAD_REACTORS
330
C
102
}
330
C
100
AcDbDictionary
281
     1
  0
DICTIONARY
  5
D
102
{ACAD_REACTORS
330
C
102
}
330
C
100
AcDbDictionary
281
     1
  0
DICTIONARY
  5
1A
102
{ACAD_REACTORS
330
C
102
}
330
C
100
AcDbDictionary
281
     1
  3
Layout1
350
1E
  3
Layout2
350
26
  3
Model
350
22
  0
DICTIONARY
  5
43
102
{ACAD_REACTORS
330
C
102
}
330
C
100
AcDbDictionary
281
     1
  3
ByBlock
350
45
  3
ByLayer
350
44
  3
Global
350
46
  0
DICTIONARY
  5
6B
102
{ACAD_REACTORS
330
C
102
}
330
C
100
AcDbDictionary
281
     1
  3
Standard
350
6C
  0
DICTIONARY
  5
17
102
{ACAD_REACTORS
330
C
102
}
330
C
100
AcDbDictionary
281
     1
  3
Standard
350
18
  0
DICTIONARY
  5
19
102
{ACAD_REACTORS
330
C
102
}
330
C
100
AcDbDictionary
281
     1
  0
ACDBDICTIONARYWDFLT
  5
E
102
{ACAD_REACTORS
330
C
102
}
330
C
100
AcDbDictionary
281
     1
  3
Normal
350
F
100
AcDbDictionaryWithDefault
340
F
  0
DICTIONARY
  5
47
102
{ACAD_REACTORS
330
C
102
}
330
C
100
AcDbDictionary
281
     1
  3
A0
350
48
  3
A1
350
49
  3
A2
350
4A
  3
A3
350
4B
  3
A4
350
4C
  3
A5
350
4D
  3
A6
350
4E
  3
A7
350
4F
  3
A8
350
50
  3
A9
350
51
  3
B0
350
52
  3
B1
350
53
  3
B2
350
54
  3
B3
350
55
  3
B4
350
56
  3
B5
350
57
  3
B6
350
58
  3
B7
350
59
  3
B8
350
5A
  3
B9
350
5B
  3
C0
350
5C
  3
C1
350
5D
  3
C2
350
5E
  3
C3
350
5F
  3
C4
350
60
  3
C5
350
61
  3
C6
350
62
  3
C7
350
63
  3
C8
350
64
  3
C9
350
65
  3
D0
350
66
  3
D1
350
67
  3
D2
350
68
  0
DICTIONARY
  5
299
102
{ACAD_REACTORS
330
C
102
}
330
C
100
AcDbDictionary
281
     1
  0
DICTIONARY
  5
69
102
{ACAD_REACTORS
330
C
102
}
330
C
100
AcDbDictionary
281
     1
  3
Standard
350
6A
  0
DICTIONARY
  5
2A
102
{ACAD_REACTORS
330
C
102
}
330
C
100
AcDbDictionary
281
     1
  3
2dWireframe
350
2F
  3
Basic
350
32
  3
Brighten
350
36
  3
ColorChange
350
3A
  3
Conceptual
350
34
  3
Dim
350
35
  3
EdgeColorOff
350
3D
  3
Facepattern
350
39
  3
Flat
350
2B
  3
FlatWithEdges
350
2C
  3
Gouraud
350
2D
  3
GouraudWithEdges
350
2E
  3
Hidden
350
31
  3
JitterOff
350
3B
  3
Linepattern
350
38
  3
OverhangOff
350
3C
  3
Realistic
350
33
  3
Shaded
350
42
  3
Shaded with edges
350
41
  3
Shades of Gray
350
3E
  3
Sketchy
350
3F
  3
Thicken
350
37
  3
Wireframe
350
30
  3
X-Ray
350
40
  0
XRECORD
  5
295
102
{ACAD_REACTORS
330
C
102
}
330
C
100
AcDbXrecord
280
     1
 90
        1
330
6A
  0
DICTIONARY
  5
255
102
{ACAD_REACTORS
330
C
102
}
330
C
100
AcDbDictionary
281
     1
  3
CANNOSCALE
350
256
  3
CENTEREXE
350
29A
  3
CENTERLTYPEFILE
350
29B
  3
CMLEADERSTYLE
350
297
  3
CTABLESTYLE
350
296
  3
MSLTSCALE
350
257
  3
XCLIPFRAME
350
258
  0
XRECORD
  5
254
102
{ACAD_REACTORS
330
253
102
}
330
253
100
AcDbXrecord
280
     1
102
VTR_0.000_0.000_1.000_1.000_VISUALSTYLE
340
2F
102
VTR_0.000_0.000_1.000_1.000_GRIDDISPLAY
 70
     3
102
VTR_0.000_0.000_1.000_1.000_GRIDMAJOR
 70
     5
102
VTR_0.000_0.000_1.000_1.000_DEFAULTLIGHTING
280
     1
102
VTR_0.000_0.000_1.000_1.000_DEFAULTLIGHTINGTYPE
 70
     1
102
VTR_0.000_0.000_1.000_1.000_BRIGHTNESS
141
0.0
102
VTR_0.000_0.000_1.000_1.000_CONTRAST
142
0.0
  0
LAYOUT
  5
1E
102
{ACAD_REACTORS
330
1A
102
}
330
1A
100
AcDbPlotSettings
  1

  2
none_device
  4

  6

 40
0.0
 41
0.0
 42
0.0
 43
0.0
 44
0.0
 45
0.0
 46
0.0
 47
0.0
 48
0.0
 49
0.0
140
0.0
141
0.0
142
1.0
143
1.0
 70
   688
 72
     1
 73
     0
 74
     5
  7

 75
    16
 76
     0
 77
     5
 78
   300
147
1.0
148
0.0
149
0.0
100
AcDbLayout
  1
Layout1
 70
     1
 71
     1
 10
0.0
 20
0.0
 11
420.0
 21
297.0
 12
0.0
 22
0.0
 32
0.0
 14
1.000000000000000E+20
 24
1.000000000000000E+20
 34
1.000000000000000E+20
 15
-1.000000000000000E+20
 25
-1.000000000000000E+20
 35
-1.000000000000000E+20
146
0.0
 13
0.0
 23
0.0
 33
0.0
 16
1.0
 26
0.0
 36
0.0
 17
0.0
 27
1.0
 37
0.0
 76
     0
330
1B
  0
LAYOUT
  5
26
102
{ACAD_REACTORS
330
1A
102
}
330
1A
100
AcDbPlotSettings
  1

  2
none_device
  4

  6

 40
0.0
 41
0.0
 42
0.0
 43
0.0
 44
0.0
 45
0.0
 46
0.0
 47
0.0
 48
0.0
 49
0.0
140
0.0
141
0.0
142
1.0
143
1.0
 70
   688
 72
     1
 73
     0
 74
     5
  7

 75
    16
 76
     0
 77
     5
 78
   300
147
1.0
148
0.0
149
0.0
100
AcDbLayout
  1
Layout2
 70
     1
 71
     2
 10
0.0
 20
0.0
 11
0.0
 21
0.0
 12
0.0
 22
0.0
 32
0.0
 14
0.0
 24
0.0
 34
0.0
 15
0.0
 25
0.0
 35
0.0
146
0.0
 13
0.0
 23
0.0
 33
0.0
 16
1.0
 26
0.0
 36
0.0
 17
0.0
 27
1.0
 37
0.0
 76
     0
330
23
  0
LAYOUT
  5
22
102
{ACAD_REACTORS
330
1A
102
}
330
1A
100
AcDbPlotSettings
  1

  2
none_device
  4
Letter_(8.50_x_11.00_Inches)
  6

 40
6.35
 41
6.35
 42
6.35000508
 43
6.35000508
 44
215.9
 45
279.4
 46
0.0
 47
0.0
 48
0.0
 49
0.0
140
0.0
141
0.0
142
1.0
143
1.0
 70
  1712
 72
     1
 73
     0
 74
     0
  7

 75
     0
 76
     0
 77
     5
 78
   300
147
1.0
148
0.0
149
0.0
100
AcDbLayout
  1
Model
 70
     1
 71
     0
 10
-1260.0
 20
-891.0
 11
1260.0
 21
891.0
 12
0.0
 22
0.0
 32
0.0
 14
-1260.0
 24
-891.0
 34
0.0
 15
1260.0
 25
891.0
 35
0.0
146
0.0
 13
0.0
 23
0.0
 33
0.0
 16
1.0
 26
0.0
 36
0.0
 17
0.0
 27
1.0
 37
0.0
 76
     0
330
1F
331
29
  0
MATERIAL
  5
45
102
{ACAD_REACTORS
330
43
102
}
102
{ACAD_XDICTIONARY
360
28B
102
}
330
43
100
AcDbMaterial
  1
ByBlock
  0
MATERIAL
  5
44
102
{ACAD_REACTORS
330
43
102
}
102
{ACAD_XDICTIONARY
360
289
102
}
330
43
100
AcDbMaterial
  1
ByLayer
  0
MATERIAL
  5
46
102
{ACAD_REACTORS
330
43
102
}
102
{ACAD_XDICTIONARY
360
28D
102
}
330
43
100
AcDbMaterial
  1
Global
  0
MLEADERSTYLE
  5
6C
102
{ACAD_REACTORS
330
6B
102
}
102
{ACAD_XDICTIONARY
360
293
102
}
330
6B
100
AcDbMLeaderStyle
170
     2
171
     1
172
     0
 90
        2
 40
0.0
 41
0.0
173
     1
 91
-1056964608
340
14
 92
       -2
290
     1
 42
2.0
291
     1
 43
8.0
  3
Standard
341
0
 44
4.0
300

342
11
174
     1
178
     6
175
     1
176
     0
 93
-1056964608
 45
4.0
292
     0
297
     0
 46
4.0
343
0
 94
-1056964608
 47
1.0
 49
1.0
140
1.0
293
     1
141
0.0
294
     1
177
     0
142
1.0
295
     0
296
     0
143
3.75
1001
ACAD_MLEADERVER
1070
     2
  0
MLINESTYLE
  5
18
102
{ACAD_REACTORS
330
17
102
}
330
17
100
AcDbMlineStyle
  2
Standard
 70
     0
  3

 62
   256
 51
90.0
 52
90.0
 71
     2
 49
0.5
 62
   256
  6
BYLAYER
 49
-0.5
 62
   256
  6
BYLAYER
  0
ACDBPLACEHOLDER
  5
F
102
{ACAD_REACTORS
330
E
102
}
330
E
  0
SCALE
  5
48
102
{ACAD_REACTORS
330
47
102
}
330
47
100
AcDbScale
 70
     0
300
1:1
140
1.0
141
1.0
290
     1
  0
SCALE
  5
49
102
{ACAD_REACTORS
330
47
102
}
330
47
100
AcDbScale
 70
     0
300
1:2
140
1.0
141
2.0
290
     0
  0
SCALE
  5
4A
102
{ACAD_REACTORS
330
47
102
}
330
47
100
AcDbScale
 70
     0
300
1:4
140
1.0
141
4.0
290
     0
  0
SCALE
  5
4B
102
{ACAD_REACTORS
330
47
102
}
330
47
100
AcDbScale
 70
     0
300
1:5
140
1.0
141
5.0
290
     0
  0
SCALE
  5
4C
102
{ACAD_REACTORS
330
47
102
}
330
47
100
AcDbScale
 70
     0
300
1:8
140
1.0
141
8.0
290
     0
  0
SCALE
  5
4D
102
{ACAD_REACTORS
330
47
102
}
330
47
100
AcDbScale
 70
     0
300
1:10
140
1.0
141
10.0
290
     0
  0
SCALE
  5
4E
102
{ACAD_REACTORS
330
47
102
}
330
47
100
AcDbScale
 70
     0
300
1:16
140
1.0
141
16.0
290
     0
  0
SCALE
  5
4F
102
{ACAD_REACTORS
330
47
102
}
330
47
100
AcDbScale
 70
     0
300
1:20
140
1.0
141
20.0
290
     0
  0
SCALE
  5
50
102
{ACAD_REACTORS
330
47
102
}
330
47
100
AcDbScale
 70
     0
300
1:30
140
1.0
141
30.0
290
     0
  0
SCALE
  5
51
102
{ACAD_REACTORS
330
47
102
}
330
47
100
AcDbScale
 70
     0
300
1:40
140
1.0
141
40.0
290
     0
  0
SCALE
  5
52
102
{ACAD_REACTORS
330
47
102
}
330
47
100
AcDbScale
 70
     0
300
1:50
140
1.0
141
50.0
290
     0
  0
SCALE
  5
53
102
{ACAD_REACTORS
330
47
102
}
330
47
100
AcDbScale
 70
     0
300
1:100
140
1.0
141
100.0
290
     0
  0
SCALE
  5
54
102
{ACAD_REACTORS
330
47
102
}
330
47
100
AcDbScale
 70
     0
300
2:1
140
2.0
141
1.0
290
     0
  0
SCALE
  5
55
102
{ACAD_REACTORS
330
47
102
}
330
47
100
AcDbScale
 70
     0
300
4:1
140
4.0
141
1.0
290
     0
  0
SCALE
  5
56
102
{ACAD_REACTORS
330
47
102
}
330
47
100
AcDbScale
 70
     0
300
8:1
140
8.0
141
1.0
290
     0
  0
SCALE
  5
57
102
{ACAD_REACTORS
330
47
102
}
330
47
100
AcDbScale
 70
     0
300
10:1
140
10.0
141
1.0
290
     0
  0
SCALE
  5
58
102
{ACAD_REACTORS
330
47
102
}
330
47
100
AcDbScale
 70
     0
300
100:1
140
100.0
141
1.0
290
     0
  0
SCALE
  5
59
102
{ACAD_REACTORS
330
47
102
}
330
47
100
AcDbScale
 70
     0
300
1/128" = 1'-0"
140
0.0078125
141
12.0
290
     0
  0
SCALE
  5
5A
102
{ACAD_REACTORS
330
47
102
}
330
47
100
AcDbScale
 70
     0
300
1/64" = 1'-0"
140
0.015625
141
12.0
290
     0
  0
SCALE
  5
5B
102
{ACAD_REACTORS
330
47
102
}
330
47
100
AcDbScale
 70
     0
300
1/32" = 1'-0"
140
0.03125
141
12.0
290
     0
  0
SCALE
  5
5C
102
{ACAD_REACTORS
330
47
102
}
330
47
100
AcDbScale
 70
     0
300
1/16" = 1'-0"
140
0.0625
141
12.0
290
     0
  0
SCALE
  5
5D
102
{ACAD_REACTORS
330
47
102
}
330
47
100
AcDbScale
 70
     0
300
3/32" = 1'-0"
140
0.09375
141
12.0
290
     0
  0
SCALE
  5
5E
102
{ACAD_REACTORS
330
47
102
}
330
47
100
AcDbScale
 70
     0
300
1/8" = 1'-0"
140
0.125
141
12.0
290
     0
  0
SCALE
  5
5F
102
{ACAD_REACTORS
330
47
102
}
330
47
100
AcDbScale
 70
     0
300
3/16" = 1'-0"
140
0.1875
141
12.0
290
     0
  0
SCALE
  5
60
102
{ACAD_REACTORS
330
47
102
}
330
47
100
AcDbScale
 70
     0
300
1/4" = 1'-0"
140
0.25
141
12.0
290
     0
  0
SCALE
  5
61
102
{ACAD_REACTORS
330
47
102
}
330
47
100
AcDbScale
 70
     0
300
3/8" = 1'-0"
140
0.375
141
12.0
290
     0
  0
SCALE
  5
62
102
{ACAD_REACTORS
330
47
102
}
330
47
100
AcDbScale
 70
     0
300
1/2" = 1'-0"
140
0.5
141
12.0
290
     0
  0
SCALE
  5
63
102
{ACAD_REACTORS
330
47
102
}
330
47
100
AcDbScale
 70
     0
300
3/4" = 1'-0"
140
0.75
141
12.0
290
     0
  0
SCALE
  5
64
102
{ACAD_REACTORS
330
47
102
}
330
47
100
AcDbScale
 70
     0
300
1" = 1'-0"
140
1.0
141
12.0
290
     0
  0
SCALE
  5
65
102
{ACAD_REACTORS
330
47
102
}
330
47
100
AcDbScale
 70
     0
300
1-1/2" = 1'-0"
140
1.5
141
12.0
290
     0
  0
SCALE
  5
66
102
{ACAD_REACTORS
330
47
102
}
330
47
100
AcDbScale
 70
     0
300
3" = 1'-0"
140
3.0
141
12.0
290
     0
  0
SCALE
  5
67
102
{ACAD_REACTORS
330
47
102
}
330
47
100
AcDbScale
 70
     0
300
6" = 1'-0"
140
6.0
141
12.0
290
     0
  0
SCALE
  5
68
102
{ACAD_REACTORS
330
47
102
}
330
47
100
AcDbScale
 70
     0
300
1'-0" = 1'-0"
140
12.0
141
12.0
290
     0
  0
TABLESTYLE
  5
6A
102
{ACAD_REACTORS
330
69
102
}
102
{ACAD_XDICTIONARY
360
28F
102
}
330
69
100
AcDbTableStyle
  3
Standard
 70
     0
 71
     0
 40
0.06
 41
0.06
280
     0
281
     0
  7
Standard
140
4.5
170
     2
 62
     0
 63
   257
283
     0
274
    -2
284
     1
 64
     0
275
    -2
285
     1
 65
     0
276
    -2
286
     1
 66
     0
277
    -2
287
     1
 67
     0
278
    -2
288
     1
 68
     0
279
    -2
289
     1
 69
     0
  7
Standard
140
6.0
170
     5
 62
     0
 63
   257
283
     0
274
    -2
284
     1
 64
     0
275
    -2
285
     1
 65
     0
276
    -2
286
     1
 66
     0
277
    -2
287
     1
 67
     0
278
    -2
288
     1
 68
     0
279
    -2
289
     1
 69
     0
  7
Standard
140
4.5
170
     5
 62
     0
 63
   257
283
     0
274
    -2
284
     1
 64
     0
275
    -2
285
     1
 65
     0
276
    -2
286
     1
 66
     0
277
    -2
287
     1
 67
     0
278
    -2
288
     1
 68
     0
279
    -2
289
     1
 69
     0
  0
VISUALSTYLE
  5
2F
102
{ACAD_REACTORS
330
2A
102
}
102
{ACAD_XDICTIONARY
360
261
102
}
330
2A
100
AcDbVisualStyle
  2
2dWireframe
 70
     4
 71
     0
 72
     2
 73
     0
 90
        0
 40
0.6
 41
30.0
 62
     5
 63
     7
421
 16777215
 74
     1
 91
        4
 64
     7
 65
   257
 75
     1
175
     1
 42
1.0
 92
        0
 66
   257
 43
1.0
 76
     1
 77
     6
 78
     2
 67
     7
 79
     5
170
     0
171
     0
290
     0
174
     0
 93
        1
 44
0.0
173
     0
291
     0
 45
0.0
1001
ACAD
1000
AcDbSavedByObjectVersion
1070
     0
  0
VISUALSTYLE
  5
32
102
{ACAD_REACTORS
330
2A
102
}
102
{ACAD_XDICTIONARY
360
267
102
}
330
2A
100
AcDbVisualStyle
  2
Basic
 70
     7
 71
     1
 72
     0
 73
     1
 90
        0
 40
0.6
 41
30.0
 62
     5
 63
     7
421
 16777215
 74
     0
 91
        4
 64
     7
 65
   257
 75
     1
175
     1
 42
1.0
 92
        8
 66
     7
 43
1.0
 76
     1
 77
     6
 78
     2
 67
     7
 79
     5
170
     0
171
     0
290
     0
174
     0
 93
        1
 44
0.0
173
     0
291
     1
 45
0.0
1001
ACAD
1000
AcDbSavedByObjectVersion
1070
     0
  0
VISUALSTYLE
  5
36
102
{ACAD_REACTORS
330
2A
102
}
102
{ACAD_XDICTIONARY
360
26F
102
}
330
2A
100
AcDbVisualStyle
  2
Brighten
 70
    12
 71
     2
 72
     2
 73
     0
 90
        0
 40
0.6
 41
30.0
 62
     5
 63
     7
421
 16777215
 74
     1
 91
        4
 64
     7
 65
   257
 75
     1
175
     1
 42
1.0
 92
        8
 66
     7
 43
1.0
 76
     1
 77
     6
 78
     2
 67
     7
 79
     5
170
     0
171
     0
290
     0
174
     0
 93
        1
 44
50.0
173
     0
291
     1
 45
0.0
1001
ACAD
1000
AcDbSavedByObjectVersion
1070
     0
  0
VISUALSTYLE
  5
3A
102
{ACAD_REACTORS
330
2A
102
}
102
{ACAD_XDICTIONARY
360
277
102
}
330
2A
100
AcDbVisualStyle
  2
ColorChange
 70
    16
 71
     2
 72
     2
 73
     3
 90
        0
 40
0.6
 41
30.0
 62
     5
 63
     8
421
  8421504
 74
     1
 91
        4
 64
     7
 65
   257
 75
     1
175
     1
 42
1.0
 92
        8
 66
     8
424
  8421504
 43
1.0
 76
     1
 77
     6
 78
     2
 67
     7
 79
     5
170
     0
171
     0
290
     0
174
     0
 93
        1
 44
0.0
173
     0
291
     1
 45
0.0
1001
ACAD
1000
AcDbSavedByObjectVersion
1070
     0
  0
VISUALSTYLE
  5
34
102
{ACAD_REACTORS
330
2A
102
}
102
{ACAD_XDICTIONARY
360
26B
102
}
330
2A
100
AcDbVisualStyle
  2
Conceptual
 70
     9
 71
     3
 72
     2
 73
     0
 90
        0
 40
0.6
 41
30.0
 62
     5
 63
     7
421
 16777215
 74
     2
 91
        2
 64
     7
 65
   257
 75
     1
175
     1
 42
179.0
 92
        8
 66
     7
 43
1.0
 76
     1
 77
     6
 78
     2
 67
     7
 79
     3
170
     0
171
     0
290
     0
174
     0
 93
        1
 44
0.0
173
     0
291
     0
 45
0.0
1001
ACAD
1000
AcDbSavedByObjectVersion
1070
     0
  0
VISUALSTYLE
  5
35
102
{ACAD_REACTORS
330
2A
102
}
102
{ACAD_XDICTIONARY
360
26D
102
}
330
2A
100
AcDbVisualStyle
  2
Dim
 70
    11
 71
     2
 72
     2
 73
     0
 90
        0
 40
0.6
 41
30.0
 62
     5
 63
     7
421
 16777215
 74
     1
 91
        4
 64
     7
 65
   257
 75
     1
175
     1
 42
1.0
 92
        8
 66
     7
 43
1.0
 76
     1
 77
     6
 78
     2
 67
     7
 79
     5
170
     0
171
     0
290
     0
174
     0
 93
        1
 44
-50.0
173
     0
291
     1
 45
0.0
1001
ACAD
1000
AcDbSavedByObjectVersion
1070
     0
  0
VISUALSTYLE
  5
3D
102
{ACAD_REACTORS
330
2A
102
}
102
{ACAD_XDICTIONARY
360
27D
102
}
330
2A
100
AcDbVisualStyle
  2
EdgeColorOff
 70
    22
 71
     2
 72
     2
 73
     0
 90
        0
 40
0.6
 41
30.0
 62
     5
 63
     7
421
 16777215
 74
     1
 91
        4
 64
     7
 65
   257
 75
     1
175
     1
 42
1.0
 92
        8
 66
     7
 43
1.0
 76
     1
 77
     6
 78
     2
 67
     7
 79
     5
170
     0
171
     0
290
     0
174
     0
 93
        1
 44
0.0
173
     0
291
     1
 45
0.0
1001
ACAD
1000
AcDbSavedByObjectVersion
1070
     0
  0
VISUALSTYLE
  5
39
102
{ACAD_REACTORS
330
2A
102
}
102
{ACAD_XDICTIONARY
360
275
102
}
330
2A
100
AcDbVisualStyle
  2
Facepattern
 70
    15
 71
     2
 72
     2
 73
     0
 90
        0
 40
0.6
 41
30.0
 62
     5
 63
     7
421
 16777215
 74
     1
 91
        4
 64
     7
 65
   257
 75
     1
175
     1
 42
1.0
 92
        8
 66
     7
 43
1.0
 76
     1
 77
     6
 78
     2
 67
     7
 79
     5
170
     0
171
     0
290
     0
174
     0
 93
        1
 44
0.0
173
     0
291
     1
 45
0.0
1001
ACAD
1000
AcDbSavedByObjectVersion
1070
     0
  0
VISUALSTYLE
  5
2B
102
{ACAD_REACTORS
330
2A
102
}
102
{ACAD_XDICTIONARY
360
259
102
}
330
2A
100
AcDbVisualStyle
  2
Flat
 70
     0
 71
     2
 72
     1
 73
     1
 90
        2
 40
0.6
 41
30.0
 62
     5
 63
     7
421
 16777215
 74
     0
 91
        0
 64
     7
 65
   257
 75
     1
175
     1
 42
1.0
 92
        8
 66
     7
 43
1.0
 76
     1
 77
     6
 78
     2
 67
     7
 79
     5
170
     0
171
     0
290
     0
174
     0
 93
       13
 44
0.0
173
     0
291
     1
 45
0.0
1001
ACAD
1000
AcDbSavedByObjectVersion
1070
     0
  0
VISUALSTYLE
  5
2C
102
{ACAD_REACTORS
330
2A
102
}
102
{ACAD_XDICTIONARY
360
25B
102
}
330
2A
100
AcDbVisualStyle
  2
FlatWithEdges
 70
     1
 71
     2
 72
     1
 73
     1
 90
        2
 40
0.6
 41
30.0
 62
     5
 63
     7
421
 16777215
 74
     1
 91
        0
 64
     7
 65
   257
 75
     1
175
     1
 42
1.0
 92
        0
 66
   257
 43
1.0
 76
     1
 77
     6
 78
     2
 67
     7
 79
     5
170
     0
171
     0
290
     0
174
     0
 93
       13
 44
0.0
173
     0
291
     1
 45
0.0
1001
ACAD
1000
AcDbSavedByObjectVersion
1070
     0
  0
VISUALSTYLE
  5
2D
102
{ACAD_REACTORS
330
2A
102
}
102
{ACAD_XDICTIONARY
360
25D
102
}
330
2A
100
AcDbVisualStyle
  2
Gouraud
 70
     2
 71
     2
 72
     2
 73
     1
 90
        2
 40
0.6
 41
30.0
 62
     5
 63
     7
421
 16777215
 74
     0
 91
        0
 64
     7
 65
   257
 75
     1
175
     1
 42
1.0
 92
        0
 66
     7
 43
1.0
 76
     1
 77
     6
 78
     2
 67
     7
 79
     5
170
     0
171
     0
290
     0
174
     0
 93
       13
 44
0.0
173
     0
291
     1
 45
0.0
1001
ACAD
1000
AcDbSavedByObjectVersion
1070
     0
  0
VISUALSTYLE
  5
2E
102
{ACAD_REACTORS
330
2A
102
}
102
{ACAD_XDICTIONARY
360
25F
102
}
330
2A
100
AcDbVisualStyle
  2
GouraudWithEdges
 70
     3
 71
     2
 72
     2
 73
     1
 90
        2
 40
0.6
 41
30.0
 62
     5
 63
     7
421
 16777215
 74
     1
 91
        0
 64
     7
 65
   257
 75
     1
175
     1
 42
1.0
 92
        0
 66
   257
 43
1.0
 76
     1
 77
     6
 78
     2
 67
     7
 79
     5
170
     0
171
     0
290
     0
174
     0
 93
       13
 44
0.0
173
     0
291
     1
 45
0.0
1001
ACAD
1000
AcDbSavedByObjectVersion
1070
     0
  0
VISUALSTYLE
  5
31
102
{ACAD_REACTORS
330
2A
102
}
102
{ACAD_XDICTIONARY
360
265
102
}
330
2A
100
AcDbVisualStyle
  2
Hidden
 70
     6
 71
     1
 72
     2
 73
     2
 90
        0
 40
0.6
 41
30.0
 62
     5
 63
     7
421
 16777215
 74
     2
 91
        2
 64
     7
 65
   257
 75
     2
175
     1
 42
40.0
 92
        0
 66
   257
 43
1.0
 76
     1
 77
     6
 78
     2
 67
     7
 79
     3
170
     0
171
     0
290
     0
174
     0
 93
        1
 44
0.0
173
     0
291
     0
 45
0.0
1001
ACAD
1000
AcDbSavedByObjectVersion
1070
     0
  0
VISUALSTYLE
  5
3B
102
{ACAD_REACTORS
330
2A
102
}
102
{ACAD_XDICTIONARY
360
279
102
}
330
2A
100
AcDbVisualStyle
  2
JitterOff
 70
    20
 71
     2
 72
     2
 73
     0
 90
        0
 40
0.6
 41
30.0
 62
     5
 63
     7
421
 16777215
 74
     1
 91
        4
 64
     7
 65
   257
 75
     1
175
     1
 42
1.0
 92
       10
 66
     7
 43
1.0
 76
     1
 77
     6
 78
     2
 67
     7
 79
     5
170
     0
171
     0
290
     0
174
     0
 93
        1
 44
0.0
173
     0
291
     1
 45
0.0
1001
ACAD
1000
AcDbSavedByObjectVersion
1070
     0
  0
VISUALSTYLE
  5
38
102
{ACAD_REACTORS
330
2A
102
}
102
{ACAD_XDICTIONARY
360
273
102
}
330
2A
100
AcDbVisualStyle
  2
Linepattern
 70
    14
 71
     2
 72
     2
 73
     0
 90
        0
 40
0.6
 41
30.0
 62
     5
 63
     7
421
 16777215
 74
     1
 91
        4
 64
     7
 65
   257
 75
     7
175
     7
 42
1.0
 92
        8
 66
     7
 43
1.0
 76
     1
 77
     6
 78
     2
 67
     7
 79
     5
170
     0
171
     0
290
     0
174
     0
 93
        1
 44
0.0
173
     0
291
     1
 45
0.0
1001
ACAD
1000
AcDbSavedByObjectVersion
1070
     0
  0
VISUALSTYLE
  5
3C
102
{ACAD_REACTORS
330
2A
102
}
102
{ACAD_XDICTIONARY
360
27B
102
}
330
2A
100
AcDbVisualStyle
  2
OverhangOff
 70
    21
 71
     2
 72
     2
 73
     0
 90
        0
 40
0.6
 41
30.0
 62
     5
 63
     7
421
 16777215
 74
     1
 91
        4
 64
     7
 65
   257
 75
     1
175
     1
 42
1.0
 92
        9
 66
     7
 43
1.0
 76
     1
 77
     6
 78
     2
 67
     7
 79
     5
170
     0
171
     0
290
     0
174
     0
 93
        1
 44
0.0
173
     0
291
     1
 45
0.0
1001
ACAD
1000
AcDbSavedByObjectVersion
1070
     0
  0
VISUALSTYLE
  5
33
102
{ACAD_REACTORS
330
2A
102
}
102
{ACAD_XDICTIONARY
360
269
102
}
330
2A
100
AcDbVisualStyle
  2
Realistic
 70
     8
 71
     2
 72
     3
 73
     0
 90
        2
 40
0.6
 41
30.0
 62
     5
 63
     7
421
 16777215
 74
     0
 91
        0
 64
     7
 65
   257
 75
     1
175
     1
 42
1.0
 92
        8
 66
   257
 43
1.0
 76
     1
 77
     6
 78
     2
 67
     7
 79
     3
170
     0
171
     0
290
     0
174
     0
 93
       13
 44
0.0
173
     0
291
     0
 45
0.0
1001
ACAD
1000
AcDbSavedByObjectVersion
1070
     0
  0
VISUALSTYLE
  5
42
102
{ACAD_REACTORS
330
2A
102
}
102
{ACAD_XDICTIONARY
360
287
102
}
330
2A
100
AcDbVisualStyle
  2
Shaded
 70
    27
 71
     2
 72
     2
 73
     1
 90
        2
 40
0.6
 41
30.0
 62
     5
 63
     7
421
 16777215
 74
     0
 91
        4
 64
     7
 65
   257
 75
     1
175
     1
 42
1.0
 92
        8
 66
   257
 43
1.0
 76
     1
 77
     6
 78
     2
 67
     8
425
  7895160
 79
     3
170
     0
171
     0
290
     0
174
     0
 93
        5
 44
0.0
173
     0
291
     0
 45
0.0
1001
ACAD
1000
AcDbSavedByObjectVersion
1070
     0
  0
VISUALSTYLE
  5
41
102
{ACAD_REACTORS
330
2A
102
}
102
{ACAD_XDICTIONARY
360
285
102
}
330
2A
100
AcDbVisualStyle
  2
Shaded with edges
 70
    26
 71
     2
 72
     2
 73
     1
 90
        2
 40
0.6
 41
30.0
 62
     5
 63
     7
421
 16777215
 74
     1
 91
       10
 64
     7
 65
   257
 75
     2
175
     1
 42
1.0
 92
        8
 66
   257
 43
1.0
 76
     1
 77
     6
 78
     2
 67
     7
 79
     3
170
     0
171
     0
290
     0
174
     0
 93
        5
 44
0.0
173
     0
291
     0
 45
0.0
1001
ACAD
1000
AcDbSavedByObjectVersion
1070
     0
  0
VISUALSTYLE
  5
3E
102
{ACAD_REACTORS
330
2A
102
}
102
{ACAD_XDICTIONARY
360
27F
102
}
330
2A
100
AcDbVisualStyle
  2
Shades of Gray
 70
    23
 71
     2
 72
     2
 73
     3
 90
        0
 40
0.6
 41
30.0
 62
     5
 63
     7
421
 16777215
 74
     2
 91
        2
 64
     7
 65
     7
 75
     1
175
     1
 42
40.0
 92
        8
 66
     7
 43
1.0
 76
     1
 77
     6
 78
     2
 67
     7
 79
     3
170
     0
171
     0
290
     0
174
     0
 93
        1
 44
0.0
173
     0
291
     0
 45
0.0
1001
ACAD
1000
AcDbSavedByObjectVersion
1070
     0
  0
VISUALSTYLE
  5
3F
102
{ACAD_REACTORS
330
2A
102
}
102
{ACAD_XDICTIONARY
360
281
102
}
330
2A
100
AcDbVisualStyle
  2
Sketchy
 70
    24
 71
     1
 72
     2
 73
     2
 90
        0
 40
0.6
 41
30.0
 62
     5
 63
     7
421
 16777215
 74
     2
 91
        2
 64
     7
 65
     7
 75
     1
175
     1
 42
40.0
 92
       11
 66
     7
 43
1.0
 76
     1
 77
     6
 78
     2
 67
     7
 79
     6
170
     0
171
     0
290
     0
174
     0
 93
        1
 44
0.0
173
     0
291
     0
 45
0.0
1001
ACAD
1000
AcDbSavedByObjectVersion
1070
     0
  0
VISUALSTYLE
  5
37
102
{ACAD_REACTORS
330
2A
102
}
102
{ACAD_XDICTIONARY
360
271
102
}
330
2A
100
AcDbVisualStyle
  2
Thicken
 70
    13
 71
     2
 72
     2
 73
     0
 90
        0
 40
0.6
 41
30.0
 62
     5
 63
     7
421
 16777215
 74
     1
 91
        4
 64
     7
 65
   257
 75
     1
175
     1
 42
1.0
 92
       12
 66
     7
 43
1.0
 76
     1
 77
     6
 78
     2
 67
     7
 79
     5
170
     0
171
     0
290
     0
174
     0
 93
        1
 44
0.0
173
     0
291
     1
 45
0.0
1001
ACAD
1000
AcDbSavedByObjectVersion
1070
     0
  0
VISUALSTYLE
  5
30
102
{ACAD_REACTORS
330
2A
102
}
102
{ACAD_XDICTIONARY
360
263
102
}
330
2A
100
AcDbVisualStyle
  2
Wireframe
 70
     5
 71
     0
 72
     2
 73
     0
 90
        0
 40
0.6
 41
30.0
 62
     5
 63
     7
421
 16777215
 74
     1
 91
        4
 64
     7
 65
   257
 75
     1
175
     1
 42
1.0
 92
        0
 66
   257
 43
1.0
 76
     1
 77
     6
 78
     2
 67
     7
 79
     3
170
     0
171
     0
290
     0
174
     0
 93
        1
 44
0.0
173
     0
291
     0
 45
0.0
1001
ACAD
1000
AcDbSavedByObjectVersion
1070
     0
  0
VISUALSTYLE
  5
40
102
{ACAD_REACTORS
330
2A
102
}
102
{ACAD_XDICTIONARY
360
283
102
}
330
2A
100
AcDbVisualStyle
  2
X-Ray
 70
    25
 71
     2
 72
     2
 73
     1
 90
        1
 40
0.5
 41
30.0
 62
     5
 63
     7
421
 16777215
 74
     1
 91
        0
 64
     7
 65
   257
 75
     1
175
     1
 42
1.0
 92
        8
 66
     7
 43
1.0
 76
     1
 77
     6
 78
     2
 67
     7
 79
     3
170
     0
171
     0
290
     0
174
     0
 93
       13
 44
0.0
173
     0
291
     0
 45
0.0
1001
ACAD
1000
AcDbSavedByObjectVersion
1070
     0
  0
DICTIONARYVAR
  5
256
102
{ACAD_REACTORS
330
255
102
}
330
255
100
DictionaryVariables
280
     0
  1
1:1
  0
DICTIONARYVAR
  5
29A
102
{ACAD_REACTORS
330
255
102
}
330
255
100
DictionaryVariables
280
     0
  1
3.500000
  0
DICTIONARYVAR
  5
29B
102
{ACAD_REACTORS
330
255
102
}
330
255
100
DictionaryVariables
280
     0
  1
acadiso.lin
  0
DICTIONARYVAR
  5
297
102
{ACAD_REACTORS
330
255
102
}
330
255
100
DictionaryVariables
280
     0
  1
Standard
  0
DICTIONARYVAR
  5
296
102
{ACAD_REACTORS
330
255
102
}
330
255
100
DictionaryVariables
280
     0
  1
Standard
  0
DICTIONARYVAR
  5
257
102
{ACAD_REACTORS
330
255
102
}
330
255
100
DictionaryVariables
280
     0
  1
1
  0
DICTIONARYVAR
  5
258
102
{ACAD_REACTORS
330
255
102
}
330
255
100
DictionaryVariables
280
     0
  1
2
  0
DICTIONARY
  5
28B
330
45
100
AcDbDictionary
280
     1
281
     1
  3
ACAD_XREC_ROUNDTRIP
360
28C
  0
DICTIONARY
  5
289
330
44
100
AcDbDictionary
280
     1
281
     1
  3
ACAD_XREC_ROUNDTRIP
360
28A
  0
DICTIONARY
  5
28D
330
46
100
AcDbDictionary
280
     1
281
     1
  3
ACAD_XREC_ROUNDTRIP
360
28E
  0
DICTIONARY
  5
293
330
6C
100
AcDbDictionary
280
     1
281
     1
  3
ACAD_XREC_ROUNDTRIP
360
294
  0
DICTIONARY
  5
28F
330
6A
100
AcDbDictionary
280
     1
281
     1
  3
ACAD_ROUNDTRIP_2008_TABLESTYLE_CELLSTYLEMAP
360
291
  3
ACAD_XREC_ROUNDTRIP
360
290
  0
DICTIONARY
  5
261
330
2F
100
AcDbDictionary
280
     1
281
     1
  3
ACAD_XREC_ROUNDTRIP
360
262
  0
DICTIONARY
  5
267
330
32
100
AcDbDictionary
280
     1
281
     1
  3
ACAD_XREC_ROUNDTRIP
360
268
  0
DICTIONARY
  5
26F
330
36
100
AcDbDictionary
280
     1
281
     1
  3
ACAD_XREC_ROUNDTRIP
360
270
  0
DICTIONARY
  5
277
330
3A
100
AcDbDictionary
280
     1
281
     1
  3
ACAD_XREC_ROUNDTRIP
360
278
  0
DICTIONARY
  5
26B
330
34
100
AcDbDictionary
280
     1
281
     1
  3
ACAD_XREC_ROUNDTRIP
360
26C
  0
DICTIONARY
  5
26D
330
35
100
AcDbDictionary
280
     1
281
     1
  3
ACAD_XREC_ROUNDTRIP
360
26E
  0
DICTIONARY
  5
27D
330
3D
100
AcDbDictionary
280
     1
281
     1
  3
ACAD_XREC_ROUNDTRIP
360
27E
  0
DICTIONARY
  5
275
330
39
100
AcDbDictionary
280
     1
281
     1
  3
ACAD_XREC_ROUNDTRIP
360
276
  0
DICTIONARY
  5
259
330
2B
100
AcDbDictionary
280
     1
281
     1
  3
ACAD_XREC_ROUNDTRIP
360
25A
  0
DICTIONARY
  5
25B
330
2C
100
AcDbDictionary
280
     1
281
     1
  3
ACAD_XREC_ROUNDTRIP
360
25C
  0
DICTIONARY
  5
25D
330
2D
100
AcDbDictionary
280
     1
281
     1
  3
ACAD_XREC_ROUNDTRIP
360
25E
  0
DICTIONARY
  5
25F
330
2E
100
AcDbDictionary
280
     1
281
     1
  3
ACAD_XREC_ROUNDTRIP
360
260
  0
DICTIONARY
  5
265
330
31
100
AcDbDictionary
280
     1
281
     1
  3
ACAD_XREC_ROUNDTRIP
360
266
  0
DICTIONARY
  5
279
330
3B
100
AcDbDictionary
280
     1
281
     1
  3
ACAD_XREC_ROUNDTRIP
360
27A
  0
DICTIONARY
  5
273
330
38
100
AcDbDictionary
280
     1
281
     1
  3
ACAD_XREC_ROUNDTRIP
360
274
  0
DICTIONARY
  5
27B
330
3C
100
AcDbDictionary
280
     1
281
     1
  3
ACAD_XREC_ROUNDTRIP
360
27C
  0
DICTIONARY
  5
269
330
33
100
AcDbDictionary
280
     1
281
     1
  3
ACAD_XREC_ROUNDTRIP
360
26A
  0
DICTIONARY
  5
287
330
42
100
AcDbDictionary
280
     1
281
     1
  3
ACAD_XREC_ROUNDTRIP
360
288
  0
DICTIONARY
  5
285
330
41
100
AcDbDictionary
280
     1
281
     1
  3
ACAD_XREC_ROUNDTRIP
360
286
  0
DICTIONARY
  5
27F
330
3E
100
AcDbDictionary
280
     1
281
     1
  3
ACAD_XREC_ROUNDTRIP
360
280
  0
DICTIONARY
  5
281
330
3F
100
AcDbDictionary
280
     1
281
     1
  3
ACAD_XREC_ROUNDTRIP
360
282
  0
DICTIONARY
  5
271
330
37
100
AcDbDictionary
280
     1
281
     1
  3
ACAD_XREC_ROUNDTRIP
360
272
  0
DICTIONARY
  5
263
330
30
100
AcDbDictionary
280
     1
281
     1
  3
ACAD_XREC_ROUNDTRIP
360
264
  0
DICTIONARY
  5
283
330
40
100
AcDbDictionary
280
     1
281
     1
  3
ACAD_XREC_ROUNDTRIP
360
284
  0
XRECORD
  5
28C
102
{ACAD_REACTORS
330
28B
102
}
330
28B
100
AcDbXrecord
280
     1
102
MATERIAL
148
0.0
149
0.0
149
0.0
 93
        0
 94
      127
282
     0
 72
     1
 77
     1
171
     1
175
     1
179
     1
273
     0
  0
XRECORD
  5
28A
102
{ACAD_REACTORS
330
289
102
}
330
289
100
AcDbXrecord
280
     1
102
MATERIAL
148
0.0
149
0.0
149
0.0
 93
        0
 94
      127
282
     0
 72
     1
 77
     1
171
     1
175
     1
179
     1
273
     0
  0
XRECORD
  5
28E
102
{ACAD_REACTORS
330
28D
102
}
330
28D
100
AcDbXrecord
280
     1
102
MATERIAL
148
0.0
149
0.0
149
0.0
 93
        0
 94
      127
282
     0
 72
     1
 77
     1
171
     1
175
     1
179
     1
273
     0
  0
XRECORD
  5
294
102
{ACAD_REACTORS
330
293
102
}
330
293
100
AcDbXrecord
280
     1
102
ACAD_ROUNDTRIP_2010_MLEADER_STYLE
  0
CELLSTYLEMAP
  5
291
102
{ACAD_REACTORS
330
28F
102
}
330
28F
100
AcDbCellStyleMap
 90
        3
300
CELLSTYLE
  1
TABLEFORMAT_BEGIN
 90
        5
170
     1
 91
        0
 92
    32768
 62
   257
 93
        1
300
CONTENTFORMAT
  1
CONTENTFORMAT_BEGIN
 90
        0
 91
        0
 92
        4
 93
        0
300

 40
0.0
140
1.0
 94
        5
 62
     0
340
11
144
6.0
309
CONTENTFORMAT_END
171
     1
301
MARGIN
  1
CELLMARGIN_BEGIN
 40
1.5
 40
1.5
 40
1.5
 40
1.5
 40
1.5
 40
1.5
309
CELLMARGIN_END
 94
        6
 95
        1
302
GRIDFORMAT
  1
GRIDFORMAT_BEGIN
 90
        0
 91
        1
 62
     0
 92
       -2
340
14
 93
        0
 40
0.045
309
GRIDFORMAT_END
 95
        2
302
GRIDFORMAT
  1
GRIDFORMAT_BEGIN
 90
        0
 91
        1
 62
     0
 92
       -2
340
14
 93
        0
 40
0.045
309
GRIDFORMAT_END
 95
        4
302
GRIDFORMAT
  1
GRIDFORMAT_BEGIN
 90
        0
 91
        1
 62
     0
 92
       -2
340
14
 93
        0
 40
0.045
309
GRIDFORMAT_END
 95
        8
302
GRIDFORMAT
  1
GRIDFORMAT_BEGIN
 90
        0
 91
        1
 62
     0
 92
       -2
340
14
 93
        0
 40
0.045
309
GRIDFORMAT_END
 95
       16
302
GRIDFORMAT
  1
GRIDFORMAT_BEGIN
 90
        0
 91
        1
 62
     0
 92
       -2
340
14
 93
        0
 40
0.045
309
GRIDFORMAT_END
 95
       32
302
GRIDFORMAT
  1
GRIDFORMAT_BEGIN
 90
        0
 91
        1
 62
     0
 92
       -2
340
14
 93
        0
 40
0.045
309
GRIDFORMAT_END
309
TABLEFORMAT_END
  1
CELLSTYLE_BEGIN
 90
        1
 91
        1
300
_TITLE
309
CELLSTYLE_END
300
CELLSTYLE
  1
TABLEFORMAT_BEGIN
 90
        5
170
     1
 91
        0
 92
        0
 62
   257
 93
        1
300
CONTENTFORMAT
  1
CONTENTFORMAT_BEGIN
 90
        0
 91
        0
 92
        4
 93
        0
300

 40
0.0
140
1.0
 94
        5
 62
     0
340
11
144
4.5
309
CONTENTFORMAT_END
171
     1
301
MARGIN
  1
CELLMARGIN_BEGIN
 40
1.5
 40
1.5
 40
1.5
 40
1.5
 40
1.5
 40
1.5
309
CELLMARGIN_END
 94
        6
 95
        1
302
GRIDFORMAT
  1
GRIDFORMAT_BEGIN
 90
        0
 91
        1
 62
     0
 92
       -2
340
14
 93
        0
 40
0.045
309
GRIDFORMAT_END
 95
        2
302
GRIDFORMAT
  1
GRIDFORMAT_BEGIN
 90
        0
 91
        1
 62
     0
 92
       -2
340
14
 93
        0
 40
0.045
309
GRIDFORMAT_END
 95
        4
302
GRIDFORMAT
  1
GRIDFORMAT_BEGIN
 90
        0
 91
        1
 62
     0
 92
       -2
340
14
 93
        0
 40
0.045
309
GRIDFORMAT_END
 95
        8
302
GRIDFORMAT
  1
GRIDFORMAT_BEGIN
 90
        0
 91
        1
 62
     0
 92
       -2
340
14
 93
        0
 40
0.045
309
GRIDFORMAT_END
 95
       16
302
GRIDFORMAT
  1
GRIDFORMAT_BEGIN
 90
        0
 91
        1
 62
     0
 92
       -2
340
14
 93
        0
 40
0.045
309
GRIDFORMAT_END
 95
       32
302
GRIDFORMAT
  1
GRIDFORMAT_BEGIN
 90
        0
 91
        1
 62
     0
 92
       -2
340
14
 93
        0
 40
0.045
309
GRIDFORMAT_END
309
TABLEFORMAT_END
  1
CELLSTYLE_BEGIN
 90
        2
 91
        1
300
_HEADER
309
CELLSTYLE_END
300
CELLSTYLE
  1
TABLEFORMAT_BEGIN
 90
        5
170
     1
 91
        0
 92
        0
 62
   257
 93
        1
300
CONTENTFORMAT
  1
CONTENTFORMAT_BEGIN
 90
        0
 91
        0
 92
        4
 93
        0
300

 40
0.0
140
1.0
 94
        2
 62
     0
340
11
144
4.5
309
CONTENTFORMAT_END
171
     1
301
MARGIN
  1
CELLMARGIN_BEGIN
 40
1.5
 40
1.5
 40
1.5
 40
1.5
 40
1.5
 40
1.5
309
CELLMARGIN_END
 94
        6
 95
        1
302
GRIDFORMAT
  1
GRIDFORMAT_BEGIN
 90
        0
 91
        1
 62
     0
 92
       -2
340
14
 93
        0
 40
0.045
309
GRIDFORMAT_END
 95
        2
302
GRIDFORMAT
  1
GRIDFORMAT_BEGIN
 90
        0
 91
        1
 62
     0
 92
       -2
340
14
 93
        0
 40
0.045
309
GRIDFORMAT_END
 95
        4
302
GRIDFORMAT
  1
GRIDFORMAT_BEGIN
 90
        0
 91
        1
 62
     0
 92
       -2
340
14
 93
        0
 40
0.045
309
GRIDFORMAT_END
 95
        8
302
GRIDFORMAT
  1
GRIDFORMAT_BEGIN
 90
        0
 91
        1
 62
     0
 92
       -2
340
14
 93
        0
 40
0.045
309
GRIDFORMAT_END
 95
       16
302
GRIDFORMAT
  1
GRIDFORMAT_BEGIN
 90
        0
 91
        1
 62
     0
 92
       -2
340
14
 93
        0
 40
0.045
309
GRIDFORMAT_END
 95
       32
302
GRIDFORMAT
  1
GRIDFORMAT_BEGIN
 90
        0
 91
        1
 62
     0
 92
       -2
340
14
 93
        0
 40
0.045
309
GRIDFORMAT_END
309
TABLEFORMAT_END
  1
CELLSTYLE_BEGIN
 90
        3
 91
        2
300
_DATA
309
CELLSTYLE_END
  0
XRECORD
  5
290
102
{ACAD_REACTORS
330
28F
102
}
330
28F
100
AcDbXrecord
280
     1
102
ACAD_ROUNDTRIP_PRE2007_TABLESTYLE
 90
        4
 91
        0
  1

 92
        4
 93
        0
  2

 94
        4
 95
        0
  3

  0
XRECORD
  5
262
102
{ACAD_REACTORS
330
261
102
}
330
261
100
AcDbXrecord
280
     1
102
RTVSPropertyOp0
 70
     1
102
RTVSPropertyOp1
 70
     1
102
RTVSPropertyOp2
 70
     1
102
RTVSPropertyOp3
 70
     1
102
RTVSPropertyOp4
 70
     1
102
RTVSPropertyOp5
 70
     1
102
RTVSPropertyOp6
 70
     1
102
RTVSPropertyOp7
 70
     1
102
RTVSPropertyOp8
 70
     1
102
RTVSPropertyOp9
 70
     1
102
RTVSPropertyOp10
 70
     1
102
RTVSPropertyOp11
 70
     1
102
RTVSPropertyOp12
 70
     1
102
RTVSPropertyOp13
 70
     1
102
RTVSPropertyOp14
 70
     1
102
RTVSPropertyOp15
 70
     1
102
RTVSPropertyOp16
 70
     1
102
RTVSPropertyOp17
 70
     1
102
RTVSPropertyOp18
 70
     1
102
RTVSPropertyOp19
 70
     1
102
RTVSPropertyOp20
 70
     1
102
RTVSPropertyOp21
 70
     1
102
RTVSPropertyOp22
 70
     1
102
RTVSPropertyOp23
 70
     1
102
RTVSPropertyOp24
 70
     1
102
RTVSPropertyOp25
 70
     1
102
RTVSPropertyOp26
 70
     1
102
RTVSPropertyOp27
 70
     1
102
RTVSPropertyOp28
 70
     1
102
RTVSPropertyOp29
 70
     1
102
RTVSPropertyOp30
 70
     1
102
RTVSPropertyOp31
 70
     1
102
RTVSPropertyOp32
 70
     1
102
RTVSPropertyOp33
 70
     1
102
RTVSPropertyOp34
 70
     1
102
RTVSPropertyOp35
 70
     1
102
RTVSPropertyOp36
 70
     1
102
RTVSPropertyOp37
 70
     1
102
RTVSPropertyOp38
 70
     1
102
RTVSPropertyOp39
 70
     1
102
RTVSPropertyOp40
 70
     1
102
RTVSPropertyOp41
 70
     1
102
RTVSPropertyOp42
 70
     1
102
RTVSPropertyOp43
 70
     1
102
RTVSPropertyOp44
 70
     1
102
RTVSPropertyOp45
 70
     1
102
RTVSPropertyOp46
 70
     1
102
RTVSPropertyOp47
 70
     1
102
RTVSPropertyOp48
 70
     1
102
RTVSPropertyOp49
 70
     1
102
RTVSPropertyOp50
 70
     1
102
RTVSPropertyOp51
 70
     0
102
RTVSPropertyOp52
 70
     0
102
RTVSPropertyOp53
 70
     1
102
RTVSPropertyOp54
 70
     1
102
RTVSPropertyOp55
 70
     1
102
RTVSPropertyOp56
 70
     1
102
RTVSPropertyOp57
 70
     1
102
RTVSPost2010Prop28
280
     1
102
RTVSPost2010PropOp28
 70
     1
102
RTVSPost2010Prop29
280
     1
102
RTVSPost2010PropOp29
 70
     1
102
RTVSPost2010Prop30
280
     0
102
RTVSPost2010PropOp30
 70
     1
102
RTVSPost2010Prop31
280
     0
102
RTVSPost2010PropOp31
 70
     1
102
RTVSPost2010Prop32
280
     0
102
RTVSPost2010PropOp32
 70
     1
102
RTVSPost2010Prop33
280
     0
102
RTVSPost2010PropOp33
 70
     1
102
RTVSPost2010Prop34
280
     0
102
RTVSPost2010PropOp34
 70
     1
102
RTVSPost2010Prop35
280
     0
102
RTVSPost2010PropOp35
 70
     1
102
RTVSPost2010Prop36
280
     0
102
RTVSPost2010PropOp36
 70
     1
102
RTVSPost2010Prop37
 90
       50
102
RTVSPost2010PropOp37
 70
     1
102
RTVSPost2010Prop38
140
0.0
102
RTVSPost2010PropOp38
 70
     1
102
RTVSPost2010Prop39
140
1.0
102
RTVSPost2010PropOp39
 70
     1
102
RTVSPost2010Prop40
 90
        0
102
RTVSPost2010PropOp40
 70
     1
102
RTVSPost2010Prop41ColorIndex
 90
       18
102
RTVSPost2010Prop41ColorRGB
 90
        0
102
RTVSPost2010PropOp41
 70
     1
102
RTVSPost2010Prop42
 90
       50
102
RTVSPost2010PropOp42
 70
     1
102
RTVSPost2010Prop43
 90
        3
102
RTVSPost2010PropOp43
 70
     1
102
RTVSPost2010Prop44ColorIndex
 90
        5
102
RTVSPost2010Prop44ColorRGB
 90
      255
102
RTVSPost2010PropOp44
 70
     1
102
RTVSPost2010Prop45
280
     0
102
RTVSPost2010PropOp45
 70
     1
102
RTVSPost2010Prop46
 90
       50
102
RTVSPost2010PropOp46
 70
     1
102
RTVSPost2010Prop47
 90
       50
102
RTVSPost2010PropOp47
 70
     1
102
RTVSPost2010Prop48
 90
       50
102
RTVSPost2010PropOp48
 70
     1
102
RTVSPost2010Prop49
280
     0
102
RTVSPost2010PropOp49
 70
     1
102
RTVSPost2010Prop50
 90
       50
102
RTVSPost2010PropOp50
 70
     1
102
RTVSPost2010Prop51ColorIndex
 90
      256
102
RTVSPost2010Prop51ColorRGB
 90
-16777216
102
RTVSPost2010PropOp51
 70
     0
102
RTVSPost2010Prop52
140
1.0
102
RTVSPost2010PropOp52
 70
     0
102
RTVSPost2010Prop53
 90
        2
102
RTVSPost2010PropOp53
 70
     1
102
RTVSPost2010Prop54
  1
strokes_ogs.tif
102
RTVSPost2010PropOp54
 70
     1
102
RTVSPost2010Prop55
280
     0
102
RTVSPost2010PropOp55
 70
     1
102
RTVSPost2010Prop56
140
1.0
102
RTVSPost2010PropOp56
 70
     1
102
RTVSPost2010Prop57
140
1.0
102
RTVSPost2010PropOp57
 70
     1
  0
XRECORD
  5
268
102
{ACAD_REACTORS
330
267
102
}
330
267
100
AcDbXrecord
280
     1
102
RTVSPropertyOp0
 70
     1
102
RTVSPropertyOp1
 70
     1
102
RTVSPropertyOp2
 70
     1
102
RTVSPropertyOp3
 70
     1
102
RTVSPropertyOp4
 70
     1
102
RTVSPropertyOp5
 70
     1
102
RTVSPropertyOp6
 70
     1
102
RTVSPropertyOp7
 70
     1
102
RTVSPropertyOp8
 70
     1
102
RTVSPropertyOp9
 70
     1
102
RTVSPropertyOp10
 70
     1
102
RTVSPropertyOp11
 70
     1
102
RTVSPropertyOp12
 70
     1
102
RTVSPropertyOp13
 70
     1
102
RTVSPropertyOp14
 70
     1
102
RTVSPropertyOp15
 70
     1
102
RTVSPropertyOp16
 70
     1
102
RTVSPropertyOp17
 70
     1
102
RTVSPropertyOp18
 70
     1
102
RTVSPropertyOp19
 70
     1
102
RTVSPropertyOp20
 70
     1
102
RTVSPropertyOp21
 70
     1
102
RTVSPropertyOp22
 70
     1
102
RTVSPropertyOp23
 70
     1
102
RTVSPropertyOp24
 70
     1
102
RTVSPropertyOp25
 70
     1
102
RTVSPropertyOp26
 70
     1
102
RTVSPropertyOp27
 70
     1
102
RTVSPropertyOp28
 70
     1
102
RTVSPropertyOp29
 70
     1
102
RTVSPropertyOp30
 70
     1
102
RTVSPropertyOp31
 70
     1
102
RTVSPropertyOp32
 70
     1
102
RTVSPropertyOp33
 70
     1
102
RTVSPropertyOp34
 70
     1
102
RTVSPropertyOp35
 70
     1
102
RTVSPropertyOp36
 70
     1
102
RTVSPropertyOp37
 70
     1
102
RTVSPropertyOp38
 70
     1
102
RTVSPropertyOp39
 70
     1
102
RTVSPropertyOp40
 70
     1
102
RTVSPropertyOp41
 70
     1
102
RTVSPropertyOp42
 70
     1
102
RTVSPropertyOp43
 70
     1
102
RTVSPropertyOp44
 70
     1
102
RTVSPropertyOp45
 70
     1
102
RTVSPropertyOp46
 70
     1
102
RTVSPropertyOp47
 70
     1
102
RTVSPropertyOp48
 70
     1
102
RTVSPropertyOp49
 70
     1
102
RTVSPropertyOp50
 70
     1
102
RTVSPropertyOp51
 70
     0
102
RTVSPropertyOp52
 70
     0
102
RTVSPropertyOp53
 70
     1
102
RTVSPropertyOp54
 70
     1
102
RTVSPropertyOp55
 70
     1
102
RTVSPropertyOp56
 70
     1
102
RTVSPropertyOp57
 70
     1
102
RTVSPost2010Prop28
280
     0
102
RTVSPost2010PropOp28
 70
     1
102
RTVSPost2010Prop29
280
     1
102
RTVSPost2010PropOp29
 70
     1
102
RTVSPost2010Prop30
280
     1
102
RTVSPost2010PropOp30
 70
     1
102
RTVSPost2010Prop31
280
     0
102
RTVSPost2010PropOp31
 70
     1
102
RTVSPost2010Prop32
280
     0
102
RTVSPost2010PropOp32
 70
     1
102
RTVSPost2010Prop33
280
     0
102
RTVSPost2010PropOp33
 70
     1
102
RTVSPost2010Prop34
280
     0
102
RTVSPost2010PropOp34
 70
     1
102
RTVSPost2010Prop35
280
     0
102
RTVSPost2010PropOp35
 70
     1
102
RTVSPost2010Prop36
280
     0
102
RTVSPost2010PropOp36
 70
     1
102
RTVSPost2010Prop37
 90
       50
102
RTVSPost2010PropOp37
 70
     1
102
RTVSPost2010Prop38
140
0.0
102
RTVSPost2010PropOp38
 70
     1
102
RTVSPost2010Prop39
140
1.0
102
RTVSPost2010PropOp39
 70
     1
102
RTVSPost2010Prop40
 90
        0
102
RTVSPost2010PropOp40
 70
     1
102
RTVSPost2010Prop41ColorIndex
 90
       18
102
RTVSPost2010Prop41ColorRGB
 90
        0
102
RTVSPost2010PropOp41
 70
     1
102
RTVSPost2010Prop42
 90
       50
102
RTVSPost2010PropOp42
 70
     1
102
RTVSPost2010Prop43
 90
        3
102
RTVSPost2010PropOp43
 70
     1
102
RTVSPost2010Prop44ColorIndex
 90
        5
102
RTVSPost2010Prop44ColorRGB
 90
      255
102
RTVSPost2010PropOp44
 70
     1
102
RTVSPost2010Prop45
280
     0
102
RTVSPost2010PropOp45
 70
     1
102
RTVSPost2010Prop46
 90
       50
102
RTVSPost2010PropOp46
 70
     1
102
RTVSPost2010Prop47
 90
       50
102
RTVSPost2010PropOp47
 70
     1
102
RTVSPost2010Prop48
 90
       50
102
RTVSPost2010PropOp48
 70
     1
102
RTVSPost2010Prop49
280
     0
102
RTVSPost2010PropOp49
 70
     1
102
RTVSPost2010Prop50
 90
       50
102
RTVSPost2010PropOp50
 70
     1
102
RTVSPost2010Prop51ColorIndex
 90
      256
102
RTVSPost2010Prop51ColorRGB
 90
-16777216
102
RTVSPost2010PropOp51
 70
     0
102
RTVSPost2010Prop52
140
1.0
102
RTVSPost2010PropOp52
 70
     0
102
RTVSPost2010Prop53
 90
        2
102
RTVSPost2010PropOp53
 70
     1
102
RTVSPost2010Prop54
  1
strokes_ogs.tif
102
RTVSPost2010PropOp54
 70
     1
102
RTVSPost2010Prop55
280
     0
102
RTVSPost2010PropOp55
 70
     1
102
RTVSPost2010Prop56
140
1.0
102
RTVSPost2010PropOp56
 70
     1
102
RTVSPost2010Prop57
140
1.0
102
RTVSPost2010PropOp57
 70
     1
  0
XRECORD
  5
270
102
{ACAD_REACTORS
330
26F
102
}
330
26F
100
AcDbXrecord
280
     1
102
RTVSPropertyOp0
 70
     1
102
RTVSPropertyOp1
 70
     1
102
RTVSPropertyOp2
 70
     1
102
RTVSPropertyOp3
 70
     1
102
RTVSPropertyOp4
 70
     1
102
RTVSPropertyOp5
 70
     1
102
RTVSPropertyOp6
 70
     1
102
RTVSPropertyOp7
 70
     1
102
RTVSPropertyOp8
 70
     1
102
RTVSPropertyOp9
 70
     1
102
RTVSPropertyOp10
 70
     1
102
RTVSPropertyOp11
 70
     1
102
RTVSPropertyOp12
 70
     1
102
RTVSPropertyOp13
 70
     1
102
RTVSPropertyOp14
 70
     1
102
RTVSPropertyOp15
 70
     1
102
RTVSPropertyOp16
 70
     1
102
RTVSPropertyOp17
 70
     1
102
RTVSPropertyOp18
 70
     1
102
RTVSPropertyOp19
 70
     1
102
RTVSPropertyOp20
 70
     1
102
RTVSPropertyOp21
 70
     1
102
RTVSPropertyOp22
 70
     1
102
RTVSPropertyOp23
 70
     1
102
RTVSPropertyOp24
 70
     1
102
RTVSPropertyOp25
 70
     1
102
RTVSPropertyOp26
 70
     1
102
RTVSPropertyOp27
 70
     1
102
RTVSPropertyOp28
 70
     1
102
RTVSPropertyOp29
 70
     1
102
RTVSPropertyOp30
 70
     1
102
RTVSPropertyOp31
 70
     1
102
RTVSPropertyOp32
 70
     1
102
RTVSPropertyOp33
 70
     1
102
RTVSPropertyOp34
 70
     1
102
RTVSPropertyOp35
 70
     1
102
RTVSPropertyOp36
 70
     1
102
RTVSPropertyOp37
 70
     1
102
RTVSPropertyOp38
 70
     1
102
RTVSPropertyOp39
 70
     1
102
RTVSPropertyOp40
 70
     1
102
RTVSPropertyOp41
 70
     1
102
RTVSPropertyOp42
 70
     1
102
RTVSPropertyOp43
 70
     1
102
RTVSPropertyOp44
 70
     1
102
RTVSPropertyOp45
 70
     1
102
RTVSPropertyOp46
 70
     1
102
RTVSPropertyOp47
 70
     1
102
RTVSPropertyOp48
 70
     1
102
RTVSPropertyOp49
 70
     1
102
RTVSPropertyOp50
 70
     1
102
RTVSPropertyOp51
 70
     0
102
RTVSPropertyOp52
 70
     0
102
RTVSPropertyOp53
 70
     1
102
RTVSPropertyOp54
 70
     1
102
RTVSPropertyOp55
 70
     1
102
RTVSPropertyOp56
 70
     1
102
RTVSPropertyOp57
 70
     1
102
RTVSPost2010Prop28
280
     0
102
RTVSPost2010PropOp28
 70
     1
102
RTVSPost2010Prop29
280
     1
102
RTVSPost2010PropOp29
 70
     1
102
RTVSPost2010Prop30
280
     1
102
RTVSPost2010PropOp30
 70
     1
102
RTVSPost2010Prop31
280
     0
102
RTVSPost2010PropOp31
 70
     1
102
RTVSPost2010Prop32
280
     0
102
RTVSPost2010PropOp32
 70
     1
102
RTVSPost2010Prop33
280
     0
102
RTVSPost2010PropOp33
 70
     1
102
RTVSPost2010Prop34
280
     0
102
RTVSPost2010PropOp34
 70
     1
102
RTVSPost2010Prop35
280
     0
102
RTVSPost2010PropOp35
 70
     1
102
RTVSPost2010Prop36
280
     0
102
RTVSPost2010PropOp36
 70
     1
102
RTVSPost2010Prop37
 90
       50
102
RTVSPost2010PropOp37
 70
     1
102
RTVSPost2010Prop38
140
0.0
102
RTVSPost2010PropOp38
 70
     1
102
RTVSPost2010Prop39
140
1.0
102
RTVSPost2010PropOp39
 70
     1
102
RTVSPost2010Prop40
 90
        0
102
RTVSPost2010PropOp40
 70
     1
102
RTVSPost2010Prop41ColorIndex
 90
       18
102
RTVSPost2010Prop41ColorRGB
 90
        0
102
RTVSPost2010PropOp41
 70
     1
102
RTVSPost2010Prop42
 90
       50
102
RTVSPost2010PropOp42
 70
     1
102
RTVSPost2010Prop43
 90
        3
102
RTVSPost2010PropOp43
 70
     1
102
RTVSPost2010Prop44ColorIndex
 90
        5
102
RTVSPost2010Prop44ColorRGB
 90
      255
102
RTVSPost2010PropOp44
 70
     1
102
RTVSPost2010Prop45
280
     0
102
RTVSPost2010PropOp45
 70
     1
102
RTVSPost2010Prop46
 90
       50
102
RTVSPost2010PropOp46
 70
     1
102
RTVSPost2010Prop47
 90
       50
102
RTVSPost2010PropOp47
 70
     1
102
RTVSPost2010Prop48
 90
       50
102
RTVSPost2010PropOp48
 70
     1
102
RTVSPost2010Prop49
280
     0
102
RTVSPost2010PropOp49
 70
     1
102
RTVSPost2010Prop50
 90
       50
102
RTVSPost2010PropOp50
 70
     1
102
RTVSPost2010Prop51ColorIndex
 90
      256
102
RTVSPost2010Prop51ColorRGB
 90
-16777216
102
RTVSPost2010PropOp51
 70
     0
102
RTVSPost2010Prop52
140
1.0
102
RTVSPost2010PropOp52
 70
     0
102
RTVSPost2010Prop53
 90
        2
102
RTVSPost2010PropOp53
 70
     1
102
RTVSPost2010Prop54
  1
strokes_ogs.tif
102
RTVSPost2010PropOp54
 70
     1
102
RTVSPost2010Prop55
280
     0
102
RTVSPost2010PropOp55
 70
     1
102
RTVSPost2010Prop56
140
1.0
102
RTVSPost2010PropOp56
 70
     1
102
RTVSPost2010Prop57
140
1.0
102
RTVSPost2010PropOp57
 70
     1
  0
XRECORD
  5
278
102
{ACAD_REACTORS
330
277
102
}
330
277
100
AcDbXrecord
280
     1
102
RTVSPropertyOp0
 70
     1
102
RTVSPropertyOp1
 70
     1
102
RTVSPropertyOp2
 70
     1
102
RTVSPropertyOp3
 70
     1
102
RTVSPropertyOp4
 70
     1
102
RTVSPropertyOp5
 70
     1
102
RTVSPropertyOp6
 70
     1
102
RTVSPropertyOp7
 70
     1
102
RTVSPropertyOp8
 70
     1
102
RTVSPropertyOp9
 70
     1
102
RTVSPropertyOp10
 70
     1
102
RTVSPropertyOp11
 70
     1
102
RTVSPropertyOp12
 70
     1
102
RTVSPropertyOp13
 70
     1
102
RTVSPropertyOp14
 70
     1
102
RTVSPropertyOp15
 70
     1
102
RTVSPropertyOp16
 70
     1
102
RTVSPropertyOp17
 70
     1
102
RTVSPropertyOp18
 70
     1
102
RTVSPropertyOp19
 70
     1
102
RTVSPropertyOp20
 70
     1
102
RTVSPropertyOp21
 70
     1
102
RTVSPropertyOp22
 70
     1
102
RTVSPropertyOp23
 70
     1
102
RTVSPropertyOp24
 70
     1
102
RTVSPropertyOp25
 70
     1
102
RTVSPropertyOp26
 70
     1
102
RTVSPropertyOp27
 70
     1
102
RTVSPropertyOp28
 70
     1
102
RTVSPropertyOp29
 70
     1
102
RTVSPropertyOp30
 70
     1
102
RTVSPropertyOp31
 70
     1
102
RTVSPropertyOp32
 70
     1
102
RTVSPropertyOp33
 70
     1
102
RTVSPropertyOp34
 70
     1
102
RTVSPropertyOp35
 70
     1
102
RTVSPropertyOp36
 70
     1
102
RTVSPropertyOp37
 70
     1
102
RTVSPropertyOp38
 70
     1
102
RTVSPropertyOp39
 70
     1
102
RTVSPropertyOp40
 70
     1
102
RTVSPropertyOp41
 70
     1
102
RTVSPropertyOp42
 70
     1
102
RTVSPropertyOp43
 70
     1
102
RTVSPropertyOp44
 70
     1
102
RTVSPropertyOp45
 70
     1
102
RTVSPropertyOp46
 70
     1
102
RTVSPropertyOp47
 70
     1
102
RTVSPropertyOp48
 70
     1
102
RTVSPropertyOp49
 70
     1
102
RTVSPropertyOp50
 70
     1
102
RTVSPropertyOp51
 70
     0
102
RTVSPropertyOp52
 70
     0
102
RTVSPropertyOp53
 70
     1
102
RTVSPropertyOp54
 70
     1
102
RTVSPropertyOp55
 70
     1
102
RTVSPropertyOp56
 70
     1
102
RTVSPropertyOp57
 70
     1
102
RTVSPost2010Prop28
280
     0
102
RTVSPost2010PropOp28
 70
     1
102
RTVSPost2010Prop29
280
     1
102
RTVSPost2010PropOp29
 70
     1
102
RTVSPost2010Prop30
280
     1
102
RTVSPost2010PropOp30
 70
     1
102
RTVSPost2010Prop31
280
     0
102
RTVSPost2010PropOp31
 70
     1
102
RTVSPost2010Prop32
280
     0
102
RTVSPost2010PropOp32
 70
     1
102
RTVSPost2010Prop33
280
     0
102
RTVSPost2010PropOp33
 70
     1
102
RTVSPost2010Prop34
280
     0
102
RTVSPost2010PropOp34
 70
     1
102
RTVSPost2010Prop35
280
     0
102
RTVSPost2010PropOp35
 70
     1
102
RTVSPost2010Prop36
280
     0
102
RTVSPost2010PropOp36
 70
     1
102
RTVSPost2010Prop37
 90
       50
102
RTVSPost2010PropOp37
 70
     1
102
RTVSPost2010Prop38
140
0.0
102
RTVSPost2010PropOp38
 70
     1
102
RTVSPost2010Prop39
140
1.0
102
RTVSPost2010PropOp39
 70
     1
102
RTVSPost2010Prop40
 90
        0
102
RTVSPost2010PropOp40
 70
     1
102
RTVSPost2010Prop41ColorIndex
 90
       18
102
RTVSPost2010Prop41ColorRGB
 90
        0
102
RTVSPost2010PropOp41
 70
     1
102
RTVSPost2010Prop42
 90
       50
102
RTVSPost2010PropOp42
 70
     1
102
RTVSPost2010Prop43
 90
        3
102
RTVSPost2010PropOp43
 70
     1
102
RTVSPost2010Prop44ColorIndex
 90
        5
102
RTVSPost2010Prop44ColorRGB
 90
      255
102
RTVSPost2010PropOp44
 70
     1
102
RTVSPost2010Prop45
280
     0
102
RTVSPost2010PropOp45
 70
     1
102
RTVSPost2010Prop46
 90
       50
102
RTVSPost2010PropOp46
 70
     1
102
RTVSPost2010Prop47
 90
       50
102
RTVSPost2010PropOp47
 70
     1
102
RTVSPost2010Prop48
 90
       50
102
RTVSPost2010PropOp48
 70
     1
102
RTVSPost2010Prop49
280
     0
102
RTVSPost2010PropOp49
 70
     1
102
RTVSPost2010Prop50
 90
       50
102
RTVSPost2010PropOp50
 70
     1
102
RTVSPost2010Prop51ColorIndex
 90
      256
102
RTVSPost2010Prop51ColorRGB
 90
-16777216
102
RTVSPost2010PropOp51
 70
     0
102
RTVSPost2010Prop52
140
1.0
102
RTVSPost2010PropOp52
 70
     0
102
RTVSPost2010Prop53
 90
        2
102
RTVSPost2010PropOp53
 70
     1
102
RTVSPost2010Prop54
  1
strokes_ogs.tif
102
RTVSPost2010PropOp54
 70
     1
102
RTVSPost2010Prop55
280
     0
102
RTVSPost2010PropOp55
 70
     1
102
RTVSPost2010Prop56
140
1.0
102
RTVSPost2010PropOp56
 70
     1
102
RTVSPost2010Prop57
140
1.0
102
RTVSPost2010PropOp57
 70
     1
  0
XRECORD
  5
26C
102
{ACAD_REACTORS
330
26B
102
}
330
26B
100
AcDbXrecord
280
     1
102
RTVSPropertyOp0
 70
     1
102
RTVSPropertyOp1
 70
     1
102
RTVSPropertyOp2
 70
     1
102
RTVSPropertyOp3
 70
     1
102
RTVSPropertyOp4
 70
     1
102
RTVSPropertyOp5
 70
     1
102
RTVSPropertyOp6
 70
     1
102
RTVSPropertyOp7
 70
     1
102
RTVSPropertyOp8
 70
     1
102
RTVSPropertyOp9
 70
     1
102
RTVSPropertyOp10
 70
     1
102
RTVSPropertyOp11
 70
     1
102
RTVSPropertyOp12
 70
     1
102
RTVSPropertyOp13
 70
     1
102
RTVSPropertyOp14
 70
     1
102
RTVSPropertyOp15
 70
     1
102
RTVSPropertyOp16
 70
     1
102
RTVSPropertyOp17
 70
     1
102
RTVSPropertyOp18
 70
     1
102
RTVSPropertyOp19
 70
     1
102
RTVSPropertyOp20
 70
     1
102
RTVSPropertyOp21
 70
     1
102
RTVSPropertyOp22
 70
     1
102
RTVSPropertyOp23
 70
     1
102
RTVSPropertyOp24
 70
     1
102
RTVSPropertyOp25
 70
     1
102
RTVSPropertyOp26
 70
     1
102
RTVSPropertyOp27
 70
     1
102
RTVSPropertyOp28
 70
     1
102
RTVSPropertyOp29
 70
     1
102
RTVSPropertyOp30
 70
     1
102
RTVSPropertyOp31
 70
     1
102
RTVSPropertyOp32
 70
     1
102
RTVSPropertyOp33
 70
     1
102
RTVSPropertyOp34
 70
     1
102
RTVSPropertyOp35
 70
     1
102
RTVSPropertyOp36
 70
     1
102
RTVSPropertyOp37
 70
     1
102
RTVSPropertyOp38
 70
     1
102
RTVSPropertyOp39
 70
     1
102
RTVSPropertyOp40
 70
     1
102
RTVSPropertyOp41
 70
     1
102
RTVSPropertyOp42
 70
     1
102
RTVSPropertyOp43
 70
     1
102
RTVSPropertyOp44
 70
     1
102
RTVSPropertyOp45
 70
     1
102
RTVSPropertyOp46
 70
     1
102
RTVSPropertyOp47
 70
     1
102
RTVSPropertyOp48
 70
     1
102
RTVSPropertyOp49
 70
     1
102
RTVSPropertyOp50
 70
     1
102
RTVSPropertyOp51
 70
     0
102
RTVSPropertyOp52
 70
     0
102
RTVSPropertyOp53
 70
     1
102
RTVSPropertyOp54
 70
     1
102
RTVSPropertyOp55
 70
     1
102
RTVSPropertyOp56
 70
     1
102
RTVSPropertyOp57
 70
     1
102
RTVSPost2010Prop28
280
     0
102
RTVSPost2010PropOp28
 70
     1
102
RTVSPost2010Prop29
280
     1
102
RTVSPost2010PropOp29
 70
     1
102
RTVSPost2010Prop30
280
     1
102
RTVSPost2010PropOp30
 70
     1
102
RTVSPost2010Prop31
280
     0
102
RTVSPost2010PropOp31
 70
     1
102
RTVSPost2010Prop32
280
     0
102
RTVSPost2010PropOp32
 70
     1
102
RTVSPost2010Prop33
280
     0
102
RTVSPost2010PropOp33
 70
     1
102
RTVSPost2010Prop34
280
     0
102
RTVSPost2010PropOp34
 70
     1
102
RTVSPost2010Prop35
280
     0
102
RTVSPost2010PropOp35
 70
     1
102
RTVSPost2010Prop36
280
     0
102
RTVSPost2010PropOp36
 70
     1
102
RTVSPost2010Prop37
 90
       50
102
RTVSPost2010PropOp37
 70
     1
102
RTVSPost2010Prop38
140
0.0
102
RTVSPost2010PropOp38
 70
     1
102
RTVSPost2010Prop39
140
1.0
102
RTVSPost2010PropOp39
 70
     1
102
RTVSPost2010Prop40
 90
        0
102
RTVSPost2010PropOp40
 70
     1
102
RTVSPost2010Prop41ColorIndex
 90
       18
102
RTVSPost2010Prop41ColorRGB
 90
        0
102
RTVSPost2010PropOp41
 70
     1
102
RTVSPost2010Prop42
 90
       50
102
RTVSPost2010PropOp42
 70
     1
102
RTVSPost2010Prop43
 90
        3
102
RTVSPost2010PropOp43
 70
     1
102
RTVSPost2010Prop44ColorIndex
 90
        5
102
RTVSPost2010Prop44ColorRGB
 90
      255
102
RTVSPost2010PropOp44
 70
     1
102
RTVSPost2010Prop45
280
     0
102
RTVSPost2010PropOp45
 70
     1
102
RTVSPost2010Prop46
 90
       50
102
RTVSPost2010PropOp46
 70
     1
102
RTVSPost2010Prop47
 90
       50
102
RTVSPost2010PropOp47
 70
     1
102
RTVSPost2010Prop48
 90
       50
102
RTVSPost2010PropOp48
 70
     1
102
RTVSPost2010Prop49
280
     0
102
RTVSPost2010PropOp49
 70
     1
102
RTVSPost2010Prop50
 90
       50
102
RTVSPost2010PropOp50
 70
     1
102
RTVSPost2010Prop51ColorIndex
 90
      256
102
RTVSPost2010Prop51ColorRGB
 90
-16777216
102
RTVSPost2010PropOp51
 70
     0
102
RTVSPost2010Prop52
140
1.0
102
RTVSPost2010PropOp52
 70
     0
102
RTVSPost2010Prop53
 90
        2
102
RTVSPost2010PropOp53
 70
     1
102
RTVSPost2010Prop54
  1
strokes_ogs.tif
102
RTVSPost2010PropOp54
 70
     1
102
RTVSPost2010Prop55
280
     0
102
RTVSPost2010PropOp55
 70
     1
102
RTVSPost2010Prop56
140
1.0
102
RTVSPost2010PropOp56
 70
     1
102
RTVSPost2010Prop57
140
1.0
102
RTVSPost2010PropOp57
 70
     1
  0
XRECORD
  5
26E
102
{ACAD_REACTORS
330
26D
102
}
330
26D
100
AcDbXrecord
280
     1
102
RTVSPropertyOp0
 70
     1
102
RTVSPropertyOp1
 70
     1
102
RTVSPropertyOp2
 70
     1
102
RTVSPropertyOp3
 70
     1
102
RTVSPropertyOp4
 70
     1
102
RTVSPropertyOp5
 70
     1
102
RTVSPropertyOp6
 70
     1
102
RTVSPropertyOp7
 70
     1
102
RTVSPropertyOp8
 70
     1
102
RTVSPropertyOp9
 70
     1
102
RTVSPropertyOp10
 70
     1
102
RTVSPropertyOp11
 70
     1
102
RTVSPropertyOp12
 70
     1
102
RTVSPropertyOp13
 70
     1
102
RTVSPropertyOp14
 70
     1
102
RTVSPropertyOp15
 70
     1
102
RTVSPropertyOp16
 70
     1
102
RTVSPropertyOp17
 70
     1
102
RTVSPropertyOp18
 70
     1
102
RTVSPropertyOp19
 70
     1
102
RTVSPropertyOp20
 70
     1
102
RTVSPropertyOp21
 70
     1
102
RTVSPropertyOp22
 70
     1
102
RTVSPropertyOp23
 70
     1
102
RTVSPropertyOp24
 70
     1
102
RTVSPropertyOp25
 70
     1
102
RTVSPropertyOp26
 70
     1
102
RTVSPropertyOp27
 70
     1
102
RTVSPropertyOp28
 70
     1
102
RTVSPropertyOp29
 70
     1
102
RTVSPropertyOp30
 70
     1
102
RTVSPropertyOp31
 70
     1
102
RTVSPropertyOp32
 70
     1
102
RTVSPropertyOp33
 70
     1
102
RTVSPropertyOp34
 70
     1
102
RTVSPropertyOp35
 70
     1
102
RTVSPropertyOp36
 70
     1
102
RTVSPropertyOp37
 70
     1
102
RTVSPropertyOp38
 70
     1
102
RTVSPropertyOp39
 70
     1
102
RTVSPropertyOp40
 70
     1
102
RTVSPropertyOp41
 70
     1
102
RTVSPropertyOp42
 70
     1
102
RTVSPropertyOp43
 70
     1
102
RTVSPropertyOp44
 70
     1
102
RTVSPropertyOp45
 70
     1
102
RTVSPropertyOp46
 70
     1
102
RTVSPropertyOp47
 70
     1
102
RTVSPropertyOp48
 70
     1
102
RTVSPropertyOp49
 70
     1
102
RTVSPropertyOp50
 70
     1
102
RTVSPropertyOp51
 70
     0
102
RTVSPropertyOp52
 70
     0
102
RTVSPropertyOp53
 70
     1
102
RTVSPropertyOp54
 70
     1
102
RTVSPropertyOp55
 70
     1
102
RTVSPropertyOp56
 70
     1
102
RTVSPropertyOp57
 70
     1
102
RTVSPost2010Prop28
280
     0
102
RTVSPost2010PropOp28
 70
     1
102
RTVSPost2010Prop29
280
     1
102
RTVSPost2010PropOp29
 70
     1
102
RTVSPost2010Prop30
280
     1
102
RTVSPost2010PropOp30
 70
     1
102
RTVSPost2010Prop31
280
     0
102
RTVSPost2010PropOp31
 70
     1
102
RTVSPost2010Prop32
280
     0
102
RTVSPost2010PropOp32
 70
     1
102
RTVSPost2010Prop33
280
     0
102
RTVSPost2010PropOp33
 70
     1
102
RTVSPost2010Prop34
280
     0
102
RTVSPost2010PropOp34
 70
     1
102
RTVSPost2010Prop35
280
     0
102
RTVSPost2010PropOp35
 70
     1
102
RTVSPost2010Prop36
280
     0
102
RTVSPost2010PropOp36
 70
     1
102
RTVSPost2010Prop37
 90
       50
102
RTVSPost2010PropOp37
 70
     1
102
RTVSPost2010Prop38
140
0.0
102
RTVSPost2010PropOp38
 70
     1
102
RTVSPost2010Prop39
140
1.0
102
RTVSPost2010PropOp39
 70
     1
102
RTVSPost2010Prop40
 90
        0
102
RTVSPost2010PropOp40
 70
     1
102
RTVSPost2010Prop41ColorIndex
 90
       18
102
RTVSPost2010Prop41ColorRGB
 90
        0
102
RTVSPost2010PropOp41
 70
     1
102
RTVSPost2010Prop42
 90
       50
102
RTVSPost2010PropOp42
 70
     1
102
RTVSPost2010Prop43
 90
        3
102
RTVSPost2010PropOp43
 70
     1
102
RTVSPost2010Prop44ColorIndex
 90
        5
102
RTVSPost2010Prop44ColorRGB
 90
      255
102
RTVSPost2010PropOp44
 70
     1
102
RTVSPost2010Prop45
280
     0
102
RTVSPost2010PropOp45
 70
     1
102
RTVSPost2010Prop46
 90
       50
102
RTVSPost2010PropOp46
 70
     1
102
RTVSPost2010Prop47
 90
       50
102
RTVSPost2010PropOp47
 70
     1
102
RTVSPost2010Prop48
 90
       50
102
RTVSPost2010PropOp48
 70
     1
102
RTVSPost2010Prop49
280
     0
102
RTVSPost2010PropOp49
 70
     1
102
RTVSPost2010Prop50
 90
       50
102
RTVSPost2010PropOp50
 70
     1
102
RTVSPost2010Prop51ColorIndex
 90
      256
102
RTVSPost2010Prop51ColorRGB
 90
-16777216
102
RTVSPost2010PropOp51
 70
     0
102
RTVSPost2010Prop52
140
1.0
102
RTVSPost2010PropOp52
 70
     0
102
RTVSPost2010Prop53
 90
        2
102
RTVSPost2010PropOp53
 70
     1
102
RTVSPost2010Prop54
  1
strokes_ogs.tif
102
RTVSPost2010PropOp54
 70
     1
102
RTVSPost2010Prop55
280
     0
102
RTVSPost2010PropOp55
 70
     1
102
RTVSPost2010Prop56
140
1.0
102
RTVSPost2010PropOp56
 70
     1
102
RTVSPost2010Prop57
140
1.0
102
RTVSPost2010PropOp57
 70
     1
  0
XRECORD
  5
27E
102
{ACAD_REACTORS
330
27D
102
}
330
27D
100
AcDbXrecord
280
     1
102
RTVSPropertyOp0
 70
     0
102
RTVSPropertyOp1
 70
     0
102
RTVSPropertyOp2
 70
     0
102
RTVSPropertyOp3
 70
     0
102
RTVSPropertyOp4
 70
     0
102
RTVSPropertyOp5
 70
     0
102
RTVSPropertyOp6
 70
     0
102
RTVSPropertyOp7
 70
     0
102
RTVSPropertyOp8
 70
     0
102
RTVSPropertyOp9
 70
     0
102
RTVSPropertyOp10
 70
     0
102
RTVSPropertyOp11
 70
     0
102
RTVSPropertyOp12
 70
     0
102
RTVSPropertyOp13
 70
     0
102
RTVSPropertyOp14
 70
     2
102
RTVSPropertyOp15
 70
     0
102
RTVSPropertyOp16
 70
     0
102
RTVSPropertyOp17
 70
     0
102
RTVSPropertyOp18
 70
     0
102
RTVSPropertyOp19
 70
     0
102
RTVSPropertyOp20
 70
     0
102
RTVSPropertyOp21
 70
     0
102
RTVSPropertyOp22
 70
     0
102
RTVSPropertyOp23
 70
     0
102
RTVSPropertyOp24
 70
     0
102
RTVSPropertyOp25
 70
     0
102
RTVSPropertyOp26
 70
     0
102
RTVSPropertyOp27
 70
     0
102
RTVSPropertyOp28
 70
     0
102
RTVSPropertyOp29
 70
     0
102
RTVSPropertyOp30
 70
     0
102
RTVSPropertyOp31
 70
     0
102
RTVSPropertyOp32
 70
     0
102
RTVSPropertyOp33
 70
     0
102
RTVSPropertyOp34
 70
     0
102
RTVSPropertyOp35
 70
     0
102
RTVSPropertyOp36
 70
     0
102
RTVSPropertyOp37
 70
     0
102
RTVSPropertyOp38
 70
     0
102
RTVSPropertyOp39
 70
     0
102
RTVSPropertyOp40
 70
     0
102
RTVSPropertyOp41
 70
     0
102
RTVSPropertyOp42
 70
     0
102
RTVSPropertyOp43
 70
     0
102
RTVSPropertyOp44
 70
     0
102
RTVSPropertyOp45
 70
     0
102
RTVSPropertyOp46
 70
     0
102
RTVSPropertyOp47
 70
     0
102
RTVSPropertyOp48
 70
     0
102
RTVSPropertyOp49
 70
     0
102
RTVSPropertyOp50
 70
     0
102
RTVSPropertyOp51
 70
     0
102
RTVSPropertyOp52
 70
     0
102
RTVSPropertyOp53
 70
     0
102
RTVSPropertyOp54
 70
     0
102
RTVSPropertyOp55
 70
     0
102
RTVSPropertyOp56
 70
     0
102
RTVSPropertyOp57
 70
     0
102
RTVSPost2010Prop28
280
     0
102
RTVSPost2010PropOp28
 70
     0
102
RTVSPost2010Prop29
280
     1
102
RTVSPost2010PropOp29
 70
     0
102
RTVSPost2010Prop30
280
     1
102
RTVSPost2010PropOp30
 70
     0
102
RTVSPost2010Prop31
280
     0
102
RTVSPost2010PropOp31
 70
     0
102
RTVSPost2010Prop32
280
     0
102
RTVSPost2010PropOp32
 70
     0
102
RTVSPost2010Prop33
280
     0
102
RTVSPost2010PropOp33
 70
     0
102
RTVSPost2010Prop34
280
     0
102
RTVSPost2010PropOp34
 70
     0
102
RTVSPost2010Prop35
280
     0
102
RTVSPost2010PropOp35
 70
     0
102
RTVSPost2010Prop36
280
     0
102
RTVSPost2010PropOp36
 70
     0
102
RTVSPost2010Prop37
 90
       50
102
RTVSPost2010PropOp37
 70
     0
102
RTVSPost2010Prop38
140
0.0
102
RTVSPost2010PropOp38
 70
     0
102
RTVSPost2010Prop39
140
1.0
102
RTVSPost2010PropOp39
 70
     0
102
RTVSPost2010Prop40
 90
        0
102
RTVSPost2010PropOp40
 70
     0
102
RTVSPost2010Prop41ColorIndex
 90
       18
102
RTVSPost2010Prop41ColorRGB
 90
        0
102
RTVSPost2010PropOp41
 70
     0
102
RTVSPost2010Prop42
 90
       50
102
RTVSPost2010PropOp42
 70
     0
102
RTVSPost2010Prop43
 90
        3
102
RTVSPost2010PropOp43
 70
     0
102
RTVSPost2010Prop44ColorIndex
 90
        5
102
RTVSPost2010Prop44ColorRGB
 90
      255
102
RTVSPost2010PropOp44
 70
     0
102
RTVSPost2010Prop45
280
     0
102
RTVSPost2010PropOp45
 70
     0
102
RTVSPost2010Prop46
 90
       50
102
RTVSPost2010PropOp46
 70
     0
102
RTVSPost2010Prop47
 90
       50
102
RTVSPost2010PropOp47
 70
     0
102
RTVSPost2010Prop48
 90
       50
102
RTVSPost2010PropOp48
 70
     0
102
RTVSPost2010Prop49
280
     0
102
RTVSPost2010PropOp49
 70
     0
102
RTVSPost2010Prop50
 90
       50
102
RTVSPost2010PropOp50
 70
     0
102
RTVSPost2010Prop51ColorIndex
 90
      256
102
RTVSPost2010Prop51ColorRGB
 90
-16777216
102
RTVSPost2010PropOp51
 70
     0
102
RTVSPost2010Prop52
140
1.0
102
RTVSPost2010PropOp52
 70
     0
102
RTVSPost2010Prop53
 90
        2
102
RTVSPost2010PropOp53
 70
     0
102
RTVSPost2010Prop54
  1
strokes_ogs.tif
102
RTVSPost2010PropOp54
 70
     0
102
RTVSPost2010Prop55
280
     0
102
RTVSPost2010PropOp55
 70
     0
102
RTVSPost2010Prop56
140
1.0
102
RTVSPost2010PropOp56
 70
     0
102
RTVSPost2010Prop57
140
1.0
102
RTVSPost2010PropOp57
 70
     0
  0
XRECORD
  5
276
102
{ACAD_REACTORS
330
275
102
}
330
275
100
AcDbXrecord
280
     1
102
RTVSPropertyOp0
 70
     1
102
RTVSPropertyOp1
 70
     1
102
RTVSPropertyOp2
 70
     1
102
RTVSPropertyOp3
 70
     1
102
RTVSPropertyOp4
 70
     1
102
RTVSPropertyOp5
 70
     1
102
RTVSPropertyOp6
 70
     1
102
RTVSPropertyOp7
 70
     1
102
RTVSPropertyOp8
 70
     1
102
RTVSPropertyOp9
 70
     1
102
RTVSPropertyOp10
 70
     1
102
RTVSPropertyOp11
 70
     1
102
RTVSPropertyOp12
 70
     1
102
RTVSPropertyOp13
 70
     1
102
RTVSPropertyOp14
 70
     1
102
RTVSPropertyOp15
 70
     1
102
RTVSPropertyOp16
 70
     1
102
RTVSPropertyOp17
 70
     1
102
RTVSPropertyOp18
 70
     1
102
RTVSPropertyOp19
 70
     1
102
RTVSPropertyOp20
 70
     1
102
RTVSPropertyOp21
 70
     1
102
RTVSPropertyOp22
 70
     1
102
RTVSPropertyOp23
 70
     1
102
RTVSPropertyOp24
 70
     1
102
RTVSPropertyOp25
 70
     1
102
RTVSPropertyOp26
 70
     1
102
RTVSPropertyOp27
 70
     1
102
RTVSPropertyOp28
 70
     1
102
RTVSPropertyOp29
 70
     1
102
RTVSPropertyOp30
 70
     1
102
RTVSPropertyOp31
 70
     1
102
RTVSPropertyOp32
 70
     1
102
RTVSPropertyOp33
 70
     1
102
RTVSPropertyOp34
 70
     1
102
RTVSPropertyOp35
 70
     1
102
RTVSPropertyOp36
 70
     1
102
RTVSPropertyOp37
 70
     1
102
RTVSPropertyOp38
 70
     1
102
RTVSPropertyOp39
 70
     1
102
RTVSPropertyOp40
 70
     1
102
RTVSPropertyOp41
 70
     1
102
RTVSPropertyOp42
 70
     1
102
RTVSPropertyOp43
 70
     1
102
RTVSPropertyOp44
 70
     1
102
RTVSPropertyOp45
 70
     1
102
RTVSPropertyOp46
 70
     1
102
RTVSPropertyOp47
 70
     1
102
RTVSPropertyOp48
 70
     1
102
RTVSPropertyOp49
 70
     1
102
RTVSPropertyOp50
 70
     1
102
RTVSPropertyOp51
 70
     0
102
RTVSPropertyOp52
 70
     0
102
RTVSPropertyOp53
 70
     1
102
RTVSPropertyOp54
 70
     1
102
RTVSPropertyOp55
 70
     1
102
RTVSPropertyOp56
 70
     1
102
RTVSPropertyOp57
 70
     1
102
RTVSPost2010Prop28
280
     0
102
RTVSPost2010PropOp28
 70
     1
102
RTVSPost2010Prop29
280
     1
102
RTVSPost2010PropOp29
 70
     1
102
RTVSPost2010Prop30
280
     1
102
RTVSPost2010PropOp30
 70
     1
102
RTVSPost2010Prop31
280
     0
102
RTVSPost2010PropOp31
 70
     1
102
RTVSPost2010Prop32
280
     0
102
RTVSPost2010PropOp32
 70
     1
102
RTVSPost2010Prop33
280
     0
102
RTVSPost2010PropOp33
 70
     1
102
RTVSPost2010Prop34
280
     0
102
RTVSPost2010PropOp34
 70
     1
102
RTVSPost2010Prop35
280
     0
102
RTVSPost2010PropOp35
 70
     1
102
RTVSPost2010Prop36
280
     0
102
RTVSPost2010PropOp36
 70
     1
102
RTVSPost2010Prop37
 90
       50
102
RTVSPost2010PropOp37
 70
     1
102
RTVSPost2010Prop38
140
0.0
102
RTVSPost2010PropOp38
 70
     1
102
RTVSPost2010Prop39
140
1.0
102
RTVSPost2010PropOp39
 70
     1
102
RTVSPost2010Prop40
 90
        0
102
RTVSPost2010PropOp40
 70
     1
102
RTVSPost2010Prop41ColorIndex
 90
       18
102
RTVSPost2010Prop41ColorRGB
 90
        0
102
RTVSPost2010PropOp41
 70
     1
102
RTVSPost2010Prop42
 90
       50
102
RTVSPost2010PropOp42
 70
     1
102
RTVSPost2010Prop43
 90
        3
102
RTVSPost2010PropOp43
 70
     1
102
RTVSPost2010Prop44ColorIndex
 90
        5
102
RTVSPost2010Prop44ColorRGB
 90
      255
102
RTVSPost2010PropOp44
 70
     1
102
RTVSPost2010Prop45
280
     0
102
RTVSPost2010PropOp45
 70
     1
102
RTVSPost2010Prop46
 90
       50
102
RTVSPost2010PropOp46
 70
     1
102
RTVSPost2010Prop47
 90
       50
102
RTVSPost2010PropOp47
 70
     1
102
RTVSPost2010Prop48
 90
       50
102
RTVSPost2010PropOp48
 70
     1
102
RTVSPost2010Prop49
280
     0
102
RTVSPost2010PropOp49
 70
     1
102
RTVSPost2010Prop50
 90
       50
102
RTVSPost2010PropOp50
 70
     1
102
RTVSPost2010Prop51ColorIndex
 90
      256
102
RTVSPost2010Prop51ColorRGB
 90
-16777216
102
RTVSPost2010PropOp51
 70
     0
102
RTVSPost2010Prop52
140
1.0
102
RTVSPost2010PropOp52
 70
     0
102
RTVSPost2010Prop53
 90
        2
102
RTVSPost2010PropOp53
 70
     1
102
RTVSPost2010Prop54
  1
strokes_ogs.tif
102
RTVSPost2010PropOp54
 70
     1
102
RTVSPost2010Prop55
280
     0
102
RTVSPost2010PropOp55
 70
     1
102
RTVSPost2010Prop56
140
1.0
102
RTVSPost2010PropOp56
 70
     1
102
RTVSPost2010Prop57
140
1.0
102
RTVSPost2010PropOp57
 70
     1
  0
XRECORD
  5
25A
102
{ACAD_REACTORS
330
259
102
}
330
259
100
AcDbXrecord
280
     1
102
RTVSPropertyOp0
 70
     1
102
RTVSPropertyOp1
 70
     1
102
RTVSPropertyOp2
 70
     1
102
RTVSPropertyOp3
 70
     1
102
RTVSPropertyOp4
 70
     1
102
RTVSPropertyOp5
 70
     1
102
RTVSPropertyOp6
 70
     1
102
RTVSPropertyOp7
 70
     1
102
RTVSPropertyOp8
 70
     1
102
RTVSPropertyOp9
 70
     1
102
RTVSPropertyOp10
 70
     1
102
RTVSPropertyOp11
 70
     1
102
RTVSPropertyOp12
 70
     1
102
RTVSPropertyOp13
 70
     1
102
RTVSPropertyOp14
 70
     1
102
RTVSPropertyOp15
 70
     1
102
RTVSPropertyOp16
 70
     1
102
RTVSPropertyOp17
 70
     1
102
RTVSPropertyOp18
 70
     1
102
RTVSPropertyOp19
 70
     1
102
RTVSPropertyOp20
 70
     1
102
RTVSPropertyOp21
 70
     1
102
RTVSPropertyOp22
 70
     1
102
RTVSPropertyOp23
 70
     1
102
RTVSPropertyOp24
 70
     1
102
RTVSPropertyOp25
 70
     1
102
RTVSPropertyOp26
 70
     1
102
RTVSPropertyOp27
 70
     1
102
RTVSPropertyOp28
 70
     1
102
RTVSPropertyOp29
 70
     1
102
RTVSPropertyOp30
 70
     1
102
RTVSPropertyOp31
 70
     1
102
RTVSPropertyOp32
 70
     1
102
RTVSPropertyOp33
 70
     1
102
RTVSPropertyOp34
 70
     1
102
RTVSPropertyOp35
 70
     1
102
RTVSPropertyOp36
 70
     1
102
RTVSPropertyOp37
 70
     1
102
RTVSPropertyOp38
 70
     1
102
RTVSPropertyOp39
 70
     1
102
RTVSPropertyOp40
 70
     1
102
RTVSPropertyOp41
 70
     1
102
RTVSPropertyOp42
 70
     1
102
RTVSPropertyOp43
 70
     1
102
RTVSPropertyOp44
 70
     1
102
RTVSPropertyOp45
 70
     1
102
RTVSPropertyOp46
 70
     1
102
RTVSPropertyOp47
 70
     1
102
RTVSPropertyOp48
 70
     1
102
RTVSPropertyOp49
 70
     1
102
RTVSPropertyOp50
 70
     1
102
RTVSPropertyOp51
 70
     0
102
RTVSPropertyOp52
 70
     0
102
RTVSPropertyOp53
 70
     1
102
RTVSPropertyOp54
 70
     1
102
RTVSPropertyOp55
 70
     1
102
RTVSPropertyOp56
 70
     1
102
RTVSPropertyOp57
 70
     1
102
RTVSPost2010Prop28
280
     0
102
RTVSPost2010PropOp28
 70
     1
102
RTVSPost2010Prop29
280
     1
102
RTVSPost2010PropOp29
 70
     1
102
RTVSPost2010Prop30
280
     1
102
RTVSPost2010PropOp30
 70
     1
102
RTVSPost2010Prop31
280
     0
102
RTVSPost2010PropOp31
 70
     1
102
RTVSPost2010Prop32
280
     0
102
RTVSPost2010PropOp32
 70
     1
102
RTVSPost2010Prop33
280
     0
102
RTVSPost2010PropOp33
 70
     1
102
RTVSPost2010Prop34
280
     0
102
RTVSPost2010PropOp34
 70
     1
102
RTVSPost2010Prop35
280
     0
102
RTVSPost2010PropOp35
 70
     1
102
RTVSPost2010Prop36
280
     0
102
RTVSPost2010PropOp36
 70
     1
102
RTVSPost2010Prop37
 90
       50
102
RTVSPost2010PropOp37
 70
     1
102
RTVSPost2010Prop38
140
0.0
102
RTVSPost2010PropOp38
 70
     1
102
RTVSPost2010Prop39
140
1.0
102
RTVSPost2010PropOp39
 70
     1
102
RTVSPost2010Prop40
 90
        0
102
RTVSPost2010PropOp40
 70
     1
102
RTVSPost2010Prop41ColorIndex
 90
       18
102
RTVSPost2010Prop41ColorRGB
 90
        0
102
RTVSPost2010PropOp41
 70
     1
102
RTVSPost2010Prop42
 90
       50
102
RTVSPost2010PropOp42
 70
     1
102
RTVSPost2010Prop43
 90
        3
102
RTVSPost2010PropOp43
 70
     1
102
RTVSPost2010Prop44ColorIndex
 90
        5
102
RTVSPost2010Prop44ColorRGB
 90
      255
102
RTVSPost2010PropOp44
 70
     1
102
RTVSPost2010Prop45
280
     0
102
RTVSPost2010PropOp45
 70
     1
102
RTVSPost2010Prop46
 90
       50
102
RTVSPost2010PropOp46
 70
     1
102
RTVSPost2010Prop47
 90
       50
102
RTVSPost2010PropOp47
 70
     1
102
RTVSPost2010Prop48
 90
       50
102
RTVSPost2010PropOp48
 70
     1
102
RTVSPost2010Prop49
280
     0
102
RTVSPost2010PropOp49
 70
     1
102
RTVSPost2010Prop50
 90
       50
102
RTVSPost2010PropOp50
 70
     1
102
RTVSPost2010Prop51ColorIndex
 90
      256
102
RTVSPost2010Prop51ColorRGB
 90
-16777216
102
RTVSPost2010PropOp51
 70
     0
102
RTVSPost2010Prop52
140
1.0
102
RTVSPost2010PropOp52
 70
     0
102
RTVSPost2010Prop53
 90
        2
102
RTVSPost2010PropOp53
 70
     1
102
RTVSPost2010Prop54
  1
strokes_ogs.tif
102
RTVSPost2010PropOp54
 70
     1
102
RTVSPost2010Prop55
280
     0
102
RTVSPost2010PropOp55
 70
     1
102
RTVSPost2010Prop56
140
1.0
102
RTVSPost2010PropOp56
 70
     1
102
RTVSPost2010Prop57
140
1.0
102
RTVSPost2010PropOp57
 70
     1
  0
XRECORD
  5
25C
102
{ACAD_REACTORS
330
25B
102
}
330
25B
100
AcDbXrecord
280
     1
102
RTVSPropertyOp0
 70
     1
102
RTVSPropertyOp1
 70
     1
102
RTVSPropertyOp2
 70
     1
102
RTVSPropertyOp3
 70
     1
102
RTVSPropertyOp4
 70
     1
102
RTVSPropertyOp5
 70
     1
102
RTVSPropertyOp6
 70
     1
102
RTVSPropertyOp7
 70
     1
102
RTVSPropertyOp8
 70
     1
102
RTVSPropertyOp9
 70
     1
102
RTVSPropertyOp10
 70
     1
102
RTVSPropertyOp11
 70
     1
102
RTVSPropertyOp12
 70
     1
102
RTVSPropertyOp13
 70
     1
102
RTVSPropertyOp14
 70
     1
102
RTVSPropertyOp15
 70
     1
102
RTVSPropertyOp16
 70
     1
102
RTVSPropertyOp17
 70
     1
102
RTVSPropertyOp18
 70
     1
102
RTVSPropertyOp19
 70
     1
102
RTVSPropertyOp20
 70
     1
102
RTVSPropertyOp21
 70
     1
102
RTVSPropertyOp22
 70
     1
102
RTVSPropertyOp23
 70
     1
102
RTVSPropertyOp24
 70
     1
102
RTVSPropertyOp25
 70
     1
102
RTVSPropertyOp26
 70
     1
102
RTVSPropertyOp27
 70
     1
102
RTVSPropertyOp28
 70
     1
102
RTVSPropertyOp29
 70
     1
102
RTVSPropertyOp30
 70
     1
102
RTVSPropertyOp31
 70
     1
102
RTVSPropertyOp32
 70
     1
102
RTVSPropertyOp33
 70
     1
102
RTVSPropertyOp34
 70
     1
102
RTVSPropertyOp35
 70
     1
102
RTVSPropertyOp36
 70
     1
102
RTVSPropertyOp37
 70
     1
102
RTVSPropertyOp38
 70
     1
102
RTVSPropertyOp39
 70
     1
102
RTVSPropertyOp40
 70
     1
102
RTVSPropertyOp41
 70
     1
102
RTVSPropertyOp42
 70
     1
102
RTVSPropertyOp43
 70
     1
102
RTVSPropertyOp44
 70
     1
102
RTVSPropertyOp45
 70
     1
102
RTVSPropertyOp46
 70
     1
102
RTVSPropertyOp47
 70
     1
102
RTVSPropertyOp48
 70
     1
102
RTVSPropertyOp49
 70
     1
102
RTVSPropertyOp50
 70
     1
102
RTVSPropertyOp51
 70
     0
102
RTVSPropertyOp52
 70
     0
102
RTVSPropertyOp53
 70
     1
102
RTVSPropertyOp54
 70
     1
102
RTVSPropertyOp55
 70
     1
102
RTVSPropertyOp56
 70
     1
102
RTVSPropertyOp57
 70
     1
102
RTVSPost2010Prop28
280
     0
102
RTVSPost2010PropOp28
 70
     1
102
RTVSPost2010Prop29
280
     1
102
RTVSPost2010PropOp29
 70
     1
102
RTVSPost2010Prop30
280
     1
102
RTVSPost2010PropOp30
 70
     1
102
RTVSPost2010Prop31
280
     0
102
RTVSPost2010PropOp31
 70
     1
102
RTVSPost2010Prop32
280
     0
102
RTVSPost2010PropOp32
 70
     1
102
RTVSPost2010Prop33
280
     0
102
RTVSPost2010PropOp33
 70
     1
102
RTVSPost2010Prop34
280
     0
102
RTVSPost2010PropOp34
 70
     1
102
RTVSPost2010Prop35
280
     0
102
RTVSPost2010PropOp35
 70
     1
102
RTVSPost2010Prop36
280
     0
102
RTVSPost2010PropOp36
 70
     1
102
RTVSPost2010Prop37
 90
       50
102
RTVSPost2010PropOp37
 70
     1
102
RTVSPost2010Prop38
140
0.0
102
RTVSPost2010PropOp38
 70
     1
102
RTVSPost2010Prop39
140
1.0
102
RTVSPost2010PropOp39
 70
     1
102
RTVSPost2010Prop40
 90
        0
102
RTVSPost2010PropOp40
 70
     1
102
RTVSPost2010Prop41ColorIndex
 90
       18
102
RTVSPost2010Prop41ColorRGB
 90
        0
102
RTVSPost2010PropOp41
 70
     1
102
RTVSPost2010Prop42
 90
       50
102
RTVSPost2010PropOp42
 70
     1
102
RTVSPost2010Prop43
 90
        3
102
RTVSPost2010PropOp43
 70
     1
102
RTVSPost2010Prop44ColorIndex
 90
        5
102
RTVSPost2010Prop44ColorRGB
 90
      255
102
RTVSPost2010PropOp44
 70
     1
102
RTVSPost2010Prop45
280
     0
102
RTVSPost2010PropOp45
 70
     1
102
RTVSPost2010Prop46
 90
       50
102
RTVSPost2010PropOp46
 70
     1
102
RTVSPost2010Prop47
 90
       50
102
RTVSPost2010PropOp47
 70
     1
102
RTVSPost2010Prop48
 90
       50
102
RTVSPost2010PropOp48
 70
     1
102
RTVSPost2010Prop49
280
     0
102
RTVSPost2010PropOp49
 70
     1
102
RTVSPost2010Prop50
 90
       50
102
RTVSPost2010PropOp50
 70
     1
102
RTVSPost2010Prop51ColorIndex
 90
      256
102
RTVSPost2010Prop51ColorRGB
 90
-16777216
102
RTVSPost2010PropOp51
 70
     0
102
RTVSPost2010Prop52
140
1.0
102
RTVSPost2010PropOp52
 70
     0
102
RTVSPost2010Prop53
 90
        2
102
RTVSPost2010PropOp53
 70
     1
102
RTVSPost2010Prop54
  1
strokes_ogs.tif
102
RTVSPost2010PropOp54
 70
     1
102
RTVSPost2010Prop55
280
     0
102
RTVSPost2010PropOp55
 70
     1
102
RTVSPost2010Prop56
140
1.0
102
RTVSPost2010PropOp56
 70
     1
102
RTVSPost2010Prop57
140
1.0
102
RTVSPost2010PropOp57
 70
     1
  0
XRECORD
  5
25E
102
{ACAD_REACTORS
330
25D
102
}
330
25D
100
AcDbXrecord
280
     1
102
RTVSPropertyOp0
 70
     1
102
RTVSPropertyOp1
 70
     1
102
RTVSPropertyOp2
 70
     1
102
RTVSPropertyOp3
 70
     1
102
RTVSPropertyOp4
 70
     1
102
RTVSPropertyOp5
 70
     1
102
RTVSPropertyOp6
 70
     1
102
RTVSPropertyOp7
 70
     1
102
RTVSPropertyOp8
 70
     1
102
RTVSPropertyOp9
 70
     1
102
RTVSPropertyOp10
 70
     1
102
RTVSPropertyOp11
 70
     1
102
RTVSPropertyOp12
 70
     1
102
RTVSPropertyOp13
 70
     1
102
RTVSPropertyOp14
 70
     1
102
RTVSPropertyOp15
 70
     1
102
RTVSPropertyOp16
 70
     1
102
RTVSPropertyOp17
 70
     1
102
RTVSPropertyOp18
 70
     1
102
RTVSPropertyOp19
 70
     1
102
RTVSPropertyOp20
 70
     1
102
RTVSPropertyOp21
 70
     1
102
RTVSPropertyOp22
 70
     1
102
RTVSPropertyOp23
 70
     1
102
RTVSPropertyOp24
 70
     1
102
RTVSPropertyOp25
 70
     1
102
RTVSPropertyOp26
 70
     1
102
RTVSPropertyOp27
 70
     1
102
RTVSPropertyOp28
 70
     1
102
RTVSPropertyOp29
 70
     1
102
RTVSPropertyOp30
 70
     1
102
RTVSPropertyOp31
 70
     1
102
RTVSPropertyOp32
 70
     1
102
RTVSPropertyOp33
 70
     1
102
RTVSPropertyOp34
 70
     1
102
RTVSPropertyOp35
 70
     1
102
RTVSPropertyOp36
 70
     1
102
RTVSPropertyOp37
 70
     1
102
RTVSPropertyOp38
 70
     1
102
RTVSPropertyOp39
 70
     1
102
RTVSPropertyOp40
 70
     1
102
RTVSPropertyOp41
 70
     1
102
RTVSPropertyOp42
 70
     1
102
RTVSPropertyOp43
 70
     1
102
RTVSPropertyOp44
 70
     1
102
RTVSPropertyOp45
 70
     1
102
RTVSPropertyOp46
 70
     1
102
RTVSPropertyOp47
 70
     1
102
RTVSPropertyOp48
 70
     1
102
RTVSPropertyOp49
 70
     1
102
RTVSPropertyOp50
 70
     1
102
RTVSPropertyOp51
 70
     0
102
RTVSPropertyOp52
 70
     0
102
RTVSPropertyOp53
 70
     1
102
RTVSPropertyOp54
 70
     1
102
RTVSPropertyOp55
 70
     1
102
RTVSPropertyOp56
 70
     1
102
RTVSPropertyOp57
 70
     1
102
RTVSPost2010Prop28
280
     0
102
RTVSPost2010PropOp28
 70
     1
102
RTVSPost2010Prop29
280
     1
102
RTVSPost2010PropOp29
 70
     1
102
RTVSPost2010Prop30
280
     1
102
RTVSPost2010PropOp30
 70
     1
102
RTVSPost2010Prop31
280
     0
102
RTVSPost2010PropOp31
 70
     1
102
RTVSPost2010Prop32
280
     0
102
RTVSPost2010PropOp32
 70
     1
102
RTVSPost2010Prop33
280
     0
102
RTVSPost2010PropOp33
 70
     1
102
RTVSPost2010Prop34
280
     0
102
RTVSPost2010PropOp34
 70
     1
102
RTVSPost2010Prop35
280
     0
102
RTVSPost2010PropOp35
 70
     1
102
RTVSPost2010Prop36
280
     0
102
RTVSPost2010PropOp36
 70
     1
102
RTVSPost2010Prop37
 90
       50
102
RTVSPost2010PropOp37
 70
     1
102
RTVSPost2010Prop38
140
0.0
102
RTVSPost2010PropOp38
 70
     1
102
RTVSPost2010Prop39
140
1.0
102
RTVSPost2010PropOp39
 70
     1
102
RTVSPost2010Prop40
 90
        0
102
RTVSPost2010PropOp40
 70
     1
102
RTVSPost2010Prop41ColorIndex
 90
       18
102
RTVSPost2010Prop41ColorRGB
 90
        0
102
RTVSPost2010PropOp41
 70
     1
102
RTVSPost2010Prop42
 90
       50
102
RTVSPost2010PropOp42
 70
     1
102
RTVSPost2010Prop43
 90
        3
102
RTVSPost2010PropOp43
 70
     1
102
RTVSPost2010Prop44ColorIndex
 90
        5
102
RTVSPost2010Prop44ColorRGB
 90
      255
102
RTVSPost2010PropOp44
 70
     1
102
RTVSPost2010Prop45
280
     0
102
RTVSPost2010PropOp45
 70
     1
102
RTVSPost2010Prop46
 90
       50
102
RTVSPost2010PropOp46
 70
     1
102
RTVSPost2010Prop47
 90
       50
102
RTVSPost2010PropOp47
 70
     1
102
RTVSPost2010Prop48
 90
       50
102
RTVSPost2010PropOp48
 70
     1
102
RTVSPost2010Prop49
280
     0
102
RTVSPost2010PropOp49
 70
     1
102
RTVSPost2010Prop50
 90
       50
102
RTVSPost2010PropOp50
 70
     1
102
RTVSPost2010Prop51ColorIndex
 90
      256
102
RTVSPost2010Prop51ColorRGB
 90
-16777216
102
RTVSPost2010PropOp51
 70
     0
102
RTVSPost2010Prop52
140
1.0
102
RTVSPost2010PropOp52
 70
     0
102
RTVSPost2010Prop53
 90
        2
102
RTVSPost2010PropOp53
 70
     1
102
RTVSPost2010Prop54
  1
strokes_ogs.tif
102
RTVSPost2010PropOp54
 70
     1
102
RTVSPost2010Prop55
280
     0
102
RTVSPost2010PropOp55
 70
     1
102
RTVSPost2010Prop56
140
1.0
102
RTVSPost2010PropOp56
 70
     1
102
RTVSPost2010Prop57
140
1.0
102
RTVSPost2010PropOp57
 70
     1
  0
XRECORD
  5
260
102
{ACAD_REACTORS
330
25F
102
}
330
25F
100
AcDbXrecord
280
     1
102
RTVSPropertyOp0
 70
     1
102
RTVSPropertyOp1
 70
     1
102
RTVSPropertyOp2
 70
     1
102
RTVSPropertyOp3
 70
     1
102
RTVSPropertyOp4
 70
     1
102
RTVSPropertyOp5
 70
     1
102
RTVSPropertyOp6
 70
     1
102
RTVSPropertyOp7
 70
     1
102
RTVSPropertyOp8
 70
     1
102
RTVSPropertyOp9
 70
     1
102
RTVSPropertyOp10
 70
     1
102
RTVSPropertyOp11
 70
     1
102
RTVSPropertyOp12
 70
     1
102
RTVSPropertyOp13
 70
     1
102
RTVSPropertyOp14
 70
     1
102
RTVSPropertyOp15
 70
     1
102
RTVSPropertyOp16
 70
     1
102
RTVSPropertyOp17
 70
     1
102
RTVSPropertyOp18
 70
     1
102
RTVSPropertyOp19
 70
     1
102
RTVSPropertyOp20
 70
     1
102
RTVSPropertyOp21
 70
     1
102
RTVSPropertyOp22
 70
     1
102
RTVSPropertyOp23
 70
     1
102
RTVSPropertyOp24
 70
     1
102
RTVSPropertyOp25
 70
     1
102
RTVSPropertyOp26
 70
     1
102
RTVSPropertyOp27
 70
     1
102
RTVSPropertyOp28
 70
     1
102
RTVSPropertyOp29
 70
     1
102
RTVSPropertyOp30
 70
     1
102
RTVSPropertyOp31
 70
     1
102
RTVSPropertyOp32
 70
     1
102
RTVSPropertyOp33
 70
     1
102
RTVSPropertyOp34
 70
     1
102
RTVSPropertyOp35
 70
     1
102
RTVSPropertyOp36
 70
     1
102
RTVSPropertyOp37
 70
     1
102
RTVSPropertyOp38
 70
     1
102
RTVSPropertyOp39
 70
     1
102
RTVSPropertyOp40
 70
     1
102
RTVSPropertyOp41
 70
     1
102
RTVSPropertyOp42
 70
     1
102
RTVSPropertyOp43
 70
     1
102
RTVSPropertyOp44
 70
     1
102
RTVSPropertyOp45
 70
     1
102
RTVSPropertyOp46
 70
     1
102
RTVSPropertyOp47
 70
     1
102
RTVSPropertyOp48
 70
     1
102
RTVSPropertyOp49
 70
     1
102
RTVSPropertyOp50
 70
     1
102
RTVSPropertyOp51
 70
     0
102
RTVSPropertyOp52
 70
     0
102
RTVSPropertyOp53
 70
     1
102
RTVSPropertyOp54
 70
     1
102
RTVSPropertyOp55
 70
     1
102
RTVSPropertyOp56
 70
     1
102
RTVSPropertyOp57
 70
     1
102
RTVSPost2010Prop28
280
     0
102
RTVSPost2010PropOp28
 70
     1
102
RTVSPost2010Prop29
280
     1
102
RTVSPost2010PropOp29
 70
     1
102
RTVSPost2010Prop30
280
     1
102
RTVSPost2010PropOp30
 70
     1
102
RTVSPost2010Prop31
280
     0
102
RTVSPost2010PropOp31
 70
     1
102
RTVSPost2010Prop32
280
     0
102
RTVSPost2010PropOp32
 70
     1
102
RTVSPost2010Prop33
280
     0
102
RTVSPost2010PropOp33
 70
     1
102
RTVSPost2010Prop34
280
     0
102
RTVSPost2010PropOp34
 70
     1
102
RTVSPost2010Prop35
280
     0
102
RTVSPost2010PropOp35
 70
     1
102
RTVSPost2010Prop36
280
     0
102
RTVSPost2010PropOp36
 70
     1
102
RTVSPost2010Prop37
 90
       50
102
RTVSPost2010PropOp37
 70
     1
102
RTVSPost2010Prop38
140
0.0
102
RTVSPost2010PropOp38
 70
     1
102
RTVSPost2010Prop39
140
1.0
102
RTVSPost2010PropOp39
 70
     1
102
RTVSPost2010Prop40
 90
        0
102
RTVSPost2010PropOp40
 70
     1
102
RTVSPost2010Prop41ColorIndex
 90
       18
102
RTVSPost2010Prop41ColorRGB
 90
        0
102
RTVSPost2010PropOp41
 70
     1
102
RTVSPost2010Prop42
 90
       50
102
RTVSPost2010PropOp42
 70
     1
102
RTVSPost2010Prop43
 90
        3
102
RTVSPost2010PropOp43
 70
     1
102
RTVSPost2010Prop44ColorIndex
 90
        5
102
RTVSPost2010Prop44ColorRGB
 90
      255
102
RTVSPost2010PropOp44
 70
     1
102
RTVSPost2010Prop45
280
     0
102
RTVSPost2010PropOp45
 70
     1
102
RTVSPost2010Prop46
 90
       50
102
RTVSPost2010PropOp46
 70
     1
102
RTVSPost2010Prop47
 90
       50
102
RTVSPost2010PropOp47
 70
     1
102
RTVSPost2010Prop48
 90
       50
102
RTVSPost2010PropOp48
 70
     1
102
RTVSPost2010Prop49
280
     0
102
RTVSPost2010PropOp49
 70
     1
102
RTVSPost2010Prop50
 90
       50
102
RTVSPost2010PropOp50
 70
     1
102
RTVSPost2010Prop51ColorIndex
 90
      256
102
RTVSPost2010Prop51ColorRGB
 90
-16777216
102
RTVSPost2010PropOp51
 70
     0
102
RTVSPost2010Prop52
140
1.0
102
RTVSPost2010PropOp52
 70
     0
102
RTVSPost2010Prop53
 90
        2
102
RTVSPost2010PropOp53
 70
     1
102
RTVSPost2010Prop54
  1
strokes_ogs.tif
102
RTVSPost2010PropOp54
 70
     1
102
RTVSPost2010Prop55
280
     0
102
RTVSPost2010PropOp55
 70
     1
102
RTVSPost2010Prop56
140
1.0
102
RTVSPost2010PropOp56
 70
     1
102
RTVSPost2010Prop57
140
1.0
102
RTVSPost2010PropOp57
 70
     1
  0
XRECORD
  5
266
102
{ACAD_REACTORS
330
265
102
}
330
265
100
AcDbXrecord
280
     1
102
RTVSPropertyOp0
 70
     1
102
RTVSPropertyOp1
 70
     1
102
RTVSPropertyOp2
 70
     1
102
RTVSPropertyOp3
 70
     1
102
RTVSPropertyOp4
 70
     1
102
RTVSPropertyOp5
 70
     1
102
RTVSPropertyOp6
 70
     1
102
RTVSPropertyOp7
 70
     1
102
RTVSPropertyOp8
 70
     1
102
RTVSPropertyOp9
 70
     1
102
RTVSPropertyOp10
 70
     1
102
RTVSPropertyOp11
 70
     1
102
RTVSPropertyOp12
 70
     1
102
RTVSPropertyOp13
 70
     1
102
RTVSPropertyOp14
 70
     1
102
RTVSPropertyOp15
 70
     1
102
RTVSPropertyOp16
 70
     1
102
RTVSPropertyOp17
 70
     1
102
RTVSPropertyOp18
 70
     1
102
RTVSPropertyOp19
 70
     1
102
RTVSPropertyOp20
 70
     1
102
RTVSPropertyOp21
 70
     1
102
RTVSPropertyOp22
 70
     1
102
RTVSPropertyOp23
 70
     1
102
RTVSPropertyOp24
 70
     1
102
RTVSPropertyOp25
 70
     1
102
RTVSPropertyOp26
 70
     1
102
RTVSPropertyOp27
 70
     1
102
RTVSPropertyOp28
 70
     1
102
RTVSPropertyOp29
 70
     1
102
RTVSPropertyOp30
 70
     1
102
RTVSPropertyOp31
 70
     1
102
RTVSPropertyOp32
 70
     1
102
RTVSPropertyOp33
 70
     1
102
RTVSPropertyOp34
 70
     1
102
RTVSPropertyOp35
 70
     1
102
RTVSPropertyOp36
 70
     1
102
RTVSPropertyOp37
 70
     1
102
RTVSPropertyOp38
 70
     1
102
RTVSPropertyOp39
 70
     1
102
RTVSPropertyOp40
 70
     1
102
RTVSPropertyOp41
 70
     1
102
RTVSPropertyOp42
 70
     1
102
RTVSPropertyOp43
 70
     1
102
RTVSPropertyOp44
 70
     1
102
RTVSPropertyOp45
 70
     1
102
RTVSPropertyOp46
 70
     1
102
RTVSPropertyOp47
 70
     1
102
RTVSPropertyOp48
 70
     1
102
RTVSPropertyOp49
 70
     1
102
RTVSPropertyOp50
 70
     1
102
RTVSPropertyOp51
 70
     0
102
RTVSPropertyOp52
 70
     0
102
RTVSPropertyOp53
 70
     1
102
RTVSPropertyOp54
 70
     1
102
RTVSPropertyOp55
 70
     1
102
RTVSPropertyOp56
 70
     1
102
RTVSPropertyOp57
 70
     1
102
RTVSPost2010Prop28
280
     0
102
RTVSPost2010PropOp28
 70
     1
102
RTVSPost2010Prop29
280
     1
102
RTVSPost2010PropOp29
 70
     1
102
RTVSPost2010Prop30
280
     1
102
RTVSPost2010PropOp30
 70
     1
102
RTVSPost2010Prop31
280
     0
102
RTVSPost2010PropOp31
 70
     1
102
RTVSPost2010Prop32
280
     0
102
RTVSPost2010PropOp32
 70
     1
102
RTVSPost2010Prop33
280
     0
102
RTVSPost2010PropOp33
 70
     1
102
RTVSPost2010Prop34
280
     0
102
RTVSPost2010PropOp34
 70
     1
102
RTVSPost2010Prop35
280
     0
102
RTVSPost2010PropOp35
 70
     1
102
RTVSPost2010Prop36
280
     0
102
RTVSPost2010PropOp36
 70
     1
102
RTVSPost2010Prop37
 90
       50
102
RTVSPost2010PropOp37
 70
     1
102
RTVSPost2010Prop38
140
0.0
102
RTVSPost2010PropOp38
 70
     1
102
RTVSPost2010Prop39
140
1.0
102
RTVSPost2010PropOp39
 70
     1
102
RTVSPost2010Prop40
 90
        0
102
RTVSPost2010PropOp40
 70
     1
102
RTVSPost2010Prop41ColorIndex
 90
       18
102
RTVSPost2010Prop41ColorRGB
 90
        0
102
RTVSPost2010PropOp41
 70
     1
102
RTVSPost2010Prop42
 90
       50
102
RTVSPost2010PropOp42
 70
     1
102
RTVSPost2010Prop43
 90
        3
102
RTVSPost2010PropOp43
 70
     1
102
RTVSPost2010Prop44ColorIndex
 90
        5
102
RTVSPost2010Prop44ColorRGB
 90
      255
102
RTVSPost2010PropOp44
 70
     1
102
RTVSPost2010Prop45
280
     0
102
RTVSPost2010PropOp45
 70
     1
102
RTVSPost2010Prop46
 90
       50
102
RTVSPost2010PropOp46
 70
     1
102
RTVSPost2010Prop47
 90
       50
102
RTVSPost2010PropOp47
 70
     1
102
RTVSPost2010Prop48
 90
       50
102
RTVSPost2010PropOp48
 70
     1
102
RTVSPost2010Prop49
280
     0
102
RTVSPost2010PropOp49
 70
     1
102
RTVSPost2010Prop50
 90
       50
102
RTVSPost2010PropOp50
 70
     1
102
RTVSPost2010Prop51ColorIndex
 90
      256
102
RTVSPost2010Prop51ColorRGB
 90
-16777216
102
RTVSPost2010PropOp51
 70
     0
102
RTVSPost2010Prop52
140
1.0
102
RTVSPost2010PropOp52
 70
     0
102
RTVSPost2010Prop53
 90
        2
102
RTVSPost2010PropOp53
 70
     1
102
RTVSPost2010Prop54
  1
strokes_ogs.tif
102
RTVSPost2010PropOp54
 70
     1
102
RTVSPost2010Prop55
280
     0
102
RTVSPost2010PropOp55
 70
     1
102
RTVSPost2010Prop56
140
1.0
102
RTVSPost2010PropOp56
 70
     1
102
RTVSPost2010Prop57
140
1.0
102
RTVSPost2010PropOp57
 70
     1
  0
XRECORD
  5
27A
102
{ACAD_REACTORS
330
279
102
}
330
279
100
AcDbXrecord
280
     1
102
RTVSPropertyOp0
 70
     0
102
RTVSPropertyOp1
 70
     0
102
RTVSPropertyOp2
 70
     0
102
RTVSPropertyOp3
 70
     0
102
RTVSPropertyOp4
 70
     0
102
RTVSPropertyOp5
 70
     0
102
RTVSPropertyOp6
 70
     0
102
RTVSPropertyOp7
 70
     0
102
RTVSPropertyOp8
 70
     0
102
RTVSPropertyOp9
 70
     0
102
RTVSPropertyOp10
 70
     0
102
RTVSPropertyOp11
 70
     0
102
RTVSPropertyOp12
 70
     0
102
RTVSPropertyOp13
 70
     0
102
RTVSPropertyOp14
 70
     2
102
RTVSPropertyOp15
 70
     0
102
RTVSPropertyOp16
 70
     0
102
RTVSPropertyOp17
 70
     0
102
RTVSPropertyOp18
 70
     0
102
RTVSPropertyOp19
 70
     0
102
RTVSPropertyOp20
 70
     0
102
RTVSPropertyOp21
 70
     0
102
RTVSPropertyOp22
 70
     0
102
RTVSPropertyOp23
 70
     0
102
RTVSPropertyOp24
 70
     0
102
RTVSPropertyOp25
 70
     0
102
RTVSPropertyOp26
 70
     0
102
RTVSPropertyOp27
 70
     0
102
RTVSPropertyOp28
 70
     0
102
RTVSPropertyOp29
 70
     0
102
RTVSPropertyOp30
 70
     0
102
RTVSPropertyOp31
 70
     0
102
RTVSPropertyOp32
 70
     0
102
RTVSPropertyOp33
 70
     0
102
RTVSPropertyOp34
 70
     0
102
RTVSPropertyOp35
 70
     0
102
RTVSPropertyOp36
 70
     0
102
RTVSPropertyOp37
 70
     0
102
RTVSPropertyOp38
 70
     0
102
RTVSPropertyOp39
 70
     0
102
RTVSPropertyOp40
 70
     0
102
RTVSPropertyOp41
 70
     0
102
RTVSPropertyOp42
 70
     0
102
RTVSPropertyOp43
 70
     0
102
RTVSPropertyOp44
 70
     0
102
RTVSPropertyOp45
 70
     0
102
RTVSPropertyOp46
 70
     0
102
RTVSPropertyOp47
 70
     0
102
RTVSPropertyOp48
 70
     0
102
RTVSPropertyOp49
 70
     0
102
RTVSPropertyOp50
 70
     0
102
RTVSPropertyOp51
 70
     0
102
RTVSPropertyOp52
 70
     0
102
RTVSPropertyOp53
 70
     0
102
RTVSPropertyOp54
 70
     0
102
RTVSPropertyOp55
 70
     0
102
RTVSPropertyOp56
 70
     0
102
RTVSPropertyOp57
 70
     0
102
RTVSPost2010Prop28
280
     0
102
RTVSPost2010PropOp28
 70
     0
102
RTVSPost2010Prop29
280
     1
102
RTVSPost2010PropOp29
 70
     0
102
RTVSPost2010Prop30
280
     1
102
RTVSPost2010PropOp30
 70
     0
102
RTVSPost2010Prop31
280
     0
102
RTVSPost2010PropOp31
 70
     0
102
RTVSPost2010Prop32
280
     0
102
RTVSPost2010PropOp32
 70
     0
102
RTVSPost2010Prop33
280
     0
102
RTVSPost2010PropOp33
 70
     0
102
RTVSPost2010Prop34
280
     0
102
RTVSPost2010PropOp34
 70
     0
102
RTVSPost2010Prop35
280
     0
102
RTVSPost2010PropOp35
 70
     0
102
RTVSPost2010Prop36
280
     0
102
RTVSPost2010PropOp36
 70
     0
102
RTVSPost2010Prop37
 90
       50
102
RTVSPost2010PropOp37
 70
     0
102
RTVSPost2010Prop38
140
0.0
102
RTVSPost2010PropOp38
 70
     0
102
RTVSPost2010Prop39
140
1.0
102
RTVSPost2010PropOp39
 70
     0
102
RTVSPost2010Prop40
 90
        0
102
RTVSPost2010PropOp40
 70
     0
102
RTVSPost2010Prop41ColorIndex
 90
       18
102
RTVSPost2010Prop41ColorRGB
 90
        0
102
RTVSPost2010PropOp41
 70
     0
102
RTVSPost2010Prop42
 90
       50
102
RTVSPost2010PropOp42
 70
     0
102
RTVSPost2010Prop43
 90
        3
102
RTVSPost2010PropOp43
 70
     0
102
RTVSPost2010Prop44ColorIndex
 90
        5
102
RTVSPost2010Prop44ColorRGB
 90
      255
102
RTVSPost2010PropOp44
 70
     0
102
RTVSPost2010Prop45
280
     0
102
RTVSPost2010PropOp45
 70
     0
102
RTVSPost2010Prop46
 90
       50
102
RTVSPost2010PropOp46
 70
     0
102
RTVSPost2010Prop47
 90
       50
102
RTVSPost2010PropOp47
 70
     0
102
RTVSPost2010Prop48
 90
       50
102
RTVSPost2010PropOp48
 70
     0
102
RTVSPost2010Prop49
280
     0
102
RTVSPost2010PropOp49
 70
     0
102
RTVSPost2010Prop50
 90
       50
102
RTVSPost2010PropOp50
 70
     0
102
RTVSPost2010Prop51ColorIndex
 90
      256
102
RTVSPost2010Prop51ColorRGB
 90
-16777216
102
RTVSPost2010PropOp51
 70
     0
102
RTVSPost2010Prop52
140
1.0
102
RTVSPost2010PropOp52
 70
     0
102
RTVSPost2010Prop53
 90
        2
102
RTVSPost2010PropOp53
 70
     0
102
RTVSPost2010Prop54
  1
strokes_ogs.tif
102
RTVSPost2010PropOp54
 70
     0
102
RTVSPost2010Prop55
280
     0
102
RTVSPost2010PropOp55
 70
     0
102
RTVSPost2010Prop56
140
1.0
102
RTVSPost2010PropOp56
 70
     0
102
RTVSPost2010Prop57
140
1.0
102
RTVSPost2010PropOp57
 70
     0
  0
XRECORD
  5
274
102
{ACAD_REACTORS
330
273
102
}
330
273
100
AcDbXrecord
280
     1
102
RTVSPropertyOp0
 70
     1
102
RTVSPropertyOp1
 70
     1
102
RTVSPropertyOp2
 70
     1
102
RTVSPropertyOp3
 70
     1
102
RTVSPropertyOp4
 70
     1
102
RTVSPropertyOp5
 70
     1
102
RTVSPropertyOp6
 70
     1
102
RTVSPropertyOp7
 70
     1
102
RTVSPropertyOp8
 70
     1
102
RTVSPropertyOp9
 70
     1
102
RTVSPropertyOp10
 70
     1
102
RTVSPropertyOp11
 70
     1
102
RTVSPropertyOp12
 70
     1
102
RTVSPropertyOp13
 70
     1
102
RTVSPropertyOp14
 70
     1
102
RTVSPropertyOp15
 70
     1
102
RTVSPropertyOp16
 70
     1
102
RTVSPropertyOp17
 70
     1
102
RTVSPropertyOp18
 70
     1
102
RTVSPropertyOp19
 70
     1
102
RTVSPropertyOp20
 70
     1
102
RTVSPropertyOp21
 70
     1
102
RTVSPropertyOp22
 70
     1
102
RTVSPropertyOp23
 70
     1
102
RTVSPropertyOp24
 70
     1
102
RTVSPropertyOp25
 70
     1
102
RTVSPropertyOp26
 70
     1
102
RTVSPropertyOp27
 70
     1
102
RTVSPropertyOp28
 70
     1
102
RTVSPropertyOp29
 70
     1
102
RTVSPropertyOp30
 70
     1
102
RTVSPropertyOp31
 70
     1
102
RTVSPropertyOp32
 70
     1
102
RTVSPropertyOp33
 70
     1
102
RTVSPropertyOp34
 70
     1
102
RTVSPropertyOp35
 70
     1
102
RTVSPropertyOp36
 70
     1
102
RTVSPropertyOp37
 70
     1
102
RTVSPropertyOp38
 70
     1
102
RTVSPropertyOp39
 70
     1
102
RTVSPropertyOp40
 70
     1
102
RTVSPropertyOp41
 70
     1
102
RTVSPropertyOp42
 70
     1
102
RTVSPropertyOp43
 70
     1
102
RTVSPropertyOp44
 70
     1
102
RTVSPropertyOp45
 70
     1
102
RTVSPropertyOp46
 70
     1
102
RTVSPropertyOp47
 70
     1
102
RTVSPropertyOp48
 70
     1
102
RTVSPropertyOp49
 70
     1
102
RTVSPropertyOp50
 70
     1
102
RTVSPropertyOp51
 70
     0
102
RTVSPropertyOp52
 70
     0
102
RTVSPropertyOp53
 70
     1
102
RTVSPropertyOp54
 70
     1
102
RTVSPropertyOp55
 70
     1
102
RTVSPropertyOp56
 70
     1
102
RTVSPropertyOp57
 70
     1
102
RTVSPost2010Prop28
280
     0
102
RTVSPost2010PropOp28
 70
     1
102
RTVSPost2010Prop29
280
     1
102
RTVSPost2010PropOp29
 70
     1
102
RTVSPost2010Prop30
280
     1
102
RTVSPost2010PropOp30
 70
     1
102
RTVSPost2010Prop31
280
     0
102
RTVSPost2010PropOp31
 70
     1
102
RTVSPost2010Prop32
280
     0
102
RTVSPost2010PropOp32
 70
     1
102
RTVSPost2010Prop33
280
     0
102
RTVSPost2010PropOp33
 70
     1
102
RTVSPost2010Prop34
280
     0
102
RTVSPost2010PropOp34
 70
     1
102
RTVSPost2010Prop35
280
     0
102
RTVSPost2010PropOp35
 70
     1
102
RTVSPost2010Prop36
280
     0
102
RTVSPost2010PropOp36
 70
     1
102
RTVSPost2010Prop37
 90
       50
102
RTVSPost2010PropOp37
 70
     1
102
RTVSPost2010Prop38
140
0.0
102
RTVSPost2010PropOp38
 70
     1
102
RTVSPost2010Prop39
140
1.0
102
RTVSPost2010PropOp39
 70
     1
102
RTVSPost2010Prop40
 90
        0
102
RTVSPost2010PropOp40
 70
     1
102
RTVSPost2010Prop41ColorIndex
 90
       18
102
RTVSPost2010Prop41ColorRGB
 90
        0
102
RTVSPost2010PropOp41
 70
     1
102
RTVSPost2010Prop42
 90
       50
102
RTVSPost2010PropOp42
 70
     1
102
RTVSPost2010Prop43
 90
        3
102
RTVSPost2010PropOp43
 70
     1
102
RTVSPost2010Prop44ColorIndex
 90
        5
102
RTVSPost2010Prop44ColorRGB
 90
      255
102
RTVSPost2010PropOp44
 70
     1
102
RTVSPost2010Prop45
280
     0
102
RTVSPost2010PropOp45
 70
     1
102
RTVSPost2010Prop46
 90
       50
102
RTVSPost2010PropOp46
 70
     1
102
RTVSPost2010Prop47
 90
       50
102
RTVSPost2010PropOp47
 70
     1
102
RTVSPost2010Prop48
 90
       50
102
RTVSPost2010PropOp48
 70
     1
102
RTVSPost2010Prop49
280
     0
102
RTVSPost2010PropOp49
 70
     1
102
RTVSPost2010Prop50
 90
       50
102
RTVSPost2010PropOp50
 70
     1
102
RTVSPost2010Prop51ColorIndex
 90
      256
102
RTVSPost2010Prop51ColorRGB
 90
-16777216
102
RTVSPost2010PropOp51
 70
     0
102
RTVSPost2010Prop52
140
1.0
102
RTVSPost2010PropOp52
 70
     0
102
RTVSPost2010Prop53
 90
        2
102
RTVSPost2010PropOp53
 70
     1
102
RTVSPost2010Prop54
  1
strokes_ogs.tif
102
RTVSPost2010PropOp54
 70
     1
102
RTVSPost2010Prop55
280
     0
102
RTVSPost2010PropOp55
 70
     1
102
RTVSPost2010Prop56
140
1.0
102
RTVSPost2010PropOp56
 70
     1
102
RTVSPost2010Prop57
140
1.0
102
RTVSPost2010PropOp57
 70
     1
  0
XRECORD
  5
27C
102
{ACAD_REACTORS
330
27B
102
}
330
27B
100
AcDbXrecord
280
     1
102
RTVSPropertyOp0
 70
     0
102
RTVSPropertyOp1
 70
     0
102
RTVSPropertyOp2
 70
     0
102
RTVSPropertyOp3
 70
     0
102
RTVSPropertyOp4
 70
     0
102
RTVSPropertyOp5
 70
     0
102
RTVSPropertyOp6
 70
     0
102
RTVSPropertyOp7
 70
     0
102
RTVSPropertyOp8
 70
     0
102
RTVSPropertyOp9
 70
     0
102
RTVSPropertyOp10
 70
     0
102
RTVSPropertyOp11
 70
     0
102
RTVSPropertyOp12
 70
     0
102
RTVSPropertyOp13
 70
     0
102
RTVSPropertyOp14
 70
     2
102
RTVSPropertyOp15
 70
     0
102
RTVSPropertyOp16
 70
     0
102
RTVSPropertyOp17
 70
     0
102
RTVSPropertyOp18
 70
     0
102
RTVSPropertyOp19
 70
     0
102
RTVSPropertyOp20
 70
     0
102
RTVSPropertyOp21
 70
     0
102
RTVSPropertyOp22
 70
     0
102
RTVSPropertyOp23
 70
     0
102
RTVSPropertyOp24
 70
     0
102
RTVSPropertyOp25
 70
     0
102
RTVSPropertyOp26
 70
     0
102
RTVSPropertyOp27
 70
     0
102
RTVSPropertyOp28
 70
     0
102
RTVSPropertyOp29
 70
     0
102
RTVSPropertyOp30
 70
     0
102
RTVSPropertyOp31
 70
     0
102
RTVSPropertyOp32
 70
     0
102
RTVSPropertyOp33
 70
     0
102
RTVSPropertyOp34
 70
     0
102
RTVSPropertyOp35
 70
     0
102
RTVSPropertyOp36
 70
     0
102
RTVSPropertyOp37
 70
     0
102
RTVSPropertyOp38
 70
     0
102
RTVSPropertyOp39
 70
     0
102
RTVSPropertyOp40
 70
     0
102
RTVSPropertyOp41
 70
     0
102
RTVSPropertyOp42
 70
     0
102
RTVSPropertyOp43
 70
     0
102
RTVSPropertyOp44
 70
     0
102
RTVSPropertyOp45
 70
     0
102
RTVSPropertyOp46
 70
     0
102
RTVSPropertyOp47
 70
     0
102
RTVSPropertyOp48
 70
     0
102
RTVSPropertyOp49
 70
     0
102
RTVSPropertyOp50
 70
     0
102
RTVSPropertyOp51
 70
     0
102
RTVSPropertyOp52
 70
     0
102
RTVSPropertyOp53
 70
     0
102
RTVSPropertyOp54
 70
     0
102
RTVSPropertyOp55
 70
     0
102
RTVSPropertyOp56
 70
     0
102
RTVSPropertyOp57
 70
     0
102
RTVSPost2010Prop28
280
     0
102
RTVSPost2010PropOp28
 70
     0
102
RTVSPost2010Prop29
280
     1
102
RTVSPost2010PropOp29
 70
     0
102
RTVSPost2010Prop30
280
     1
102
RTVSPost2010PropOp30
 70
     0
102
RTVSPost2010Prop31
280
     0
102
RTVSPost2010PropOp31
 70
     0
102
RTVSPost2010Prop32
280
     0
102
RTVSPost2010PropOp32
 70
     0
102
RTVSPost2010Prop33
280
     0
102
RTVSPost2010PropOp33
 70
     0
102
RTVSPost2010Prop34
280
     0
102
RTVSPost2010PropOp34
 70
     0
102
RTVSPost2010Prop35
280
     0
102
RTVSPost2010PropOp35
 70
     0
102
RTVSPost2010Prop36
280
     0
102
RTVSPost2010PropOp36
 70
     0
102
RTVSPost2010Prop37
 90
       50
102
RTVSPost2010PropOp37
 70
     0
102
RTVSPost2010Prop38
140
0.0
102
RTVSPost2010PropOp38
 70
     0
102
RTVSPost2010Prop39
140
1.0
102
RTVSPost2010PropOp39
 70
     0
102
RTVSPost2010Prop40
 90
        0
102
RTVSPost2010PropOp40
 70
     0
102
RTVSPost2010Prop41ColorIndex
 90
       18
102
RTVSPost2010Prop41ColorRGB
 90
        0
102
RTVSPost2010PropOp41
 70
     0
102
RTVSPost2010Prop42
 90
       50
102
RTVSPost2010PropOp42
 70
     0
102
RTVSPost2010Prop43
 90
        3
102
RTVSPost2010PropOp43
 70
     0
102
RTVSPost2010Prop44ColorIndex
 90
        5
102
RTVSPost2010Prop44ColorRGB
 90
      255
102
RTVSPost2010PropOp44
 70
     0
102
RTVSPost2010Prop45
280
     0
102
RTVSPost2010PropOp45
 70
     0
102
RTVSPost2010Prop46
 90
       50
102
RTVSPost2010PropOp46
 70
     0
102
RTVSPost2010Prop47
 90
       50
102
RTVSPost2010PropOp47
 70
     0
102
RTVSPost2010Prop48
 90
       50
102
RTVSPost2010PropOp48
 70
     0
102
RTVSPost2010Prop49
280
     0
102
RTVSPost2010PropOp49
 70
     0
102
RTVSPost2010Prop50
 90
       50
102
RTVSPost2010PropOp50
 70
     0
102
RTVSPost2010Prop51ColorIndex
 90
      256
102
RTVSPost2010Prop51ColorRGB
 90
-16777216
102
RTVSPost2010PropOp51
 70
     0
102
RTVSPost2010Prop52
140
1.0
102
RTVSPost2010PropOp52
 70
     0
102
RTVSPost2010Prop53
 90
        2
102
RTVSPost2010PropOp53
 70
     0
102
RTVSPost2010Prop54
  1
strokes_ogs.tif
102
RTVSPost2010PropOp54
 70
     0
102
RTVSPost2010Prop55
280
     0
102
RTVSPost2010PropOp55
 70
     0
102
RTVSPost2010Prop56
140
1.0
102
RTVSPost2010PropOp56
 70
     0
102
RTVSPost2010Prop57
140
1.0
102
RTVSPost2010PropOp57
 70
     0
  0
XRECORD
  5
26A
102
{ACAD_REACTORS
330
269
102
}
330
269
100
AcDbXrecord
280
     1
102
RTVSPropertyOp0
 70
     1
102
RTVSPropertyOp1
 70
     1
102
RTVSPropertyOp2
 70
     1
102
RTVSPropertyOp3
 70
     1
102
RTVSPropertyOp4
 70
     1
102
RTVSPropertyOp5
 70
     1
102
RTVSPropertyOp6
 70
     1
102
RTVSPropertyOp7
 70
     1
102
RTVSPropertyOp8
 70
     1
102
RTVSPropertyOp9
 70
     1
102
RTVSPropertyOp10
 70
     1
102
RTVSPropertyOp11
 70
     1
102
RTVSPropertyOp12
 70
     1
102
RTVSPropertyOp13
 70
     1
102
RTVSPropertyOp14
 70
     1
102
RTVSPropertyOp15
 70
     1
102
RTVSPropertyOp16
 70
     1
102
RTVSPropertyOp17
 70
     1
102
RTVSPropertyOp18
 70
     1
102
RTVSPropertyOp19
 70
     1
102
RTVSPropertyOp20
 70
     1
102
RTVSPropertyOp21
 70
     1
102
RTVSPropertyOp22
 70
     1
102
RTVSPropertyOp23
 70
     1
102
RTVSPropertyOp24
 70
     1
102
RTVSPropertyOp25
 70
     1
102
RTVSPropertyOp26
 70
     1
102
RTVSPropertyOp27
 70
     1
102
RTVSPropertyOp28
 70
     1
102
RTVSPropertyOp29
 70
     1
102
RTVSPropertyOp30
 70
     1
102
RTVSPropertyOp31
 70
     1
102
RTVSPropertyOp32
 70
     1
102
RTVSPropertyOp33
 70
     1
102
RTVSPropertyOp34
 70
     1
102
RTVSPropertyOp35
 70
     1
102
RTVSPropertyOp36
 70
     1
102
RTVSPropertyOp37
 70
     1
102
RTVSPropertyOp38
 70
     1
102
RTVSPropertyOp39
 70
     1
102
RTVSPropertyOp40
 70
     1
102
RTVSPropertyOp41
 70
     1
102
RTVSPropertyOp42
 70
     1
102
RTVSPropertyOp43
 70
     1
102
RTVSPropertyOp44
 70
     1
102
RTVSPropertyOp45
 70
     1
102
RTVSPropertyOp46
 70
     1
102
RTVSPropertyOp47
 70
     1
102
RTVSPropertyOp48
 70
     1
102
RTVSPropertyOp49
 70
     1
102
RTVSPropertyOp50
 70
     1
102
RTVSPropertyOp51
 70
     0
102
RTVSPropertyOp52
 70
     0
102
RTVSPropertyOp53
 70
     1
102
RTVSPropertyOp54
 70
     1
102
RTVSPropertyOp55
 70
     1
102
RTVSPropertyOp56
 70
     1
102
RTVSPropertyOp57
 70
     1
102
RTVSPost2010Prop28
280
     0
102
RTVSPost2010PropOp28
 70
     1
102
RTVSPost2010Prop29
280
     1
102
RTVSPost2010PropOp29
 70
     1
102
RTVSPost2010Prop30
280
     1
102
RTVSPost2010PropOp30
 70
     1
102
RTVSPost2010Prop31
280
     0
102
RTVSPost2010PropOp31
 70
     1
102
RTVSPost2010Prop32
280
     0
102
RTVSPost2010PropOp32
 70
     1
102
RTVSPost2010Prop33
280
     0
102
RTVSPost2010PropOp33
 70
     1
102
RTVSPost2010Prop34
280
     0
102
RTVSPost2010PropOp34
 70
     1
102
RTVSPost2010Prop35
280
     0
102
RTVSPost2010PropOp35
 70
     1
102
RTVSPost2010Prop36
280
     0
102
RTVSPost2010PropOp36
 70
     1
102
RTVSPost2010Prop37
 90
       50
102
RTVSPost2010PropOp37
 70
     1
102
RTVSPost2010Prop38
140
0.0
102
RTVSPost2010PropOp38
 70
     1
102
RTVSPost2010Prop39
140
1.0
102
RTVSPost2010PropOp39
 70
     1
102
RTVSPost2010Prop40
 90
        0
102
RTVSPost2010PropOp40
 70
     1
102
RTVSPost2010Prop41ColorIndex
 90
       18
102
RTVSPost2010Prop41ColorRGB
 90
        0
102
RTVSPost2010PropOp41
 70
     1
102
RTVSPost2010Prop42
 90
       50
102
RTVSPost2010PropOp42
 70
     1
102
RTVSPost2010Prop43
 90
        3
102
RTVSPost2010PropOp43
 70
     1
102
RTVSPost2010Prop44ColorIndex
 90
        5
102
RTVSPost2010Prop44ColorRGB
 90
      255
102
RTVSPost2010PropOp44
 70
     1
102
RTVSPost2010Prop45
280
     0
102
RTVSPost2010PropOp45
 70
     1
102
RTVSPost2010Prop46
 90
       50
102
RTVSPost2010PropOp46
 70
     1
102
RTVSPost2010Prop47
 90
       50
102
RTVSPost2010PropOp47
 70
     1
102
RTVSPost2010Prop48
 90
       50
102
RTVSPost2010PropOp48
 70
     1
102
RTVSPost2010Prop49
280
     0
102
RTVSPost2010PropOp49
 70
     1
102
RTVSPost2010Prop50
 90
       50
102
RTVSPost2010PropOp50
 70
     1
102
RTVSPost2010Prop51ColorIndex
 90
      256
102
RTVSPost2010Prop51ColorRGB
 90
-16777216
102
RTVSPost2010PropOp51
 70
     0
102
RTVSPost2010Prop52
140
1.0
102
RTVSPost2010PropOp52
 70
     0
102
RTVSPost2010Prop53
 90
        2
102
RTVSPost2010PropOp53
 70
     1
102
RTVSPost2010Prop54
  1
strokes_ogs.tif
102
RTVSPost2010PropOp54
 70
     1
102
RTVSPost2010Prop55
280
     0
102
RTVSPost2010PropOp55
 70
     1
102
RTVSPost2010Prop56
140
1.0
102
RTVSPost2010PropOp56
 70
     1
102
RTVSPost2010Prop57
140
1.0
102
RTVSPost2010PropOp57
 70
     1
  0
XRECORD
  5
288
102
{ACAD_REACTORS
330
287
102
}
330
287
100
AcDbXrecord
280
     1
102
RTVSPropertyOp0
 70
     1
102
RTVSPropertyOp1
 70
     1
102
RTVSPropertyOp2
 70
     1
102
RTVSPropertyOp3
 70
     1
102
RTVSPropertyOp4
 70
     1
102
RTVSPropertyOp5
 70
     1
102
RTVSPropertyOp6
 70
     1
102
RTVSPropertyOp7
 70
     1
102
RTVSPropertyOp8
 70
     1
102
RTVSPropertyOp9
 70
     1
102
RTVSPropertyOp10
 70
     1
102
RTVSPropertyOp11
 70
     1
102
RTVSPropertyOp12
 70
     1
102
RTVSPropertyOp13
 70
     1
102
RTVSPropertyOp14
 70
     1
102
RTVSPropertyOp15
 70
     1
102
RTVSPropertyOp16
 70
     1
102
RTVSPropertyOp17
 70
     1
102
RTVSPropertyOp18
 70
     1
102
RTVSPropertyOp19
 70
     1
102
RTVSPropertyOp20
 70
     1
102
RTVSPropertyOp21
 70
     1
102
RTVSPropertyOp22
 70
     1
102
RTVSPropertyOp23
 70
     1
102
RTVSPropertyOp24
 70
     1
102
RTVSPropertyOp25
 70
     1
102
RTVSPropertyOp26
 70
     1
102
RTVSPropertyOp27
 70
     1
102
RTVSPropertyOp28
 70
     1
102
RTVSPropertyOp29
 70
     1
102
RTVSPropertyOp30
 70
     1
102
RTVSPropertyOp31
 70
     1
102
RTVSPropertyOp32
 70
     1
102
RTVSPropertyOp33
 70
     1
102
RTVSPropertyOp34
 70
     1
102
RTVSPropertyOp35
 70
     1
102
RTVSPropertyOp36
 70
     1
102
RTVSPropertyOp37
 70
     1
102
RTVSPropertyOp38
 70
     1
102
RTVSPropertyOp39
 70
     1
102
RTVSPropertyOp40
 70
     1
102
RTVSPropertyOp41
 70
     1
102
RTVSPropertyOp42
 70
     1
102
RTVSPropertyOp43
 70
     1
102
RTVSPropertyOp44
 70
     1
102
RTVSPropertyOp45
 70
     1
102
RTVSPropertyOp46
 70
     1
102
RTVSPropertyOp47
 70
     1
102
RTVSPropertyOp48
 70
     1
102
RTVSPropertyOp49
 70
     1
102
RTVSPropertyOp50
 70
     1
102
RTVSPropertyOp51
 70
     0
102
RTVSPropertyOp52
 70
     0
102
RTVSPropertyOp53
 70
     1
102
RTVSPropertyOp54
 70
     1
102
RTVSPropertyOp55
 70
     1
102
RTVSPropertyOp56
 70
     1
102
RTVSPropertyOp57
 70
     1
102
RTVSPost2010Prop28
280
     0
102
RTVSPost2010PropOp28
 70
     1
102
RTVSPost2010Prop29
280
     1
102
RTVSPost2010PropOp29
 70
     1
102
RTVSPost2010Prop30
280
     1
102
RTVSPost2010PropOp30
 70
     1
102
RTVSPost2010Prop31
280
     0
102
RTVSPost2010PropOp31
 70
     1
102
RTVSPost2010Prop32
280
     0
102
RTVSPost2010PropOp32
 70
     1
102
RTVSPost2010Prop33
280
     0
102
RTVSPost2010PropOp33
 70
     1
102
RTVSPost2010Prop34
280
     0
102
RTVSPost2010PropOp34
 70
     1
102
RTVSPost2010Prop35
280
     0
102
RTVSPost2010PropOp35
 70
     1
102
RTVSPost2010Prop36
280
     0
102
RTVSPost2010PropOp36
 70
     1
102
RTVSPost2010Prop37
 90
       50
102
RTVSPost2010PropOp37
 70
     1
102
RTVSPost2010Prop38
140
0.0
102
RTVSPost2010PropOp38
 70
     1
102
RTVSPost2010Prop39
140
1.0
102
RTVSPost2010PropOp39
 70
     1
102
RTVSPost2010Prop40
 90
        0
102
RTVSPost2010PropOp40
 70
     1
102
RTVSPost2010Prop41ColorIndex
 90
       18
102
RTVSPost2010Prop41ColorRGB
 90
        0
102
RTVSPost2010PropOp41
 70
     1
102
RTVSPost2010Prop42
 90
       50
102
RTVSPost2010PropOp42
 70
     1
102
RTVSPost2010Prop43
 90
        3
102
RTVSPost2010PropOp43
 70
     1
102
RTVSPost2010Prop44ColorIndex
 90
        5
102
RTVSPost2010Prop44ColorRGB
 90
      255
102
RTVSPost2010PropOp44
 70
     1
102
RTVSPost2010Prop45
280
     0
102
RTVSPost2010PropOp45
 70
     1
102
RTVSPost2010Prop46
 90
       50
102
RTVSPost2010PropOp46
 70
     1
102
RTVSPost2010Prop47
 90
       50
102
RTVSPost2010PropOp47
 70
     1
102
RTVSPost2010Prop48
 90
       50
102
RTVSPost2010PropOp48
 70
     1
102
RTVSPost2010Prop49
280
     0
102
RTVSPost2010PropOp49
 70
     1
102
RTVSPost2010Prop50
 90
       50
102
RTVSPost2010PropOp50
 70
     1
102
RTVSPost2010Prop51ColorIndex
 90
      256
102
RTVSPost2010Prop51ColorRGB
 90
-16777216
102
RTVSPost2010PropOp51
 70
     0
102
RTVSPost2010Prop52
140
1.0
102
RTVSPost2010PropOp52
 70
     0
102
RTVSPost2010Prop53
 90
        2
102
RTVSPost2010PropOp53
 70
     1
102
RTVSPost2010Prop54
  1
strokes_ogs.tif
102
RTVSPost2010PropOp54
 70
     1
102
RTVSPost2010Prop55
280
     0
102
RTVSPost2010PropOp55
 70
     1
102
RTVSPost2010Prop56
140
1.0
102
RTVSPost2010PropOp56
 70
     1
102
RTVSPost2010Prop57
140
1.0
102
RTVSPost2010PropOp57
 70
     1
  0
XRECORD
  5
286
102
{ACAD_REACTORS
330
285
102
}
330
285
100
AcDbXrecord
280
     1
102
RTVSPropertyOp0
 70
     1
102
RTVSPropertyOp1
 70
     1
102
RTVSPropertyOp2
 70
     1
102
RTVSPropertyOp3
 70
     1
102
RTVSPropertyOp4
 70
     1
102
RTVSPropertyOp5
 70
     1
102
RTVSPropertyOp6
 70
     1
102
RTVSPropertyOp7
 70
     1
102
RTVSPropertyOp8
 70
     1
102
RTVSPropertyOp9
 70
     1
102
RTVSPropertyOp10
 70
     1
102
RTVSPropertyOp11
 70
     1
102
RTVSPropertyOp12
 70
     1
102
RTVSPropertyOp13
 70
     1
102
RTVSPropertyOp14
 70
     1
102
RTVSPropertyOp15
 70
     1
102
RTVSPropertyOp16
 70
     1
102
RTVSPropertyOp17
 70
     1
102
RTVSPropertyOp18
 70
     1
102
RTVSPropertyOp19
 70
     1
102
RTVSPropertyOp20
 70
     1
102
RTVSPropertyOp21
 70
     1
102
RTVSPropertyOp22
 70
     1
102
RTVSPropertyOp23
 70
     1
102
RTVSPropertyOp24
 70
     1
102
RTVSPropertyOp25
 70
     1
102
RTVSPropertyOp26
 70
     1
102
RTVSPropertyOp27
 70
     1
102
RTVSPropertyOp28
 70
     1
102
RTVSPropertyOp29
 70
     1
102
RTVSPropertyOp30
 70
     1
102
RTVSPropertyOp31
 70
     1
102
RTVSPropertyOp32
 70
     1
102
RTVSPropertyOp33
 70
     1
102
RTVSPropertyOp34
 70
     1
102
RTVSPropertyOp35
 70
     1
102
RTVSPropertyOp36
 70
     1
102
RTVSPropertyOp37
 70
     1
102
RTVSPropertyOp38
 70
     1
102
RTVSPropertyOp39
 70
     1
102
RTVSPropertyOp40
 70
     1
102
RTVSPropertyOp41
 70
     1
102
RTVSPropertyOp42
 70
     1
102
RTVSPropertyOp43
 70
     1
102
RTVSPropertyOp44
 70
     1
102
RTVSPropertyOp45
 70
     1
102
RTVSPropertyOp46
 70
     1
102
RTVSPropertyOp47
 70
     1
102
RTVSPropertyOp48
 70
     1
102
RTVSPropertyOp49
 70
     1
102
RTVSPropertyOp50
 70
     1
102
RTVSPropertyOp51
 70
     0
102
RTVSPropertyOp52
 70
     0
102
RTVSPropertyOp53
 70
     1
102
RTVSPropertyOp54
 70
     1
102
RTVSPropertyOp55
 70
     1
102
RTVSPropertyOp56
 70
     1
102
RTVSPropertyOp57
 70
     1
102
RTVSPost2010Prop28
280
     0
102
RTVSPost2010PropOp28
 70
     1
102
RTVSPost2010Prop29
280
     1
102
RTVSPost2010PropOp29
 70
     1
102
RTVSPost2010Prop30
280
     1
102
RTVSPost2010PropOp30
 70
     1
102
RTVSPost2010Prop31
280
     0
102
RTVSPost2010PropOp31
 70
     1
102
RTVSPost2010Prop32
280
     0
102
RTVSPost2010PropOp32
 70
     1
102
RTVSPost2010Prop33
280
     0
102
RTVSPost2010PropOp33
 70
     1
102
RTVSPost2010Prop34
280
     0
102
RTVSPost2010PropOp34
 70
     1
102
RTVSPost2010Prop35
280
     0
102
RTVSPost2010PropOp35
 70
     1
102
RTVSPost2010Prop36
280
     0
102
RTVSPost2010PropOp36
 70
     1
102
RTVSPost2010Prop37
 90
       50
102
RTVSPost2010PropOp37
 70
     1
102
RTVSPost2010Prop38
140
0.0
102
RTVSPost2010PropOp38
 70
     1
102
RTVSPost2010Prop39
140
1.0
102
RTVSPost2010PropOp39
 70
     1
102
RTVSPost2010Prop40
 90
        0
102
RTVSPost2010PropOp40
 70
     1
102
RTVSPost2010Prop41ColorIndex
 90
       18
102
RTVSPost2010Prop41ColorRGB
 90
        0
102
RTVSPost2010PropOp41
 70
     1
102
RTVSPost2010Prop42
 90
       50
102
RTVSPost2010PropOp42
 70
     1
102
RTVSPost2010Prop43
 90
        3
102
RTVSPost2010PropOp43
 70
     1
102
RTVSPost2010Prop44ColorIndex
 90
        5
102
RTVSPost2010Prop44ColorRGB
 90
      255
102
RTVSPost2010PropOp44
 70
     1
102
RTVSPost2010Prop45
280
     0
102
RTVSPost2010PropOp45
 70
     1
102
RTVSPost2010Prop46
 90
       50
102
RTVSPost2010PropOp46
 70
     1
102
RTVSPost2010Prop47
 90
       50
102
RTVSPost2010PropOp47
 70
     1
102
RTVSPost2010Prop48
 90
       50
102
RTVSPost2010PropOp48
 70
     1
102
RTVSPost2010Prop49
280
     0
102
RTVSPost2010PropOp49
 70
     1
102
RTVSPost2010Prop50
 90
       50
102
RTVSPost2010PropOp50
 70
     1
102
RTVSPost2010Prop51ColorIndex
 90
      256
102
RTVSPost2010Prop51ColorRGB
 90
-16777216
102
RTVSPost2010PropOp51
 70
     0
102
RTVSPost2010Prop52
140
1.0
102
RTVSPost2010PropOp52
 70
     0
102
RTVSPost2010Prop53
 90
        2
102
RTVSPost2010PropOp53
 70
     1
102
RTVSPost2010Prop54
  1
strokes_ogs.tif
102
RTVSPost2010PropOp54
 70
     1
102
RTVSPost2010Prop55
280
     0
102
RTVSPost2010PropOp55
 70
     1
102
RTVSPost2010Prop56
140
1.0
102
RTVSPost2010PropOp56
 70
     1
102
RTVSPost2010Prop57
140
1.0
102
RTVSPost2010PropOp57
 70
     1
  0
XRECORD
  5
280
102
{ACAD_REACTORS
330
27F
102
}
330
27F
100
AcDbXrecord
280
     1
102
RTVSPropertyOp0
 70
     1
102
RTVSPropertyOp1
 70
     1
102
RTVSPropertyOp2
 70
     1
102
RTVSPropertyOp3
 70
     1
102
RTVSPropertyOp4
 70
     1
102
RTVSPropertyOp5
 70
     1
102
RTVSPropertyOp6
 70
     1
102
RTVSPropertyOp7
 70
     1
102
RTVSPropertyOp8
 70
     1
102
RTVSPropertyOp9
 70
     1
102
RTVSPropertyOp10
 70
     1
102
RTVSPropertyOp11
 70
     1
102
RTVSPropertyOp12
 70
     1
102
RTVSPropertyOp13
 70
     1
102
RTVSPropertyOp14
 70
     1
102
RTVSPropertyOp15
 70
     1
102
RTVSPropertyOp16
 70
     1
102
RTVSPropertyOp17
 70
     1
102
RTVSPropertyOp18
 70
     1
102
RTVSPropertyOp19
 70
     1
102
RTVSPropertyOp20
 70
     1
102
RTVSPropertyOp21
 70
     1
102
RTVSPropertyOp22
 70
     1
102
RTVSPropertyOp23
 70
     1
102
RTVSPropertyOp24
 70
     1
102
RTVSPropertyOp25
 70
     1
102
RTVSPropertyOp26
 70
     1
102
RTVSPropertyOp27
 70
     1
102
RTVSPropertyOp28
 70
     1
102
RTVSPropertyOp29
 70
     1
102
RTVSPropertyOp30
 70
     1
102
RTVSPropertyOp31
 70
     1
102
RTVSPropertyOp32
 70
     1
102
RTVSPropertyOp33
 70
     1
102
RTVSPropertyOp34
 70
     1
102
RTVSPropertyOp35
 70
     1
102
RTVSPropertyOp36
 70
     1
102
RTVSPropertyOp37
 70
     1
102
RTVSPropertyOp38
 70
     1
102
RTVSPropertyOp39
 70
     1
102
RTVSPropertyOp40
 70
     1
102
RTVSPropertyOp41
 70
     1
102
RTVSPropertyOp42
 70
     1
102
RTVSPropertyOp43
 70
     1
102
RTVSPropertyOp44
 70
     1
102
RTVSPropertyOp45
 70
     1
102
RTVSPropertyOp46
 70
     1
102
RTVSPropertyOp47
 70
     1
102
RTVSPropertyOp48
 70
     1
102
RTVSPropertyOp49
 70
     1
102
RTVSPropertyOp50
 70
     1
102
RTVSPropertyOp51
 70
     0
102
RTVSPropertyOp52
 70
     0
102
RTVSPropertyOp53
 70
     1
102
RTVSPropertyOp54
 70
     1
102
RTVSPropertyOp55
 70
     1
102
RTVSPropertyOp56
 70
     1
102
RTVSPropertyOp57
 70
     1
102
RTVSPost2010Prop28
280
     0
102
RTVSPost2010PropOp28
 70
     1
102
RTVSPost2010Prop29
280
     1
102
RTVSPost2010PropOp29
 70
     1
102
RTVSPost2010Prop30
280
     1
102
RTVSPost2010PropOp30
 70
     1
102
RTVSPost2010Prop31
280
     0
102
RTVSPost2010PropOp31
 70
     1
102
RTVSPost2010Prop32
280
     0
102
RTVSPost2010PropOp32
 70
     1
102
RTVSPost2010Prop33
280
     0
102
RTVSPost2010PropOp33
 70
     1
102
RTVSPost2010Prop34
280
     0
102
RTVSPost2010PropOp34
 70
     1
102
RTVSPost2010Prop35
280
     0
102
RTVSPost2010PropOp35
 70
     1
102
RTVSPost2010Prop36
280
     0
102
RTVSPost2010PropOp36
 70
     1
102
RTVSPost2010Prop37
 90
       50
102
RTVSPost2010PropOp37
 70
     1
102
RTVSPost2010Prop38
140
0.0
102
RTVSPost2010PropOp38
 70
     1
102
RTVSPost2010Prop39
140
1.0
102
RTVSPost2010PropOp39
 70
     1
102
RTVSPost2010Prop40
 90
        0
102
RTVSPost2010PropOp40
 70
     1
102
RTVSPost2010Prop41ColorIndex
 90
       18
102
RTVSPost2010Prop41ColorRGB
 90
        0
102
RTVSPost2010PropOp41
 70
     1
102
RTVSPost2010Prop42
 90
       50
102
RTVSPost2010PropOp42
 70
     1
102
RTVSPost2010Prop43
 90
        3
102
RTVSPost2010PropOp43
 70
     1
102
RTVSPost2010Prop44ColorIndex
 90
        5
102
RTVSPost2010Prop44ColorRGB
 90
      255
102
RTVSPost2010PropOp44
 70
     1
102
RTVSPost2010Prop45
280
     0
102
RTVSPost2010PropOp45
 70
     1
102
RTVSPost2010Prop46
 90
       50
102
RTVSPost2010PropOp46
 70
     1
102
RTVSPost2010Prop47
 90
       50
102
RTVSPost2010PropOp47
 70
     1
102
RTVSPost2010Prop48
 90
       50
102
RTVSPost2010PropOp48
 70
     1
102
RTVSPost2010Prop49
280
     0
102
RTVSPost2010PropOp49
 70
     1
102
RTVSPost2010Prop50
 90
       50
102
RTVSPost2010PropOp50
 70
     1
102
RTVSPost2010Prop51ColorIndex
 90
      256
102
RTVSPost2010Prop51ColorRGB
 90
-16777216
102
RTVSPost2010PropOp51
 70
     0
102
RTVSPost2010Prop52
140
1.0
102
RTVSPost2010PropOp52
 70
     0
102
RTVSPost2010Prop53
 90
        2
102
RTVSPost2010PropOp53
 70
     1
102
RTVSPost2010Prop54
  1
strokes_ogs.tif
102
RTVSPost2010PropOp54
 70
     1
102
RTVSPost2010Prop55
280
     0
102
RTVSPost2010PropOp55
 70
     1
102
RTVSPost2010Prop56
140
1.0
102
RTVSPost2010PropOp56
 70
     1
102
RTVSPost2010Prop57
140
1.0
102
RTVSPost2010PropOp57
 70
     1
  0
XRECORD
  5
282
102
{ACAD_REACTORS
330
281
102
}
330
281
100
AcDbXrecord
280
     1
102
RTVSPropertyOp0
 70
     1
102
RTVSPropertyOp1
 70
     1
102
RTVSPropertyOp2
 70
     1
102
RTVSPropertyOp3
 70
     1
102
RTVSPropertyOp4
 70
     1
102
RTVSPropertyOp5
 70
     1
102
RTVSPropertyOp6
 70
     1
102
RTVSPropertyOp7
 70
     1
102
RTVSPropertyOp8
 70
     1
102
RTVSPropertyOp9
 70
     1
102
RTVSPropertyOp10
 70
     1
102
RTVSPropertyOp11
 70
     1
102
RTVSPropertyOp12
 70
     1
102
RTVSPropertyOp13
 70
     1
102
RTVSPropertyOp14
 70
     1
102
RTVSPropertyOp15
 70
     1
102
RTVSPropertyOp16
 70
     1
102
RTVSPropertyOp17
 70
     1
102
RTVSPropertyOp18
 70
     1
102
RTVSPropertyOp19
 70
     1
102
RTVSPropertyOp20
 70
     1
102
RTVSPropertyOp21
 70
     1
102
RTVSPropertyOp22
 70
     1
102
RTVSPropertyOp23
 70
     1
102
RTVSPropertyOp24
 70
     1
102
RTVSPropertyOp25
 70
     1
102
RTVSPropertyOp26
 70
     1
102
RTVSPropertyOp27
 70
     1
102
RTVSPropertyOp28
 70
     1
102
RTVSPropertyOp29
 70
     1
102
RTVSPropertyOp30
 70
     1
102
RTVSPropertyOp31
 70
     1
102
RTVSPropertyOp32
 70
     1
102
RTVSPropertyOp33
 70
     1
102
RTVSPropertyOp34
 70
     1
102
RTVSPropertyOp35
 70
     1
102
RTVSPropertyOp36
 70
     1
102
RTVSPropertyOp37
 70
     1
102
RTVSPropertyOp38
 70
     1
102
RTVSPropertyOp39
 70
     1
102
RTVSPropertyOp40
 70
     1
102
RTVSPropertyOp41
 70
     1
102
RTVSPropertyOp42
 70
     1
102
RTVSPropertyOp43
 70
     1
102
RTVSPropertyOp44
 70
     1
102
RTVSPropertyOp45
 70
     1
102
RTVSPropertyOp46
 70
     1
102
RTVSPropertyOp47
 70
     1
102
RTVSPropertyOp48
 70
     1
102
RTVSPropertyOp49
 70
     1
102
RTVSPropertyOp50
 70
     1
102
RTVSPropertyOp51
 70
     0
102
RTVSPropertyOp52
 70
     0
102
RTVSPropertyOp53
 70
     1
102
RTVSPropertyOp54
 70
     1
102
RTVSPropertyOp55
 70
     1
102
RTVSPropertyOp56
 70
     1
102
RTVSPropertyOp57
 70
     1
102
RTVSPost2010Prop28
280
     0
102
RTVSPost2010PropOp28
 70
     1
102
RTVSPost2010Prop29
280
     1
102
RTVSPost2010PropOp29
 70
     1
102
RTVSPost2010Prop30
280
     1
102
RTVSPost2010PropOp30
 70
     1
102
RTVSPost2010Prop31
280
     0
102
RTVSPost2010PropOp31
 70
     1
102
RTVSPost2010Prop32
280
     0
102
RTVSPost2010PropOp32
 70
     1
102
RTVSPost2010Prop33
280
     0
102
RTVSPost2010PropOp33
 70
     1
102
RTVSPost2010Prop34
280
     0
102
RTVSPost2010PropOp34
 70
     1
102
RTVSPost2010Prop35
280
     0
102
RTVSPost2010PropOp35
 70
     1
102
RTVSPost2010Prop36
280
     0
102
RTVSPost2010PropOp36
 70
     1
102
RTVSPost2010Prop37
 90
       50
102
RTVSPost2010PropOp37
 70
     1
102
RTVSPost2010Prop38
140
0.0
102
RTVSPost2010PropOp38
 70
     1
102
RTVSPost2010Prop39
140
1.0
102
RTVSPost2010PropOp39
 70
     1
102
RTVSPost2010Prop40
 90
        0
102
RTVSPost2010PropOp40
 70
     1
102
RTVSPost2010Prop41ColorIndex
 90
       18
102
RTVSPost2010Prop41ColorRGB
 90
        0
102
RTVSPost2010PropOp41
 70
     1
102
RTVSPost2010Prop42
 90
       50
102
RTVSPost2010PropOp42
 70
     1
102
RTVSPost2010Prop43
 90
        3
102
RTVSPost2010PropOp43
 70
     1
102
RTVSPost2010Prop44ColorIndex
 90
        5
102
RTVSPost2010Prop44ColorRGB
 90
      255
102
RTVSPost2010PropOp44
 70
     1
102
RTVSPost2010Prop45
280
     0
102
RTVSPost2010PropOp45
 70
     1
102
RTVSPost2010Prop46
 90
       50
102
RTVSPost2010PropOp46
 70
     1
102
RTVSPost2010Prop47
 90
       50
102
RTVSPost2010PropOp47
 70
     1
102
RTVSPost2010Prop48
 90
       50
102
RTVSPost2010PropOp48
 70
     1
102
RTVSPost2010Prop49
280
     0
102
RTVSPost2010PropOp49
 70
     1
102
RTVSPost2010Prop50
 90
       50
102
RTVSPost2010PropOp50
 70
     1
102
RTVSPost2010Prop51ColorIndex
 90
      256
102
RTVSPost2010Prop51ColorRGB
 90
-16777216
102
RTVSPost2010PropOp51
 70
     0
102
RTVSPost2010Prop52
140
1.0
102
RTVSPost2010PropOp52
 70
     0
102
RTVSPost2010Prop53
 90
        2
102
RTVSPost2010PropOp53
 70
     1
102
RTVSPost2010Prop54
  1
strokes_ogs.tif
102
RTVSPost2010PropOp54
 70
     1
102
RTVSPost2010Prop55
280
     0
102
RTVSPost2010PropOp55
 70
     1
102
RTVSPost2010Prop56
140
1.0
102
RTVSPost2010PropOp56
 70
     1
102
RTVSPost2010Prop57
140
1.0
102
RTVSPost2010PropOp57
 70
     1
  0
XRECORD
  5
272
102
{ACAD_REACTORS
330
271
102
}
330
271
100
AcDbXrecord
280
     1
102
RTVSPropertyOp0
 70
     1
102
RTVSPropertyOp1
 70
     1
102
RTVSPropertyOp2
 70
     1
102
RTVSPropertyOp3
 70
     1
102
RTVSPropertyOp4
 70
     1
102
RTVSPropertyOp5
 70
     1
102
RTVSPropertyOp6
 70
     1
102
RTVSPropertyOp7
 70
     1
102
RTVSPropertyOp8
 70
     1
102
RTVSPropertyOp9
 70
     1
102
RTVSPropertyOp10
 70
     1
102
RTVSPropertyOp11
 70
     1
102
RTVSPropertyOp12
 70
     1
102
RTVSPropertyOp13
 70
     1
102
RTVSPropertyOp14
 70
     1
102
RTVSPropertyOp15
 70
     1
102
RTVSPropertyOp16
 70
     1
102
RTVSPropertyOp17
 70
     1
102
RTVSPropertyOp18
 70
     1
102
RTVSPropertyOp19
 70
     1
102
RTVSPropertyOp20
 70
     1
102
RTVSPropertyOp21
 70
     1
102
RTVSPropertyOp22
 70
     1
102
RTVSPropertyOp23
 70
     1
102
RTVSPropertyOp24
 70
     1
102
RTVSPropertyOp25
 70
     1
102
RTVSPropertyOp26
 70
     1
102
RTVSPropertyOp27
 70
     1
102
RTVSPropertyOp28
 70
     1
102
RTVSPropertyOp29
 70
     1
102
RTVSPropertyOp30
 70
     1
102
RTVSPropertyOp31
 70
     1
102
RTVSPropertyOp32
 70
     1
102
RTVSPropertyOp33
 70
     1
102
RTVSPropertyOp34
 70
     1
102
RTVSPropertyOp35
 70
     1
102
RTVSPropertyOp36
 70
     1
102
RTVSPropertyOp37
 70
     1
102
RTVSPropertyOp38
 70
     1
102
RTVSPropertyOp39
 70
     1
102
RTVSPropertyOp40
 70
     1
102
RTVSPropertyOp41
 70
     1
102
RTVSPropertyOp42
 70
     1
102
RTVSPropertyOp43
 70
     1
102
RTVSPropertyOp44
 70
     1
102
RTVSPropertyOp45
 70
     1
102
RTVSPropertyOp46
 70
     1
102
RTVSPropertyOp47
 70
     1
102
RTVSPropertyOp48
 70
     1
102
RTVSPropertyOp49
 70
     1
102
RTVSPropertyOp50
 70
     1
102
RTVSPropertyOp51
 70
     0
102
RTVSPropertyOp52
 70
     0
102
RTVSPropertyOp53
 70
     1
102
RTVSPropertyOp54
 70
     1
102
RTVSPropertyOp55
 70
     1
102
RTVSPropertyOp56
 70
     1
102
RTVSPropertyOp57
 70
     1
102
RTVSPost2010Prop28
280
     0
102
RTVSPost2010PropOp28
 70
     1
102
RTVSPost2010Prop29
280
     1
102
RTVSPost2010PropOp29
 70
     1
102
RTVSPost2010Prop30
280
     1
102
RTVSPost2010PropOp30
 70
     1
102
RTVSPost2010Prop31
280
     0
102
RTVSPost2010PropOp31
 70
     1
102
RTVSPost2010Prop32
280
     0
102
RTVSPost2010PropOp32
 70
     1
102
RTVSPost2010Prop33
280
     0
102
RTVSPost2010PropOp33
 70
     1
102
RTVSPost2010Prop34
280
     0
102
RTVSPost2010PropOp34
 70
     1
102
RTVSPost2010Prop35
280
     0
102
RTVSPost2010PropOp35
 70
     1
102
RTVSPost2010Prop36
280
     0
102
RTVSPost2010PropOp36
 70
     1
102
RTVSPost2010Prop37
 90
       50
102
RTVSPost2010PropOp37
 70
     1
102
RTVSPost2010Prop38
140
0.0
102
RTVSPost2010PropOp38
 70
     1
102
RTVSPost2010Prop39
140
1.0
102
RTVSPost2010PropOp39
 70
     1
102
RTVSPost2010Prop40
 90
        0
102
RTVSPost2010PropOp40
 70
     1
102
RTVSPost2010Prop41ColorIndex
 90
       18
102
RTVSPost2010Prop41ColorRGB
 90
        0
102
RTVSPost2010PropOp41
 70
     1
102
RTVSPost2010Prop42
 90
       50
102
RTVSPost2010PropOp42
 70
     1
102
RTVSPost2010Prop43
 90
        3
102
RTVSPost2010PropOp43
 70
     1
102
RTVSPost2010Prop44ColorIndex
 90
        5
102
RTVSPost2010Prop44ColorRGB
 90
      255
102
RTVSPost2010PropOp44
 70
     1
102
RTVSPost2010Prop45
280
     0
102
RTVSPost2010PropOp45
 70
     1
102
RTVSPost2010Prop46
 90
       50
102
RTVSPost2010PropOp46
 70
     1
102
RTVSPost2010Prop47
 90
       50
102
RTVSPost2010PropOp47
 70
     1
102
RTVSPost2010Prop48
 90
       50
102
RTVSPost2010PropOp48
 70
     1
102
RTVSPost2010Prop49
280
     0
102
RTVSPost2010PropOp49
 70
     1
102
RTVSPost2010Prop50
 90
       50
102
RTVSPost2010PropOp50
 70
     1
102
RTVSPost2010Prop51ColorIndex
 90
      256
102
RTVSPost2010Prop51ColorRGB
 90
-16777216
102
RTVSPost2010PropOp51
 70
     0
102
RTVSPost2010Prop52
140
1.0
102
RTVSPost2010PropOp52
 70
     0
102
RTVSPost2010Prop53
 90
        2
102
RTVSPost2010PropOp53
 70
     1
102
RTVSPost2010Prop54
  1
strokes_ogs.tif
102
RTVSPost2010PropOp54
 70
     1
102
RTVSPost2010Prop55
280
     0
102
RTVSPost2010PropOp55
 70
     1
102
RTVSPost2010Prop56
140
1.0
102
RTVSPost2010PropOp56
 70
     1
102
RTVSPost2010Prop57
140
1.0
102
RTVSPost2010PropOp57
 70
     1
  0
XRECORD
  5
264
102
{ACAD_REACTORS
330
263
102
}
330
263
100
AcDbXrecord
280
     1
102
RTVSPropertyOp0
 70
     1
102
RTVSPropertyOp1
 70
     1
102
RTVSPropertyOp2
 70
     1
102
RTVSPropertyOp3
 70
     1
102
RTVSPropertyOp4
 70
     1
102
RTVSPropertyOp5
 70
     1
102
RTVSPropertyOp6
 70
     1
102
RTVSPropertyOp7
 70
     1
102
RTVSPropertyOp8
 70
     1
102
RTVSPropertyOp9
 70
     1
102
RTVSPropertyOp10
 70
     1
102
RTVSPropertyOp11
 70
     1
102
RTVSPropertyOp12
 70
     1
102
RTVSPropertyOp13
 70
     1
102
RTVSPropertyOp14
 70
     1
102
RTVSPropertyOp15
 70
     1
102
RTVSPropertyOp16
 70
     1
102
RTVSPropertyOp17
 70
     1
102
RTVSPropertyOp18
 70
     1
102
RTVSPropertyOp19
 70
     1
102
RTVSPropertyOp20
 70
     1
102
RTVSPropertyOp21
 70
     1
102
RTVSPropertyOp22
 70
     1
102
RTVSPropertyOp23
 70
     1
102
RTVSPropertyOp24
 70
     1
102
RTVSPropertyOp25
 70
     1
102
RTVSPropertyOp26
 70
     1
102
RTVSPropertyOp27
 70
     1
102
RTVSPropertyOp28
 70
     1
102
RTVSPropertyOp29
 70
     1
102
RTVSPropertyOp30
 70
     1
102
RTVSPropertyOp31
 70
     1
102
RTVSPropertyOp32
 70
     1
102
RTVSPropertyOp33
 70
     1
102
RTVSPropertyOp34
 70
     1
102
RTVSPropertyOp35
 70
     1
102
RTVSPropertyOp36
 70
     1
102
RTVSPropertyOp37
 70
     1
102
RTVSPropertyOp38
 70
     1
102
RTVSPropertyOp39
 70
     1
102
RTVSPropertyOp40
 70
     1
102
RTVSPropertyOp41
 70
     1
102
RTVSPropertyOp42
 70
     1
102
RTVSPropertyOp43
 70
     1
102
RTVSPropertyOp44
 70
     1
102
RTVSPropertyOp45
 70
     1
102
RTVSPropertyOp46
 70
     1
102
RTVSPropertyOp47
 70
     1
102
RTVSPropertyOp48
 70
     1
102
RTVSPropertyOp49
 70
     1
102
RTVSPropertyOp50
 70
     1
102
RTVSPropertyOp51
 70
     0
102
RTVSPropertyOp52
 70
     0
102
RTVSPropertyOp53
 70
     1
102
RTVSPropertyOp54
 70
     1
102
RTVSPropertyOp55
 70
     1
102
RTVSPropertyOp56
 70
     1
102
RTVSPropertyOp57
 70
     1
102
RTVSPost2010Prop28
280
     0
102
RTVSPost2010PropOp28
 70
     1
102
RTVSPost2010Prop29
280
     1
102
RTVSPost2010PropOp29
 70
     1
102
RTVSPost2010Prop30
280
     1
102
RTVSPost2010PropOp30
 70
     1
102
RTVSPost2010Prop31
280
     0
102
RTVSPost2010PropOp31
 70
     1
102
RTVSPost2010Prop32
280
     0
102
RTVSPost2010PropOp32
 70
     1
102
RTVSPost2010Prop33
280
     0
102
RTVSPost2010PropOp33
 70
     1
102
RTVSPost2010Prop34
280
     0
102
RTVSPost2010PropOp34
 70
     1
102
RTVSPost2010Prop35
280
     0
102
RTVSPost2010PropOp35
 70
     1
102
RTVSPost2010Prop36
280
     0
102
RTVSPost2010PropOp36
 70
     1
102
RTVSPost2010Prop37
 90
       50
102
RTVSPost2010PropOp37
 70
     1
102
RTVSPost2010Prop38
140
0.0
102
RTVSPost2010PropOp38
 70
     1
102
RTVSPost2010Prop39
140
1.0
102
RTVSPost2010PropOp39
 70
     1
102
RTVSPost2010Prop40
 90
        0
102
RTVSPost2010PropOp40
 70
     1
102
RTVSPost2010Prop41ColorIndex
 90
       18
102
RTVSPost2010Prop41ColorRGB
 90
        0
102
RTVSPost2010PropOp41
 70
     1
102
RTVSPost2010Prop42
 90
       50
102
RTVSPost2010PropOp42
 70
     1
102
RTVSPost2010Prop43
 90
        3
102
RTVSPost2010PropOp43
 70
     1
102
RTVSPost2010Prop44ColorIndex
 90
        5
102
RTVSPost2010Prop44ColorRGB
 90
      255
102
RTVSPost2010PropOp44
 70
     1
102
RTVSPost2010Prop45
280
     0
102
RTVSPost2010PropOp45
 70
     1
102
RTVSPost2010Prop46
 90
       50
102
RTVSPost2010PropOp46
 70
     1
102
RTVSPost2010Prop47
 90
       50
102
RTVSPost2010PropOp47
 70
     1
102
RTVSPost2010Prop48
 90
       50
102
RTVSPost2010PropOp48
 70
     1
102
RTVSPost2010Prop49
280
     0
102
RTVSPost2010PropOp49
 70
     1
102
RTVSPost2010Prop50
 90
       50
102
RTVSPost2010PropOp50
 70
     1
102
RTVSPost2010Prop51ColorIndex
 90
      256
102
RTVSPost2010Prop51ColorRGB
 90
-16777216
102
RTVSPost2010PropOp51
 70
     0
102
RTVSPost2010Prop52
140
1.0
102
RTVSPost2010PropOp52
 70
     0
102
RTVSPost2010Prop53
 90
        2
102
RTVSPost2010PropOp53
 70
     1
102
RTVSPost2010Prop54
  1
strokes_ogs.tif
102
RTVSPost2010PropOp54
 70
     1
102
RTVSPost2010Prop55
280
     0
102
RTVSPost2010PropOp55
 70
     1
102
RTVSPost2010Prop56
140
1.0
102
RTVSPost2010PropOp56
 70
     1
102
RTVSPost2010Prop57
140
1.0
102
RTVSPost2010PropOp57
 70
     1
  0
XRECORD
  5
284
102
{ACAD_REACTORS
330
283
102
}
330
283
100
AcDbXrecord
280
     1
102
RTVSPropertyOp0
 70
     1
102
RTVSPropertyOp1
 70
     1
102
RTVSPropertyOp2
 70
     1
102
RTVSPropertyOp3
 70
     1
102
RTVSPropertyOp4
 70
     1
102
RTVSPropertyOp5
 70
     1
102
RTVSPropertyOp6
 70
     1
102
RTVSPropertyOp7
 70
     1
102
RTVSPropertyOp8
 70
     1
102
RTVSPropertyOp9
 70
     1
102
RTVSPropertyOp10
 70
     1
102
RTVSPropertyOp11
 70
     1
102
RTVSPropertyOp12
 70
     1
102
RTVSPropertyOp13
 70
     1
102
RTVSPropertyOp14
 70
     1
102
RTVSPropertyOp15
 70
     1
102
RTVSPropertyOp16
 70
     1
102
RTVSPropertyOp17
 70
     1
102
RTVSPropertyOp18
 70
     1
102
RTVSPropertyOp19
 70
     1
102
RTVSPropertyOp20
 70
     1
102
RTVSPropertyOp21
 70
     1
102
RTVSPropertyOp22
 70
     1
102
RTVSPropertyOp23
 70
     1
102
RTVSPropertyOp24
 70
     1
102
RTVSPropertyOp25
 70
     1
102
RTVSPropertyOp26
 70
     1
102
RTVSPropertyOp27
 70
     1
102
RTVSPropertyOp28
 70
     1
102
RTVSPropertyOp29
 70
     1
102
RTVSPropertyOp30
 70
     1
102
RTVSPropertyOp31
 70
     1
102
RTVSPropertyOp32
 70
     1
102
RTVSPropertyOp33
 70
     1
102
RTVSPropertyOp34
 70
     1
102
RTVSPropertyOp35
 70
     1
102
RTVSPropertyOp36
 70
     1
102
RTVSPropertyOp37
 70
     1
102
RTVSPropertyOp38
 70
     1
102
RTVSPropertyOp39
 70
     1
102
RTVSPropertyOp40
 70
     1
102
RTVSPropertyOp41
 70
     1
102
RTVSPropertyOp42
 70
     1
102
RTVSPropertyOp43
 70
     1
102
RTVSPropertyOp44
 70
     1
102
RTVSPropertyOp45
 70
     1
102
RTVSPropertyOp46
 70
     1
102
RTVSPropertyOp47
 70
     1
102
RTVSPropertyOp48
 70
     1
102
RTVSPropertyOp49
 70
     1
102
RTVSPropertyOp50
 70
     1
102
RTVSPropertyOp51
 70
     0
102
RTVSPropertyOp52
 70
     0
102
RTVSPropertyOp53
 70
     1
102
RTVSPropertyOp54
 70
     1
102
RTVSPropertyOp55
 70
     1
102
RTVSPropertyOp56
 70
     1
102
RTVSPropertyOp57
 70
     1
102
RTVSPost2010Prop28
280
     0
102
RTVSPost2010PropOp28
 70
     1
102
RTVSPost2010Prop29
280
     1
102
RTVSPost2010PropOp29
 70
     1
102
RTVSPost2010Prop30
280
     1
102
RTVSPost2010PropOp30
 70
     1
102
RTVSPost2010Prop31
280
     0
102
RTVSPost2010PropOp31
 70
     1
102
RTVSPost2010Prop32
280
     0
102
RTVSPost2010PropOp32
 70
     1
102
RTVSPost2010Prop33
280
     0
102
RTVSPost2010PropOp33
 70
     1
102
RTVSPost2010Prop34
280
     0
102
RTVSPost2010PropOp34
 70
     1
102
RTVSPost2010Prop35
280
     0
102
RTVSPost2010PropOp35
 70
     1
102
RTVSPost2010Prop36
280
     0
102
RTVSPost2010PropOp36
 70
     1
102
RTVSPost2010Prop37
 90
       50
102
RTVSPost2010PropOp37
 70
     1
102
RTVSPost2010Prop38
140
0.0
102
RTVSPost2010PropOp38
 70
     1
102
RTVSPost2010Prop39
140
1.0
102
RTVSPost2010PropOp39
 70
     1
102
RTVSPost2010Prop40
 90
        0
102
RTVSPost2010PropOp40
 70
     1
102
RTVSPost2010Prop41ColorIndex
 90
       18
102
RTVSPost2010Prop41ColorRGB
 90
        0
102
RTVSPost2010PropOp41
 70
     1
102
RTVSPost2010Prop42
 90
       50
102
RTVSPost2010PropOp42
 70
     1
102
RTVSPost2010Prop43
 90
        3
102
RTVSPost2010PropOp43
 70
     1
102
RTVSPost2010Prop44ColorIndex
 90
        5
102
RTVSPost2010Prop44ColorRGB
 90
      255
102
RTVSPost2010PropOp44
 70
     1
102
RTVSPost2010Prop45
280
     0
102
RTVSPost2010PropOp45
 70
     1
102
RTVSPost2010Prop46
 90
       50
102
RTVSPost2010PropOp46
 70
     1
102
RTVSPost2010Prop47
 90
       50
102
RTVSPost2010PropOp47
 70
     1
102
RTVSPost2010Prop48
 90
       50
102
RTVSPost2010PropOp48
 70
     1
102
RTVSPost2010Prop49
280
     0
102
RTVSPost2010PropOp49
 70
     1
102
RTVSPost2010Prop50
 90
       50
102
RTVSPost2010PropOp50
 70
     1
102
RTVSPost2010Prop51ColorIndex
 90
      256
102
RTVSPost2010Prop51ColorRGB
 90
-16777216
102
RTVSPost2010PropOp51
 70
     0
102
RTVSPost2010Prop52
140
1.0
102
RTVSPost2010PropOp52
 70
     0
102
RTVSPost2010Prop53
 90
        2
102
RTVSPost2010PropOp53
 70
     1
102
RTVSPost2010Prop54
  1
strokes_ogs.tif
102
RTVSPost2010PropOp54
 70
     1
102
RTVSPost2010Prop55
280
     0
102
RTVSPost2010PropOp55
 70
     1
102
RTVSPost2010Prop56
140
1.0
102
RTVSPost2010PropOp56
 70
     1
102
RTVSPost2010Prop57
140
1.0
102
RTVSPost2010PropOp57
 70
     1
  0
ENDSEC
  0
EOF
