  0
SECTION
  2
HEADER
  9
$ACADVER
  1
AC1018
  9
$ACADMAINTVER
 70
     0
  9
$DWGCODEPAGE
  3
ANSI_932
  9
$INSBASE
 10
0.0
 20
0.0
 30
0.0
  9
$EXTMIN
 10
-1260.0
 20
-891.0
 30
0.0
  9
$EXTMAX
 10
1260.0
 20
891.0
 30
0.0
  9
$LIMMIN
 10
-1260.0
 20
-891.0
  9
$LIMMAX
 10
1260.0
 20
891.0
  9
$ORTHOMODE
 70
     0
  9
$REGENMODE
 70
     1
  9
$FILLMODE
 70
     1
  9
$QTEXTMODE
 70
     0
  9
$MIRRTEXT
 70
     1
  9
$LTSCALE
 40
6.0
  9
$ATTMODE
 70
     1
  9
$TEXTSIZE
 40
2.5
  9
$TRACEWID
 40
1.0
  9
$TEXTSTYLE
  7
Standard
  9
$CLAYER
  8
0
  9
$CELTYPE
  6
ByLayer
  9
$CECOLOR
 62
   256
  9
$CELTSCALE
 40
1.0
  9
$DISPSILH
 70
     0
  9
$DIMSCALE
 40
1.0
  9
$DIMASZ
 40
2.5
  9
$DIMEXO
 40
0.625
  9
$DIMDLI
 40
3.75
  9
$DIMRND
 40
0.0
  9
$DIMDLE
 40
0.0
  9
$DIMEXE
 40
1.25
  9
$DIMTP
 40
0.0
  9
$DIMTM
 40
0.0
  9
$DIMTXT
 40
2.5
  9
$DIMCEN
 40
2.5
  9
$DIMTSZ
 40
0.0
  9
$DIMTOL
 70
     0
  9
$DIMLIM
 70
     0
  9
$DIMTIH
 70
     0
  9
$DIMTOH
 70
     0
  9
$DIMSE1
 70
     0
  9
$DIMSE2
 70
     0
  9
$DIMTAD
 70
     1
  9
$DIMZIN
 70
     8
  9
$DIMBLK
  1

  9
$DIMASO
 70
     1
  9
$DIMSHO
 70
     1
  9
$DIMPOST
  1

  9
$DIMAPOST
  1

  9
$DIMALT
 70
     0
  9
$DIMALTD
 70
     3
  9
$DIMALTF
 40
0.03937007874016
  9
$DIMLFAC
 40
1.0
  9
$DIMTOFL
 70
     1
  9
$DIMTVP
 40
0.0
  9
$DIMTIX
 70
     0
  9
$DIMSOXD
 70
     0
  9
$DIMSAH
 70
     0
  9
$DIMBLK1
  1

  9
$DIMBLK2
  1

  9
$DIMSTYLE
  2
ISO-25
  9
$DIMCLRD
 70
     0
  9
$DIMCLRE
 70
     0
  9
$DIMCLRT
 70
     0
  9
$DIMTFAC
 40
1.0
  9
$DIMGAP
 40
0.625
  9
$DIMJUST
 70
     0
  9
$DIMSD1
 70
     0
  9
$DIMSD2
 70
     0
  9
$DIMTOLJ
 70
     0
  9
$DIMTZIN
 70
     8
  9
$DIMALTZ
 70
     0
  9
$DIMALTTZ
 70
     0
  9
$DIMUPT
 70
     0
  9
$DIMDEC
 70
     2
  9
$DIMTDEC
 70
     2
  9
$DIMALTU
 70
     2
  9
$DIMALTTD
 70
     3
  9
$DIMTXSTY
  7
Standard
  9
$DIMAUNIT
 70
     0
  9
$DIMADEC
 70
     0
  9
$DIMALTRND
 40
0.0
  9
$DIMAZIN
 70
     0
  9
$DIMDSEP
 70
    44
  9
$DIMATFIT
 70
     3
  9
$DIMFRAC
 70
     0
  9
$DIMLDRBLK
  1

  9
$DIMLUNIT
 70
     2
  9
$DIMLWD
 70
    -2
  9
$DIMLWE
 70
    -2
  9
$DIMTMOVE
 70
     0
  9
$LUNITS
 70
     2
  9
$LUPREC
 70
     4
  9
$SKETCHINC
 40
1.0
  9
$FILLETRAD
 40
10.0
  9
$AUNITS
 70
     0
  9
$AUPREC
 70
     0
  9
$MENU
  1
.
  9
$ELEVATION
 40
0.0
  9
$PELEVATION
 40
0.0
  9
$THICKNESS
 40
0.0
  9
$LIMCHECK
 70
     0
  9
$CHAMFERA
 40
0.0
  9
$CHAMFERB
 40
0.0
  9
$CHAMFERC
 40
0.0
  9
$CHAMFERD
 40
0.0
  9
$SKPOLY
 70
     0
  9
$TDCREATE
 40
2459487.711970093
  9
$TDUCREATE
 40
2459487.336970093
  9
$TDUPDATE
 40
2459487.711970231
  9
$TDUUPDATE
 40
2459487.336970231
  9
$TDINDWG
 40
0.0000000116
  9
$TDUSRTIMER
 40
0.0000000116
  9
$USRTIMER
 70
     1
  9
$ANGBASE
 50
0.0
  9
$ANGDIR
 70
     0
  9
$PDMODE
 70
     0
  9
$PDSIZE
 40
0.0
  9
$PLINEWID
 40
0.0
  9
$SPLFRAME
 70
     0
  9
$SPLINETYPE
 70
     6
  9
$SPLINESEGS
 70
     8
  9
$HANDSEED
  5
40F
  9
$SURFTAB1
 70
     6
  9
$SURFTAB2
 70
     6
  9
$SURFTYPE
 70
     6
  9
$SURFU
 70
     6
  9
$SURFV
 70
     6
  9
$UCSBASE
  2

  9
$UCSNAME
  2

  9
$UCSORG
 10
0.0
 20
0.0
 30
0.0
  9
$UCSXDIR
 10
1.0
 20
0.0
 30
0.0
  9
$UCSYDIR
 10
0.0
 20
1.0
 30
0.0
  9
$UCSORTHOREF
  2

  9
$UCSORTHOVIEW
 70
     0
  9
$UCSORGTOP
 10
0.0
 20
0.0
 30
0.0
  9
$UCSORGBOTTOM
 10
0.0
 20
0.0
 30
0.0
  9
$UCSORGLEFT
 10
0.0
 20
0.0
 30
0.0
  9
$UCSORGRIGHT
 10
0.0
 20
0.0
 30
0.0
  9
$UCSORGFRONT
 10
0.0
 20
0.0
 30
0.0
  9
$UCSORGBACK
 10
0.0
 20
0.0
 30
0.0
  9
$PUCSBASE
  2

  9
$PUCSNAME
  2

  9
$PUCSORG
 10
0.0
 20
0.0
 30
0.0
  9
$PUCSXDIR
 10
1.0
 20
0.0
 30
0.0
  9
$PUCSYDIR
 10
0.0
 20
1.0
 30
0.0
  9
$PUCSORTHOREF
  2

  9
$PUCSORTHOVIEW
 70
     0
  9
$PUCSORGTOP
 10
0.0
 20
0.0
 30
0.0
  9
$PUCSORGBOTTOM
 10
0.0
 20
0.0
 30
0.0
  9
$PUCSORGLEFT
 10
0.0
 20
0.0
 30
0.0
  9
$PUCSORGRIGHT
 10
0.0
 20
0.0
 30
0.0
  9
$PUCSORGFRONT
 10
0.0
 20
0.0
 30
0.0
  9
$PUCSORGBACK
 10
0.0
 20
0.0
 30
0.0
  9
$USERI1
 70
     0
  9
$USERI2
 70
     0
  9
$USERI3
 70
     0
  9
$USERI4
 70
     0
  9
$USERI5
 70
     0
  9
$USERR1
 40
0.0
  9
$USERR2
 40
0.0
  9
$USERR3
 40
0.0
  9
$USERR4
 40
0.0
  9
$USERR5
 40
0.0
  9
$WORLDVIEW
 70
     1
  9
$SHADEDGE
 70
     3
  9
$SHADEDIF
 70
    70
  9
$TILEMODE
 70
     1
  9
$MAXACTVP
 70
    64
  9
$PINSBASE
 10
0.0
 20
0.0
 30
0.0
  9
$PLIMCHECK
 70
     0
  9
$PEXTMIN
 10
1.000000000000000E+20
 20
1.000000000000000E+20
 30
1.000000000000000E+20
  9
$PEXTMAX
 10
-1.000000000000000E+20
 20
-1.000000000000000E+20
 30
-1.000000000000000E+20
  9
$PLIMMIN
 10
0.0
 20
0.0
  9
$PLIMMAX
 10
420.0
 20
297.0
  9
$UNITMODE
 70
     0
  9
$VISRETAIN
 70
     1
  9
$PLINEGEN
 70
     0
  9
$PSLTSCALE
 70
     1
  9
$TREEDEPTH
 70
  3020
  9
$CMLSTYLE
  2
Standard
  9
$CMLJUST
 70
     0
  9
$CMLSCALE
 40
20.0
  9
$PROXYGRAPHICS
 70
     1
  9
$MEASUREMENT
 70
     1
  9
$CELWEIGHT
370
    -1
  9
$ENDCAPS
280
     0
  9
$JOINSTYLE
280
     0
  9
$LWDISPLAY
290
     0
  9
$INSUNITS
 70
     4
  9
$HYPERLINKBASE
  1

  9
$STYLESHEET
  1

  9
$XEDIT
290
     1
  9
$CEPSNTYPE
380
     0
  9
$PSTYLEMODE
290
     1
  9
$FINGERPRINTGUID
  2
{F7F1EEDD-60EC-4D70-88ED-81DD50690DB9}
  9
$VERSIONGUID
  2
{FAEB1C32-E019-11D5-929B-00C0DF256EC4}
  9
$EXTNAMES
290
     1
  9
$PSVPSCALE
 40
0.0
  9
$OLESTARTUP
290
     0
  9
$SORTENTS
280
   127
  9
$INDEXCTL
280
     0
  9
$HIDETEXT
280
     1
  9
$XCLIPFRAME
290
     0
  9
$HALOGAP
280
     0
  9
$OBSCOLOR
 70
   257
  9
$OBSLTYPE
280
     0
  9
$INTERSECTIONDISPLAY
280
     0
  9
$INTERSECTIONCOLOR
 70
   257
  9
$DIMASSOC
280
     2
  9
$PROJECTNAME
  1

  0
ENDSEC
  0
SECTION
  2
CLASSES
  0
CLASS
  1
ACDBDICTIONARYWDFLT
  2
AcDbDictionaryWithDefault
  3
ObjectDBX Classes
 90
        0
 91
        4
280
     0
281
     0
  0
CLASS
  1
VISUALSTYLE
  2
AcDbVisualStyle
  3
ObjectDBX Classes
 90
     4095
 91
        4
280
     0
281
     0
  0
CLASS
  1
MATERIAL
  2
AcDbMaterial
  3
ObjectDBX Classes
 90
     1153
 91
        4
280
     0
281
     0
  0
CLASS
  1
SCALE
  2
AcDbScale
  3
ObjectDBX Classes
 90
     1153
 91
        4
280
     0
281
     0
  0
CLASS
  1
TABLESTYLE
  2
AcDbTableStyle
  3
ObjectDBX Classes
 90
     4095
 91
        4
280
     0
281
     0
  0
CLASS
  1
MLEADERSTYLE
  2
AcDbMLeaderStyle
  3
ACDB_MLEADERSTYLE_CLASS
 90
     4095
 91
        4
280
     0
281
     0
  0
CLASS
  1
SUN
  2
AcDbSun
  3
SCENEOE
 90
     1153
 91
        4
280
     0
281
     0
  0
CLASS
  1
DICTIONARYVAR
  2
AcDbDictionaryVar
  3
ObjectDBX Classes
 90
        0
 91
        4
280
     0
281
     0
  0
CLASS
  1
CELLSTYLEMAP
  2
AcDbCellStyleMap
  3
ObjectDBX Classes
 90
     1152
 91
        4
280
     0
281
     0
  0
ENDSEC
  0
SECTION
  2
TABLES
  0
TABLE
  2
VPORT
  5
8
102
{ACAD_XDICTIONARY
360
3C6
102
}
330
0
100
AcDbSymbolTable
 70
     1
  0
VPORT
  5
29
330
8
100
AcDbSymbolTableRecord
100
AcDbViewportTableRecord
  2
*Active
 70
     0
 10
0.0
 20
0.0
 11
1.0
 21
1.0
 12
0.0
 22
0.0
 13
0.0
 23
0.0
 14
10.0
 24
10.0
 15
10.0
 25
10.0
 16
0.0
 26
0.0
 36
1.0
 17
0.0
 27
0.0
 37
0.0
 40
1960.2
 41
1.414141414141414
 42
50.0
 43
0.0
 44
0.0
 50
0.0
 51
0.0
 71
     0
 72
 10000
 73
     1
 74
     3
 75
     0
 76
     0
 77
     0
 78
     0
281
     0
 65
     1
110
0.0
120
0.0
130
0.0
111
1.0
121
0.0
131
0.0
112
0.0
122
1.0
132
0.0
 79
     0
146
0.0
  0
ENDTAB
  0
TABLE
  2
LTYPE
  5
5
330
0
100
AcDbSymbolTable
 70
     3
  0
LTYPE
  5
14
330
5
100
AcDbSymbolTableRecord
100
AcDbLinetypeTableRecord
  2
ByBlock
 70
     0
  3

 72
    65
 73
     0
 40
0.0
  0
LTYPE
  5
15
330
5
100
AcDbSymbolTableRecord
100
AcDbLinetypeTableRecord
  2
ByLayer
 70
     0
  3

 72
    65
 73
     0
 40
0.0
  0
LTYPE
  5
16
330
5
100
AcDbSymbolTableRecord
100
AcDbLinetypeTableRecord
  2
Continuous
 70
     0
  3
Solid line
 72
    65
 73
     0
 40
0.0
  0
LTYPE
  5
6F
330
5
100
AcDbSymbolTableRecord
100
AcDbLinetypeTableRecord
  2
JWW_CENTER1
 70
     0
  3
-----  --  ----------  --  -----
 72
    65
 73
     4
 40
6.773333333333333
 49
4.233333333333333
 74
     0
 49
-0.8466666666666667
 74
     0
 49
0.8466666666666667
 74
     0
 49
-0.8466666666666667
 74
     0
  0
LTYPE
  5
70
330
5
100
AcDbSymbolTableRecord
100
AcDbLinetypeTableRecord
  2
JWW_DASHED3
 70
     0
  3
---  ------  ------  ------  ---
 72
    65
 73
     2
 40
3.386666666666667
 49
2.54
 74
     0
 49
-0.8466666666666667
 74
     0
  0
ENDTAB
  0
TABLE
  2
LAYER
  5
2
330
0
100
AcDbSymbolTable
 70
    10
  0
LAYER
  5
10
330
2
100
AcDbSymbolTableRecord
100
AcDbLayerTableRecord
  2
0
 70
     0
 62
     7
  6
Continuous
370
    -3
390
F
  0
LAYER
  5
71
330
2
100
AcDbSymbolTableRecord
100
AcDbLayerTableRecord
  2
D-4_寸法
 70
     0
 62
     7
  6
Continuous
370
    -3
390
F
  0
LAYER
  5
72
330
2
100
AcDbSymbolTableRecord
100
AcDbLayerTableRecord
  2
D-0_通り芯
 70
     0
 62
     7
  6
Continuous
370
    -3
390
F
  0
LAYER
  5
73
330
2
100
AcDbSymbolTableRecord
100
AcDbLayerTableRecord
  2
A-2_蓋
 70
     0
 62
     7
  6
Continuous
370
    -3
390
F
  0
LAYER
  5
74
330
2
100
AcDbSymbolTableRecord
100
AcDbLayerTableRecord
  2
A-1_ピット
 70
     0
 62
     7
  6
Continuous
370
    -3
390
F
  0
LAYER
  5
75
330
2
100
AcDbSymbolTableRecord
100
AcDbLayerTableRecord
  2
A-4_寸法
 70
     0
 62
     7
  6
Continuous
370
    -3
390
F
  0
LAYER
  5
76
330
2
100
AcDbSymbolTableRecord
100
AcDbLayerTableRecord
  2
A-5_仕様文
 70
     0
 62
     7
  6
Continuous
370
    -3
390
F
  0
LAYER
  5
77
330
2
100
AcDbSymbolTableRecord
100
AcDbLayerTableRecord
  2
A-A
 70
     0
 62
     7
  6
Continuous
370
    -3
390
F
  0
LAYER
  5
78
330
2
100
AcDbSymbolTableRecord
100
AcDbLayerTableRecord
  2
F-5ﾚｲﾔ
 70
     0
 62
     7
  6
Continuous
370
    -3
390
F
  0
LAYER
  5
79
330
2
100
AcDbSymbolTableRecord
100
AcDbLayerTableRecord
  2
D-5_仕様文
 70
     0
 62
     7
  6
Continuous
370
    -3
390
F
  0
ENDTAB
  0
TABLE
  2
STYLE
  5
3
330
0
100
AcDbSymbolTable
 70
     2
  0
STYLE
  5
11
330
3
100
AcDbSymbolTableRecord
100
AcDbTextStyleTableRecord
  2
Standard
 70
     0
 40
0.0
 41
1.0
 50
0.0
 71
     0
 42
2.5
  3
txt
  4

  0
STYLE
  5
6E
330
3
100
AcDbSymbolTableRecord
100
AcDbTextStyleTableRecord
  2
ＭＳ ゴシック
 70
     0
 40
1.0
 41
1.0
 50
0.0
 71
     0
 42
2.5
  3

  4

1001
ACAD
1000
MS Gothic
1071
    32817
  0
ENDTAB
  0
TABLE
  2
VIEW
  5
6
330
0
100
AcDbSymbolTable
 70
     0
  0
ENDTAB
  0
TABLE
  2
UCS
  5
7
330
0
100
AcDbSymbolTable
 70
     0
  0
ENDTAB
  0
TABLE
  2
APPID
  5
9
330
0
100
AcDbSymbolTable
 70
     2
  0
APPID
  5
12
330
9
100
AcDbSymbolTableRecord
100
AcDbRegAppTableRecord
  2
ACAD
 70
     0
  0
APPID
  5
405
330
9
100
AcDbSymbolTableRecord
100
AcDbRegAppTableRecord
  2
ACAD_MLEADERVER
 70
     0
  0
ENDTAB
  0
TABLE
  2
DIMSTYLE
  5
A
330
0
100
AcDbSymbolTable
 70
     1
100
AcDbDimStyleTable
  0
DIMSTYLE
105
27
330
A
100
AcDbSymbolTableRecord
100
AcDbDimStyleTableRecord
  2
ISO-25
 70
     0
 41
2.5
 42
0.625
 43
3.75
 44
1.25
 73
     0
 74
     0
 77
     1
 78
     8
140
2.5
141
2.5
143
0.03937007874016
147
0.625
171
     3
172
     1
178
     0
271
     2
272
     2
274
     3
278
    44
283
     0
284
     8
340
11
  0
ENDTAB
  0
TABLE
  2
BLOCK_RECORD
  5
1
330
0
100
AcDbSymbolTable
 70
     1
  0
BLOCK_RECORD
  5
1F
330
1
100
AcDbSymbolTableRecord
100
AcDbBlockTableRecord
  2
*Model_Space
340
22
  0
BLOCK_RECORD
  5
1B
330
1
100
AcDbSymbolTableRecord
100
AcDbBlockTableRecord
  2
*Paper_Space
340
1E
  0
BLOCK_RECORD
  5
23
330
1
100
AcDbSymbolTableRecord
100
AcDbBlockTableRecord
  2
*Paper_Space0
340
26
  0
ENDTAB
  0
ENDSEC
  0
SECTION
  2
BLOCKS
  0
BLOCK
  5
20
330
1F
100
AcDbEntity
  8
0
100
AcDbBlockBegin
  2
*Model_Space
 70
     0
 10
0.0
 20
0.0
 30
0.0
  3
*Model_Space
  1

  0
ENDBLK
  5
21
330
1F
100
AcDbEntity
  8
0
100
AcDbBlockEnd
  0
BLOCK
  5
1C
330
1B
100
AcDbEntity
 67
     1
  8
0
100
AcDbBlockBegin
  2
*Paper_Space
 70
     0
 10
0.0
 20
0.0
 30
0.0
  3
*Paper_Space
  1

  0
ENDBLK
  5
1D
330
1B
100
AcDbEntity
 67
     1
  8
0
100
AcDbBlockEnd
  0
BLOCK
  5
24
330
23
100
AcDbEntity
  8
0
100
AcDbBlockBegin
  2
*Paper_Space0
 70
     0
 10
0.0
 20
0.0
 30
0.0
  3
*Paper_Space0
  1

  0
ENDBLK
  5
25
330
23
100
AcDbEntity
  8
0
100
AcDbBlockEnd
  0
ENDSEC
  0
SECTION
  2
ENTITIES
  0
LINE
  5
7A
330
1F
100
AcDbEntity
  8
D-4_寸法
  6
Continuous
 62
     2
370
     9
100
AcDbLine
 10
231.0153206170782
 20
-333.539193337329
 30
0.0
 11
231.0153206170782
 21
-303.5388345495862
 31
0.0
  0
LINE
  5
7B
330
1F
100
AcDbEntity
  8
D-4_寸法
  6
Continuous
 62
     2
370
     9
100
AcDbLine
 10
231.0153206170782
 20
-303.5388345495862
 30
0.0
 11
366.0153206170781
 21
-303.5388345495862
 31
0.0
  0
LINE
  5
7C
330
1F
100
AcDbEntity
  8
D-4_寸法
  6
Continuous
 62
     2
370
     9
100
AcDbLine
 10
366.0153206170781
 20
-303.5388345495862
 30
0.0
 11
366.0153206170781
 21
-333.539193337329
 31
0.0
  0
LINE
  5
7D
330
1F
100
AcDbEntity
  8
D-4_寸法
  6
Continuous
 62
     2
370
     9
100
AcDbLine
 10
366.0153206170781
 20
-333.539193337329
 30
0.0
 11
231.0153206170782
 21
-333.539193337329
 31
0.0
  0
TEXT
  5
7E
330
1F
100
AcDbEntity
  8
D-4_寸法
  6
Continuous
 62
     2
370
   211
100
AcDbText
 10
259.5154690809718
 20
-327.1550720918158
 30
0.0
 40
18.288
  1
仕　様
 41
1.083333333333333
  7
ＭＳ ゴシック
100
AcDbText
  0
TEXT
  5
7F
330
1F
100
AcDbEntity
  8
D-4_寸法
  6
Continuous
 62
     2
370
     9
100
AcDbText
 10
328.0967310282509
 20
-535.9074805060931
 30
0.0
 40
18.288
  1
材質：ＳＳ４００
 50
0.0000099839860739
 41
1.109375
  7
ＭＳ ゴシック
100
AcDbText
  0
TEXT
  5
80
330
1F
100
AcDbEntity
  8
D-4_寸法
  6
Continuous
 62
     2
370
     9
100
AcDbText
 10
328.096449536525
 20
-463.907836819434
 30
0.0
 40
18.288
  1
処理：溶融亜鉛めっき
 41
1.1125
  7
ＭＳ ゴシック
100
AcDbText
  0
TEXT
  5
81
330
1F
100
AcDbEntity
  8
D-4_寸法
  6
Continuous
 62
     2
370
     9
100
AcDbText
 10
328.0964341004639
 20
-430.9072825542349
 30
0.0
 40
18.288
  1
材質：ＳＳ４００
 50
0.0000099839860739
 41
1.109375
  7
ＭＳ ゴシック
100
AcDbText
  0
TEXT
  5
82
330
1F
100
AcDbEntity
  8
D-4_寸法
  6
Continuous
 62
     2
370
     9
100
AcDbText
 10
292.2698850570065
 20
-502.9075200964611
 30
0.0
 40
18.288
  1
スチール製受枠　Ｌ－３２（四方受四方枠）
 41
1.11875
  7
ＭＳ ゴシック
100
AcDbText
  0
TEXT
  5
83
330
1F
100
AcDbEntity
  8
D-4_寸法
  6
Continuous
 62
     2
370
     9
100
AcDbText
 10
292.2690239664238
 20
-364.9073617349746
 30
0.0
 40
18.288
  1
スチール製グレーチング　枠付正方形型　滑り止め模様付
 41
1.120192307692308
  7
ＭＳ ゴシック
100
AcDbText
  0
LINE
  5
84
330
1F
100
AcDbEntity
  8
D-0_通り芯
  6
Continuous
 62
     3
370
     9
100
AcDbLine
 10
-401.5996313251849
 20
-510.7357488451831
 30
0.0
 11
-641.5996313251849
 21
-510.7357488451831
 31
0.0
  0
LINE
  5
85
330
1F
100
AcDbEntity
  8
D-0_通り芯
  6
Continuous
 62
     3
370
     9
100
AcDbLine
 10
-326.5997303011136
 20
-510.7357488451831
 30
0.0
 11
-341.5996313251849
 21
-510.7357488451831
 31
0.0
  0
LINE
  5
86
330
1F
100
AcDbEntity
  8
D-4_寸法
  6
Continuous
 62
     7
370
     9
100
AcDbLine
 10
-269.5997303011136
 20
-510.7357488451831
 30
0.0
 11
-271.5576231844144
 21
-495.8640759245759
 31
0.0
  0
LINE
  5
87
330
1F
100
AcDbEntity
  8
D-4_寸法
  6
Continuous
 62
     7
370
     9
100
AcDbLine
 10
-269.5997303011136
 20
-510.7357488451831
 30
0.0
 11
-267.6418374178128
 21
-495.8640759245759
 31
0.0
  0
LINE
  5
88
330
1F
100
AcDbEntity
  8
D-4_寸法
  6
Continuous
 62
     7
370
     9
100
AcDbLine
 10
-267.7997303011135
 20
-510.7357488451831
 30
0.0
 11
-314.5997303011136
 21
-510.7357488451831
 31
0.0
  0
LINE
  5
89
330
1F
100
AcDbEntity
  8
D-0_通り芯
  6
Continuous
 62
     7
370
     9
100
AcDbLine
 10
-720.5920233754383
 20
-570.7357488451831
 30
0.0
 11
-720.5920233754383
 21
-610.6064697858503
 31
0.0
  0
LINE
  5
8A
330
1F
100
AcDbEntity
  8
D-0_通り芯
  6
Continuous
 62
     7
370
     9
100
AcDbLine
 10
-720.5920233754383
 20
-610.6064697858503
 30
0.0
 11
-217.6073382508603
 21
-610.6064697858503
 31
0.0
  0
LINE
  5
8B
330
1F
100
AcDbEntity
  8
D-0_通り芯
  6
Continuous
 62
     7
370
     9
100
AcDbLine
 10
-217.6073382508603
 20
-610.6064697858503
 30
0.0
 11
-217.6073382508603
 21
-570.7357488451831
 31
0.0
  0
LINE
  5
8C
330
1F
100
AcDbEntity
  8
D-0_通り芯
  6
Continuous
 62
     7
370
     9
100
AcDbLine
 10
-217.6073382508603
 20
-570.7357488451831
 30
0.0
 11
-720.5920233754383
 21
-570.7357488451831
 31
0.0
  0
TEXT
  5
8D
330
1F
100
AcDbEntity
  8
D-0_通り芯
  6
Continuous
 62
     2
370
   211
100
AcDbText
 10
-710.5996808131492
 20
-599.2871093155165
 30
0.0
 40
18.288
  1
ＤＩ－３２　バー形状詳細　Ｓ＝１：２
 41
1.118055555555556
  7
ＭＳ ゴシック
100
AcDbText
  0
LINE
  5
8E
330
1F
100
AcDbEntity
  8
D-0_通り芯
  6
Continuous
 62
     3
370
     9
100
AcDbLine
 10
-637.4734802068067
 20
-414.7355014053603
 30
0.0
 11
-635.9734802068067
 21
-410.235857718705
 31
0.0
  0
LINE
  5
8F
330
1F
100
AcDbEntity
  8
D-0_通り芯
  6
Continuous
 62
     3
370
     9
100
AcDbLine
 10
-616.2634802068069
 20
-410.235857718705
 30
0.0
 11
-614.7634802068069
 21
-414.7355014053603
 31
0.0
  0
LINE
  5
90
330
1F
100
AcDbEntity
  8
D-0_通り芯
  6
Continuous
 62
     3
370
     9
100
AcDbLine
 10
-616.2634802068069
 20
-410.235857718705
 30
0.0
 11
-635.9734802068067
 21
-410.235857718705
 31
0.0
  0
LINE
  5
91
330
1F
100
AcDbEntity
  8
D-0_通り芯
  6
Continuous
 62
     3
370
     9
100
AcDbLine
 10
-637.4734802068067
 20
-414.7355014053603
 30
0.0
 11
-641.5996313251849
 21
-414.7355014053603
 31
0.0
  0
LINE
  5
92
330
1F
100
AcDbEntity
  8
D-0_通り芯
  6
Continuous
 62
     3
370
     9
100
AcDbLine
 10
-584.633863912933
 20
-410.235857718705
 30
0.0
 11
-583.133863912933
 21
-414.7355014053603
 31
0.0
  0
LINE
  5
93
330
1F
100
AcDbEntity
  8
D-0_通り芯
  6
Continuous
 62
     3
370
     9
100
AcDbLine
 10
-599.4238639129328
 20
-414.7355014053603
 30
0.0
 11
-597.9238639129328
 21
-410.235857718705
 31
0.0
  0
LINE
  5
94
330
1F
100
AcDbEntity
  8
D-0_通り芯
  6
Continuous
 62
     3
370
     9
100
AcDbLine
 10
-599.4238639129328
 20
-414.7355014053603
 30
0.0
 11
-614.7634802068069
 21
-414.7355014053603
 31
0.0
  0
LINE
  5
95
330
1F
100
AcDbEntity
  8
D-0_通り芯
  6
Continuous
 62
     3
370
     9
100
AcDbLine
 10
-567.7942476190589
 20
-414.7355014053603
 30
0.0
 11
-566.2942476190589
 21
-410.235857718705
 31
0.0
  0
LINE
  5
96
330
1F
100
AcDbEntity
  8
D-0_通り芯
  6
Continuous
 62
     3
370
     9
100
AcDbLine
 10
-545.0842476190587
 20
-414.7355014053603
 30
0.0
 11
-546.5842476190587
 21
-410.235857718705
 31
0.0
  0
LINE
  5
97
330
1F
100
AcDbEntity
  8
D-0_通り芯
  6
Continuous
 62
     3
370
     9
100
AcDbLine
 10
-584.633863912933
 20
-410.235857718705
 30
0.0
 11
-597.9238639129328
 21
-410.235857718705
 31
0.0
  0
LINE
  5
98
330
1F
100
AcDbEntity
  8
D-0_通り芯
  6
Continuous
 62
     3
370
     9
100
AcDbLine
 10
-567.7942476190589
 20
-414.7355014053603
 30
0.0
 11
-583.133863912933
 21
-414.7355014053603
 31
0.0
  0
LINE
  5
99
330
1F
100
AcDbEntity
  8
D-0_通り芯
  6
Continuous
 62
     3
370
     9
100
AcDbLine
 10
-514.9546313251848
 20
-410.235857718705
 30
0.0
 11
-513.4546313251848
 21
-414.7355014053603
 31
0.0
  0
LINE
  5
9A
330
1F
100
AcDbEntity
  8
D-0_通り芯
  6
Continuous
 62
     3
370
     9
100
AcDbLine
 10
-529.744631325185
 20
-414.7355014053603
 30
0.0
 11
-528.244631325185
 21
-410.235857718705
 31
0.0
  0
LINE
  5
9B
330
1F
100
AcDbEntity
  8
D-0_通り芯
  6
Continuous
 62
     3
370
     9
100
AcDbLine
 10
-529.744631325185
 20
-414.7355014053603
 30
0.0
 11
-545.0842476190587
 21
-414.7355014053603
 31
0.0
  0
LINE
  5
9C
330
1F
100
AcDbEntity
  8
D-0_通り芯
  6
Continuous
 62
     3
370
     9
100
AcDbLine
 10
-498.115015031311
 20
-414.7355014053603
 30
0.0
 11
-496.615015031311
 21
-410.235857718705
 31
0.0
  0
LINE
  5
9D
330
1F
100
AcDbEntity
  8
D-0_通り芯
  6
Continuous
 62
     3
370
     9
100
AcDbLine
 10
-475.4050150313109
 20
-414.7355014053603
 30
0.0
 11
-476.9050150313109
 21
-410.235857718705
 31
0.0
  0
LINE
  5
9E
330
1F
100
AcDbEntity
  8
D-0_通り芯
  6
Continuous
 62
     3
370
     9
100
AcDbLine
 10
-514.9546313251848
 20
-410.235857718705
 30
0.0
 11
-528.244631325185
 21
-410.235857718705
 31
0.0
  0
LINE
  5
9F
330
1F
100
AcDbEntity
  8
D-0_通り芯
  6
Continuous
 62
     3
370
     9
100
AcDbLine
 10
-498.115015031311
 20
-414.7355014053603
 30
0.0
 11
-513.4546313251848
 21
-414.7355014053603
 31
0.0
  0
LINE
  5
A0
330
1F
100
AcDbEntity
  8
D-0_通り芯
  6
Continuous
 62
     3
370
     9
100
AcDbLine
 10
-445.2753987374369
 20
-410.235857718705
 30
0.0
 11
-443.7753987374369
 21
-414.7355014053603
 31
0.0
  0
LINE
  5
A1
330
1F
100
AcDbEntity
  8
D-0_通り芯
  6
Continuous
 62
     3
370
     9
100
AcDbLine
 10
-460.0653987374368
 20
-414.7355014053603
 30
0.0
 11
-458.5653987374368
 21
-410.235857718705
 31
0.0
  0
LINE
  5
A2
330
1F
100
AcDbEntity
  8
D-0_通り芯
  6
Continuous
 62
     3
370
     9
100
AcDbLine
 10
-460.0653987374368
 20
-414.7355014053603
 30
0.0
 11
-475.4050150313109
 21
-414.7355014053603
 31
0.0
  0
LINE
  5
A3
330
1F
100
AcDbEntity
  8
D-0_通り芯
  6
Continuous
 62
     3
370
     9
100
AcDbLine
 10
-428.4357824435629
 20
-414.7355014053603
 30
0.0
 11
-426.9357824435629
 21
-410.235857718705
 31
0.0
  0
LINE
  5
A4
330
1F
100
AcDbEntity
  8
D-0_通り芯
  6
Continuous
 62
     3
370
     9
100
AcDbLine
 10
-405.725782443563
 20
-414.7355014053603
 30
0.0
 11
-407.225782443563
 21
-410.235857718705
 31
0.0
  0
LINE
  5
A5
330
1F
100
AcDbEntity
  8
D-0_通り芯
  6
Continuous
 62
     3
370
     9
100
AcDbLine
 10
-445.2753987374369
 20
-410.235857718705
 30
0.0
 11
-458.5653987374368
 21
-410.235857718705
 31
0.0
  0
LINE
  5
A6
330
1F
100
AcDbEntity
  8
D-0_通り芯
  6
Continuous
 62
     3
370
     9
100
AcDbLine
 10
-428.4357824435629
 20
-414.7355014053603
 30
0.0
 11
-443.7753987374369
 21
-414.7355014053603
 31
0.0
  0
LINE
  5
A7
330
1F
100
AcDbEntity
  8
D-0_通り芯
  6
Continuous
 62
     3
370
     9
100
AcDbLine
 10
-546.5842476190587
 20
-410.235857718705
 30
0.0
 11
-566.2942476190589
 21
-410.235857718705
 31
0.0
  0
LINE
  5
A8
330
1F
100
AcDbEntity
  8
D-0_通り芯
  6
Continuous
 62
     3
370
     9
100
AcDbLine
 10
-401.5996313251849
 20
-414.7355014053603
 30
0.0
 11
-405.725782443563
 21
-414.7355014053603
 31
0.0
  0
LINE
  5
A9
330
1F
100
AcDbEntity
  8
D-0_通り芯
  6
Continuous
 62
     3
370
     9
100
AcDbLine
 10
-496.615015031311
 20
-410.235857718705
 30
0.0
 11
-476.9050150313109
 21
-410.235857718705
 31
0.0
  0
LINE
  5
AA
330
1F
100
AcDbEntity
  8
D-0_通り芯
  6
Continuous
 62
     3
370
     9
100
AcDbLine
 10
-426.9357824435629
 20
-410.235857718705
 30
0.0
 11
-407.225782443563
 21
-410.235857718705
 31
0.0
  0
LINE
  5
AB
330
1F
100
AcDbEntity
  8
D-0_通り芯
  6
Continuous
 62
     3
370
     9
100
AcDbLine
 10
-341.5996313251849
 20
-414.7355014053603
 30
0.0
 11
-326.5997303011136
 21
-414.7355014053603
 31
0.0
  0
LINE
  5
AC
330
1F
100
AcDbEntity
  8
D-0_通り芯
  6
Continuous
 62
     3
370
     9
100
AcDbLine
 10
-341.5996313251849
 20
-410.235857718705
 30
0.0
 11
-326.5997303011136
 21
-410.235857718705
 31
0.0
  0
LINE
  5
AD
330
1F
100
AcDbEntity
  8
D-0_通り芯
  6
Continuous
 62
     3
370
     9
100
AcDbLine
 10
-341.5996313251849
 20
-410.235857718705
 30
0.0
 11
-341.5996313251849
 21
-414.7355014053603
 31
0.0
  0
LINE
  5
AE
330
1F
100
AcDbEntity
  8
D-0_通り芯
  6
Continuous
 62
     3
370
     9
100
AcDbLine
 10
-326.5997303011136
 20
-410.235857718705
 30
0.0
 11
-326.5997303011136
 21
-414.7355014053603
 31
0.0
  0
LINE
  5
AF
330
1F
100
AcDbEntity
  8
D-0_通り芯
  6
Continuous
 62
     3
370
     9
100
AcDbLine
 10
-637.4734802068067
 20
-350.235857718705
 30
0.0
 11
-634.2634802068069
 21
-335.2356597668469
 31
0.0
  0
LINE
  5
B0
330
1F
100
AcDbEntity
  8
D-0_通り芯
  6
Continuous
 62
     3
370
     9
100
AcDbLine
 10
-617.9734802068067
 20
-335.2356597668469
 30
0.0
 11
-614.7634802068069
 21
-350.235857718705
 31
0.0
  0
LINE
  5
B1
330
1F
100
AcDbEntity
  8
D-0_通り芯
  6
Continuous
 62
     3
370
     9
100
AcDbLine
 10
-635.9734802068067
 20
-350.235857718705
 30
0.0
 11
-632.7634802068069
 21
-335.2356597668469
 31
0.0
  0
LINE
  5
B2
330
1F
100
AcDbEntity
  8
D-0_通り芯
  6
Continuous
 62
     3
370
     9
100
AcDbLine
 10
-619.4734802068067
 20
-335.2356597668469
 30
0.0
 11
-616.2634802068069
 21
-350.235857718705
 31
0.0
  0
LINE
  5
B3
330
1F
100
AcDbEntity
  8
D-0_通り芯
  6
Continuous
 62
     3
370
     9
100
AcDbLine
 10
-579.9238639129328
 20
-335.2356597668469
 30
0.0
 11
-583.133863912933
 21
-350.235857718705
 31
0.0
  0
LINE
  5
B4
330
1F
100
AcDbEntity
  8
D-0_通り芯
  6
Continuous
 62
     3
370
     9
100
AcDbLine
 10
-599.4238639129328
 20
-350.235857718705
 30
0.0
 11
-602.633863912933
 21
-335.2356597668469
 31
0.0
  0
LINE
  5
B5
330
1F
100
AcDbEntity
  8
D-0_通り芯
  6
Continuous
 62
     3
370
     9
100
AcDbLine
 10
-581.4238639129328
 20
-335.2356597668469
 30
0.0
 11
-584.633863912933
 21
-350.235857718705
 31
0.0
  0
LINE
  5
B6
330
1F
100
AcDbEntity
  8
D-0_通り芯
  6
Continuous
 62
     3
370
     9
100
AcDbLine
 10
-597.9238639129328
 20
-350.235857718705
 30
0.0
 11
-601.133863912933
 21
-335.2356597668469
 31
0.0
  0
LINE
  5
B7
330
1F
100
AcDbEntity
  8
D-0_通り芯
  6
Continuous
 62
     3
370
     9
100
AcDbLine
 10
-567.7942476190589
 20
-350.235857718705
 30
0.0
 11
-564.5842476190587
 21
-335.2356597668469
 31
0.0
  0
LINE
  5
B8
330
1F
100
AcDbEntity
  8
D-0_通り芯
  6
Continuous
 62
     3
370
     9
100
AcDbLine
 10
-548.2942476190589
 20
-335.2356597668469
 30
0.0
 11
-545.0842476190587
 21
-350.235857718705
 31
0.0
  0
LINE
  5
B9
330
1F
100
AcDbEntity
  8
D-0_通り芯
  6
Continuous
 62
     3
370
     9
100
AcDbLine
 10
-566.2942476190589
 20
-350.235857718705
 30
0.0
 11
-563.0842476190587
 21
-335.2356597668469
 31
0.0
  0
LINE
  5
BA
330
1F
100
AcDbEntity
  8
D-0_通り芯
  6
Continuous
 62
     3
370
     9
100
AcDbLine
 10
-549.7942476190589
 20
-335.2356597668469
 30
0.0
 11
-546.5842476190587
 21
-350.235857718705
 31
0.0
  0
LINE
  5
BB
330
1F
100
AcDbEntity
  8
D-0_通り芯
  6
Continuous
 62
     3
370
     9
100
AcDbLine
 10
-510.244631325185
 20
-335.2356597668469
 30
0.0
 11
-513.4546313251848
 21
-350.235857718705
 31
0.0
  0
LINE
  5
BC
330
1F
100
AcDbEntity
  8
D-0_通り芯
  6
Continuous
 62
     3
370
     9
100
AcDbLine
 10
-529.744631325185
 20
-350.235857718705
 30
0.0
 11
-532.9546313251848
 21
-335.2356597668469
 31
0.0
  0
LINE
  5
BD
330
1F
100
AcDbEntity
  8
D-0_通り芯
  6
Continuous
 62
     3
370
     9
100
AcDbLine
 10
-511.744631325185
 20
-335.2356597668469
 30
0.0
 11
-514.9546313251848
 21
-350.235857718705
 31
0.0
  0
LINE
  5
BE
330
1F
100
AcDbEntity
  8
D-0_通り芯
  6
Continuous
 62
     3
370
     9
100
AcDbLine
 10
-528.244631325185
 20
-350.235857718705
 30
0.0
 11
-531.4546313251848
 21
-335.2356597668469
 31
0.0
  0
LINE
  5
BF
330
1F
100
AcDbEntity
  8
D-0_通り芯
  6
Continuous
 62
     3
370
     9
100
AcDbLine
 10
-498.115015031311
 20
-350.235857718705
 30
0.0
 11
-494.9050150313109
 21
-335.2356597668469
 31
0.0
  0
LINE
  5
C0
330
1F
100
AcDbEntity
  8
D-0_通り芯
  6
Continuous
 62
     3
370
     9
100
AcDbLine
 10
-478.615015031311
 20
-335.2356597668469
 30
0.0
 11
-475.4050150313109
 21
-350.235857718705
 31
0.0
  0
LINE
  5
C1
330
1F
100
AcDbEntity
  8
D-0_通り芯
  6
Continuous
 62
     3
370
     9
100
AcDbLine
 10
-496.615015031311
 20
-350.235857718705
 30
0.0
 11
-493.4050150313109
 21
-335.2356597668469
 31
0.0
  0
LINE
  5
C2
330
1F
100
AcDbEntity
  8
D-0_通り芯
  6
Continuous
 62
     3
370
     9
100
AcDbLine
 10
-480.115015031311
 20
-335.2356597668469
 30
0.0
 11
-476.9050150313109
 21
-350.235857718705
 31
0.0
  0
LINE
  5
C3
330
1F
100
AcDbEntity
  8
D-0_通り芯
  6
Continuous
 62
     3
370
     9
100
AcDbLine
 10
-440.5653987374368
 20
-335.2356597668469
 30
0.0
 11
-443.7753987374369
 21
-350.235857718705
 31
0.0
  0
LINE
  5
C4
330
1F
100
AcDbEntity
  8
D-0_通り芯
  6
Continuous
 62
     3
370
     9
100
AcDbLine
 10
-460.0653987374368
 20
-350.235857718705
 30
0.0
 11
-463.2753987374369
 21
-335.2356597668469
 31
0.0
  0
LINE
  5
C5
330
1F
100
AcDbEntity
  8
D-0_通り芯
  6
Continuous
 62
     3
370
     9
100
AcDbLine
 10
-442.0653987374368
 20
-335.2356597668469
 30
0.0
 11
-445.2753987374369
 21
-350.235857718705
 31
0.0
  0
LINE
  5
C6
330
1F
100
AcDbEntity
  8
D-0_通り芯
  6
Continuous
 62
     3
370
     9
100
AcDbLine
 10
-458.5653987374368
 20
-350.235857718705
 30
0.0
 11
-461.7753987374369
 21
-335.2356597668469
 31
0.0
  0
LINE
  5
C7
330
1F
100
AcDbEntity
  8
D-0_通り芯
  6
Continuous
 62
     3
370
     9
100
AcDbLine
 10
-428.4357824435629
 20
-350.235857718705
 30
0.0
 11
-425.225782443563
 21
-335.2356597668469
 31
0.0
  0
LINE
  5
C8
330
1F
100
AcDbEntity
  8
D-0_通り芯
  6
Continuous
 62
     3
370
     9
100
AcDbLine
 10
-408.9357824435629
 20
-335.2356597668469
 30
0.0
 11
-405.725782443563
 21
-350.235857718705
 31
0.0
  0
LINE
  5
C9
330
1F
100
AcDbEntity
  8
D-0_通り芯
  6
Continuous
 62
     3
370
     9
100
AcDbLine
 10
-426.9357824435629
 20
-350.235857718705
 30
0.0
 11
-423.725782443563
 21
-335.2356597668469
 31
0.0
  0
LINE
  5
CA
330
1F
100
AcDbEntity
  8
D-0_通り芯
  6
Continuous
 62
     3
370
     9
100
AcDbLine
 10
-410.4357824435629
 20
-335.2356597668469
 30
0.0
 11
-407.225782443563
 21
-350.235857718705
 31
0.0
  0
LINE
  5
CB
330
1F
100
AcDbEntity
  8
D-0_通り芯
  6
Continuous
 62
     3
370
     9
100
AcDbLine
 10
-568.7526924131289
 20
-350.2358577187033
 30
0.0
 11
-567.5333013820657
 21
-349.0164666876401
 31
0.0
  0
LINE
  5
CC
330
1F
100
AcDbEntity
  8
D-0_通り芯
  6
Continuous
 62
     3
370
     9
100
AcDbLine
 10
-572.9953331002489
 20
-350.2358577187033
 30
0.0
 11
-566.3781997746727
 21
-343.618724393127
 31
0.0
  0
LINE
  5
CD
330
1F
100
AcDbEntity
  8
D-0_通り芯
  6
Continuous
 62
     3
370
     9
100
AcDbLine
 10
-577.2379737873692
 20
-350.2358577187033
 30
0.0
 11
-565.2230981672797
 21
-338.2209820986137
 31
0.0
  0
LINE
  5
CE
330
1F
100
AcDbEntity
  8
D-0_通り芯
  6
Continuous
 62
     3
370
     9
100
AcDbLine
 10
-581.4806144744892
 20
-350.2358577187035
 30
0.0
 11
-566.4804165226335
 21
-335.2356597668478
 31
0.0
  0
LINE
  5
CF
330
1F
100
AcDbEntity
  8
D-0_通り芯
  6
Continuous
 62
     3
370
     9
100
AcDbLine
 10
-582.4288760965987
 20
-346.9414786536931
 30
0.0
 11
-570.7230572097525
 21
-335.2356597668469
 31
0.0
  0
LINE
  5
D0
330
1F
100
AcDbEntity
  8
D-0_通り芯
  6
Continuous
 62
     3
370
     9
100
AcDbLine
 10
-581.2737744892074
 20
-341.5437363591817
 30
0.0
 11
-574.9656978968718
 21
-335.2356597668462
 31
0.0
  0
LINE
  5
D1
330
1F
100
AcDbEntity
  8
D-0_通り芯
  6
Continuous
 62
     3
370
     9
100
AcDbLine
 10
-580.1186728818113
 20
-336.1459940646657
 30
0.0
 11
-579.2083385839942
 21
-335.2356597668485
 31
0.0
  0
LINE
  5
D2
330
1F
100
AcDbEntity
  8
D-0_通り芯
  6
Continuous
 62
     3
370
     9
100
AcDbLine
 10
-602.6938179100886
 20
-350.235857718703
 30
0.0
 11
-600.0002745790138
 21
-347.542314387628
 31
0.0
  0
LINE
  5
D3
330
1F
100
AcDbEntity
  8
D-0_通り芯
  6
Continuous
 62
     3
370
     9
100
AcDbLine
 10
-606.936458597196
 20
-350.2358577187013
 30
0.0
 11
-600.7481454501392
 21
-344.0475445716445
 31
0.0
  0
LINE
  5
D4
330
1F
100
AcDbEntity
  8
D-0_通り芯
  6
Continuous
 62
     3
370
     9
100
AcDbLine
 10
-611.1790992843153
 20
-350.2358577187005
 30
0.0
 11
-601.4960163212663
 21
-340.5527747556516
 31
0.0
  0
LINE
  5
D5
330
1F
100
AcDbEntity
  8
D-0_通り芯
  6
Continuous
 62
     3
370
     9
100
AcDbLine
 10
-614.8795148512452
 20
-349.6936325985105
 30
0.0
 11
-602.2438871923935
 21
-337.0580049396588
 31
0.0
  0
LINE
  5
D6
330
1F
100
AcDbEntity
  8
D-0_通り芯
  6
Continuous
 62
     3
370
     9
100
AcDbLine
 10
-615.6273857223723
 20
-346.1988627825176
 30
0.0
 11
-604.6641827067002
 21
-335.2356597668454
 31
0.0
  0
LINE
  5
D7
330
1F
100
AcDbEntity
  8
D-0_通り芯
  6
Continuous
 62
     3
370
     9
100
AcDbLine
 10
-616.3752565934984
 20
-342.7040929665237
 30
0.0
 11
-608.9068233938202
 21
-335.2356597668455
 31
0.0
  0
LINE
  5
D8
330
1F
100
AcDbEntity
  8
D-0_通り芯
  6
Continuous
 62
     3
370
     9
100
AcDbLine
 10
-617.1231274646259
 20
-339.2093231505312
 30
0.0
 11
-613.1494640809412
 21
-335.2356597668465
 31
0.0
  0
LINE
  5
D9
330
1F
100
AcDbEntity
  8
D-0_通り芯
  6
Continuous
 62
     3
370
     9
100
AcDbLine
 10
-617.8709983357537
 20
-335.7145533345387
 30
0.0
 11
-617.3921047680606
 21
-335.2356597668459
 31
0.0
  0
LINE
  5
DA
330
1F
100
AcDbEntity
  8
D-0_通り芯
  6
Continuous
 62
     3
370
     9
100
AcDbLine
 10
-499.0734598253807
 20
-350.2358577187033
 30
0.0
 11
-497.8540687943179
 21
-349.0164666876401
 31
0.0
  0
LINE
  5
DB
330
1F
100
AcDbEntity
  8
D-0_通り芯
  6
Continuous
 62
     3
370
     9
100
AcDbLine
 10
-503.3161005125011
 20
-350.2358577187033
 30
0.0
 11
-496.6989671869245
 21
-343.618724393127
 31
0.0
  0
LINE
  5
DC
330
1F
100
AcDbEntity
  8
D-0_通り芯
  6
Continuous
 62
     3
370
     9
100
AcDbLine
 10
-507.5587411996211
 20
-350.2358577187033
 30
0.0
 11
-495.5438655795315
 21
-338.2209820986137
 31
0.0
  0
LINE
  5
DD
330
1F
100
AcDbEntity
  8
D-0_通り芯
  6
Continuous
 62
     3
370
     9
100
AcDbLine
 10
-511.8013818867411
 20
-350.2358577187035
 30
0.0
 11
-496.8011839348853
 21
-335.2356597668478
 31
0.0
  0
LINE
  5
DE
330
1F
100
AcDbEntity
  8
D-0_通り芯
  6
Continuous
 62
     3
370
     9
100
AcDbLine
 10
-512.7496435088506
 20
-346.9414786536931
 30
0.0
 11
-501.0438246220046
 21
-335.2356597668469
 31
0.0
  0
LINE
  5
DF
330
1F
100
AcDbEntity
  8
D-0_通り芯
  6
Continuous
 62
     3
370
     9
100
AcDbLine
 10
-511.5945419014593
 20
-341.5437363591817
 30
0.0
 11
-505.286465309124
 21
-335.2356597668462
 31
0.0
  0
LINE
  5
E0
330
1F
100
AcDbEntity
  8
D-0_通り芯
  6
Continuous
 62
     3
370
     9
100
AcDbLine
 10
-510.4394402940635
 20
-336.1459940646657
 30
0.0
 11
-509.529105996246
 21
-335.2356597668485
 31
0.0
  0
LINE
  5
E1
330
1F
100
AcDbEntity
  8
D-0_通り芯
  6
Continuous
 62
     3
370
     9
100
AcDbLine
 10
-533.0145853223407
 20
-350.235857718703
 30
0.0
 11
-530.3210419912656
 21
-347.542314387628
 31
0.0
  0
LINE
  5
E2
330
1F
100
AcDbEntity
  8
D-0_通り芯
  6
Continuous
 62
     3
370
     9
100
AcDbLine
 10
-537.2572260094478
 20
-350.2358577187013
 30
0.0
 11
-531.0689128623914
 21
-344.0475445716445
 31
0.0
  0
LINE
  5
E3
330
1F
100
AcDbEntity
  8
D-0_通り芯
  6
Continuous
 62
     3
370
     9
100
AcDbLine
 10
-541.4998666965671
 20
-350.2358577187005
 30
0.0
 11
-531.8167837335185
 21
-340.5527747556516
 31
0.0
  0
LINE
  5
E4
330
1F
100
AcDbEntity
  8
D-0_通り芯
  6
Continuous
 62
     3
370
     9
100
AcDbLine
 10
-545.2002822634973
 20
-349.6936325985105
 30
0.0
 11
-532.5646546046456
 21
-337.0580049396588
 31
0.0
  0
LINE
  5
E5
330
1F
100
AcDbEntity
  8
D-0_通り芯
  6
Continuous
 62
     3
370
     9
100
AcDbLine
 10
-545.9481531346241
 20
-346.1988627825176
 30
0.0
 11
-534.984950118952
 21
-335.2356597668454
 31
0.0
  0
LINE
  5
E6
330
1F
100
AcDbEntity
  8
D-0_通り芯
  6
Continuous
 62
     3
370
     9
100
AcDbLine
 10
-546.6960240057506
 20
-342.7040929665237
 30
0.0
 11
-539.2275908060724
 21
-335.2356597668455
 31
0.0
  0
LINE
  5
E7
330
1F
100
AcDbEntity
  8
D-0_通り芯
  6
Continuous
 62
     3
370
     9
100
AcDbLine
 10
-547.4438948768781
 20
-339.2093231505312
 30
0.0
 11
-543.4702314931931
 21
-335.2356597668465
 31
0.0
  0
LINE
  5
E8
330
1F
100
AcDbEntity
  8
D-0_通り芯
  6
Continuous
 62
     3
370
     9
100
AcDbLine
 10
-548.1917657480055
 20
-335.7145533345387
 30
0.0
 11
-547.7128721803124
 21
-335.2356597668459
 31
0.0
  0
LINE
  5
E9
330
1F
100
AcDbEntity
  8
D-0_通り芯
  6
Continuous
 62
     3
370
     9
100
AcDbLine
 10
-429.3942272376329
 20
-350.2358577187033
 30
0.0
 11
-428.1748362065697
 21
-349.0164666876401
 31
0.0
  0
LINE
  5
EA
330
1F
100
AcDbEntity
  8
D-0_通り芯
  6
Continuous
 62
     3
370
     9
100
AcDbLine
 10
-433.6368679247529
 20
-350.2358577187033
 30
0.0
 11
-427.0197345991767
 21
-343.618724393127
 31
0.0
  0
LINE
  5
EB
330
1F
100
AcDbEntity
  8
D-0_通り芯
  6
Continuous
 62
     3
370
     9
100
AcDbLine
 10
-437.8795086118732
 20
-350.2358577187033
 30
0.0
 11
-425.8646329917833
 21
-338.2209820986137
 31
0.0
  0
LINE
  5
EC
330
1F
100
AcDbEntity
  8
D-0_通り芯
  6
Continuous
 62
     3
370
     9
100
AcDbLine
 10
-442.1221492989932
 20
-350.2358577187035
 30
0.0
 11
-427.1219513471375
 21
-335.2356597668478
 31
0.0
  0
LINE
  5
ED
330
1F
100
AcDbEntity
  8
D-0_通り芯
  6
Continuous
 62
     3
370
     9
100
AcDbLine
 10
-443.0704109211027
 20
-346.9414786536931
 30
0.0
 11
-431.3645920342565
 21
-335.2356597668469
 31
0.0
  0
LINE
  5
EE
330
1F
100
AcDbEntity
  8
D-0_通り芯
  6
Continuous
 62
     3
370
     9
100
AcDbLine
 10
-441.9153093137114
 20
-341.5437363591817
 30
0.0
 11
-435.6072327213758
 21
-335.2356597668462
 31
0.0
  0
LINE
  5
EF
330
1F
100
AcDbEntity
  8
D-0_通り芯
  6
Continuous
 62
     3
370
     9
100
AcDbLine
 10
-440.7602077063153
 20
-336.1459940646657
 30
0.0
 11
-439.8498734084982
 21
-335.2356597668485
 31
0.0
  0
LINE
  5
F0
330
1F
100
AcDbEntity
  8
D-0_通り芯
  6
Continuous
 62
     3
370
     9
100
AcDbLine
 10
-463.3353527345926
 20
-350.235857718703
 30
0.0
 11
-460.6418094035178
 21
-347.542314387628
 31
0.0
  0
LINE
  5
F1
330
1F
100
AcDbEntity
  8
D-0_通り芯
  6
Continuous
 62
     3
370
     9
100
AcDbLine
 10
-467.5779934216999
 20
-350.2358577187013
 30
0.0
 11
-461.3896802746435
 21
-344.0475445716445
 31
0.0
  0
LINE
  5
F2
330
1F
100
AcDbEntity
  8
D-0_通り芯
  6
Continuous
 62
     3
370
     9
100
AcDbLine
 10
-471.8206341088193
 20
-350.2358577187005
 30
0.0
 11
-462.1375511457703
 21
-340.5527747556516
 31
0.0
  0
LINE
  5
F3
330
1F
100
AcDbEntity
  8
D-0_通り芯
  6
Continuous
 62
     3
370
     9
100
AcDbLine
 10
-475.5210496757492
 20
-349.6936325985105
 30
0.0
 11
-462.8854220168978
 21
-337.0580049396588
 31
0.0
  0
LINE
  5
F4
330
1F
100
AcDbEntity
  8
D-0_通り芯
  6
Continuous
 62
     3
370
     9
100
AcDbLine
 10
-476.2689205468763
 20
-346.1988627825176
 30
0.0
 11
-465.3057175312042
 21
-335.2356597668454
 31
0.0
  0
LINE
  5
F5
330
1F
100
AcDbEntity
  8
D-0_通り芯
  6
Continuous
 62
     3
370
     9
100
AcDbLine
 10
-477.0167914180024
 20
-342.7040929665237
 30
0.0
 11
-469.5483582183242
 21
-335.2356597668455
 31
0.0
  0
LINE
  5
F6
330
1F
100
AcDbEntity
  8
D-0_通り芯
  6
Continuous
 62
     3
370
     9
100
AcDbLine
 10
-477.7646622891302
 20
-339.2093231505312
 30
0.0
 11
-473.7909989054452
 21
-335.2356597668465
 31
0.0
  0
LINE
  5
F7
330
1F
100
AcDbEntity
  8
D-0_通り芯
  6
Continuous
 62
     3
370
     9
100
AcDbLine
 10
-478.5125331602574
 20
-335.7145533345387
 30
0.0
 11
-478.0336395925646
 21
-335.2356597668459
 31
0.0
  0
LINE
  5
F8
330
1F
100
AcDbEntity
  8
D-0_通り芯
  6
Continuous
 62
     3
370
     9
100
AcDbLine
 10
-408.0854297013821
 20
-339.2093231505312
 30
0.0
 11
-404.1117663176974
 21
-335.2356597668465
 31
0.0
  0
LINE
  5
F9
330
1F
100
AcDbEntity
  8
D-0_通り芯
  6
Continuous
 62
     3
370
     9
100
AcDbLine
 10
-408.8333005725095
 20
-335.7145533345387
 30
0.0
 11
-408.3544070048167
 21
-335.2356597668459
 31
0.0
  0
LINE
  5
FA
330
1F
100
AcDbEntity
  8
D-0_通り芯
  6
Continuous
 62
     3
370
     9
100
AcDbLine
 10
-638.431925000875
 20
-350.2358577187033
 30
0.0
 11
-637.2125339698118
 21
-349.0164666876401
 31
0.0
  0
LINE
  5
FB
330
1F
100
AcDbEntity
  8
D-0_通り芯
  6
Continuous
 62
     3
370
     9
100
AcDbLine
 10
-641.5996313251849
 20
-349.1609233558931
 30
0.0
 11
-636.0574323624185
 21
-343.618724393127
 31
0.0
  0
LINE
  5
FC
330
1F
100
AcDbEntity
  8
D-0_通り芯
  6
Continuous
 62
     3
370
     9
100
AcDbLine
 10
-641.5996313251849
 20
-344.9182826687731
 30
0.0
 11
-634.9023307550254
 21
-338.2209820986137
 31
0.0
  0
LINE
  5
FD
330
1F
100
AcDbEntity
  8
D-0_通り芯
  6
Continuous
 62
     3
370
     9
100
AcDbLine
 10
-641.5996313251849
 20
-340.6756419816531
 30
0.0
 11
-636.1596491103793
 21
-335.2356597668478
 31
0.0
  0
LINE
  5
FE
330
1F
100
AcDbEntity
  8
D-0_通り芯
  6
Continuous
 62
     3
370
     9
100
AcDbLine
 10
-641.5996313251849
 20
-336.4330012945331
 30
0.0
 11
-640.4022897974986
 21
-335.2356597668469
 31
0.0
  0
LINE
  5
FF
330
1F
100
AcDbEntity
  8
D-0_通り芯
  6
Continuous
 62
     3
370
     9
100
AcDbLine
 10
-401.5996313251849
 20
-335.2356597668469
 30
0.0
 11
-641.5996313251849
 21
-335.2356597668469
 31
0.0
  0
LINE
  5
100
330
1F
100
AcDbEntity
  8
D-0_通り芯
  6
Continuous
 62
     3
370
     9
100
AcDbLine
 10
-401.5996313251849
 20
-350.235857718705
 30
0.0
 11
-641.5996313251849
 21
-350.235857718705
 31
0.0
  0
LINE
  5
101
330
1F
100
AcDbEntity
  8
D-0_通り芯
  6
Continuous
 62
     3
370
     9
100
AcDbLine
 10
-405.8418170880013
 20
-349.6936325985105
 30
0.0
 11
-401.5996313251849
 21
-345.451446835694
 31
0.0
  0
LINE
  5
102
330
1F
100
AcDbEntity
  8
D-0_通り芯
  6
Continuous
 62
     3
370
     9
100
AcDbLine
 10
-406.5896879591285
 20
-346.1988627825176
 30
0.0
 11
-401.5996313251849
 21
-341.208806148574
 31
0.0
  0
LINE
  5
103
330
1F
100
AcDbEntity
  8
D-0_通り芯
  6
Continuous
 62
     3
370
     9
100
AcDbLine
 10
-407.3375588302542
 20
-342.7040929665237
 30
0.0
 11
-401.5996313251849
 21
-336.966165461454
 31
0.0
  0
LINE
  5
104
330
1F
100
AcDbEntity
  8
D-0_通り芯
  6
Continuous
 62
     3
370
     9
100
AcDbLine
 10
-402.1414015210711
 20
-350.2358577187005
 30
0.0
 11
-401.5996313251849
 21
-349.694087522814
 31
0.0
  0
LINE
  5
105
330
1F
100
AcDbEntity
  8
D-4_寸法
  6
Continuous
 62
     7
370
     9
100
AcDbLine
 10
-326.5997303011136
 20
-383.235857718705
 30
0.0
 11
-311.7280573805064
 21
-381.2779648354042
 31
0.0
  0
LINE
  5
106
330
1F
100
AcDbEntity
  8
D-4_寸法
  6
Continuous
 62
     7
370
     9
100
AcDbLine
 10
-326.5997303011136
 20
-383.235857718705
 30
0.0
 11
-311.7280573805064
 21
-385.1937506020058
 31
0.0
  0
LINE
  5
107
330
1F
100
AcDbEntity
  8
D-4_寸法
  6
Continuous
 62
     7
370
     9
100
AcDbLine
 10
-341.5996313251849
 20
-383.235857718705
 30
0.0
 11
-356.4713042457921
 21
-381.2779648354042
 31
0.0
  0
LINE
  5
108
330
1F
100
AcDbEntity
  8
D-4_寸法
  6
Continuous
 62
     7
370
     9
100
AcDbLine
 10
-341.5996313251849
 20
-383.235857718705
 30
0.0
 11
-356.4713042457921
 21
-385.1937506020058
 31
0.0
  0
LINE
  5
109
330
1F
100
AcDbEntity
  8
D-4_寸法
  6
Continuous
 62
     7
370
     9
100
AcDbLine
 10
-326.5997303011136
 20
-381.4358577187049
 30
0.0
 11
-326.5997303011136
 21
-398.235857718705
 31
0.0
  0
LINE
  5
10A
330
1F
100
AcDbEntity
  8
D-4_寸法
  6
Continuous
 62
     7
370
     9
100
AcDbLine
 10
-341.5996313251849
 20
-381.4358577187049
 30
0.0
 11
-341.5996313251849
 21
-398.235857718705
 31
0.0
  0
LINE
  5
10B
330
1F
100
AcDbEntity
  8
D-4_寸法
  6
Continuous
 62
     7
370
     9
100
AcDbLine
 10
-341.5996313251849
 20
-383.235857718705
 30
0.0
 11
-359.5996313251849
 21
-383.235857718705
 31
0.0
  0
LINE
  5
10C
330
1F
100
AcDbEntity
  8
D-4_寸法
  6
Continuous
 62
     7
370
     9
100
AcDbLine
 10
-326.5997303011136
 20
-383.235857718705
 30
0.0
 11
-308.5997303011136
 21
-383.235857718705
 31
0.0
  0
LINE
  5
10D
330
1F
100
AcDbEntity
  8
D-4_寸法
  6
Continuous
 62
     7
370
     9
100
AcDbLine
 10
-452.5320633015849
 20
-385.4388243154415
 30
0.0
 11
-438.3993538231308
 21
-380.4122426939406
 31
0.0
  0
LINE
  5
10E
330
1F
100
AcDbEntity
  8
D-4_寸法
  6
Continuous
 62
     7
370
     9
100
AcDbLine
 10
-452.5320633015849
 20
-385.4388243154415
 30
0.0
 11
-437.5799391654989
 21
-384.2413336812086
 31
0.0
  0
LINE
  5
10F
330
1F
100
AcDbEntity
  8
D-4_寸法
  6
Continuous
 62
     7
370
     9
100
AcDbLine
 10
-467.1999660502252
 20
-388.5777140803796
 30
0.0
 11
-482.1520901863112
 21
-389.7752047146124
 31
0.0
  0
LINE
  5
110
330
1F
100
AcDbEntity
  8
D-4_寸法
  6
Continuous
 62
     7
370
     9
100
AcDbLine
 10
-467.1999660502252
 20
-388.5777140803796
 30
0.0
 11
-481.3326755286796
 21
-393.6042957018805
 31
0.0
  0
LINE
  5
111
330
1F
100
AcDbEntity
  8
D-4_寸法
  6
Continuous
 62
     7
370
     9
100
AcDbLine
 10
-452.1553965297924
 20
-387.1989726452782
 30
0.0
 11
-457.5542869254863
 21
-361.9701799176172
 31
0.0
  0
LINE
  5
112
330
1F
100
AcDbEntity
  8
D-4_寸法
  6
Continuous
 62
     7
370
     9
100
AcDbLine
 10
-466.8232992784326
 20
-390.3378624102165
 30
0.0
 11
-472.8939032193604
 21
-361.9701799176172
 31
0.0
  0
LINE
  5
113
330
1F
100
AcDbEntity
  8
D-4_寸法
  6
Continuous
 62
     7
370
     9
100
AcDbLine
 10
-452.5320633015849
 20
-385.4388243154415
 30
0.0
 11
-434.930580003217
 21
-381.6721565975155
 31
0.0
  0
LINE
  5
114
330
1F
100
AcDbEntity
  8
D-4_寸法
  6
Continuous
 62
     7
370
     9
100
AcDbLine
 10
-467.1999660502252
 20
-388.5777140803796
 30
0.0
 11
-484.8014493485935
 21
-392.3443817983056
 31
0.0
  0
LINE
  5
115
330
1F
100
AcDbEntity
  8
D-4_寸法
  6
Continuous
 62
     7
370
     9
100
AcDbLine
 10
-668.5996313251849
 20
-335.2356597668469
 30
0.0
 11
-670.5575242084857
 21
-320.3639868462396
 31
0.0
  0
LINE
  5
116
330
1F
100
AcDbEntity
  8
D-4_寸法
  6
Continuous
 62
     7
370
     9
100
AcDbLine
 10
-668.5996313251849
 20
-335.2356597668469
 30
0.0
 11
-666.6417384418841
 21
-320.3639868462396
 31
0.0
  0
LINE
  5
117
330
1F
100
AcDbEntity
  8
D-4_寸法
  6
Continuous
 62
     7
370
     9
100
AcDbLine
 10
-668.5996313251849
 20
-350.235857718705
 30
0.0
 11
-670.5575242084857
 21
-365.1075306393122
 31
0.0
  0
LINE
  5
118
330
1F
100
AcDbEntity
  8
D-4_寸法
  6
Continuous
 62
     7
370
     9
100
AcDbLine
 10
-668.5996313251849
 20
-350.235857718705
 30
0.0
 11
-666.6417384418841
 21
-365.1075306393122
 31
0.0
  0
LINE
  5
119
330
1F
100
AcDbEntity
  8
D-4_寸法
  6
Continuous
 62
     7
370
     9
100
AcDbLine
 10
-670.3996313251846
 20
-335.2356597668469
 30
0.0
 11
-653.5996313251849
 21
-335.2356597668469
 31
0.0
  0
LINE
  5
11A
330
1F
100
AcDbEntity
  8
D-4_寸法
  6
Continuous
 62
     7
370
     9
100
AcDbLine
 10
-670.3996313251846
 20
-350.235857718705
 30
0.0
 11
-653.5996313251849
 21
-350.235857718705
 31
0.0
  0
LINE
  5
11B
330
1F
100
AcDbEntity
  8
D-4_寸法
  6
Continuous
 62
     7
370
     9
100
AcDbLine
 10
-668.5996313251849
 20
-350.235857718705
 30
0.0
 11
-668.5996313251849
 21
-368.235857718705
 31
0.0
  0
LINE
  5
11C
330
1F
100
AcDbEntity
  8
D-4_寸法
  6
Continuous
 62
     7
370
     9
100
AcDbLine
 10
-668.5996313251849
 20
-335.2356597668469
 30
0.0
 11
-668.5996313251849
 21
-317.2356597668469
 31
0.0
  0
LINE
  5
11D
330
1F
100
AcDbEntity
  8
D-4_寸法
  6
Continuous
 62
     7
370
     9
100
AcDbLine
 10
-440.5653987374368
 20
-308.2356597668469
 30
0.0
 11
-425.6937258168296
 21
-306.2777668835461
 31
0.0
  0
LINE
  5
11E
330
1F
100
AcDbEntity
  8
D-4_寸法
  6
Continuous
 62
     7
370
     9
100
AcDbLine
 10
-463.2753987374369
 20
-308.2356597668469
 30
0.0
 11
-478.1470716580438
 21
-306.2777668835461
 31
0.0
  0
LINE
  5
11F
330
1F
100
AcDbEntity
  8
D-4_寸法
  6
Continuous
 62
     7
370
     9
100
AcDbLine
 10
-440.5653987374368
 20
-306.4356597668468
 30
0.0
 11
-440.5653987374368
 21
-323.2356597668469
 31
0.0
  0
LINE
  5
120
330
1F
100
AcDbEntity
  8
D-4_寸法
  6
Continuous
 62
     7
370
     9
100
AcDbLine
 10
-463.2753987374369
 20
-306.4356597668468
 30
0.0
 11
-463.2753987374369
 21
-323.2356597668469
 31
0.0
  0
LINE
  5
121
330
1F
100
AcDbEntity
  8
D-4_寸法
  6
Continuous
 62
     7
370
     9
100
AcDbLine
 10
-463.2753987374369
 20
-308.2356597668469
 30
0.0
 11
-478.1470716580438
 21
-310.1935526501477
 31
0.0
  0
LINE
  5
122
330
1F
100
AcDbEntity
  8
D-4_寸法
  6
Continuous
 62
     7
370
     9
100
AcDbLine
 10
-440.5653987374368
 20
-308.2356597668469
 30
0.0
 11
-425.6937258168296
 21
-310.1935526501477
 31
0.0
  0
LINE
  5
123
330
1F
100
AcDbEntity
  8
D-4_寸法
  6
Continuous
 62
     7
370
     9
100
AcDbLine
 10
-548.2942476190589
 20
-308.2356597668469
 30
0.0
 11
-533.4225746984516
 21
-306.2777668835461
 31
0.0
  0
LINE
  5
124
330
1F
100
AcDbEntity
  8
D-4_寸法
  6
Continuous
 62
     7
370
     9
100
AcDbLine
 10
-548.2942476190589
 20
-308.2356597668469
 30
0.0
 11
-533.4225746984516
 21
-310.1935526501477
 31
0.0
  0
LINE
  5
125
330
1F
100
AcDbEntity
  8
D-4_寸法
  6
Continuous
 62
     7
370
     9
100
AcDbLine
 10
-564.5842476190587
 20
-308.2356597668469
 30
0.0
 11
-579.455920539666
 21
-306.2777668835461
 31
0.0
  0
LINE
  5
126
330
1F
100
AcDbEntity
  8
D-4_寸法
  6
Continuous
 62
     7
370
     9
100
AcDbLine
 10
-564.5842476190587
 20
-308.2356597668469
 30
0.0
 11
-579.455920539666
 21
-310.1935526501477
 31
0.0
  0
LINE
  5
127
330
1F
100
AcDbEntity
  8
D-4_寸法
  6
Continuous
 62
     7
370
     9
100
AcDbLine
 10
-548.2942476190589
 20
-306.4356597668468
 30
0.0
 11
-548.2942476190589
 21
-323.2356597668469
 31
0.0
  0
LINE
  5
128
330
1F
100
AcDbEntity
  8
D-4_寸法
  6
Continuous
 62
     7
370
     9
100
AcDbLine
 10
-564.5842476190587
 20
-306.4356597668468
 30
0.0
 11
-564.5842476190587
 21
-323.2356597668469
 31
0.0
  0
LINE
  5
129
330
1F
100
AcDbEntity
  8
D-4_寸法
  6
Continuous
 62
     7
370
     9
100
AcDbLine
 10
-564.5842476190587
 20
-308.2356597668469
 30
0.0
 11
-582.5842476190587
 21
-308.2356597668469
 31
0.0
  0
LINE
  5
12A
330
1F
100
AcDbEntity
  8
D-4_寸法
  6
Continuous
 62
     7
370
     9
100
AcDbLine
 10
-548.2942476190589
 20
-308.2356597668469
 30
0.0
 11
-530.2942476190589
 21
-308.2356597668469
 31
0.0
  0
LINE
  5
12B
330
1F
100
AcDbEntity
  8
D-4_寸法
  6
Continuous
 62
     7
370
     9
100
AcDbLine
 10
-440.5653987374368
 20
-308.2356597668469
 30
0.0
 11
-422.5653987374368
 21
-308.2356597668469
 31
0.0
  0
LINE
  5
12C
330
1F
100
AcDbEntity
  8
D-4_寸法
  6
Continuous
 62
     7
370
     9
100
AcDbLine
 10
-463.2753987374369
 20
-308.2356597668469
 30
0.0
 11
-481.2753987374369
 21
-308.2356597668469
 31
0.0
  0
LINE
  5
12D
330
1F
100
AcDbEntity
  8
D-4_寸法
  6
Continuous
 62
     7
370
     9
100
AcDbLine
 10
-269.5997303011136
 20
-414.7355014053603
 30
0.0
 11
-271.5576231844144
 21
-429.6071743259675
 31
0.0
  0
LINE
  5
12E
330
1F
100
AcDbEntity
  8
D-4_寸法
  6
Continuous
 62
     7
370
     9
100
AcDbLine
 10
-269.5997303011136
 20
-414.7355014053603
 30
0.0
 11
-267.6418374178128
 21
-429.6071743259675
 31
0.0
  0
LINE
  5
12F
330
1F
100
AcDbEntity
  8
D-4_寸法
  6
Continuous
 62
     7
370
     9
100
AcDbLine
 10
-267.7997303011135
 20
-414.7355014053603
 30
0.0
 11
-314.5997303011136
 21
-414.7355014053603
 31
0.0
  0
LINE
  5
130
330
1F
100
AcDbEntity
  8
D-0_通り芯
  6
Continuous
 62
     3
370
     9
100
AcDbLine
 10
-401.5996313251849
 20
-432.7355014053603
 30
0.0
 11
-641.5996313251849
 21
-432.7355014053603
 31
0.0
  0
LINE
  5
131
330
1F
100
AcDbEntity
  8
D-0_通り芯
  6
Continuous
 62
     3
370
     9
100
AcDbLine
 10
-401.5996313251849
 20
-435.7353628390597
 30
0.0
 11
-641.5996313251849
 21
-435.7353628390597
 31
0.0
  0
LINE
  5
132
330
1F
100
AcDbEntity
  8
D-0_通り芯
  6
Continuous
 62
     3
370
     9
100
AcDbLine
 10
-341.5996313251849
 20
-432.7355014053603
 30
0.0
 11
-341.5996313251849
 21
-414.7355014053603
 31
0.0
  0
LINE
  5
133
330
1F
100
AcDbEntity
  8
D-0_通り芯
  6
Continuous
 62
     3
370
     9
100
AcDbLine
 10
-341.5996313251849
 20
-432.7355014053603
 30
0.0
 11
-338.5997698914855
 21
-435.7353628390597
 31
0.0
  0
LINE
  5
134
330
1F
100
AcDbEntity
  8
D-0_通り芯
  6
Continuous
 62
     3
370
     9
100
AcDbLine
 10
-329.5998886626002
 20
-435.7353628390597
 30
0.0
 11
-326.5997303011136
 21
-432.7355014053603
 31
0.0
  0
LINE
  5
135
330
1F
100
AcDbEntity
  8
D-0_通り芯
  6
Continuous
 62
     3
370
     9
100
AcDbLine
 10
-326.5997303011136
 20
-414.7355014053603
 30
0.0
 11
-326.5997303011136
 21
-432.7355014053603
 31
0.0
  0
LINE
  5
136
330
1F
100
AcDbEntity
  8
D-0_通り芯
  6
Continuous
 62
     3
370
     9
100
AcDbLine
 10
-401.5996313251849
 20
-492.7357488451831
 30
0.0
 11
-641.5996313251849
 21
-492.7357488451831
 31
0.0
  0
LINE
  5
137
330
1F
100
AcDbEntity
  8
D-0_通り芯
  6
Continuous
 62
     3
370
     9
100
AcDbLine
 10
-401.5996313251849
 20
-489.7358874114838
 30
0.0
 11
-641.5996313251849
 21
-489.7358874114838
 31
0.0
  0
LINE
  5
138
330
1F
100
AcDbEntity
  8
D-0_通り芯
  6
Continuous
 62
     3
370
     9
100
AcDbLine
 10
-326.5997303011136
 20
-492.7357488451831
 30
0.0
 11
-326.5997303011136
 21
-510.7357488451831
 31
0.0
  0
LINE
  5
139
330
1F
100
AcDbEntity
  8
D-0_通り芯
  6
Continuous
 62
     3
370
     9
100
AcDbLine
 10
-329.5998886626002
 20
-489.7355904836966
 30
0.0
 11
-326.5997303011136
 21
-492.7357488451831
 31
0.0
  0
LINE
  5
13A
330
1F
100
AcDbEntity
  8
D-0_通り芯
  6
Continuous
 62
     3
370
     9
100
AcDbLine
 10
-341.5996313251849
 20
-510.7357488451831
 30
0.0
 11
-341.5996313251849
 21
-492.7357488451831
 31
0.0
  0
LINE
  5
13B
330
1F
100
AcDbEntity
  8
D-0_通り芯
  6
Continuous
 62
     3
370
     9
100
AcDbLine
 10
-341.5996313251849
 20
-492.7357488451831
 30
0.0
 11
-338.5997698914855
 21
-489.7355904836966
 31
0.0
  0
LINE
  5
13C
330
1F
100
AcDbEntity
  8
D-0_通り芯
  6
Continuous
 62
     3
370
     9
100
AcDbLine
 10
-338.5997698914855
 20
-489.7355904836966
 30
0.0
 11
-338.5997698914855
 21
-435.7353628390597
 31
0.0
  0
LINE
  5
13D
330
1F
100
AcDbEntity
  8
D-0_通り芯
  6
Continuous
 62
     3
370
     9
100
AcDbLine
 10
-329.5998886626002
 20
-435.7353628390597
 30
0.0
 11
-329.5998886626002
 21
-489.7355904836966
 31
0.0
  0
LINE
  5
13E
330
1F
100
AcDbEntity
  8
D-4_寸法
  6
Continuous
 62
     7
370
     9
100
AcDbLine
 10
-329.5998886626002
 20
-477.7354766613781
 30
0.0
 11
-338.5997698914855
 21
-477.7354766613781
 31
0.0
  0
LINE
  5
13F
330
1F
100
AcDbEntity
  8
D-4_寸法
  6
Continuous
 62
     7
370
     9
100
AcDbLine
 10
-329.5998886626002
 20
-477.7354766613781
 30
0.0
 11
-314.7282157419929
 21
-475.7775837780773
 31
0.0
  0
LINE
  5
140
330
1F
100
AcDbEntity
  8
D-4_寸法
  6
Continuous
 62
     7
370
     9
100
AcDbLine
 10
-329.5998886626002
 20
-477.7354766613781
 30
0.0
 11
-314.7282157419929
 21
-479.6933695446789
 31
0.0
  0
LINE
  5
141
330
1F
100
AcDbEntity
  8
D-4_寸法
  6
Continuous
 62
     7
370
     9
100
AcDbLine
 10
-338.5997698914855
 20
-477.7354766613781
 30
0.0
 11
-353.4714428120927
 21
-475.7775837780773
 31
0.0
  0
LINE
  5
142
330
1F
100
AcDbEntity
  8
D-4_寸法
  6
Continuous
 62
     7
370
     9
100
AcDbLine
 10
-338.5997698914855
 20
-477.7354766613781
 30
0.0
 11
-353.4714428120927
 21
-479.6933695446789
 31
0.0
  0
TEXT
  5
143
330
1F
100
AcDbEntity
  8
D-4_寸法
  6
Continuous
 62
     2
370
   211
100
AcDbText
 10
-325.099829277043
 20
-470.7514766613782
 30
0.0
 40
18.288
  1
3
  7
ＭＳ ゴシック
100
AcDbText
  0
LINE
  5
144
330
1F
100
AcDbEntity
  8
D-4_寸法
  6
Continuous
 62
     7
370
     9
100
AcDbLine
 10
-338.5997698914855
 20
-477.7354766613781
 30
0.0
 11
-356.5997698914855
 21
-477.7354766613781
 31
0.0
  0
LINE
  5
145
330
1F
100
AcDbEntity
  8
D-4_寸法
  6
Continuous
 62
     7
370
     9
100
AcDbLine
 10
-329.5998886626002
 20
-477.7354766613781
 30
0.0
 11
-305.5998886626002
 21
-477.7354766613781
 31
0.0
  0
TEXT
  5
146
330
1F
100
AcDbEntity
  8
D-4_寸法
  6
Continuous
 62
     2
370
     9
100
AcDbText
 10
327.5802405785436
 20
-570.5975167642715
 30
0.0
 40
18.288
  1
処理：樹脂系塗装
 41
1.109375
  7
ＭＳ ゴシック
100
AcDbText
  0
LINE
  5
147
330
1F
100
AcDbEntity
  8
D-4_寸法
  6
Continuous
 62
     7
370
     9
100
AcDbLine
 10
-326.5997303011136
 20
-383.235857718705
 30
0.0
 11
-341.5996313251849
 21
-383.235857718705
 31
0.0
  0
TEXT
  5
148
330
1F
100
AcDbEntity
  8
D-4_寸法
  6
Continuous
 62
     2
370
   211
100
AcDbText
 10
-340.0996808131492
 20
-376.2518577187051
 30
0.0
 40
18.288
  1
5
  7
ＭＳ ゴシック
100
AcDbText
  0
LINE
  5
149
330
1F
100
AcDbEntity
  8
D-4_寸法
  6
Continuous
 62
     7
370
     9
100
AcDbLine
 10
-452.5320633015849
 20
-385.4388243154415
 30
0.0
 11
-467.1999660502252
 21
-388.5777140803796
 31
0.0
  0
TEXT
  5
14A
330
1F
100
AcDbEntity
  8
D-4_寸法
  6
Continuous
 62
     2
370
   211
100
AcDbText
 10
-467.1946428499163
 20
-381.4344495841189
 30
0.0
 40
18.288
  1
5
 50
12.07894990907533
 41
0.9999999999999755
  7
ＭＳ ゴシック
100
AcDbText
  0
LINE
  5
14B
330
1F
100
AcDbEntity
  8
D-4_寸法
  6
Continuous
 62
     7
370
     9
100
AcDbLine
 10
-668.5996313251849
 20
-335.2356597668469
 30
0.0
 11
-668.5996313251849
 21
-350.235857718705
 31
0.0
  0
TEXT
  5
14C
330
1F
100
AcDbEntity
  8
D-4_寸法
  6
Continuous
 62
     2
370
   211
100
AcDbText
 10
-675.5836313251847
 20
-348.7357587427759
 30
0.0
 40
18.288
  1
5
 50
90.0
  7
ＭＳ ゴシック
100
AcDbText
  0
LINE
  5
14D
330
1F
100
AcDbEntity
  8
D-4_寸法
  6
Continuous
 62
     7
370
     9
100
AcDbLine
 10
-440.5653987374368
 20
-308.2356597668469
 30
0.0
 11
-463.2753987374369
 21
-308.2356597668469
 31
0.0
  0
TEXT
  5
14E
330
1F
100
AcDbEntity
  8
D-4_寸法
  6
Continuous
 62
     2
370
   211
100
AcDbText
 10
-471.4203987374367
 20
-301.251659766847
 30
0.0
 40
18.288
  1
7.6
 41
1.083333333333333
  7
ＭＳ ゴシック
100
AcDbText
  0
LINE
  5
14F
330
1F
100
AcDbEntity
  8
D-4_寸法
  6
Continuous
 62
     7
370
     9
100
AcDbLine
 10
-548.2942476190589
 20
-308.2356597668469
 30
0.0
 11
-564.5842476190587
 21
-308.2356597668469
 31
0.0
  0
TEXT
  5
150
330
1F
100
AcDbEntity
  8
D-4_寸法
  6
Continuous
 62
     2
370
   211
100
AcDbText
 10
-575.939247619059
 20
-301.251659766847
 30
0.0
 40
18.288
  1
5.4
 41
1.083333333333333
  7
ＭＳ ゴシック
100
AcDbText
  0
LINE
  5
151
330
1F
100
AcDbEntity
  8
D-4_寸法
  6
Continuous
 62
     7
370
     9
100
AcDbLine
 10
-269.5997303011136
 20
-510.7357488451831
 30
0.0
 11
-269.5997303011136
 21
-414.7355014053603
 31
0.0
  0
TEXT
  5
152
330
1F
100
AcDbEntity
  8
D-4_寸法
  6
Continuous
 62
     2
370
   211
100
AcDbText
 10
-276.5837303011137
 20
-475.4856251252718
 30
0.0
 40
18.288
  1
32
 50
90.0
 41
1.0625
  7
ＭＳ ゴシック
100
AcDbText
  0
LINE
  5
153
330
1F
100
AcDbEntity
  8
A-2_蓋
  6
Continuous
 62
     3
370
     9
100
AcDbLine
 10
494.9720887880069
 20
453.322640435695
 30
0.0
 11
490.7292876372466
 21
449.0799877488284
 31
0.0
  0
LINE
  5
154
330
1F
100
AcDbEntity
  8
A-2_蓋
  6
Continuous
 62
     3
370
     9
100
AcDbLine
 10
490.7292876372466
 20
449.0799877488284
 30
0.0
 11
486.4864864864866
 21
453.322640435695
 31
0.0
  0
LINE
  5
155
330
1F
100
AcDbEntity
  8
A-2_蓋
  6
Continuous
 62
     3
370
     9
100
AcDbLine
 10
486.4864864864866
 20
453.322640435695
 30
0.0
 11
490.7292876372466
 21
457.5652931225615
 31
0.0
  0
LINE
  5
156
330
1F
100
AcDbEntity
  8
A-2_蓋
  6
Continuous
 62
     3
370
     9
100
AcDbLine
 10
490.7292876372466
 20
457.5652931225615
 30
0.0
 11
494.9720887880069
 21
453.322640435695
 31
0.0
  0
LINE
  5
157
330
1F
100
AcDbEntity
  8
A-2_蓋
  6
Continuous
 62
     3
370
     9
100
AcDbLine
 10
486.4864864864866
 20
528.3225909477304
 30
0.0
 11
511.4866184543919
 21
528.3225909477304
 31
0.0
  0
LINE
  5
158
330
1F
100
AcDbEntity
  8
A-2_蓋
  6
Continuous
 62
     3
370
     9
100
AcDbLine
 10
486.4864864864866
 20
523.8226503332878
 30
0.0
 11
518.4863941089528
 21
523.8226503332878
 31
0.0
  0
LINE
  5
159
330
1F
100
AcDbEntity
  8
A-1_ピット
  6
Continuous
 62
     2
370
     9
100
AcDbLine
 10
486.4864864864866
 20
534.8226371364973
 30
0.0
 11
486.4864864864866
 21
538.3226734276711
 31
0.0
  0
LINE
  5
15A
330
1F
100
AcDbEntity
  8
A-1_ピット
  6
Continuous
 62
     2
370
     9
100
AcDbLine
 10
520.9865260768581
 20
478.3229208674938
 30
0.0
 11
524.4867108319256
 21
478.3229208674938
 31
0.0
  0
LINE
  5
15B
330
1F
100
AcDbEntity
  8
A-1_ピット
  6
Continuous
 62
     2
370
     9
100
AcDbLine
 10
514.4867768158784
 20
532.3225051685918
 30
0.0
 11
488.9866184543919
 21
532.3225051685918
 31
0.0
  0
LINE
  5
15C
330
1F
100
AcDbEntity
  8
A-1_ピット
  6
Continuous
 62
     2
370
     9
100
AcDbLine
 10
518.48669103674
 20
528.3225909477304
 30
0.0
 11
518.48669103674
 21
480.8226074437185
 31
0.0
  0
LINE
  5
15D
330
1F
100
AcDbEntity
  8
A-1_ピット
  6
Continuous
 62
     2
370
     9
100
AcDbLine
 10
524.4867108319256
 20
538.3226734276711
 30
0.0
 11
486.4864864864866
 21
538.3226734276711
 31
0.0
  0
LINE
  5
15E
330
1F
100
AcDbEntity
  8
A-1_ピット
  6
Continuous
 62
     2
370
     9
100
AcDbLine
 10
504.4865458720441
 20
538.3226734276711
 30
0.0
 11
504.4865458720441
 21
547.3225546565563
 31
0.0
  0
LINE
  5
15F
330
1F
100
AcDbEntity
  8
A-1_ピット
  6
Continuous
 62
     2
370
     9
100
AcDbLine
 10
518.3017050253378
 20
547.3225546565563
 30
0.0
 11
504.4865458720441
 21
547.3225546565563
 31
0.0
  0
LINE
  5
160
330
1F
100
AcDbEntity
  8
A-1_ピット
  6
Continuous
 62
     2
370
     9
100
AcDbLine
 10
522.9605020059122
 20
538.9361262359482
 30
0.0
 11
581.1512220228041
 21
554.5283981954078
 31
0.0
  0
LINE
  5
161
330
1F
100
AcDbEntity
  8
A-1_ピット
  6
Continuous
 62
     2
370
     9
100
AcDbLine
 10
520.631103515625
 20
547.6297264523755
 30
0.0
 11
578.8221204603041
 21
563.2217014840479
 31
0.0
  0
LINE
  5
162
330
1F
100
AcDbEntity
  8
A-1_ピット
  6
JWW_CENTER1
 62
     2
370
     9
100
AcDbLine
 10
518.3017050253378
 20
542.822910969901
 30
0.0
 11
500.6817132073481
 21
542.822910969901
 31
0.0
  0
LINE
  5
163
330
1F
100
AcDbEntity
  8
A-1_ピット
  6
JWW_CENTER1
 62
     2
370
     9
100
AcDbLine
 10
521.795654296875
 20
543.2828521122151
 30
0.0
 11
586.9623957453547
 21
560.7441360279668
 31
0.0
  0
LINE
  5
164
330
1F
100
AcDbEntity
  8
A-2_蓋
  6
Continuous
 62
     3
370
     9
100
AcDbLine
 10
493.4865590688347
 20
523.8226503332878
 30
0.0
 11
493.4865590688347
 21
454.8080216909735
 31
0.0
  0
LINE
  5
165
330
1F
100
AcDbEntity
  8
A-2_蓋
  6
Continuous
 62
     3
370
     9
100
AcDbLine
 10
492.4865062816725
 20
523.8226503332878
 30
0.0
 11
492.4865062816725
 21
455.8079260142421
 31
0.0
  0
LINE
  5
166
330
1F
100
AcDbEntity
  8
A-2_蓋
  6
Continuous
 62
     3
370
     9
100
AcDbLine
 10
494.9720887880069
 20
353.3227064196477
 30
0.0
 11
490.7292876372466
 21
349.0800537327811
 31
0.0
  0
LINE
  5
167
330
1F
100
AcDbEntity
  8
A-2_蓋
  6
Continuous
 62
     3
370
     9
100
AcDbLine
 10
490.7292876372466
 20
349.0800537327811
 30
0.0
 11
486.4864864864866
 21
353.3227064196477
 31
0.0
  0
LINE
  5
168
330
1F
100
AcDbEntity
  8
A-2_蓋
  6
Continuous
 62
     3
370
     9
100
AcDbLine
 10
486.4864864864866
 20
353.3227064196477
 30
0.0
 11
490.7292876372466
 21
357.5653591065142
 31
0.0
  0
LINE
  5
169
330
1F
100
AcDbEntity
  8
A-2_蓋
  6
Continuous
 62
     3
370
     9
100
AcDbLine
 10
490.7292876372466
 20
357.5653591065142
 30
0.0
 11
494.9720887880069
 21
353.3227064196477
 31
0.0
  0
LINE
  5
16A
330
1F
100
AcDbEntity
  8
A-2_蓋
  6
Continuous
 62
     3
370
     9
100
AcDbLine
 10
494.9720887880069
 20
253.3226981716536
 30
0.0
 11
490.7292876372466
 21
249.0799712528402
 31
0.0
  0
LINE
  5
16B
330
1F
100
AcDbEntity
  8
A-2_蓋
  6
Continuous
 62
     3
370
     9
100
AcDbLine
 10
490.7292876372466
 20
249.0799712528402
 30
0.0
 11
486.4864864864866
 21
253.3226981716536
 31
0.0
  0
LINE
  5
16C
330
1F
100
AcDbEntity
  8
A-2_蓋
  6
Continuous
 62
     3
370
     9
100
AcDbLine
 10
486.4864864864866
 20
253.3226981716536
 30
0.0
 11
490.7292876372466
 21
257.5653508585202
 31
0.0
  0
LINE
  5
16D
330
1F
100
AcDbEntity
  8
A-2_蓋
  6
Continuous
 62
     3
370
     9
100
AcDbLine
 10
490.7292876372466
 20
257.5653508585202
 30
0.0
 11
494.9720887880069
 21
253.3226981716536
 31
0.0
  0
LINE
  5
16E
330
1F
100
AcDbEntity
  8
A-2_蓋
  6
Continuous
 62
     3
370
     9
100
AcDbLine
 10
492.4865062816725
 20
450.8373548571476
 30
0.0
 11
492.4865062816725
 21
355.8081404620886
 31
0.0
  0
LINE
  5
16F
330
1F
100
AcDbEntity
  8
A-2_蓋
  6
Continuous
 62
     3
370
     9
100
AcDbLine
 10
492.4865062816725
 20
350.8372723772067
 30
0.0
 11
492.4865062816725
 21
255.8080579821477
 31
0.0
  0
LINE
  5
170
330
1F
100
AcDbEntity
  8
A-2_蓋
  6
Continuous
 62
     3
370
     9
100
AcDbLine
 10
493.4865590688347
 20
451.8372591804162
 30
0.0
 11
493.4865590688347
 21
354.8080876749264
 31
0.0
  0
LINE
  5
171
330
1F
100
AcDbEntity
  8
A-2_蓋
  6
Continuous
 62
     3
370
     9
100
AcDbLine
 10
493.4865590688347
 20
351.8373251643689
 30
0.0
 11
493.4865590688347
 21
254.8080051949855
 31
0.0
  0
LINE
  5
172
330
1F
100
AcDbEntity
  8
A-2_蓋
  6
Continuous
 62
     3
370
     9
100
AcDbLine
 10
494.9720887880069
 20
153.3225414597659
 30
0.0
 11
490.7292876372466
 21
157.5652683785792
 31
0.0
  0
LINE
  5
173
330
1F
100
AcDbEntity
  8
A-2_蓋
  6
Continuous
 62
     3
370
     9
100
AcDbLine
 10
490.7292876372466
 20
157.5652683785792
 30
0.0
 11
486.4864864864866
 21
153.3225414597659
 31
0.0
  0
LINE
  5
174
330
1F
100
AcDbEntity
  8
A-2_蓋
  6
Continuous
 62
     3
370
     9
100
AcDbLine
 10
486.4864864864866
 20
153.3225414597659
 30
0.0
 11
490.7292876372466
 21
149.0799630048461
 31
0.0
  0
LINE
  5
175
330
1F
100
AcDbEntity
  8
A-2_蓋
  6
Continuous
 62
     3
370
     9
100
AcDbLine
 10
490.7292876372466
 20
149.0799630048461
 30
0.0
 11
494.9720887880069
 21
153.3225414597659
 31
0.0
  0
LINE
  5
176
330
1F
100
AcDbEntity
  8
A-2_蓋
  6
Continuous
 62
     3
370
     9
100
AcDbLine
 10
492.4865062816725
 20
155.8079755022067
 30
0.0
 11
492.4865062816725
 21
250.8371898972659
 31
0.0
  0
LINE
  5
177
330
1F
100
AcDbEntity
  8
A-2_蓋
  6
Continuous
 62
     3
370
     9
100
AcDbLine
 10
493.4865590688347
 20
154.8079227150445
 30
0.0
 11
493.4865590688347
 21
251.837242684428
 31
0.0
  0
LINE
  5
178
330
1F
100
AcDbEntity
  8
A-4_寸法
  6
Continuous
 62
     7
370
     9
100
AcDbLine
 10
478.9866844383447
 20
528.3225909477304
 30
0.0
 11
406.2019636824325
 21
528.3225909477304
 31
0.0
  0
LINE
  5
179
330
1F
100
AcDbEntity
  8
A-4_寸法
  6
Continuous
 62
     7
370
     9
100
AcDbLine
 10
481.48681640625
 20
532.3225051685918
 30
0.0
 11
406.2019636824325
 21
532.3225051685918
 31
0.0
  0
LINE
  5
17A
330
1F
100
AcDbEntity
  8
A-4_寸法
  6
Continuous
 62
     7
370
     9
100
AcDbLine
 10
478.9866844383447
 20
538.3226734276711
 30
0.0
 11
346.4522243190456
 21
538.3226734276711
 31
0.0
  0
LINE
  5
17B
330
1F
100
AcDbEntity
  8
A-4_寸法
  6
Continuous
 62
     7
370
     9
100
AcDbLine
 10
531.9868098078547
 20
478.3229208674938
 30
0.0
 11
635.9866580447638
 21
478.3229208674938
 31
0.0
  0
LINE
  5
17C
330
1F
100
AcDbEntity
  8
A-4_寸法
  6
Continuous
 62
     7
370
     9
100
AcDbLine
 10
531.9868098078547
 20
538.3226734276711
 30
0.0
 11
635.9866580447638
 21
538.3226734276711
 31
0.0
  0
ARC
  5
17D
330
1F
100
AcDbEntity
  8
A-1_ピット
  6
Continuous
 62
     2
370
     9
100
AcDbCircle
 10
488.9866184543919
 20
534.8226371364973
 30
0.0
 40
2.500000032218727
100
AcDbArc
 50
180.0
 51
270.0
  0
ARC
  5
17E
330
1F
100
AcDbEntity
  8
A-1_ピット
  6
Continuous
 62
     2
370
     9
100
AcDbCircle
 10
520.9865260768581
 20
480.8226074437185
 30
0.0
 40
2.500000032218727
100
AcDbArc
 50
180.0
 51
270.0
  0
ARC
  5
17F
330
1F
100
AcDbEntity
  8
A-1_ピット
  6
Continuous
 62
     2
370
     9
100
AcDbCircle
 10
514.4867768158784
 20
528.3225909477304
 30
0.0
 40
3.999999761581421
100
AcDbArc
 50
0.0
 51
90.0
  0
ARC
  5
180
330
1F
100
AcDbEntity
  8
A-1_ピット
  6
Continuous
 62
     2
370
     9
100
AcDbCircle
 10
518.3017050253378
 20
556.3225843493351
 30
0.0
 40
18.00000023197483
100
AcDbArc
 50
270.0
 51
285.0
  0
ARC
  5
181
330
1F
100
AcDbEntity
  8
A-1_ピット
  6
Continuous
 62
     2
370
     9
100
AcDbCircle
 10
579.9866712415541
 20
558.874975607781
 30
0.0
 40
4.500000057993709
100
AcDbArc
 50
285.0001373291016
 51
104.9999084472656
  0
ARC
  5
182
330
1F
100
AcDbEntity
  8
A-1_ピット
  6
JWW_CENTER1
 62
     2
370
     9
100
AcDbCircle
 10
518.3017050253378
 20
556.3225843493351
 30
0.0
 40
13.500002783698
100
AcDbArc
 50
270.0
 51
284.9999542236328
  0
ARC
  5
183
330
1F
100
AcDbEntity
  8
A-1_ピット
  6
Continuous
 62
     2
370
     9
100
AcDbCircle
 10
518.3017050253378
 20
556.3225843493351
 30
0.0
 40
9.000000115987417
100
AcDbArc
 50
270.0
 51
285.0000152587891
  0
TEXT
  5
184
330
1F
100
AcDbEntity
  8
A-4_寸法
  6
Continuous
 62
     2
370
   211
100
AcDbText
 10
399.3177791896334
 20
506.9245096131556
 30
0.0
 40
18.288
  1
4
 50
90.00000250447816
 41
1.000000000000001
  7
ＭＳ ゴシック
100
AcDbText
  0
TEXT
  5
185
330
1F
100
AcDbEntity
  8
A-4_寸法
  6
Continuous
 62
     2
370
     9
100
AcDbText
 10
399.3177791896334
 20
548.5160755443212
 30
0.0
 40
18.288
  1
6
 50
90.00000250447816
 41
1.000000000000001
  7
ＭＳ ゴシック
100
AcDbText
  0
TEXT
  5
186
330
1F
100
AcDbEntity
  8
A-4_寸法
  6
Continuous
 62
     2
370
     9
100
AcDbText
 10
626.1026124133168
 20
495.5726485357696
 30
0.0
 40
18.288
  1
60
 50
90.00000250447816
 41
1.062500000000001
  7
ＭＳ ゴシック
100
AcDbText
  0
LWPOLYLINE
  5
187
330
1F
100
AcDbEntity
  8
A-4_寸法
  6
Continuous
 62
     7
370
     9
100
AcDbPolyline
 90
        4
 70
     1
 43
1.2
 10
408.3017459353887
 20
528.3225909477304
 42
0.4142135623731
 10
407.7017459353888
 20
528.9225909477304
 42
0.4142135623731
 10
407.1017459353888
 20
528.3225909477304
 42
0.4142135623731
 10
407.7017459353888
 20
527.7225909477304
 42
0.4142135623731
  0
LWPOLYLINE
  5
188
330
1F
100
AcDbEntity
  8
A-4_寸法
  6
Continuous
 62
     7
370
     9
100
AcDbPolyline
 90
        4
 70
     1
 43
1.2
 10
408.3017459353887
 20
532.3225051685918
 42
0.4142135623731
 10
407.7017459353888
 20
532.9225051685918
 42
0.4142135623731
 10
407.1017459353888
 20
532.3225051685918
 42
0.4142135623731
 10
407.7017459353888
 20
531.7225051685919
 42
0.4142135623731
  0
LWPOLYLINE
  5
189
330
1F
100
AcDbEntity
  8
A-4_寸法
  6
Continuous
 62
     7
370
     9
100
AcDbPolyline
 90
        4
 70
     1
 43
1.2
 10
408.3017459353887
 20
538.3226734276711
 42
0.4142135623731
 10
407.7017459353888
 20
538.9226734276712
 42
0.4142135623731
 10
407.1017459353888
 20
538.3226734276711
 42
0.4142135623731
 10
407.7017459353888
 20
537.7226734276712
 42
0.4142135623731
  0
LWPOLYLINE
  5
18A
330
1F
100
AcDbEntity
  8
A-4_寸法
  6
Continuous
 62
     7
370
     9
100
AcDbPolyline
 90
        4
 70
     1
 43
1.2
 10
348.5520065720019
 20
538.3226734276711
 42
0.4142135623731
 10
347.9520065720019
 20
538.9226734276712
 42
0.4142135623731
 10
347.3520065720019
 20
538.3226734276711
 42
0.4142135623731
 10
347.9520065720019
 20
537.7226734276712
 42
0.4142135623731
  0
LWPOLYLINE
  5
18B
330
1F
100
AcDbEntity
  8
A-4_寸法
  6
Continuous
 62
     7
370
     9
100
AcDbPolyline
 90
        4
 70
     1
 43
1.2
 10
635.0865788640203
 20
478.3229208674938
 42
0.4142135623731
 10
634.4865788640203
 20
478.9229208674938
 42
0.4142135623731
 10
633.8865788640203
 20
478.3229208674938
 42
0.4142135623731
 10
634.4865788640203
 20
477.7229208674939
 42
0.4142135623731
  0
LWPOLYLINE
  5
18C
330
1F
100
AcDbEntity
  8
A-4_寸法
  6
Continuous
 62
     7
370
     9
100
AcDbPolyline
 90
        4
 70
     1
 43
1.2
 10
635.0865788640203
 20
538.3226734276711
 42
0.4142135623731
 10
634.4865788640203
 20
538.9226734276712
 42
0.4142135623731
 10
633.8865788640203
 20
538.3226734276711
 42
0.4142135623731
 10
634.4865788640203
 20
537.7226734276712
 42
0.4142135623731
  0
LINE
  5
18D
330
1F
100
AcDbEntity
  8
A-1_ピット
  6
Continuous
 62
     2
370
     9
100
AcDbLine
 10
524.4867108319256
 20
538.3226734276711
 30
0.0
 11
524.4867108319256
 21
478.3229208674938
 31
0.0
  0
LINE
  5
18E
330
1F
100
AcDbEntity
  8
A-4_寸法
  6
Continuous
 62
     7
370
     9
100
AcDbLine
 10
407.7017459353888
 20
528.3225909477304
 30
0.0
 11
407.7017459353888
 21
532.3225051685918
 31
0.0
  0
LINE
  5
18F
330
1F
100
AcDbEntity
  8
A-4_寸法
  6
Continuous
 62
     7
370
     9
100
AcDbLine
 10
407.7017459353888
 20
532.3225051685918
 30
0.0
 11
407.7017459353888
 21
562.7393935390488
 31
0.0
  0
LINE
  5
190
330
1F
100
AcDbEntity
  8
A-4_寸法
  6
Continuous
 62
     7
370
     9
100
AcDbLine
 10
634.4865788640203
 20
478.3229208674938
 30
0.0
 11
634.4865788640203
 21
538.3226734276711
 31
0.0
  0
LINE
  5
191
330
1F
100
AcDbEntity
  8
A-5_仕様文
  6
Continuous
 62
     7
370
     9
100
AcDbLine
 10
486.4864864864866
 20
538.3226734276711
 30
0.0
 11
416.8584050358953
 21
658.9227149975616
 31
0.0
  0
LINE
  5
192
330
1F
100
AcDbEntity
  8
A-5_仕様文
  6
Continuous
 62
     7
370
     9
100
AcDbLine
 10
582.2367900126691
 20
562.7721528142845
 30
0.0
 11
608.8816049936656
 21
658.9227149975616
 31
0.0
  0
LINE
  5
193
330
1F
100
AcDbEntity
  8
A-5_仕様文
  6
Continuous
 62
     7
370
     9
100
AcDbLine
 10
256.166134396115
 20
658.9227149975616
 30
0.0
 11
416.8584050358953
 21
658.9227149975616
 31
0.0
  0
LINE
  5
194
330
1F
100
AcDbEntity
  8
A-5_仕様文
  6
Continuous
 62
     7
370
     9
100
AcDbLine
 10
608.8816049936656
 20
658.9227149975616
 30
0.0
 11
747.3939637880069
 21
658.9227149975616
 31
0.0
  0
LINE
  5
195
330
1F
100
AcDbEntity
  8
A-5_仕様文
  6
Continuous
 62
     7
370
     9
100
AcDbLine
 10
582.2367900126691
 20
562.7721528142845
 30
0.0
 11
584.3215200063347
 21
577.6265592226459
 31
0.0
  0
LINE
  5
196
330
1F
100
AcDbEntity
  8
A-5_仕様文
  6
Continuous
 62
     7
370
     9
100
AcDbLine
 10
582.2367900126691
 20
562.7721528142845
 30
0.0
 11
588.0948783255913
 21
576.5807795562607
 31
0.0
  0
TEXT
  5
197
330
1F
100
AcDbEntity
  8
A-5_仕様文
  6
Continuous
 62
     7
370
     9
100
AcDbText
 10
252.409379288957
 20
634.6554105476037
 30
0.0
 40
13.716
  1
（四方受四方枠）
 41
1.145833333333333
  7
ＭＳ ゴシック
100
AcDbText
  0
TEXT
  5
198
330
1F
100
AcDbEntity
  8
A-5_仕様文
  6
Continuous
 62
     7
370
   211
100
AcDbText
 10
262.1768584380279
 20
669.9679930275447
 30
0.0
 40
13.716
  1
受枠：Ｌ－３２
 41
1.142857142857143
  7
ＭＳ ゴシック
100
AcDbText
  0
LINE
  5
199
330
1F
100
AcDbEntity
  8
A-5_仕様文
  6
Continuous
 62
     7
370
     9
100
AcDbLine
 10
486.4864864864866
 20
538.3226734276711
 30
0.0
 11
478.8771180848819
 21
548.2396161272067
 31
0.0
  0
LINE
  5
19A
330
1F
100
AcDbEntity
  8
A-5_仕様文
  6
Continuous
 62
     7
370
     9
100
AcDbLine
 10
486.4864864864866
 20
538.3226734276711
 30
0.0
 11
481.7029798353041
 21
549.8712343176628
 31
0.0
  0
LINE
  5
19B
330
1F
100
AcDbEntity
  8
A-1_ピット
  6
Continuous
 62
     2
370
     9
100
AcDbLine
 10
486.4864864864866
 20
71.82253651096937
 30
0.0
 11
486.4864864864866
 21
68.32250021979547
 31
0.0
  0
LINE
  5
19C
330
1F
100
AcDbEntity
  8
A-1_ピット
  6
Continuous
 62
     2
370
     9
100
AcDbLine
 10
520.9865260768581
 20
128.3223270119195
 30
0.0
 11
524.4867108319256
 21
128.3223270119195
 31
0.0
  0
LINE
  5
19D
330
1F
100
AcDbEntity
  8
A-1_ピット
  6
Continuous
 62
     2
370
     9
100
AcDbLine
 10
514.4867768158784
 20
74.32266847887485
 30
0.0
 11
488.9866184543919
 21
74.32266847887485
 31
0.0
  0
LINE
  5
19E
330
1F
100
AcDbEntity
  8
A-1_ピット
  6
Continuous
 62
     2
370
     9
100
AcDbLine
 10
518.48669103674
 20
78.32265693168313
 30
0.0
 11
518.48669103674
 21
125.8227146676417
 31
0.0
  0
LINE
  5
19F
330
1F
100
AcDbEntity
  8
A-1_ピット
  6
Continuous
 62
     2
370
     9
100
AcDbLine
 10
524.4867108319256
 20
68.32250021979547
 30
0.0
 11
486.4864864864866
 21
68.32250021979547
 31
0.0
  0
LINE
  5
1A0
330
1F
100
AcDbEntity
  8
A-1_ピット
  6
Continuous
 62
     2
370
     9
100
AcDbLine
 10
504.4865458720441
 20
68.32250021979547
 30
0.0
 11
504.4865458720441
 21
59.32261899091031
 31
0.0
  0
LINE
  5
1A1
330
1F
100
AcDbEntity
  8
A-1_ピット
  6
Continuous
 62
     2
370
     9
100
AcDbLine
 10
518.3017050253378
 20
59.32261899091031
 30
0.0
 11
504.4865458720441
 21
59.32261899091031
 31
0.0
  0
LINE
  5
1A2
330
1F
100
AcDbEntity
  8
A-1_ピット
  6
Continuous
 62
     2
370
     9
100
AcDbLine
 10
522.9605020059122
 20
67.70912164346515
 30
0.0
 11
581.1512220228041
 21
52.11692391595249
 31
0.0
  0
LINE
  5
1A3
330
1F
100
AcDbEntity
  8
A-1_ピット
  6
Continuous
 62
     2
370
     9
100
AcDbLine
 10
520.631103515625
 20
59.0156698909314
 30
0.0
 11
578.8221204603041
 21
43.42362062731234
 31
0.0
  0
LINE
  5
1A4
330
1F
100
AcDbEntity
  8
A-1_ピット
  6
JWW_CENTER1
 62
     2
370
     9
100
AcDbLine
 10
518.3017050253378
 20
63.82241114145921
 30
0.0
 11
500.6817132073481
 21
63.82241114145921
 31
0.0
  0
LINE
  5
1A5
330
1F
100
AcDbEntity
  8
A-1_ピット
  6
JWW_CENTER1
 62
     2
370
     9
100
AcDbLine
 10
521.795654296875
 20
63.36246999914515
 30
0.0
 11
586.9623957453547
 21
45.90126031534015
 31
0.0
  0
LINE
  5
1A6
330
1F
100
AcDbEntity
  8
A-4_寸法
  6
Continuous
 62
     7
370
     9
100
AcDbLine
 10
478.9866844383447
 20
68.32250021979547
 30
0.0
 11
346.4522243190456
 21
68.32250021979547
 31
0.0
  0
LINE
  5
1A7
330
1F
100
AcDbEntity
  8
A-4_寸法
  6
Continuous
 62
     7
370
     9
100
AcDbLine
 10
481.48681640625
 20
74.32266847887485
 30
0.0
 11
406.2019636824325
 21
74.32266847887485
 31
0.0
  0
LINE
  5
1A8
330
1F
100
AcDbEntity
  8
A-4_寸法
  6
Continuous
 62
     7
370
     9
100
AcDbLine
 10
478.9866844383447
 20
78.32265693168313
 30
0.0
 11
406.2019636824325
 21
78.32265693168313
 31
0.0
  0
LINE
  5
1A9
330
1F
100
AcDbEntity
  8
A-4_寸法
  6
Continuous
 62
     7
370
     9
100
AcDbLine
 10
531.9868098078547
 20
68.32250021979547
 30
0.0
 11
635.9866580447638
 21
68.32250021979547
 31
0.0
  0
LINE
  5
1AA
330
1F
100
AcDbEntity
  8
A-4_寸法
  6
Continuous
 62
     7
370
     9
100
AcDbLine
 10
531.9868098078547
 20
128.3223270119195
 30
0.0
 11
635.9866580447638
 21
128.3223270119195
 31
0.0
  0
LINE
  5
1AB
330
1F
100
AcDbEntity
  8
A-4_寸法
  6
Continuous
 62
     7
370
     9
100
AcDbLine
 10
486.4864864864866
 20
60.82247547581311
 30
0.0
 11
486.4864864864866
 21
-43.7779092106311
 31
0.0
  0
LINE
  5
1AC
330
1F
100
AcDbEntity
  8
A-4_寸法
  6
Continuous
 62
     7
370
     9
100
AcDbLine
 10
518.48669103674
 20
70.82263218770078
 30
0.0
 11
518.48669103674
 21
-3.777801986707978
 31
0.0
  0
LINE
  5
1AD
330
1F
100
AcDbEntity
  8
A-4_寸法
  6
Continuous
 62
     7
370
     9
100
AcDbLine
 10
524.4867108319256
 20
60.82247547581311
 30
0.0
 11
524.4867108319256
 21
-43.7779092106311
 31
0.0
  0
ARC
  5
1AE
330
1F
100
AcDbEntity
  8
A-1_ピット
  6
Continuous
 62
     2
370
     9
100
AcDbCircle
 10
488.9866184543919
 20
71.82253651096937
 30
0.0
 40
2.500000032218727
100
AcDbArc
 50
90.0
 51
180.0
  0
ARC
  5
1AF
330
1F
100
AcDbEntity
  8
A-1_ピット
  6
Continuous
 62
     2
370
     9
100
AcDbCircle
 10
520.9865260768581
 20
125.8227146676417
 30
0.0
 40
2.500000032218727
100
AcDbArc
 50
90.0
 51
180.0
  0
ARC
  5
1B0
330
1F
100
AcDbEntity
  8
A-1_ピット
  6
Continuous
 62
     2
370
     9
100
AcDbCircle
 10
514.4867768158784
 20
78.32265693168313
 30
0.0
 40
3.999999761581421
100
AcDbArc
 50
270.0
 51
0.0
  0
ARC
  5
1B1
330
1F
100
AcDbEntity
  8
A-1_ピット
  6
Continuous
 62
     2
370
     9
100
AcDbCircle
 10
518.3017050253378
 20
50.32273776202515
 30
0.0
 40
18.00000023197483
100
AcDbArc
 50
74.99998474121094
 51
89.99998474121094
  0
ARC
  5
1B2
330
1F
100
AcDbEntity
  8
A-1_ピット
  6
Continuous
 62
     2
370
     9
100
AcDbCircle
 10
579.9866712415541
 20
47.77027227163233
 30
0.0
 40
4.500000057993709
100
AcDbArc
 50
255.0000762939453
 51
74.99986267089842
  0
ARC
  5
1B3
330
1F
100
AcDbEntity
  8
A-1_ピット
  6
JWW_CENTER1
 62
     2
370
     9
100
AcDbCircle
 10
518.3017050253378
 20
50.32273776202515
 30
0.0
 40
13.500002783698
100
AcDbArc
 50
75.00004577636717
 51
90.0
  0
ARC
  5
1B4
330
1F
100
AcDbEntity
  8
A-1_ピット
  6
Continuous
 62
     2
370
     9
100
AcDbCircle
 10
518.3017050253378
 20
50.32273776202515
 30
0.0
 40
9.000000115987417
100
AcDbArc
 50
74.99998474121094
 51
90.0
  0
TEXT
  5
1B5
330
1F
100
AcDbEntity
  8
A-4_寸法
  6
Continuous
 62
     2
370
     9
100
AcDbText
 10
399.3177791896334
 20
45.09196616272276
 30
0.0
 40
18.288
  1
6
 50
90.00000250447816
 41
1.000000000000001
  7
ＭＳ ゴシック
100
AcDbText
  0
TEXT
  5
1B6
330
1F
100
AcDbEntity
  8
A-4_寸法
  6
Continuous
 62
     2
370
     9
100
AcDbText
 10
399.3177791896334
 20
94.01453069502855
 30
0.0
 40
18.288
  1
4
 50
90.00000250447816
 41
1.000000000000001
  7
ＭＳ ゴシック
100
AcDbText
  0
TEXT
  5
1B7
330
1F
100
AcDbEntity
  8
A-4_寸法
  6
Continuous
 62
     2
370
     9
100
AcDbText
 10
626.1026124133168
 20
85.57245058391153
 30
0.0
 40
18.288
  1
60
 50
90.00000250447816
 41
1.062499999999999
  7
ＭＳ ゴシック
100
AcDbText
  0
LWPOLYLINE
  5
1B8
330
1F
100
AcDbEntity
  8
A-4_寸法
  6
Continuous
 62
     7
370
     9
100
AcDbPolyline
 90
        4
 70
     1
 43
1.2
 10
408.3017459353887
 20
68.32250021979547
 42
0.4142135623731
 10
407.7017459353888
 20
68.92250021979547
 42
0.4142135623731
 10
407.1017459353888
 20
68.32250021979547
 42
0.4142135623731
 10
407.7017459353888
 20
67.72250021979546
 42
0.4142135623731
  0
LWPOLYLINE
  5
1B9
330
1F
100
AcDbEntity
  8
A-4_寸法
  6
Continuous
 62
     7
370
     9
100
AcDbPolyline
 90
        4
 70
     1
 43
1.2
 10
408.3017459353887
 20
74.32266847887485
 42
0.4142135623731
 10
407.7017459353888
 20
74.92266847887484
 42
0.4142135623731
 10
407.1017459353888
 20
74.32266847887485
 42
0.4142135623731
 10
407.7017459353888
 20
73.72266847887484
 42
0.4142135623731
  0
LWPOLYLINE
  5
1BA
330
1F
100
AcDbEntity
  8
A-4_寸法
  6
Continuous
 62
     7
370
     9
100
AcDbPolyline
 90
        4
 70
     1
 43
1.2
 10
408.3017459353887
 20
78.32265693168313
 42
0.4142135623731
 10
407.7017459353888
 20
78.92265693168312
 42
0.4142135623731
 10
407.1017459353888
 20
78.32265693168313
 42
0.4142135623731
 10
407.7017459353888
 20
77.72265693168312
 42
0.4142135623731
  0
LWPOLYLINE
  5
1BB
330
1F
100
AcDbEntity
  8
A-4_寸法
  6
Continuous
 62
     7
370
     9
100
AcDbPolyline
 90
        4
 70
     1
 43
1.2
 10
348.5520065720019
 20
68.32250021979547
 42
0.4142135623731
 10
347.9520065720019
 20
68.92250021979547
 42
0.4142135623731
 10
347.3520065720019
 20
68.32250021979547
 42
0.4142135623731
 10
347.9520065720019
 20
67.72250021979546
 42
0.4142135623731
  0
LWPOLYLINE
  5
1BC
330
1F
100
AcDbEntity
  8
A-4_寸法
  6
Continuous
 62
     7
370
     9
100
AcDbPolyline
 90
        4
 70
     1
 43
1.2
 10
635.0865788640203
 20
68.32250021979547
 42
0.4142135623731
 10
634.4865788640203
 20
68.92250021979547
 42
0.4142135623731
 10
633.8865788640203
 20
68.32250021979547
 42
0.4142135623731
 10
634.4865788640203
 20
67.72250021979546
 42
0.4142135623731
  0
LWPOLYLINE
  5
1BD
330
1F
100
AcDbEntity
  8
A-4_寸法
  6
Continuous
 62
     7
370
     9
100
AcDbPolyline
 90
        4
 70
     1
 43
1.2
 10
635.0865788640203
 20
128.3223270119195
 42
0.4142135623731
 10
634.4865788640203
 20
128.9223270119195
 42
0.4142135623731
 10
633.8865788640203
 20
128.3223270119195
 42
0.4142135623731
 10
634.4865788640203
 20
127.7223270119195
 42
0.4142135623731
  0
LWPOLYLINE
  5
1BE
330
1F
100
AcDbEntity
  8
A-4_寸法
  6
Continuous
 62
     7
370
     9
100
AcDbPolyline
 90
        4
 70
     1
 43
1.2
 10
487.0864864864865
 20
-2.277797037911576
 42
0.4142135623731
 10
486.4864864864866
 20
-1.677797037911576
 42
0.4142135623731
 10
485.8864864864866
 20
-2.277797037911576
 42
0.4142135623731
 10
486.4864864864866
 20
-2.877797037911575
 42
0.4142135623731
  0
LWPOLYLINE
  5
1BF
330
1F
100
AcDbEntity
  8
A-4_寸法
  6
Continuous
 62
     7
370
     9
100
AcDbPolyline
 90
        4
 70
     1
 43
1.2
 10
519.0866910367399
 20
-2.277797037911576
 42
0.4142135623731
 10
518.48669103674
 20
-1.677797037911576
 42
0.4142135623731
 10
517.8866910367401
 20
-2.277797037911576
 42
0.4142135623731
 10
518.48669103674
 20
-2.877797037911575
 42
0.4142135623731
  0
LWPOLYLINE
  5
1C0
330
1F
100
AcDbEntity
  8
A-4_寸法
  6
Continuous
 62
     7
370
     9
100
AcDbPolyline
 90
        4
 70
     1
 43
1.2
 10
487.0864864864865
 20
-42.27783002988782
 42
0.4142135623731
 10
486.4864864864866
 20
-41.67783002988782
 42
0.4142135623731
 10
485.8864864864866
 20
-42.27783002988782
 42
0.4142135623731
 10
486.4864864864866
 20
-42.87783002988782
 42
0.4142135623731
  0
LWPOLYLINE
  5
1C1
330
1F
100
AcDbEntity
  8
A-4_寸法
  6
Continuous
 62
     7
370
     9
100
AcDbPolyline
 90
        4
 70
     1
 43
1.2
 10
525.0867108319255
 20
-42.27783002988782
 42
0.4142135623731
 10
524.4867108319256
 20
-41.67783002988782
 42
0.4142135623731
 10
523.8867108319257
 20
-42.27783002988782
 42
0.4142135623731
 10
524.4867108319256
 20
-42.87783002988782
 42
0.4142135623731
  0
LINE
  5
1C2
330
1F
100
AcDbEntity
  8
A-1_ピット
  6
Continuous
 62
     2
370
     9
100
AcDbLine
 10
524.4867108319256
 20
68.32250021979547
 30
0.0
 11
524.4867108319256
 21
128.3223270119195
 31
0.0
  0
LINE
  5
1C3
330
1F
100
AcDbEntity
  8
A-4_寸法
  6
Continuous
 62
     7
370
     9
100
AcDbLine
 10
407.7017459353888
 20
78.32265693168313
 30
0.0
 11
407.7017459353888
 21
74.32266847887485
 31
0.0
  0
LINE
  5
1C4
330
1F
100
AcDbEntity
  8
A-4_寸法
  6
Continuous
 62
     7
370
     9
100
AcDbLine
 10
407.7017459353888
 20
74.32266847887485
 30
0.0
 11
407.7017459353888
 21
42.18633573381124
 31
0.0
  0
LINE
  5
1C5
330
1F
100
AcDbEntity
  8
A-4_寸法
  6
Continuous
 62
     7
370
     9
100
AcDbLine
 10
634.4865788640203
 20
128.3223270119195
 30
0.0
 11
634.4865788640203
 21
68.32250021979547
 31
0.0
  0
LINE
  5
1C6
330
1F
100
AcDbEntity
  8
A-A
  6
Continuous
 62
     3
370
     9
100
AcDbLine
 10
484.9864073057435
 20
522.1681687032203
 30
0.0
 11
486.4864864864866
 21
522.6794783527135
 31
0.0
  0
LINE
  5
1C7
330
1F
100
AcDbEntity
  8
A-A
  6
Continuous
 62
     3
370
     9
100
AcDbLine
 10
484.9864073057435
 20
522.1681687032203
 30
0.0
 11
484.9864073057435
 21
517.7607210944786
 31
0.0
  0
LINE
  5
1C8
330
1F
100
AcDbEntity
  8
A-A
  6
Continuous
 62
     3
370
     9
100
AcDbLine
 10
484.9864073057435
 20
517.7607210944786
 30
0.0
 11
486.4864864864866
 21
517.2495599088791
 31
0.0
  0
LINE
  5
1C9
330
1F
100
AcDbEntity
  8
A-A
  6
Continuous
 62
     3
370
     9
100
AcDbLine
 10
486.4864864864866
 20
517.2495599088791
 30
0.0
 11
486.4864864864866
 21
512.1361664861595
 31
0.0
  0
LINE
  5
1CA
330
1F
100
AcDbEntity
  8
A-A
  6
Continuous
 62
     3
370
     9
100
AcDbLine
 10
484.9864073057435
 20
511.6248568366662
 30
0.0
 11
486.4864864864866
 21
512.1361664861595
 31
0.0
  0
LINE
  5
1CB
330
1F
100
AcDbEntity
  8
A-A
  6
Continuous
 62
     3
370
     9
100
AcDbLine
 10
484.9864073057435
 20
511.6248568366662
 30
0.0
 11
484.9864073057435
 21
505.0775991297406
 31
0.0
  0
LINE
  5
1CC
330
1F
100
AcDbEntity
  8
A-A
  6
Continuous
 62
     3
370
     9
100
AcDbLine
 10
484.9864073057435
 20
505.0775991297406
 30
0.0
 11
486.4864864864866
 21
504.5662894802473
 31
0.0
  0
LINE
  5
1CD
330
1F
100
AcDbEntity
  8
A-A
  6
Continuous
 62
     3
370
     9
100
AcDbLine
 10
484.9864073057435
 20
498.9415864080345
 30
0.0
 11
484.9864073057435
 21
494.5342872631865
 31
0.0
  0
LINE
  5
1CE
330
1F
100
AcDbEntity
  8
A-A
  6
Continuous
 62
     3
370
     9
100
AcDbLine
 10
484.9864073057435
 20
494.5342872631865
 30
0.0
 11
486.4864864864866
 21
494.0229776136932
 31
0.0
  0
LINE
  5
1CF
330
1F
100
AcDbEntity
  8
A-A
  6
Continuous
 62
     3
370
     9
100
AcDbLine
 10
486.4864864864866
 20
494.0229776136932
 30
0.0
 11
486.4864864864866
 21
488.9098811187607
 31
0.0
  0
LINE
  5
1D0
330
1F
100
AcDbEntity
  8
A-A
  6
Continuous
 62
     3
370
     9
100
AcDbLine
 10
484.9864073057435
 20
488.3985714692676
 30
0.0
 11
486.4864864864866
 21
488.9098811187607
 31
0.0
  0
LINE
  5
1D1
330
1F
100
AcDbEntity
  8
A-A
  6
Continuous
 62
     3
370
     9
100
AcDbLine
 10
484.9864073057435
 20
488.3985714692676
 30
0.0
 11
484.9864073057435
 21
481.8513137623418
 31
0.0
  0
LINE
  5
1D2
330
1F
100
AcDbEntity
  8
A-A
  6
Continuous
 62
     3
370
     9
100
AcDbLine
 10
484.9864073057435
 20
481.8513137623418
 30
0.0
 11
486.4864864864866
 21
481.3397071850615
 31
0.0
  0
LINE
  5
1D3
330
1F
100
AcDbEntity
  8
A-A
  6
Continuous
 62
     3
370
     9
100
AcDbLine
 10
484.9864073057435
 20
498.9415864080345
 30
0.0
 11
486.4864864864866
 21
499.4531929853148
 31
0.0
  0
LINE
  5
1D4
330
1F
100
AcDbEntity
  8
A-A
  6
Continuous
 62
     3
370
     9
100
AcDbLine
 10
486.4864864864866
 20
504.5662894802473
 30
0.0
 11
486.4864864864866
 21
499.4531929853148
 31
0.0
  0
LINE
  5
1D5
330
1F
100
AcDbEntity
  8
A-A
  6
Continuous
 62
     3
370
     9
100
AcDbLine
 10
484.9864073057435
 20
475.7153010406357
 30
0.0
 11
484.9864073057435
 21
471.3078534318942
 31
0.0
  0
LINE
  5
1D6
330
1F
100
AcDbEntity
  8
A-A
  6
Continuous
 62
     3
370
     9
100
AcDbLine
 10
484.9864073057435
 20
471.3078534318942
 30
0.0
 11
486.4864864864866
 21
470.7966922462945
 31
0.0
  0
LINE
  5
1D7
330
1F
100
AcDbEntity
  8
A-A
  6
Continuous
 62
     3
370
     9
100
AcDbLine
 10
486.4864864864866
 20
470.7966922462945
 30
0.0
 11
486.4864864864866
 21
465.6835957513621
 31
0.0
  0
LINE
  5
1D8
330
1F
100
AcDbEntity
  8
A-A
  6
Continuous
 62
     3
370
     9
100
AcDbLine
 10
484.9864073057435
 20
465.1719891740817
 30
0.0
 11
486.4864864864866
 21
465.6835957513621
 31
0.0
  0
LINE
  5
1D9
330
1F
100
AcDbEntity
  8
A-A
  6
Continuous
 62
     3
370
     9
100
AcDbLine
 10
484.9864073057435
 20
465.1719891740817
 30
0.0
 11
484.9864073057435
 21
458.624731467156
 31
0.0
  0
LINE
  5
1DA
330
1F
100
AcDbEntity
  8
A-A
  6
Continuous
 62
     3
370
     9
100
AcDbLine
 10
484.9864073057435
 20
458.624731467156
 30
0.0
 11
486.4864864864866
 21
458.1135702815563
 31
0.0
  0
LINE
  5
1DB
330
1F
100
AcDbEntity
  8
A-A
  6
Continuous
 62
     3
370
     9
100
AcDbLine
 10
484.9864073057435
 20
475.7153010406357
 30
0.0
 11
486.4864864864866
 21
476.226610690129
 31
0.0
  0
LINE
  5
1DC
330
1F
100
AcDbEntity
  8
A-A
  6
Continuous
 62
     3
370
     9
100
AcDbLine
 10
486.4864864864866
 20
481.3397071850615
 30
0.0
 11
486.4864864864866
 21
476.226610690129
 31
0.0
  0
LINE
  5
1DD
330
1F
100
AcDbEntity
  8
A-A
  6
Continuous
 62
     3
370
     9
100
AcDbLine
 10
484.9864073057435
 20
452.4890156732371
 30
0.0
 11
484.9864073057435
 21
448.0817165283892
 31
0.0
  0
LINE
  5
1DE
330
1F
100
AcDbEntity
  8
A-A
  6
Continuous
 62
     3
370
     9
100
AcDbLine
 10
484.9864073057435
 20
448.0817165283892
 30
0.0
 11
486.4864864864866
 21
447.5701099511087
 31
0.0
  0
LINE
  5
1DF
330
1F
100
AcDbEntity
  8
A-A
  6
Continuous
 62
     3
370
     9
100
AcDbLine
 10
484.9864073057435
 20
452.4890156732371
 30
0.0
 11
486.4864864864866
 21
453.0003253227304
 31
0.0
  0
LINE
  5
1E0
330
1F
100
AcDbEntity
  8
A-A
  6
Continuous
 62
     3
370
     9
100
AcDbLine
 10
486.4864864864866
 20
458.1135702815563
 30
0.0
 11
486.4864864864866
 21
453.0003253227304
 31
0.0
  0
LINE
  5
1E1
330
1F
100
AcDbEntity
  8
A-A
  6
Continuous
 62
     3
370
     9
100
AcDbLine
 10
486.4864864864866
 20
447.5701099511087
 30
0.0
 11
486.4864864864866
 21
442.4570134561764
 31
0.0
  0
LINE
  5
1E2
330
1F
100
AcDbEntity
  8
A-A
  6
Continuous
 62
     3
370
     9
100
AcDbLine
 10
484.9864073057435
 20
441.9457038066831
 30
0.0
 11
486.4864864864866
 21
442.4570134561764
 31
0.0
  0
LINE
  5
1E3
330
1F
100
AcDbEntity
  8
A-A
  6
Continuous
 62
     3
370
     9
100
AcDbLine
 10
484.9864073057435
 20
441.9457038066831
 30
0.0
 11
484.9864073057435
 21
435.3984460997575
 31
0.0
  0
LINE
  5
1E4
330
1F
100
AcDbEntity
  8
A-A
  6
Continuous
 62
     3
370
     9
100
AcDbLine
 10
484.9864073057435
 20
435.3984460997575
 30
0.0
 11
486.4864864864866
 21
434.8871364502642
 31
0.0
  0
LINE
  5
1E5
330
1F
100
AcDbEntity
  8
A-A
  6
Continuous
 62
     3
370
     9
100
AcDbLine
 10
484.9864073057435
 20
429.262581841945
 30
0.0
 11
484.9864073057435
 21
424.8551342332034
 31
0.0
  0
LINE
  5
1E6
330
1F
100
AcDbEntity
  8
A-A
  6
Continuous
 62
     3
370
     9
100
AcDbLine
 10
484.9864073057435
 20
424.8551342332034
 30
0.0
 11
486.4864864864866
 21
424.3439730476037
 31
0.0
  0
LINE
  5
1E7
330
1F
100
AcDbEntity
  8
A-A
  6
Continuous
 62
     3
370
     9
100
AcDbLine
 10
484.9864073057435
 20
429.262581841945
 30
0.0
 11
486.4864864864866
 21
429.7737430275445
 31
0.0
  0
LINE
  5
1E8
330
1F
100
AcDbEntity
  8
A-A
  6
Continuous
 62
     3
370
     9
100
AcDbLine
 10
486.4864864864866
 20
434.8871364502642
 30
0.0
 11
486.4864864864866
 21
429.7737430275445
 31
0.0
  0
LINE
  5
1E9
330
1F
100
AcDbEntity
  8
A-A
  6
Continuous
 62
     3
370
     9
100
AcDbLine
 10
486.4864864864866
 20
424.3439730476037
 30
0.0
 11
486.4864864864866
 21
419.2307280887776
 31
0.0
  0
LINE
  5
1EA
330
1F
100
AcDbEntity
  8
A-A
  6
Continuous
 62
     3
370
     9
100
AcDbLine
 10
484.9864073057435
 20
418.7194184392845
 30
0.0
 11
486.4864864864866
 21
419.2307280887776
 31
0.0
  0
LINE
  5
1EB
330
1F
100
AcDbEntity
  8
A-A
  6
Continuous
 62
     3
370
     9
100
AcDbLine
 10
484.9864073057435
 20
418.7194184392845
 30
0.0
 11
484.9864073057435
 21
412.1718638045715
 31
0.0
  0
LINE
  5
1EC
330
1F
100
AcDbEntity
  8
A-A
  6
Continuous
 62
     3
370
     9
100
AcDbLine
 10
484.9864073057435
 20
412.1718638045715
 30
0.0
 11
486.4864864864866
 21
411.660702618972
 31
0.0
  0
LINE
  5
1ED
330
1F
100
AcDbEntity
  8
A-A
  6
Continuous
 62
     3
370
     9
100
AcDbLine
 10
484.9864073057435
 20
406.0361480106526
 30
0.0
 11
484.9864073057435
 21
401.6285519380174
 31
0.0
  0
LINE
  5
1EE
330
1F
100
AcDbEntity
  8
A-A
  6
Continuous
 62
     3
370
     9
100
AcDbLine
 10
484.9864073057435
 20
401.6285519380174
 30
0.0
 11
486.4864864864866
 21
401.1175392163115
 31
0.0
  0
LINE
  5
1EF
330
1F
100
AcDbEntity
  8
A-A
  6
Continuous
 62
     3
370
     9
100
AcDbLine
 10
484.9864073057435
 20
406.0361480106526
 30
0.0
 11
486.4864864864866
 21
406.5474576601459
 31
0.0
  0
LINE
  5
1F0
330
1F
100
AcDbEntity
  8
A-A
  6
Continuous
 62
     3
370
     9
100
AcDbLine
 10
486.4864864864866
 20
411.660702618972
 30
0.0
 11
486.4864864864866
 21
406.5474576601459
 31
0.0
  0
LINE
  5
1F1
330
1F
100
AcDbEntity
  8
A-A
  6
Continuous
 62
     3
370
     9
100
AcDbLine
 10
486.4864864864866
 20
401.1175392163115
 30
0.0
 11
486.4864864864866
 21
396.004442721379
 31
0.0
  0
LINE
  5
1F2
330
1F
100
AcDbEntity
  8
A-A
  6
Continuous
 62
     3
370
     9
100
AcDbLine
 10
484.9864073057435
 20
395.4928361440985
 30
0.0
 11
486.4864864864866
 21
396.004442721379
 31
0.0
  0
LINE
  5
1F3
330
1F
100
AcDbEntity
  8
A-A
  6
Continuous
 62
     3
370
     9
100
AcDbLine
 10
484.9864073057435
 20
395.4928361440985
 30
0.0
 11
484.9864073057435
 21
388.9455784371729
 31
0.0
  0
LINE
  5
1F4
330
1F
100
AcDbEntity
  8
A-A
  6
Continuous
 62
     3
370
     9
100
AcDbLine
 10
484.9864073057435
 20
388.9455784371729
 30
0.0
 11
486.4864864864866
 21
388.4342687876796
 31
0.0
  0
LINE
  5
1F5
330
1F
100
AcDbEntity
  8
A-A
  6
Continuous
 62
     3
370
     9
100
AcDbLine
 10
484.9864073057435
 20
382.8095657154669
 30
0.0
 11
484.9864073057435
 21
378.4022665706189
 31
0.0
  0
LINE
  5
1F6
330
1F
100
AcDbEntity
  8
A-A
  6
Continuous
 62
     3
370
     9
100
AcDbLine
 10
484.9864073057435
 20
378.4022665706189
 30
0.0
 11
486.4864864864866
 21
377.8909569211256
 31
0.0
  0
LINE
  5
1F7
330
1F
100
AcDbEntity
  8
A-A
  6
Continuous
 62
     3
370
     9
100
AcDbLine
 10
484.9864073057435
 20
382.8095657154669
 30
0.0
 11
486.4864864864866
 21
383.3211722927473
 31
0.0
  0
LINE
  5
1F8
330
1F
100
AcDbEntity
  8
A-A
  6
Continuous
 62
     3
370
     9
100
AcDbLine
 10
486.4864864864866
 20
388.4342687876796
 30
0.0
 11
486.4864864864866
 21
383.3211722927473
 31
0.0
  0
LINE
  5
1F9
330
1F
100
AcDbEntity
  8
A-A
  6
Continuous
 62
     3
370
     9
100
AcDbLine
 10
486.4864864864866
 20
377.8909569211256
 30
0.0
 11
486.4864864864866
 21
372.7778604261933
 31
0.0
  0
LINE
  5
1FA
330
1F
100
AcDbEntity
  8
A-A
  6
Continuous
 62
     3
370
     9
100
AcDbLine
 10
484.9864073057435
 20
372.2665507767
 30
0.0
 11
486.4864864864866
 21
372.7778604261933
 31
0.0
  0
LINE
  5
1FB
330
1F
100
AcDbEntity
  8
A-A
  6
Continuous
 62
     3
370
     9
100
AcDbLine
 10
484.9864073057435
 20
372.2665507767
 30
0.0
 11
484.9864073057435
 21
365.7191446058808
 31
0.0
  0
LINE
  5
1FC
330
1F
100
AcDbEntity
  8
A-A
  6
Continuous
 62
     3
370
     9
100
AcDbLine
 10
484.9864073057435
 20
365.7191446058808
 30
0.0
 11
486.4864864864866
 21
365.2078349563875
 31
0.0
  0
LINE
  5
1FD
330
1F
100
AcDbEntity
  8
A-A
  6
Continuous
 62
     3
370
     9
100
AcDbLine
 10
484.9864073057435
 20
359.5832803480683
 30
0.0
 11
484.9864073057435
 21
355.1758327393267
 31
0.0
  0
LINE
  5
1FE
330
1F
100
AcDbEntity
  8
A-A
  6
Continuous
 62
     3
370
     9
100
AcDbLine
 10
484.9864073057435
 20
355.1758327393267
 30
0.0
 11
486.4864864864866
 21
354.664671553727
 31
0.0
  0
LINE
  5
1FF
330
1F
100
AcDbEntity
  8
A-A
  6
Continuous
 62
     3
370
     9
100
AcDbLine
 10
484.9864073057435
 20
359.5832803480683
 30
0.0
 11
486.4864864864866
 21
360.0945899975616
 31
0.0
  0
LINE
  5
200
330
1F
100
AcDbEntity
  8
A-A
  6
Continuous
 62
     3
370
     9
100
AcDbLine
 10
486.4864864864866
 20
365.2078349563875
 30
0.0
 11
486.4864864864866
 21
360.0945899975616
 31
0.0
  0
LINE
  5
201
330
1F
100
AcDbEntity
  8
A-A
  6
Continuous
 62
     3
370
     9
100
AcDbLine
 10
486.4864864864866
 20
354.664671553727
 30
0.0
 11
486.4864864864866
 21
349.5514265949011
 31
0.0
  0
LINE
  5
202
330
1F
100
AcDbEntity
  8
A-A
  6
Continuous
 62
     3
370
     9
100
AcDbLine
 10
484.9864073057435
 20
349.0401169454078
 30
0.0
 11
486.4864864864866
 21
349.5514265949011
 31
0.0
  0
LINE
  5
203
330
1F
100
AcDbEntity
  8
A-A
  6
Continuous
 62
     3
370
     9
100
AcDbLine
 10
484.9864073057435
 20
349.0401169454078
 30
0.0
 11
484.9864073057435
 21
342.4927107745886
 31
0.0
  0
LINE
  5
204
330
1F
100
AcDbEntity
  8
A-A
  6
Continuous
 62
     3
370
     9
100
AcDbLine
 10
484.9864073057435
 20
342.4927107745886
 30
0.0
 11
486.4864864864866
 21
341.9814011250953
 31
0.0
  0
LINE
  5
205
330
1F
100
AcDbEntity
  8
A-A
  6
Continuous
 62
     3
370
     9
100
AcDbLine
 10
484.9864073057435
 20
336.3568465167761
 30
0.0
 11
484.9864073057435
 21
331.9493989080345
 31
0.0
  0
LINE
  5
206
330
1F
100
AcDbEntity
  8
A-A
  6
Continuous
 62
     3
370
     9
100
AcDbLine
 10
484.9864073057435
 20
331.9493989080345
 30
0.0
 11
486.4864864864866
 21
331.4382377224348
 31
0.0
  0
LINE
  5
207
330
1F
100
AcDbEntity
  8
A-A
  6
Continuous
 62
     3
370
     9
100
AcDbLine
 10
484.9864073057435
 20
336.3568465167761
 30
0.0
 11
486.4864864864866
 21
336.8681561662692
 31
0.0
  0
LINE
  5
208
330
1F
100
AcDbEntity
  8
A-A
  6
Continuous
 62
     3
370
     9
100
AcDbLine
 10
486.4864864864866
 20
341.9814011250953
 30
0.0
 11
486.4864864864866
 21
336.8681561662692
 31
0.0
  0
LINE
  5
209
330
1F
100
AcDbEntity
  8
A-A
  6
Continuous
 62
     3
370
     9
100
AcDbLine
 10
486.4864864864866
 20
331.4382377224348
 30
0.0
 11
486.4864864864866
 21
326.3249927636087
 31
0.0
  0
LINE
  5
20A
330
1F
100
AcDbEntity
  8
A-A
  6
Continuous
 62
     3
370
     9
100
AcDbLine
 10
484.9864073057435
 20
325.8136831141155
 30
0.0
 11
486.4864864864866
 21
326.3249927636087
 31
0.0
  0
LINE
  5
20B
330
1F
100
AcDbEntity
  8
A-A
  6
Continuous
 62
     3
370
     9
100
AcDbLine
 10
484.9864073057435
 20
325.8136831141155
 30
0.0
 11
484.9864073057435
 21
319.2662769432962
 31
0.0
  0
LINE
  5
20C
330
1F
100
AcDbEntity
  8
A-A
  6
Continuous
 62
     3
370
     9
100
AcDbLine
 10
484.9864073057435
 20
319.2662769432962
 30
0.0
 11
486.4864864864866
 21
318.754967293803
 31
0.0
  0
LINE
  5
20D
330
1F
100
AcDbEntity
  8
A-A
  6
Continuous
 62
     3
370
     9
100
AcDbLine
 10
484.9864073057435
 20
313.1304126854837
 30
0.0
 11
484.9864073057435
 21
308.7229650767422
 31
0.0
  0
LINE
  5
20E
330
1F
100
AcDbEntity
  8
A-A
  6
Continuous
 62
     3
370
     9
100
AcDbLine
 10
484.9864073057435
 20
308.7229650767422
 30
0.0
 11
486.4864864864866
 21
308.2118038911425
 31
0.0
  0
LINE
  5
20F
330
1F
100
AcDbEntity
  8
A-A
  6
Continuous
 62
     3
370
     9
100
AcDbLine
 10
484.9864073057435
 20
313.1304126854837
 30
0.0
 11
486.4864864864866
 21
313.641722334977
 31
0.0
  0
LINE
  5
210
330
1F
100
AcDbEntity
  8
A-A
  6
Continuous
 62
     3
370
     9
100
AcDbLine
 10
486.4864864864866
 20
318.754967293803
 30
0.0
 11
486.4864864864866
 21
313.641722334977
 31
0.0
  0
LINE
  5
211
330
1F
100
AcDbEntity
  8
A-A
  6
Continuous
 62
     3
370
     9
100
AcDbLine
 10
486.4864864864866
 20
308.2118038911425
 30
0.0
 11
486.4864864864866
 21
303.0985589323166
 31
0.0
  0
LINE
  5
212
330
1F
100
AcDbEntity
  8
A-A
  6
Continuous
 62
     3
370
     9
100
AcDbLine
 10
484.9864073057435
 20
302.5872492828233
 30
0.0
 11
486.4864864864866
 21
303.0985589323166
 31
0.0
  0
LINE
  5
213
330
1F
100
AcDbEntity
  8
A-A
  6
Continuous
 62
     3
370
     9
100
AcDbLine
 10
484.9864073057435
 20
302.5872492828233
 30
0.0
 11
484.9864073057435
 21
296.0398431120041
 31
0.0
  0
LINE
  5
214
330
1F
100
AcDbEntity
  8
A-A
  6
Continuous
 62
     3
370
     9
100
AcDbLine
 10
484.9864073057435
 20
296.0398431120041
 30
0.0
 11
486.4864864864866
 21
295.5285334625108
 31
0.0
  0
LINE
  5
215
330
1F
100
AcDbEntity
  8
A-A
  6
Continuous
 62
     3
370
     9
100
AcDbLine
 10
484.9864073057435
 20
289.9039788541916
 30
0.0
 11
484.9864073057435
 21
285.49653124545
 31
0.0
  0
LINE
  5
216
330
1F
100
AcDbEntity
  8
A-A
  6
Continuous
 62
     3
370
     9
100
AcDbLine
 10
484.9864073057435
 20
285.49653124545
 30
0.0
 11
486.4864864864866
 21
284.9853700598503
 31
0.0
  0
LINE
  5
217
330
1F
100
AcDbEntity
  8
A-A
  6
Continuous
 62
     3
370
     9
100
AcDbLine
 10
484.9864073057435
 20
289.9039788541916
 30
0.0
 11
486.4864864864866
 21
290.4152885036848
 31
0.0
  0
LINE
  5
218
330
1F
100
AcDbEntity
  8
A-A
  6
Continuous
 62
     3
370
     9
100
AcDbLine
 10
486.4864864864866
 20
295.5285334625108
 30
0.0
 11
486.4864864864866
 21
290.4152885036848
 31
0.0
  0
LINE
  5
219
330
1F
100
AcDbEntity
  8
A-A
  6
Continuous
 62
     3
370
     9
100
AcDbLine
 10
486.4864864864866
 20
284.9853700598503
 30
0.0
 11
486.4864864864866
 21
279.8721251010244
 31
0.0
  0
LINE
  5
21A
330
1F
100
AcDbEntity
  8
A-A
  6
Continuous
 62
     3
370
     9
100
AcDbLine
 10
484.9864073057435
 20
279.3608154515311
 30
0.0
 11
486.4864864864866
 21
279.8721251010244
 31
0.0
  0
LINE
  5
21B
330
1F
100
AcDbEntity
  8
A-A
  6
Continuous
 62
     3
370
     9
100
AcDbLine
 10
484.9864073057435
 20
279.3608154515311
 30
0.0
 11
484.9864073057435
 21
272.8134835126586
 31
0.0
  0
LINE
  5
21C
330
1F
100
AcDbEntity
  8
A-A
  6
Continuous
 62
     3
370
     9
100
AcDbLine
 10
484.9864073057435
 20
272.8134835126586
 30
0.0
 11
486.4864864864866
 21
272.3020996312186
 31
0.0
  0
LINE
  5
21D
330
1F
100
AcDbEntity
  8
A-A
  6
Continuous
 62
     3
370
     9
100
AcDbLine
 10
484.9864073057435
 20
266.6775450228994
 30
0.0
 11
484.9864073057435
 21
262.2700974141578
 31
0.0
  0
LINE
  5
21E
330
1F
100
AcDbEntity
  8
A-A
  6
Continuous
 62
     3
370
     9
100
AcDbLine
 10
484.9864073057435
 20
262.2700974141578
 30
0.0
 11
486.4864864864866
 21
261.7589362285581
 31
0.0
  0
LINE
  5
21F
330
1F
100
AcDbEntity
  8
A-A
  6
Continuous
 62
     3
370
     9
100
AcDbLine
 10
484.9864073057435
 20
266.6775450228994
 30
0.0
 11
486.4864864864866
 21
267.1888546723925
 31
0.0
  0
LINE
  5
220
330
1F
100
AcDbEntity
  8
A-A
  6
Continuous
 62
     3
370
     9
100
AcDbLine
 10
486.4864864864866
 20
272.3020996312186
 30
0.0
 11
486.4864864864866
 21
267.1888546723925
 31
0.0
  0
LINE
  5
221
330
1F
100
AcDbEntity
  8
A-A
  6
Continuous
 62
     3
370
     9
100
AcDbLine
 10
486.4864864864866
 20
261.7589362285581
 30
0.0
 11
486.4864864864866
 21
256.645691269732
 31
0.0
  0
LINE
  5
222
330
1F
100
AcDbEntity
  8
A-A
  6
Continuous
 62
     3
370
     9
100
AcDbLine
 10
484.9864073057435
 20
256.1343816202389
 30
0.0
 11
486.4864864864866
 21
256.645691269732
 31
0.0
  0
LINE
  5
223
330
1F
100
AcDbEntity
  8
A-A
  6
Continuous
 62
     3
370
     9
100
AcDbLine
 10
484.9864073057435
 20
256.1343816202389
 30
0.0
 11
484.9864073057435
 21
249.5869754494195
 31
0.0
  0
LINE
  5
224
330
1F
100
AcDbEntity
  8
A-A
  6
Continuous
 62
     3
370
     9
100
AcDbLine
 10
484.9864073057435
 20
249.5869754494195
 30
0.0
 11
486.4864864864866
 21
249.0756657999264
 31
0.0
  0
LINE
  5
225
330
1F
100
AcDbEntity
  8
A-A
  6
Continuous
 62
     3
370
     9
100
AcDbLine
 10
484.9864073057435
 20
243.451111191607
 30
0.0
 11
484.9864073057435
 21
239.0436635828655
 31
0.0
  0
LINE
  5
226
330
1F
100
AcDbEntity
  8
A-A
  6
Continuous
 62
     3
370
     9
100
AcDbLine
 10
484.9864073057435
 20
239.0436635828655
 30
0.0
 11
486.4864864864866
 21
238.5325023972659
 31
0.0
  0
LINE
  5
227
330
1F
100
AcDbEntity
  8
A-A
  6
Continuous
 62
     3
370
     9
100
AcDbLine
 10
484.9864073057435
 20
243.451111191607
 30
0.0
 11
486.4864864864866
 21
243.9624208411003
 31
0.0
  0
LINE
  5
228
330
1F
100
AcDbEntity
  8
A-A
  6
Continuous
 62
     3
370
     9
100
AcDbLine
 10
486.4864864864866
 20
249.0756657999264
 30
0.0
 11
486.4864864864866
 21
243.9624208411003
 31
0.0
  0
LINE
  5
229
330
1F
100
AcDbEntity
  8
A-A
  6
Continuous
 62
     3
370
     9
100
AcDbLine
 10
486.4864864864866
 20
238.5325023972659
 30
0.0
 11
486.4864864864866
 21
233.4192574384398
 31
0.0
  0
LINE
  5
22A
330
1F
100
AcDbEntity
  8
A-A
  6
Continuous
 62
     3
370
     9
100
AcDbLine
 10
484.9864073057435
 20
232.9079477889466
 30
0.0
 11
486.4864864864866
 21
233.4192574384398
 31
0.0
  0
LINE
  5
22B
330
1F
100
AcDbEntity
  8
A-A
  6
Continuous
 62
     3
370
     9
100
AcDbLine
 10
484.9864073057435
 20
232.9079477889466
 30
0.0
 11
484.9864073057435
 21
226.3605416181273
 31
0.0
  0
LINE
  5
22C
330
1F
100
AcDbEntity
  8
A-A
  6
Continuous
 62
     3
370
     9
100
AcDbLine
 10
484.9864073057435
 20
226.3605416181273
 30
0.0
 11
486.4864864864866
 21
225.8492319686341
 31
0.0
  0
LINE
  5
22D
330
1F
100
AcDbEntity
  8
A-A
  6
Continuous
 62
     3
370
     9
100
AcDbLine
 10
484.9864073057435
 20
220.2246773603148
 30
0.0
 11
484.9864073057435
 21
215.8172297515733
 31
0.0
  0
LINE
  5
22E
330
1F
100
AcDbEntity
  8
A-A
  6
Continuous
 62
     3
370
     9
100
AcDbLine
 10
484.9864073057435
 20
215.8172297515733
 30
0.0
 11
486.4864864864866
 21
215.3060685659736
 31
0.0
  0
LINE
  5
22F
330
1F
100
AcDbEntity
  8
A-A
  6
Continuous
 62
     3
370
     9
100
AcDbLine
 10
484.9864073057435
 20
220.2246773603148
 30
0.0
 11
486.4864864864866
 21
220.7359870098081
 31
0.0
  0
LINE
  5
230
330
1F
100
AcDbEntity
  8
A-A
  6
Continuous
 62
     3
370
     9
100
AcDbLine
 10
486.4864864864866
 20
225.8492319686341
 30
0.0
 11
486.4864864864866
 21
220.7359870098081
 31
0.0
  0
LINE
  5
231
330
1F
100
AcDbEntity
  8
A-A
  6
Continuous
 62
     3
370
     9
100
AcDbLine
 10
486.4864864864866
 20
215.3060685659736
 30
0.0
 11
486.4864864864866
 21
210.1928236071477
 31
0.0
  0
LINE
  5
232
330
1F
100
AcDbEntity
  8
A-A
  6
Continuous
 62
     3
370
     9
100
AcDbLine
 10
484.9864073057435
 20
209.6815139576544
 30
0.0
 11
486.4864864864866
 21
210.1928236071477
 31
0.0
  0
LINE
  5
233
330
1F
100
AcDbEntity
  8
A-A
  6
Continuous
 62
     3
370
     9
100
AcDbLine
 10
484.9864073057435
 20
209.6815139576544
 30
0.0
 11
484.9864073057435
 21
203.1341077868352
 31
0.0
  0
LINE
  5
234
330
1F
100
AcDbEntity
  8
A-A
  6
Continuous
 62
     3
370
     9
100
AcDbLine
 10
484.9864073057435
 20
203.1341077868352
 30
0.0
 11
486.4864864864866
 21
202.6227981373419
 31
0.0
  0
LINE
  5
235
330
1F
100
AcDbEntity
  8
A-A
  6
Continuous
 62
     3
370
     9
100
AcDbLine
 10
484.9864073057435
 20
196.9982435290227
 30
0.0
 11
484.9864073057435
 21
192.5907959202811
 31
0.0
  0
LINE
  5
236
330
1F
100
AcDbEntity
  8
A-A
  6
Continuous
 62
     3
370
     9
100
AcDbLine
 10
484.9864073057435
 20
192.5907959202811
 30
0.0
 11
486.4864864864866
 21
192.0796347346814
 31
0.0
  0
LINE
  5
237
330
1F
100
AcDbEntity
  8
A-A
  6
Continuous
 62
     3
370
     9
100
AcDbLine
 10
484.9864073057435
 20
196.9982435290227
 30
0.0
 11
486.4864864864866
 21
197.5095531785159
 31
0.0
  0
LINE
  5
238
330
1F
100
AcDbEntity
  8
A-A
  6
Continuous
 62
     3
370
     9
100
AcDbLine
 10
486.4864864864866
 20
202.6227981373419
 30
0.0
 11
486.4864864864866
 21
197.5095531785159
 31
0.0
  0
LINE
  5
239
330
1F
100
AcDbEntity
  8
A-A
  6
Continuous
 62
     3
370
     9
100
AcDbLine
 10
486.4864864864866
 20
192.0796347346814
 30
0.0
 11
486.4864864864866
 21
186.9663897758555
 31
0.0
  0
LINE
  5
23A
330
1F
100
AcDbEntity
  8
A-A
  6
Continuous
 62
     3
370
     9
100
AcDbLine
 10
484.9864073057435
 20
186.4550801263622
 30
0.0
 11
486.4864864864866
 21
186.9663897758555
 31
0.0
  0
LINE
  5
23B
330
1F
100
AcDbEntity
  8
A-A
  6
Continuous
 62
     3
370
     9
100
AcDbLine
 10
484.9864073057435
 20
186.4550801263622
 30
0.0
 11
484.9864073057435
 21
179.907673955543
 31
0.0
  0
LINE
  5
23C
330
1F
100
AcDbEntity
  8
A-A
  6
Continuous
 62
     3
370
     9
100
AcDbLine
 10
484.9864073057435
 20
179.907673955543
 30
0.0
 11
486.4864864864866
 21
179.3963643060497
 31
0.0
  0
LINE
  5
23D
330
1F
100
AcDbEntity
  8
A-A
  6
Continuous
 62
     3
370
     9
100
AcDbLine
 10
484.9864073057435
 20
173.7718096977305
 30
0.0
 11
484.9864073057435
 21
169.3643620889889
 31
0.0
  0
LINE
  5
23E
330
1F
100
AcDbEntity
  8
A-A
  6
Continuous
 62
     3
370
     9
100
AcDbLine
 10
484.9864073057435
 20
169.3643620889889
 30
0.0
 11
486.4864864864866
 21
168.8532009033892
 31
0.0
  0
LINE
  5
23F
330
1F
100
AcDbEntity
  8
A-A
  6
Continuous
 62
     3
370
     9
100
AcDbLine
 10
484.9864073057435
 20
173.7718096977305
 30
0.0
 11
486.4864864864866
 21
174.2831193472236
 31
0.0
  0
LINE
  5
240
330
1F
100
AcDbEntity
  8
A-A
  6
Continuous
 62
     3
370
     9
100
AcDbLine
 10
486.4864864864866
 20
179.3963643060497
 30
0.0
 11
486.4864864864866
 21
174.2831193472236
 31
0.0
  0
LINE
  5
241
330
1F
100
AcDbEntity
  8
A-A
  6
Continuous
 62
     3
370
     9
100
AcDbLine
 10
486.4864864864866
 20
168.8532009033892
 30
0.0
 11
486.4864864864866
 21
163.7399559445631
 31
0.0
  0
LINE
  5
242
330
1F
100
AcDbEntity
  8
A-A
  6
Continuous
 62
     3
370
     9
100
AcDbLine
 10
484.9864073057435
 20
163.22864629507
 30
0.0
 11
486.4864864864866
 21
163.7399559445631
 31
0.0
  0
LINE
  5
243
330
1F
100
AcDbEntity
  8
A-A
  6
Continuous
 62
     3
370
     9
100
AcDbLine
 10
484.9864073057435
 20
163.22864629507
 30
0.0
 11
484.9864073057435
 21
156.6812401242506
 31
0.0
  0
LINE
  5
244
330
1F
100
AcDbEntity
  8
A-A
  6
Continuous
 62
     3
370
     9
100
AcDbLine
 10
484.9864073057435
 20
156.6812401242506
 30
0.0
 11
486.4864864864866
 21
156.1699304747575
 31
0.0
  0
LINE
  5
245
330
1F
100
AcDbEntity
  8
A-A
  6
Continuous
 62
     3
370
     9
100
AcDbLine
 10
484.9864073057435
 20
150.5453758664381
 30
0.0
 11
484.9864073057435
 21
146.1379282576966
 31
0.0
  0
LINE
  5
246
330
1F
100
AcDbEntity
  8
A-A
  6
Continuous
 62
     3
370
     9
100
AcDbLine
 10
484.9864073057435
 20
146.1379282576966
 30
0.0
 11
486.4864864864866
 21
145.626767072097
 31
0.0
  0
LINE
  5
247
330
1F
100
AcDbEntity
  8
A-A
  6
Continuous
 62
     3
370
     9
100
AcDbLine
 10
484.9864073057435
 20
150.5453758664381
 30
0.0
 11
486.4864864864866
 21
151.0566855159314
 31
0.0
  0
LINE
  5
248
330
1F
100
AcDbEntity
  8
A-A
  6
Continuous
 62
     3
370
     9
100
AcDbLine
 10
486.4864864864866
 20
156.1699304747575
 30
0.0
 11
486.4864864864866
 21
151.0566855159314
 31
0.0
  0
LINE
  5
249
330
1F
100
AcDbEntity
  8
A-A
  6
Continuous
 62
     3
370
     9
100
AcDbLine
 10
486.4864864864866
 20
145.626767072097
 30
0.0
 11
486.4864864864866
 21
140.5135221132709
 31
0.0
  0
LINE
  5
24A
330
1F
100
AcDbEntity
  8
A-A
  6
Continuous
 62
     3
370
     9
100
AcDbLine
 10
484.9864073057435
 20
140.0022124637777
 30
0.0
 11
486.4864864864866
 21
140.5135221132709
 31
0.0
  0
LINE
  5
24B
330
1F
100
AcDbEntity
  8
A-A
  6
Continuous
 62
     3
370
     9
100
AcDbLine
 10
484.9864073057435
 20
140.0022124637777
 30
0.0
 11
484.9864073057435
 21
133.4548062929584
 31
0.0
  0
LINE
  5
24C
330
1F
100
AcDbEntity
  8
A-A
  6
Continuous
 62
     3
370
     9
100
AcDbLine
 10
484.9864073057435
 20
133.4548062929584
 30
0.0
 11
486.4864864864866
 21
132.9434966434652
 31
0.0
  0
LINE
  5
24D
330
1F
100
AcDbEntity
  8
A-A
  6
Continuous
 62
     3
370
     9
100
AcDbLine
 10
484.9864073057435
 20
127.3189420351459
 30
0.0
 11
484.9864073057435
 21
122.9114944264044
 31
0.0
  0
LINE
  5
24E
330
1F
100
AcDbEntity
  8
A-A
  6
Continuous
 62
     3
370
     9
100
AcDbLine
 10
484.9864073057435
 20
122.9114944264044
 30
0.0
 11
486.4864864864866
 21
122.4003332408047
 31
0.0
  0
LINE
  5
24F
330
1F
100
AcDbEntity
  8
A-A
  6
Continuous
 62
     3
370
     9
100
AcDbLine
 10
484.9864073057435
 20
127.3189420351459
 30
0.0
 11
486.4864864864866
 21
127.8302516846392
 31
0.0
  0
LINE
  5
250
330
1F
100
AcDbEntity
  8
A-A
  6
Continuous
 62
     3
370
     9
100
AcDbLine
 10
486.4864864864866
 20
132.9434966434652
 30
0.0
 11
486.4864864864866
 21
127.8302516846392
 31
0.0
  0
LINE
  5
251
330
1F
100
AcDbEntity
  8
A-A
  6
Continuous
 62
     3
370
     9
100
AcDbLine
 10
486.4864864864866
 20
122.4003332408047
 30
0.0
 11
486.4864864864866
 21
117.2870882819787
 31
0.0
  0
LINE
  5
252
330
1F
100
AcDbEntity
  8
A-A
  6
Continuous
 62
     3
370
     9
100
AcDbLine
 10
484.9864073057435
 20
116.7757786324855
 30
0.0
 11
486.4864864864866
 21
117.2870882819787
 31
0.0
  0
LINE
  5
253
330
1F
100
AcDbEntity
  8
A-A
  6
Continuous
 62
     3
370
     9
100
AcDbLine
 10
484.9864073057435
 20
116.7757786324855
 30
0.0
 11
484.9864073057435
 21
110.2283724616662
 31
0.0
  0
LINE
  5
254
330
1F
100
AcDbEntity
  8
A-A
  6
Continuous
 62
     3
370
     9
100
AcDbLine
 10
484.9864073057435
 20
110.2283724616662
 30
0.0
 11
486.4864864864866
 21
109.717062812173
 31
0.0
  0
LINE
  5
255
330
1F
100
AcDbEntity
  8
A-A
  6
Continuous
 62
     3
370
     9
100
AcDbLine
 10
484.9864073057435
 20
104.0925082038537
 30
0.0
 11
484.9864073057435
 21
99.68506059511218
 31
0.0
  0
LINE
  5
256
330
1F
100
AcDbEntity
  8
A-A
  6
Continuous
 62
     3
370
     9
100
AcDbLine
 10
484.9864073057435
 20
99.68506059511218
 30
0.0
 11
486.4864864864866
 21
99.17389940951249
 31
0.0
  0
LINE
  5
257
330
1F
100
AcDbEntity
  8
A-A
  6
Continuous
 62
     3
370
     9
100
AcDbLine
 10
484.9864073057435
 20
104.0925082038537
 30
0.0
 11
486.4864864864866
 21
104.6038178533469
 31
0.0
  0
LINE
  5
258
330
1F
100
AcDbEntity
  8
A-A
  6
Continuous
 62
     3
370
     9
100
AcDbLine
 10
486.4864864864866
 20
109.717062812173
 30
0.0
 11
486.4864864864866
 21
104.6038178533469
 31
0.0
  0
LINE
  5
259
330
1F
100
AcDbEntity
  8
A-A
  6
Continuous
 62
     3
370
     9
100
AcDbLine
 10
486.4864864864866
 20
99.17389940951249
 30
0.0
 11
486.4864864864866
 21
94.06065445068639
 31
0.0
  0
LINE
  5
25A
330
1F
100
AcDbEntity
  8
A-A
  6
Continuous
 62
     3
370
     9
100
AcDbLine
 10
484.9864073057435
 20
93.54934480119327
 30
0.0
 11
486.4864864864866
 21
94.06065445068639
 31
0.0
  0
LINE
  5
25B
330
1F
100
AcDbEntity
  8
A-A
  6
Continuous
 62
     3
370
     9
100
AcDbLine
 10
484.9864073057435
 20
93.54934480119327
 30
0.0
 11
484.9864073057435
 21
87.00193863037389
 31
0.0
  0
LINE
  5
25C
330
1F
100
AcDbEntity
  8
A-A
  6
Continuous
 62
     3
370
     9
100
AcDbLine
 10
484.9864073057435
 20
87.00193863037389
 30
0.0
 11
486.4864864864866
 21
86.49062898088077
 31
0.0
  0
LINE
  5
25D
330
1F
100
AcDbEntity
  8
A-2_蓋
  6
Continuous
 62
     3
370
     9
100
AcDbLine
 10
486.4864864864866
 20
528.3225909477304
 30
0.0
 11
486.4864864864866
 21
523.8226503332878
 31
0.0
  0
LINE
  5
25E
330
1F
100
AcDbEntity
  8
A-A
  6
Continuous
 62
     3
370
     9
100
AcDbLine
 10
486.4864864864866
 20
523.8226503332878
 30
0.0
 11
486.4864864864866
 21
522.6794783527135
 31
0.0
  0
LINE
  5
25F
330
1F
100
AcDbEntity
  8
A-2_蓋
  6
Continuous
 62
     3
370
     9
100
AcDbLine
 10
486.4864864864866
 20
82.82259754612559
 30
0.0
 11
518.4863941089528
 21
82.82259754612559
 31
0.0
  0
LINE
  5
260
330
1F
100
AcDbEntity
  8
A-2_蓋
  6
Continuous
 62
     3
370
     9
100
AcDbLine
 10
486.4864864864866
 20
78.3226569316831
 30
0.0
 11
511.4866184543919
 21
78.3226569316831
 31
0.0
  0
LINE
  5
261
330
1F
100
AcDbEntity
  8
A-2_蓋
  6
Continuous
 62
     3
370
     9
100
AcDbLine
 10
486.4864864864866
 20
82.82259754612559
 30
0.0
 11
486.4864864864866
 21
78.3226569316831
 31
0.0
  0
LINE
  5
262
330
1F
100
AcDbEntity
  8
A-2_蓋
  6
Continuous
 62
     3
370
     9
100
AcDbLine
 10
493.4865590688347
 20
82.82259754612559
 30
0.0
 11
493.4865590688347
 21
151.8372344364339
 31
0.0
  0
LINE
  5
263
330
1F
100
AcDbEntity
  8
A-2_蓋
  6
Continuous
 62
     3
370
     9
100
AcDbLine
 10
492.4865062816725
 20
82.82259754612559
 30
0.0
 11
492.4865062816725
 21
150.8371816492717
 31
0.0
  0
LINE
  5
264
330
1F
100
AcDbEntity
  8
A-4_寸法
  6
Continuous
 62
     7
370
     9
100
AcDbLine
 10
486.4864864864866
 20
-2.277797037911576
 30
0.0
 11
518.48669103674
 21
-2.277797037911576
 31
0.0
  0
TEXT
  5
265
330
1F
100
AcDbEntity
  8
A-4_寸法
  6
Continuous
 62
     2
370
   211
100
AcDbText
 10
489.7365887616133
 20
6.106169970112184
 30
0.0
 40
18.288
  1
32
 41
1.0625
  7
ＭＳ ゴシック
100
AcDbText
  0
LINE
  5
266
330
1F
100
AcDbEntity
  8
A-4_寸法
  6
Continuous
 62
     7
370
     9
100
AcDbLine
 10
486.4864864864866
 20
-42.27783002988782
 30
0.0
 11
524.4867108319256
 21
-42.27783002988782
 31
0.0
  0
TEXT
  5
267
330
1F
100
AcDbEntity
  8
A-4_寸法
  6
Continuous
 62
     2
370
   211
100
AcDbText
 10
492.7365986592061
 20
-33.89386302186423
 30
0.0
 40
18.288
  1
38
 41
1.0625
  7
ＭＳ ゴシック
100
AcDbText
  0
LINE
  5
268
330
1F
100
AcDbEntity
  8
A-4_寸法
  6
Continuous
 62
     7
370
     9
100
AcDbLine
 10
347.9520065720019
 20
68.32250021979547
 30
0.0
 11
347.9520065720019
 21
538.3226734276711
 31
0.0
  0
TEXT
  5
269
330
1F
100
AcDbEntity
  8
A-4_寸法
  6
Continuous
 62
     2
370
   211
100
AcDbText
 10
339.5683373441374
 20
283.822586675814
 30
0.0
 40
18.288
  1
470
 50
90.00000250447816
 41
1.083333333333333
  7
ＭＳ ゴシック
100
AcDbText
  0
LINE
  5
26A
330
1F
100
AcDbEntity
  8
A-4_寸法
  6
Continuous
 62
     7
370
     9
100
AcDbLine
 10
634.4865788640203
 20
128.3223270119195
 30
0.0
 11
634.4865788640203
 21
478.3229208674938
 31
0.0
  0
TEXT
  5
26B
330
1F
100
AcDbEntity
  8
A-4_寸法
  6
Continuous
 62
     2
370
   211
100
AcDbText
 10
626.1026127083687
 20
283.8226237917873
 30
0.0
 40
18.288
  1
350
 50
90.00000250447825
 41
1.083333333333333
  7
ＭＳ ゴシック
100
AcDbText
  0
LINE
  5
26C
330
1F
100
AcDbEntity
  8
A-4_寸法
  6
Continuous
 62
     7
370
     9
100
AcDbLine
 10
407.7017459353888
 20
78.32265693168313
 30
0.0
 11
407.7017459353888
 21
528.3225909477304
 31
0.0
  0
TEXT
  5
26D
330
1F
100
AcDbEntity
  8
A-4_寸法
  6
Continuous
 62
     2
370
   211
100
AcDbText
 10
399.3177797797371
 20
283.8226237917874
 30
0.0
 40
18.288
  1
450
 50
90.00000250447825
 41
1.083333333333333
  7
ＭＳ ゴシック
100
AcDbText
  0
LWPOLYLINE
  5
26E
330
1F
100
AcDbEntity
  8
A-4_寸法
  6
Continuous
 62
     7
370
     9
100
AcDbPolyline
 90
        4
 70
     1
 43
1.2
 10
-635.320574152553
 20
576.0494272811341
 42
0.4142135623731
 10
-635.920574152553
 20
576.649427281134
 42
0.4142135623731
 10
-636.5205741525529
 20
576.0494272811341
 42
0.4142135623731
 10
-635.920574152553
 20
575.449427281134
 42
0.4142135623731
  0
LWPOLYLINE
  5
26F
330
1F
100
AcDbEntity
  8
A-4_寸法
  6
Continuous
 62
     7
370
     9
100
AcDbPolyline
 90
        4
 70
     1
 43
1.2
 10
-605.3209205683047
 20
576.0494272811341
 42
0.4142135623731
 10
-605.9209205683046
 20
576.649427281134
 42
0.4142135623731
 10
-606.5209205683046
 20
576.0494272811341
 42
0.4142135623731
 10
-605.9209205683046
 20
575.449427281134
 42
0.4142135623731
  0
LINE
  5
270
330
1F
100
AcDbEntity
  8
A-4_寸法
  6
Continuous
 62
     7
370
     9
100
AcDbLine
 10
-635.920574152553
 20
514.7770089669484
 30
0.0
 11
-635.920574152553
 21
577.849403526911
 31
0.0
  0
LINE
  5
271
330
1F
100
AcDbEntity
  8
A-4_寸法
  6
Continuous
 62
     7
370
     9
100
AcDbLine
 10
-605.9209205683046
 20
514.7770089669484
 30
0.0
 11
-605.9209205683046
 21
577.849403526911
 31
0.0
  0
LWPOLYLINE
  5
272
330
1F
100
AcDbEntity
  8
A-4_寸法
  6
Continuous
 62
     7
370
     9
100
AcDbPolyline
 90
        4
 70
     1
 43
1.2
 10
-710.3210442882161
 20
614.6302939143691
 42
0.4142135623731
 10
-710.921044288216
 20
615.230293914369
 42
0.4142135623731
 10
-711.521044288216
 20
614.6302939143691
 42
0.4142135623731
 10
-710.921044288216
 20
614.030293914369
 42
0.4142135623731
  0
LINE
  5
273
330
1F
100
AcDbEntity
  8
A-4_寸法
  6
Continuous
 62
     7
370
     9
100
AcDbLine
 10
-710.921044288216
 20
616.430293914369
 30
0.0
 11
-710.921044288216
 21
550.3226734276711
 31
0.0
  0
LINE
  5
274
330
1F
100
AcDbEntity
  8
A-1_ピット
  6
Continuous
 62
     2
370
     9
100
AcDbLine
 10
-240.9206483844997
 20
538.3226734276711
 30
0.0
 11
-710.921044288216
 21
538.3226734276711
 31
0.0
  0
LINE
  5
275
330
1F
100
AcDbEntity
  8
A-1_ピット
  6
Continuous
 62
     2
370
     9
100
AcDbLine
 10
-246.9206681796855
 20
532.3225051685918
 30
0.0
 11
-704.9210616090035
 21
532.3225051685918
 31
0.0
  0
LINE
  5
276
330
1F
100
AcDbEntity
  8
A-1_ピット
  6
JWW_DASHED3
 62
     2
370
     9
100
AcDbLine
 10
-300.9205494085707
 20
478.3229208674938
 30
0.0
 11
-650.9209948002515
 21
478.3229208674938
 31
0.0
  0
LWPOLYLINE
  5
277
330
1F
100
AcDbEntity
  8
A-4_寸法
  6
Continuous
 62
     7
370
     9
100
AcDbPolyline
 90
        4
 70
     1
 43
1.2
 10
-240.3206483844997
 20
614.6302939143691
 42
0.4142135623731
 10
-240.9206483844997
 20
615.230293914369
 42
0.4142135623731
 10
-241.5206483844997
 20
614.6302939143691
 42
0.4142135623731
 10
-240.9206483844997
 20
614.030293914369
 42
0.4142135623731
  0
LINE
  5
278
330
1F
100
AcDbEntity
  8
A-4_寸法
  6
Continuous
 62
     7
370
     9
100
AcDbLine
 10
-240.9206483844997
 20
616.430293914369
 30
0.0
 11
-240.9206483844997
 21
550.3226734276711
 31
0.0
  0
LINE
  5
279
330
1F
100
AcDbEntity
  8
A-1_ピット
  6
Continuous
 62
     2
370
     9
100
AcDbLine
 10
-710.921044288216
 20
68.32264868368907
 30
0.0
 11
-710.921044288216
 21
538.3226734276711
 31
0.0
  0
LINE
  5
27A
330
1F
100
AcDbEntity
  8
A-1_ピット
  6
Continuous
 62
     2
370
     9
100
AcDbLine
 10
-704.9210616090035
 20
74.32281694276844
 30
0.0
 11
-704.9210616090035
 21
532.3225051685918
 31
0.0
  0
LINE
  5
27B
330
1F
100
AcDbEntity
  8
A-1_ピット
  6
JWW_DASHED3
 62
     2
370
     9
100
AcDbLine
 10
-650.9209948002515
 20
128.3224754758131
 30
0.0
 11
-650.9209948002515
 21
478.3229208674938
 31
0.0
  0
LINE
  5
27C
330
1F
100
AcDbEntity
  8
A-4_寸法
  6
Continuous
 62
     7
370
     9
100
AcDbLine
 10
-650.9209948002515
 20
120.8224507318309
 30
0.0
 11
-650.9209948002515
 21
-3.777801986707978
 31
0.0
  0
LINE
  5
27D
330
1F
100
AcDbEntity
  8
A-4_寸法
  6
Continuous
 62
     7
370
     9
100
AcDbLine
 10
-710.921044288216
 20
60.82262393970671
 30
0.0
 11
-710.921044288216
 21
-83.77786797066062
 31
0.0
  0
LINE
  5
27E
330
1F
100
AcDbEntity
  8
A-4_寸法
  6
Continuous
 62
     7
370
     9
100
AcDbLine
 10
-704.9210616090035
 20
66.82279219878609
 30
0.0
 11
-704.9210616090035
 21
-43.7779092106311
 31
0.0
  0
TEXT
  5
27F
330
1F
100
AcDbEntity
  8
A-4_寸法
  6
Continuous
 62
     2
370
     9
100
AcDbText
 10
-740.1345060868066
 20
-33.89386302186423
 30
0.0
 40
18.288
  1
6
  7
ＭＳ ゴシック
100
AcDbText
  0
LWPOLYLINE
  5
280
330
1F
100
AcDbEntity
  8
A-4_寸法
  6
Continuous
 62
     7
370
     9
100
AcDbPolyline
 90
        4
 70
     1
 43
1.2
 10
-650.3209948002515
 20
-2.277797037911576
 42
0.4142135623731
 10
-650.9209948002515
 20
-1.677797037911576
 42
0.4142135623731
 10
-651.5209948002514
 20
-2.277797037911576
 42
0.4142135623731
 10
-650.9209948002515
 20
-2.877797037911575
 42
0.4142135623731
  0
LWPOLYLINE
  5
281
330
1F
100
AcDbEntity
  8
A-4_寸法
  6
Continuous
 62
     7
370
     9
100
AcDbPolyline
 90
        4
 70
     1
 43
1.2
 10
-710.3210442882161
 20
-42.27783002988782
 42
0.4142135623731
 10
-710.921044288216
 20
-41.67783002988782
 42
0.4142135623731
 10
-711.521044288216
 20
-42.27783002988782
 42
0.4142135623731
 10
-710.921044288216
 20
-42.87783002988782
 42
0.4142135623731
  0
LWPOLYLINE
  5
282
330
1F
100
AcDbEntity
  8
A-4_寸法
  6
Continuous
 62
     7
370
     9
100
AcDbPolyline
 90
        4
 70
     1
 43
1.2
 10
-704.3210616090036
 20
-42.27783002988782
 42
0.4142135623731
 10
-704.9210616090035
 20
-41.67783002988782
 42
0.4142135623731
 10
-705.5210616090035
 20
-42.27783002988782
 42
0.4142135623731
 10
-704.9210616090035
 20
-42.87783002988782
 42
0.4142135623731
  0
LWPOLYLINE
  5
283
330
1F
100
AcDbEntity
  8
A-4_寸法
  6
Continuous
 62
     7
370
     9
100
AcDbPolyline
 90
        4
 70
     1
 43
1.2
 10
-710.3210442882161
 20
-82.27786302186422
 42
0.4142135623731
 10
-710.921044288216
 20
-81.67786302186423
 42
0.4142135623731
 10
-711.521044288216
 20
-82.27786302186422
 42
0.4142135623731
 10
-710.921044288216
 20
-82.87786302186423
 42
0.4142135623731
  0
LINE
  5
284
330
1F
100
AcDbEntity
  8
A-4_寸法
  6
Continuous
 62
     7
370
     9
100
AcDbLine
 10
-704.9210616090035
 20
-42.27783002988782
 30
0.0
 11
-745.843997211023
 21
-42.27783002988782
 31
0.0
  0
LINE
  5
285
330
1F
100
AcDbEntity
  8
A-1_ピット
  6
Continuous
 62
     2
370
     9
100
AcDbLine
 10
-240.9206483844997
 20
538.3226734276711
 30
0.0
 11
-240.9206483844997
 21
68.32264868368907
 31
0.0
  0
LINE
  5
286
330
1F
100
AcDbEntity
  8
A-1_ピット
  6
Continuous
 62
     2
370
     9
100
AcDbLine
 10
-246.9206681796855
 20
532.3225051685918
 30
0.0
 11
-246.9206681796855
 21
74.32281694276844
 31
0.0
  0
LINE
  5
287
330
1F
100
AcDbEntity
  8
A-1_ピット
  6
JWW_DASHED3
 62
     2
370
     9
100
AcDbLine
 10
-300.9205494085707
 20
128.3224754758131
 30
0.0
 11
-650.9209948002515
 21
128.3224754758131
 31
0.0
  0
LINE
  5
288
330
1F
100
AcDbEntity
  8
A-1_ピット
  6
Continuous
 62
     2
370
     9
100
AcDbLine
 10
-246.9206681796855
 20
74.32281694276844
 30
0.0
 11
-704.9210616090035
 21
74.32281694276844
 31
0.0
  0
LINE
  5
289
330
1F
100
AcDbEntity
  8
A-1_ピット
  6
Continuous
 62
     2
370
     9
100
AcDbLine
 10
-240.9206483844997
 20
68.32264868368907
 30
0.0
 11
-710.921044288216
 21
68.32264868368907
 31
0.0
  0
LINE
  5
28A
330
1F
100
AcDbEntity
  8
A-4_寸法
  6
Continuous
 62
     7
370
     9
100
AcDbLine
 10
-300.9205494085707
 20
120.8224507318309
 30
0.0
 11
-300.9205494085707
 21
-3.777801986707978
 31
0.0
  0
LINE
  5
28B
330
1F
100
AcDbEntity
  8
A-4_寸法
  6
Continuous
 62
     7
370
     9
100
AcDbLine
 10
-246.9206681796855
 20
66.82279219878609
 30
0.0
 11
-246.9206681796855
 21
-43.7779092106311
 31
0.0
  0
LINE
  5
28C
330
1F
100
AcDbEntity
  8
A-4_寸法
  6
Continuous
 62
     7
370
     9
100
AcDbLine
 10
-240.9206483844997
 20
60.82262393970671
 30
0.0
 11
-240.9206483844997
 21
-83.77786797066062
 31
0.0
  0
LINE
  5
28D
330
1F
100
AcDbEntity
  8
A-1_ピット
  6
JWW_DASHED3
 62
     2
370
     9
100
AcDbLine
 10
-300.9205494085707
 20
478.3229208674938
 30
0.0
 11
-300.9205494085707
 21
128.3224754758131
 31
0.0
  0
TEXT
  5
28E
330
1F
100
AcDbEntity
  8
A-4_寸法
  6
Continuous
 62
     2
370
     9
100
AcDbText
 10
-223.9864286117484
 20
-33.89386302186423
 30
0.0
 40
18.288
  1
6
  7
ＭＳ ゴシック
100
AcDbText
  0
LWPOLYLINE
  5
28F
330
1F
100
AcDbEntity
  8
A-4_寸法
  6
Continuous
 62
     7
370
     9
100
AcDbPolyline
 90
        4
 70
     1
 43
1.2
 10
-300.3205494085706
 20
-2.277797037911576
 42
0.4142135623731
 10
-300.9205494085707
 20
-1.677797037911576
 42
0.4142135623731
 10
-301.5205494085706
 20
-2.277797037911576
 42
0.4142135623731
 10
-300.9205494085707
 20
-2.877797037911575
 42
0.4142135623731
  0
LWPOLYLINE
  5
290
330
1F
100
AcDbEntity
  8
A-4_寸法
  6
Continuous
 62
     7
370
     9
100
AcDbPolyline
 90
        4
 70
     1
 43
1.2
 10
-246.3206681796855
 20
-42.27783002988782
 42
0.4142135623731
 10
-246.9206681796855
 20
-41.67783002988782
 42
0.4142135623731
 10
-247.5206681796855
 20
-42.27783002988782
 42
0.4142135623731
 10
-246.9206681796855
 20
-42.87783002988782
 42
0.4142135623731
  0
LWPOLYLINE
  5
291
330
1F
100
AcDbEntity
  8
A-4_寸法
  6
Continuous
 62
     7
370
     9
100
AcDbPolyline
 90
        4
 70
     1
 43
1.2
 10
-240.3206483844997
 20
-42.27783002988782
 42
0.4142135623731
 10
-240.9206483844997
 20
-41.67783002988782
 42
0.4142135623731
 10
-241.5206483844997
 20
-42.27783002988782
 42
0.4142135623731
 10
-240.9206483844997
 20
-42.87783002988782
 42
0.4142135623731
  0
LWPOLYLINE
  5
292
330
1F
100
AcDbEntity
  8
A-4_寸法
  6
Continuous
 62
     7
370
     9
100
AcDbPolyline
 90
        4
 70
     1
 43
1.2
 10
-240.3206483844997
 20
-82.27786302186422
 42
0.4142135623731
 10
-240.9206483844997
 20
-81.67786302186423
 42
0.4142135623731
 10
-241.5206483844997
 20
-82.27786302186422
 42
0.4142135623731
 10
-240.9206483844997
 20
-82.87786302186423
 42
0.4142135623731
  0
LINE
  5
293
330
1F
100
AcDbEntity
  8
A-4_寸法
  6
Continuous
 62
     7
370
     9
100
AcDbLine
 10
-246.9206681796855
 20
-42.27783002988782
 30
0.0
 11
-199.7749463203801
 21
-42.27783002988782
 31
0.0
  0
LINE
  5
294
330
1F
100
AcDbEntity
  8
A-4_寸法
  6
Continuous
 62
     7
370
     9
100
AcDbLine
 10
-700.9209783042633
 20
70.82278065159437
 30
0.0
 11
-700.9209783042633
 21
-43.7779092106311
 31
0.0
  0
LWPOLYLINE
  5
295
330
1F
100
AcDbEntity
  8
A-4_寸法
  6
Continuous
 62
     7
370
     9
100
AcDbPolyline
 90
        4
 70
     1
 43
1.2
 10
-700.3209783042633
 20
-42.27783002988782
 42
0.4142135623731
 10
-700.9209783042633
 20
-41.67783002988782
 42
0.4142135623731
 10
-701.5209783042633
 20
-42.27783002988782
 42
0.4142135623731
 10
-700.9209783042633
 20
-42.87783002988782
 42
0.4142135623731
  0
LINE
  5
296
330
1F
100
AcDbEntity
  8
A-4_寸法
  6
Continuous
 62
     7
370
     9
100
AcDbLine
 10
-250.9205659045588
 20
70.82278065159437
 30
0.0
 11
-250.9205659045588
 21
-43.7779092106311
 31
0.0
  0
LWPOLYLINE
  5
297
330
1F
100
AcDbEntity
  8
A-4_寸法
  6
Continuous
 62
     7
370
     9
100
AcDbPolyline
 90
        4
 70
     1
 43
1.2
 10
-250.3205659045587
 20
-42.27783002988782
 42
0.4142135623731
 10
-250.9205659045588
 20
-41.67783002988782
 42
0.4142135623731
 10
-251.5205659045588
 20
-42.27783002988782
 42
0.4142135623731
 10
-250.9205659045588
 20
-42.87783002988782
 42
0.4142135623731
  0
LINE
  5
298
330
1F
100
AcDbEntity
  8
A-1_ピット
  6
Continuous
 62
     2
370
     9
100
AcDbLine
 10
-530.9207803524051
 20
548.9225500376797
 30
0.0
 11
-530.9207803524051
 21
542.822910969901
 31
0.0
  0
LINE
  5
299
330
1F
100
AcDbEntity
  8
A-1_ピット
  6
Continuous
 62
     2
370
     9
100
AcDbLine
 10
-430.9208463363578
 20
558.922484053727
 30
0.0
 11
-520.9208463363578
 21
558.922484053727
 31
0.0
  0
LINE
  5
29A
330
1F
100
AcDbEntity
  8
A-1_ピット
  6
Continuous
 62
     2
370
     9
100
AcDbLine
 10
-420.9208380883638
 20
548.9225500376797
 30
0.0
 11
-420.9208380883638
 21
542.822910969901
 31
0.0
  0
LINE
  5
29B
330
1F
100
AcDbEntity
  8
A-1_ピット
  6
Continuous
 62
     2
370
     9
100
AcDbLine
 10
-429.9208677811425
 20
548.9225500376797
 30
0.0
 11
-429.9208677811425
 21
542.822910969901
 31
0.0
  0
LINE
  5
29C
330
1F
100
AcDbEntity
  8
A-1_ピット
  6
Continuous
 62
     2
370
     9
100
AcDbLine
 10
-520.9208463363578
 20
549.9226028248418
 30
0.0
 11
-430.9207721044111
 21
549.9226028248418
 31
0.0
  0
LINE
  5
29D
330
1F
100
AcDbEntity
  8
A-1_ピット
  6
Continuous
 62
     2
370
     9
100
AcDbLine
 10
-521.92089912352
 20
548.9225500376797
 30
0.0
 11
-521.92089912352
 21
542.822910969901
 31
0.0
  0
LINE
  5
29E
330
1F
100
AcDbEntity
  8
A-1_ピット
  6
JWW_CENTER1
 62
     2
370
     9
100
AcDbLine
 10
-526.4208397379626
 20
534.715297741438
 30
0.0
 11
-526.4208397379626
 21
550.3129144010666
 31
0.0
  0
LINE
  5
29F
330
1F
100
AcDbEntity
  8
A-1_ピット
  6
JWW_CENTER1
 62
     2
370
     9
100
AcDbLine
 10
-518.257849477194
 20
542.822910969901
 30
0.0
 11
-534.6649655165733
 21
542.822910969901
 31
0.0
  0
LINE
  5
2A0
330
1F
100
AcDbEntity
  8
A-1_ピット
  6
JWW_CENTER1
 62
     2
370
     9
100
AcDbLine
 10
-425.4206302389127
 20
534.715297741438
 30
0.0
 11
-425.4206302389127
 21
550.3129144010666
 31
0.0
  0
LINE
  5
2A1
330
1F
100
AcDbEntity
  8
A-1_ピット
  6
JWW_CENTER1
 62
     2
370
     9
100
AcDbLine
 10
-417.2580111378782
 20
542.822910969901
 30
0.0
 11
-433.6648302494702
 21
542.822910969901
 31
0.0
  0
CIRCLE
  5
2A2
330
1F
100
AcDbEntity
  8
A-1_ピット
  6
Continuous
 62
     2
370
     9
100
AcDbCircle
 10
-526.4208397379626
 20
542.822910969901
 30
0.0
 40
4.500000057993709
  0
CIRCLE
  5
2A3
330
1F
100
AcDbEntity
  8
A-1_ピット
  6
Continuous
 62
     2
370
     9
100
AcDbCircle
 10
-425.4209271666999
 20
542.822910969901
 30
0.0
 40
4.500000057993709
  0
ARC
  5
2A4
330
1F
100
AcDbEntity
  8
A-1_ピット
  6
Continuous
 62
     2
370
     9
100
AcDbCircle
 10
-520.9208463363578
 20
548.9225500376797
 30
0.0
 40
9.999998969000739
100
AcDbArc
 50
90.0
 51
180.0
  0
ARC
  5
2A5
330
1F
100
AcDbEntity
  8
A-1_ピット
  6
Continuous
 62
     2
370
     9
100
AcDbCircle
 10
-430.9208463363578
 20
548.9225500376797
 30
0.0
 40
9.999998969000739
100
AcDbArc
 50
0.0
 51
90.0
  0
ARC
  5
2A6
330
1F
100
AcDbEntity
  8
A-1_ピット
  6
Continuous
 62
     2
370
     9
100
AcDbCircle
 10
-430.9207721044111
 20
548.9225500376797
 30
0.0
 40
0.9999999403953552
100
AcDbArc
 50
0.0
 51
90.0
  0
ARC
  5
2A7
330
1F
100
AcDbEntity
  8
A-1_ピット
  6
Continuous
 62
     2
370
     9
100
AcDbCircle
 10
-520.9208463363578
 20
548.9225500376797
 30
0.0
 40
0.9999999403953552
100
AcDbArc
 50
90.0
 51
180.0
  0
LWPOLYLINE
  5
2A8
330
1F
100
AcDbEntity
  8
A-4_寸法
  6
Continuous
 62
     7
370
     9
100
AcDbPolyline
 90
        4
 70
     1
 43
1.2
 10
-475.3208463363579
 20
614.6302939143691
 42
0.4142135623731
 10
-475.9208463363578
 20
615.230293914369
 42
0.4142135623731
 10
-476.5208463363578
 20
614.6302939143691
 42
0.4142135623731
 10
-475.9208463363578
 20
614.030293914369
 42
0.4142135623731
  0
LINE
  5
2A9
330
1F
100
AcDbEntity
  8
A-4_寸法
  6
Continuous
 62
     7
370
     9
100
AcDbLine
 10
-475.9208463363578
 20
616.430293914369
 30
0.0
 11
-475.9208463363578
 21
570.922484053727
 31
0.0
  0
LINE
  5
2AA
330
1F
100
AcDbEntity
  8
A-1_ピット
  6
Continuous
 62
     2
370
     9
100
AcDbLine
 10
-530.9207803524051
 20
57.72195552226594
 30
0.0
 11
-530.9207803524051
 21
63.82233690951249
 31
0.0
  0
LINE
  5
2AB
330
1F
100
AcDbEntity
  8
A-1_ピット
  6
Continuous
 62
     2
370
     9
100
AcDbLine
 10
-430.9208463363578
 20
47.72216997011218
 30
0.0
 11
-520.9208463363578
 21
47.72216997011218
 31
0.0
  0
LINE
  5
2AC
330
1F
100
AcDbEntity
  8
A-1_ピット
  6
Continuous
 62
     2
370
     9
100
AcDbLine
 10
-420.9208380883638
 20
57.72195552226594
 30
0.0
 11
-420.9208380883638
 21
63.82233690951249
 31
0.0
  0
LINE
  5
2AD
330
1F
100
AcDbEntity
  8
A-1_ピット
  6
Continuous
 62
     2
370
     9
100
AcDbLine
 10
-429.9208677811425
 20
57.72195552226594
 30
0.0
 11
-429.9208677811425
 21
63.82233690951249
 31
0.0
  0
LINE
  5
2AE
330
1F
100
AcDbEntity
  8
A-1_ピット
  6
Continuous
 62
     2
370
     9
100
AcDbLine
 10
-520.9208463363578
 20
56.72205119899734
 30
0.0
 11
-430.9207721044111
 21
56.72205119899734
 31
0.0
  0
LINE
  5
2AF
330
1F
100
AcDbEntity
  8
A-1_ピット
  6
Continuous
 62
     2
370
     9
100
AcDbLine
 10
-521.92089912352
 20
57.72195552226594
 30
0.0
 11
-521.92089912352
 21
63.82233690951249
 31
0.0
  0
LINE
  5
2B0
330
1F
100
AcDbEntity
  8
A-1_ピット
  6
JWW_CENTER1
 62
     2
370
     9
100
AcDbLine
 10
-526.4208397379626
 20
71.92943051434781
 30
0.0
 11
-526.4208397379626
 21
56.33233347834686
 31
0.0
  0
LINE
  5
2B1
330
1F
100
AcDbEntity
  8
A-1_ピット
  6
JWW_CENTER1
 62
     2
370
     9
100
AcDbLine
 10
-518.257849477194
 20
63.82233690951249
 30
0.0
 11
-534.6649655165733
 21
63.82233690951249
 31
0.0
  0
LINE
  5
2B2
330
1F
100
AcDbEntity
  8
A-1_ピット
  6
JWW_CENTER1
 62
     2
370
     9
100
AcDbLine
 10
-425.4206302389127
 20
71.92943051434781
 30
0.0
 11
-425.4206302389127
 21
56.33233347834686
 31
0.0
  0
LINE
  5
2B3
330
1F
100
AcDbEntity
  8
A-1_ピット
  6
JWW_CENTER1
 62
     2
370
     9
100
AcDbLine
 10
-417.2580111378782
 20
63.82233690951249
 30
0.0
 11
-433.6648302494702
 21
63.82233690951249
 31
0.0
  0
CIRCLE
  5
2B4
330
1F
100
AcDbEntity
  8
A-1_ピット
  6
Continuous
 62
     2
370
     9
100
AcDbCircle
 10
-526.4208397379626
 20
63.82233690951249
 30
0.0
 40
4.500000057993709
  0
CIRCLE
  5
2B5
330
1F
100
AcDbEntity
  8
A-1_ピット
  6
Continuous
 62
     2
370
     9
100
AcDbCircle
 10
-425.4209271666999
 20
63.82233690951249
 30
0.0
 40
4.500000057993709
  0
ARC
  5
2B6
330
1F
100
AcDbEntity
  8
A-1_ピット
  6
Continuous
 62
     2
370
     9
100
AcDbCircle
 10
-520.9208463363578
 20
57.72195552226594
 30
0.0
 40
9.999998969000739
100
AcDbArc
 50
180.0
 51
270.0
  0
ARC
  5
2B7
330
1F
100
AcDbEntity
  8
A-1_ピット
  6
Continuous
 62
     2
370
     9
100
AcDbCircle
 10
-430.9208463363578
 20
57.72195552226594
 30
0.0
 40
9.999998969000739
100
AcDbArc
 50
270.0
 51
0.0
  0
ARC
  5
2B8
330
1F
100
AcDbEntity
  8
A-1_ピット
  6
Continuous
 62
     2
370
     9
100
AcDbCircle
 10
-430.9207721044111
 20
57.72195552226594
 30
0.0
 40
0.9999999403953552
100
AcDbArc
 50
270.0
 51
0.0
  0
ARC
  5
2B9
330
1F
100
AcDbEntity
  8
A-1_ピット
  6
Continuous
 62
     2
370
     9
100
AcDbCircle
 10
-520.9208463363578
 20
57.72195552226594
 30
0.0
 40
0.9999999403953552
100
AcDbArc
 50
180.0
 51
270.0
  0
LINE
  5
2BA
330
1F
100
AcDbEntity
  8
A-2_蓋
  6
Continuous
 62
     3
370
     9
100
AcDbLine
 10
-275.9207391124348
 20
457.5623238446898
 30
0.0
 11
-305.9209123203105
 21
449.0828085628063
 31
0.0
  0
LINE
  5
2BB
330
1F
100
AcDbEntity
  8
A-2_蓋
  6
Continuous
 62
     3
370
     9
100
AcDbLine
 10
-305.9209123203105
 20
457.5623238446898
 30
0.0
 11
-335.9211597601332
 21
449.0828085628063
 31
0.0
  0
LINE
  5
2BC
330
1F
100
AcDbEntity
  8
A-2_蓋
  6
Continuous
 62
     3
370
     9
100
AcDbLine
 10
-335.9211597601332
 20
457.5623238446898
 30
0.0
 11
-365.9205164165945
 21
449.0828085628063
 31
0.0
  0
LINE
  5
2BD
330
1F
100
AcDbEntity
  8
A-2_蓋
  6
Continuous
 62
     3
370
     9
100
AcDbLine
 10
-365.9205164165945
 20
457.5623238446898
 30
0.0
 11
-395.9208380883638
 21
449.0828085628063
 31
0.0
  0
LINE
  5
2BE
330
1F
100
AcDbEntity
  8
A-2_蓋
  6
Continuous
 62
     3
370
     9
100
AcDbLine
 10
-395.9208380883638
 20
457.5623238446898
 30
0.0
 11
-425.9208628323461
 21
449.0828085628063
 31
0.0
  0
LINE
  5
2BF
330
1F
100
AcDbEntity
  8
A-2_蓋
  6
Continuous
 62
     3
370
     9
100
AcDbLine
 10
-425.9208628323461
 20
457.5623238446898
 30
0.0
 11
-455.921036040222
 21
449.0828085628063
 31
0.0
  0
LINE
  5
2C0
330
1F
100
AcDbEntity
  8
A-2_蓋
  6
Continuous
 62
     3
370
     9
100
AcDbLine
 10
-455.9205164165944
 20
457.5623238446898
 30
0.0
 11
-485.921135016151
 21
449.0828085628063
 31
0.0
  0
LINE
  5
2C1
330
1F
100
AcDbEntity
  8
A-2_蓋
  6
Continuous
 62
     3
370
     9
100
AcDbLine
 10
-485.920763856417
 20
457.5623238446898
 30
0.0
 11
-515.9208628323461
 21
449.0828085628063
 31
0.0
  0
LINE
  5
2C2
330
1F
100
AcDbEntity
  8
A-2_蓋
  6
Continuous
 62
     3
370
     9
100
AcDbLine
 10
-515.9208628323461
 20
457.5623238446898
 30
0.0
 11
-545.9205164165944
 21
449.0828085628063
 31
0.0
  0
LINE
  5
2C3
330
1F
100
AcDbEntity
  8
A-2_蓋
  6
Continuous
 62
     3
370
     9
100
AcDbLine
 10
-545.9205164165944
 20
457.5623238446898
 30
0.0
 11
-575.9210607842042
 21
449.0828085628063
 31
0.0
  0
LINE
  5
2C4
330
1F
100
AcDbEntity
  8
A-2_蓋
  6
Continuous
 62
     3
370
     9
100
AcDbLine
 10
-575.9210607842042
 20
457.5623238446898
 30
0.0
 11
-605.9207886003993
 21
449.0828085628063
 31
0.0
  0
LINE
  5
2C5
330
1F
100
AcDbEntity
  8
A-2_蓋
  6
Continuous
 62
     3
370
     9
100
AcDbLine
 10
-605.9207886003993
 20
457.5623238446898
 30
0.0
 11
-635.9203679527008
 21
449.0828085628063
 31
0.0
  0
LINE
  5
2C6
330
1F
100
AcDbEntity
  8
A-2_蓋
  6
Continuous
 62
     3
370
     9
100
AcDbLine
 10
-635.9203679527008
 20
457.5623238446898
 30
0.0
 11
-665.9210607842042
 21
449.0828085628063
 31
0.0
  0
LINE
  5
2C7
330
1F
100
AcDbEntity
  8
A-2_蓋
  6
Continuous
 62
     3
370
     9
100
AcDbLine
 10
-665.9210607842042
 20
457.5623238446898
 30
0.0
 11
-695.9207143684526
 21
449.0828085628063
 31
0.0
  0
LINE
  5
2C8
330
1F
100
AcDbEntity
  8
A-2_蓋
  6
Continuous
 62
     3
370
     9
100
AcDbLine
 10
-695.9207143684526
 20
457.5623238446898
 30
0.0
 11
-700.9209783042633
 21
456.5624195214212
 31
0.0
  0
LINE
  5
2C9
330
1F
100
AcDbEntity
  8
A-2_蓋
  6
Continuous
 62
     3
370
     9
100
AcDbLine
 10
-275.9207391124348
 20
449.0828085628063
 30
0.0
 11
-275.9207391124348
 21
357.5623898286425
 31
0.0
  0
LINE
  5
2CA
330
1F
100
AcDbEntity
  8
A-2_蓋
  6
Continuous
 62
     3
370
     9
100
AcDbLine
 10
-280.9204834246181
 20
449.0828085628063
 30
0.0
 11
-280.9204834246181
 21
357.5623898286425
 31
0.0
  0
LINE
  5
2CB
330
1F
100
AcDbEntity
  8
A-2_蓋
  6
Continuous
 62
     3
370
     9
100
AcDbLine
 10
-305.9209123203105
 20
449.0828085628063
 30
0.0
 11
-305.9209123203105
 21
357.5623898286425
 31
0.0
  0
LINE
  5
2CC
330
1F
100
AcDbEntity
  8
A-2_蓋
  6
Continuous
 62
     3
370
     9
100
AcDbLine
 10
-310.9207308644407
 20
449.0828085628063
 30
0.0
 11
-310.9207308644407
 21
357.5623898286425
 31
0.0
  0
LINE
  5
2CD
330
1F
100
AcDbEntity
  8
A-2_蓋
  6
Continuous
 62
     3
370
     9
100
AcDbLine
 10
-335.9211597601332
 20
449.0828085628063
 30
0.0
 11
-335.9211597601332
 21
357.5623898286425
 31
0.0
  0
LINE
  5
2CE
330
1F
100
AcDbEntity
  8
A-2_蓋
  6
Continuous
 62
     3
370
     9
100
AcDbLine
 10
-340.9208298403698
 20
449.0828085628063
 30
0.0
 11
-340.9208298403698
 21
357.5623898286425
 31
0.0
  0
LINE
  5
2CF
330
1F
100
AcDbEntity
  8
A-2_蓋
  6
Continuous
 62
     3
370
     9
100
AcDbLine
 10
-365.9205164165945
 20
449.0828085628063
 30
0.0
 11
-365.9205164165945
 21
357.5623898286425
 31
0.0
  0
LINE
  5
2D0
330
1F
100
AcDbEntity
  8
A-2_蓋
  6
Continuous
 62
     3
370
     9
100
AcDbLine
 10
-370.9207803524052
 20
449.0828085628063
 30
0.0
 11
-370.9207803524052
 21
357.5623898286425
 31
0.0
  0
LINE
  5
2D1
330
1F
100
AcDbEntity
  8
A-2_蓋
  6
Continuous
 62
     3
370
     9
100
AcDbLine
 10
-395.9208380883638
 20
449.0828085628063
 30
0.0
 11
-395.9208380883638
 21
357.5623898286425
 31
0.0
  0
LINE
  5
2D2
330
1F
100
AcDbEntity
  8
A-2_蓋
  6
Continuous
 62
     3
370
     9
100
AcDbLine
 10
-400.9206566324938
 20
449.0828085628063
 30
0.0
 11
-400.9206566324938
 21
357.5623898286425
 31
0.0
  0
LINE
  5
2D3
330
1F
100
AcDbEntity
  8
A-2_蓋
  6
Continuous
 62
     3
370
     9
100
AcDbLine
 10
-425.9208628323461
 20
449.0828085628063
 30
0.0
 11
-425.9208628323461
 21
357.5623898286425
 31
0.0
  0
LINE
  5
2D4
330
1F
100
AcDbEntity
  8
A-2_蓋
  6
Continuous
 62
     3
370
     9
100
AcDbLine
 10
-430.9206813764762
 20
449.0828085628063
 30
0.0
 11
-430.9206813764762
 21
357.5623898286425
 31
0.0
  0
LINE
  5
2D5
330
1F
100
AcDbEntity
  8
A-2_蓋
  6
Continuous
 62
     3
370
     9
100
AcDbLine
 10
-455.921036040222
 20
449.0828085628063
 30
0.0
 11
-455.921036040222
 21
357.5623898286425
 31
0.0
  0
LINE
  5
2D6
330
1F
100
AcDbEntity
  8
A-2_蓋
  6
Continuous
 62
     3
370
     9
100
AcDbLine
 10
-460.9207803524051
 20
449.0828085628063
 30
0.0
 11
-460.9207803524051
 21
357.5623898286425
 31
0.0
  0
LINE
  5
2D7
330
1F
100
AcDbEntity
  8
A-2_蓋
  6
Continuous
 62
     3
370
     9
100
AcDbLine
 10
-485.921135016151
 20
449.0828085628063
 30
0.0
 11
-485.921135016151
 21
357.5623898286425
 31
0.0
  0
LINE
  5
2D8
330
1F
100
AcDbEntity
  8
A-2_蓋
  6
Continuous
 62
     3
370
     9
100
AcDbLine
 10
-490.9205824005471
 20
449.0828085628063
 30
0.0
 11
-490.9205824005471
 21
357.5623898286425
 31
0.0
  0
LINE
  5
2D9
330
1F
100
AcDbEntity
  8
A-2_蓋
  6
Continuous
 62
     3
370
     9
100
AcDbLine
 10
-515.9208628323461
 20
449.0828085628063
 30
0.0
 11
-515.9208628323461
 21
357.5623898286425
 31
0.0
  0
LINE
  5
2DA
330
1F
100
AcDbEntity
  8
A-2_蓋
  6
Continuous
 62
     3
370
     9
100
AcDbLine
 10
-520.920013288955
 20
449.0828085628063
 30
0.0
 11
-520.920013288955
 21
357.5623898286425
 31
0.0
  0
LINE
  5
2DB
330
1F
100
AcDbEntity
  8
A-2_蓋
  6
Continuous
 62
     3
370
     9
100
AcDbLine
 10
-545.9205164165944
 20
449.0828085628063
 30
0.0
 11
-545.9205164165944
 21
357.5623898286425
 31
0.0
  0
LINE
  5
2DC
330
1F
100
AcDbEntity
  8
A-2_蓋
  6
Continuous
 62
     3
370
     9
100
AcDbLine
 10
-550.9207803524052
 20
449.0828085628063
 30
0.0
 11
-550.9207803524052
 21
357.5623898286425
 31
0.0
  0
LINE
  5
2DD
330
1F
100
AcDbEntity
  8
A-2_蓋
  6
Continuous
 62
     3
370
     9
100
AcDbLine
 10
-575.9210607842042
 20
449.0828085628063
 30
0.0
 11
-575.9210607842042
 21
357.5623898286425
 31
0.0
  0
LINE
  5
2DE
330
1F
100
AcDbEntity
  8
A-2_蓋
  6
Continuous
 62
     3
370
     9
100
AcDbLine
 10
-580.9204339366536
 20
449.0828085628063
 30
0.0
 11
-580.9204339366536
 21
357.5623898286425
 31
0.0
  0
LINE
  5
2DF
330
1F
100
AcDbEntity
  8
A-2_蓋
  6
Continuous
 62
     3
370
     9
100
AcDbLine
 10
-605.9207886003993
 20
449.0828085628063
 30
0.0
 11
-605.9207886003993
 21
357.5623898286425
 31
0.0
  0
LINE
  5
2E0
330
1F
100
AcDbEntity
  8
A-2_蓋
  6
Continuous
 62
     3
370
     9
100
AcDbLine
 10
-610.92105253621
 20
449.0828085628063
 30
0.0
 11
-610.92105253621
 21
357.5623898286425
 31
0.0
  0
LINE
  5
2E1
330
1F
100
AcDbEntity
  8
A-2_蓋
  6
Continuous
 62
     3
370
     9
100
AcDbLine
 10
-635.9203679527008
 20
449.0828085628063
 30
0.0
 11
-635.9203679527008
 21
357.5623898286425
 31
0.0
  0
LINE
  5
2E2
330
1F
100
AcDbEntity
  8
A-2_蓋
  6
Continuous
 62
     3
370
     9
100
AcDbLine
 10
-640.9207803524052
 20
449.0828085628063
 30
0.0
 11
-640.9207803524052
 21
357.5623898286425
 31
0.0
  0
LINE
  5
2E3
330
1F
100
AcDbEntity
  8
A-2_蓋
  6
Continuous
 62
     3
370
     9
100
AcDbLine
 10
-665.9210607842042
 20
449.0828085628063
 30
0.0
 11
-665.9210607842042
 21
357.5623898286425
 31
0.0
  0
LINE
  5
2E4
330
1F
100
AcDbEntity
  8
A-2_蓋
  6
Continuous
 62
     3
370
     9
100
AcDbLine
 10
-670.9202854727599
 20
449.0828085628063
 30
0.0
 11
-670.9202854727599
 21
357.5623898286425
 31
0.0
  0
LINE
  5
2E5
330
1F
100
AcDbEntity
  8
A-2_蓋
  6
Continuous
 62
     3
370
     9
100
AcDbLine
 10
-670.9202854727599
 20
523.8229472610749
 30
0.0
 11
-670.9202854727599
 21
457.5623238446898
 31
0.0
  0
LINE
  5
2E6
330
1F
100
AcDbEntity
  8
A-2_蓋
  6
Continuous
 62
     3
370
     9
100
AcDbLine
 10
-665.9210607842042
 20
523.8229472610749
 30
0.0
 11
-665.9210607842042
 21
457.5623238446898
 31
0.0
  0
LINE
  5
2E7
330
1F
100
AcDbEntity
  8
A-2_蓋
  6
Continuous
 62
     3
370
     9
100
AcDbLine
 10
-340.9208298403698
 20
523.8229472610749
 30
0.0
 11
-340.9208298403698
 21
457.5623238446898
 31
0.0
  0
LINE
  5
2E8
330
1F
100
AcDbEntity
  8
A-2_蓋
  6
Continuous
 62
     3
370
     9
100
AcDbLine
 10
-335.9211597601332
 20
523.8229472610749
 30
0.0
 11
-335.9211597601332
 21
457.5623238446898
 31
0.0
  0
LINE
  5
2E9
330
1F
100
AcDbEntity
  8
A-2_蓋
  6
Continuous
 62
     3
370
     9
100
AcDbLine
 10
-370.9207803524052
 20
523.8229472610749
 30
0.0
 11
-370.9207803524052
 21
457.5623238446898
 31
0.0
  0
LINE
  5
2EA
330
1F
100
AcDbEntity
  8
A-2_蓋
  6
Continuous
 62
     3
370
     9
100
AcDbLine
 10
-365.9205164165945
 20
523.8229472610749
 30
0.0
 11
-365.9205164165945
 21
457.5623238446898
 31
0.0
  0
LINE
  5
2EB
330
1F
100
AcDbEntity
  8
A-2_蓋
  6
Continuous
 62
     3
370
     9
100
AcDbLine
 10
-400.9206566324938
 20
523.8229472610749
 30
0.0
 11
-400.9206566324938
 21
457.5623238446898
 31
0.0
  0
LINE
  5
2EC
330
1F
100
AcDbEntity
  8
A-2_蓋
  6
Continuous
 62
     3
370
     9
100
AcDbLine
 10
-395.9208380883638
 20
523.8229472610749
 30
0.0
 11
-395.9208380883638
 21
457.5623238446898
 31
0.0
  0
LINE
  5
2ED
330
1F
100
AcDbEntity
  8
A-2_蓋
  6
Continuous
 62
     3
370
     9
100
AcDbLine
 10
-430.9206813764762
 20
523.8229472610749
 30
0.0
 11
-430.9206813764762
 21
457.5623238446898
 31
0.0
  0
LINE
  5
2EE
330
1F
100
AcDbEntity
  8
A-2_蓋
  6
Continuous
 62
     3
370
     9
100
AcDbLine
 10
-425.9208628323461
 20
523.8229472610749
 30
0.0
 11
-425.9208628323461
 21
457.5623238446898
 31
0.0
  0
LINE
  5
2EF
330
1F
100
AcDbEntity
  8
A-2_蓋
  6
Continuous
 62
     3
370
     9
100
AcDbLine
 10
-460.9207803524051
 20
523.8229472610749
 30
0.0
 11
-460.9207803524051
 21
457.5623238446898
 31
0.0
  0
LINE
  5
2F0
330
1F
100
AcDbEntity
  8
A-2_蓋
  6
Continuous
 62
     3
370
     9
100
AcDbLine
 10
-455.921036040222
 20
523.8229472610749
 30
0.0
 11
-455.921036040222
 21
457.5623238446898
 31
0.0
  0
LINE
  5
2F1
330
1F
100
AcDbEntity
  8
A-2_蓋
  6
Continuous
 62
     3
370
     9
100
AcDbLine
 10
-490.9205824005471
 20
523.8229472610749
 30
0.0
 11
-490.9205824005471
 21
457.5623238446898
 31
0.0
  0
LINE
  5
2F2
330
1F
100
AcDbEntity
  8
A-2_蓋
  6
Continuous
 62
     3
370
     9
100
AcDbLine
 10
-485.921135016151
 20
523.8229472610749
 30
0.0
 11
-485.921135016151
 21
457.5623238446898
 31
0.0
  0
LINE
  5
2F3
330
1F
100
AcDbEntity
  8
A-2_蓋
  6
Continuous
 62
     3
370
     9
100
AcDbLine
 10
-520.920013288955
 20
523.8229472610749
 30
0.0
 11
-520.920013288955
 21
457.5623238446898
 31
0.0
  0
LINE
  5
2F4
330
1F
100
AcDbEntity
  8
A-2_蓋
  6
Continuous
 62
     3
370
     9
100
AcDbLine
 10
-515.9208628323461
 20
523.8229472610749
 30
0.0
 11
-515.9208628323461
 21
457.5623238446898
 31
0.0
  0
LINE
  5
2F5
330
1F
100
AcDbEntity
  8
A-2_蓋
  6
Continuous
 62
     3
370
     9
100
AcDbLine
 10
-550.9207803524052
 20
523.8229472610749
 30
0.0
 11
-550.9207803524052
 21
457.5623238446898
 31
0.0
  0
LINE
  5
2F6
330
1F
100
AcDbEntity
  8
A-2_蓋
  6
Continuous
 62
     3
370
     9
100
AcDbLine
 10
-545.9205164165944
 20
523.8229472610749
 30
0.0
 11
-545.9205164165944
 21
457.5623238446898
 31
0.0
  0
LINE
  5
2F7
330
1F
100
AcDbEntity
  8
A-2_蓋
  6
Continuous
 62
     3
370
     9
100
AcDbLine
 10
-580.9204339366536
 20
523.8229472610749
 30
0.0
 11
-580.9204339366536
 21
457.5623238446898
 31
0.0
  0
LINE
  5
2F8
330
1F
100
AcDbEntity
  8
A-2_蓋
  6
Continuous
 62
     3
370
     9
100
AcDbLine
 10
-575.9210607842042
 20
523.8229472610749
 30
0.0
 11
-575.9210607842042
 21
457.5623238446898
 31
0.0
  0
LINE
  5
2F9
330
1F
100
AcDbEntity
  8
A-2_蓋
  6
Continuous
 62
     3
370
     9
100
AcDbLine
 10
-610.92105253621
 20
523.8229472610749
 30
0.0
 11
-610.92105253621
 21
457.5623238446898
 31
0.0
  0
LINE
  5
2FA
330
1F
100
AcDbEntity
  8
A-2_蓋
  6
Continuous
 62
     3
370
     9
100
AcDbLine
 10
-605.9207886003993
 20
523.8229472610749
 30
0.0
 11
-605.9207886003993
 21
457.5623238446898
 31
0.0
  0
LINE
  5
2FB
330
1F
100
AcDbEntity
  8
A-2_蓋
  6
Continuous
 62
     3
370
     9
100
AcDbLine
 10
-640.9207803524052
 20
523.8229472610749
 30
0.0
 11
-640.9207803524052
 21
457.5623238446898
 31
0.0
  0
LINE
  5
2FC
330
1F
100
AcDbEntity
  8
A-2_蓋
  6
Continuous
 62
     3
370
     9
100
AcDbLine
 10
-635.9203679527008
 20
523.8229472610749
 30
0.0
 11
-635.9203679527008
 21
457.5623238446898
 31
0.0
  0
LINE
  5
2FD
330
1F
100
AcDbEntity
  8
A-2_蓋
  6
Continuous
 62
     3
370
     9
100
AcDbLine
 10
-280.9204834246181
 20
523.8229472610749
 30
0.0
 11
-280.9204834246181
 21
457.5623238446898
 31
0.0
  0
LINE
  5
2FE
330
1F
100
AcDbEntity
  8
A-2_蓋
  6
Continuous
 62
     3
370
     9
100
AcDbLine
 10
-275.9207391124348
 20
523.8229472610749
 30
0.0
 11
-275.9207391124348
 21
457.5623238446898
 31
0.0
  0
LINE
  5
2FF
330
1F
100
AcDbEntity
  8
A-2_蓋
  6
Continuous
 62
     3
370
     9
100
AcDbLine
 10
-310.9207308644407
 20
523.8229472610749
 30
0.0
 11
-310.9207308644407
 21
457.5623238446898
 31
0.0
  0
LINE
  5
300
330
1F
100
AcDbEntity
  8
A-2_蓋
  6
Continuous
 62
     3
370
     9
100
AcDbLine
 10
-305.9209123203105
 20
523.8229472610749
 30
0.0
 11
-305.9209123203105
 21
457.5623238446898
 31
0.0
  0
LINE
  5
301
330
1F
100
AcDbEntity
  8
A-2_蓋
  6
Continuous
 62
     3
370
     9
100
AcDbLine
 10
-695.9207143684526
 20
357.5623898286425
 30
0.0
 11
-695.9207143684526
 21
449.0828085628063
 31
0.0
  0
LINE
  5
302
330
1F
100
AcDbEntity
  8
A-2_蓋
  6
Continuous
 62
     3
370
     9
100
AcDbLine
 10
-695.9207143684526
 20
457.5623238446898
 30
0.0
 11
-695.9207143684526
 21
523.8229472610749
 31
0.0
  0
LINE
  5
303
330
1F
100
AcDbEntity
  8
A-2_蓋
  6
Continuous
 62
     3
370
     9
100
AcDbLine
 10
-275.9207391124348
 20
357.5623898286425
 30
0.0
 11
-305.9209123203105
 21
349.0827260828655
 31
0.0
  0
LINE
  5
304
330
1F
100
AcDbEntity
  8
A-2_蓋
  6
Continuous
 62
     3
370
     9
100
AcDbLine
 10
-305.9209123203105
 20
357.5623898286425
 30
0.0
 11
-335.9211597601332
 21
349.0827260828655
 31
0.0
  0
LINE
  5
305
330
1F
100
AcDbEntity
  8
A-2_蓋
  6
Continuous
 62
     3
370
     9
100
AcDbLine
 10
-335.9211597601332
 20
357.5623898286425
 30
0.0
 11
-365.9205164165945
 21
349.0827260828655
 31
0.0
  0
LINE
  5
306
330
1F
100
AcDbEntity
  8
A-2_蓋
  6
Continuous
 62
     3
370
     9
100
AcDbLine
 10
-365.9205164165945
 20
357.5623898286425
 30
0.0
 11
-395.9208380883638
 21
349.0827260828655
 31
0.0
  0
LINE
  5
307
330
1F
100
AcDbEntity
  8
A-2_蓋
  6
Continuous
 62
     3
370
     9
100
AcDbLine
 10
-395.9208380883638
 20
357.5623898286425
 30
0.0
 11
-425.9208628323461
 21
349.0827260828655
 31
0.0
  0
LINE
  5
308
330
1F
100
AcDbEntity
  8
A-2_蓋
  6
Continuous
 62
     3
370
     9
100
AcDbLine
 10
-425.9208628323461
 20
357.5623898286425
 30
0.0
 11
-455.921036040222
 21
349.0827260828655
 31
0.0
  0
LINE
  5
309
330
1F
100
AcDbEntity
  8
A-2_蓋
  6
Continuous
 62
     3
370
     9
100
AcDbLine
 10
-455.9205164165944
 20
357.5623898286425
 30
0.0
 11
-485.921135016151
 21
349.0827260828655
 31
0.0
  0
LINE
  5
30A
330
1F
100
AcDbEntity
  8
A-2_蓋
  6
Continuous
 62
     3
370
     9
100
AcDbLine
 10
-485.920763856417
 20
357.5623898286425
 30
0.0
 11
-515.9208628323461
 21
349.0827260828655
 31
0.0
  0
LINE
  5
30B
330
1F
100
AcDbEntity
  8
A-2_蓋
  6
Continuous
 62
     3
370
     9
100
AcDbLine
 10
-515.9208628323461
 20
357.5623898286425
 30
0.0
 11
-545.9205164165944
 21
349.0827260828655
 31
0.0
  0
LINE
  5
30C
330
1F
100
AcDbEntity
  8
A-2_蓋
  6
Continuous
 62
     3
370
     9
100
AcDbLine
 10
-545.9205164165944
 20
357.5623898286425
 30
0.0
 11
-575.9210607842042
 21
349.0827260828655
 31
0.0
  0
LINE
  5
30D
330
1F
100
AcDbEntity
  8
A-2_蓋
  6
Continuous
 62
     3
370
     9
100
AcDbLine
 10
-575.9210607842042
 20
357.5623898286425
 30
0.0
 11
-605.9207886003993
 21
349.0827260828655
 31
0.0
  0
LINE
  5
30E
330
1F
100
AcDbEntity
  8
A-2_蓋
  6
Continuous
 62
     3
370
     9
100
AcDbLine
 10
-605.9207886003993
 20
357.5623898286425
 30
0.0
 11
-635.9203679527008
 21
349.0827260828655
 31
0.0
  0
LINE
  5
30F
330
1F
100
AcDbEntity
  8
A-2_蓋
  6
Continuous
 62
     3
370
     9
100
AcDbLine
 10
-635.9203679527008
 20
357.5623898286425
 30
0.0
 11
-665.9210607842042
 21
349.0827260828655
 31
0.0
  0
LINE
  5
310
330
1F
100
AcDbEntity
  8
A-2_蓋
  6
Continuous
 62
     3
370
     9
100
AcDbLine
 10
-665.9210607842042
 20
357.5623898286425
 30
0.0
 11
-695.9207143684526
 21
349.0827260828655
 31
0.0
  0
LINE
  5
311
330
1F
100
AcDbEntity
  8
A-2_蓋
  6
Continuous
 62
     3
370
     9
100
AcDbLine
 10
-695.9207143684526
 20
357.5623898286425
 30
0.0
 11
-700.9209783042633
 21
356.5623370414805
 31
0.0
  0
LINE
  5
312
330
1F
100
AcDbEntity
  8
A-2_蓋
  6
Continuous
 62
     3
370
     9
100
AcDbLine
 10
-275.9207391124348
 20
349.0827260828655
 30
0.0
 11
-275.9207391124348
 21
257.5624558125953
 31
0.0
  0
LINE
  5
313
330
1F
100
AcDbEntity
  8
A-2_蓋
  6
Continuous
 62
     3
370
     9
100
AcDbLine
 10
-280.9204834246181
 20
349.0827260828655
 30
0.0
 11
-280.9204834246181
 21
257.5624558125953
 31
0.0
  0
LINE
  5
314
330
1F
100
AcDbEntity
  8
A-2_蓋
  6
Continuous
 62
     3
370
     9
100
AcDbLine
 10
-305.9209123203105
 20
349.0827260828655
 30
0.0
 11
-305.9209123203105
 21
257.5624558125953
 31
0.0
  0
LINE
  5
315
330
1F
100
AcDbEntity
  8
A-2_蓋
  6
Continuous
 62
     3
370
     9
100
AcDbLine
 10
-310.9207308644407
 20
349.0827260828655
 30
0.0
 11
-310.9207308644407
 21
257.5624558125953
 31
0.0
  0
LINE
  5
316
330
1F
100
AcDbEntity
  8
A-2_蓋
  6
Continuous
 62
     3
370
     9
100
AcDbLine
 10
-335.9211597601332
 20
349.0827260828655
 30
0.0
 11
-335.9211597601332
 21
257.5624558125953
 31
0.0
  0
LINE
  5
317
330
1F
100
AcDbEntity
  8
A-2_蓋
  6
Continuous
 62
     3
370
     9
100
AcDbLine
 10
-340.9208298403698
 20
349.0827260828655
 30
0.0
 11
-340.9208298403698
 21
257.5624558125953
 31
0.0
  0
LINE
  5
318
330
1F
100
AcDbEntity
  8
A-2_蓋
  6
Continuous
 62
     3
370
     9
100
AcDbLine
 10
-365.9205164165945
 20
349.0827260828655
 30
0.0
 11
-365.9205164165945
 21
257.5624558125953
 31
0.0
  0
LINE
  5
319
330
1F
100
AcDbEntity
  8
A-2_蓋
  6
Continuous
 62
     3
370
     9
100
AcDbLine
 10
-370.9207803524052
 20
349.0827260828655
 30
0.0
 11
-370.9207803524052
 21
257.5624558125953
 31
0.0
  0
LINE
  5
31A
330
1F
100
AcDbEntity
  8
A-2_蓋
  6
Continuous
 62
     3
370
     9
100
AcDbLine
 10
-395.9208380883638
 20
349.0827260828655
 30
0.0
 11
-395.9208380883638
 21
257.5624558125953
 31
0.0
  0
LINE
  5
31B
330
1F
100
AcDbEntity
  8
A-2_蓋
  6
Continuous
 62
     3
370
     9
100
AcDbLine
 10
-400.9206566324938
 20
349.0827260828655
 30
0.0
 11
-400.9206566324938
 21
257.5624558125953
 31
0.0
  0
LINE
  5
31C
330
1F
100
AcDbEntity
  8
A-2_蓋
  6
Continuous
 62
     3
370
     9
100
AcDbLine
 10
-425.9208628323461
 20
349.0827260828655
 30
0.0
 11
-425.9208628323461
 21
257.5624558125953
 31
0.0
  0
LINE
  5
31D
330
1F
100
AcDbEntity
  8
A-2_蓋
  6
Continuous
 62
     3
370
     9
100
AcDbLine
 10
-430.9206813764762
 20
349.0827260828655
 30
0.0
 11
-430.9206813764762
 21
257.5624558125953
 31
0.0
  0
LINE
  5
31E
330
1F
100
AcDbEntity
  8
A-2_蓋
  6
Continuous
 62
     3
370
     9
100
AcDbLine
 10
-455.921036040222
 20
349.0827260828655
 30
0.0
 11
-455.921036040222
 21
257.5624558125953
 31
0.0
  0
LINE
  5
31F
330
1F
100
AcDbEntity
  8
A-2_蓋
  6
Continuous
 62
     3
370
     9
100
AcDbLine
 10
-460.9207803524051
 20
349.0827260828655
 30
0.0
 11
-460.9207803524051
 21
257.5624558125953
 31
0.0
  0
LINE
  5
320
330
1F
100
AcDbEntity
  8
A-2_蓋
  6
Continuous
 62
     3
370
     9
100
AcDbLine
 10
-485.921135016151
 20
349.0827260828655
 30
0.0
 11
-485.921135016151
 21
257.5624558125953
 31
0.0
  0
LINE
  5
321
330
1F
100
AcDbEntity
  8
A-2_蓋
  6
Continuous
 62
     3
370
     9
100
AcDbLine
 10
-490.9205824005471
 20
349.0827260828655
 30
0.0
 11
-490.9205824005471
 21
257.5624558125953
 31
0.0
  0
LINE
  5
322
330
1F
100
AcDbEntity
  8
A-2_蓋
  6
Continuous
 62
     3
370
     9
100
AcDbLine
 10
-515.9208628323461
 20
349.0827260828655
 30
0.0
 11
-515.9208628323461
 21
257.5624558125953
 31
0.0
  0
LINE
  5
323
330
1F
100
AcDbEntity
  8
A-2_蓋
  6
Continuous
 62
     3
370
     9
100
AcDbLine
 10
-520.920013288955
 20
349.0827260828655
 30
0.0
 11
-520.920013288955
 21
257.5624558125953
 31
0.0
  0
LINE
  5
324
330
1F
100
AcDbEntity
  8
A-2_蓋
  6
Continuous
 62
     3
370
     9
100
AcDbLine
 10
-545.9205164165944
 20
349.0827260828655
 30
0.0
 11
-545.9205164165944
 21
257.5624558125953
 31
0.0
  0
LINE
  5
325
330
1F
100
AcDbEntity
  8
A-2_蓋
  6
Continuous
 62
     3
370
     9
100
AcDbLine
 10
-550.9207803524052
 20
349.0827260828655
 30
0.0
 11
-550.9207803524052
 21
257.5624558125953
 31
0.0
  0
LINE
  5
326
330
1F
100
AcDbEntity
  8
A-2_蓋
  6
Continuous
 62
     3
370
     9
100
AcDbLine
 10
-575.9210607842042
 20
349.0827260828655
 30
0.0
 11
-575.9210607842042
 21
257.5624558125953
 31
0.0
  0
LINE
  5
327
330
1F
100
AcDbEntity
  8
A-2_蓋
  6
Continuous
 62
     3
370
     9
100
AcDbLine
 10
-580.9204339366536
 20
349.0827260828655
 30
0.0
 11
-580.9204339366536
 21
257.5624558125953
 31
0.0
  0
LINE
  5
328
330
1F
100
AcDbEntity
  8
A-2_蓋
  6
Continuous
 62
     3
370
     9
100
AcDbLine
 10
-605.9207886003993
 20
349.0827260828655
 30
0.0
 11
-605.9207886003993
 21
257.5624558125953
 31
0.0
  0
LINE
  5
329
330
1F
100
AcDbEntity
  8
A-2_蓋
  6
Continuous
 62
     3
370
     9
100
AcDbLine
 10
-610.92105253621
 20
349.0827260828655
 30
0.0
 11
-610.92105253621
 21
257.5624558125953
 31
0.0
  0
LINE
  5
32A
330
1F
100
AcDbEntity
  8
A-2_蓋
  6
Continuous
 62
     3
370
     9
100
AcDbLine
 10
-635.9203679527008
 20
349.0827260828655
 30
0.0
 11
-635.9203679527008
 21
257.5624558125953
 31
0.0
  0
LINE
  5
32B
330
1F
100
AcDbEntity
  8
A-2_蓋
  6
Continuous
 62
     3
370
     9
100
AcDbLine
 10
-640.9207803524052
 20
349.0827260828655
 30
0.0
 11
-640.9207803524052
 21
257.5624558125953
 31
0.0
  0
LINE
  5
32C
330
1F
100
AcDbEntity
  8
A-2_蓋
  6
Continuous
 62
     3
370
     9
100
AcDbLine
 10
-665.9210607842042
 20
349.0827260828655
 30
0.0
 11
-665.9210607842042
 21
257.5624558125953
 31
0.0
  0
LINE
  5
32D
330
1F
100
AcDbEntity
  8
A-2_蓋
  6
Continuous
 62
     3
370
     9
100
AcDbLine
 10
-670.9202854727599
 20
349.0827260828655
 30
0.0
 11
-670.9202854727599
 21
257.5624558125953
 31
0.0
  0
LINE
  5
32E
330
1F
100
AcDbEntity
  8
A-2_蓋
  6
Continuous
 62
     3
370
     9
100
AcDbLine
 10
-695.9207143684526
 20
257.5624558125953
 30
0.0
 11
-695.9207143684526
 21
349.0827260828655
 31
0.0
  0
LINE
  5
32F
330
1F
100
AcDbEntity
  8
A-2_蓋
  6
Continuous
 62
     3
370
     9
100
AcDbLine
 10
-275.9207391124348
 20
257.5622331167548
 30
0.0
 11
-305.9209123203105
 21
249.0827178348714
 31
0.0
  0
LINE
  5
330
330
1F
100
AcDbEntity
  8
A-2_蓋
  6
Continuous
 62
     3
370
     9
100
AcDbLine
 10
-305.9209123203105
 20
257.5622331167548
 30
0.0
 11
-335.9211597601332
 21
249.0827178348714
 31
0.0
  0
LINE
  5
331
330
1F
100
AcDbEntity
  8
A-2_蓋
  6
Continuous
 62
     3
370
     9
100
AcDbLine
 10
-335.9211597601332
 20
257.5622331167548
 30
0.0
 11
-365.9205164165945
 21
249.0827178348714
 31
0.0
  0
LINE
  5
332
330
1F
100
AcDbEntity
  8
A-2_蓋
  6
Continuous
 62
     3
370
     9
100
AcDbLine
 10
-365.9205164165945
 20
257.5622331167548
 30
0.0
 11
-395.9208380883638
 21
249.0827178348714
 31
0.0
  0
LINE
  5
333
330
1F
100
AcDbEntity
  8
A-2_蓋
  6
Continuous
 62
     3
370
     9
100
AcDbLine
 10
-395.9208380883638
 20
257.5622331167548
 30
0.0
 11
-425.9208628323461
 21
249.0827178348714
 31
0.0
  0
LINE
  5
334
330
1F
100
AcDbEntity
  8
A-2_蓋
  6
Continuous
 62
     3
370
     9
100
AcDbLine
 10
-425.9208628323461
 20
257.5622331167548
 30
0.0
 11
-455.921036040222
 21
249.0827178348714
 31
0.0
  0
LINE
  5
335
330
1F
100
AcDbEntity
  8
A-2_蓋
  6
Continuous
 62
     3
370
     9
100
AcDbLine
 10
-455.9205164165944
 20
257.5622331167548
 30
0.0
 11
-485.921135016151
 21
249.0827178348714
 31
0.0
  0
LINE
  5
336
330
1F
100
AcDbEntity
  8
A-2_蓋
  6
Continuous
 62
     3
370
     9
100
AcDbLine
 10
-485.920763856417
 20
257.5622331167548
 30
0.0
 11
-515.9208628323461
 21
249.0827178348714
 31
0.0
  0
LINE
  5
337
330
1F
100
AcDbEntity
  8
A-2_蓋
  6
Continuous
 62
     3
370
     9
100
AcDbLine
 10
-515.9208628323461
 20
257.5622331167548
 30
0.0
 11
-545.9205164165944
 21
249.0827178348714
 31
0.0
  0
LINE
  5
338
330
1F
100
AcDbEntity
  8
A-2_蓋
  6
Continuous
 62
     3
370
     9
100
AcDbLine
 10
-545.9205164165944
 20
257.5622331167548
 30
0.0
 11
-575.9210607842042
 21
249.0827178348714
 31
0.0
  0
LINE
  5
339
330
1F
100
AcDbEntity
  8
A-2_蓋
  6
Continuous
 62
     3
370
     9
100
AcDbLine
 10
-575.9210607842042
 20
257.5622331167548
 30
0.0
 11
-605.9207886003993
 21
249.0827178348714
 31
0.0
  0
LINE
  5
33A
330
1F
100
AcDbEntity
  8
A-2_蓋
  6
Continuous
 62
     3
370
     9
100
AcDbLine
 10
-605.9207886003993
 20
257.5622331167548
 30
0.0
 11
-635.9203679527008
 21
249.0827178348714
 31
0.0
  0
LINE
  5
33B
330
1F
100
AcDbEntity
  8
A-2_蓋
  6
Continuous
 62
     3
370
     9
100
AcDbLine
 10
-635.9203679527008
 20
257.5622331167548
 30
0.0
 11
-665.9210607842042
 21
249.0827178348714
 31
0.0
  0
LINE
  5
33C
330
1F
100
AcDbEntity
  8
A-2_蓋
  6
Continuous
 62
     3
370
     9
100
AcDbLine
 10
-665.9210607842042
 20
257.5622331167548
 30
0.0
 11
-695.9207143684526
 21
249.0827178348714
 31
0.0
  0
LINE
  5
33D
330
1F
100
AcDbEntity
  8
A-2_蓋
  6
Continuous
 62
     3
370
     9
100
AcDbLine
 10
-695.9207143684526
 20
257.5622331167548
 30
0.0
 11
-700.9209783042633
 21
256.5623287934862
 31
0.0
  0
LINE
  5
33E
330
1F
100
AcDbEntity
  8
A-2_蓋
  6
Continuous
 62
     3
370
     9
100
AcDbLine
 10
-275.9207391124348
 20
249.0827178348714
 30
0.0
 11
-275.9207391124348
 21
157.5623733326544
 31
0.0
  0
LINE
  5
33F
330
1F
100
AcDbEntity
  8
A-2_蓋
  6
Continuous
 62
     3
370
     9
100
AcDbLine
 10
-280.9204834246181
 20
249.0827178348714
 30
0.0
 11
-280.9204834246181
 21
157.5623733326544
 31
0.0
  0
LINE
  5
340
330
1F
100
AcDbEntity
  8
A-2_蓋
  6
Continuous
 62
     3
370
     9
100
AcDbLine
 10
-305.9209123203105
 20
249.0827178348714
 30
0.0
 11
-305.9209123203105
 21
157.5623733326544
 31
0.0
  0
LINE
  5
341
330
1F
100
AcDbEntity
  8
A-2_蓋
  6
Continuous
 62
     3
370
     9
100
AcDbLine
 10
-310.9207308644407
 20
249.0827178348714
 30
0.0
 11
-310.9207308644407
 21
157.5623733326544
 31
0.0
  0
LINE
  5
342
330
1F
100
AcDbEntity
  8
A-2_蓋
  6
Continuous
 62
     3
370
     9
100
AcDbLine
 10
-335.9211597601332
 20
249.0827178348714
 30
0.0
 11
-335.9211597601332
 21
157.5623733326544
 31
0.0
  0
LINE
  5
343
330
1F
100
AcDbEntity
  8
A-2_蓋
  6
Continuous
 62
     3
370
     9
100
AcDbLine
 10
-340.9208298403698
 20
249.0827178348714
 30
0.0
 11
-340.9208298403698
 21
157.5623733326544
 31
0.0
  0
LINE
  5
344
330
1F
100
AcDbEntity
  8
A-2_蓋
  6
Continuous
 62
     3
370
     9
100
AcDbLine
 10
-365.9205164165945
 20
249.0827178348714
 30
0.0
 11
-365.9205164165945
 21
157.5623733326544
 31
0.0
  0
LINE
  5
345
330
1F
100
AcDbEntity
  8
A-2_蓋
  6
Continuous
 62
     3
370
     9
100
AcDbLine
 10
-370.9207803524052
 20
249.0827178348714
 30
0.0
 11
-370.9207803524052
 21
157.5623733326544
 31
0.0
  0
LINE
  5
346
330
1F
100
AcDbEntity
  8
A-2_蓋
  6
Continuous
 62
     3
370
     9
100
AcDbLine
 10
-395.9208380883638
 20
249.0827178348714
 30
0.0
 11
-395.9208380883638
 21
157.5623733326544
 31
0.0
  0
LINE
  5
347
330
1F
100
AcDbEntity
  8
A-2_蓋
  6
Continuous
 62
     3
370
     9
100
AcDbLine
 10
-400.9206566324938
 20
249.0827178348714
 30
0.0
 11
-400.9206566324938
 21
157.5623733326544
 31
0.0
  0
LINE
  5
348
330
1F
100
AcDbEntity
  8
A-2_蓋
  6
Continuous
 62
     3
370
     9
100
AcDbLine
 10
-425.9208628323461
 20
249.0827178348714
 30
0.0
 11
-425.9208628323461
 21
157.5623733326544
 31
0.0
  0
LINE
  5
349
330
1F
100
AcDbEntity
  8
A-2_蓋
  6
Continuous
 62
     3
370
     9
100
AcDbLine
 10
-430.9206813764762
 20
249.0827178348714
 30
0.0
 11
-430.9206813764762
 21
157.5623733326544
 31
0.0
  0
LINE
  5
34A
330
1F
100
AcDbEntity
  8
A-2_蓋
  6
Continuous
 62
     3
370
     9
100
AcDbLine
 10
-455.921036040222
 20
249.0827178348714
 30
0.0
 11
-455.921036040222
 21
157.5623733326544
 31
0.0
  0
LINE
  5
34B
330
1F
100
AcDbEntity
  8
A-2_蓋
  6
Continuous
 62
     3
370
     9
100
AcDbLine
 10
-460.9207803524051
 20
249.0827178348714
 30
0.0
 11
-460.9207803524051
 21
157.5623733326544
 31
0.0
  0
LINE
  5
34C
330
1F
100
AcDbEntity
  8
A-2_蓋
  6
Continuous
 62
     3
370
     9
100
AcDbLine
 10
-485.921135016151
 20
249.0827178348714
 30
0.0
 11
-485.921135016151
 21
157.5623733326544
 31
0.0
  0
LINE
  5
34D
330
1F
100
AcDbEntity
  8
A-2_蓋
  6
Continuous
 62
     3
370
     9
100
AcDbLine
 10
-490.9205824005471
 20
249.0827178348714
 30
0.0
 11
-490.9205824005471
 21
157.5623733326544
 31
0.0
  0
LINE
  5
34E
330
1F
100
AcDbEntity
  8
A-2_蓋
  6
Continuous
 62
     3
370
     9
100
AcDbLine
 10
-515.9208628323461
 20
249.0827178348714
 30
0.0
 11
-515.9208628323461
 21
157.5623733326544
 31
0.0
  0
LINE
  5
34F
330
1F
100
AcDbEntity
  8
A-2_蓋
  6
Continuous
 62
     3
370
     9
100
AcDbLine
 10
-520.920013288955
 20
249.0827178348714
 30
0.0
 11
-520.920013288955
 21
157.5623733326544
 31
0.0
  0
LINE
  5
350
330
1F
100
AcDbEntity
  8
A-2_蓋
  6
Continuous
 62
     3
370
     9
100
AcDbLine
 10
-545.9205164165944
 20
249.0827178348714
 30
0.0
 11
-545.9205164165944
 21
157.5623733326544
 31
0.0
  0
LINE
  5
351
330
1F
100
AcDbEntity
  8
A-2_蓋
  6
Continuous
 62
     3
370
     9
100
AcDbLine
 10
-550.9207803524052
 20
249.0827178348714
 30
0.0
 11
-550.9207803524052
 21
157.5623733326544
 31
0.0
  0
LINE
  5
352
330
1F
100
AcDbEntity
  8
A-2_蓋
  6
Continuous
 62
     3
370
     9
100
AcDbLine
 10
-575.9210607842042
 20
249.0827178348714
 30
0.0
 11
-575.9210607842042
 21
157.5623733326544
 31
0.0
  0
LINE
  5
353
330
1F
100
AcDbEntity
  8
A-2_蓋
  6
Continuous
 62
     3
370
     9
100
AcDbLine
 10
-580.9204339366536
 20
249.0827178348714
 30
0.0
 11
-580.9204339366536
 21
157.5623733326544
 31
0.0
  0
LINE
  5
354
330
1F
100
AcDbEntity
  8
A-2_蓋
  6
Continuous
 62
     3
370
     9
100
AcDbLine
 10
-605.9207886003993
 20
249.0827178348714
 30
0.0
 11
-605.9207886003993
 21
157.5623733326544
 31
0.0
  0
LINE
  5
355
330
1F
100
AcDbEntity
  8
A-2_蓋
  6
Continuous
 62
     3
370
     9
100
AcDbLine
 10
-610.92105253621
 20
249.0827178348714
 30
0.0
 11
-610.92105253621
 21
157.5623733326544
 31
0.0
  0
LINE
  5
356
330
1F
100
AcDbEntity
  8
A-2_蓋
  6
Continuous
 62
     3
370
     9
100
AcDbLine
 10
-635.9203679527008
 20
249.0827178348714
 30
0.0
 11
-635.9203679527008
 21
157.5623733326544
 31
0.0
  0
LINE
  5
357
330
1F
100
AcDbEntity
  8
A-2_蓋
  6
Continuous
 62
     3
370
     9
100
AcDbLine
 10
-640.9207803524052
 20
249.0827178348714
 30
0.0
 11
-640.9207803524052
 21
157.5623733326544
 31
0.0
  0
LINE
  5
358
330
1F
100
AcDbEntity
  8
A-2_蓋
  6
Continuous
 62
     3
370
     9
100
AcDbLine
 10
-665.9210607842042
 20
249.0827178348714
 30
0.0
 11
-665.9210607842042
 21
157.5623733326544
 31
0.0
  0
LINE
  5
359
330
1F
100
AcDbEntity
  8
A-2_蓋
  6
Continuous
 62
     3
370
     9
100
AcDbLine
 10
-670.9202854727599
 20
249.0827178348714
 30
0.0
 11
-670.9202854727599
 21
157.5623733326544
 31
0.0
  0
LINE
  5
35A
330
1F
100
AcDbEntity
  8
A-2_蓋
  6
Continuous
 62
     3
370
     9
100
AcDbLine
 10
-695.9207143684526
 20
157.5623733326544
 30
0.0
 11
-695.9207143684526
 21
249.0827178348714
 31
0.0
  0
LINE
  5
35B
330
1F
100
AcDbEntity
  8
A-2_蓋
  6
Continuous
 62
     3
370
     9
100
AcDbLine
 10
-275.9207391124348
 20
157.5622248687608
 30
0.0
 11
-305.9209123203105
 21
149.0827095868773
 31
0.0
  0
LINE
  5
35C
330
1F
100
AcDbEntity
  8
A-2_蓋
  6
Continuous
 62
     3
370
     9
100
AcDbLine
 10
-305.9209123203105
 20
157.5622248687608
 30
0.0
 11
-335.9211597601332
 21
149.0827095868773
 31
0.0
  0
LINE
  5
35D
330
1F
100
AcDbEntity
  8
A-2_蓋
  6
Continuous
 62
     3
370
     9
100
AcDbLine
 10
-335.9211597601332
 20
157.5622248687608
 30
0.0
 11
-365.9205164165945
 21
149.0827095868773
 31
0.0
  0
LINE
  5
35E
330
1F
100
AcDbEntity
  8
A-2_蓋
  6
Continuous
 62
     3
370
     9
100
AcDbLine
 10
-365.9205164165945
 20
157.5622248687608
 30
0.0
 11
-395.9208380883638
 21
149.0827095868773
 31
0.0
  0
LINE
  5
35F
330
1F
100
AcDbEntity
  8
A-2_蓋
  6
Continuous
 62
     3
370
     9
100
AcDbLine
 10
-395.9208380883638
 20
157.5622248687608
 30
0.0
 11
-425.9208628323461
 21
149.0827095868773
 31
0.0
  0
LINE
  5
360
330
1F
100
AcDbEntity
  8
A-2_蓋
  6
Continuous
 62
     3
370
     9
100
AcDbLine
 10
-425.9208628323461
 20
157.5622248687608
 30
0.0
 11
-455.921036040222
 21
149.0827095868773
 31
0.0
  0
LINE
  5
361
330
1F
100
AcDbEntity
  8
A-2_蓋
  6
Continuous
 62
     3
370
     9
100
AcDbLine
 10
-455.9205164165944
 20
157.5622248687608
 30
0.0
 11
-485.921135016151
 21
149.0827095868773
 31
0.0
  0
LINE
  5
362
330
1F
100
AcDbEntity
  8
A-2_蓋
  6
Continuous
 62
     3
370
     9
100
AcDbLine
 10
-485.920763856417
 20
157.5622248687608
 30
0.0
 11
-515.9208628323461
 21
149.0827095868773
 31
0.0
  0
LINE
  5
363
330
1F
100
AcDbEntity
  8
A-2_蓋
  6
Continuous
 62
     3
370
     9
100
AcDbLine
 10
-515.9208628323461
 20
157.5622248687608
 30
0.0
 11
-545.9205164165944
 21
149.0827095868773
 31
0.0
  0
LINE
  5
364
330
1F
100
AcDbEntity
  8
A-2_蓋
  6
Continuous
 62
     3
370
     9
100
AcDbLine
 10
-545.9205164165944
 20
157.5622248687608
 30
0.0
 11
-575.9210607842042
 21
149.0827095868773
 31
0.0
  0
LINE
  5
365
330
1F
100
AcDbEntity
  8
A-2_蓋
  6
Continuous
 62
     3
370
     9
100
AcDbLine
 10
-575.9210607842042
 20
157.5622248687608
 30
0.0
 11
-605.9207886003993
 21
149.0827095868773
 31
0.0
  0
LINE
  5
366
330
1F
100
AcDbEntity
  8
A-2_蓋
  6
Continuous
 62
     3
370
     9
100
AcDbLine
 10
-605.9207886003993
 20
157.5622248687608
 30
0.0
 11
-635.9203679527008
 21
149.0827095868773
 31
0.0
  0
LINE
  5
367
330
1F
100
AcDbEntity
  8
A-2_蓋
  6
Continuous
 62
     3
370
     9
100
AcDbLine
 10
-635.9203679527008
 20
157.5622248687608
 30
0.0
 11
-665.9210607842042
 21
149.0827095868773
 31
0.0
  0
LINE
  5
368
330
1F
100
AcDbEntity
  8
A-2_蓋
  6
Continuous
 62
     3
370
     9
100
AcDbLine
 10
-665.9210607842042
 20
157.5622248687608
 30
0.0
 11
-695.9207143684526
 21
149.0827095868773
 31
0.0
  0
LINE
  5
369
330
1F
100
AcDbEntity
  8
A-2_蓋
  6
Continuous
 62
     3
370
     9
100
AcDbLine
 10
-695.9207143684526
 20
157.5622248687608
 30
0.0
 11
-700.9209783042633
 21
156.5623205454922
 31
0.0
  0
LINE
  5
36A
330
1F
100
AcDbEntity
  8
A-2_蓋
  6
Continuous
 62
     3
370
     9
100
AcDbLine
 10
-700.9209783042633
 20
78.3228053955767
 30
0.0
 11
-700.9209783042633
 21
528.3225909477304
 31
0.0
  0
LINE
  5
36B
330
1F
100
AcDbEntity
  8
A-2_蓋
  6
Continuous
 62
     3
370
     9
100
AcDbLine
 10
-695.9207143684526
 20
82.82259754612559
 30
0.0
 11
-695.9207143684526
 21
149.0827095868773
 31
0.0
  0
LINE
  5
36C
330
1F
100
AcDbEntity
  8
A-2_蓋
  6
Continuous
 62
     3
370
     9
100
AcDbLine
 10
-545.9205164165944
 20
149.0827095868773
 30
0.0
 11
-545.9205164165944
 21
82.82259754612559
 31
0.0
  0
LINE
  5
36D
330
1F
100
AcDbEntity
  8
A-2_蓋
  6
Continuous
 62
     3
370
     9
100
AcDbLine
 10
-550.9207803524052
 20
149.0827095868773
 30
0.0
 11
-550.9207803524052
 21
82.82259754612559
 31
0.0
  0
LINE
  5
36E
330
1F
100
AcDbEntity
  8
A-2_蓋
  6
Continuous
 62
     3
370
     9
100
AcDbLine
 10
-575.9210607842042
 20
149.0827095868773
 30
0.0
 11
-575.9210607842042
 21
82.82259754612559
 31
0.0
  0
LINE
  5
36F
330
1F
100
AcDbEntity
  8
A-2_蓋
  6
Continuous
 62
     3
370
     9
100
AcDbLine
 10
-580.9204339366536
 20
149.0827095868773
 30
0.0
 11
-580.9204339366536
 21
82.82259754612559
 31
0.0
  0
LINE
  5
370
330
1F
100
AcDbEntity
  8
A-2_蓋
  6
Continuous
 62
     3
370
     9
100
AcDbLine
 10
-605.9207886003993
 20
149.0827095868773
 30
0.0
 11
-605.9207886003993
 21
82.82259754612559
 31
0.0
  0
LINE
  5
371
330
1F
100
AcDbEntity
  8
A-2_蓋
  6
Continuous
 62
     3
370
     9
100
AcDbLine
 10
-610.92105253621
 20
149.0827095868773
 30
0.0
 11
-610.92105253621
 21
82.82259754612559
 31
0.0
  0
LINE
  5
372
330
1F
100
AcDbEntity
  8
A-2_蓋
  6
Continuous
 62
     3
370
     9
100
AcDbLine
 10
-635.9203679527008
 20
149.0827095868773
 30
0.0
 11
-635.9203679527008
 21
82.82259754612559
 31
0.0
  0
LINE
  5
373
330
1F
100
AcDbEntity
  8
A-2_蓋
  6
Continuous
 62
     3
370
     9
100
AcDbLine
 10
-640.9207803524052
 20
149.0827095868773
 30
0.0
 11
-640.9207803524052
 21
82.82259754612559
 31
0.0
  0
LINE
  5
374
330
1F
100
AcDbEntity
  8
A-2_蓋
  6
Continuous
 62
     3
370
     9
100
AcDbLine
 10
-665.9210607842042
 20
149.0827095868773
 30
0.0
 11
-665.9210607842042
 21
82.82259754612559
 31
0.0
  0
LINE
  5
375
330
1F
100
AcDbEntity
  8
A-2_蓋
  6
Continuous
 62
     3
370
     9
100
AcDbLine
 10
-670.9202854727599
 20
149.0827095868773
 30
0.0
 11
-670.9202854727599
 21
82.82259754612559
 31
0.0
  0
LINE
  5
376
330
1F
100
AcDbEntity
  8
A-2_蓋
  6
Continuous
 62
     3
370
     9
100
AcDbLine
 10
-340.9208298403698
 20
149.0827095868773
 30
0.0
 11
-340.9208298403698
 21
82.82259754612559
 31
0.0
  0
LINE
  5
377
330
1F
100
AcDbEntity
  8
A-2_蓋
  6
Continuous
 62
     3
370
     9
100
AcDbLine
 10
-365.9205164165945
 20
149.0827095868773
 30
0.0
 11
-365.9205164165945
 21
82.82259754612559
 31
0.0
  0
LINE
  5
378
330
1F
100
AcDbEntity
  8
A-2_蓋
  6
Continuous
 62
     3
370
     9
100
AcDbLine
 10
-370.9207803524052
 20
149.0827095868773
 30
0.0
 11
-370.9207803524052
 21
82.82259754612559
 31
0.0
  0
LINE
  5
379
330
1F
100
AcDbEntity
  8
A-2_蓋
  6
Continuous
 62
     3
370
     9
100
AcDbLine
 10
-395.9208380883638
 20
149.0827095868773
 30
0.0
 11
-395.9208380883638
 21
82.82259754612559
 31
0.0
  0
LINE
  5
37A
330
1F
100
AcDbEntity
  8
A-2_蓋
  6
Continuous
 62
     3
370
     9
100
AcDbLine
 10
-400.9206566324938
 20
149.0827095868773
 30
0.0
 11
-400.9206566324938
 21
82.82259754612559
 31
0.0
  0
LINE
  5
37B
330
1F
100
AcDbEntity
  8
A-2_蓋
  6
Continuous
 62
     3
370
     9
100
AcDbLine
 10
-425.9208628323461
 20
149.0827095868773
 30
0.0
 11
-425.9208628323461
 21
82.82259754612559
 31
0.0
  0
LINE
  5
37C
330
1F
100
AcDbEntity
  8
A-2_蓋
  6
Continuous
 62
     3
370
     9
100
AcDbLine
 10
-430.9206813764762
 20
149.0827095868773
 30
0.0
 11
-430.9206813764762
 21
82.82259754612559
 31
0.0
  0
LINE
  5
37D
330
1F
100
AcDbEntity
  8
A-2_蓋
  6
Continuous
 62
     3
370
     9
100
AcDbLine
 10
-455.921036040222
 20
149.0827095868773
 30
0.0
 11
-455.921036040222
 21
82.82259754612559
 31
0.0
  0
LINE
  5
37E
330
1F
100
AcDbEntity
  8
A-2_蓋
  6
Continuous
 62
     3
370
     9
100
AcDbLine
 10
-460.9207803524051
 20
149.0827095868773
 30
0.0
 11
-460.9207803524051
 21
82.82259754612559
 31
0.0
  0
LINE
  5
37F
330
1F
100
AcDbEntity
  8
A-2_蓋
  6
Continuous
 62
     3
370
     9
100
AcDbLine
 10
-485.921135016151
 20
149.0827095868773
 30
0.0
 11
-485.921135016151
 21
82.82259754612559
 31
0.0
  0
LINE
  5
380
330
1F
100
AcDbEntity
  8
A-2_蓋
  6
Continuous
 62
     3
370
     9
100
AcDbLine
 10
-490.9205824005471
 20
149.0827095868773
 30
0.0
 11
-490.9205824005471
 21
82.82259754612559
 31
0.0
  0
LINE
  5
381
330
1F
100
AcDbEntity
  8
A-2_蓋
  6
Continuous
 62
     3
370
     9
100
AcDbLine
 10
-515.9208628323461
 20
149.0827095868773
 30
0.0
 11
-515.9208628323461
 21
82.82259754612559
 31
0.0
  0
LINE
  5
382
330
1F
100
AcDbEntity
  8
A-2_蓋
  6
Continuous
 62
     3
370
     9
100
AcDbLine
 10
-520.920013288955
 20
149.0827095868773
 30
0.0
 11
-520.920013288955
 21
82.82259754612559
 31
0.0
  0
LINE
  5
383
330
1F
100
AcDbEntity
  8
A-2_蓋
  6
Continuous
 62
     3
370
     9
100
AcDbLine
 10
-275.9207391124348
 20
149.0827095868773
 30
0.0
 11
-275.9207391124348
 21
82.82259754612559
 31
0.0
  0
LINE
  5
384
330
1F
100
AcDbEntity
  8
A-2_蓋
  6
Continuous
 62
     3
370
     9
100
AcDbLine
 10
-280.9204834246181
 20
149.0827095868773
 30
0.0
 11
-280.9204834246181
 21
82.82259754612559
 31
0.0
  0
LINE
  5
385
330
1F
100
AcDbEntity
  8
A-2_蓋
  6
Continuous
 62
     3
370
     9
100
AcDbLine
 10
-305.9209123203105
 20
149.0827095868773
 30
0.0
 11
-305.9209123203105
 21
82.82259754612559
 31
0.0
  0
LINE
  5
386
330
1F
100
AcDbEntity
  8
A-2_蓋
  6
Continuous
 62
     3
370
     9
100
AcDbLine
 10
-310.9207308644407
 20
149.0827095868773
 30
0.0
 11
-310.9207308644407
 21
82.82259754612559
 31
0.0
  0
LINE
  5
387
330
1F
100
AcDbEntity
  8
A-2_蓋
  6
Continuous
 62
     3
370
     9
100
AcDbLine
 10
-335.9211597601332
 20
149.0827095868773
 30
0.0
 11
-335.9211597601332
 21
82.82259754612559
 31
0.0
  0
LINE
  5
388
330
1F
100
AcDbEntity
  8
A-2_蓋
  6
Continuous
 62
     3
370
     9
100
AcDbLine
 10
-700.9209783042633
 20
523.8229472610749
 30
0.0
 11
-250.9209783042633
 21
523.8229472610749
 31
0.0
  0
LINE
  5
389
330
1F
100
AcDbEntity
  8
A-2_蓋
  6
Continuous
 62
     3
370
     9
100
AcDbLine
 10
-700.9209783042633
 20
528.3225909477304
 30
0.0
 11
-250.9209783042633
 21
528.3225909477304
 31
0.0
  0
LINE
  5
38A
330
1F
100
AcDbEntity
  8
A-2_蓋
  6
Continuous
 62
     3
370
     9
100
AcDbLine
 10
-255.9207226164466
 20
523.8229472610749
 30
0.0
 11
-255.9207226164466
 21
457.5623238446898
 31
0.0
  0
LINE
  5
38B
330
1F
100
AcDbEntity
  8
A-2_蓋
  6
Continuous
 62
     3
370
     9
100
AcDbLine
 10
-255.9207226164466
 20
449.0828085628063
 30
0.0
 11
-255.9207226164466
 21
357.5623898286425
 31
0.0
  0
LINE
  5
38C
330
1F
100
AcDbEntity
  8
A-2_蓋
  6
Continuous
 62
     3
370
     9
100
AcDbLine
 10
-255.9207226164466
 20
349.0827260828655
 30
0.0
 11
-255.9207226164466
 21
257.5624558125953
 31
0.0
  0
LINE
  5
38D
330
1F
100
AcDbEntity
  8
A-2_蓋
  6
Continuous
 62
     3
370
     9
100
AcDbLine
 10
-255.9207226164466
 20
249.0827178348714
 30
0.0
 11
-255.9207226164466
 21
157.5623733326544
 31
0.0
  0
LINE
  5
38E
330
1F
100
AcDbEntity
  8
A-2_蓋
  6
Continuous
 62
     3
370
     9
100
AcDbLine
 10
-250.9209783042633
 20
78.3228053955767
 30
0.0
 11
-700.9209783042633
 21
78.3228053955767
 31
0.0
  0
LINE
  5
38F
330
1F
100
AcDbEntity
  8
A-2_蓋
  6
Continuous
 62
     3
370
     9
100
AcDbLine
 10
-250.9209783042633
 20
82.82259754612559
 30
0.0
 11
-700.9209783042633
 21
82.82259754612559
 31
0.0
  0
LINE
  5
390
330
1F
100
AcDbEntity
  8
A-2_蓋
  6
Continuous
 62
     3
370
     9
100
AcDbLine
 10
-250.9209783042633
 20
528.3225909477304
 30
0.0
 11
-250.9209783042633
 21
78.3228053955767
 31
0.0
  0
LINE
  5
391
330
1F
100
AcDbEntity
  8
A-2_蓋
  6
Continuous
 62
     3
370
     9
100
AcDbLine
 10
-255.9207226164466
 20
149.0827095868773
 30
0.0
 11
-255.9207226164466
 21
82.82259754612559
 31
0.0
  0
LINE
  5
392
330
1F
100
AcDbEntity
  8
A-2_蓋
  6
Continuous
 62
     3
370
     9
100
AcDbLine
 10
-700.9209783042633
 20
457.5623238446898
 30
0.0
 11
-250.9209783042633
 21
457.5623238446898
 31
0.0
  0
LINE
  5
393
330
1F
100
AcDbEntity
  8
A-2_蓋
  6
Continuous
 62
     3
370
     9
100
AcDbLine
 10
-700.9209783042633
 20
149.0827095868773
 30
0.0
 11
-250.9209783042633
 21
149.0827095868773
 31
0.0
  0
LINE
  5
394
330
1F
100
AcDbEntity
  8
A-2_蓋
  6
Continuous
 62
     3
370
     9
100
AcDbLine
 10
-250.9209783042633
 20
456.1489803773197
 30
0.0
 11
-275.9207391124348
 21
449.0828085628063
 31
0.0
  0
LINE
  5
395
330
1F
100
AcDbEntity
  8
A-2_蓋
  6
Continuous
 62
     3
370
     9
100
AcDbLine
 10
-250.9209783042633
 20
356.1490216156982
 30
0.0
 11
-275.9207391124348
 21
349.0827260828655
 31
0.0
  0
LINE
  5
396
330
1F
100
AcDbEntity
  8
A-2_蓋
  6
Continuous
 62
     3
370
     9
100
AcDbLine
 10
-250.9209783042633
 20
256.1488896493847
 30
0.0
 11
-275.9207391124348
 21
249.0827178348714
 31
0.0
  0
LINE
  5
397
330
1F
100
AcDbEntity
  8
A-2_蓋
  6
Continuous
 62
     3
370
     9
100
AcDbLine
 10
-250.9209783042633
 20
156.1488814013907
 30
0.0
 11
-275.9207391124348
 21
149.0827095868773
 31
0.0
  0
LINE
  5
398
330
1F
100
AcDbEntity
  8
A-2_蓋
  6
Continuous
 62
     3
370
     9
100
AcDbLine
 10
-700.9209783042633
 20
449.0828085628063
 30
0.0
 11
-250.9209783042633
 21
449.0828085628063
 31
0.0
  0
LINE
  5
399
330
1F
100
AcDbEntity
  8
A-2_蓋
  6
Continuous
 62
     3
370
     9
100
AcDbLine
 10
-700.9209783042633
 20
357.5623898286425
 30
0.0
 11
-250.9209783042633
 21
357.5623898286425
 31
0.0
  0
LINE
  5
39A
330
1F
100
AcDbEntity
  8
A-2_蓋
  6
Continuous
 62
     3
370
     9
100
AcDbLine
 10
-700.9209783042633
 20
349.0827260828655
 30
0.0
 11
-250.9209783042633
 21
349.0827260828655
 31
0.0
  0
LINE
  5
39B
330
1F
100
AcDbEntity
  8
A-2_蓋
  6
Continuous
 62
     3
370
     9
100
AcDbLine
 10
-700.9209783042633
 20
257.5622331167548
 30
0.0
 11
-250.9209783042633
 21
257.5622331167548
 31
0.0
  0
LINE
  5
39C
330
1F
100
AcDbEntity
  8
A-2_蓋
  6
Continuous
 62
     3
370
     9
100
AcDbLine
 10
-700.9209783042633
 20
249.0827178348714
 30
0.0
 11
-250.9209783042633
 21
249.0827178348714
 31
0.0
  0
LINE
  5
39D
330
1F
100
AcDbEntity
  8
A-2_蓋
  6
Continuous
 62
     3
370
     9
100
AcDbLine
 10
-700.9209783042633
 20
157.5622248687608
 30
0.0
 11
-250.9209783042633
 21
157.5622248687608
 31
0.0
  0
LINE
  5
39E
330
1F
100
AcDbEntity
  8
A-4_寸法
  6
Continuous
 62
     7
370
     9
100
AcDbLine
 10
-635.920574152553
 20
576.0494272811341
 30
0.0
 11
-605.9209205683046
 21
576.0494272811341
 31
0.0
  0
TEXT
  5
39F
330
1F
100
AcDbEntity
  8
A-4_寸法
  6
Continuous
 62
     2
370
   211
100
AcDbText
 10
-633.6707473604288
 20
583.033379772688
 30
0.0
 40
18.288
  1
30
 41
1.0625
  7
ＭＳ ゴシック
100
AcDbText
  0
LINE
  5
3A0
330
1F
100
AcDbEntity
  8
A-4_寸法
  6
Continuous
 62
     7
370
     9
100
AcDbLine
 10
-650.9209948002515
 20
-2.277797037911576
 30
0.0
 11
-300.9205494085707
 21
-2.277797037911576
 31
0.0
  0
TEXT
  5
3A1
330
1F
100
AcDbEntity
  8
A-4_寸法
  6
Continuous
 62
     2
370
   211
100
AcDbText
 10
-495.4207721044111
 20
6.106169970112184
 30
0.0
 40
18.288
  1
350
 41
1.083333333333333
  7
ＭＳ ゴシック
100
AcDbText
  0
LINE
  5
3A2
330
1F
100
AcDbEntity
  8
A-4_寸法
  6
Continuous
 62
     7
370
     9
100
AcDbLine
 10
-710.921044288216
 20
-82.27786302186422
 30
0.0
 11
-240.9206483844997
 21
-82.27786302186422
 31
0.0
  0
TEXT
  5
3A3
330
1F
100
AcDbEntity
  8
A-4_寸法
  6
Continuous
 62
     2
370
   211
100
AcDbText
 10
-495.4208463363578
 20
-73.89389601384055
 30
0.0
 40
18.288
  1
470
 41
1.083333333333333
  7
ＭＳ ゴシック
100
AcDbText
  0
LINE
  5
3A4
330
1F
100
AcDbEntity
  8
A-4_寸法
  6
Continuous
 62
     7
370
     9
100
AcDbLine
 10
-700.9209783042633
 20
-42.27783002988782
 30
0.0
 11
-250.9205659045588
 21
-42.27783002988782
 31
0.0
  0
TEXT
  5
3A5
330
1F
100
AcDbEntity
  8
A-4_寸法
  6
Continuous
 62
     2
370
   211
100
AcDbText
 10
-495.4207721044111
 20
-33.89386302186423
 30
0.0
 40
18.288
  1
450
 41
1.083333333333333
  7
ＭＳ ゴシック
100
AcDbText
  0
LINE
  5
3A6
330
1F
100
AcDbEntity
  8
A-4_寸法
  6
Continuous
 62
     7
370
     9
100
AcDbLine
 10
-700.9209783042633
 20
-42.27783002988782
 30
0.0
 11
-704.9210616090035
 21
-42.27783002988782
 31
0.0
  0
LINE
  5
3A7
330
1F
100
AcDbEntity
  8
A-4_寸法
  6
Continuous
 62
     7
370
     9
100
AcDbLine
 10
-250.9205659045588
 20
-42.27783002988782
 30
0.0
 11
-246.9206681796855
 21
-42.27783002988782
 31
0.0
  0
LINE
  5
3A8
330
1F
100
AcDbEntity
  8
A-4_寸法
  6
Continuous
 62
     7
370
     9
100
AcDbLine
 10
-710.921044288216
 20
614.6302939143691
 30
0.0
 11
-475.9208463363578
 21
614.6302939143691
 31
0.0
  0
TEXT
  5
3A9
330
1F
100
AcDbEntity
  8
A-4_寸法
  6
Continuous
 62
     2
370
   211
100
AcDbText
 10
-612.9209453122869
 20
621.614293914369
 30
0.0
 40
18.288
  1
235
 41
1.083333333333333
  7
ＭＳ ゴシック
100
AcDbText
  0
LINE
  5
3AA
330
1F
100
AcDbEntity
  8
A-4_寸法
  6
Continuous
 62
     7
370
     9
100
AcDbLine
 10
-475.9208463363578
 20
614.6302939143691
 30
0.0
 11
-240.9206483844997
 21
614.6302939143691
 31
0.0
  0
TEXT
  5
3AB
330
1F
100
AcDbEntity
  8
A-4_寸法
  6
Continuous
 62
     2
370
   211
100
AcDbText
 10
-377.9207473604288
 20
621.614293914369
 30
0.0
 40
18.288
  1
235
 41
1.083333333333333
  7
ＭＳ ゴシック
100
AcDbText
  0
LINE
  5
3AC
330
1F
100
AcDbEntity
  8
A-5_仕様文
  6
Continuous
 62
     7
370
     9
100
AcDbLine
 10
-360.9031791330218
 20
528.3225909477304
 30
0.0
 11
-304.4731666620548
 21
709.6139298940986
 31
0.0
  0
LINE
  5
3AD
330
1F
100
AcDbEntity
  8
A-5_仕様文
  6
Continuous
 62
     7
370
     9
100
AcDbLine
 10
-305.9209123203105
 20
492.5436833780514
 30
0.0
 11
-263.2553585829795
 21
629.6138639101459
 31
0.0
  0
LINE
  5
3AE
330
1F
100
AcDbEntity
  8
A-5_仕様文
  6
Continuous
 62
     7
370
     9
100
AcDbLine
 10
-349.406803301624
 20
457.5623238446898
 30
0.0
 11
-283.4020574058259
 21
669.6138969021222
 31
0.0
  0
LINE
  5
3AF
330
1F
100
AcDbEntity
  8
A-5_仕様文
  6
Continuous
 62
     7
370
     9
100
AcDbLine
 10
-360.9031791330218
 20
528.3225909477304
 30
0.0
 11
-358.3527179051924
 21
543.1042500482372
 31
0.0
  0
LINE
  5
3B0
330
1F
100
AcDbEntity
  8
A-5_仕様文
  6
Continuous
 62
     7
370
     9
100
AcDbLine
 10
-360.9031791330218
 20
528.3225909477304
 30
0.0
 11
-354.6138774411932
 21
541.9404415864551
 31
0.0
  0
LINE
  5
3B1
330
1F
100
AcDbEntity
  8
A-5_仕様文
  6
Continuous
 62
     7
370
     9
100
AcDbLine
 10
-349.406803301624
 20
457.5623238446898
 30
0.0
 11
-346.8563420737946
 21
472.3439829451965
 31
0.0
  0
LINE
  5
3B2
330
1F
100
AcDbEntity
  8
A-5_仕様文
  6
Continuous
 62
     7
370
     9
100
AcDbLine
 10
-349.406803301624
 20
457.5623238446898
 30
0.0
 11
-343.1175016097954
 21
471.1800260195209
 31
0.0
  0
LINE
  5
3B3
330
1F
100
AcDbEntity
  8
A-5_仕様文
  6
Continuous
 62
     7
370
     9
100
AcDbLine
 10
-305.9209123203105
 20
492.5436833780514
 30
0.0
 11
-303.3704510924812
 21
507.3251940146645
 31
0.0
  0
LINE
  5
3B4
330
1F
100
AcDbEntity
  8
A-5_仕様文
  6
Continuous
 62
     7
370
     9
100
AcDbLine
 10
-305.9209123203105
 20
492.5436833780514
 30
0.0
 11
-299.6316106284821
 21
506.1613855528825
 31
0.0
  0
LINE
  5
3B5
330
1F
100
AcDbEntity
  8
A-5_仕様文
  6
Continuous
 62
     7
370
     9
100
AcDbLine
 10
-304.4731666620548
 20
709.6139298940986
 30
0.0
 11
-21.05462880046258
 21
709.6139298940986
 31
0.0
  0
LINE
  5
3B6
330
1F
100
AcDbEntity
  8
A-5_仕様文
  6
Continuous
 62
     7
370
     9
100
AcDbLine
 10
-283.4020574058259
 20
669.6138969021222
 30
0.0
 11
-56.81794766131571
 21
669.6138969021222
 31
0.0
  0
LINE
  5
3B7
330
1F
100
AcDbEntity
  8
A-5_仕様文
  6
Continuous
 62
     7
370
     9
100
AcDbLine
 10
-263.2553585829795
 20
629.6138639101459
 30
0.0
 11
20.29672255088866
 21
629.6138639101459
 31
0.0
  0
TEXT
  5
3B8
330
1F
100
AcDbEntity
  8
A-5_仕様文
  6
Continuous
 62
     7
370
     9
100
AcDbText
 10
-283.4240434006769
 20
677.152160837914
 30
0.0
 40
13.716
  1
クロスバー □６ ＠100
 50
0.0000776836116036
 41
1.158730158730158
  7
ＭＳ ゴシック
100
AcDbText
  0
TEXT
  5
3B9
330
1F
100
AcDbEntity
  8
A-5_仕様文
  6
Continuous
 62
     7
370
     9
100
AcDbText
 10
-256.7978035456174
 20
637.1521278460032
 30
0.0
 40
13.716
  1
メインバー ＤⅠ－３２ ＠30
 50
359.9999060071114
 41
1.16025641025641
  7
ＭＳ ゴシック
100
AcDbText
  0
TEXT
  5
3BA
330
1F
100
AcDbEntity
  8
A-5_仕様文
  6
Continuous
 62
     7
370
   211
100
AcDbText
 10
-300.6868895096582
 20
717.1518969021222
 30
0.0
 40
13.716
  1
エンドプレート ＦＢ4.5×25
 41
1.16025641025641
  7
ＭＳ ゴシック
100
AcDbText
  0
TEXT
  5
3BB
330
1F
100
AcDbEntity
  8
A-4_寸法
  6
Continuous
 62
     2
370
   211
100
AcDbText
 10
-273.0733848117241
 20
-33.89386302186423
 30
0.0
 40
18.288
  1
4
  7
ＭＳ ゴシック
100
AcDbText
  0
TEXT
  5
3BC
330
1F
100
AcDbEntity
  8
A-4_寸法
  6
Continuous
 62
     2
370
   211
100
AcDbText
 10
-692.0053859895537
 20
-33.89386302186423
 30
0.0
 40
18.288
  1
4
  7
ＭＳ ゴシック
100
AcDbText
  0
LINE
  5
3BD
330
1F
100
AcDbEntity
  8
A-2_蓋
  6
Continuous
 62
     3
370
     9
100
AcDbLine
 10
512.4866712415541
 20
523.8226503332878
 30
0.0
 11
512.4866712415541
 21
82.82259754612559
 31
0.0
  0
LINE
  5
3BE
330
1F
100
AcDbEntity
  8
A-2_蓋
  6
Continuous
 62
     3
370
     9
100
AcDbLine
 10
518.4863941089528
 20
523.8226503332878
 30
0.0
 11
518.4863941089528
 21
82.82259754612559
 31
0.0
  0
LINE
  5
3BF
330
1F
100
AcDbEntity
  8
A-2_蓋
  6
Continuous
 62
     3
370
     9
100
AcDbLine
 10
511.4866184543919
 20
528.3225909477304
 30
0.0
 11
511.4866184543919
 21
78.3226569316831
 31
0.0
  0
LINE
  5
3C0
330
1F
100
AcDbEntity
  8
A-2_蓋
  6
JWW_CENTER1
 62
     3
370
     9
100
AcDbLine
 10
467.3667124155406
 20
303.3226239397067
 30
0.0
 11
541.0285578547297
 21
303.3226239397067
 31
0.0
  0
LINE
  5
3C1
330
1F
100
AcDbEntity
  8
A-A
  6
Continuous
 62
     3
370
     9
100
AcDbLine
 10
486.4864864864866
 20
86.49062898088077
 30
0.0
 11
486.4864864864866
 21
82.82259754612559
 31
0.0
  0
TEXT
  5
3C2
330
1F
100
AcDbEntity
  8
A-5_仕様文
  6
Continuous
 62
     7
370
   211
100
AcDbText
 10
611.5774785642096
 20
668.6983298096391
 30
0.0
 40
13.716
  1
アンカー：φ９
 41
1.142857142857143
  7
ＭＳ ゴシック
100
AcDbText
  0
TEXT
  5
3C3
330
1F
100
AcDbEntity
  8
D-4_寸法
  6
Continuous
 62
     2
370
     9
100
AcDbText
 10
292.2690388128132
 20
-397.907878884204
 30
0.0
 40
18.288
  1
集水桝用　ＨＸＣ ３３３２Ａ
 41
1.115740740740741
  7
ＭＳ ゴシック
100
AcDbText
  0
TEXT
  5
3C4
330
1F
100
AcDbEntity
  8
F-5ﾚｲﾔ
  6
Continuous
 62
     2
370
     9
100
AcDbText
 10
-532.3250046199445
 20
-816.7629193370676
 30
0.0
 40
18.288
  1
スチール製グレーチング　枠付正方形型　滑り止め模様付　集水桝用　ＨＸＣ　３３３２Ａ
 41
0.7743902439024392
  7
ＭＳ ゴシック
100
AcDbText
  0
TEXT
  5
3C5
330
1F
100
AcDbEntity
  8
D-5_仕様文
  6
Continuous
 62
     3
370
     9
100
AcDbText
 10
396.0153206170781
 20
-329.309193337329
 30
0.0
 40
22.86
  1
※適用荷重：Ｔ－２
 41
1.088888888888889
  7
ＭＳ ゴシック
100
AcDbText
  0
ENDSEC
  0
SECTION
  2
OBJECTS
  0
DICTIONARY
  5
C
330
0
100
AcDbDictionary
281
     1
  3
ACAD_DETAILVIEWSTYLE
350
40B
  3
ACAD_GROUP
350
D
  3
ACAD_LAYOUT
350
1A
  3
ACAD_MATERIAL
350
43
  3
ACAD_MLEADERSTYLE
350
6B
  3
ACAD_MLINESTYLE
350
17
  3
ACAD_PLOTSETTINGS
350
19
  3
ACAD_PLOTSTYLENAME
350
E
  3
ACAD_SCALELIST
350
47
  3
ACAD_SECTIONVIEWSTYLE
350
40C
  3
ACAD_TABLESTYLE
350
69
  3
ACAD_VISUALSTYLE
350
2A
  3
ACDB_RECOMPOSE_DATA
350
408
  3
AcDbVariableDictionary
350
3C8
  0
DICTIONARY
  5
3C6
330
8
100
AcDbDictionary
280
     1
281
     1
  3
ACAD_XREC_ROUNDTRIP
360
3C7
  0
DICTIONARY
  5
40B
102
{ACAD_REACTORS
330
C
102
}
330
C
100
AcDbDictionary
281
     1
  0
DICTIONARY
  5
D
102
{ACAD_REACTORS
330
C
102
}
330
C
100
AcDbDictionary
281
     1
  0
DICTIONARY
  5
1A
102
{ACAD_REACTORS
330
C
102
}
330
C
100
AcDbDictionary
281
     1
  3
Layout1
350
1E
  3
Layout2
350
26
  3
Model
350
22
  0
DICTIONARY
  5
43
102
{ACAD_REACTORS
330
C
102
}
330
C
100
AcDbDictionary
281
     1
  3
ByBlock
350
45
  3
ByLayer
350
44
  3
Global
350
46
  0
DICTIONARY
  5
6B
102
{ACAD_REACTORS
330
C
102
}
330
C
100
AcDbDictionary
281
     1
  3
Standard
350
6C
  0
DICTIONARY
  5
17
102
{ACAD_REACTORS
330
C
102
}
330
C
100
AcDbDictionary
281
     1
  3
Standard
350
18
  0
DICTIONARY
  5
19
102
{ACAD_REACTORS
330
C
102
}
330
C
100
AcDbDictionary
281
     1
  0
ACDBDICTIONARYWDFLT
  5
E
102
{ACAD_REACTORS
330
C
102
}
330
C
100
AcDbDictionary
281
     1
  3
Normal
350
F
100
AcDbDictionaryWithDefault
340
F
  0
DICTIONARY
  5
47
102
{ACAD_REACTORS
330
C
102
}
330
C
100
AcDbDictionary
281
     1
  3
A0
350
48
  3
A1
350
49
  3
A2
350
4A
  3
A3
350
4B
  3
A4
350
4C
  3
A5
350
4D
  3
A6
350
4E
  3
A7
350
4F
  3
A8
350
50
  3
A9
350
51
  3
B0
350
52
  3
B1
350
53
  3
B2
350
54
  3
B3
350
55
  3
B4
350
56
  3
B5
350
57
  3
B6
350
58
  3
B7
350
59
  3
B8
350
5A
  3
B9
350
5B
  3
C0
350
5C
  3
C1
350
5D
  3
C2
350
5E
  3
C3
350
5F
  3
C4
350
60
  3
C5
350
61
  3
C6
350
62
  3
C7
350
63
  3
C8
350
64
  3
C9
350
65
  3
D0
350
66
  3
D1
350
67
  3
D2
350
68
  0
DICTIONARY
  5
40C
102
{ACAD_REACTORS
330
C
102
}
330
C
100
AcDbDictionary
281
     1
  0
DICTIONARY
  5
69
102
{ACAD_REACTORS
330
C
102
}
330
C
100
AcDbDictionary
281
     1
  3
Standard
350
6A
  0
DICTIONARY
  5
2A
102
{ACAD_REACTORS
330
C
102
}
330
C
100
AcDbDictionary
281
     1
  3
2dWireframe
350
2F
  3
Basic
350
32
  3
Brighten
350
36
  3
ColorChange
350
3A
  3
Conceptual
350
34
  3
Dim
350
35
  3
EdgeColorOff
350
3D
  3
Facepattern
350
39
  3
Flat
350
2B
  3
FlatWithEdges
350
2C
  3
Gouraud
350
2D
  3
GouraudWithEdges
350
2E
  3
Hidden
350
31
  3
JitterOff
350
3B
  3
Linepattern
350
38
  3
OverhangOff
350
3C
  3
Realistic
350
33
  3
Shaded
350
42
  3
Shaded with edges
350
41
  3
Shades of Gray
350
3E
  3
Sketchy
350
3F
  3
Thicken
350
37
  3
Wireframe
350
30
  3
X-Ray
350
40
  0
XRECORD
  5
408
102
{ACAD_REACTORS
330
C
102
}
330
C
100
AcDbXrecord
280
     1
 90
        1
330
6A
  0
DICTIONARY
  5
3C8
102
{ACAD_REACTORS
330
C
102
}
330
C
100
AcDbDictionary
281
     1
  3
CANNOSCALE
350
3C9
  3
CENTEREXE
350
40D
  3
CENTERLTYPEFILE
350
40E
  3
CMLEADERSTYLE
350
40A
  3
CTABLESTYLE
350
409
  3
MSLTSCALE
350
3CA
  3
XCLIPFRAME
350
3CB
  0
XRECORD
  5
3C7
102
{ACAD_REACTORS
330
3C6
102
}
330
3C6
100
AcDbXrecord
280
     1
102
VTR_0.000_0.000_1.000_1.000_VISUALSTYLE
340
2F
102
VTR_0.000_0.000_1.000_1.000_GRIDDISPLAY
 70
     3
102
VTR_0.000_0.000_1.000_1.000_GRIDMAJOR
 70
     5
102
VTR_0.000_0.000_1.000_1.000_DEFAULTLIGHTING
280
     1
102
VTR_0.000_0.000_1.000_1.000_DEFAULTLIGHTINGTYPE
 70
     1
102
VTR_0.000_0.000_1.000_1.000_BRIGHTNESS
141
0.0
102
VTR_0.000_0.000_1.000_1.000_CONTRAST
142
0.0
  0
LAYOUT
  5
1E
102
{ACAD_REACTORS
330
1A
102
}
330
1A
100
AcDbPlotSettings
  1

  2
none_device
  4

  6

 40
0.0
 41
0.0
 42
0.0
 43
0.0
 44
0.0
 45
0.0
 46
0.0
 47
0.0
 48
0.0
 49
0.0
140
0.0
141
0.0
142
1.0
143
1.0
 70
   688
 72
     1
 73
     0
 74
     5
  7

 75
    16
 76
     0
 77
     5
 78
   300
147
1.0
148
0.0
149
0.0
100
AcDbLayout
  1
Layout1
 70
     1
 71
     1
 10
0.0
 20
0.0
 11
420.0
 21
297.0
 12
0.0
 22
0.0
 32
0.0
 14
1.000000000000000E+20
 24
1.000000000000000E+20
 34
1.000000000000000E+20
 15
-1.000000000000000E+20
 25
-1.000000000000000E+20
 35
-1.000000000000000E+20
146
0.0
 13
0.0
 23
0.0
 33
0.0
 16
1.0
 26
0.0
 36
0.0
 17
0.0
 27
1.0
 37
0.0
 76
     0
330
1B
  0
LAYOUT
  5
26
102
{ACAD_REACTORS
330
1A
102
}
330
1A
100
AcDbPlotSettings
  1

  2
none_device
  4

  6

 40
0.0
 41
0.0
 42
0.0
 43
0.0
 44
0.0
 45
0.0
 46
0.0
 47
0.0
 48
0.0
 49
0.0
140
0.0
141
0.0
142
1.0
143
1.0
 70
   688
 72
     1
 73
     0
 74
     5
  7

 75
    16
 76
     0
 77
     5
 78
   300
147
1.0
148
0.0
149
0.0
100
AcDbLayout
  1
Layout2
 70
     1
 71
     2
 10
0.0
 20
0.0
 11
0.0
 21
0.0
 12
0.0
 22
0.0
 32
0.0
 14
0.0
 24
0.0
 34
0.0
 15
0.0
 25
0.0
 35
0.0
146
0.0
 13
0.0
 23
0.0
 33
0.0
 16
1.0
 26
0.0
 36
0.0
 17
0.0
 27
1.0
 37
0.0
 76
     0
330
23
  0
LAYOUT
  5
22
102
{ACAD_REACTORS
330
1A
102
}
330
1A
100
AcDbPlotSettings
  1

  2
none_device
  4
Letter_(8.50_x_11.00_Inches)
  6

 40
6.35
 41
6.35
 42
6.35000508
 43
6.35000508
 44
215.9
 45
279.4
 46
0.0
 47
0.0
 48
0.0
 49
0.0
140
0.0
141
0.0
142
1.0
143
1.0
 70
  1712
 72
     1
 73
     0
 74
     0
  7

 75
     0
 76
     0
 77
     5
 78
   300
147
1.0
148
0.0
149
0.0
100
AcDbLayout
  1
Model
 70
     1
 71
     0
 10
-1260.0
 20
-891.0
 11
1260.0
 21
891.0
 12
0.0
 22
0.0
 32
0.0
 14
-1260.0
 24
-891.0
 34
0.0
 15
1260.0
 25
891.0
 35
0.0
146
0.0
 13
0.0
 23
0.0
 33
0.0
 16
1.0
 26
0.0
 36
0.0
 17
0.0
 27
1.0
 37
0.0
 76
     0
330
1F
331
29
  0
MATERIAL
  5
45
102
{ACAD_REACTORS
330
43
102
}
102
{ACAD_XDICTIONARY
360
3FE
102
}
330
43
100
AcDbMaterial
  1
ByBlock
  0
MATERIAL
  5
44
102
{ACAD_REACTORS
330
43
102
}
102
{ACAD_XDICTIONARY
360
3FC
102
}
330
43
100
AcDbMaterial
  1
ByLayer
  0
MATERIAL
  5
46
102
{ACAD_REACTORS
330
43
102
}
102
{ACAD_XDICTIONARY
360
400
102
}
330
43
100
AcDbMaterial
  1
Global
  0
MLEADERSTYLE
  5
6C
102
{ACAD_REACTORS
330
6B
102
}
102
{ACAD_XDICTIONARY
360
406
102
}
330
6B
100
AcDbMLeaderStyle
170
     2
171
     1
172
     0
 90
        2
 40
0.0
 41
0.0
173
     1
 91
-1056964608
340
14
 92
       -2
290
     1
 42
2.0
291
     1
 43
8.0
  3
Standard
341
0
 44
4.0
300

342
11
174
     1
178
     6
175
     1
176
     0
 93
-1056964608
 45
4.0
292
     0
297
     0
 46
4.0
343
0
 94
-1056964608
 47
1.0
 49
1.0
140
1.0
293
     1
141
0.0
294
     1
177
     0
142
1.0
295
     0
296
     0
143
3.75
1001
ACAD_MLEADERVER
1070
     2
  0
MLINESTYLE
  5
18
102
{ACAD_REACTORS
330
17
102
}
330
17
100
AcDbMlineStyle
  2
Standard
 70
     0
  3

 62
   256
 51
90.0
 52
90.0
 71
     2
 49
0.5
 62
   256
  6
BYLAYER
 49
-0.5
 62
   256
  6
BYLAYER
  0
ACDBPLACEHOLDER
  5
F
102
{ACAD_REACTORS
330
E
102
}
330
E
  0
SCALE
  5
48
102
{ACAD_REACTORS
330
47
102
}
330
47
100
AcDbScale
 70
     0
300
1:1
140
1.0
141
1.0
290
     1
  0
SCALE
  5
49
102
{ACAD_REACTORS
330
47
102
}
330
47
100
AcDbScale
 70
     0
300
1:2
140
1.0
141
2.0
290
     0
  0
SCALE
  5
4A
102
{ACAD_REACTORS
330
47
102
}
330
47
100
AcDbScale
 70
     0
300
1:4
140
1.0
141
4.0
290
     0
  0
SCALE
  5
4B
102
{ACAD_REACTORS
330
47
102
}
330
47
100
AcDbScale
 70
     0
300
1:5
140
1.0
141
5.0
290
     0
  0
SCALE
  5
4C
102
{ACAD_REACTORS
330
47
102
}
330
47
100
AcDbScale
 70
     0
300
1:8
140
1.0
141
8.0
290
     0
  0
SCALE
  5
4D
102
{ACAD_REACTORS
330
47
102
}
330
47
100
AcDbScale
 70
     0
300
1:10
140
1.0
141
10.0
290
     0
  0
SCALE
  5
4E
102
{ACAD_REACTORS
330
47
102
}
330
47
100
AcDbScale
 70
     0
300
1:16
140
1.0
141
16.0
290
     0
  0
SCALE
  5
4F
102
{ACAD_REACTORS
330
47
102
}
330
47
100
AcDbScale
 70
     0
300
1:20
140
1.0
141
20.0
290
     0
  0
SCALE
  5
50
102
{ACAD_REACTORS
330
47
102
}
330
47
100
AcDbScale
 70
     0
300
1:30
140
1.0
141
30.0
290
     0
  0
SCALE
  5
51
102
{ACAD_REACTORS
330
47
102
}
330
47
100
AcDbScale
 70
     0
300
1:40
140
1.0
141
40.0
290
     0
  0
SCALE
  5
52
102
{ACAD_REACTORS
330
47
102
}
330
47
100
AcDbScale
 70
     0
300
1:50
140
1.0
141
50.0
290
     0
  0
SCALE
  5
53
102
{ACAD_REACTORS
330
47
102
}
330
47
100
AcDbScale
 70
     0
300
1:100
140
1.0
141
100.0
290
     0
  0
SCALE
  5
54
102
{ACAD_REACTORS
330
47
102
}
330
47
100
AcDbScale
 70
     0
300
2:1
140
2.0
141
1.0
290
     0
  0
SCALE
  5
55
102
{ACAD_REACTORS
330
47
102
}
330
47
100
AcDbScale
 70
     0
300
4:1
140
4.0
141
1.0
290
     0
  0
SCALE
  5
56
102
{ACAD_REACTORS
330
47
102
}
330
47
100
AcDbScale
 70
     0
300
8:1
140
8.0
141
1.0
290
     0
  0
SCALE
  5
57
102
{ACAD_REACTORS
330
47
102
}
330
47
100
AcDbScale
 70
     0
300
10:1
140
10.0
141
1.0
290
     0
  0
SCALE
  5
58
102
{ACAD_REACTORS
330
47
102
}
330
47
100
AcDbScale
 70
     0
300
100:1
140
100.0
141
1.0
290
     0
  0
SCALE
  5
59
102
{ACAD_REACTORS
330
47
102
}
330
47
100
AcDbScale
 70
     0
300
1/128" = 1'-0"
140
0.0078125
141
12.0
290
     0
  0
SCALE
  5
5A
102
{ACAD_REACTORS
330
47
102
}
330
47
100
AcDbScale
 70
     0
300
1/64" = 1'-0"
140
0.015625
141
12.0
290
     0
  0
SCALE
  5
5B
102
{ACAD_REACTORS
330
47
102
}
330
47
100
AcDbScale
 70
     0
300
1/32" = 1'-0"
140
0.03125
141
12.0
290
     0
  0
SCALE
  5
5C
102
{ACAD_REACTORS
330
47
102
}
330
47
100
AcDbScale
 70
     0
300
1/16" = 1'-0"
140
0.0625
141
12.0
290
     0
  0
SCALE
  5
5D
102
{ACAD_REACTORS
330
47
102
}
330
47
100
AcDbScale
 70
     0
300
3/32" = 1'-0"
140
0.09375
141
12.0
290
     0
  0
SCALE
  5
5E
102
{ACAD_REACTORS
330
47
102
}
330
47
100
AcDbScale
 70
     0
300
1/8" = 1'-0"
140
0.125
141
12.0
290
     0
  0
SCALE
  5
5F
102
{ACAD_REACTORS
330
47
102
}
330
47
100
AcDbScale
 70
     0
300
3/16" = 1'-0"
140
0.1875
141
12.0
290
     0
  0
SCALE
  5
60
102
{ACAD_REACTORS
330
47
102
}
330
47
100
AcDbScale
 70
     0
300
1/4" = 1'-0"
140
0.25
141
12.0
290
     0
  0
SCALE
  5
61
102
{ACAD_REACTORS
330
47
102
}
330
47
100
AcDbScale
 70
     0
300
3/8" = 1'-0"
140
0.375
141
12.0
290
     0
  0
SCALE
  5
62
102
{ACAD_REACTORS
330
47
102
}
330
47
100
AcDbScale
 70
     0
300
1/2" = 1'-0"
140
0.5
141
12.0
290
     0
  0
SCALE
  5
63
102
{ACAD_REACTORS
330
47
102
}
330
47
100
AcDbScale
 70
     0
300
3/4" = 1'-0"
140
0.75
141
12.0
290
     0
  0
SCALE
  5
64
102
{ACAD_REACTORS
330
47
102
}
330
47
100
AcDbScale
 70
     0
300
1" = 1'-0"
140
1.0
141
12.0
290
     0
  0
SCALE
  5
65
102
{ACAD_REACTORS
330
47
102
}
330
47
100
AcDbScale
 70
     0
300
1-1/2" = 1'-0"
140
1.5
141
12.0
290
     0
  0
SCALE
  5
66
102
{ACAD_REACTORS
330
47
102
}
330
47
100
AcDbScale
 70
     0
300
3" = 1'-0"
140
3.0
141
12.0
290
     0
  0
SCALE
  5
67
102
{ACAD_REACTORS
330
47
102
}
330
47
100
AcDbScale
 70
     0
300
6" = 1'-0"
140
6.0
141
12.0
290
     0
  0
SCALE
  5
68
102
{ACAD_REACTORS
330
47
102
}
330
47
100
AcDbScale
 70
     0
300
1'-0" = 1'-0"
140
12.0
141
12.0
290
     0
  0
TABLESTYLE
  5
6A
102
{ACAD_REACTORS
330
69
102
}
102
{ACAD_XDICTIONARY
360
402
102
}
330
69
100
AcDbTableStyle
  3
Standard
 70
     0
 71
     0
 40
0.06
 41
0.06
280
     0
281
     0
  7
Standard
140
4.5
170
     2
 62
     0
 63
   257
283
     0
274
    -2
284
     1
 64
     0
275
    -2
285
     1
 65
     0
276
    -2
286
     1
 66
     0
277
    -2
287
     1
 67
     0
278
    -2
288
     1
 68
     0
279
    -2
289
     1
 69
     0
  7
Standard
140
6.0
170
     5
 62
     0
 63
   257
283
     0
274
    -2
284
     1
 64
     0
275
    -2
285
     1
 65
     0
276
    -2
286
     1
 66
     0
277
    -2
287
     1
 67
     0
278
    -2
288
     1
 68
     0
279
    -2
289
     1
 69
     0
  7
Standard
140
4.5
170
     5
 62
     0
 63
   257
283
     0
274
    -2
284
     1
 64
     0
275
    -2
285
     1
 65
     0
276
    -2
286
     1
 66
     0
277
    -2
287
     1
 67
     0
278
    -2
288
     1
 68
     0
279
    -2
289
     1
 69
     0
  0
VISUALSTYLE
  5
2F
102
{ACAD_REACTORS
330
2A
102
}
102
{ACAD_XDICTIONARY
360
3D4
102
}
330
2A
100
AcDbVisualStyle
  2
2dWireframe
 70
     4
 71
     0
 72
     2
 73
     0
 90
        0
 40
0.6
 41
30.0
 62
     5
 63
     7
421
 16777215
 74
     1
 91
        4
 64
     7
 65
   257
 75
     1
175
     1
 42
1.0
 92
        0
 66
   257
 43
1.0
 76
     1
 77
     6
 78
     2
 67
     7
 79
     5
170
     0
171
     0
290
     0
174
     0
 93
        1
 44
0.0
173
     0
291
     0
 45
0.0
1001
ACAD
1000
AcDbSavedByObjectVersion
1070
     0
  0
VISUALSTYLE
  5
32
102
{ACAD_REACTORS
330
2A
102
}
102
{ACAD_XDICTIONARY
360
3DA
102
}
330
2A
100
AcDbVisualStyle
  2
Basic
 70
     7
 71
     1
 72
     0
 73
     1
 90
        0
 40
0.6
 41
30.0
 62
     5
 63
     7
421
 16777215
 74
     0
 91
        4
 64
     7
 65
   257
 75
     1
175
     1
 42
1.0
 92
        8
 66
     7
 43
1.0
 76
     1
 77
     6
 78
     2
 67
     7
 79
     5
170
     0
171
     0
290
     0
174
     0
 93
        1
 44
0.0
173
     0
291
     1
 45
0.0
1001
ACAD
1000
AcDbSavedByObjectVersion
1070
     0
  0
VISUALSTYLE
  5
36
102
{ACAD_REACTORS
330
2A
102
}
102
{ACAD_XDICTIONARY
360
3E2
102
}
330
2A
100
AcDbVisualStyle
  2
Brighten
 70
    12
 71
     2
 72
     2
 73
     0
 90
        0
 40
0.6
 41
30.0
 62
     5
 63
     7
421
 16777215
 74
     1
 91
        4
 64
     7
 65
   257
 75
     1
175
     1
 42
1.0
 92
        8
 66
     7
 43
1.0
 76
     1
 77
     6
 78
     2
 67
     7
 79
     5
170
     0
171
     0
290
     0
174
     0
 93
        1
 44
50.0
173
     0
291
     1
 45
0.0
1001
ACAD
1000
AcDbSavedByObjectVersion
1070
     0
  0
VISUALSTYLE
  5
3A
102
{ACAD_REACTORS
330
2A
102
}
102
{ACAD_XDICTIONARY
360
3EA
102
}
330
2A
100
AcDbVisualStyle
  2
ColorChange
 70
    16
 71
     2
 72
     2
 73
     3
 90
        0
 40
0.6
 41
30.0
 62
     5
 63
     8
421
  8421504
 74
     1
 91
        4
 64
     7
 65
   257
 75
     1
175
     1
 42
1.0
 92
        8
 66
     8
424
  8421504
 43
1.0
 76
     1
 77
     6
 78
     2
 67
     7
 79
     5
170
     0
171
     0
290
     0
174
     0
 93
        1
 44
0.0
173
     0
291
     1
 45
0.0
1001
ACAD
1000
AcDbSavedByObjectVersion
1070
     0
  0
VISUALSTYLE
  5
34
102
{ACAD_REACTORS
330
2A
102
}
102
{ACAD_XDICTIONARY
360
3DE
102
}
330
2A
100
AcDbVisualStyle
  2
Conceptual
 70
     9
 71
     3
 72
     2
 73
     0
 90
        0
 40
0.6
 41
30.0
 62
     5
 63
     7
421
 16777215
 74
     2
 91
        2
 64
     7
 65
   257
 75
     1
175
     1
 42
179.0
 92
        8
 66
     7
 43
1.0
 76
     1
 77
     6
 78
     2
 67
     7
 79
     3
170
     0
171
     0
290
     0
174
     0
 93
        1
 44
0.0
173
     0
291
     0
 45
0.0
1001
ACAD
1000
AcDbSavedByObjectVersion
1070
     0
  0
VISUALSTYLE
  5
35
102
{ACAD_REACTORS
330
2A
102
}
102
{ACAD_XDICTIONARY
360
3E0
102
}
330
2A
100
AcDbVisualStyle
  2
Dim
 70
    11
 71
     2
 72
     2
 73
     0
 90
        0
 40
0.6
 41
30.0
 62
     5
 63
     7
421
 16777215
 74
     1
 91
        4
 64
     7
 65
   257
 75
     1
175
     1
 42
1.0
 92
        8
 66
     7
 43
1.0
 76
     1
 77
     6
 78
     2
 67
     7
 79
     5
170
     0
171
     0
290
     0
174
     0
 93
        1
 44
-50.0
173
     0
291
     1
 45
0.0
1001
ACAD
1000
AcDbSavedByObjectVersion
1070
     0
  0
VISUALSTYLE
  5
3D
102
{ACAD_REACTORS
330
2A
102
}
102
{ACAD_XDICTIONARY
360
3F0
102
}
330
2A
100
AcDbVisualStyle
  2
EdgeColorOff
 70
    22
 71
     2
 72
     2
 73
     0
 90
        0
 40
0.6
 41
30.0
 62
     5
 63
     7
421
 16777215
 74
     1
 91
        4
 64
     7
 65
   257
 75
     1
175
     1
 42
1.0
 92
        8
 66
     7
 43
1.0
 76
     1
 77
     6
 78
     2
 67
     7
 79
     5
170
     0
171
     0
290
     0
174
     0
 93
        1
 44
0.0
173
     0
291
     1
 45
0.0
1001
ACAD
1000
AcDbSavedByObjectVersion
1070
     0
  0
VISUALSTYLE
  5
39
102
{ACAD_REACTORS
330
2A
102
}
102
{ACAD_XDICTIONARY
360
3E8
102
}
330
2A
100
AcDbVisualStyle
  2
Facepattern
 70
    15
 71
     2
 72
     2
 73
     0
 90
        0
 40
0.6
 41
30.0
 62
     5
 63
     7
421
 16777215
 74
     1
 91
        4
 64
     7
 65
   257
 75
     1
175
     1
 42
1.0
 92
        8
 66
     7
 43
1.0
 76
     1
 77
     6
 78
     2
 67
     7
 79
     5
170
     0
171
     0
290
     0
174
     0
 93
        1
 44
0.0
173
     0
291
     1
 45
0.0
1001
ACAD
1000
AcDbSavedByObjectVersion
1070
     0
  0
VISUALSTYLE
  5
2B
102
{ACAD_REACTORS
330
2A
102
}
102
{ACAD_XDICTIONARY
360
3CC
102
}
330
2A
100
AcDbVisualStyle
  2
Flat
 70
     0
 71
     2
 72
     1
 73
     1
 90
        2
 40
0.6
 41
30.0
 62
     5
 63
     7
421
 16777215
 74
     0
 91
        0
 64
     7
 65
   257
 75
     1
175
     1
 42
1.0
 92
        8
 66
     7
 43
1.0
 76
     1
 77
     6
 78
     2
 67
     7
 79
     5
170
     0
171
     0
290
     0
174
     0
 93
       13
 44
0.0
173
     0
291
     1
 45
0.0
1001
ACAD
1000
AcDbSavedByObjectVersion
1070
     0
  0
VISUALSTYLE
  5
2C
102
{ACAD_REACTORS
330
2A
102
}
102
{ACAD_XDICTIONARY
360
3CE
102
}
330
2A
100
AcDbVisualStyle
  2
FlatWithEdges
 70
     1
 71
     2
 72
     1
 73
     1
 90
        2
 40
0.6
 41
30.0
 62
     5
 63
     7
421
 16777215
 74
     1
 91
        0
 64
     7
 65
   257
 75
     1
175
     1
 42
1.0
 92
        0
 66
   257
 43
1.0
 76
     1
 77
     6
 78
     2
 67
     7
 79
     5
170
     0
171
     0
290
     0
174
     0
 93
       13
 44
0.0
173
     0
291
     1
 45
0.0
1001
ACAD
1000
AcDbSavedByObjectVersion
1070
     0
  0
VISUALSTYLE
  5
2D
102
{ACAD_REACTORS
330
2A
102
}
102
{ACAD_XDICTIONARY
360
3D0
102
}
330
2A
100
AcDbVisualStyle
  2
Gouraud
 70
     2
 71
     2
 72
     2
 73
     1
 90
        2
 40
0.6
 41
30.0
 62
     5
 63
     7
421
 16777215
 74
     0
 91
        0
 64
     7
 65
   257
 75
     1
175
     1
 42
1.0
 92
        0
 66
     7
 43
1.0
 76
     1
 77
     6
 78
     2
 67
     7
 79
     5
170
     0
171
     0
290
     0
174
     0
 93
       13
 44
0.0
173
     0
291
     1
 45
0.0
1001
ACAD
1000
AcDbSavedByObjectVersion
1070
     0
  0
VISUALSTYLE
  5
2E
102
{ACAD_REACTORS
330
2A
102
}
102
{ACAD_XDICTIONARY
360
3D2
102
}
330
2A
100
AcDbVisualStyle
  2
GouraudWithEdges
 70
     3
 71
     2
 72
     2
 73
     1
 90
        2
 40
0.6
 41
30.0
 62
     5
 63
     7
421
 16777215
 74
     1
 91
        0
 64
     7
 65
   257
 75
     1
175
     1
 42
1.0
 92
        0
 66
   257
 43
1.0
 76
     1
 77
     6
 78
     2
 67
     7
 79
     5
170
     0
171
     0
290
     0
174
     0
 93
       13
 44
0.0
173
     0
291
     1
 45
0.0
1001
ACAD
1000
AcDbSavedByObjectVersion
1070
     0
  0
VISUALSTYLE
  5
31
102
{ACAD_REACTORS
330
2A
102
}
102
{ACAD_XDICTIONARY
360
3D8
102
}
330
2A
100
AcDbVisualStyle
  2
Hidden
 70
     6
 71
     1
 72
     2
 73
     2
 90
        0
 40
0.6
 41
30.0
 62
     5
 63
     7
421
 16777215
 74
     2
 91
        2
 64
     7
 65
   257
 75
     2
175
     1
 42
40.0
 92
        0
 66
   257
 43
1.0
 76
     1
 77
     6
 78
     2
 67
     7
 79
     3
170
     0
171
     0
290
     0
174
     0
 93
        1
 44
0.0
173
     0
291
     0
 45
0.0
1001
ACAD
1000
AcDbSavedByObjectVersion
1070
     0
  0
VISUALSTYLE
  5
3B
102
{ACAD_REACTORS
330
2A
102
}
102
{ACAD_XDICTIONARY
360
3EC
102
}
330
2A
100
AcDbVisualStyle
  2
JitterOff
 70
    20
 71
     2
 72
     2
 73
     0
 90
        0
 40
0.6
 41
30.0
 62
     5
 63
     7
421
 16777215
 74
     1
 91
        4
 64
     7
 65
   257
 75
     1
175
     1
 42
1.0
 92
       10
 66
     7
 43
1.0
 76
     1
 77
     6
 78
     2
 67
     7
 79
     5
170
     0
171
     0
290
     0
174
     0
 93
        1
 44
0.0
173
     0
291
     1
 45
0.0
1001
ACAD
1000
AcDbSavedByObjectVersion
1070
     0
  0
VISUALSTYLE
  5
38
102
{ACAD_REACTORS
330
2A
102
}
102
{ACAD_XDICTIONARY
360
3E6
102
}
330
2A
100
AcDbVisualStyle
  2
Linepattern
 70
    14
 71
     2
 72
     2
 73
     0
 90
        0
 40
0.6
 41
30.0
 62
     5
 63
     7
421
 16777215
 74
     1
 91
        4
 64
     7
 65
   257
 75
     7
175
     7
 42
1.0
 92
        8
 66
     7
 43
1.0
 76
     1
 77
     6
 78
     2
 67
     7
 79
     5
170
     0
171
     0
290
     0
174
     0
 93
        1
 44
0.0
173
     0
291
     1
 45
0.0
1001
ACAD
1000
AcDbSavedByObjectVersion
1070
     0
  0
VISUALSTYLE
  5
3C
102
{ACAD_REACTORS
330
2A
102
}
102
{ACAD_XDICTIONARY
360
3EE
102
}
330
2A
100
AcDbVisualStyle
  2
OverhangOff
 70
    21
 71
     2
 72
     2
 73
     0
 90
        0
 40
0.6
 41
30.0
 62
     5
 63
     7
421
 16777215
 74
     1
 91
        4
 64
     7
 65
   257
 75
     1
175
     1
 42
1.0
 92
        9
 66
     7
 43
1.0
 76
     1
 77
     6
 78
     2
 67
     7
 79
     5
170
     0
171
     0
290
     0
174
     0
 93
        1
 44
0.0
173
     0
291
     1
 45
0.0
1001
ACAD
1000
AcDbSavedByObjectVersion
1070
     0
  0
VISUALSTYLE
  5
33
102
{ACAD_REACTORS
330
2A
102
}
102
{ACAD_XDICTIONARY
360
3DC
102
}
330
2A
100
AcDbVisualStyle
  2
Realistic
 70
     8
 71
     2
 72
     3
 73
     0
 90
        2
 40
0.6
 41
30.0
 62
     5
 63
     7
421
 16777215
 74
     0
 91
        0
 64
     7
 65
   257
 75
     1
175
     1
 42
1.0
 92
        8
 66
   257
 43
1.0
 76
     1
 77
     6
 78
     2
 67
     7
 79
     3
170
     0
171
     0
290
     0
174
     0
 93
       13
 44
0.0
173
     0
291
     0
 45
0.0
1001
ACAD
1000
AcDbSavedByObjectVersion
1070
     0
  0
VISUALSTYLE
  5
42
102
{ACAD_REACTORS
330
2A
102
}
102
{ACAD_XDICTIONARY
360
3FA
102
}
330
2A
100
AcDbVisualStyle
  2
Shaded
 70
    27
 71
     2
 72
     2
 73
     1
 90
        2
 40
0.6
 41
30.0
 62
     5
 63
     7
421
 16777215
 74
     0
 91
        4
 64
     7
 65
   257
 75
     1
175
     1
 42
1.0
 92
        8
 66
   257
 43
1.0
 76
     1
 77
     6
 78
     2
 67
     8
425
  7895160
 79
     3
170
     0
171
     0
290
     0
174
     0
 93
        5
 44
0.0
173
     0
291
     0
 45
0.0
1001
ACAD
1000
AcDbSavedByObjectVersion
1070
     0
  0
VISUALSTYLE
  5
41
102
{ACAD_REACTORS
330
2A
102
}
102
{ACAD_XDICTIONARY
360
3F8
102
}
330
2A
100
AcDbVisualStyle
  2
Shaded with edges
 70
    26
 71
     2
 72
     2
 73
     1
 90
        2
 40
0.6
 41
30.0
 62
     5
 63
     7
421
 16777215
 74
     1
 91
       10
 64
     7
 65
   257
 75
     2
175
     1
 42
1.0
 92
        8
 66
   257
 43
1.0
 76
     1
 77
     6
 78
     2
 67
     7
 79
     3
170
     0
171
     0
290
     0
174
     0
 93
        5
 44
0.0
173
     0
291
     0
 45
0.0
1001
ACAD
1000
AcDbSavedByObjectVersion
1070
     0
  0
VISUALSTYLE
  5
3E
102
{ACAD_REACTORS
330
2A
102
}
102
{ACAD_XDICTIONARY
360
3F2
102
}
330
2A
100
AcDbVisualStyle
  2
Shades of Gray
 70
    23
 71
     2
 72
     2
 73
     3
 90
        0
 40
0.6
 41
30.0
 62
     5
 63
     7
421
 16777215
 74
     2
 91
        2
 64
     7
 65
     7
 75
     1
175
     1
 42
40.0
 92
        8
 66
     7
 43
1.0
 76
     1
 77
     6
 78
     2
 67
     7
 79
     3
170
     0
171
     0
290
     0
174
     0
 93
        1
 44
0.0
173
     0
291
     0
 45
0.0
1001
ACAD
1000
AcDbSavedByObjectVersion
1070
     0
  0
VISUALSTYLE
  5
3F
102
{ACAD_REACTORS
330
2A
102
}
102
{ACAD_XDICTIONARY
360
3F4
102
}
330
2A
100
AcDbVisualStyle
  2
Sketchy
 70
    24
 71
     1
 72
     2
 73
     2
 90
        0
 40
0.6
 41
30.0
 62
     5
 63
     7
421
 16777215
 74
     2
 91
        2
 64
     7
 65
     7
 75
     1
175
     1
 42
40.0
 92
       11
 66
     7
 43
1.0
 76
     1
 77
     6
 78
     2
 67
     7
 79
     6
170
     0
171
     0
290
     0
174
     0
 93
        1
 44
0.0
173
     0
291
     0
 45
0.0
1001
ACAD
1000
AcDbSavedByObjectVersion
1070
     0
  0
VISUALSTYLE
  5
37
102
{ACAD_REACTORS
330
2A
102
}
102
{ACAD_XDICTIONARY
360
3E4
102
}
330
2A
100
AcDbVisualStyle
  2
Thicken
 70
    13
 71
     2
 72
     2
 73
     0
 90
        0
 40
0.6
 41
30.0
 62
     5
 63
     7
421
 16777215
 74
     1
 91
        4
 64
     7
 65
   257
 75
     1
175
     1
 42
1.0
 92
       12
 66
     7
 43
1.0
 76
     1
 77
     6
 78
     2
 67
     7
 79
     5
170
     0
171
     0
290
     0
174
     0
 93
        1
 44
0.0
173
     0
291
     1
 45
0.0
1001
ACAD
1000
AcDbSavedByObjectVersion
1070
     0
  0
VISUALSTYLE
  5
30
102
{ACAD_REACTORS
330
2A
102
}
102
{ACAD_XDICTIONARY
360
3D6
102
}
330
2A
100
AcDbVisualStyle
  2
Wireframe
 70
     5
 71
     0
 72
     2
 73
     0
 90
        0
 40
0.6
 41
30.0
 62
     5
 63
     7
421
 16777215
 74
     1
 91
        4
 64
     7
 65
   257
 75
     1
175
     1
 42
1.0
 92
        0
 66
   257
 43
1.0
 76
     1
 77
     6
 78
     2
 67
     7
 79
     3
170
     0
171
     0
290
     0
174
     0
 93
        1
 44
0.0
173
     0
291
     0
 45
0.0
1001
ACAD
1000
AcDbSavedByObjectVersion
1070
     0
  0
VISUALSTYLE
  5
40
102
{ACAD_REACTORS
330
2A
102
}
102
{ACAD_XDICTIONARY
360
3F6
102
}
330
2A
100
AcDbVisualStyle
  2
X-Ray
 70
    25
 71
     2
 72
     2
 73
     1
 90
        1
 40
0.5
 41
30.0
 62
     5
 63
     7
421
 16777215
 74
     1
 91
        0
 64
     7
 65
   257
 75
     1
175
     1
 42
1.0
 92
        8
 66
     7
 43
1.0
 76
     1
 77
     6
 78
     2
 67
     7
 79
     3
170
     0
171
     0
290
     0
174
     0
 93
       13
 44
0.0
173
     0
291
     0
 45
0.0
1001
ACAD
1000
AcDbSavedByObjectVersion
1070
     0
  0
DICTIONARYVAR
  5
3C9
102
{ACAD_REACTORS
330
3C8
102
}
330
3C8
100
DictionaryVariables
280
     0
  1
1:1
  0
DICTIONARYVAR
  5
40D
102
{ACAD_REACTORS
330
3C8
102
}
330
3C8
100
DictionaryVariables
280
     0
  1
3.500000
  0
DICTIONARYVAR
  5
40E
102
{ACAD_REACTORS
330
3C8
102
}
330
3C8
100
DictionaryVariables
280
     0
  1
acadiso.lin
  0
DICTIONARYVAR
  5
40A
102
{ACAD_REACTORS
330
3C8
102
}
330
3C8
100
DictionaryVariables
280
     0
  1
Standard
  0
DICTIONARYVAR
  5
409
102
{ACAD_REACTORS
330
3C8
102
}
330
3C8
100
DictionaryVariables
280
     0
  1
Standard
  0
DICTIONARYVAR
  5
3CA
102
{ACAD_REACTORS
330
3C8
102
}
330
3C8
100
DictionaryVariables
280
     0
  1
1
  0
DICTIONARYVAR
  5
3CB
102
{ACAD_REACTORS
330
3C8
102
}
330
3C8
100
DictionaryVariables
280
     0
  1
2
  0
DICTIONARY
  5
3FE
330
45
100
AcDbDictionary
280
     1
281
     1
  3
ACAD_XREC_ROUNDTRIP
360
3FF
  0
DICTIONARY
  5
3FC
330
44
100
AcDbDictionary
280
     1
281
     1
  3
ACAD_XREC_ROUNDTRIP
360
3FD
  0
DICTIONARY
  5
400
330
46
100
AcDbDictionary
280
     1
281
     1
  3
ACAD_XREC_ROUNDTRIP
360
401
  0
DICTIONARY
  5
406
330
6C
100
AcDbDictionary
280
     1
281
     1
  3
ACAD_XREC_ROUNDTRIP
360
407
  0
DICTIONARY
  5
402
330
6A
100
AcDbDictionary
280
     1
281
     1
  3
ACAD_ROUNDTRIP_2008_TABLESTYLE_CELLSTYLEMAP
360
404
  3
ACAD_XREC_ROUNDTRIP
360
403
  0
DICTIONARY
  5
3D4
330
2F
100
AcDbDictionary
280
     1
281
     1
  3
ACAD_XREC_ROUNDTRIP
360
3D5
  0
DICTIONARY
  5
3DA
330
32
100
AcDbDictionary
280
     1
281
     1
  3
ACAD_XREC_ROUNDTRIP
360
3DB
  0
DICTIONARY
  5
3E2
330
36
100
AcDbDictionary
280
     1
281
     1
  3
ACAD_XREC_ROUNDTRIP
360
3E3
  0
DICTIONARY
  5
3EA
330
3A
100
AcDbDictionary
280
     1
281
     1
  3
ACAD_XREC_ROUNDTRIP
360
3EB
  0
DICTIONARY
  5
3DE
330
34
100
AcDbDictionary
280
     1
281
     1
  3
ACAD_XREC_ROUNDTRIP
360
3DF
  0
DICTIONARY
  5
3E0
330
35
100
AcDbDictionary
280
     1
281
     1
  3
ACAD_XREC_ROUNDTRIP
360
3E1
  0
DICTIONARY
  5
3F0
330
3D
100
AcDbDictionary
280
     1
281
     1
  3
ACAD_XREC_ROUNDTRIP
360
3F1
  0
DICTIONARY
  5
3E8
330
39
100
AcDbDictionary
280
     1
281
     1
  3
ACAD_XREC_ROUNDTRIP
360
3E9
  0
DICTIONARY
  5
3CC
330
2B
100
AcDbDictionary
280
     1
281
     1
  3
ACAD_XREC_ROUNDTRIP
360
3CD
  0
DICTIONARY
  5
3CE
330
2C
100
AcDbDictionary
280
     1
281
     1
  3
ACAD_XREC_ROUNDTRIP
360
3CF
  0
DICTIONARY
  5
3D0
330
2D
100
AcDbDictionary
280
     1
281
     1
  3
ACAD_XREC_ROUNDTRIP
360
3D1
  0
DICTIONARY
  5
3D2
330
2E
100
AcDbDictionary
280
     1
281
     1
  3
ACAD_XREC_ROUNDTRIP
360
3D3
  0
DICTIONARY
  5
3D8
330
31
100
AcDbDictionary
280
     1
281
     1
  3
ACAD_XREC_ROUNDTRIP
360
3D9
  0
DICTIONARY
  5
3EC
330
3B
100
AcDbDictionary
280
     1
281
     1
  3
ACAD_XREC_ROUNDTRIP
360
3ED
  0
DICTIONARY
  5
3E6
330
38
100
AcDbDictionary
280
     1
281
     1
  3
ACAD_XREC_ROUNDTRIP
360
3E7
  0
DICTIONARY
  5
3EE
330
3C
100
AcDbDictionary
280
     1
281
     1
  3
ACAD_XREC_ROUNDTRIP
360
3EF
  0
DICTIONARY
  5
3DC
330
33
100
AcDbDictionary
280
     1
281
     1
  3
ACAD_XREC_ROUNDTRIP
360
3DD
  0
DICTIONARY
  5
3FA
330
42
100
AcDbDictionary
280
     1
281
     1
  3
ACAD_XREC_ROUNDTRIP
360
3FB
  0
DICTIONARY
  5
3F8
330
41
100
AcDbDictionary
280
     1
281
     1
  3
ACAD_XREC_ROUNDTRIP
360
3F9
  0
DICTIONARY
  5
3F2
330
3E
100
AcDbDictionary
280
     1
281
     1
  3
ACAD_XREC_ROUNDTRIP
360
3F3
  0
DICTIONARY
  5
3F4
330
3F
100
AcDbDictionary
280
     1
281
     1
  3
ACAD_XREC_ROUNDTRIP
360
3F5
  0
DICTIONARY
  5
3E4
330
37
100
AcDbDictionary
280
     1
281
     1
  3
ACAD_XREC_ROUNDTRIP
360
3E5
  0
DICTIONARY
  5
3D6
330
30
100
AcDbDictionary
280
     1
281
     1
  3
ACAD_XREC_ROUNDTRIP
360
3D7
  0
DICTIONARY
  5
3F6
330
40
100
AcDbDictionary
280
     1
281
     1
  3
ACAD_XREC_ROUNDTRIP
360
3F7
  0
XRECORD
  5
3FF
102
{ACAD_REACTORS
330
3FE
102
}
330
3FE
100
AcDbXrecord
280
     1
102
MATERIAL
148
0.0
149
0.0
149
0.0
 93
        0
 94
      127
282
     0
 72
     1
 77
     1
171
     1
175
     1
179
     1
273
     0
  0
XRECORD
  5
3FD
102
{ACAD_REACTORS
330
3FC
102
}
330
3FC
100
AcDbXrecord
280
     1
102
MATERIAL
148
0.0
149
0.0
149
0.0
 93
        0
 94
      127
282
     0
 72
     1
 77
     1
171
     1
175
     1
179
     1
273
     0
  0
XRECORD
  5
401
102
{ACAD_REACTORS
330
400
102
}
330
400
100
AcDbXrecord
280
     1
102
MATERIAL
148
0.0
149
0.0
149
0.0
 93
        0
 94
      127
282
     0
 72
     1
 77
     1
171
     1
175
     1
179
     1
273
     0
  0
XRECORD
  5
407
102
{ACAD_REACTORS
330
406
102
}
330
406
100
AcDbXrecord
280
     1
102
ACAD_ROUNDTRIP_2010_MLEADER_STYLE
  0
CELLSTYLEMAP
  5
404
102
{ACAD_REACTORS
330
402
102
}
330
402
100
AcDbCellStyleMap
 90
        3
300
CELLSTYLE
  1
TABLEFORMAT_BEGIN
 90
        5
170
     1
 91
        0
 92
    32768
 62
   257
 93
        1
300
CONTENTFORMAT
  1
CONTENTFORMAT_BEGIN
 90
        0
 91
        0
 92
        4
 93
        0
300

 40
0.0
140
1.0
 94
        5
 62
     0
340
11
144
6.0
309
CONTENTFORMAT_END
171
     1
301
MARGIN
  1
CELLMARGIN_BEGIN
 40
1.5
 40
1.5
 40
1.5
 40
1.5
 40
1.5
 40
1.5
309
CELLMARGIN_END
 94
        6
 95
        1
302
GRIDFORMAT
  1
GRIDFORMAT_BEGIN
 90
        0
 91
        1
 62
     0
 92
       -2
340
14
 93
        0
 40
0.045
309
GRIDFORMAT_END
 95
        2
302
GRIDFORMAT
  1
GRIDFORMAT_BEGIN
 90
        0
 91
        1
 62
     0
 92
       -2
340
14
 93
        0
 40
0.045
309
GRIDFORMAT_END
 95
        4
302
GRIDFORMAT
  1
GRIDFORMAT_BEGIN
 90
        0
 91
        1
 62
     0
 92
       -2
340
14
 93
        0
 40
0.045
309
GRIDFORMAT_END
 95
        8
302
GRIDFORMAT
  1
GRIDFORMAT_BEGIN
 90
        0
 91
        1
 62
     0
 92
       -2
340
14
 93
        0
 40
0.045
309
GRIDFORMAT_END
 95
       16
302
GRIDFORMAT
  1
GRIDFORMAT_BEGIN
 90
        0
 91
        1
 62
     0
 92
       -2
340
14
 93
        0
 40
0.045
309
GRIDFORMAT_END
 95
       32
302
GRIDFORMAT
  1
GRIDFORMAT_BEGIN
 90
        0
 91
        1
 62
     0
 92
       -2
340
14
 93
        0
 40
0.045
309
GRIDFORMAT_END
309
TABLEFORMAT_END
  1
CELLSTYLE_BEGIN
 90
        1
 91
        1
300
_TITLE
309
CELLSTYLE_END
300
CELLSTYLE
  1
TABLEFORMAT_BEGIN
 90
        5
170
     1
 91
        0
 92
        0
 62
   257
 93
        1
300
CONTENTFORMAT
  1
CONTENTFORMAT_BEGIN
 90
        0
 91
        0
 92
        4
 93
        0
300

 40
0.0
140
1.0
 94
        5
 62
     0
340
11
144
4.5
309
CONTENTFORMAT_END
171
     1
301
MARGIN
  1
CELLMARGIN_BEGIN
 40
1.5
 40
1.5
 40
1.5
 40
1.5
 40
1.5
 40
1.5
309
CELLMARGIN_END
 94
        6
 95
        1
302
GRIDFORMAT
  1
GRIDFORMAT_BEGIN
 90
        0
 91
        1
 62
     0
 92
       -2
340
14
 93
        0
 40
0.045
309
GRIDFORMAT_END
 95
        2
302
GRIDFORMAT
  1
GRIDFORMAT_BEGIN
 90
        0
 91
        1
 62
     0
 92
       -2
340
14
 93
        0
 40
0.045
309
GRIDFORMAT_END
 95
        4
302
GRIDFORMAT
  1
GRIDFORMAT_BEGIN
 90
        0
 91
        1
 62
     0
 92
       -2
340
14
 93
        0
 40
0.045
309
GRIDFORMAT_END
 95
        8
302
GRIDFORMAT
  1
GRIDFORMAT_BEGIN
 90
        0
 91
        1
 62
     0
 92
       -2
340
14
 93
        0
 40
0.045
309
GRIDFORMAT_END
 95
       16
302
GRIDFORMAT
  1
GRIDFORMAT_BEGIN
 90
        0
 91
        1
 62
     0
 92
       -2
340
14
 93
        0
 40
0.045
309
GRIDFORMAT_END
 95
       32
302
GRIDFORMAT
  1
GRIDFORMAT_BEGIN
 90
        0
 91
        1
 62
     0
 92
       -2
340
14
 93
        0
 40
0.045
309
GRIDFORMAT_END
309
TABLEFORMAT_END
  1
CELLSTYLE_BEGIN
 90
        2
 91
        1
300
_HEADER
309
CELLSTYLE_END
300
CELLSTYLE
  1
TABLEFORMAT_BEGIN
 90
        5
170
     1
 91
        0
 92
        0
 62
   257
 93
        1
300
CONTENTFORMAT
  1
CONTENTFORMAT_BEGIN
 90
        0
 91
        0
 92
        4
 93
        0
300

 40
0.0
140
1.0
 94
        2
 62
     0
340
11
144
4.5
309
CONTENTFORMAT_END
171
     1
301
MARGIN
  1
CELLMARGIN_BEGIN
 40
1.5
 40
1.5
 40
1.5
 40
1.5
 40
1.5
 40
1.5
309
CELLMARGIN_END
 94
        6
 95
        1
302
GRIDFORMAT
  1
GRIDFORMAT_BEGIN
 90
        0
 91
        1
 62
     0
 92
       -2
340
14
 93
        0
 40
0.045
309
GRIDFORMAT_END
 95
        2
302
GRIDFORMAT
  1
GRIDFORMAT_BEGIN
 90
        0
 91
        1
 62
     0
 92
       -2
340
14
 93
        0
 40
0.045
309
GRIDFORMAT_END
 95
        4
302
GRIDFORMAT
  1
GRIDFORMAT_BEGIN
 90
        0
 91
        1
 62
     0
 92
       -2
340
14
 93
        0
 40
0.045
309
GRIDFORMAT_END
 95
        8
302
GRIDFORMAT
  1
GRIDFORMAT_BEGIN
 90
        0
 91
        1
 62
     0
 92
       -2
340
14
 93
        0
 40
0.045
309
GRIDFORMAT_END
 95
       16
302
GRIDFORMAT
  1
GRIDFORMAT_BEGIN
 90
        0
 91
        1
 62
     0
 92
       -2
340
14
 93
        0
 40
0.045
309
GRIDFORMAT_END
 95
       32
302
GRIDFORMAT
  1
GRIDFORMAT_BEGIN
 90
        0
 91
        1
 62
     0
 92
       -2
340
14
 93
        0
 40
0.045
309
GRIDFORMAT_END
309
TABLEFORMAT_END
  1
CELLSTYLE_BEGIN
 90
        3
 91
        2
300
_DATA
309
CELLSTYLE_END
  0
XRECORD
  5
403
102
{ACAD_REACTORS
330
402
102
}
330
402
100
AcDbXrecord
280
     1
102
ACAD_ROUNDTRIP_PRE2007_TABLESTYLE
 90
        4
 91
        0
  1

 92
        4
 93
        0
  2

 94
        4
 95
        0
  3

  0
XRECORD
  5
3D5
102
{ACAD_REACTORS
330
3D4
102
}
330
3D4
100
AcDbXrecord
280
     1
102
RTVSPropertyOp0
 70
     1
102
RTVSPropertyOp1
 70
     1
102
RTVSPropertyOp2
 70
     1
102
RTVSPropertyOp3
 70
     1
102
RTVSPropertyOp4
 70
     1
102
RTVSPropertyOp5
 70
     1
102
RTVSPropertyOp6
 70
     1
102
RTVSPropertyOp7
 70
     1
102
RTVSPropertyOp8
 70
     1
102
RTVSPropertyOp9
 70
     1
102
RTVSPropertyOp10
 70
     1
102
RTVSPropertyOp11
 70
     1
102
RTVSPropertyOp12
 70
     1
102
RTVSPropertyOp13
 70
     1
102
RTVSPropertyOp14
 70
     1
102
RTVSPropertyOp15
 70
     1
102
RTVSPropertyOp16
 70
     1
102
RTVSPropertyOp17
 70
     1
102
RTVSPropertyOp18
 70
     1
102
RTVSPropertyOp19
 70
     1
102
RTVSPropertyOp20
 70
     1
102
RTVSPropertyOp21
 70
     1
102
RTVSPropertyOp22
 70
     1
102
RTVSPropertyOp23
 70
     1
102
RTVSPropertyOp24
 70
     1
102
RTVSPropertyOp25
 70
     1
102
RTVSPropertyOp26
 70
     1
102
RTVSPropertyOp27
 70
     1
102
RTVSPropertyOp28
 70
     1
102
RTVSPropertyOp29
 70
     1
102
RTVSPropertyOp30
 70
     1
102
RTVSPropertyOp31
 70
     1
102
RTVSPropertyOp32
 70
     1
102
RTVSPropertyOp33
 70
     1
102
RTVSPropertyOp34
 70
     1
102
RTVSPropertyOp35
 70
     1
102
RTVSPropertyOp36
 70
     1
102
RTVSPropertyOp37
 70
     1
102
RTVSPropertyOp38
 70
     1
102
RTVSPropertyOp39
 70
     1
102
RTVSPropertyOp40
 70
     1
102
RTVSPropertyOp41
 70
     1
102
RTVSPropertyOp42
 70
     1
102
RTVSPropertyOp43
 70
     1
102
RTVSPropertyOp44
 70
     1
102
RTVSPropertyOp45
 70
     1
102
RTVSPropertyOp46
 70
     1
102
RTVSPropertyOp47
 70
     1
102
RTVSPropertyOp48
 70
     1
102
RTVSPropertyOp49
 70
     1
102
RTVSPropertyOp50
 70
     1
102
RTVSPropertyOp51
 70
     0
102
RTVSPropertyOp52
 70
     0
102
RTVSPropertyOp53
 70
     1
102
RTVSPropertyOp54
 70
     1
102
RTVSPropertyOp55
 70
     1
102
RTVSPropertyOp56
 70
     1
102
RTVSPropertyOp57
 70
     1
102
RTVSPost2010Prop28
280
     1
102
RTVSPost2010PropOp28
 70
     1
102
RTVSPost2010Prop29
280
     1
102
RTVSPost2010PropOp29
 70
     1
102
RTVSPost2010Prop30
280
     0
102
RTVSPost2010PropOp30
 70
     1
102
RTVSPost2010Prop31
280
     0
102
RTVSPost2010PropOp31
 70
     1
102
RTVSPost2010Prop32
280
     0
102
RTVSPost2010PropOp32
 70
     1
102
RTVSPost2010Prop33
280
     0
102
RTVSPost2010PropOp33
 70
     1
102
RTVSPost2010Prop34
280
     0
102
RTVSPost2010PropOp34
 70
     1
102
RTVSPost2010Prop35
280
     0
102
RTVSPost2010PropOp35
 70
     1
102
RTVSPost2010Prop36
280
     0
102
RTVSPost2010PropOp36
 70
     1
102
RTVSPost2010Prop37
 90
       50
102
RTVSPost2010PropOp37
 70
     1
102
RTVSPost2010Prop38
140
0.0
102
RTVSPost2010PropOp38
 70
     1
102
RTVSPost2010Prop39
140
1.0
102
RTVSPost2010PropOp39
 70
     1
102
RTVSPost2010Prop40
 90
        0
102
RTVSPost2010PropOp40
 70
     1
102
RTVSPost2010Prop41ColorIndex
 90
       18
102
RTVSPost2010Prop41ColorRGB
 90
        0
102
RTVSPost2010PropOp41
 70
     1
102
RTVSPost2010Prop42
 90
       50
102
RTVSPost2010PropOp42
 70
     1
102
RTVSPost2010Prop43
 90
        3
102
RTVSPost2010PropOp43
 70
     1
102
RTVSPost2010Prop44ColorIndex
 90
        5
102
RTVSPost2010Prop44ColorRGB
 90
      255
102
RTVSPost2010PropOp44
 70
     1
102
RTVSPost2010Prop45
280
     0
102
RTVSPost2010PropOp45
 70
     1
102
RTVSPost2010Prop46
 90
       50
102
RTVSPost2010PropOp46
 70
     1
102
RTVSPost2010Prop47
 90
       50
102
RTVSPost2010PropOp47
 70
     1
102
RTVSPost2010Prop48
 90
       50
102
RTVSPost2010PropOp48
 70
     1
102
RTVSPost2010Prop49
280
     0
102
RTVSPost2010PropOp49
 70
     1
102
RTVSPost2010Prop50
 90
       50
102
RTVSPost2010PropOp50
 70
     1
102
RTVSPost2010Prop51ColorIndex
 90
      256
102
RTVSPost2010Prop51ColorRGB
 90
-16777216
102
RTVSPost2010PropOp51
 70
     0
102
RTVSPost2010Prop52
140
1.0
102
RTVSPost2010PropOp52
 70
     0
102
RTVSPost2010Prop53
 90
        2
102
RTVSPost2010PropOp53
 70
     1
102
RTVSPost2010Prop54
  1
strokes_ogs.tif
102
RTVSPost2010PropOp54
 70
     1
102
RTVSPost2010Prop55
280
     0
102
RTVSPost2010PropOp55
 70
     1
102
RTVSPost2010Prop56
140
1.0
102
RTVSPost2010PropOp56
 70
     1
102
RTVSPost2010Prop57
140
1.0
102
RTVSPost2010PropOp57
 70
     1
  0
XRECORD
  5
3DB
102
{ACAD_REACTORS
330
3DA
102
}
330
3DA
100
AcDbXrecord
280
     1
102
RTVSPropertyOp0
 70
     1
102
RTVSPropertyOp1
 70
     1
102
RTVSPropertyOp2
 70
     1
102
RTVSPropertyOp3
 70
     1
102
RTVSPropertyOp4
 70
     1
102
RTVSPropertyOp5
 70
     1
102
RTVSPropertyOp6
 70
     1
102
RTVSPropertyOp7
 70
     1
102
RTVSPropertyOp8
 70
     1
102
RTVSPropertyOp9
 70
     1
102
RTVSPropertyOp10
 70
     1
102
RTVSPropertyOp11
 70
     1
102
RTVSPropertyOp12
 70
     1
102
RTVSPropertyOp13
 70
     1
102
RTVSPropertyOp14
 70
     1
102
RTVSPropertyOp15
 70
     1
102
RTVSPropertyOp16
 70
     1
102
RTVSPropertyOp17
 70
     1
102
RTVSPropertyOp18
 70
     1
102
RTVSPropertyOp19
 70
     1
102
RTVSPropertyOp20
 70
     1
102
RTVSPropertyOp21
 70
     1
102
RTVSPropertyOp22
 70
     1
102
RTVSPropertyOp23
 70
     1
102
RTVSPropertyOp24
 70
     1
102
RTVSPropertyOp25
 70
     1
102
RTVSPropertyOp26
 70
     1
102
RTVSPropertyOp27
 70
     1
102
RTVSPropertyOp28
 70
     1
102
RTVSPropertyOp29
 70
     1
102
RTVSPropertyOp30
 70
     1
102
RTVSPropertyOp31
 70
     1
102
RTVSPropertyOp32
 70
     1
102
RTVSPropertyOp33
 70
     1
102
RTVSPropertyOp34
 70
     1
102
RTVSPropertyOp35
 70
     1
102
RTVSPropertyOp36
 70
     1
102
RTVSPropertyOp37
 70
     1
102
RTVSPropertyOp38
 70
     1
102
RTVSPropertyOp39
 70
     1
102
RTVSPropertyOp40
 70
     1
102
RTVSPropertyOp41
 70
     1
102
RTVSPropertyOp42
 70
     1
102
RTVSPropertyOp43
 70
     1
102
RTVSPropertyOp44
 70
     1
102
RTVSPropertyOp45
 70
     1
102
RTVSPropertyOp46
 70
     1
102
RTVSPropertyOp47
 70
     1
102
RTVSPropertyOp48
 70
     1
102
RTVSPropertyOp49
 70
     1
102
RTVSPropertyOp50
 70
     1
102
RTVSPropertyOp51
 70
     0
102
RTVSPropertyOp52
 70
     0
102
RTVSPropertyOp53
 70
     1
102
RTVSPropertyOp54
 70
     1
102
RTVSPropertyOp55
 70
     1
102
RTVSPropertyOp56
 70
     1
102
RTVSPropertyOp57
 70
     1
102
RTVSPost2010Prop28
280
     0
102
RTVSPost2010PropOp28
 70
     1
102
RTVSPost2010Prop29
280
     1
102
RTVSPost2010PropOp29
 70
     1
102
RTVSPost2010Prop30
280
     1
102
RTVSPost2010PropOp30
 70
     1
102
RTVSPost2010Prop31
280
     0
102
RTVSPost2010PropOp31
 70
     1
102
RTVSPost2010Prop32
280
     0
102
RTVSPost2010PropOp32
 70
     1
102
RTVSPost2010Prop33
280
     0
102
RTVSPost2010PropOp33
 70
     1
102
RTVSPost2010Prop34
280
     0
102
RTVSPost2010PropOp34
 70
     1
102
RTVSPost2010Prop35
280
     0
102
RTVSPost2010PropOp35
 70
     1
102
RTVSPost2010Prop36
280
     0
102
RTVSPost2010PropOp36
 70
     1
102
RTVSPost2010Prop37
 90
       50
102
RTVSPost2010PropOp37
 70
     1
102
RTVSPost2010Prop38
140
0.0
102
RTVSPost2010PropOp38
 70
     1
102
RTVSPost2010Prop39
140
1.0
102
RTVSPost2010PropOp39
 70
     1
102
RTVSPost2010Prop40
 90
        0
102
RTVSPost2010PropOp40
 70
     1
102
RTVSPost2010Prop41ColorIndex
 90
       18
102
RTVSPost2010Prop41ColorRGB
 90
        0
102
RTVSPost2010PropOp41
 70
     1
102
RTVSPost2010Prop42
 90
       50
102
RTVSPost2010PropOp42
 70
     1
102
RTVSPost2010Prop43
 90
        3
102
RTVSPost2010PropOp43
 70
     1
102
RTVSPost2010Prop44ColorIndex
 90
        5
102
RTVSPost2010Prop44ColorRGB
 90
      255
102
RTVSPost2010PropOp44
 70
     1
102
RTVSPost2010Prop45
280
     0
102
RTVSPost2010PropOp45
 70
     1
102
RTVSPost2010Prop46
 90
       50
102
RTVSPost2010PropOp46
 70
     1
102
RTVSPost2010Prop47
 90
       50
102
RTVSPost2010PropOp47
 70
     1
102
RTVSPost2010Prop48
 90
       50
102
RTVSPost2010PropOp48
 70
     1
102
RTVSPost2010Prop49
280
     0
102
RTVSPost2010PropOp49
 70
     1
102
RTVSPost2010Prop50
 90
       50
102
RTVSPost2010PropOp50
 70
     1
102
RTVSPost2010Prop51ColorIndex
 90
      256
102
RTVSPost2010Prop51ColorRGB
 90
-16777216
102
RTVSPost2010PropOp51
 70
     0
102
RTVSPost2010Prop52
140
1.0
102
RTVSPost2010PropOp52
 70
     0
102
RTVSPost2010Prop53
 90
        2
102
RTVSPost2010PropOp53
 70
     1
102
RTVSPost2010Prop54
  1
strokes_ogs.tif
102
RTVSPost2010PropOp54
 70
     1
102
RTVSPost2010Prop55
280
     0
102
RTVSPost2010PropOp55
 70
     1
102
RTVSPost2010Prop56
140
1.0
102
RTVSPost2010PropOp56
 70
     1
102
RTVSPost2010Prop57
140
1.0
102
RTVSPost2010PropOp57
 70
     1
  0
XRECORD
  5
3E3
102
{ACAD_REACTORS
330
3E2
102
}
330
3E2
100
AcDbXrecord
280
     1
102
RTVSPropertyOp0
 70
     1
102
RTVSPropertyOp1
 70
     1
102
RTVSPropertyOp2
 70
     1
102
RTVSPropertyOp3
 70
     1
102
RTVSPropertyOp4
 70
     1
102
RTVSPropertyOp5
 70
     1
102
RTVSPropertyOp6
 70
     1
102
RTVSPropertyOp7
 70
     1
102
RTVSPropertyOp8
 70
     1
102
RTVSPropertyOp9
 70
     1
102
RTVSPropertyOp10
 70
     1
102
RTVSPropertyOp11
 70
     1
102
RTVSPropertyOp12
 70
     1
102
RTVSPropertyOp13
 70
     1
102
RTVSPropertyOp14
 70
     1
102
RTVSPropertyOp15
 70
     1
102
RTVSPropertyOp16
 70
     1
102
RTVSPropertyOp17
 70
     1
102
RTVSPropertyOp18
 70
     1
102
RTVSPropertyOp19
 70
     1
102
RTVSPropertyOp20
 70
     1
102
RTVSPropertyOp21
 70
     1
102
RTVSPropertyOp22
 70
     1
102
RTVSPropertyOp23
 70
     1
102
RTVSPropertyOp24
 70
     1
102
RTVSPropertyOp25
 70
     1
102
RTVSPropertyOp26
 70
     1
102
RTVSPropertyOp27
 70
     1
102
RTVSPropertyOp28
 70
     1
102
RTVSPropertyOp29
 70
     1
102
RTVSPropertyOp30
 70
     1
102
RTVSPropertyOp31
 70
     1
102
RTVSPropertyOp32
 70
     1
102
RTVSPropertyOp33
 70
     1
102
RTVSPropertyOp34
 70
     1
102
RTVSPropertyOp35
 70
     1
102
RTVSPropertyOp36
 70
     1
102
RTVSPropertyOp37
 70
     1
102
RTVSPropertyOp38
 70
     1
102
RTVSPropertyOp39
 70
     1
102
RTVSPropertyOp40
 70
     1
102
RTVSPropertyOp41
 70
     1
102
RTVSPropertyOp42
 70
     1
102
RTVSPropertyOp43
 70
     1
102
RTVSPropertyOp44
 70
     1
102
RTVSPropertyOp45
 70
     1
102
RTVSPropertyOp46
 70
     1
102
RTVSPropertyOp47
 70
     1
102
RTVSPropertyOp48
 70
     1
102
RTVSPropertyOp49
 70
     1
102
RTVSPropertyOp50
 70
     1
102
RTVSPropertyOp51
 70
     0
102
RTVSPropertyOp52
 70
     0
102
RTVSPropertyOp53
 70
     1
102
RTVSPropertyOp54
 70
     1
102
RTVSPropertyOp55
 70
     1
102
RTVSPropertyOp56
 70
     1
102
RTVSPropertyOp57
 70
     1
102
RTVSPost2010Prop28
280
     0
102
RTVSPost2010PropOp28
 70
     1
102
RTVSPost2010Prop29
280
     1
102
RTVSPost2010PropOp29
 70
     1
102
RTVSPost2010Prop30
280
     1
102
RTVSPost2010PropOp30
 70
     1
102
RTVSPost2010Prop31
280
     0
102
RTVSPost2010PropOp31
 70
     1
102
RTVSPost2010Prop32
280
     0
102
RTVSPost2010PropOp32
 70
     1
102
RTVSPost2010Prop33
280
     0
102
RTVSPost2010PropOp33
 70
     1
102
RTVSPost2010Prop34
280
     0
102
RTVSPost2010PropOp34
 70
     1
102
RTVSPost2010Prop35
280
     0
102
RTVSPost2010PropOp35
 70
     1
102
RTVSPost2010Prop36
280
     0
102
RTVSPost2010PropOp36
 70
     1
102
RTVSPost2010Prop37
 90
       50
102
RTVSPost2010PropOp37
 70
     1
102
RTVSPost2010Prop38
140
0.0
102
RTVSPost2010PropOp38
 70
     1
102
RTVSPost2010Prop39
140
1.0
102
RTVSPost2010PropOp39
 70
     1
102
RTVSPost2010Prop40
 90
        0
102
RTVSPost2010PropOp40
 70
     1
102
RTVSPost2010Prop41ColorIndex
 90
       18
102
RTVSPost2010Prop41ColorRGB
 90
        0
102
RTVSPost2010PropOp41
 70
     1
102
RTVSPost2010Prop42
 90
       50
102
RTVSPost2010PropOp42
 70
     1
102
RTVSPost2010Prop43
 90
        3
102
RTVSPost2010PropOp43
 70
     1
102
RTVSPost2010Prop44ColorIndex
 90
        5
102
RTVSPost2010Prop44ColorRGB
 90
      255
102
RTVSPost2010PropOp44
 70
     1
102
RTVSPost2010Prop45
280
     0
102
RTVSPost2010PropOp45
 70
     1
102
RTVSPost2010Prop46
 90
       50
102
RTVSPost2010PropOp46
 70
     1
102
RTVSPost2010Prop47
 90
       50
102
RTVSPost2010PropOp47
 70
     1
102
RTVSPost2010Prop48
 90
       50
102
RTVSPost2010PropOp48
 70
     1
102
RTVSPost2010Prop49
280
     0
102
RTVSPost2010PropOp49
 70
     1
102
RTVSPost2010Prop50
 90
       50
102
RTVSPost2010PropOp50
 70
     1
102
RTVSPost2010Prop51ColorIndex
 90
      256
102
RTVSPost2010Prop51ColorRGB
 90
-16777216
102
RTVSPost2010PropOp51
 70
     0
102
RTVSPost2010Prop52
140
1.0
102
RTVSPost2010PropOp52
 70
     0
102
RTVSPost2010Prop53
 90
        2
102
RTVSPost2010PropOp53
 70
     1
102
RTVSPost2010Prop54
  1
strokes_ogs.tif
102
RTVSPost2010PropOp54
 70
     1
102
RTVSPost2010Prop55
280
     0
102
RTVSPost2010PropOp55
 70
     1
102
RTVSPost2010Prop56
140
1.0
102
RTVSPost2010PropOp56
 70
     1
102
RTVSPost2010Prop57
140
1.0
102
RTVSPost2010PropOp57
 70
     1
  0
XRECORD
  5
3EB
102
{ACAD_REACTORS
330
3EA
102
}
330
3EA
100
AcDbXrecord
280
     1
102
RTVSPropertyOp0
 70
     1
102
RTVSPropertyOp1
 70
     1
102
RTVSPropertyOp2
 70
     1
102
RTVSPropertyOp3
 70
     1
102
RTVSPropertyOp4
 70
     1
102
RTVSPropertyOp5
 70
     1
102
RTVSPropertyOp6
 70
     1
102
RTVSPropertyOp7
 70
     1
102
RTVSPropertyOp8
 70
     1
102
RTVSPropertyOp9
 70
     1
102
RTVSPropertyOp10
 70
     1
102
RTVSPropertyOp11
 70
     1
102
RTVSPropertyOp12
 70
     1
102
RTVSPropertyOp13
 70
     1
102
RTVSPropertyOp14
 70
     1
102
RTVSPropertyOp15
 70
     1
102
RTVSPropertyOp16
 70
     1
102
RTVSPropertyOp17
 70
     1
102
RTVSPropertyOp18
 70
     1
102
RTVSPropertyOp19
 70
     1
102
RTVSPropertyOp20
 70
     1
102
RTVSPropertyOp21
 70
     1
102
RTVSPropertyOp22
 70
     1
102
RTVSPropertyOp23
 70
     1
102
RTVSPropertyOp24
 70
     1
102
RTVSPropertyOp25
 70
     1
102
RTVSPropertyOp26
 70
     1
102
RTVSPropertyOp27
 70
     1
102
RTVSPropertyOp28
 70
     1
102
RTVSPropertyOp29
 70
     1
102
RTVSPropertyOp30
 70
     1
102
RTVSPropertyOp31
 70
     1
102
RTVSPropertyOp32
 70
     1
102
RTVSPropertyOp33
 70
     1
102
RTVSPropertyOp34
 70
     1
102
RTVSPropertyOp35
 70
     1
102
RTVSPropertyOp36
 70
     1
102
RTVSPropertyOp37
 70
     1
102
RTVSPropertyOp38
 70
     1
102
RTVSPropertyOp39
 70
     1
102
RTVSPropertyOp40
 70
     1
102
RTVSPropertyOp41
 70
     1
102
RTVSPropertyOp42
 70
     1
102
RTVSPropertyOp43
 70
     1
102
RTVSPropertyOp44
 70
     1
102
RTVSPropertyOp45
 70
     1
102
RTVSPropertyOp46
 70
     1
102
RTVSPropertyOp47
 70
     1
102
RTVSPropertyOp48
 70
     1
102
RTVSPropertyOp49
 70
     1
102
RTVSPropertyOp50
 70
     1
102
RTVSPropertyOp51
 70
     0
102
RTVSPropertyOp52
 70
     0
102
RTVSPropertyOp53
 70
     1
102
RTVSPropertyOp54
 70
     1
102
RTVSPropertyOp55
 70
     1
102
RTVSPropertyOp56
 70
     1
102
RTVSPropertyOp57
 70
     1
102
RTVSPost2010Prop28
280
     0
102
RTVSPost2010PropOp28
 70
     1
102
RTVSPost2010Prop29
280
     1
102
RTVSPost2010PropOp29
 70
     1
102
RTVSPost2010Prop30
280
     1
102
RTVSPost2010PropOp30
 70
     1
102
RTVSPost2010Prop31
280
     0
102
RTVSPost2010PropOp31
 70
     1
102
RTVSPost2010Prop32
280
     0
102
RTVSPost2010PropOp32
 70
     1
102
RTVSPost2010Prop33
280
     0
102
RTVSPost2010PropOp33
 70
     1
102
RTVSPost2010Prop34
280
     0
102
RTVSPost2010PropOp34
 70
     1
102
RTVSPost2010Prop35
280
     0
102
RTVSPost2010PropOp35
 70
     1
102
RTVSPost2010Prop36
280
     0
102
RTVSPost2010PropOp36
 70
     1
102
RTVSPost2010Prop37
 90
       50
102
RTVSPost2010PropOp37
 70
     1
102
RTVSPost2010Prop38
140
0.0
102
RTVSPost2010PropOp38
 70
     1
102
RTVSPost2010Prop39
140
1.0
102
RTVSPost2010PropOp39
 70
     1
102
RTVSPost2010Prop40
 90
        0
102
RTVSPost2010PropOp40
 70
     1
102
RTVSPost2010Prop41ColorIndex
 90
       18
102
RTVSPost2010Prop41ColorRGB
 90
        0
102
RTVSPost2010PropOp41
 70
     1
102
RTVSPost2010Prop42
 90
       50
102
RTVSPost2010PropOp42
 70
     1
102
RTVSPost2010Prop43
 90
        3
102
RTVSPost2010PropOp43
 70
     1
102
RTVSPost2010Prop44ColorIndex
 90
        5
102
RTVSPost2010Prop44ColorRGB
 90
      255
102
RTVSPost2010PropOp44
 70
     1
102
RTVSPost2010Prop45
280
     0
102
RTVSPost2010PropOp45
 70
     1
102
RTVSPost2010Prop46
 90
       50
102
RTVSPost2010PropOp46
 70
     1
102
RTVSPost2010Prop47
 90
       50
102
RTVSPost2010PropOp47
 70
     1
102
RTVSPost2010Prop48
 90
       50
102
RTVSPost2010PropOp48
 70
     1
102
RTVSPost2010Prop49
280
     0
102
RTVSPost2010PropOp49
 70
     1
102
RTVSPost2010Prop50
 90
       50
102
RTVSPost2010PropOp50
 70
     1
102
RTVSPost2010Prop51ColorIndex
 90
      256
102
RTVSPost2010Prop51ColorRGB
 90
-16777216
102
RTVSPost2010PropOp51
 70
     0
102
RTVSPost2010Prop52
140
1.0
102
RTVSPost2010PropOp52
 70
     0
102
RTVSPost2010Prop53
 90
        2
102
RTVSPost2010PropOp53
 70
     1
102
RTVSPost2010Prop54
  1
strokes_ogs.tif
102
RTVSPost2010PropOp54
 70
     1
102
RTVSPost2010Prop55
280
     0
102
RTVSPost2010PropOp55
 70
     1
102
RTVSPost2010Prop56
140
1.0
102
RTVSPost2010PropOp56
 70
     1
102
RTVSPost2010Prop57
140
1.0
102
RTVSPost2010PropOp57
 70
     1
  0
XRECORD
  5
3DF
102
{ACAD_REACTORS
330
3DE
102
}
330
3DE
100
AcDbXrecord
280
     1
102
RTVSPropertyOp0
 70
     1
102
RTVSPropertyOp1
 70
     1
102
RTVSPropertyOp2
 70
     1
102
RTVSPropertyOp3
 70
     1
102
RTVSPropertyOp4
 70
     1
102
RTVSPropertyOp5
 70
     1
102
RTVSPropertyOp6
 70
     1
102
RTVSPropertyOp7
 70
     1
102
RTVSPropertyOp8
 70
     1
102
RTVSPropertyOp9
 70
     1
102
RTVSPropertyOp10
 70
     1
102
RTVSPropertyOp11
 70
     1
102
RTVSPropertyOp12
 70
     1
102
RTVSPropertyOp13
 70
     1
102
RTVSPropertyOp14
 70
     1
102
RTVSPropertyOp15
 70
     1
102
RTVSPropertyOp16
 70
     1
102
RTVSPropertyOp17
 70
     1
102
RTVSPropertyOp18
 70
     1
102
RTVSPropertyOp19
 70
     1
102
RTVSPropertyOp20
 70
     1
102
RTVSPropertyOp21
 70
     1
102
RTVSPropertyOp22
 70
     1
102
RTVSPropertyOp23
 70
     1
102
RTVSPropertyOp24
 70
     1
102
RTVSPropertyOp25
 70
     1
102
RTVSPropertyOp26
 70
     1
102
RTVSPropertyOp27
 70
     1
102
RTVSPropertyOp28
 70
     1
102
RTVSPropertyOp29
 70
     1
102
RTVSPropertyOp30
 70
     1
102
RTVSPropertyOp31
 70
     1
102
RTVSPropertyOp32
 70
     1
102
RTVSPropertyOp33
 70
     1
102
RTVSPropertyOp34
 70
     1
102
RTVSPropertyOp35
 70
     1
102
RTVSPropertyOp36
 70
     1
102
RTVSPropertyOp37
 70
     1
102
RTVSPropertyOp38
 70
     1
102
RTVSPropertyOp39
 70
     1
102
RTVSPropertyOp40
 70
     1
102
RTVSPropertyOp41
 70
     1
102
RTVSPropertyOp42
 70
     1
102
RTVSPropertyOp43
 70
     1
102
RTVSPropertyOp44
 70
     1
102
RTVSPropertyOp45
 70
     1
102
RTVSPropertyOp46
 70
     1
102
RTVSPropertyOp47
 70
     1
102
RTVSPropertyOp48
 70
     1
102
RTVSPropertyOp49
 70
     1
102
RTVSPropertyOp50
 70
     1
102
RTVSPropertyOp51
 70
     0
102
RTVSPropertyOp52
 70
     0
102
RTVSPropertyOp53
 70
     1
102
RTVSPropertyOp54
 70
     1
102
RTVSPropertyOp55
 70
     1
102
RTVSPropertyOp56
 70
     1
102
RTVSPropertyOp57
 70
     1
102
RTVSPost2010Prop28
280
     0
102
RTVSPost2010PropOp28
 70
     1
102
RTVSPost2010Prop29
280
     1
102
RTVSPost2010PropOp29
 70
     1
102
RTVSPost2010Prop30
280
     1
102
RTVSPost2010PropOp30
 70
     1
102
RTVSPost2010Prop31
280
     0
102
RTVSPost2010PropOp31
 70
     1
102
RTVSPost2010Prop32
280
     0
102
RTVSPost2010PropOp32
 70
     1
102
RTVSPost2010Prop33
280
     0
102
RTVSPost2010PropOp33
 70
     1
102
RTVSPost2010Prop34
280
     0
102
RTVSPost2010PropOp34
 70
     1
102
RTVSPost2010Prop35
280
     0
102
RTVSPost2010PropOp35
 70
     1
102
RTVSPost2010Prop36
280
     0
102
RTVSPost2010PropOp36
 70
     1
102
RTVSPost2010Prop37
 90
       50
102
RTVSPost2010PropOp37
 70
     1
102
RTVSPost2010Prop38
140
0.0
102
RTVSPost2010PropOp38
 70
     1
102
RTVSPost2010Prop39
140
1.0
102
RTVSPost2010PropOp39
 70
     1
102
RTVSPost2010Prop40
 90
        0
102
RTVSPost2010PropOp40
 70
     1
102
RTVSPost2010Prop41ColorIndex
 90
       18
102
RTVSPost2010Prop41ColorRGB
 90
        0
102
RTVSPost2010PropOp41
 70
     1
102
RTVSPost2010Prop42
 90
       50
102
RTVSPost2010PropOp42
 70
     1
102
RTVSPost2010Prop43
 90
        3
102
RTVSPost2010PropOp43
 70
     1
102
RTVSPost2010Prop44ColorIndex
 90
        5
102
RTVSPost2010Prop44ColorRGB
 90
      255
102
RTVSPost2010PropOp44
 70
     1
102
RTVSPost2010Prop45
280
     0
102
RTVSPost2010PropOp45
 70
     1
102
RTVSPost2010Prop46
 90
       50
102
RTVSPost2010PropOp46
 70
     1
102
RTVSPost2010Prop47
 90
       50
102
RTVSPost2010PropOp47
 70
     1
102
RTVSPost2010Prop48
 90
       50
102
RTVSPost2010PropOp48
 70
     1
102
RTVSPost2010Prop49
280
     0
102
RTVSPost2010PropOp49
 70
     1
102
RTVSPost2010Prop50
 90
       50
102
RTVSPost2010PropOp50
 70
     1
102
RTVSPost2010Prop51ColorIndex
 90
      256
102
RTVSPost2010Prop51ColorRGB
 90
-16777216
102
RTVSPost2010PropOp51
 70
     0
102
RTVSPost2010Prop52
140
1.0
102
RTVSPost2010PropOp52
 70
     0
102
RTVSPost2010Prop53
 90
        2
102
RTVSPost2010PropOp53
 70
     1
102
RTVSPost2010Prop54
  1
strokes_ogs.tif
102
RTVSPost2010PropOp54
 70
     1
102
RTVSPost2010Prop55
280
     0
102
RTVSPost2010PropOp55
 70
     1
102
RTVSPost2010Prop56
140
1.0
102
RTVSPost2010PropOp56
 70
     1
102
RTVSPost2010Prop57
140
1.0
102
RTVSPost2010PropOp57
 70
     1
  0
XRECORD
  5
3E1
102
{ACAD_REACTORS
330
3E0
102
}
330
3E0
100
AcDbXrecord
280
     1
102
RTVSPropertyOp0
 70
     1
102
RTVSPropertyOp1
 70
     1
102
RTVSPropertyOp2
 70
     1
102
RTVSPropertyOp3
 70
     1
102
RTVSPropertyOp4
 70
     1
102
RTVSPropertyOp5
 70
     1
102
RTVSPropertyOp6
 70
     1
102
RTVSPropertyOp7
 70
     1
102
RTVSPropertyOp8
 70
     1
102
RTVSPropertyOp9
 70
     1
102
RTVSPropertyOp10
 70
     1
102
RTVSPropertyOp11
 70
     1
102
RTVSPropertyOp12
 70
     1
102
RTVSPropertyOp13
 70
     1
102
RTVSPropertyOp14
 70
     1
102
RTVSPropertyOp15
 70
     1
102
RTVSPropertyOp16
 70
     1
102
RTVSPropertyOp17
 70
     1
102
RTVSPropertyOp18
 70
     1
102
RTVSPropertyOp19
 70
     1
102
RTVSPropertyOp20
 70
     1
102
RTVSPropertyOp21
 70
     1
102
RTVSPropertyOp22
 70
     1
102
RTVSPropertyOp23
 70
     1
102
RTVSPropertyOp24
 70
     1
102
RTVSPropertyOp25
 70
     1
102
RTVSPropertyOp26
 70
     1
102
RTVSPropertyOp27
 70
     1
102
RTVSPropertyOp28
 70
     1
102
RTVSPropertyOp29
 70
     1
102
RTVSPropertyOp30
 70
     1
102
RTVSPropertyOp31
 70
     1
102
RTVSPropertyOp32
 70
     1
102
RTVSPropertyOp33
 70
     1
102
RTVSPropertyOp34
 70
     1
102
RTVSPropertyOp35
 70
     1
102
RTVSPropertyOp36
 70
     1
102
RTVSPropertyOp37
 70
     1
102
RTVSPropertyOp38
 70
     1
102
RTVSPropertyOp39
 70
     1
102
RTVSPropertyOp40
 70
     1
102
RTVSPropertyOp41
 70
     1
102
RTVSPropertyOp42
 70
     1
102
RTVSPropertyOp43
 70
     1
102
RTVSPropertyOp44
 70
     1
102
RTVSPropertyOp45
 70
     1
102
RTVSPropertyOp46
 70
     1
102
RTVSPropertyOp47
 70
     1
102
RTVSPropertyOp48
 70
     1
102
RTVSPropertyOp49
 70
     1
102
RTVSPropertyOp50
 70
     1
102
RTVSPropertyOp51
 70
     0
102
RTVSPropertyOp52
 70
     0
102
RTVSPropertyOp53
 70
     1
102
RTVSPropertyOp54
 70
     1
102
RTVSPropertyOp55
 70
     1
102
RTVSPropertyOp56
 70
     1
102
RTVSPropertyOp57
 70
     1
102
RTVSPost2010Prop28
280
     0
102
RTVSPost2010PropOp28
 70
     1
102
RTVSPost2010Prop29
280
     1
102
RTVSPost2010PropOp29
 70
     1
102
RTVSPost2010Prop30
280
     1
102
RTVSPost2010PropOp30
 70
     1
102
RTVSPost2010Prop31
280
     0
102
RTVSPost2010PropOp31
 70
     1
102
RTVSPost2010Prop32
280
     0
102
RTVSPost2010PropOp32
 70
     1
102
RTVSPost2010Prop33
280
     0
102
RTVSPost2010PropOp33
 70
     1
102
RTVSPost2010Prop34
280
     0
102
RTVSPost2010PropOp34
 70
     1
102
RTVSPost2010Prop35
280
     0
102
RTVSPost2010PropOp35
 70
     1
102
RTVSPost2010Prop36
280
     0
102
RTVSPost2010PropOp36
 70
     1
102
RTVSPost2010Prop37
 90
       50
102
RTVSPost2010PropOp37
 70
     1
102
RTVSPost2010Prop38
140
0.0
102
RTVSPost2010PropOp38
 70
     1
102
RTVSPost2010Prop39
140
1.0
102
RTVSPost2010PropOp39
 70
     1
102
RTVSPost2010Prop40
 90
        0
102
RTVSPost2010PropOp40
 70
     1
102
RTVSPost2010Prop41ColorIndex
 90
       18
102
RTVSPost2010Prop41ColorRGB
 90
        0
102
RTVSPost2010PropOp41
 70
     1
102
RTVSPost2010Prop42
 90
       50
102
RTVSPost2010PropOp42
 70
     1
102
RTVSPost2010Prop43
 90
        3
102
RTVSPost2010PropOp43
 70
     1
102
RTVSPost2010Prop44ColorIndex
 90
        5
102
RTVSPost2010Prop44ColorRGB
 90
      255
102
RTVSPost2010PropOp44
 70
     1
102
RTVSPost2010Prop45
280
     0
102
RTVSPost2010PropOp45
 70
     1
102
RTVSPost2010Prop46
 90
       50
102
RTVSPost2010PropOp46
 70
     1
102
RTVSPost2010Prop47
 90
       50
102
RTVSPost2010PropOp47
 70
     1
102
RTVSPost2010Prop48
 90
       50
102
RTVSPost2010PropOp48
 70
     1
102
RTVSPost2010Prop49
280
     0
102
RTVSPost2010PropOp49
 70
     1
102
RTVSPost2010Prop50
 90
       50
102
RTVSPost2010PropOp50
 70
     1
102
RTVSPost2010Prop51ColorIndex
 90
      256
102
RTVSPost2010Prop51ColorRGB
 90
-16777216
102
RTVSPost2010PropOp51
 70
     0
102
RTVSPost2010Prop52
140
1.0
102
RTVSPost2010PropOp52
 70
     0
102
RTVSPost2010Prop53
 90
        2
102
RTVSPost2010PropOp53
 70
     1
102
RTVSPost2010Prop54
  1
strokes_ogs.tif
102
RTVSPost2010PropOp54
 70
     1
102
RTVSPost2010Prop55
280
     0
102
RTVSPost2010PropOp55
 70
     1
102
RTVSPost2010Prop56
140
1.0
102
RTVSPost2010PropOp56
 70
     1
102
RTVSPost2010Prop57
140
1.0
102
RTVSPost2010PropOp57
 70
     1
  0
XRECORD
  5
3F1
102
{ACAD_REACTORS
330
3F0
102
}
330
3F0
100
AcDbXrecord
280
     1
102
RTVSPropertyOp0
 70
     0
102
RTVSPropertyOp1
 70
     0
102
RTVSPropertyOp2
 70
     0
102
RTVSPropertyOp3
 70
     0
102
RTVSPropertyOp4
 70
     0
102
RTVSPropertyOp5
 70
     0
102
RTVSPropertyOp6
 70
     0
102
RTVSPropertyOp7
 70
     0
102
RTVSPropertyOp8
 70
     0
102
RTVSPropertyOp9
 70
     0
102
RTVSPropertyOp10
 70
     0
102
RTVSPropertyOp11
 70
     0
102
RTVSPropertyOp12
 70
     0
102
RTVSPropertyOp13
 70
     0
102
RTVSPropertyOp14
 70
     2
102
RTVSPropertyOp15
 70
     0
102
RTVSPropertyOp16
 70
     0
102
RTVSPropertyOp17
 70
     0
102
RTVSPropertyOp18
 70
     0
102
RTVSPropertyOp19
 70
     0
102
RTVSPropertyOp20
 70
     0
102
RTVSPropertyOp21
 70
     0
102
RTVSPropertyOp22
 70
     0
102
RTVSPropertyOp23
 70
     0
102
RTVSPropertyOp24
 70
     0
102
RTVSPropertyOp25
 70
     0
102
RTVSPropertyOp26
 70
     0
102
RTVSPropertyOp27
 70
     0
102
RTVSPropertyOp28
 70
     0
102
RTVSPropertyOp29
 70
     0
102
RTVSPropertyOp30
 70
     0
102
RTVSPropertyOp31
 70
     0
102
RTVSPropertyOp32
 70
     0
102
RTVSPropertyOp33
 70
     0
102
RTVSPropertyOp34
 70
     0
102
RTVSPropertyOp35
 70
     0
102
RTVSPropertyOp36
 70
     0
102
RTVSPropertyOp37
 70
     0
102
RTVSPropertyOp38
 70
     0
102
RTVSPropertyOp39
 70
     0
102
RTVSPropertyOp40
 70
     0
102
RTVSPropertyOp41
 70
     0
102
RTVSPropertyOp42
 70
     0
102
RTVSPropertyOp43
 70
     0
102
RTVSPropertyOp44
 70
     0
102
RTVSPropertyOp45
 70
     0
102
RTVSPropertyOp46
 70
     0
102
RTVSPropertyOp47
 70
     0
102
RTVSPropertyOp48
 70
     0
102
RTVSPropertyOp49
 70
     0
102
RTVSPropertyOp50
 70
     0
102
RTVSPropertyOp51
 70
     0
102
RTVSPropertyOp52
 70
     0
102
RTVSPropertyOp53
 70
     0
102
RTVSPropertyOp54
 70
     0
102
RTVSPropertyOp55
 70
     0
102
RTVSPropertyOp56
 70
     0
102
RTVSPropertyOp57
 70
     0
102
RTVSPost2010Prop28
280
     0
102
RTVSPost2010PropOp28
 70
     0
102
RTVSPost2010Prop29
280
     1
102
RTVSPost2010PropOp29
 70
     0
102
RTVSPost2010Prop30
280
     1
102
RTVSPost2010PropOp30
 70
     0
102
RTVSPost2010Prop31
280
     0
102
RTVSPost2010PropOp31
 70
     0
102
RTVSPost2010Prop32
280
     0
102
RTVSPost2010PropOp32
 70
     0
102
RTVSPost2010Prop33
280
     0
102
RTVSPost2010PropOp33
 70
     0
102
RTVSPost2010Prop34
280
     0
102
RTVSPost2010PropOp34
 70
     0
102
RTVSPost2010Prop35
280
     0
102
RTVSPost2010PropOp35
 70
     0
102
RTVSPost2010Prop36
280
     0
102
RTVSPost2010PropOp36
 70
     0
102
RTVSPost2010Prop37
 90
       50
102
RTVSPost2010PropOp37
 70
     0
102
RTVSPost2010Prop38
140
0.0
102
RTVSPost2010PropOp38
 70
     0
102
RTVSPost2010Prop39
140
1.0
102
RTVSPost2010PropOp39
 70
     0
102
RTVSPost2010Prop40
 90
        0
102
RTVSPost2010PropOp40
 70
     0
102
RTVSPost2010Prop41ColorIndex
 90
       18
102
RTVSPost2010Prop41ColorRGB
 90
        0
102
RTVSPost2010PropOp41
 70
     0
102
RTVSPost2010Prop42
 90
       50
102
RTVSPost2010PropOp42
 70
     0
102
RTVSPost2010Prop43
 90
        3
102
RTVSPost2010PropOp43
 70
     0
102
RTVSPost2010Prop44ColorIndex
 90
        5
102
RTVSPost2010Prop44ColorRGB
 90
      255
102
RTVSPost2010PropOp44
 70
     0
102
RTVSPost2010Prop45
280
     0
102
RTVSPost2010PropOp45
 70
     0
102
RTVSPost2010Prop46
 90
       50
102
RTVSPost2010PropOp46
 70
     0
102
RTVSPost2010Prop47
 90
       50
102
RTVSPost2010PropOp47
 70
     0
102
RTVSPost2010Prop48
 90
       50
102
RTVSPost2010PropOp48
 70
     0
102
RTVSPost2010Prop49
280
     0
102
RTVSPost2010PropOp49
 70
     0
102
RTVSPost2010Prop50
 90
       50
102
RTVSPost2010PropOp50
 70
     0
102
RTVSPost2010Prop51ColorIndex
 90
      256
102
RTVSPost2010Prop51ColorRGB
 90
-16777216
102
RTVSPost2010PropOp51
 70
     0
102
RTVSPost2010Prop52
140
1.0
102
RTVSPost2010PropOp52
 70
     0
102
RTVSPost2010Prop53
 90
        2
102
RTVSPost2010PropOp53
 70
     0
102
RTVSPost2010Prop54
  1
strokes_ogs.tif
102
RTVSPost2010PropOp54
 70
     0
102
RTVSPost2010Prop55
280
     0
102
RTVSPost2010PropOp55
 70
     0
102
RTVSPost2010Prop56
140
1.0
102
RTVSPost2010PropOp56
 70
     0
102
RTVSPost2010Prop57
140
1.0
102
RTVSPost2010PropOp57
 70
     0
  0
XRECORD
  5
3E9
102
{ACAD_REACTORS
330
3E8
102
}
330
3E8
100
AcDbXrecord
280
     1
102
RTVSPropertyOp0
 70
     1
102
RTVSPropertyOp1
 70
     1
102
RTVSPropertyOp2
 70
     1
102
RTVSPropertyOp3
 70
     1
102
RTVSPropertyOp4
 70
     1
102
RTVSPropertyOp5
 70
     1
102
RTVSPropertyOp6
 70
     1
102
RTVSPropertyOp7
 70
     1
102
RTVSPropertyOp8
 70
     1
102
RTVSPropertyOp9
 70
     1
102
RTVSPropertyOp10
 70
     1
102
RTVSPropertyOp11
 70
     1
102
RTVSPropertyOp12
 70
     1
102
RTVSPropertyOp13
 70
     1
102
RTVSPropertyOp14
 70
     1
102
RTVSPropertyOp15
 70
     1
102
RTVSPropertyOp16
 70
     1
102
RTVSPropertyOp17
 70
     1
102
RTVSPropertyOp18
 70
     1
102
RTVSPropertyOp19
 70
     1
102
RTVSPropertyOp20
 70
     1
102
RTVSPropertyOp21
 70
     1
102
RTVSPropertyOp22
 70
     1
102
RTVSPropertyOp23
 70
     1
102
RTVSPropertyOp24
 70
     1
102
RTVSPropertyOp25
 70
     1
102
RTVSPropertyOp26
 70
     1
102
RTVSPropertyOp27
 70
     1
102
RTVSPropertyOp28
 70
     1
102
RTVSPropertyOp29
 70
     1
102
RTVSPropertyOp30
 70
     1
102
RTVSPropertyOp31
 70
     1
102
RTVSPropertyOp32
 70
     1
102
RTVSPropertyOp33
 70
     1
102
RTVSPropertyOp34
 70
     1
102
RTVSPropertyOp35
 70
     1
102
RTVSPropertyOp36
 70
     1
102
RTVSPropertyOp37
 70
     1
102
RTVSPropertyOp38
 70
     1
102
RTVSPropertyOp39
 70
     1
102
RTVSPropertyOp40
 70
     1
102
RTVSPropertyOp41
 70
     1
102
RTVSPropertyOp42
 70
     1
102
RTVSPropertyOp43
 70
     1
102
RTVSPropertyOp44
 70
     1
102
RTVSPropertyOp45
 70
     1
102
RTVSPropertyOp46
 70
     1
102
RTVSPropertyOp47
 70
     1
102
RTVSPropertyOp48
 70
     1
102
RTVSPropertyOp49
 70
     1
102
RTVSPropertyOp50
 70
     1
102
RTVSPropertyOp51
 70
     0
102
RTVSPropertyOp52
 70
     0
102
RTVSPropertyOp53
 70
     1
102
RTVSPropertyOp54
 70
     1
102
RTVSPropertyOp55
 70
     1
102
RTVSPropertyOp56
 70
     1
102
RTVSPropertyOp57
 70
     1
102
RTVSPost2010Prop28
280
     0
102
RTVSPost2010PropOp28
 70
     1
102
RTVSPost2010Prop29
280
     1
102
RTVSPost2010PropOp29
 70
     1
102
RTVSPost2010Prop30
280
     1
102
RTVSPost2010PropOp30
 70
     1
102
RTVSPost2010Prop31
280
     0
102
RTVSPost2010PropOp31
 70
     1
102
RTVSPost2010Prop32
280
     0
102
RTVSPost2010PropOp32
 70
     1
102
RTVSPost2010Prop33
280
     0
102
RTVSPost2010PropOp33
 70
     1
102
RTVSPost2010Prop34
280
     0
102
RTVSPost2010PropOp34
 70
     1
102
RTVSPost2010Prop35
280
     0
102
RTVSPost2010PropOp35
 70
     1
102
RTVSPost2010Prop36
280
     0
102
RTVSPost2010PropOp36
 70
     1
102
RTVSPost2010Prop37
 90
       50
102
RTVSPost2010PropOp37
 70
     1
102
RTVSPost2010Prop38
140
0.0
102
RTVSPost2010PropOp38
 70
     1
102
RTVSPost2010Prop39
140
1.0
102
RTVSPost2010PropOp39
 70
     1
102
RTVSPost2010Prop40
 90
        0
102
RTVSPost2010PropOp40
 70
     1
102
RTVSPost2010Prop41ColorIndex
 90
       18
102
RTVSPost2010Prop41ColorRGB
 90
        0
102
RTVSPost2010PropOp41
 70
     1
102
RTVSPost2010Prop42
 90
       50
102
RTVSPost2010PropOp42
 70
     1
102
RTVSPost2010Prop43
 90
        3
102
RTVSPost2010PropOp43
 70
     1
102
RTVSPost2010Prop44ColorIndex
 90
        5
102
RTVSPost2010Prop44ColorRGB
 90
      255
102
RTVSPost2010PropOp44
 70
     1
102
RTVSPost2010Prop45
280
     0
102
RTVSPost2010PropOp45
 70
     1
102
RTVSPost2010Prop46
 90
       50
102
RTVSPost2010PropOp46
 70
     1
102
RTVSPost2010Prop47
 90
       50
102
RTVSPost2010PropOp47
 70
     1
102
RTVSPost2010Prop48
 90
       50
102
RTVSPost2010PropOp48
 70
     1
102
RTVSPost2010Prop49
280
     0
102
RTVSPost2010PropOp49
 70
     1
102
RTVSPost2010Prop50
 90
       50
102
RTVSPost2010PropOp50
 70
     1
102
RTVSPost2010Prop51ColorIndex
 90
      256
102
RTVSPost2010Prop51ColorRGB
 90
-16777216
102
RTVSPost2010PropOp51
 70
     0
102
RTVSPost2010Prop52
140
1.0
102
RTVSPost2010PropOp52
 70
     0
102
RTVSPost2010Prop53
 90
        2
102
RTVSPost2010PropOp53
 70
     1
102
RTVSPost2010Prop54
  1
strokes_ogs.tif
102
RTVSPost2010PropOp54
 70
     1
102
RTVSPost2010Prop55
280
     0
102
RTVSPost2010PropOp55
 70
     1
102
RTVSPost2010Prop56
140
1.0
102
RTVSPost2010PropOp56
 70
     1
102
RTVSPost2010Prop57
140
1.0
102
RTVSPost2010PropOp57
 70
     1
  0
XRECORD
  5
3CD
102
{ACAD_REACTORS
330
3CC
102
}
330
3CC
100
AcDbXrecord
280
     1
102
RTVSPropertyOp0
 70
     1
102
RTVSPropertyOp1
 70
     1
102
RTVSPropertyOp2
 70
     1
102
RTVSPropertyOp3
 70
     1
102
RTVSPropertyOp4
 70
     1
102
RTVSPropertyOp5
 70
     1
102
RTVSPropertyOp6
 70
     1
102
RTVSPropertyOp7
 70
     1
102
RTVSPropertyOp8
 70
     1
102
RTVSPropertyOp9
 70
     1
102
RTVSPropertyOp10
 70
     1
102
RTVSPropertyOp11
 70
     1
102
RTVSPropertyOp12
 70
     1
102
RTVSPropertyOp13
 70
     1
102
RTVSPropertyOp14
 70
     1
102
RTVSPropertyOp15
 70
     1
102
RTVSPropertyOp16
 70
     1
102
RTVSPropertyOp17
 70
     1
102
RTVSPropertyOp18
 70
     1
102
RTVSPropertyOp19
 70
     1
102
RTVSPropertyOp20
 70
     1
102
RTVSPropertyOp21
 70
     1
102
RTVSPropertyOp22
 70
     1
102
RTVSPropertyOp23
 70
     1
102
RTVSPropertyOp24
 70
     1
102
RTVSPropertyOp25
 70
     1
102
RTVSPropertyOp26
 70
     1
102
RTVSPropertyOp27
 70
     1
102
RTVSPropertyOp28
 70
     1
102
RTVSPropertyOp29
 70
     1
102
RTVSPropertyOp30
 70
     1
102
RTVSPropertyOp31
 70
     1
102
RTVSPropertyOp32
 70
     1
102
RTVSPropertyOp33
 70
     1
102
RTVSPropertyOp34
 70
     1
102
RTVSPropertyOp35
 70
     1
102
RTVSPropertyOp36
 70
     1
102
RTVSPropertyOp37
 70
     1
102
RTVSPropertyOp38
 70
     1
102
RTVSPropertyOp39
 70
     1
102
RTVSPropertyOp40
 70
     1
102
RTVSPropertyOp41
 70
     1
102
RTVSPropertyOp42
 70
     1
102
RTVSPropertyOp43
 70
     1
102
RTVSPropertyOp44
 70
     1
102
RTVSPropertyOp45
 70
     1
102
RTVSPropertyOp46
 70
     1
102
RTVSPropertyOp47
 70
     1
102
RTVSPropertyOp48
 70
     1
102
RTVSPropertyOp49
 70
     1
102
RTVSPropertyOp50
 70
     1
102
RTVSPropertyOp51
 70
     0
102
RTVSPropertyOp52
 70
     0
102
RTVSPropertyOp53
 70
     1
102
RTVSPropertyOp54
 70
     1
102
RTVSPropertyOp55
 70
     1
102
RTVSPropertyOp56
 70
     1
102
RTVSPropertyOp57
 70
     1
102
RTVSPost2010Prop28
280
     0
102
RTVSPost2010PropOp28
 70
     1
102
RTVSPost2010Prop29
280
     1
102
RTVSPost2010PropOp29
 70
     1
102
RTVSPost2010Prop30
280
     1
102
RTVSPost2010PropOp30
 70
     1
102
RTVSPost2010Prop31
280
     0
102
RTVSPost2010PropOp31
 70
     1
102
RTVSPost2010Prop32
280
     0
102
RTVSPost2010PropOp32
 70
     1
102
RTVSPost2010Prop33
280
     0
102
RTVSPost2010PropOp33
 70
     1
102
RTVSPost2010Prop34
280
     0
102
RTVSPost2010PropOp34
 70
     1
102
RTVSPost2010Prop35
280
     0
102
RTVSPost2010PropOp35
 70
     1
102
RTVSPost2010Prop36
280
     0
102
RTVSPost2010PropOp36
 70
     1
102
RTVSPost2010Prop37
 90
       50
102
RTVSPost2010PropOp37
 70
     1
102
RTVSPost2010Prop38
140
0.0
102
RTVSPost2010PropOp38
 70
     1
102
RTVSPost2010Prop39
140
1.0
102
RTVSPost2010PropOp39
 70
     1
102
RTVSPost2010Prop40
 90
        0
102
RTVSPost2010PropOp40
 70
     1
102
RTVSPost2010Prop41ColorIndex
 90
       18
102
RTVSPost2010Prop41ColorRGB
 90
        0
102
RTVSPost2010PropOp41
 70
     1
102
RTVSPost2010Prop42
 90
       50
102
RTVSPost2010PropOp42
 70
     1
102
RTVSPost2010Prop43
 90
        3
102
RTVSPost2010PropOp43
 70
     1
102
RTVSPost2010Prop44ColorIndex
 90
        5
102
RTVSPost2010Prop44ColorRGB
 90
      255
102
RTVSPost2010PropOp44
 70
     1
102
RTVSPost2010Prop45
280
     0
102
RTVSPost2010PropOp45
 70
     1
102
RTVSPost2010Prop46
 90
       50
102
RTVSPost2010PropOp46
 70
     1
102
RTVSPost2010Prop47
 90
       50
102
RTVSPost2010PropOp47
 70
     1
102
RTVSPost2010Prop48
 90
       50
102
RTVSPost2010PropOp48
 70
     1
102
RTVSPost2010Prop49
280
     0
102
RTVSPost2010PropOp49
 70
     1
102
RTVSPost2010Prop50
 90
       50
102
RTVSPost2010PropOp50
 70
     1
102
RTVSPost2010Prop51ColorIndex
 90
      256
102
RTVSPost2010Prop51ColorRGB
 90
-16777216
102
RTVSPost2010PropOp51
 70
     0
102
RTVSPost2010Prop52
140
1.0
102
RTVSPost2010PropOp52
 70
     0
102
RTVSPost2010Prop53
 90
        2
102
RTVSPost2010PropOp53
 70
     1
102
RTVSPost2010Prop54
  1
strokes_ogs.tif
102
RTVSPost2010PropOp54
 70
     1
102
RTVSPost2010Prop55
280
     0
102
RTVSPost2010PropOp55
 70
     1
102
RTVSPost2010Prop56
140
1.0
102
RTVSPost2010PropOp56
 70
     1
102
RTVSPost2010Prop57
140
1.0
102
RTVSPost2010PropOp57
 70
     1
  0
XRECORD
  5
3CF
102
{ACAD_REACTORS
330
3CE
102
}
330
3CE
100
AcDbXrecord
280
     1
102
RTVSPropertyOp0
 70
     1
102
RTVSPropertyOp1
 70
     1
102
RTVSPropertyOp2
 70
     1
102
RTVSPropertyOp3
 70
     1
102
RTVSPropertyOp4
 70
     1
102
RTVSPropertyOp5
 70
     1
102
RTVSPropertyOp6
 70
     1
102
RTVSPropertyOp7
 70
     1
102
RTVSPropertyOp8
 70
     1
102
RTVSPropertyOp9
 70
     1
102
RTVSPropertyOp10
 70
     1
102
RTVSPropertyOp11
 70
     1
102
RTVSPropertyOp12
 70
     1
102
RTVSPropertyOp13
 70
     1
102
RTVSPropertyOp14
 70
     1
102
RTVSPropertyOp15
 70
     1
102
RTVSPropertyOp16
 70
     1
102
RTVSPropertyOp17
 70
     1
102
RTVSPropertyOp18
 70
     1
102
RTVSPropertyOp19
 70
     1
102
RTVSPropertyOp20
 70
     1
102
RTVSPropertyOp21
 70
     1
102
RTVSPropertyOp22
 70
     1
102
RTVSPropertyOp23
 70
     1
102
RTVSPropertyOp24
 70
     1
102
RTVSPropertyOp25
 70
     1
102
RTVSPropertyOp26
 70
     1
102
RTVSPropertyOp27
 70
     1
102
RTVSPropertyOp28
 70
     1
102
RTVSPropertyOp29
 70
     1
102
RTVSPropertyOp30
 70
     1
102
RTVSPropertyOp31
 70
     1
102
RTVSPropertyOp32
 70
     1
102
RTVSPropertyOp33
 70
     1
102
RTVSPropertyOp34
 70
     1
102
RTVSPropertyOp35
 70
     1
102
RTVSPropertyOp36
 70
     1
102
RTVSPropertyOp37
 70
     1
102
RTVSPropertyOp38
 70
     1
102
RTVSPropertyOp39
 70
     1
102
RTVSPropertyOp40
 70
     1
102
RTVSPropertyOp41
 70
     1
102
RTVSPropertyOp42
 70
     1
102
RTVSPropertyOp43
 70
     1
102
RTVSPropertyOp44
 70
     1
102
RTVSPropertyOp45
 70
     1
102
RTVSPropertyOp46
 70
     1
102
RTVSPropertyOp47
 70
     1
102
RTVSPropertyOp48
 70
     1
102
RTVSPropertyOp49
 70
     1
102
RTVSPropertyOp50
 70
     1
102
RTVSPropertyOp51
 70
     0
102
RTVSPropertyOp52
 70
     0
102
RTVSPropertyOp53
 70
     1
102
RTVSPropertyOp54
 70
     1
102
RTVSPropertyOp55
 70
     1
102
RTVSPropertyOp56
 70
     1
102
RTVSPropertyOp57
 70
     1
102
RTVSPost2010Prop28
280
     0
102
RTVSPost2010PropOp28
 70
     1
102
RTVSPost2010Prop29
280
     1
102
RTVSPost2010PropOp29
 70
     1
102
RTVSPost2010Prop30
280
     1
102
RTVSPost2010PropOp30
 70
     1
102
RTVSPost2010Prop31
280
     0
102
RTVSPost2010PropOp31
 70
     1
102
RTVSPost2010Prop32
280
     0
102
RTVSPost2010PropOp32
 70
     1
102
RTVSPost2010Prop33
280
     0
102
RTVSPost2010PropOp33
 70
     1
102
RTVSPost2010Prop34
280
     0
102
RTVSPost2010PropOp34
 70
     1
102
RTVSPost2010Prop35
280
     0
102
RTVSPost2010PropOp35
 70
     1
102
RTVSPost2010Prop36
280
     0
102
RTVSPost2010PropOp36
 70
     1
102
RTVSPost2010Prop37
 90
       50
102
RTVSPost2010PropOp37
 70
     1
102
RTVSPost2010Prop38
140
0.0
102
RTVSPost2010PropOp38
 70
     1
102
RTVSPost2010Prop39
140
1.0
102
RTVSPost2010PropOp39
 70
     1
102
RTVSPost2010Prop40
 90
        0
102
RTVSPost2010PropOp40
 70
     1
102
RTVSPost2010Prop41ColorIndex
 90
       18
102
RTVSPost2010Prop41ColorRGB
 90
        0
102
RTVSPost2010PropOp41
 70
     1
102
RTVSPost2010Prop42
 90
       50
102
RTVSPost2010PropOp42
 70
     1
102
RTVSPost2010Prop43
 90
        3
102
RTVSPost2010PropOp43
 70
     1
102
RTVSPost2010Prop44ColorIndex
 90
        5
102
RTVSPost2010Prop44ColorRGB
 90
      255
102
RTVSPost2010PropOp44
 70
     1
102
RTVSPost2010Prop45
280
     0
102
RTVSPost2010PropOp45
 70
     1
102
RTVSPost2010Prop46
 90
       50
102
RTVSPost2010PropOp46
 70
     1
102
RTVSPost2010Prop47
 90
       50
102
RTVSPost2010PropOp47
 70
     1
102
RTVSPost2010Prop48
 90
       50
102
RTVSPost2010PropOp48
 70
     1
102
RTVSPost2010Prop49
280
     0
102
RTVSPost2010PropOp49
 70
     1
102
RTVSPost2010Prop50
 90
       50
102
RTVSPost2010PropOp50
 70
     1
102
RTVSPost2010Prop51ColorIndex
 90
      256
102
RTVSPost2010Prop51ColorRGB
 90
-16777216
102
RTVSPost2010PropOp51
 70
     0
102
RTVSPost2010Prop52
140
1.0
102
RTVSPost2010PropOp52
 70
     0
102
RTVSPost2010Prop53
 90
        2
102
RTVSPost2010PropOp53
 70
     1
102
RTVSPost2010Prop54
  1
strokes_ogs.tif
102
RTVSPost2010PropOp54
 70
     1
102
RTVSPost2010Prop55
280
     0
102
RTVSPost2010PropOp55
 70
     1
102
RTVSPost2010Prop56
140
1.0
102
RTVSPost2010PropOp56
 70
     1
102
RTVSPost2010Prop57
140
1.0
102
RTVSPost2010PropOp57
 70
     1
  0
XRECORD
  5
3D1
102
{ACAD_REACTORS
330
3D0
102
}
330
3D0
100
AcDbXrecord
280
     1
102
RTVSPropertyOp0
 70
     1
102
RTVSPropertyOp1
 70
     1
102
RTVSPropertyOp2
 70
     1
102
RTVSPropertyOp3
 70
     1
102
RTVSPropertyOp4
 70
     1
102
RTVSPropertyOp5
 70
     1
102
RTVSPropertyOp6
 70
     1
102
RTVSPropertyOp7
 70
     1
102
RTVSPropertyOp8
 70
     1
102
RTVSPropertyOp9
 70
     1
102
RTVSPropertyOp10
 70
     1
102
RTVSPropertyOp11
 70
     1
102
RTVSPropertyOp12
 70
     1
102
RTVSPropertyOp13
 70
     1
102
RTVSPropertyOp14
 70
     1
102
RTVSPropertyOp15
 70
     1
102
RTVSPropertyOp16
 70
     1
102
RTVSPropertyOp17
 70
     1
102
RTVSPropertyOp18
 70
     1
102
RTVSPropertyOp19
 70
     1
102
RTVSPropertyOp20
 70
     1
102
RTVSPropertyOp21
 70
     1
102
RTVSPropertyOp22
 70
     1
102
RTVSPropertyOp23
 70
     1
102
RTVSPropertyOp24
 70
     1
102
RTVSPropertyOp25
 70
     1
102
RTVSPropertyOp26
 70
     1
102
RTVSPropertyOp27
 70
     1
102
RTVSPropertyOp28
 70
     1
102
RTVSPropertyOp29
 70
     1
102
RTVSPropertyOp30
 70
     1
102
RTVSPropertyOp31
 70
     1
102
RTVSPropertyOp32
 70
     1
102
RTVSPropertyOp33
 70
     1
102
RTVSPropertyOp34
 70
     1
102
RTVSPropertyOp35
 70
     1
102
RTVSPropertyOp36
 70
     1
102
RTVSPropertyOp37
 70
     1
102
RTVSPropertyOp38
 70
     1
102
RTVSPropertyOp39
 70
     1
102
RTVSPropertyOp40
 70
     1
102
RTVSPropertyOp41
 70
     1
102
RTVSPropertyOp42
 70
     1
102
RTVSPropertyOp43
 70
     1
102
RTVSPropertyOp44
 70
     1
102
RTVSPropertyOp45
 70
     1
102
RTVSPropertyOp46
 70
     1
102
RTVSPropertyOp47
 70
     1
102
RTVSPropertyOp48
 70
     1
102
RTVSPropertyOp49
 70
     1
102
RTVSPropertyOp50
 70
     1
102
RTVSPropertyOp51
 70
     0
102
RTVSPropertyOp52
 70
     0
102
RTVSPropertyOp53
 70
     1
102
RTVSPropertyOp54
 70
     1
102
RTVSPropertyOp55
 70
     1
102
RTVSPropertyOp56
 70
     1
102
RTVSPropertyOp57
 70
     1
102
RTVSPost2010Prop28
280
     0
102
RTVSPost2010PropOp28
 70
     1
102
RTVSPost2010Prop29
280
     1
102
RTVSPost2010PropOp29
 70
     1
102
RTVSPost2010Prop30
280
     1
102
RTVSPost2010PropOp30
 70
     1
102
RTVSPost2010Prop31
280
     0
102
RTVSPost2010PropOp31
 70
     1
102
RTVSPost2010Prop32
280
     0
102
RTVSPost2010PropOp32
 70
     1
102
RTVSPost2010Prop33
280
     0
102
RTVSPost2010PropOp33
 70
     1
102
RTVSPost2010Prop34
280
     0
102
RTVSPost2010PropOp34
 70
     1
102
RTVSPost2010Prop35
280
     0
102
RTVSPost2010PropOp35
 70
     1
102
RTVSPost2010Prop36
280
     0
102
RTVSPost2010PropOp36
 70
     1
102
RTVSPost2010Prop37
 90
       50
102
RTVSPost2010PropOp37
 70
     1
102
RTVSPost2010Prop38
140
0.0
102
RTVSPost2010PropOp38
 70
     1
102
RTVSPost2010Prop39
140
1.0
102
RTVSPost2010PropOp39
 70
     1
102
RTVSPost2010Prop40
 90
        0
102
RTVSPost2010PropOp40
 70
     1
102
RTVSPost2010Prop41ColorIndex
 90
       18
102
RTVSPost2010Prop41ColorRGB
 90
        0
102
RTVSPost2010PropOp41
 70
     1
102
RTVSPost2010Prop42
 90
       50
102
RTVSPost2010PropOp42
 70
     1
102
RTVSPost2010Prop43
 90
        3
102
RTVSPost2010PropOp43
 70
     1
102
RTVSPost2010Prop44ColorIndex
 90
        5
102
RTVSPost2010Prop44ColorRGB
 90
      255
102
RTVSPost2010PropOp44
 70
     1
102
RTVSPost2010Prop45
280
     0
102
RTVSPost2010PropOp45
 70
     1
102
RTVSPost2010Prop46
 90
       50
102
RTVSPost2010PropOp46
 70
     1
102
RTVSPost2010Prop47
 90
       50
102
RTVSPost2010PropOp47
 70
     1
102
RTVSPost2010Prop48
 90
       50
102
RTVSPost2010PropOp48
 70
     1
102
RTVSPost2010Prop49
280
     0
102
RTVSPost2010PropOp49
 70
     1
102
RTVSPost2010Prop50
 90
       50
102
RTVSPost2010PropOp50
 70
     1
102
RTVSPost2010Prop51ColorIndex
 90
      256
102
RTVSPost2010Prop51ColorRGB
 90
-16777216
102
RTVSPost2010PropOp51
 70
     0
102
RTVSPost2010Prop52
140
1.0
102
RTVSPost2010PropOp52
 70
     0
102
RTVSPost2010Prop53
 90
        2
102
RTVSPost2010PropOp53
 70
     1
102
RTVSPost2010Prop54
  1
strokes_ogs.tif
102
RTVSPost2010PropOp54
 70
     1
102
RTVSPost2010Prop55
280
     0
102
RTVSPost2010PropOp55
 70
     1
102
RTVSPost2010Prop56
140
1.0
102
RTVSPost2010PropOp56
 70
     1
102
RTVSPost2010Prop57
140
1.0
102
RTVSPost2010PropOp57
 70
     1
  0
XRECORD
  5
3D3
102
{ACAD_REACTORS
330
3D2
102
}
330
3D2
100
AcDbXrecord
280
     1
102
RTVSPropertyOp0
 70
     1
102
RTVSPropertyOp1
 70
     1
102
RTVSPropertyOp2
 70
     1
102
RTVSPropertyOp3
 70
     1
102
RTVSPropertyOp4
 70
     1
102
RTVSPropertyOp5
 70
     1
102
RTVSPropertyOp6
 70
     1
102
RTVSPropertyOp7
 70
     1
102
RTVSPropertyOp8
 70
     1
102
RTVSPropertyOp9
 70
     1
102
RTVSPropertyOp10
 70
     1
102
RTVSPropertyOp11
 70
     1
102
RTVSPropertyOp12
 70
     1
102
RTVSPropertyOp13
 70
     1
102
RTVSPropertyOp14
 70
     1
102
RTVSPropertyOp15
 70
     1
102
RTVSPropertyOp16
 70
     1
102
RTVSPropertyOp17
 70
     1
102
RTVSPropertyOp18
 70
     1
102
RTVSPropertyOp19
 70
     1
102
RTVSPropertyOp20
 70
     1
102
RTVSPropertyOp21
 70
     1
102
RTVSPropertyOp22
 70
     1
102
RTVSPropertyOp23
 70
     1
102
RTVSPropertyOp24
 70
     1
102
RTVSPropertyOp25
 70
     1
102
RTVSPropertyOp26
 70
     1
102
RTVSPropertyOp27
 70
     1
102
RTVSPropertyOp28
 70
     1
102
RTVSPropertyOp29
 70
     1
102
RTVSPropertyOp30
 70
     1
102
RTVSPropertyOp31
 70
     1
102
RTVSPropertyOp32
 70
     1
102
RTVSPropertyOp33
 70
     1
102
RTVSPropertyOp34
 70
     1
102
RTVSPropertyOp35
 70
     1
102
RTVSPropertyOp36
 70
     1
102
RTVSPropertyOp37
 70
     1
102
RTVSPropertyOp38
 70
     1
102
RTVSPropertyOp39
 70
     1
102
RTVSPropertyOp40
 70
     1
102
RTVSPropertyOp41
 70
     1
102
RTVSPropertyOp42
 70
     1
102
RTVSPropertyOp43
 70
     1
102
RTVSPropertyOp44
 70
     1
102
RTVSPropertyOp45
 70
     1
102
RTVSPropertyOp46
 70
     1
102
RTVSPropertyOp47
 70
     1
102
RTVSPropertyOp48
 70
     1
102
RTVSPropertyOp49
 70
     1
102
RTVSPropertyOp50
 70
     1
102
RTVSPropertyOp51
 70
     0
102
RTVSPropertyOp52
 70
     0
102
RTVSPropertyOp53
 70
     1
102
RTVSPropertyOp54
 70
     1
102
RTVSPropertyOp55
 70
     1
102
RTVSPropertyOp56
 70
     1
102
RTVSPropertyOp57
 70
     1
102
RTVSPost2010Prop28
280
     0
102
RTVSPost2010PropOp28
 70
     1
102
RTVSPost2010Prop29
280
     1
102
RTVSPost2010PropOp29
 70
     1
102
RTVSPost2010Prop30
280
     1
102
RTVSPost2010PropOp30
 70
     1
102
RTVSPost2010Prop31
280
     0
102
RTVSPost2010PropOp31
 70
     1
102
RTVSPost2010Prop32
280
     0
102
RTVSPost2010PropOp32
 70
     1
102
RTVSPost2010Prop33
280
     0
102
RTVSPost2010PropOp33
 70
     1
102
RTVSPost2010Prop34
280
     0
102
RTVSPost2010PropOp34
 70
     1
102
RTVSPost2010Prop35
280
     0
102
RTVSPost2010PropOp35
 70
     1
102
RTVSPost2010Prop36
280
     0
102
RTVSPost2010PropOp36
 70
     1
102
RTVSPost2010Prop37
 90
       50
102
RTVSPost2010PropOp37
 70
     1
102
RTVSPost2010Prop38
140
0.0
102
RTVSPost2010PropOp38
 70
     1
102
RTVSPost2010Prop39
140
1.0
102
RTVSPost2010PropOp39
 70
     1
102
RTVSPost2010Prop40
 90
        0
102
RTVSPost2010PropOp40
 70
     1
102
RTVSPost2010Prop41ColorIndex
 90
       18
102
RTVSPost2010Prop41ColorRGB
 90
        0
102
RTVSPost2010PropOp41
 70
     1
102
RTVSPost2010Prop42
 90
       50
102
RTVSPost2010PropOp42
 70
     1
102
RTVSPost2010Prop43
 90
        3
102
RTVSPost2010PropOp43
 70
     1
102
RTVSPost2010Prop44ColorIndex
 90
        5
102
RTVSPost2010Prop44ColorRGB
 90
      255
102
RTVSPost2010PropOp44
 70
     1
102
RTVSPost2010Prop45
280
     0
102
RTVSPost2010PropOp45
 70
     1
102
RTVSPost2010Prop46
 90
       50
102
RTVSPost2010PropOp46
 70
     1
102
RTVSPost2010Prop47
 90
       50
102
RTVSPost2010PropOp47
 70
     1
102
RTVSPost2010Prop48
 90
       50
102
RTVSPost2010PropOp48
 70
     1
102
RTVSPost2010Prop49
280
     0
102
RTVSPost2010PropOp49
 70
     1
102
RTVSPost2010Prop50
 90
       50
102
RTVSPost2010PropOp50
 70
     1
102
RTVSPost2010Prop51ColorIndex
 90
      256
102
RTVSPost2010Prop51ColorRGB
 90
-16777216
102
RTVSPost2010PropOp51
 70
     0
102
RTVSPost2010Prop52
140
1.0
102
RTVSPost2010PropOp52
 70
     0
102
RTVSPost2010Prop53
 90
        2
102
RTVSPost2010PropOp53
 70
     1
102
RTVSPost2010Prop54
  1
strokes_ogs.tif
102
RTVSPost2010PropOp54
 70
     1
102
RTVSPost2010Prop55
280
     0
102
RTVSPost2010PropOp55
 70
     1
102
RTVSPost2010Prop56
140
1.0
102
RTVSPost2010PropOp56
 70
     1
102
RTVSPost2010Prop57
140
1.0
102
RTVSPost2010PropOp57
 70
     1
  0
XRECORD
  5
3D9
102
{ACAD_REACTORS
330
3D8
102
}
330
3D8
100
AcDbXrecord
280
     1
102
RTVSPropertyOp0
 70
     1
102
RTVSPropertyOp1
 70
     1
102
RTVSPropertyOp2
 70
     1
102
RTVSPropertyOp3
 70
     1
102
RTVSPropertyOp4
 70
     1
102
RTVSPropertyOp5
 70
     1
102
RTVSPropertyOp6
 70
     1
102
RTVSPropertyOp7
 70
     1
102
RTVSPropertyOp8
 70
     1
102
RTVSPropertyOp9
 70
     1
102
RTVSPropertyOp10
 70
     1
102
RTVSPropertyOp11
 70
     1
102
RTVSPropertyOp12
 70
     1
102
RTVSPropertyOp13
 70
     1
102
RTVSPropertyOp14
 70
     1
102
RTVSPropertyOp15
 70
     1
102
RTVSPropertyOp16
 70
     1
102
RTVSPropertyOp17
 70
     1
102
RTVSPropertyOp18
 70
     1
102
RTVSPropertyOp19
 70
     1
102
RTVSPropertyOp20
 70
     1
102
RTVSPropertyOp21
 70
     1
102
RTVSPropertyOp22
 70
     1
102
RTVSPropertyOp23
 70
     1
102
RTVSPropertyOp24
 70
     1
102
RTVSPropertyOp25
 70
     1
102
RTVSPropertyOp26
 70
     1
102
RTVSPropertyOp27
 70
     1
102
RTVSPropertyOp28
 70
     1
102
RTVSPropertyOp29
 70
     1
102
RTVSPropertyOp30
 70
     1
102
RTVSPropertyOp31
 70
     1
102
RTVSPropertyOp32
 70
     1
102
RTVSPropertyOp33
 70
     1
102
RTVSPropertyOp34
 70
     1
102
RTVSPropertyOp35
 70
     1
102
RTVSPropertyOp36
 70
     1
102
RTVSPropertyOp37
 70
     1
102
RTVSPropertyOp38
 70
     1
102
RTVSPropertyOp39
 70
     1
102
RTVSPropertyOp40
 70
     1
102
RTVSPropertyOp41
 70
     1
102
RTVSPropertyOp42
 70
     1
102
RTVSPropertyOp43
 70
     1
102
RTVSPropertyOp44
 70
     1
102
RTVSPropertyOp45
 70
     1
102
RTVSPropertyOp46
 70
     1
102
RTVSPropertyOp47
 70
     1
102
RTVSPropertyOp48
 70
     1
102
RTVSPropertyOp49
 70
     1
102
RTVSPropertyOp50
 70
     1
102
RTVSPropertyOp51
 70
     0
102
RTVSPropertyOp52
 70
     0
102
RTVSPropertyOp53
 70
     1
102
RTVSPropertyOp54
 70
     1
102
RTVSPropertyOp55
 70
     1
102
RTVSPropertyOp56
 70
     1
102
RTVSPropertyOp57
 70
     1
102
RTVSPost2010Prop28
280
     0
102
RTVSPost2010PropOp28
 70
     1
102
RTVSPost2010Prop29
280
     1
102
RTVSPost2010PropOp29
 70
     1
102
RTVSPost2010Prop30
280
     1
102
RTVSPost2010PropOp30
 70
     1
102
RTVSPost2010Prop31
280
     0
102
RTVSPost2010PropOp31
 70
     1
102
RTVSPost2010Prop32
280
     0
102
RTVSPost2010PropOp32
 70
     1
102
RTVSPost2010Prop33
280
     0
102
RTVSPost2010PropOp33
 70
     1
102
RTVSPost2010Prop34
280
     0
102
RTVSPost2010PropOp34
 70
     1
102
RTVSPost2010Prop35
280
     0
102
RTVSPost2010PropOp35
 70
     1
102
RTVSPost2010Prop36
280
     0
102
RTVSPost2010PropOp36
 70
     1
102
RTVSPost2010Prop37
 90
       50
102
RTVSPost2010PropOp37
 70
     1
102
RTVSPost2010Prop38
140
0.0
102
RTVSPost2010PropOp38
 70
     1
102
RTVSPost2010Prop39
140
1.0
102
RTVSPost2010PropOp39
 70
     1
102
RTVSPost2010Prop40
 90
        0
102
RTVSPost2010PropOp40
 70
     1
102
RTVSPost2010Prop41ColorIndex
 90
       18
102
RTVSPost2010Prop41ColorRGB
 90
        0
102
RTVSPost2010PropOp41
 70
     1
102
RTVSPost2010Prop42
 90
       50
102
RTVSPost2010PropOp42
 70
     1
102
RTVSPost2010Prop43
 90
        3
102
RTVSPost2010PropOp43
 70
     1
102
RTVSPost2010Prop44ColorIndex
 90
        5
102
RTVSPost2010Prop44ColorRGB
 90
      255
102
RTVSPost2010PropOp44
 70
     1
102
RTVSPost2010Prop45
280
     0
102
RTVSPost2010PropOp45
 70
     1
102
RTVSPost2010Prop46
 90
       50
102
RTVSPost2010PropOp46
 70
     1
102
RTVSPost2010Prop47
 90
       50
102
RTVSPost2010PropOp47
 70
     1
102
RTVSPost2010Prop48
 90
       50
102
RTVSPost2010PropOp48
 70
     1
102
RTVSPost2010Prop49
280
     0
102
RTVSPost2010PropOp49
 70
     1
102
RTVSPost2010Prop50
 90
       50
102
RTVSPost2010PropOp50
 70
     1
102
RTVSPost2010Prop51ColorIndex
 90
      256
102
RTVSPost2010Prop51ColorRGB
 90
-16777216
102
RTVSPost2010PropOp51
 70
     0
102
RTVSPost2010Prop52
140
1.0
102
RTVSPost2010PropOp52
 70
     0
102
RTVSPost2010Prop53
 90
        2
102
RTVSPost2010PropOp53
 70
     1
102
RTVSPost2010Prop54
  1
strokes_ogs.tif
102
RTVSPost2010PropOp54
 70
     1
102
RTVSPost2010Prop55
280
     0
102
RTVSPost2010PropOp55
 70
     1
102
RTVSPost2010Prop56
140
1.0
102
RTVSPost2010PropOp56
 70
     1
102
RTVSPost2010Prop57
140
1.0
102
RTVSPost2010PropOp57
 70
     1
  0
XRECORD
  5
3ED
102
{ACAD_REACTORS
330
3EC
102
}
330
3EC
100
AcDbXrecord
280
     1
102
RTVSPropertyOp0
 70
     0
102
RTVSPropertyOp1
 70
     0
102
RTVSPropertyOp2
 70
     0
102
RTVSPropertyOp3
 70
     0
102
RTVSPropertyOp4
 70
     0
102
RTVSPropertyOp5
 70
     0
102
RTVSPropertyOp6
 70
     0
102
RTVSPropertyOp7
 70
     0
102
RTVSPropertyOp8
 70
     0
102
RTVSPropertyOp9
 70
     0
102
RTVSPropertyOp10
 70
     0
102
RTVSPropertyOp11
 70
     0
102
RTVSPropertyOp12
 70
     0
102
RTVSPropertyOp13
 70
     0
102
RTVSPropertyOp14
 70
     2
102
RTVSPropertyOp15
 70
     0
102
RTVSPropertyOp16
 70
     0
102
RTVSPropertyOp17
 70
     0
102
RTVSPropertyOp18
 70
     0
102
RTVSPropertyOp19
 70
     0
102
RTVSPropertyOp20
 70
     0
102
RTVSPropertyOp21
 70
     0
102
RTVSPropertyOp22
 70
     0
102
RTVSPropertyOp23
 70
     0
102
RTVSPropertyOp24
 70
     0
102
RTVSPropertyOp25
 70
     0
102
RTVSPropertyOp26
 70
     0
102
RTVSPropertyOp27
 70
     0
102
RTVSPropertyOp28
 70
     0
102
RTVSPropertyOp29
 70
     0
102
RTVSPropertyOp30
 70
     0
102
RTVSPropertyOp31
 70
     0
102
RTVSPropertyOp32
 70
     0
102
RTVSPropertyOp33
 70
     0
102
RTVSPropertyOp34
 70
     0
102
RTVSPropertyOp35
 70
     0
102
RTVSPropertyOp36
 70
     0
102
RTVSPropertyOp37
 70
     0
102
RTVSPropertyOp38
 70
     0
102
RTVSPropertyOp39
 70
     0
102
RTVSPropertyOp40
 70
     0
102
RTVSPropertyOp41
 70
     0
102
RTVSPropertyOp42
 70
     0
102
RTVSPropertyOp43
 70
     0
102
RTVSPropertyOp44
 70
     0
102
RTVSPropertyOp45
 70
     0
102
RTVSPropertyOp46
 70
     0
102
RTVSPropertyOp47
 70
     0
102
RTVSPropertyOp48
 70
     0
102
RTVSPropertyOp49
 70
     0
102
RTVSPropertyOp50
 70
     0
102
RTVSPropertyOp51
 70
     0
102
RTVSPropertyOp52
 70
     0
102
RTVSPropertyOp53
 70
     0
102
RTVSPropertyOp54
 70
     0
102
RTVSPropertyOp55
 70
     0
102
RTVSPropertyOp56
 70
     0
102
RTVSPropertyOp57
 70
     0
102
RTVSPost2010Prop28
280
     0
102
RTVSPost2010PropOp28
 70
     0
102
RTVSPost2010Prop29
280
     1
102
RTVSPost2010PropOp29
 70
     0
102
RTVSPost2010Prop30
280
     1
102
RTVSPost2010PropOp30
 70
     0
102
RTVSPost2010Prop31
280
     0
102
RTVSPost2010PropOp31
 70
     0
102
RTVSPost2010Prop32
280
     0
102
RTVSPost2010PropOp32
 70
     0
102
RTVSPost2010Prop33
280
     0
102
RTVSPost2010PropOp33
 70
     0
102
RTVSPost2010Prop34
280
     0
102
RTVSPost2010PropOp34
 70
     0
102
RTVSPost2010Prop35
280
     0
102
RTVSPost2010PropOp35
 70
     0
102
RTVSPost2010Prop36
280
     0
102
RTVSPost2010PropOp36
 70
     0
102
RTVSPost2010Prop37
 90
       50
102
RTVSPost2010PropOp37
 70
     0
102
RTVSPost2010Prop38
140
0.0
102
RTVSPost2010PropOp38
 70
     0
102
RTVSPost2010Prop39
140
1.0
102
RTVSPost2010PropOp39
 70
     0
102
RTVSPost2010Prop40
 90
        0
102
RTVSPost2010PropOp40
 70
     0
102
RTVSPost2010Prop41ColorIndex
 90
       18
102
RTVSPost2010Prop41ColorRGB
 90
        0
102
RTVSPost2010PropOp41
 70
     0
102
RTVSPost2010Prop42
 90
       50
102
RTVSPost2010PropOp42
 70
     0
102
RTVSPost2010Prop43
 90
        3
102
RTVSPost2010PropOp43
 70
     0
102
RTVSPost2010Prop44ColorIndex
 90
        5
102
RTVSPost2010Prop44ColorRGB
 90
      255
102
RTVSPost2010PropOp44
 70
     0
102
RTVSPost2010Prop45
280
     0
102
RTVSPost2010PropOp45
 70
     0
102
RTVSPost2010Prop46
 90
       50
102
RTVSPost2010PropOp46
 70
     0
102
RTVSPost2010Prop47
 90
       50
102
RTVSPost2010PropOp47
 70
     0
102
RTVSPost2010Prop48
 90
       50
102
RTVSPost2010PropOp48
 70
     0
102
RTVSPost2010Prop49
280
     0
102
RTVSPost2010PropOp49
 70
     0
102
RTVSPost2010Prop50
 90
       50
102
RTVSPost2010PropOp50
 70
     0
102
RTVSPost2010Prop51ColorIndex
 90
      256
102
RTVSPost2010Prop51ColorRGB
 90
-16777216
102
RTVSPost2010PropOp51
 70
     0
102
RTVSPost2010Prop52
140
1.0
102
RTVSPost2010PropOp52
 70
     0
102
RTVSPost2010Prop53
 90
        2
102
RTVSPost2010PropOp53
 70
     0
102
RTVSPost2010Prop54
  1
strokes_ogs.tif
102
RTVSPost2010PropOp54
 70
     0
102
RTVSPost2010Prop55
280
     0
102
RTVSPost2010PropOp55
 70
     0
102
RTVSPost2010Prop56
140
1.0
102
RTVSPost2010PropOp56
 70
     0
102
RTVSPost2010Prop57
140
1.0
102
RTVSPost2010PropOp57
 70
     0
  0
XRECORD
  5
3E7
102
{ACAD_REACTORS
330
3E6
102
}
330
3E6
100
AcDbXrecord
280
     1
102
RTVSPropertyOp0
 70
     1
102
RTVSPropertyOp1
 70
     1
102
RTVSPropertyOp2
 70
     1
102
RTVSPropertyOp3
 70
     1
102
RTVSPropertyOp4
 70
     1
102
RTVSPropertyOp5
 70
     1
102
RTVSPropertyOp6
 70
     1
102
RTVSPropertyOp7
 70
     1
102
RTVSPropertyOp8
 70
     1
102
RTVSPropertyOp9
 70
     1
102
RTVSPropertyOp10
 70
     1
102
RTVSPropertyOp11
 70
     1
102
RTVSPropertyOp12
 70
     1
102
RTVSPropertyOp13
 70
     1
102
RTVSPropertyOp14
 70
     1
102
RTVSPropertyOp15
 70
     1
102
RTVSPropertyOp16
 70
     1
102
RTVSPropertyOp17
 70
     1
102
RTVSPropertyOp18
 70
     1
102
RTVSPropertyOp19
 70
     1
102
RTVSPropertyOp20
 70
     1
102
RTVSPropertyOp21
 70
     1
102
RTVSPropertyOp22
 70
     1
102
RTVSPropertyOp23
 70
     1
102
RTVSPropertyOp24
 70
     1
102
RTVSPropertyOp25
 70
     1
102
RTVSPropertyOp26
 70
     1
102
RTVSPropertyOp27
 70
     1
102
RTVSPropertyOp28
 70
     1
102
RTVSPropertyOp29
 70
     1
102
RTVSPropertyOp30
 70
     1
102
RTVSPropertyOp31
 70
     1
102
RTVSPropertyOp32
 70
     1
102
RTVSPropertyOp33
 70
     1
102
RTVSPropertyOp34
 70
     1
102
RTVSPropertyOp35
 70
     1
102
RTVSPropertyOp36
 70
     1
102
RTVSPropertyOp37
 70
     1
102
RTVSPropertyOp38
 70
     1
102
RTVSPropertyOp39
 70
     1
102
RTVSPropertyOp40
 70
     1
102
RTVSPropertyOp41
 70
     1
102
RTVSPropertyOp42
 70
     1
102
RTVSPropertyOp43
 70
     1
102
RTVSPropertyOp44
 70
     1
102
RTVSPropertyOp45
 70
     1
102
RTVSPropertyOp46
 70
     1
102
RTVSPropertyOp47
 70
     1
102
RTVSPropertyOp48
 70
     1
102
RTVSPropertyOp49
 70
     1
102
RTVSPropertyOp50
 70
     1
102
RTVSPropertyOp51
 70
     0
102
RTVSPropertyOp52
 70
     0
102
RTVSPropertyOp53
 70
     1
102
RTVSPropertyOp54
 70
     1
102
RTVSPropertyOp55
 70
     1
102
RTVSPropertyOp56
 70
     1
102
RTVSPropertyOp57
 70
     1
102
RTVSPost2010Prop28
280
     0
102
RTVSPost2010PropOp28
 70
     1
102
RTVSPost2010Prop29
280
     1
102
RTVSPost2010PropOp29
 70
     1
102
RTVSPost2010Prop30
280
     1
102
RTVSPost2010PropOp30
 70
     1
102
RTVSPost2010Prop31
280
     0
102
RTVSPost2010PropOp31
 70
     1
102
RTVSPost2010Prop32
280
     0
102
RTVSPost2010PropOp32
 70
     1
102
RTVSPost2010Prop33
280
     0
102
RTVSPost2010PropOp33
 70
     1
102
RTVSPost2010Prop34
280
     0
102
RTVSPost2010PropOp34
 70
     1
102
RTVSPost2010Prop35
280
     0
102
RTVSPost2010PropOp35
 70
     1
102
RTVSPost2010Prop36
280
     0
102
RTVSPost2010PropOp36
 70
     1
102
RTVSPost2010Prop37
 90
       50
102
RTVSPost2010PropOp37
 70
     1
102
RTVSPost2010Prop38
140
0.0
102
RTVSPost2010PropOp38
 70
     1
102
RTVSPost2010Prop39
140
1.0
102
RTVSPost2010PropOp39
 70
     1
102
RTVSPost2010Prop40
 90
        0
102
RTVSPost2010PropOp40
 70
     1
102
RTVSPost2010Prop41ColorIndex
 90
       18
102
RTVSPost2010Prop41ColorRGB
 90
        0
102
RTVSPost2010PropOp41
 70
     1
102
RTVSPost2010Prop42
 90
       50
102
RTVSPost2010PropOp42
 70
     1
102
RTVSPost2010Prop43
 90
        3
102
RTVSPost2010PropOp43
 70
     1
102
RTVSPost2010Prop44ColorIndex
 90
        5
102
RTVSPost2010Prop44ColorRGB
 90
      255
102
RTVSPost2010PropOp44
 70
     1
102
RTVSPost2010Prop45
280
     0
102
RTVSPost2010PropOp45
 70
     1
102
RTVSPost2010Prop46
 90
       50
102
RTVSPost2010PropOp46
 70
     1
102
RTVSPost2010Prop47
 90
       50
102
RTVSPost2010PropOp47
 70
     1
102
RTVSPost2010Prop48
 90
       50
102
RTVSPost2010PropOp48
 70
     1
102
RTVSPost2010Prop49
280
     0
102
RTVSPost2010PropOp49
 70
     1
102
RTVSPost2010Prop50
 90
       50
102
RTVSPost2010PropOp50
 70
     1
102
RTVSPost2010Prop51ColorIndex
 90
      256
102
RTVSPost2010Prop51ColorRGB
 90
-16777216
102
RTVSPost2010PropOp51
 70
     0
102
RTVSPost2010Prop52
140
1.0
102
RTVSPost2010PropOp52
 70
     0
102
RTVSPost2010Prop53
 90
        2
102
RTVSPost2010PropOp53
 70
     1
102
RTVSPost2010Prop54
  1
strokes_ogs.tif
102
RTVSPost2010PropOp54
 70
     1
102
RTVSPost2010Prop55
280
     0
102
RTVSPost2010PropOp55
 70
     1
102
RTVSPost2010Prop56
140
1.0
102
RTVSPost2010PropOp56
 70
     1
102
RTVSPost2010Prop57
140
1.0
102
RTVSPost2010PropOp57
 70
     1
  0
XRECORD
  5
3EF
102
{ACAD_REACTORS
330
3EE
102
}
330
3EE
100
AcDbXrecord
280
     1
102
RTVSPropertyOp0
 70
     0
102
RTVSPropertyOp1
 70
     0
102
RTVSPropertyOp2
 70
     0
102
RTVSPropertyOp3
 70
     0
102
RTVSPropertyOp4
 70
     0
102
RTVSPropertyOp5
 70
     0
102
RTVSPropertyOp6
 70
     0
102
RTVSPropertyOp7
 70
     0
102
RTVSPropertyOp8
 70
     0
102
RTVSPropertyOp9
 70
     0
102
RTVSPropertyOp10
 70
     0
102
RTVSPropertyOp11
 70
     0
102
RTVSPropertyOp12
 70
     0
102
RTVSPropertyOp13
 70
     0
102
RTVSPropertyOp14
 70
     2
102
RTVSPropertyOp15
 70
     0
102
RTVSPropertyOp16
 70
     0
102
RTVSPropertyOp17
 70
     0
102
RTVSPropertyOp18
 70
     0
102
RTVSPropertyOp19
 70
     0
102
RTVSPropertyOp20
 70
     0
102
RTVSPropertyOp21
 70
     0
102
RTVSPropertyOp22
 70
     0
102
RTVSPropertyOp23
 70
     0
102
RTVSPropertyOp24
 70
     0
102
RTVSPropertyOp25
 70
     0
102
RTVSPropertyOp26
 70
     0
102
RTVSPropertyOp27
 70
     0
102
RTVSPropertyOp28
 70
     0
102
RTVSPropertyOp29
 70
     0
102
RTVSPropertyOp30
 70
     0
102
RTVSPropertyOp31
 70
     0
102
RTVSPropertyOp32
 70
     0
102
RTVSPropertyOp33
 70
     0
102
RTVSPropertyOp34
 70
     0
102
RTVSPropertyOp35
 70
     0
102
RTVSPropertyOp36
 70
     0
102
RTVSPropertyOp37
 70
     0
102
RTVSPropertyOp38
 70
     0
102
RTVSPropertyOp39
 70
     0
102
RTVSPropertyOp40
 70
     0
102
RTVSPropertyOp41
 70
     0
102
RTVSPropertyOp42
 70
     0
102
RTVSPropertyOp43
 70
     0
102
RTVSPropertyOp44
 70
     0
102
RTVSPropertyOp45
 70
     0
102
RTVSPropertyOp46
 70
     0
102
RTVSPropertyOp47
 70
     0
102
RTVSPropertyOp48
 70
     0
102
RTVSPropertyOp49
 70
     0
102
RTVSPropertyOp50
 70
     0
102
RTVSPropertyOp51
 70
     0
102
RTVSPropertyOp52
 70
     0
102
RTVSPropertyOp53
 70
     0
102
RTVSPropertyOp54
 70
     0
102
RTVSPropertyOp55
 70
     0
102
RTVSPropertyOp56
 70
     0
102
RTVSPropertyOp57
 70
     0
102
RTVSPost2010Prop28
280
     0
102
RTVSPost2010PropOp28
 70
     0
102
RTVSPost2010Prop29
280
     1
102
RTVSPost2010PropOp29
 70
     0
102
RTVSPost2010Prop30
280
     1
102
RTVSPost2010PropOp30
 70
     0
102
RTVSPost2010Prop31
280
     0
102
RTVSPost2010PropOp31
 70
     0
102
RTVSPost2010Prop32
280
     0
102
RTVSPost2010PropOp32
 70
     0
102
RTVSPost2010Prop33
280
     0
102
RTVSPost2010PropOp33
 70
     0
102
RTVSPost2010Prop34
280
     0
102
RTVSPost2010PropOp34
 70
     0
102
RTVSPost2010Prop35
280
     0
102
RTVSPost2010PropOp35
 70
     0
102
RTVSPost2010Prop36
280
     0
102
RTVSPost2010PropOp36
 70
     0
102
RTVSPost2010Prop37
 90
       50
102
RTVSPost2010PropOp37
 70
     0
102
RTVSPost2010Prop38
140
0.0
102
RTVSPost2010PropOp38
 70
     0
102
RTVSPost2010Prop39
140
1.0
102
RTVSPost2010PropOp39
 70
     0
102
RTVSPost2010Prop40
 90
        0
102
RTVSPost2010PropOp40
 70
     0
102
RTVSPost2010Prop41ColorIndex
 90
       18
102
RTVSPost2010Prop41ColorRGB
 90
        0
102
RTVSPost2010PropOp41
 70
     0
102
RTVSPost2010Prop42
 90
       50
102
RTVSPost2010PropOp42
 70
     0
102
RTVSPost2010Prop43
 90
        3
102
RTVSPost2010PropOp43
 70
     0
102
RTVSPost2010Prop44ColorIndex
 90
        5
102
RTVSPost2010Prop44ColorRGB
 90
      255
102
RTVSPost2010PropOp44
 70
     0
102
RTVSPost2010Prop45
280
     0
102
RTVSPost2010PropOp45
 70
     0
102
RTVSPost2010Prop46
 90
       50
102
RTVSPost2010PropOp46
 70
     0
102
RTVSPost2010Prop47
 90
       50
102
RTVSPost2010PropOp47
 70
     0
102
RTVSPost2010Prop48
 90
       50
102
RTVSPost2010PropOp48
 70
     0
102
RTVSPost2010Prop49
280
     0
102
RTVSPost2010PropOp49
 70
     0
102
RTVSPost2010Prop50
 90
       50
102
RTVSPost2010PropOp50
 70
     0
102
RTVSPost2010Prop51ColorIndex
 90
      256
102
RTVSPost2010Prop51ColorRGB
 90
-16777216
102
RTVSPost2010PropOp51
 70
     0
102
RTVSPost2010Prop52
140
1.0
102
RTVSPost2010PropOp52
 70
     0
102
RTVSPost2010Prop53
 90
        2
102
RTVSPost2010PropOp53
 70
     0
102
RTVSPost2010Prop54
  1
strokes_ogs.tif
102
RTVSPost2010PropOp54
 70
     0
102
RTVSPost2010Prop55
280
     0
102
RTVSPost2010PropOp55
 70
     0
102
RTVSPost2010Prop56
140
1.0
102
RTVSPost2010PropOp56
 70
     0
102
RTVSPost2010Prop57
140
1.0
102
RTVSPost2010PropOp57
 70
     0
  0
XRECORD
  5
3DD
102
{ACAD_REACTORS
330
3DC
102
}
330
3DC
100
AcDbXrecord
280
     1
102
RTVSPropertyOp0
 70
     1
102
RTVSPropertyOp1
 70
     1
102
RTVSPropertyOp2
 70
     1
102
RTVSPropertyOp3
 70
     1
102
RTVSPropertyOp4
 70
     1
102
RTVSPropertyOp5
 70
     1
102
RTVSPropertyOp6
 70
     1
102
RTVSPropertyOp7
 70
     1
102
RTVSPropertyOp8
 70
     1
102
RTVSPropertyOp9
 70
     1
102
RTVSPropertyOp10
 70
     1
102
RTVSPropertyOp11
 70
     1
102
RTVSPropertyOp12
 70
     1
102
RTVSPropertyOp13
 70
     1
102
RTVSPropertyOp14
 70
     1
102
RTVSPropertyOp15
 70
     1
102
RTVSPropertyOp16
 70
     1
102
RTVSPropertyOp17
 70
     1
102
RTVSPropertyOp18
 70
     1
102
RTVSPropertyOp19
 70
     1
102
RTVSPropertyOp20
 70
     1
102
RTVSPropertyOp21
 70
     1
102
RTVSPropertyOp22
 70
     1
102
RTVSPropertyOp23
 70
     1
102
RTVSPropertyOp24
 70
     1
102
RTVSPropertyOp25
 70
     1
102
RTVSPropertyOp26
 70
     1
102
RTVSPropertyOp27
 70
     1
102
RTVSPropertyOp28
 70
     1
102
RTVSPropertyOp29
 70
     1
102
RTVSPropertyOp30
 70
     1
102
RTVSPropertyOp31
 70
     1
102
RTVSPropertyOp32
 70
     1
102
RTVSPropertyOp33
 70
     1
102
RTVSPropertyOp34
 70
     1
102
RTVSPropertyOp35
 70
     1
102
RTVSPropertyOp36
 70
     1
102
RTVSPropertyOp37
 70
     1
102
RTVSPropertyOp38
 70
     1
102
RTVSPropertyOp39
 70
     1
102
RTVSPropertyOp40
 70
     1
102
RTVSPropertyOp41
 70
     1
102
RTVSPropertyOp42
 70
     1
102
RTVSPropertyOp43
 70
     1
102
RTVSPropertyOp44
 70
     1
102
RTVSPropertyOp45
 70
     1
102
RTVSPropertyOp46
 70
     1
102
RTVSPropertyOp47
 70
     1
102
RTVSPropertyOp48
 70
     1
102
RTVSPropertyOp49
 70
     1
102
RTVSPropertyOp50
 70
     1
102
RTVSPropertyOp51
 70
     0
102
RTVSPropertyOp52
 70
     0
102
RTVSPropertyOp53
 70
     1
102
RTVSPropertyOp54
 70
     1
102
RTVSPropertyOp55
 70
     1
102
RTVSPropertyOp56
 70
     1
102
RTVSPropertyOp57
 70
     1
102
RTVSPost2010Prop28
280
     0
102
RTVSPost2010PropOp28
 70
     1
102
RTVSPost2010Prop29
280
     1
102
RTVSPost2010PropOp29
 70
     1
102
RTVSPost2010Prop30
280
     1
102
RTVSPost2010PropOp30
 70
     1
102
RTVSPost2010Prop31
280
     0
102
RTVSPost2010PropOp31
 70
     1
102
RTVSPost2010Prop32
280
     0
102
RTVSPost2010PropOp32
 70
     1
102
RTVSPost2010Prop33
280
     0
102
RTVSPost2010PropOp33
 70
     1
102
RTVSPost2010Prop34
280
     0
102
RTVSPost2010PropOp34
 70
     1
102
RTVSPost2010Prop35
280
     0
102
RTVSPost2010PropOp35
 70
     1
102
RTVSPost2010Prop36
280
     0
102
RTVSPost2010PropOp36
 70
     1
102
RTVSPost2010Prop37
 90
       50
102
RTVSPost2010PropOp37
 70
     1
102
RTVSPost2010Prop38
140
0.0
102
RTVSPost2010PropOp38
 70
     1
102
RTVSPost2010Prop39
140
1.0
102
RTVSPost2010PropOp39
 70
     1
102
RTVSPost2010Prop40
 90
        0
102
RTVSPost2010PropOp40
 70
     1
102
RTVSPost2010Prop41ColorIndex
 90
       18
102
RTVSPost2010Prop41ColorRGB
 90
        0
102
RTVSPost2010PropOp41
 70
     1
102
RTVSPost2010Prop42
 90
       50
102
RTVSPost2010PropOp42
 70
     1
102
RTVSPost2010Prop43
 90
        3
102
RTVSPost2010PropOp43
 70
     1
102
RTVSPost2010Prop44ColorIndex
 90
        5
102
RTVSPost2010Prop44ColorRGB
 90
      255
102
RTVSPost2010PropOp44
 70
     1
102
RTVSPost2010Prop45
280
     0
102
RTVSPost2010PropOp45
 70
     1
102
RTVSPost2010Prop46
 90
       50
102
RTVSPost2010PropOp46
 70
     1
102
RTVSPost2010Prop47
 90
       50
102
RTVSPost2010PropOp47
 70
     1
102
RTVSPost2010Prop48
 90
       50
102
RTVSPost2010PropOp48
 70
     1
102
RTVSPost2010Prop49
280
     0
102
RTVSPost2010PropOp49
 70
     1
102
RTVSPost2010Prop50
 90
       50
102
RTVSPost2010PropOp50
 70
     1
102
RTVSPost2010Prop51ColorIndex
 90
      256
102
RTVSPost2010Prop51ColorRGB
 90
-16777216
102
RTVSPost2010PropOp51
 70
     0
102
RTVSPost2010Prop52
140
1.0
102
RTVSPost2010PropOp52
 70
     0
102
RTVSPost2010Prop53
 90
        2
102
RTVSPost2010PropOp53
 70
     1
102
RTVSPost2010Prop54
  1
strokes_ogs.tif
102
RTVSPost2010PropOp54
 70
     1
102
RTVSPost2010Prop55
280
     0
102
RTVSPost2010PropOp55
 70
     1
102
RTVSPost2010Prop56
140
1.0
102
RTVSPost2010PropOp56
 70
     1
102
RTVSPost2010Prop57
140
1.0
102
RTVSPost2010PropOp57
 70
     1
  0
XRECORD
  5
3FB
102
{ACAD_REACTORS
330
3FA
102
}
330
3FA
100
AcDbXrecord
280
     1
102
RTVSPropertyOp0
 70
     1
102
RTVSPropertyOp1
 70
     1
102
RTVSPropertyOp2
 70
     1
102
RTVSPropertyOp3
 70
     1
102
RTVSPropertyOp4
 70
     1
102
RTVSPropertyOp5
 70
     1
102
RTVSPropertyOp6
 70
     1
102
RTVSPropertyOp7
 70
     1
102
RTVSPropertyOp8
 70
     1
102
RTVSPropertyOp9
 70
     1
102
RTVSPropertyOp10
 70
     1
102
RTVSPropertyOp11
 70
     1
102
RTVSPropertyOp12
 70
     1
102
RTVSPropertyOp13
 70
     1
102
RTVSPropertyOp14
 70
     1
102
RTVSPropertyOp15
 70
     1
102
RTVSPropertyOp16
 70
     1
102
RTVSPropertyOp17
 70
     1
102
RTVSPropertyOp18
 70
     1
102
RTVSPropertyOp19
 70
     1
102
RTVSPropertyOp20
 70
     1
102
RTVSPropertyOp21
 70
     1
102
RTVSPropertyOp22
 70
     1
102
RTVSPropertyOp23
 70
     1
102
RTVSPropertyOp24
 70
     1
102
RTVSPropertyOp25
 70
     1
102
RTVSPropertyOp26
 70
     1
102
RTVSPropertyOp27
 70
     1
102
RTVSPropertyOp28
 70
     1
102
RTVSPropertyOp29
 70
     1
102
RTVSPropertyOp30
 70
     1
102
RTVSPropertyOp31
 70
     1
102
RTVSPropertyOp32
 70
     1
102
RTVSPropertyOp33
 70
     1
102
RTVSPropertyOp34
 70
     1
102
RTVSPropertyOp35
 70
     1
102
RTVSPropertyOp36
 70
     1
102
RTVSPropertyOp37
 70
     1
102
RTVSPropertyOp38
 70
     1
102
RTVSPropertyOp39
 70
     1
102
RTVSPropertyOp40
 70
     1
102
RTVSPropertyOp41
 70
     1
102
RTVSPropertyOp42
 70
     1
102
RTVSPropertyOp43
 70
     1
102
RTVSPropertyOp44
 70
     1
102
RTVSPropertyOp45
 70
     1
102
RTVSPropertyOp46
 70
     1
102
RTVSPropertyOp47
 70
     1
102
RTVSPropertyOp48
 70
     1
102
RTVSPropertyOp49
 70
     1
102
RTVSPropertyOp50
 70
     1
102
RTVSPropertyOp51
 70
     0
102
RTVSPropertyOp52
 70
     0
102
RTVSPropertyOp53
 70
     1
102
RTVSPropertyOp54
 70
     1
102
RTVSPropertyOp55
 70
     1
102
RTVSPropertyOp56
 70
     1
102
RTVSPropertyOp57
 70
     1
102
RTVSPost2010Prop28
280
     0
102
RTVSPost2010PropOp28
 70
     1
102
RTVSPost2010Prop29
280
     1
102
RTVSPost2010PropOp29
 70
     1
102
RTVSPost2010Prop30
280
     1
102
RTVSPost2010PropOp30
 70
     1
102
RTVSPost2010Prop31
280
     0
102
RTVSPost2010PropOp31
 70
     1
102
RTVSPost2010Prop32
280
     0
102
RTVSPost2010PropOp32
 70
     1
102
RTVSPost2010Prop33
280
     0
102
RTVSPost2010PropOp33
 70
     1
102
RTVSPost2010Prop34
280
     0
102
RTVSPost2010PropOp34
 70
     1
102
RTVSPost2010Prop35
280
     0
102
RTVSPost2010PropOp35
 70
     1
102
RTVSPost2010Prop36
280
     0
102
RTVSPost2010PropOp36
 70
     1
102
RTVSPost2010Prop37
 90
       50
102
RTVSPost2010PropOp37
 70
     1
102
RTVSPost2010Prop38
140
0.0
102
RTVSPost2010PropOp38
 70
     1
102
RTVSPost2010Prop39
140
1.0
102
RTVSPost2010PropOp39
 70
     1
102
RTVSPost2010Prop40
 90
        0
102
RTVSPost2010PropOp40
 70
     1
102
RTVSPost2010Prop41ColorIndex
 90
       18
102
RTVSPost2010Prop41ColorRGB
 90
        0
102
RTVSPost2010PropOp41
 70
     1
102
RTVSPost2010Prop42
 90
       50
102
RTVSPost2010PropOp42
 70
     1
102
RTVSPost2010Prop43
 90
        3
102
RTVSPost2010PropOp43
 70
     1
102
RTVSPost2010Prop44ColorIndex
 90
        5
102
RTVSPost2010Prop44ColorRGB
 90
      255
102
RTVSPost2010PropOp44
 70
     1
102
RTVSPost2010Prop45
280
     0
102
RTVSPost2010PropOp45
 70
     1
102
RTVSPost2010Prop46
 90
       50
102
RTVSPost2010PropOp46
 70
     1
102
RTVSPost2010Prop47
 90
       50
102
RTVSPost2010PropOp47
 70
     1
102
RTVSPost2010Prop48
 90
       50
102
RTVSPost2010PropOp48
 70
     1
102
RTVSPost2010Prop49
280
     0
102
RTVSPost2010PropOp49
 70
     1
102
RTVSPost2010Prop50
 90
       50
102
RTVSPost2010PropOp50
 70
     1
102
RTVSPost2010Prop51ColorIndex
 90
      256
102
RTVSPost2010Prop51ColorRGB
 90
-16777216
102
RTVSPost2010PropOp51
 70
     0
102
RTVSPost2010Prop52
140
1.0
102
RTVSPost2010PropOp52
 70
     0
102
RTVSPost2010Prop53
 90
        2
102
RTVSPost2010PropOp53
 70
     1
102
RTVSPost2010Prop54
  1
strokes_ogs.tif
102
RTVSPost2010PropOp54
 70
     1
102
RTVSPost2010Prop55
280
     0
102
RTVSPost2010PropOp55
 70
     1
102
RTVSPost2010Prop56
140
1.0
102
RTVSPost2010PropOp56
 70
     1
102
RTVSPost2010Prop57
140
1.0
102
RTVSPost2010PropOp57
 70
     1
  0
XRECORD
  5
3F9
102
{ACAD_REACTORS
330
3F8
102
}
330
3F8
100
AcDbXrecord
280
     1
102
RTVSPropertyOp0
 70
     1
102
RTVSPropertyOp1
 70
     1
102
RTVSPropertyOp2
 70
     1
102
RTVSPropertyOp3
 70
     1
102
RTVSPropertyOp4
 70
     1
102
RTVSPropertyOp5
 70
     1
102
RTVSPropertyOp6
 70
     1
102
RTVSPropertyOp7
 70
     1
102
RTVSPropertyOp8
 70
     1
102
RTVSPropertyOp9
 70
     1
102
RTVSPropertyOp10
 70
     1
102
RTVSPropertyOp11
 70
     1
102
RTVSPropertyOp12
 70
     1
102
RTVSPropertyOp13
 70
     1
102
RTVSPropertyOp14
 70
     1
102
RTVSPropertyOp15
 70
     1
102
RTVSPropertyOp16
 70
     1
102
RTVSPropertyOp17
 70
     1
102
RTVSPropertyOp18
 70
     1
102
RTVSPropertyOp19
 70
     1
102
RTVSPropertyOp20
 70
     1
102
RTVSPropertyOp21
 70
     1
102
RTVSPropertyOp22
 70
     1
102
RTVSPropertyOp23
 70
     1
102
RTVSPropertyOp24
 70
     1
102
RTVSPropertyOp25
 70
     1
102
RTVSPropertyOp26
 70
     1
102
RTVSPropertyOp27
 70
     1
102
RTVSPropertyOp28
 70
     1
102
RTVSPropertyOp29
 70
     1
102
RTVSPropertyOp30
 70
     1
102
RTVSPropertyOp31
 70
     1
102
RTVSPropertyOp32
 70
     1
102
RTVSPropertyOp33
 70
     1
102
RTVSPropertyOp34
 70
     1
102
RTVSPropertyOp35
 70
     1
102
RTVSPropertyOp36
 70
     1
102
RTVSPropertyOp37
 70
     1
102
RTVSPropertyOp38
 70
     1
102
RTVSPropertyOp39
 70
     1
102
RTVSPropertyOp40
 70
     1
102
RTVSPropertyOp41
 70
     1
102
RTVSPropertyOp42
 70
     1
102
RTVSPropertyOp43
 70
     1
102
RTVSPropertyOp44
 70
     1
102
RTVSPropertyOp45
 70
     1
102
RTVSPropertyOp46
 70
     1
102
RTVSPropertyOp47
 70
     1
102
RTVSPropertyOp48
 70
     1
102
RTVSPropertyOp49
 70
     1
102
RTVSPropertyOp50
 70
     1
102
RTVSPropertyOp51
 70
     0
102
RTVSPropertyOp52
 70
     0
102
RTVSPropertyOp53
 70
     1
102
RTVSPropertyOp54
 70
     1
102
RTVSPropertyOp55
 70
     1
102
RTVSPropertyOp56
 70
     1
102
RTVSPropertyOp57
 70
     1
102
RTVSPost2010Prop28
280
     0
102
RTVSPost2010PropOp28
 70
     1
102
RTVSPost2010Prop29
280
     1
102
RTVSPost2010PropOp29
 70
     1
102
RTVSPost2010Prop30
280
     1
102
RTVSPost2010PropOp30
 70
     1
102
RTVSPost2010Prop31
280
     0
102
RTVSPost2010PropOp31
 70
     1
102
RTVSPost2010Prop32
280
     0
102
RTVSPost2010PropOp32
 70
     1
102
RTVSPost2010Prop33
280
     0
102
RTVSPost2010PropOp33
 70
     1
102
RTVSPost2010Prop34
280
     0
102
RTVSPost2010PropOp34
 70
     1
102
RTVSPost2010Prop35
280
     0
102
RTVSPost2010PropOp35
 70
     1
102
RTVSPost2010Prop36
280
     0
102
RTVSPost2010PropOp36
 70
     1
102
RTVSPost2010Prop37
 90
       50
102
RTVSPost2010PropOp37
 70
     1
102
RTVSPost2010Prop38
140
0.0
102
RTVSPost2010PropOp38
 70
     1
102
RTVSPost2010Prop39
140
1.0
102
RTVSPost2010PropOp39
 70
     1
102
RTVSPost2010Prop40
 90
        0
102
RTVSPost2010PropOp40
 70
     1
102
RTVSPost2010Prop41ColorIndex
 90
       18
102
RTVSPost2010Prop41ColorRGB
 90
        0
102
RTVSPost2010PropOp41
 70
     1
102
RTVSPost2010Prop42
 90
       50
102
RTVSPost2010PropOp42
 70
     1
102
RTVSPost2010Prop43
 90
        3
102
RTVSPost2010PropOp43
 70
     1
102
RTVSPost2010Prop44ColorIndex
 90
        5
102
RTVSPost2010Prop44ColorRGB
 90
      255
102
RTVSPost2010PropOp44
 70
     1
102
RTVSPost2010Prop45
280
     0
102
RTVSPost2010PropOp45
 70
     1
102
RTVSPost2010Prop46
 90
       50
102
RTVSPost2010PropOp46
 70
     1
102
RTVSPost2010Prop47
 90
       50
102
RTVSPost2010PropOp47
 70
     1
102
RTVSPost2010Prop48
 90
       50
102
RTVSPost2010PropOp48
 70
     1
102
RTVSPost2010Prop49
280
     0
102
RTVSPost2010PropOp49
 70
     1
102
RTVSPost2010Prop50
 90
       50
102
RTVSPost2010PropOp50
 70
     1
102
RTVSPost2010Prop51ColorIndex
 90
      256
102
RTVSPost2010Prop51ColorRGB
 90
-16777216
102
RTVSPost2010PropOp51
 70
     0
102
RTVSPost2010Prop52
140
1.0
102
RTVSPost2010PropOp52
 70
     0
102
RTVSPost2010Prop53
 90
        2
102
RTVSPost2010PropOp53
 70
     1
102
RTVSPost2010Prop54
  1
strokes_ogs.tif
102
RTVSPost2010PropOp54
 70
     1
102
RTVSPost2010Prop55
280
     0
102
RTVSPost2010PropOp55
 70
     1
102
RTVSPost2010Prop56
140
1.0
102
RTVSPost2010PropOp56
 70
     1
102
RTVSPost2010Prop57
140
1.0
102
RTVSPost2010PropOp57
 70
     1
  0
XRECORD
  5
3F3
102
{ACAD_REACTORS
330
3F2
102
}
330
3F2
100
AcDbXrecord
280
     1
102
RTVSPropertyOp0
 70
     1
102
RTVSPropertyOp1
 70
     1
102
RTVSPropertyOp2
 70
     1
102
RTVSPropertyOp3
 70
     1
102
RTVSPropertyOp4
 70
     1
102
RTVSPropertyOp5
 70
     1
102
RTVSPropertyOp6
 70
     1
102
RTVSPropertyOp7
 70
     1
102
RTVSPropertyOp8
 70
     1
102
RTVSPropertyOp9
 70
     1
102
RTVSPropertyOp10
 70
     1
102
RTVSPropertyOp11
 70
     1
102
RTVSPropertyOp12
 70
     1
102
RTVSPropertyOp13
 70
     1
102
RTVSPropertyOp14
 70
     1
102
RTVSPropertyOp15
 70
     1
102
RTVSPropertyOp16
 70
     1
102
RTVSPropertyOp17
 70
     1
102
RTVSPropertyOp18
 70
     1
102
RTVSPropertyOp19
 70
     1
102
RTVSPropertyOp20
 70
     1
102
RTVSPropertyOp21
 70
     1
102
RTVSPropertyOp22
 70
     1
102
RTVSPropertyOp23
 70
     1
102
RTVSPropertyOp24
 70
     1
102
RTVSPropertyOp25
 70
     1
102
RTVSPropertyOp26
 70
     1
102
RTVSPropertyOp27
 70
     1
102
RTVSPropertyOp28
 70
     1
102
RTVSPropertyOp29
 70
     1
102
RTVSPropertyOp30
 70
     1
102
RTVSPropertyOp31
 70
     1
102
RTVSPropertyOp32
 70
     1
102
RTVSPropertyOp33
 70
     1
102
RTVSPropertyOp34
 70
     1
102
RTVSPropertyOp35
 70
     1
102
RTVSPropertyOp36
 70
     1
102
RTVSPropertyOp37
 70
     1
102
RTVSPropertyOp38
 70
     1
102
RTVSPropertyOp39
 70
     1
102
RTVSPropertyOp40
 70
     1
102
RTVSPropertyOp41
 70
     1
102
RTVSPropertyOp42
 70
     1
102
RTVSPropertyOp43
 70
     1
102
RTVSPropertyOp44
 70
     1
102
RTVSPropertyOp45
 70
     1
102
RTVSPropertyOp46
 70
     1
102
RTVSPropertyOp47
 70
     1
102
RTVSPropertyOp48
 70
     1
102
RTVSPropertyOp49
 70
     1
102
RTVSPropertyOp50
 70
     1
102
RTVSPropertyOp51
 70
     0
102
RTVSPropertyOp52
 70
     0
102
RTVSPropertyOp53
 70
     1
102
RTVSPropertyOp54
 70
     1
102
RTVSPropertyOp55
 70
     1
102
RTVSPropertyOp56
 70
     1
102
RTVSPropertyOp57
 70
     1
102
RTVSPost2010Prop28
280
     0
102
RTVSPost2010PropOp28
 70
     1
102
RTVSPost2010Prop29
280
     1
102
RTVSPost2010PropOp29
 70
     1
102
RTVSPost2010Prop30
280
     1
102
RTVSPost2010PropOp30
 70
     1
102
RTVSPost2010Prop31
280
     0
102
RTVSPost2010PropOp31
 70
     1
102
RTVSPost2010Prop32
280
     0
102
RTVSPost2010PropOp32
 70
     1
102
RTVSPost2010Prop33
280
     0
102
RTVSPost2010PropOp33
 70
     1
102
RTVSPost2010Prop34
280
     0
102
RTVSPost2010PropOp34
 70
     1
102
RTVSPost2010Prop35
280
     0
102
RTVSPost2010PropOp35
 70
     1
102
RTVSPost2010Prop36
280
     0
102
RTVSPost2010PropOp36
 70
     1
102
RTVSPost2010Prop37
 90
       50
102
RTVSPost2010PropOp37
 70
     1
102
RTVSPost2010Prop38
140
0.0
102
RTVSPost2010PropOp38
 70
     1
102
RTVSPost2010Prop39
140
1.0
102
RTVSPost2010PropOp39
 70
     1
102
RTVSPost2010Prop40
 90
        0
102
RTVSPost2010PropOp40
 70
     1
102
RTVSPost2010Prop41ColorIndex
 90
       18
102
RTVSPost2010Prop41ColorRGB
 90
        0
102
RTVSPost2010PropOp41
 70
     1
102
RTVSPost2010Prop42
 90
       50
102
RTVSPost2010PropOp42
 70
     1
102
RTVSPost2010Prop43
 90
        3
102
RTVSPost2010PropOp43
 70
     1
102
RTVSPost2010Prop44ColorIndex
 90
        5
102
RTVSPost2010Prop44ColorRGB
 90
      255
102
RTVSPost2010PropOp44
 70
     1
102
RTVSPost2010Prop45
280
     0
102
RTVSPost2010PropOp45
 70
     1
102
RTVSPost2010Prop46
 90
       50
102
RTVSPost2010PropOp46
 70
     1
102
RTVSPost2010Prop47
 90
       50
102
RTVSPost2010PropOp47
 70
     1
102
RTVSPost2010Prop48
 90
       50
102
RTVSPost2010PropOp48
 70
     1
102
RTVSPost2010Prop49
280
     0
102
RTVSPost2010PropOp49
 70
     1
102
RTVSPost2010Prop50
 90
       50
102
RTVSPost2010PropOp50
 70
     1
102
RTVSPost2010Prop51ColorIndex
 90
      256
102
RTVSPost2010Prop51ColorRGB
 90
-16777216
102
RTVSPost2010PropOp51
 70
     0
102
RTVSPost2010Prop52
140
1.0
102
RTVSPost2010PropOp52
 70
     0
102
RTVSPost2010Prop53
 90
        2
102
RTVSPost2010PropOp53
 70
     1
102
RTVSPost2010Prop54
  1
strokes_ogs.tif
102
RTVSPost2010PropOp54
 70
     1
102
RTVSPost2010Prop55
280
     0
102
RTVSPost2010PropOp55
 70
     1
102
RTVSPost2010Prop56
140
1.0
102
RTVSPost2010PropOp56
 70
     1
102
RTVSPost2010Prop57
140
1.0
102
RTVSPost2010PropOp57
 70
     1
  0
XRECORD
  5
3F5
102
{ACAD_REACTORS
330
3F4
102
}
330
3F4
100
AcDbXrecord
280
     1
102
RTVSPropertyOp0
 70
     1
102
RTVSPropertyOp1
 70
     1
102
RTVSPropertyOp2
 70
     1
102
RTVSPropertyOp3
 70
     1
102
RTVSPropertyOp4
 70
     1
102
RTVSPropertyOp5
 70
     1
102
RTVSPropertyOp6
 70
     1
102
RTVSPropertyOp7
 70
     1
102
RTVSPropertyOp8
 70
     1
102
RTVSPropertyOp9
 70
     1
102
RTVSPropertyOp10
 70
     1
102
RTVSPropertyOp11
 70
     1
102
RTVSPropertyOp12
 70
     1
102
RTVSPropertyOp13
 70
     1
102
RTVSPropertyOp14
 70
     1
102
RTVSPropertyOp15
 70
     1
102
RTVSPropertyOp16
 70
     1
102
RTVSPropertyOp17
 70
     1
102
RTVSPropertyOp18
 70
     1
102
RTVSPropertyOp19
 70
     1
102
RTVSPropertyOp20
 70
     1
102
RTVSPropertyOp21
 70
     1
102
RTVSPropertyOp22
 70
     1
102
RTVSPropertyOp23
 70
     1
102
RTVSPropertyOp24
 70
     1
102
RTVSPropertyOp25
 70
     1
102
RTVSPropertyOp26
 70
     1
102
RTVSPropertyOp27
 70
     1
102
RTVSPropertyOp28
 70
     1
102
RTVSPropertyOp29
 70
     1
102
RTVSPropertyOp30
 70
     1
102
RTVSPropertyOp31
 70
     1
102
RTVSPropertyOp32
 70
     1
102
RTVSPropertyOp33
 70
     1
102
RTVSPropertyOp34
 70
     1
102
RTVSPropertyOp35
 70
     1
102
RTVSPropertyOp36
 70
     1
102
RTVSPropertyOp37
 70
     1
102
RTVSPropertyOp38
 70
     1
102
RTVSPropertyOp39
 70
     1
102
RTVSPropertyOp40
 70
     1
102
RTVSPropertyOp41
 70
     1
102
RTVSPropertyOp42
 70
     1
102
RTVSPropertyOp43
 70
     1
102
RTVSPropertyOp44
 70
     1
102
RTVSPropertyOp45
 70
     1
102
RTVSPropertyOp46
 70
     1
102
RTVSPropertyOp47
 70
     1
102
RTVSPropertyOp48
 70
     1
102
RTVSPropertyOp49
 70
     1
102
RTVSPropertyOp50
 70
     1
102
RTVSPropertyOp51
 70
     0
102
RTVSPropertyOp52
 70
     0
102
RTVSPropertyOp53
 70
     1
102
RTVSPropertyOp54
 70
     1
102
RTVSPropertyOp55
 70
     1
102
RTVSPropertyOp56
 70
     1
102
RTVSPropertyOp57
 70
     1
102
RTVSPost2010Prop28
280
     0
102
RTVSPost2010PropOp28
 70
     1
102
RTVSPost2010Prop29
280
     1
102
RTVSPost2010PropOp29
 70
     1
102
RTVSPost2010Prop30
280
     1
102
RTVSPost2010PropOp30
 70
     1
102
RTVSPost2010Prop31
280
     0
102
RTVSPost2010PropOp31
 70
     1
102
RTVSPost2010Prop32
280
     0
102
RTVSPost2010PropOp32
 70
     1
102
RTVSPost2010Prop33
280
     0
102
RTVSPost2010PropOp33
 70
     1
102
RTVSPost2010Prop34
280
     0
102
RTVSPost2010PropOp34
 70
     1
102
RTVSPost2010Prop35
280
     0
102
RTVSPost2010PropOp35
 70
     1
102
RTVSPost2010Prop36
280
     0
102
RTVSPost2010PropOp36
 70
     1
102
RTVSPost2010Prop37
 90
       50
102
RTVSPost2010PropOp37
 70
     1
102
RTVSPost2010Prop38
140
0.0
102
RTVSPost2010PropOp38
 70
     1
102
RTVSPost2010Prop39
140
1.0
102
RTVSPost2010PropOp39
 70
     1
102
RTVSPost2010Prop40
 90
        0
102
RTVSPost2010PropOp40
 70
     1
102
RTVSPost2010Prop41ColorIndex
 90
       18
102
RTVSPost2010Prop41ColorRGB
 90
        0
102
RTVSPost2010PropOp41
 70
     1
102
RTVSPost2010Prop42
 90
       50
102
RTVSPost2010PropOp42
 70
     1
102
RTVSPost2010Prop43
 90
        3
102
RTVSPost2010PropOp43
 70
     1
102
RTVSPost2010Prop44ColorIndex
 90
        5
102
RTVSPost2010Prop44ColorRGB
 90
      255
102
RTVSPost2010PropOp44
 70
     1
102
RTVSPost2010Prop45
280
     0
102
RTVSPost2010PropOp45
 70
     1
102
RTVSPost2010Prop46
 90
       50
102
RTVSPost2010PropOp46
 70
     1
102
RTVSPost2010Prop47
 90
       50
102
RTVSPost2010PropOp47
 70
     1
102
RTVSPost2010Prop48
 90
       50
102
RTVSPost2010PropOp48
 70
     1
102
RTVSPost2010Prop49
280
     0
102
RTVSPost2010PropOp49
 70
     1
102
RTVSPost2010Prop50
 90
       50
102
RTVSPost2010PropOp50
 70
     1
102
RTVSPost2010Prop51ColorIndex
 90
      256
102
RTVSPost2010Prop51ColorRGB
 90
-16777216
102
RTVSPost2010PropOp51
 70
     0
102
RTVSPost2010Prop52
140
1.0
102
RTVSPost2010PropOp52
 70
     0
102
RTVSPost2010Prop53
 90
        2
102
RTVSPost2010PropOp53
 70
     1
102
RTVSPost2010Prop54
  1
strokes_ogs.tif
102
RTVSPost2010PropOp54
 70
     1
102
RTVSPost2010Prop55
280
     0
102
RTVSPost2010PropOp55
 70
     1
102
RTVSPost2010Prop56
140
1.0
102
RTVSPost2010PropOp56
 70
     1
102
RTVSPost2010Prop57
140
1.0
102
RTVSPost2010PropOp57
 70
     1
  0
XRECORD
  5
3E5
102
{ACAD_REACTORS
330
3E4
102
}
330
3E4
100
AcDbXrecord
280
     1
102
RTVSPropertyOp0
 70
     1
102
RTVSPropertyOp1
 70
     1
102
RTVSPropertyOp2
 70
     1
102
RTVSPropertyOp3
 70
     1
102
RTVSPropertyOp4
 70
     1
102
RTVSPropertyOp5
 70
     1
102
RTVSPropertyOp6
 70
     1
102
RTVSPropertyOp7
 70
     1
102
RTVSPropertyOp8
 70
     1
102
RTVSPropertyOp9
 70
     1
102
RTVSPropertyOp10
 70
     1
102
RTVSPropertyOp11
 70
     1
102
RTVSPropertyOp12
 70
     1
102
RTVSPropertyOp13
 70
     1
102
RTVSPropertyOp14
 70
     1
102
RTVSPropertyOp15
 70
     1
102
RTVSPropertyOp16
 70
     1
102
RTVSPropertyOp17
 70
     1
102
RTVSPropertyOp18
 70
     1
102
RTVSPropertyOp19
 70
     1
102
RTVSPropertyOp20
 70
     1
102
RTVSPropertyOp21
 70
     1
102
RTVSPropertyOp22
 70
     1
102
RTVSPropertyOp23
 70
     1
102
RTVSPropertyOp24
 70
     1
102
RTVSPropertyOp25
 70
     1
102
RTVSPropertyOp26
 70
     1
102
RTVSPropertyOp27
 70
     1
102
RTVSPropertyOp28
 70
     1
102
RTVSPropertyOp29
 70
     1
102
RTVSPropertyOp30
 70
     1
102
RTVSPropertyOp31
 70
     1
102
RTVSPropertyOp32
 70
     1
102
RTVSPropertyOp33
 70
     1
102
RTVSPropertyOp34
 70
     1
102
RTVSPropertyOp35
 70
     1
102
RTVSPropertyOp36
 70
     1
102
RTVSPropertyOp37
 70
     1
102
RTVSPropertyOp38
 70
     1
102
RTVSPropertyOp39
 70
     1
102
RTVSPropertyOp40
 70
     1
102
RTVSPropertyOp41
 70
     1
102
RTVSPropertyOp42
 70
     1
102
RTVSPropertyOp43
 70
     1
102
RTVSPropertyOp44
 70
     1
102
RTVSPropertyOp45
 70
     1
102
RTVSPropertyOp46
 70
     1
102
RTVSPropertyOp47
 70
     1
102
RTVSPropertyOp48
 70
     1
102
RTVSPropertyOp49
 70
     1
102
RTVSPropertyOp50
 70
     1
102
RTVSPropertyOp51
 70
     0
102
RTVSPropertyOp52
 70
     0
102
RTVSPropertyOp53
 70
     1
102
RTVSPropertyOp54
 70
     1
102
RTVSPropertyOp55
 70
     1
102
RTVSPropertyOp56
 70
     1
102
RTVSPropertyOp57
 70
     1
102
RTVSPost2010Prop28
280
     0
102
RTVSPost2010PropOp28
 70
     1
102
RTVSPost2010Prop29
280
     1
102
RTVSPost2010PropOp29
 70
     1
102
RTVSPost2010Prop30
280
     1
102
RTVSPost2010PropOp30
 70
     1
102
RTVSPost2010Prop31
280
     0
102
RTVSPost2010PropOp31
 70
     1
102
RTVSPost2010Prop32
280
     0
102
RTVSPost2010PropOp32
 70
     1
102
RTVSPost2010Prop33
280
     0
102
RTVSPost2010PropOp33
 70
     1
102
RTVSPost2010Prop34
280
     0
102
RTVSPost2010PropOp34
 70
     1
102
RTVSPost2010Prop35
280
     0
102
RTVSPost2010PropOp35
 70
     1
102
RTVSPost2010Prop36
280
     0
102
RTVSPost2010PropOp36
 70
     1
102
RTVSPost2010Prop37
 90
       50
102
RTVSPost2010PropOp37
 70
     1
102
RTVSPost2010Prop38
140
0.0
102
RTVSPost2010PropOp38
 70
     1
102
RTVSPost2010Prop39
140
1.0
102
RTVSPost2010PropOp39
 70
     1
102
RTVSPost2010Prop40
 90
        0
102
RTVSPost2010PropOp40
 70
     1
102
RTVSPost2010Prop41ColorIndex
 90
       18
102
RTVSPost2010Prop41ColorRGB
 90
        0
102
RTVSPost2010PropOp41
 70
     1
102
RTVSPost2010Prop42
 90
       50
102
RTVSPost2010PropOp42
 70
     1
102
RTVSPost2010Prop43
 90
        3
102
RTVSPost2010PropOp43
 70
     1
102
RTVSPost2010Prop44ColorIndex
 90
        5
102
RTVSPost2010Prop44ColorRGB
 90
      255
102
RTVSPost2010PropOp44
 70
     1
102
RTVSPost2010Prop45
280
     0
102
RTVSPost2010PropOp45
 70
     1
102
RTVSPost2010Prop46
 90
       50
102
RTVSPost2010PropOp46
 70
     1
102
RTVSPost2010Prop47
 90
       50
102
RTVSPost2010PropOp47
 70
     1
102
RTVSPost2010Prop48
 90
       50
102
RTVSPost2010PropOp48
 70
     1
102
RTVSPost2010Prop49
280
     0
102
RTVSPost2010PropOp49
 70
     1
102
RTVSPost2010Prop50
 90
       50
102
RTVSPost2010PropOp50
 70
     1
102
RTVSPost2010Prop51ColorIndex
 90
      256
102
RTVSPost2010Prop51ColorRGB
 90
-16777216
102
RTVSPost2010PropOp51
 70
     0
102
RTVSPost2010Prop52
140
1.0
102
RTVSPost2010PropOp52
 70
     0
102
RTVSPost2010Prop53
 90
        2
102
RTVSPost2010PropOp53
 70
     1
102
RTVSPost2010Prop54
  1
strokes_ogs.tif
102
RTVSPost2010PropOp54
 70
     1
102
RTVSPost2010Prop55
280
     0
102
RTVSPost2010PropOp55
 70
     1
102
RTVSPost2010Prop56
140
1.0
102
RTVSPost2010PropOp56
 70
     1
102
RTVSPost2010Prop57
140
1.0
102
RTVSPost2010PropOp57
 70
     1
  0
XRECORD
  5
3D7
102
{ACAD_REACTORS
330
3D6
102
}
330
3D6
100
AcDbXrecord
280
     1
102
RTVSPropertyOp0
 70
     1
102
RTVSPropertyOp1
 70
     1
102
RTVSPropertyOp2
 70
     1
102
RTVSPropertyOp3
 70
     1
102
RTVSPropertyOp4
 70
     1
102
RTVSPropertyOp5
 70
     1
102
RTVSPropertyOp6
 70
     1
102
RTVSPropertyOp7
 70
     1
102
RTVSPropertyOp8
 70
     1
102
RTVSPropertyOp9
 70
     1
102
RTVSPropertyOp10
 70
     1
102
RTVSPropertyOp11
 70
     1
102
RTVSPropertyOp12
 70
     1
102
RTVSPropertyOp13
 70
     1
102
RTVSPropertyOp14
 70
     1
102
RTVSPropertyOp15
 70
     1
102
RTVSPropertyOp16
 70
     1
102
RTVSPropertyOp17
 70
     1
102
RTVSPropertyOp18
 70
     1
102
RTVSPropertyOp19
 70
     1
102
RTVSPropertyOp20
 70
     1
102
RTVSPropertyOp21
 70
     1
102
RTVSPropertyOp22
 70
     1
102
RTVSPropertyOp23
 70
     1
102
RTVSPropertyOp24
 70
     1
102
RTVSPropertyOp25
 70
     1
102
RTVSPropertyOp26
 70
     1
102
RTVSPropertyOp27
 70
     1
102
RTVSPropertyOp28
 70
     1
102
RTVSPropertyOp29
 70
     1
102
RTVSPropertyOp30
 70
     1
102
RTVSPropertyOp31
 70
     1
102
RTVSPropertyOp32
 70
     1
102
RTVSPropertyOp33
 70
     1
102
RTVSPropertyOp34
 70
     1
102
RTVSPropertyOp35
 70
     1
102
RTVSPropertyOp36
 70
     1
102
RTVSPropertyOp37
 70
     1
102
RTVSPropertyOp38
 70
     1
102
RTVSPropertyOp39
 70
     1
102
RTVSPropertyOp40
 70
     1
102
RTVSPropertyOp41
 70
     1
102
RTVSPropertyOp42
 70
     1
102
RTVSPropertyOp43
 70
     1
102
RTVSPropertyOp44
 70
     1
102
RTVSPropertyOp45
 70
     1
102
RTVSPropertyOp46
 70
     1
102
RTVSPropertyOp47
 70
     1
102
RTVSPropertyOp48
 70
     1
102
RTVSPropertyOp49
 70
     1
102
RTVSPropertyOp50
 70
     1
102
RTVSPropertyOp51
 70
     0
102
RTVSPropertyOp52
 70
     0
102
RTVSPropertyOp53
 70
     1
102
RTVSPropertyOp54
 70
     1
102
RTVSPropertyOp55
 70
     1
102
RTVSPropertyOp56
 70
     1
102
RTVSPropertyOp57
 70
     1
102
RTVSPost2010Prop28
280
     0
102
RTVSPost2010PropOp28
 70
     1
102
RTVSPost2010Prop29
280
     1
102
RTVSPost2010PropOp29
 70
     1
102
RTVSPost2010Prop30
280
     1
102
RTVSPost2010PropOp30
 70
     1
102
RTVSPost2010Prop31
280
     0
102
RTVSPost2010PropOp31
 70
     1
102
RTVSPost2010Prop32
280
     0
102
RTVSPost2010PropOp32
 70
     1
102
RTVSPost2010Prop33
280
     0
102
RTVSPost2010PropOp33
 70
     1
102
RTVSPost2010Prop34
280
     0
102
RTVSPost2010PropOp34
 70
     1
102
RTVSPost2010Prop35
280
     0
102
RTVSPost2010PropOp35
 70
     1
102
RTVSPost2010Prop36
280
     0
102
RTVSPost2010PropOp36
 70
     1
102
RTVSPost2010Prop37
 90
       50
102
RTVSPost2010PropOp37
 70
     1
102
RTVSPost2010Prop38
140
0.0
102
RTVSPost2010PropOp38
 70
     1
102
RTVSPost2010Prop39
140
1.0
102
RTVSPost2010PropOp39
 70
     1
102
RTVSPost2010Prop40
 90
        0
102
RTVSPost2010PropOp40
 70
     1
102
RTVSPost2010Prop41ColorIndex
 90
       18
102
RTVSPost2010Prop41ColorRGB
 90
        0
102
RTVSPost2010PropOp41
 70
     1
102
RTVSPost2010Prop42
 90
       50
102
RTVSPost2010PropOp42
 70
     1
102
RTVSPost2010Prop43
 90
        3
102
RTVSPost2010PropOp43
 70
     1
102
RTVSPost2010Prop44ColorIndex
 90
        5
102
RTVSPost2010Prop44ColorRGB
 90
      255
102
RTVSPost2010PropOp44
 70
     1
102
RTVSPost2010Prop45
280
     0
102
RTVSPost2010PropOp45
 70
     1
102
RTVSPost2010Prop46
 90
       50
102
RTVSPost2010PropOp46
 70
     1
102
RTVSPost2010Prop47
 90
       50
102
RTVSPost2010PropOp47
 70
     1
102
RTVSPost2010Prop48
 90
       50
102
RTVSPost2010PropOp48
 70
     1
102
RTVSPost2010Prop49
280
     0
102
RTVSPost2010PropOp49
 70
     1
102
RTVSPost2010Prop50
 90
       50
102
RTVSPost2010PropOp50
 70
     1
102
RTVSPost2010Prop51ColorIndex
 90
      256
102
RTVSPost2010Prop51ColorRGB
 90
-16777216
102
RTVSPost2010PropOp51
 70
     0
102
RTVSPost2010Prop52
140
1.0
102
RTVSPost2010PropOp52
 70
     0
102
RTVSPost2010Prop53
 90
        2
102
RTVSPost2010PropOp53
 70
     1
102
RTVSPost2010Prop54
  1
strokes_ogs.tif
102
RTVSPost2010PropOp54
 70
     1
102
RTVSPost2010Prop55
280
     0
102
RTVSPost2010PropOp55
 70
     1
102
RTVSPost2010Prop56
140
1.0
102
RTVSPost2010PropOp56
 70
     1
102
RTVSPost2010Prop57
140
1.0
102
RTVSPost2010PropOp57
 70
     1
  0
XRECORD
  5
3F7
102
{ACAD_REACTORS
330
3F6
102
}
330
3F6
100
AcDbXrecord
280
     1
102
RTVSPropertyOp0
 70
     1
102
RTVSPropertyOp1
 70
     1
102
RTVSPropertyOp2
 70
     1
102
RTVSPropertyOp3
 70
     1
102
RTVSPropertyOp4
 70
     1
102
RTVSPropertyOp5
 70
     1
102
RTVSPropertyOp6
 70
     1
102
RTVSPropertyOp7
 70
     1
102
RTVSPropertyOp8
 70
     1
102
RTVSPropertyOp9
 70
     1
102
RTVSPropertyOp10
 70
     1
102
RTVSPropertyOp11
 70
     1
102
RTVSPropertyOp12
 70
     1
102
RTVSPropertyOp13
 70
     1
102
RTVSPropertyOp14
 70
     1
102
RTVSPropertyOp15
 70
     1
102
RTVSPropertyOp16
 70
     1
102
RTVSPropertyOp17
 70
     1
102
RTVSPropertyOp18
 70
     1
102
RTVSPropertyOp19
 70
     1
102
RTVSPropertyOp20
 70
     1
102
RTVSPropertyOp21
 70
     1
102
RTVSPropertyOp22
 70
     1
102
RTVSPropertyOp23
 70
     1
102
RTVSPropertyOp24
 70
     1
102
RTVSPropertyOp25
 70
     1
102
RTVSPropertyOp26
 70
     1
102
RTVSPropertyOp27
 70
     1
102
RTVSPropertyOp28
 70
     1
102
RTVSPropertyOp29
 70
     1
102
RTVSPropertyOp30
 70
     1
102
RTVSPropertyOp31
 70
     1
102
RTVSPropertyOp32
 70
     1
102
RTVSPropertyOp33
 70
     1
102
RTVSPropertyOp34
 70
     1
102
RTVSPropertyOp35
 70
     1
102
RTVSPropertyOp36
 70
     1
102
RTVSPropertyOp37
 70
     1
102
RTVSPropertyOp38
 70
     1
102
RTVSPropertyOp39
 70
     1
102
RTVSPropertyOp40
 70
     1
102
RTVSPropertyOp41
 70
     1
102
RTVSPropertyOp42
 70
     1
102
RTVSPropertyOp43
 70
     1
102
RTVSPropertyOp44
 70
     1
102
RTVSPropertyOp45
 70
     1
102
RTVSPropertyOp46
 70
     1
102
RTVSPropertyOp47
 70
     1
102
RTVSPropertyOp48
 70
     1
102
RTVSPropertyOp49
 70
     1
102
RTVSPropertyOp50
 70
     1
102
RTVSPropertyOp51
 70
     0
102
RTVSPropertyOp52
 70
     0
102
RTVSPropertyOp53
 70
     1
102
RTVSPropertyOp54
 70
     1
102
RTVSPropertyOp55
 70
     1
102
RTVSPropertyOp56
 70
     1
102
RTVSPropertyOp57
 70
     1
102
RTVSPost2010Prop28
280
     0
102
RTVSPost2010PropOp28
 70
     1
102
RTVSPost2010Prop29
280
     1
102
RTVSPost2010PropOp29
 70
     1
102
RTVSPost2010Prop30
280
     1
102
RTVSPost2010PropOp30
 70
     1
102
RTVSPost2010Prop31
280
     0
102
RTVSPost2010PropOp31
 70
     1
102
RTVSPost2010Prop32
280
     0
102
RTVSPost2010PropOp32
 70
     1
102
RTVSPost2010Prop33
280
     0
102
RTVSPost2010PropOp33
 70
     1
102
RTVSPost2010Prop34
280
     0
102
RTVSPost2010PropOp34
 70
     1
102
RTVSPost2010Prop35
280
     0
102
RTVSPost2010PropOp35
 70
     1
102
RTVSPost2010Prop36
280
     0
102
RTVSPost2010PropOp36
 70
     1
102
RTVSPost2010Prop37
 90
       50
102
RTVSPost2010PropOp37
 70
     1
102
RTVSPost2010Prop38
140
0.0
102
RTVSPost2010PropOp38
 70
     1
102
RTVSPost2010Prop39
140
1.0
102
RTVSPost2010PropOp39
 70
     1
102
RTVSPost2010Prop40
 90
        0
102
RTVSPost2010PropOp40
 70
     1
102
RTVSPost2010Prop41ColorIndex
 90
       18
102
RTVSPost2010Prop41ColorRGB
 90
        0
102
RTVSPost2010PropOp41
 70
     1
102
RTVSPost2010Prop42
 90
       50
102
RTVSPost2010PropOp42
 70
     1
102
RTVSPost2010Prop43
 90
        3
102
RTVSPost2010PropOp43
 70
     1
102
RTVSPost2010Prop44ColorIndex
 90
        5
102
RTVSPost2010Prop44ColorRGB
 90
      255
102
RTVSPost2010PropOp44
 70
     1
102
RTVSPost2010Prop45
280
     0
102
RTVSPost2010PropOp45
 70
     1
102
RTVSPost2010Prop46
 90
       50
102
RTVSPost2010PropOp46
 70
     1
102
RTVSPost2010Prop47
 90
       50
102
RTVSPost2010PropOp47
 70
     1
102
RTVSPost2010Prop48
 90
       50
102
RTVSPost2010PropOp48
 70
     1
102
RTVSPost2010Prop49
280
     0
102
RTVSPost2010PropOp49
 70
     1
102
RTVSPost2010Prop50
 90
       50
102
RTVSPost2010PropOp50
 70
     1
102
RTVSPost2010Prop51ColorIndex
 90
      256
102
RTVSPost2010Prop51ColorRGB
 90
-16777216
102
RTVSPost2010PropOp51
 70
     0
102
RTVSPost2010Prop52
140
1.0
102
RTVSPost2010PropOp52
 70
     0
102
RTVSPost2010Prop53
 90
        2
102
RTVSPost2010PropOp53
 70
     1
102
RTVSPost2010Prop54
  1
strokes_ogs.tif
102
RTVSPost2010PropOp54
 70
     1
102
RTVSPost2010Prop55
280
     0
102
RTVSPost2010PropOp55
 70
     1
102
RTVSPost2010Prop56
140
1.0
102
RTVSPost2010PropOp56
 70
     1
102
RTVSPost2010Prop57
140
1.0
102
RTVSPost2010PropOp57
 70
     1
  0
ENDSEC
  0
EOF
