  0
SECTION
  2
HEADER
  9
$ACADVER
  1
AC1018
  9
$ACADMAINTVER
 70
     0
  9
$DWGCODEPAGE
  3
ANSI_932
  9
$INSBASE
 10
0.0
 20
0.0
 30
0.0
  9
$EXTMIN
 10
-1260.0
 20
-891.0
 30
0.0
  9
$EXTMAX
 10
1260.0
 20
891.0
 30
0.0
  9
$LIMMIN
 10
-1260.0
 20
-891.0
  9
$LIMMAX
 10
1260.0
 20
891.0
  9
$ORTHOMODE
 70
     0
  9
$REGENMODE
 70
     1
  9
$FILLMODE
 70
     1
  9
$QTEXTMODE
 70
     0
  9
$MIRRTEXT
 70
     1
  9
$LTSCALE
 40
6.0
  9
$ATTMODE
 70
     1
  9
$TEXTSIZE
 40
2.5
  9
$TRACEWID
 40
1.0
  9
$TEXTSTYLE
  7
Standard
  9
$CLAYER
  8
0
  9
$CELTYPE
  6
ByLayer
  9
$CECOLOR
 62
   256
  9
$CELTSCALE
 40
1.0
  9
$DISPSILH
 70
     0
  9
$DIMSCALE
 40
1.0
  9
$DIMASZ
 40
2.5
  9
$DIMEXO
 40
0.625
  9
$DIMDLI
 40
3.75
  9
$DIMRND
 40
0.0
  9
$DIMDLE
 40
0.0
  9
$DIMEXE
 40
1.25
  9
$DIMTP
 40
0.0
  9
$DIMTM
 40
0.0
  9
$DIMTXT
 40
2.5
  9
$DIMCEN
 40
2.5
  9
$DIMTSZ
 40
0.0
  9
$DIMTOL
 70
     0
  9
$DIMLIM
 70
     0
  9
$DIMTIH
 70
     0
  9
$DIMTOH
 70
     0
  9
$DIMSE1
 70
     0
  9
$DIMSE2
 70
     0
  9
$DIMTAD
 70
     1
  9
$DIMZIN
 70
     8
  9
$DIMBLK
  1

  9
$DIMASO
 70
     1
  9
$DIMSHO
 70
     1
  9
$DIMPOST
  1

  9
$DIMAPOST
  1

  9
$DIMALT
 70
     0
  9
$DIMALTD
 70
     3
  9
$DIMALTF
 40
0.03937007874016
  9
$DIMLFAC
 40
1.0
  9
$DIMTOFL
 70
     1
  9
$DIMTVP
 40
0.0
  9
$DIMTIX
 70
     0
  9
$DIMSOXD
 70
     0
  9
$DIMSAH
 70
     0
  9
$DIMBLK1
  1

  9
$DIMBLK2
  1

  9
$DIMSTYLE
  2
ISO-25
  9
$DIMCLRD
 70
     0
  9
$DIMCLRE
 70
     0
  9
$DIMCLRT
 70
     0
  9
$DIMTFAC
 40
1.0
  9
$DIMGAP
 40
0.625
  9
$DIMJUST
 70
     0
  9
$DIMSD1
 70
     0
  9
$DIMSD2
 70
     0
  9
$DIMTOLJ
 70
     0
  9
$DIMTZIN
 70
     8
  9
$DIMALTZ
 70
     0
  9
$DIMALTTZ
 70
     0
  9
$DIMUPT
 70
     0
  9
$DIMDEC
 70
     2
  9
$DIMTDEC
 70
     2
  9
$DIMALTU
 70
     2
  9
$DIMALTTD
 70
     3
  9
$DIMTXSTY
  7
Standard
  9
$DIMAUNIT
 70
     0
  9
$DIMADEC
 70
     0
  9
$DIMALTRND
 40
0.0
  9
$DIMAZIN
 70
     0
  9
$DIMDSEP
 70
    44
  9
$DIMATFIT
 70
     3
  9
$DIMFRAC
 70
     0
  9
$DIMLDRBLK
  1

  9
$DIMLUNIT
 70
     2
  9
$DIMLWD
 70
    -2
  9
$DIMLWE
 70
    -2
  9
$DIMTMOVE
 70
     0
  9
$LUNITS
 70
     2
  9
$LUPREC
 70
     4
  9
$SKETCHINC
 40
1.0
  9
$FILLETRAD
 40
10.0
  9
$AUNITS
 70
     0
  9
$AUPREC
 70
     0
  9
$MENU
  1
.
  9
$ELEVATION
 40
0.0
  9
$PELEVATION
 40
0.0
  9
$THICKNESS
 40
0.0
  9
$LIMCHECK
 70
     0
  9
$CHAMFERA
 40
0.0
  9
$CHAMFERB
 40
0.0
  9
$CHAMFERC
 40
0.0
  9
$CHAMFERD
 40
0.0
  9
$SKPOLY
 70
     0
  9
$TDCREATE
 40
2459487.711649931
  9
$TDUCREATE
 40
2459487.336649931
  9
$TDUPDATE
 40
2459487.711650104
  9
$TDUUPDATE
 40
2459487.336650104
  9
$TDINDWG
 40
0.0000000116
  9
$TDUSRTIMER
 40
0.0000000116
  9
$USRTIMER
 70
     1
  9
$ANGBASE
 50
0.0
  9
$ANGDIR
 70
     0
  9
$PDMODE
 70
     0
  9
$PDSIZE
 40
0.0
  9
$PLINEWID
 40
0.0
  9
$SPLFRAME
 70
     0
  9
$SPLINETYPE
 70
     6
  9
$SPLINESEGS
 70
     8
  9
$HANDSEED
  5
47D
  9
$SURFTAB1
 70
     6
  9
$SURFTAB2
 70
     6
  9
$SURFTYPE
 70
     6
  9
$SURFU
 70
     6
  9
$SURFV
 70
     6
  9
$UCSBASE
  2

  9
$UCSNAME
  2

  9
$UCSORG
 10
0.0
 20
0.0
 30
0.0
  9
$UCSXDIR
 10
1.0
 20
0.0
 30
0.0
  9
$UCSYDIR
 10
0.0
 20
1.0
 30
0.0
  9
$UCSORTHOREF
  2

  9
$UCSORTHOVIEW
 70
     0
  9
$UCSORGTOP
 10
0.0
 20
0.0
 30
0.0
  9
$UCSORGBOTTOM
 10
0.0
 20
0.0
 30
0.0
  9
$UCSORGLEFT
 10
0.0
 20
0.0
 30
0.0
  9
$UCSORGRIGHT
 10
0.0
 20
0.0
 30
0.0
  9
$UCSORGFRONT
 10
0.0
 20
0.0
 30
0.0
  9
$UCSORGBACK
 10
0.0
 20
0.0
 30
0.0
  9
$PUCSBASE
  2

  9
$PUCSNAME
  2

  9
$PUCSORG
 10
0.0
 20
0.0
 30
0.0
  9
$PUCSXDIR
 10
1.0
 20
0.0
 30
0.0
  9
$PUCSYDIR
 10
0.0
 20
1.0
 30
0.0
  9
$PUCSORTHOREF
  2

  9
$PUCSORTHOVIEW
 70
     0
  9
$PUCSORGTOP
 10
0.0
 20
0.0
 30
0.0
  9
$PUCSORGBOTTOM
 10
0.0
 20
0.0
 30
0.0
  9
$PUCSORGLEFT
 10
0.0
 20
0.0
 30
0.0
  9
$PUCSORGRIGHT
 10
0.0
 20
0.0
 30
0.0
  9
$PUCSORGFRONT
 10
0.0
 20
0.0
 30
0.0
  9
$PUCSORGBACK
 10
0.0
 20
0.0
 30
0.0
  9
$USERI1
 70
     0
  9
$USERI2
 70
     0
  9
$USERI3
 70
     0
  9
$USERI4
 70
     0
  9
$USERI5
 70
     0
  9
$USERR1
 40
0.0
  9
$USERR2
 40
0.0
  9
$USERR3
 40
0.0
  9
$USERR4
 40
0.0
  9
$USERR5
 40
0.0
  9
$WORLDVIEW
 70
     1
  9
$SHADEDGE
 70
     3
  9
$SHADEDIF
 70
    70
  9
$TILEMODE
 70
     1
  9
$MAXACTVP
 70
    64
  9
$PINSBASE
 10
0.0
 20
0.0
 30
0.0
  9
$PLIMCHECK
 70
     0
  9
$PEXTMIN
 10
1.000000000000000E+20
 20
1.000000000000000E+20
 30
1.000000000000000E+20
  9
$PEXTMAX
 10
-1.000000000000000E+20
 20
-1.000000000000000E+20
 30
-1.000000000000000E+20
  9
$PLIMMIN
 10
0.0
 20
0.0
  9
$PLIMMAX
 10
420.0
 20
297.0
  9
$UNITMODE
 70
     0
  9
$VISRETAIN
 70
     1
  9
$PLINEGEN
 70
     0
  9
$PSLTSCALE
 70
     1
  9
$TREEDEPTH
 70
  3020
  9
$CMLSTYLE
  2
Standard
  9
$CMLJUST
 70
     0
  9
$CMLSCALE
 40
20.0
  9
$PROXYGRAPHICS
 70
     1
  9
$MEASUREMENT
 70
     1
  9
$CELWEIGHT
370
    -1
  9
$ENDCAPS
280
     0
  9
$JOINSTYLE
280
     0
  9
$LWDISPLAY
290
     0
  9
$INSUNITS
 70
     4
  9
$HYPERLINKBASE
  1

  9
$STYLESHEET
  1

  9
$XEDIT
290
     1
  9
$CEPSNTYPE
380
     0
  9
$PSTYLEMODE
290
     1
  9
$FINGERPRINTGUID
  2
{3D2BDAFA-64CA-4FE7-8A5F-C525BC4205F5}
  9
$VERSIONGUID
  2
{FAEB1C32-E019-11D5-929B-00C0DF256EC4}
  9
$EXTNAMES
290
     1
  9
$PSVPSCALE
 40
0.0
  9
$OLESTARTUP
290
     0
  9
$SORTENTS
280
   127
  9
$INDEXCTL
280
     0
  9
$HIDETEXT
280
     1
  9
$XCLIPFRAME
290
     0
  9
$HALOGAP
280
     0
  9
$OBSCOLOR
 70
   257
  9
$OBSLTYPE
280
     0
  9
$INTERSECTIONDISPLAY
280
     0
  9
$INTERSECTIONCOLOR
 70
   257
  9
$DIMASSOC
280
     2
  9
$PROJECTNAME
  1

  0
ENDSEC
  0
SECTION
  2
CLASSES
  0
CLASS
  1
ACDBDICTIONARYWDFLT
  2
AcDbDictionaryWithDefault
  3
ObjectDBX Classes
 90
        0
 91
        4
280
     0
281
     0
  0
CLASS
  1
VISUALSTYLE
  2
AcDbVisualStyle
  3
ObjectDBX Classes
 90
     4095
 91
        4
280
     0
281
     0
  0
CLASS
  1
MATERIAL
  2
AcDbMaterial
  3
ObjectDBX Classes
 90
     1153
 91
        4
280
     0
281
     0
  0
CLASS
  1
SCALE
  2
AcDbScale
  3
ObjectDBX Classes
 90
     1153
 91
        4
280
     0
281
     0
  0
CLASS
  1
TABLESTYLE
  2
AcDbTableStyle
  3
ObjectDBX Classes
 90
     4095
 91
        4
280
     0
281
     0
  0
CLASS
  1
MLEADERSTYLE
  2
AcDbMLeaderStyle
  3
ACDB_MLEADERSTYLE_CLASS
 90
     4095
 91
        4
280
     0
281
     0
  0
CLASS
  1
SUN
  2
AcDbSun
  3
SCENEOE
 90
     1153
 91
        4
280
     0
281
     0
  0
CLASS
  1
DICTIONARYVAR
  2
AcDbDictionaryVar
  3
ObjectDBX Classes
 90
        0
 91
        4
280
     0
281
     0
  0
CLASS
  1
CELLSTYLEMAP
  2
AcDbCellStyleMap
  3
ObjectDBX Classes
 90
     1152
 91
        4
280
     0
281
     0
  0
ENDSEC
  0
SECTION
  2
TABLES
  0
TABLE
  2
VPORT
  5
8
102
{ACAD_XDICTIONARY
360
434
102
}
330
0
100
AcDbSymbolTable
 70
     1
  0
VPORT
  5
29
330
8
100
AcDbSymbolTableRecord
100
AcDbViewportTableRecord
  2
*Active
 70
     0
 10
0.0
 20
0.0
 11
1.0
 21
1.0
 12
0.0
 22
0.0
 13
0.0
 23
0.0
 14
10.0
 24
10.0
 15
10.0
 25
10.0
 16
0.0
 26
0.0
 36
1.0
 17
0.0
 27
0.0
 37
0.0
 40
1960.2
 41
1.414141414141414
 42
50.0
 43
0.0
 44
0.0
 50
0.0
 51
0.0
 71
     0
 72
 10000
 73
     1
 74
     3
 75
     0
 76
     0
 77
     0
 78
     0
281
     0
 65
     1
110
0.0
120
0.0
130
0.0
111
1.0
121
0.0
131
0.0
112
0.0
122
1.0
132
0.0
 79
     0
146
0.0
  0
ENDTAB
  0
TABLE
  2
LTYPE
  5
5
330
0
100
AcDbSymbolTable
 70
     4
  0
LTYPE
  5
14
330
5
100
AcDbSymbolTableRecord
100
AcDbLinetypeTableRecord
  2
ByBlock
 70
     0
  3

 72
    65
 73
     0
 40
0.0
  0
LTYPE
  5
15
330
5
100
AcDbSymbolTableRecord
100
AcDbLinetypeTableRecord
  2
ByLayer
 70
     0
  3

 72
    65
 73
     0
 40
0.0
  0
LTYPE
  5
16
330
5
100
AcDbSymbolTableRecord
100
AcDbLinetypeTableRecord
  2
Continuous
 70
     0
  3
Solid line
 72
    65
 73
     0
 40
0.0
  0
LTYPE
  5
6F
330
5
100
AcDbSymbolTableRecord
100
AcDbLinetypeTableRecord
  2
JWW_CENTER2
 70
     0
  3
-------------  --  -------------
 72
    65
 73
     4
 40
13.54666666666667
 49
11.00666666666667
 74
     0
 49
-0.8466666666666667
 74
     0
 49
0.8466666666666667
 74
     0
 49
-0.8466666666666667
 74
     0
  0
LTYPE
  5
70
330
5
100
AcDbSymbolTableRecord
100
AcDbLinetypeTableRecord
  2
JWW_CENTER1
 70
     0
  3
-----  --  ----------  --  -----
 72
    65
 73
     4
 40
6.773333333333333
 49
4.233333333333333
 74
     0
 49
-0.8466666666666667
 74
     0
 49
0.8466666666666667
 74
     0
 49
-0.8466666666666667
 74
     0
  0
LTYPE
  5
71
330
5
100
AcDbSymbolTableRecord
100
AcDbLinetypeTableRecord
  2
JWW_DASHED3
 70
     0
  3
---  ------  ------  ------  ---
 72
    65
 73
     2
 40
3.386666666666667
 49
2.54
 74
     0
 49
-0.8466666666666667
 74
     0
  0
ENDTAB
  0
TABLE
  2
LAYER
  5
2
330
0
100
AcDbSymbolTable
 70
    10
  0
LAYER
  5
10
330
2
100
AcDbSymbolTableRecord
100
AcDbLayerTableRecord
  2
0
 70
     0
 62
     7
  6
Continuous
370
    -3
390
F
  0
LAYER
  5
72
330
2
100
AcDbSymbolTableRecord
100
AcDbLayerTableRecord
  2
F-5ﾚｲﾔ
 70
     0
 62
     7
  6
Continuous
370
    -3
390
F
  0
LAYER
  5
73
330
2
100
AcDbSymbolTableRecord
100
AcDbLayerTableRecord
  2
D-0_通り芯
 70
     0
 62
     7
  6
Continuous
370
    -3
390
F
  0
LAYER
  5
74
330
2
100
AcDbSymbolTableRecord
100
AcDbLayerTableRecord
  2
D-4_寸法
 70
     0
 62
     7
  6
Continuous
370
    -3
390
F
  0
LAYER
  5
75
330
2
100
AcDbSymbolTableRecord
100
AcDbLayerTableRecord
  2
B-4_寸法
 70
     0
 62
     7
  6
Continuous
370
    -3
390
F
  0
LAYER
  5
76
330
2
100
AcDbSymbolTableRecord
100
AcDbLayerTableRecord
  2
B-2_蓋
 70
     0
 62
     7
  6
Continuous
370
    -3
390
F
  0
LAYER
  5
77
330
2
100
AcDbSymbolTableRecord
100
AcDbLayerTableRecord
  2
B-1_ピット
 70
     0
 62
     7
  6
Continuous
370
    -3
390
F
  0
LAYER
  5
78
330
2
100
AcDbSymbolTableRecord
100
AcDbLayerTableRecord
  2
B-5_仕様文
 70
     0
 62
     7
  6
Continuous
370
    -3
390
F
  0
LAYER
  5
79
330
2
100
AcDbSymbolTableRecord
100
AcDbLayerTableRecord
  2
B-0_通り芯
 70
     0
 62
     7
  6
Continuous
370
    -3
390
F
  0
LAYER
  5
7A
330
2
100
AcDbSymbolTableRecord
100
AcDbLayerTableRecord
  2
F-0ﾚｲﾔ
 70
     0
 62
     7
  6
Continuous
370
    -3
390
F
  0
ENDTAB
  0
TABLE
  2
STYLE
  5
3
330
0
100
AcDbSymbolTable
 70
     2
  0
STYLE
  5
11
330
3
100
AcDbSymbolTableRecord
100
AcDbTextStyleTableRecord
  2
Standard
 70
     0
 40
0.0
 41
1.0
 50
0.0
 71
     0
 42
2.5
  3
txt
  4

  0
STYLE
  5
6E
330
3
100
AcDbSymbolTableRecord
100
AcDbTextStyleTableRecord
  2
ＭＳ ゴシック
 70
     0
 40
1.0
 41
1.0
 50
0.0
 71
     0
 42
2.5
  3

  4

1001
ACAD
1000
MS Gothic
1071
    32817
  0
ENDTAB
  0
TABLE
  2
VIEW
  5
6
330
0
100
AcDbSymbolTable
 70
     0
  0
ENDTAB
  0
TABLE
  2
UCS
  5
7
330
0
100
AcDbSymbolTable
 70
     0
  0
ENDTAB
  0
TABLE
  2
APPID
  5
9
330
0
100
AcDbSymbolTable
 70
     2
  0
APPID
  5
12
330
9
100
AcDbSymbolTableRecord
100
AcDbRegAppTableRecord
  2
ACAD
 70
     0
  0
APPID
  5
473
330
9
100
AcDbSymbolTableRecord
100
AcDbRegAppTableRecord
  2
ACAD_MLEADERVER
 70
     0
  0
ENDTAB
  0
TABLE
  2
DIMSTYLE
  5
A
330
0
100
AcDbSymbolTable
 70
     1
100
AcDbDimStyleTable
  0
DIMSTYLE
105
27
330
A
100
AcDbSymbolTableRecord
100
AcDbDimStyleTableRecord
  2
ISO-25
 70
     0
 41
2.5
 42
0.625
 43
3.75
 44
1.25
 73
     0
 74
     0
 77
     1
 78
     8
140
2.5
141
2.5
143
0.03937007874016
147
0.625
171
     3
172
     1
178
     0
271
     2
272
     2
274
     3
278
    44
283
     0
284
     8
340
11
  0
ENDTAB
  0
TABLE
  2
BLOCK_RECORD
  5
1
330
0
100
AcDbSymbolTable
 70
     1
  0
BLOCK_RECORD
  5
1F
330
1
100
AcDbSymbolTableRecord
100
AcDbBlockTableRecord
  2
*Model_Space
340
22
  0
BLOCK_RECORD
  5
1B
330
1
100
AcDbSymbolTableRecord
100
AcDbBlockTableRecord
  2
*Paper_Space
340
1E
  0
BLOCK_RECORD
  5
23
330
1
100
AcDbSymbolTableRecord
100
AcDbBlockTableRecord
  2
*Paper_Space0
340
26
  0
ENDTAB
  0
ENDSEC
  0
SECTION
  2
BLOCKS
  0
BLOCK
  5
20
330
1F
100
AcDbEntity
  8
0
100
AcDbBlockBegin
  2
*Model_Space
 70
     0
 10
0.0
 20
0.0
 30
0.0
  3
*Model_Space
  1

  0
ENDBLK
  5
21
330
1F
100
AcDbEntity
  8
0
100
AcDbBlockEnd
  0
BLOCK
  5
1C
330
1B
100
AcDbEntity
 67
     1
  8
0
100
AcDbBlockBegin
  2
*Paper_Space
 70
     0
 10
0.0
 20
0.0
 30
0.0
  3
*Paper_Space
  1

  0
ENDBLK
  5
1D
330
1B
100
AcDbEntity
 67
     1
  8
0
100
AcDbBlockEnd
  0
BLOCK
  5
24
330
23
100
AcDbEntity
  8
0
100
AcDbBlockBegin
  2
*Paper_Space0
 70
     0
 10
0.0
 20
0.0
 30
0.0
  3
*Paper_Space0
  1

  0
ENDBLK
  5
25
330
23
100
AcDbEntity
  8
0
100
AcDbBlockEnd
  0
ENDSEC
  0
SECTION
  2
ENTITIES
  0
TEXT
  5
7B
330
1F
100
AcDbEntity
  8
F-5ﾚｲﾔ
  6
Continuous
 62
     2
370
     9
100
AcDbText
 10
-536.700210323849
 20
-819.3979720143182
 30
0.0
 40
18.288
  1
スチール製グレーチング　枠付正方形型　滑り止め模様付　集水桝用　ＨＸＣ　４４４４
 41
0.7743749999999998
  7
ＭＳ ゴシック
100
AcDbText
  0
LINE
  5
7C
330
1F
100
AcDbEntity
  8
D-0_通り芯
  6
Continuous
 62
     3
370
     9
100
AcDbLine
 10
-402.2640237270522
 20
-549.620931175977
 30
0.0
 11
-642.2640237270522
 21
-549.620931175977
 31
0.0
  0
LINE
  5
7D
330
1F
100
AcDbEntity
  8
D-0_通り芯
  6
Continuous
 62
     3
370
     9
100
AcDbLine
 10
-327.2641227029809
 20
-549.620931175977
 30
0.0
 11
-342.2640237270522
 21
-549.620931175977
 31
0.0
  0
LINE
  5
7E
330
1F
100
AcDbEntity
  8
D-4_寸法
  6
Continuous
 62
     7
370
     9
100
AcDbLine
 10
-270.2641227029809
 20
-549.620931175977
 30
0.0
 11
-272.2220155862817
 21
-534.7492582553698
 31
0.0
  0
LINE
  5
7F
330
1F
100
AcDbEntity
  8
D-4_寸法
  6
Continuous
 62
     7
370
     9
100
AcDbLine
 10
-270.2641227029809
 20
-549.620931175977
 30
0.0
 11
-268.3062298196801
 21
-534.7492582553698
 31
0.0
  0
LINE
  5
80
330
1F
100
AcDbEntity
  8
D-4_寸法
  6
Continuous
 62
     7
370
     9
100
AcDbLine
 10
-268.4641227029808
 20
-549.620931175977
 30
0.0
 11
-315.2641227029809
 21
-549.620931175977
 31
0.0
  0
LINE
  5
81
330
1F
100
AcDbEntity
  8
D-0_通り芯
  6
Continuous
 62
     7
370
     9
100
AcDbLine
 10
-721.2564157773056
 20
-609.620931175977
 30
0.0
 11
-721.2564157773056
 21
-649.4916521166442
 31
0.0
  0
LINE
  5
82
330
1F
100
AcDbEntity
  8
D-0_通り芯
  6
Continuous
 62
     7
370
     9
100
AcDbLine
 10
-721.2564157773056
 20
-649.4916521166442
 30
0.0
 11
-218.2717306527278
 21
-649.4916521166442
 31
0.0
  0
LINE
  5
83
330
1F
100
AcDbEntity
  8
D-0_通り芯
  6
Continuous
 62
     7
370
     9
100
AcDbLine
 10
-218.2717306527278
 20
-649.4916521166442
 30
0.0
 11
-218.2717306527278
 21
-609.620931175977
 31
0.0
  0
LINE
  5
84
330
1F
100
AcDbEntity
  8
D-0_通り芯
  6
Continuous
 62
     7
370
     9
100
AcDbLine
 10
-218.2717306527278
 20
-609.620931175977
 30
0.0
 11
-721.2564157773056
 21
-609.620931175977
 31
0.0
  0
LINE
  5
85
330
1F
100
AcDbEntity
  8
D-0_通り芯
  6
Continuous
 62
     3
370
     9
100
AcDbLine
 10
-638.137872608674
 20
-417.6206837361542
 30
0.0
 11
-636.637872608674
 21
-413.1210400494989
 31
0.0
  0
LINE
  5
86
330
1F
100
AcDbEntity
  8
D-0_通り芯
  6
Continuous
 62
     3
370
     9
100
AcDbLine
 10
-616.9278726086742
 20
-413.1210400494989
 30
0.0
 11
-615.4278726086742
 21
-417.6206837361542
 31
0.0
  0
LINE
  5
87
330
1F
100
AcDbEntity
  8
D-0_通り芯
  6
Continuous
 62
     3
370
     9
100
AcDbLine
 10
-616.9278726086742
 20
-413.1210400494989
 30
0.0
 11
-636.637872608674
 21
-413.1210400494989
 31
0.0
  0
LINE
  5
88
330
1F
100
AcDbEntity
  8
D-0_通り芯
  6
Continuous
 62
     3
370
     9
100
AcDbLine
 10
-638.137872608674
 20
-417.6206837361542
 30
0.0
 11
-642.2640237270522
 21
-417.6206837361542
 31
0.0
  0
LINE
  5
89
330
1F
100
AcDbEntity
  8
D-0_通り芯
  6
Continuous
 62
     3
370
     9
100
AcDbLine
 10
-585.2982563148003
 20
-413.1210400494989
 30
0.0
 11
-583.7982563148003
 21
-417.6206837361542
 31
0.0
  0
LINE
  5
8A
330
1F
100
AcDbEntity
  8
D-0_通り芯
  6
Continuous
 62
     3
370
     9
100
AcDbLine
 10
-600.0882563148001
 20
-417.6206837361542
 30
0.0
 11
-598.5882563148001
 21
-413.1210400494989
 31
0.0
  0
LINE
  5
8B
330
1F
100
AcDbEntity
  8
D-0_通り芯
  6
Continuous
 62
     3
370
     9
100
AcDbLine
 10
-600.0882563148001
 20
-417.6206837361542
 30
0.0
 11
-615.4278726086742
 21
-417.6206837361542
 31
0.0
  0
LINE
  5
8C
330
1F
100
AcDbEntity
  8
D-0_通り芯
  6
Continuous
 62
     3
370
     9
100
AcDbLine
 10
-568.4586400209262
 20
-417.6206837361542
 30
0.0
 11
-566.9586400209262
 21
-413.1210400494989
 31
0.0
  0
LINE
  5
8D
330
1F
100
AcDbEntity
  8
D-0_通り芯
  6
Continuous
 62
     3
370
     9
100
AcDbLine
 10
-545.748640020926
 20
-417.6206837361542
 30
0.0
 11
-547.248640020926
 21
-413.1210400494989
 31
0.0
  0
LINE
  5
8E
330
1F
100
AcDbEntity
  8
D-0_通り芯
  6
Continuous
 62
     3
370
     9
100
AcDbLine
 10
-585.2982563148003
 20
-413.1210400494989
 30
0.0
 11
-598.5882563148001
 21
-413.1210400494989
 31
0.0
  0
LINE
  5
8F
330
1F
100
AcDbEntity
  8
D-0_通り芯
  6
Continuous
 62
     3
370
     9
100
AcDbLine
 10
-568.4586400209262
 20
-417.6206837361542
 30
0.0
 11
-583.7982563148003
 21
-417.6206837361542
 31
0.0
  0
LINE
  5
90
330
1F
100
AcDbEntity
  8
D-0_通り芯
  6
Continuous
 62
     3
370
     9
100
AcDbLine
 10
-515.6190237270521
 20
-413.1210400494989
 30
0.0
 11
-514.1190237270521
 21
-417.6206837361542
 31
0.0
  0
LINE
  5
91
330
1F
100
AcDbEntity
  8
D-0_通り芯
  6
Continuous
 62
     3
370
     9
100
AcDbLine
 10
-530.4090237270523
 20
-417.6206837361542
 30
0.0
 11
-528.9090237270523
 21
-413.1210400494989
 31
0.0
  0
LINE
  5
92
330
1F
100
AcDbEntity
  8
D-0_通り芯
  6
Continuous
 62
     3
370
     9
100
AcDbLine
 10
-530.4090237270523
 20
-417.6206837361542
 30
0.0
 11
-545.748640020926
 21
-417.6206837361542
 31
0.0
  0
LINE
  5
93
330
1F
100
AcDbEntity
  8
D-0_通り芯
  6
Continuous
 62
     3
370
     9
100
AcDbLine
 10
-498.7794074331783
 20
-417.6206837361542
 30
0.0
 11
-497.2794074331783
 21
-413.1210400494989
 31
0.0
  0
LINE
  5
94
330
1F
100
AcDbEntity
  8
D-0_通り芯
  6
Continuous
 62
     3
370
     9
100
AcDbLine
 10
-476.0694074331782
 20
-417.6206837361542
 30
0.0
 11
-477.5694074331782
 21
-413.1210400494989
 31
0.0
  0
LINE
  5
95
330
1F
100
AcDbEntity
  8
D-0_通り芯
  6
Continuous
 62
     3
370
     9
100
AcDbLine
 10
-515.6190237270521
 20
-413.1210400494989
 30
0.0
 11
-528.9090237270523
 21
-413.1210400494989
 31
0.0
  0
LINE
  5
96
330
1F
100
AcDbEntity
  8
D-0_通り芯
  6
Continuous
 62
     3
370
     9
100
AcDbLine
 10
-498.7794074331783
 20
-417.6206837361542
 30
0.0
 11
-514.1190237270521
 21
-417.6206837361542
 31
0.0
  0
LINE
  5
97
330
1F
100
AcDbEntity
  8
D-0_通り芯
  6
Continuous
 62
     3
370
     9
100
AcDbLine
 10
-445.9397911393042
 20
-413.1210400494989
 30
0.0
 11
-444.4397911393042
 21
-417.6206837361542
 31
0.0
  0
LINE
  5
98
330
1F
100
AcDbEntity
  8
D-0_通り芯
  6
Continuous
 62
     3
370
     9
100
AcDbLine
 10
-460.7297911393041
 20
-417.6206837361542
 30
0.0
 11
-459.2297911393041
 21
-413.1210400494989
 31
0.0
  0
LINE
  5
99
330
1F
100
AcDbEntity
  8
D-0_通り芯
  6
Continuous
 62
     3
370
     9
100
AcDbLine
 10
-460.7297911393041
 20
-417.6206837361542
 30
0.0
 11
-476.0694074331782
 21
-417.6206837361542
 31
0.0
  0
LINE
  5
9A
330
1F
100
AcDbEntity
  8
D-0_通り芯
  6
Continuous
 62
     3
370
     9
100
AcDbLine
 10
-429.1001748454302
 20
-417.6206837361542
 30
0.0
 11
-427.6001748454302
 21
-413.1210400494989
 31
0.0
  0
LINE
  5
9B
330
1F
100
AcDbEntity
  8
D-0_通り芯
  6
Continuous
 62
     3
370
     9
100
AcDbLine
 10
-406.3901748454304
 20
-417.6206837361542
 30
0.0
 11
-407.8901748454304
 21
-413.1210400494989
 31
0.0
  0
LINE
  5
9C
330
1F
100
AcDbEntity
  8
D-0_通り芯
  6
Continuous
 62
     3
370
     9
100
AcDbLine
 10
-445.9397911393042
 20
-413.1210400494989
 30
0.0
 11
-459.2297911393041
 21
-413.1210400494989
 31
0.0
  0
LINE
  5
9D
330
1F
100
AcDbEntity
  8
D-0_通り芯
  6
Continuous
 62
     3
370
     9
100
AcDbLine
 10
-429.1001748454302
 20
-417.6206837361542
 30
0.0
 11
-444.4397911393042
 21
-417.6206837361542
 31
0.0
  0
LINE
  5
9E
330
1F
100
AcDbEntity
  8
D-0_通り芯
  6
Continuous
 62
     3
370
     9
100
AcDbLine
 10
-547.248640020926
 20
-413.1210400494989
 30
0.0
 11
-566.9586400209262
 21
-413.1210400494989
 31
0.0
  0
LINE
  5
9F
330
1F
100
AcDbEntity
  8
D-0_通り芯
  6
Continuous
 62
     3
370
     9
100
AcDbLine
 10
-402.2640237270522
 20
-417.6206837361542
 30
0.0
 11
-406.3901748454304
 21
-417.6206837361542
 31
0.0
  0
LINE
  5
A0
330
1F
100
AcDbEntity
  8
D-0_通り芯
  6
Continuous
 62
     3
370
     9
100
AcDbLine
 10
-497.2794074331783
 20
-413.1210400494989
 30
0.0
 11
-477.5694074331782
 21
-413.1210400494989
 31
0.0
  0
LINE
  5
A1
330
1F
100
AcDbEntity
  8
D-0_通り芯
  6
Continuous
 62
     3
370
     9
100
AcDbLine
 10
-427.6001748454302
 20
-413.1210400494989
 30
0.0
 11
-407.8901748454304
 21
-413.1210400494989
 31
0.0
  0
LINE
  5
A2
330
1F
100
AcDbEntity
  8
D-0_通り芯
  6
Continuous
 62
     3
370
     9
100
AcDbLine
 10
-342.2640237270522
 20
-417.6206837361542
 30
0.0
 11
-327.2641227029809
 21
-417.6206837361542
 31
0.0
  0
LINE
  5
A3
330
1F
100
AcDbEntity
  8
D-0_通り芯
  6
Continuous
 62
     3
370
     9
100
AcDbLine
 10
-342.2640237270522
 20
-413.1210400494989
 30
0.0
 11
-327.2641227029809
 21
-413.1210400494989
 31
0.0
  0
LINE
  5
A4
330
1F
100
AcDbEntity
  8
D-0_通り芯
  6
Continuous
 62
     3
370
     9
100
AcDbLine
 10
-342.2640237270522
 20
-413.1210400494989
 30
0.0
 11
-342.2640237270522
 21
-417.6206837361542
 31
0.0
  0
LINE
  5
A5
330
1F
100
AcDbEntity
  8
D-0_通り芯
  6
Continuous
 62
     3
370
     9
100
AcDbLine
 10
-327.2641227029809
 20
-413.1210400494989
 30
0.0
 11
-327.2641227029809
 21
-417.6206837361542
 31
0.0
  0
LINE
  5
A6
330
1F
100
AcDbEntity
  8
D-0_通り芯
  6
Continuous
 62
     3
370
     9
100
AcDbLine
 10
-638.137872608674
 20
-353.1210400494989
 30
0.0
 11
-634.9278726086742
 21
-338.1208420976408
 31
0.0
  0
LINE
  5
A7
330
1F
100
AcDbEntity
  8
D-0_通り芯
  6
Continuous
 62
     3
370
     9
100
AcDbLine
 10
-618.637872608674
 20
-338.1208420976408
 30
0.0
 11
-615.4278726086742
 21
-353.1210400494989
 31
0.0
  0
LINE
  5
A8
330
1F
100
AcDbEntity
  8
D-0_通り芯
  6
Continuous
 62
     3
370
     9
100
AcDbLine
 10
-636.637872608674
 20
-353.1210400494989
 30
0.0
 11
-633.4278726086742
 21
-338.1208420976408
 31
0.0
  0
LINE
  5
A9
330
1F
100
AcDbEntity
  8
D-0_通り芯
  6
Continuous
 62
     3
370
     9
100
AcDbLine
 10
-620.137872608674
 20
-338.1208420976408
 30
0.0
 11
-616.9278726086742
 21
-353.1210400494989
 31
0.0
  0
LINE
  5
AA
330
1F
100
AcDbEntity
  8
D-0_通り芯
  6
Continuous
 62
     3
370
     9
100
AcDbLine
 10
-580.5882563148001
 20
-338.1208420976408
 30
0.0
 11
-583.7982563148003
 21
-353.1210400494989
 31
0.0
  0
LINE
  5
AB
330
1F
100
AcDbEntity
  8
D-0_通り芯
  6
Continuous
 62
     3
370
     9
100
AcDbLine
 10
-600.0882563148001
 20
-353.1210400494989
 30
0.0
 11
-603.2982563148003
 21
-338.1208420976408
 31
0.0
  0
LINE
  5
AC
330
1F
100
AcDbEntity
  8
D-0_通り芯
  6
Continuous
 62
     3
370
     9
100
AcDbLine
 10
-582.0882563148001
 20
-338.1208420976408
 30
0.0
 11
-585.2982563148003
 21
-353.1210400494989
 31
0.0
  0
LINE
  5
AD
330
1F
100
AcDbEntity
  8
D-0_通り芯
  6
Continuous
 62
     3
370
     9
100
AcDbLine
 10
-598.5882563148001
 20
-353.1210400494989
 30
0.0
 11
-601.7982563148003
 21
-338.1208420976408
 31
0.0
  0
LINE
  5
AE
330
1F
100
AcDbEntity
  8
D-0_通り芯
  6
Continuous
 62
     3
370
     9
100
AcDbLine
 10
-568.4586400209262
 20
-353.1210400494989
 30
0.0
 11
-565.248640020926
 21
-338.1208420976408
 31
0.0
  0
LINE
  5
AF
330
1F
100
AcDbEntity
  8
D-0_通り芯
  6
Continuous
 62
     3
370
     9
100
AcDbLine
 10
-548.9586400209262
 20
-338.1208420976408
 30
0.0
 11
-545.748640020926
 21
-353.1210400494989
 31
0.0
  0
LINE
  5
B0
330
1F
100
AcDbEntity
  8
D-0_通り芯
  6
Continuous
 62
     3
370
     9
100
AcDbLine
 10
-566.9586400209262
 20
-353.1210400494989
 30
0.0
 11
-563.748640020926
 21
-338.1208420976408
 31
0.0
  0
LINE
  5
B1
330
1F
100
AcDbEntity
  8
D-0_通り芯
  6
Continuous
 62
     3
370
     9
100
AcDbLine
 10
-550.4586400209262
 20
-338.1208420976408
 30
0.0
 11
-547.248640020926
 21
-353.1210400494989
 31
0.0
  0
LINE
  5
B2
330
1F
100
AcDbEntity
  8
D-0_通り芯
  6
Continuous
 62
     3
370
     9
100
AcDbLine
 10
-510.9090237270523
 20
-338.1208420976408
 30
0.0
 11
-514.1190237270521
 21
-353.1210400494989
 31
0.0
  0
LINE
  5
B3
330
1F
100
AcDbEntity
  8
D-0_通り芯
  6
Continuous
 62
     3
370
     9
100
AcDbLine
 10
-530.4090237270523
 20
-353.1210400494989
 30
0.0
 11
-533.6190237270521
 21
-338.1208420976408
 31
0.0
  0
LINE
  5
B4
330
1F
100
AcDbEntity
  8
D-0_通り芯
  6
Continuous
 62
     3
370
     9
100
AcDbLine
 10
-512.4090237270523
 20
-338.1208420976408
 30
0.0
 11
-515.6190237270521
 21
-353.1210400494989
 31
0.0
  0
LINE
  5
B5
330
1F
100
AcDbEntity
  8
D-0_通り芯
  6
Continuous
 62
     3
370
     9
100
AcDbLine
 10
-528.9090237270523
 20
-353.1210400494989
 30
0.0
 11
-532.1190237270521
 21
-338.1208420976408
 31
0.0
  0
LINE
  5
B6
330
1F
100
AcDbEntity
  8
D-0_通り芯
  6
Continuous
 62
     3
370
     9
100
AcDbLine
 10
-498.7794074331783
 20
-353.1210400494989
 30
0.0
 11
-495.5694074331782
 21
-338.1208420976408
 31
0.0
  0
LINE
  5
B7
330
1F
100
AcDbEntity
  8
D-0_通り芯
  6
Continuous
 62
     3
370
     9
100
AcDbLine
 10
-479.2794074331783
 20
-338.1208420976408
 30
0.0
 11
-476.0694074331782
 21
-353.1210400494989
 31
0.0
  0
LINE
  5
B8
330
1F
100
AcDbEntity
  8
D-0_通り芯
  6
Continuous
 62
     3
370
     9
100
AcDbLine
 10
-497.2794074331783
 20
-353.1210400494989
 30
0.0
 11
-494.0694074331782
 21
-338.1208420976408
 31
0.0
  0
LINE
  5
B9
330
1F
100
AcDbEntity
  8
D-0_通り芯
  6
Continuous
 62
     3
370
     9
100
AcDbLine
 10
-480.7794074331783
 20
-338.1208420976408
 30
0.0
 11
-477.5694074331782
 21
-353.1210400494989
 31
0.0
  0
LINE
  5
BA
330
1F
100
AcDbEntity
  8
D-0_通り芯
  6
Continuous
 62
     3
370
     9
100
AcDbLine
 10
-441.2297911393041
 20
-338.1208420976408
 30
0.0
 11
-444.4397911393042
 21
-353.1210400494989
 31
0.0
  0
LINE
  5
BB
330
1F
100
AcDbEntity
  8
D-0_通り芯
  6
Continuous
 62
     3
370
     9
100
AcDbLine
 10
-460.7297911393041
 20
-353.1210400494989
 30
0.0
 11
-463.9397911393042
 21
-338.1208420976408
 31
0.0
  0
LINE
  5
BC
330
1F
100
AcDbEntity
  8
D-0_通り芯
  6
Continuous
 62
     3
370
     9
100
AcDbLine
 10
-442.7297911393041
 20
-338.1208420976408
 30
0.0
 11
-445.9397911393042
 21
-353.1210400494989
 31
0.0
  0
LINE
  5
BD
330
1F
100
AcDbEntity
  8
D-0_通り芯
  6
Continuous
 62
     3
370
     9
100
AcDbLine
 10
-459.2297911393041
 20
-353.1210400494989
 30
0.0
 11
-462.4397911393042
 21
-338.1208420976408
 31
0.0
  0
LINE
  5
BE
330
1F
100
AcDbEntity
  8
D-0_通り芯
  6
Continuous
 62
     3
370
     9
100
AcDbLine
 10
-429.1001748454302
 20
-353.1210400494989
 30
0.0
 11
-425.8901748454304
 21
-338.1208420976408
 31
0.0
  0
LINE
  5
BF
330
1F
100
AcDbEntity
  8
D-0_通り芯
  6
Continuous
 62
     3
370
     9
100
AcDbLine
 10
-409.6001748454302
 20
-338.1208420976408
 30
0.0
 11
-406.3901748454304
 21
-353.1210400494989
 31
0.0
  0
LINE
  5
C0
330
1F
100
AcDbEntity
  8
D-0_通り芯
  6
Continuous
 62
     3
370
     9
100
AcDbLine
 10
-427.6001748454302
 20
-353.1210400494989
 30
0.0
 11
-424.3901748454304
 21
-338.1208420976408
 31
0.0
  0
LINE
  5
C1
330
1F
100
AcDbEntity
  8
D-0_通り芯
  6
Continuous
 62
     3
370
     9
100
AcDbLine
 10
-411.1001748454302
 20
-338.1208420976408
 30
0.0
 11
-407.8901748454304
 21
-353.1210400494989
 31
0.0
  0
LINE
  5
C2
330
1F
100
AcDbEntity
  8
D-0_通り芯
  6
Continuous
 62
     3
370
     9
100
AcDbLine
 10
-569.4170848149962
 20
-353.1210400494972
 30
0.0
 11
-568.197693783933
 21
-351.901649018434
 31
0.0
  0
LINE
  5
C3
330
1F
100
AcDbEntity
  8
D-0_通り芯
  6
Continuous
 62
     3
370
     9
100
AcDbLine
 10
-573.6597255021162
 20
-353.1210400494972
 30
0.0
 11
-567.04259217654
 21
-346.5039067239209
 31
0.0
  0
LINE
  5
C4
330
1F
100
AcDbEntity
  8
D-0_通り芯
  6
Continuous
 62
     3
370
     9
100
AcDbLine
 10
-577.9023661892365
 20
-353.1210400494972
 30
0.0
 11
-565.887490569147
 21
-341.1061644294076
 31
0.0
  0
LINE
  5
C5
330
1F
100
AcDbEntity
  8
D-0_通り芯
  6
Continuous
 62
     3
370
     9
100
AcDbLine
 10
-582.1450068763565
 20
-353.1210400494974
 30
0.0
 11
-567.1448089245008
 21
-338.1208420976417
 31
0.0
  0
LINE
  5
C6
330
1F
100
AcDbEntity
  8
D-0_通り芯
  6
Continuous
 62
     3
370
     9
100
AcDbLine
 10
-583.093268498466
 20
-349.826660984487
 30
0.0
 11
-571.3874496116198
 21
-338.1208420976408
 31
0.0
  0
LINE
  5
C7
330
1F
100
AcDbEntity
  8
D-0_通り芯
  6
Continuous
 62
     3
370
     9
100
AcDbLine
 10
-581.9381668910747
 20
-344.4289186899756
 30
0.0
 11
-575.6300902987391
 21
-338.1208420976401
 31
0.0
  0
LINE
  5
C8
330
1F
100
AcDbEntity
  8
D-0_通り芯
  6
Continuous
 62
     3
370
     9
100
AcDbLine
 10
-580.7830652836786
 20
-339.0311763954596
 30
0.0
 11
-579.8727309858615
 21
-338.1208420976424
 31
0.0
  0
LINE
  5
C9
330
1F
100
AcDbEntity
  8
D-0_通り芯
  6
Continuous
 62
     3
370
     9
100
AcDbLine
 10
-603.3582103119559
 20
-353.1210400494969
 30
0.0
 11
-600.6646669808811
 21
-350.4274967184219
 31
0.0
  0
LINE
  5
CA
330
1F
100
AcDbEntity
  8
D-0_通り芯
  6
Continuous
 62
     3
370
     9
100
AcDbLine
 10
-607.6008509990633
 20
-353.1210400494952
 30
0.0
 11
-601.4125378520065
 21
-346.9327269024384
 31
0.0
  0
LINE
  5
CB
330
1F
100
AcDbEntity
  8
D-0_通り芯
  6
Continuous
 62
     3
370
     9
100
AcDbLine
 10
-611.8434916861826
 20
-353.1210400494944
 30
0.0
 11
-602.1604087231336
 21
-343.4379570864455
 31
0.0
  0
LINE
  5
CC
330
1F
100
AcDbEntity
  8
D-0_通り芯
  6
Continuous
 62
     3
370
     9
100
AcDbLine
 10
-615.5439072531125
 20
-352.5788149293044
 30
0.0
 11
-602.9082795942608
 21
-339.9431872704527
 31
0.0
  0
LINE
  5
CD
330
1F
100
AcDbEntity
  8
D-0_通り芯
  6
Continuous
 62
     3
370
     9
100
AcDbLine
 10
-616.2917781242396
 20
-349.0840451133115
 30
0.0
 11
-605.3285751085675
 21
-338.1208420976393
 31
0.0
  0
LINE
  5
CE
330
1F
100
AcDbEntity
  8
D-0_通り芯
  6
Continuous
 62
     3
370
     9
100
AcDbLine
 10
-617.0396489953657
 20
-345.5892752973176
 30
0.0
 11
-609.5712157956875
 21
-338.1208420976394
 31
0.0
  0
LINE
  5
CF
330
1F
100
AcDbEntity
  8
D-0_通り芯
  6
Continuous
 62
     3
370
     9
100
AcDbLine
 10
-617.7875198664932
 20
-342.0945054813251
 30
0.0
 11
-613.8138564828085
 21
-338.1208420976404
 31
0.0
  0
LINE
  5
D0
330
1F
100
AcDbEntity
  8
D-0_通り芯
  6
Continuous
 62
     3
370
     9
100
AcDbLine
 10
-618.535390737621
 20
-338.5997356653326
 30
0.0
 11
-618.0564971699279
 21
-338.1208420976398
 31
0.0
  0
LINE
  5
D1
330
1F
100
AcDbEntity
  8
D-0_通り芯
  6
Continuous
 62
     3
370
     9
100
AcDbLine
 10
-499.737852227248
 20
-353.1210400494972
 30
0.0
 11
-498.5184611961852
 21
-351.901649018434
 31
0.0
  0
LINE
  5
D2
330
1F
100
AcDbEntity
  8
D-0_通り芯
  6
Continuous
 62
     3
370
     9
100
AcDbLine
 10
-503.9804929143684
 20
-353.1210400494972
 30
0.0
 11
-497.3633595887918
 21
-346.5039067239209
 31
0.0
  0
LINE
  5
D3
330
1F
100
AcDbEntity
  8
D-0_通り芯
  6
Continuous
 62
     3
370
     9
100
AcDbLine
 10
-508.2231336014884
 20
-353.1210400494972
 30
0.0
 11
-496.2082579813988
 21
-341.1061644294076
 31
0.0
  0
LINE
  5
D4
330
1F
100
AcDbEntity
  8
D-0_通り芯
  6
Continuous
 62
     3
370
     9
100
AcDbLine
 10
-512.4657742886084
 20
-353.1210400494974
 30
0.0
 11
-497.4655763367526
 21
-338.1208420976417
 31
0.0
  0
LINE
  5
D5
330
1F
100
AcDbEntity
  8
D-0_通り芯
  6
Continuous
 62
     3
370
     9
100
AcDbLine
 10
-513.4140359107179
 20
-349.826660984487
 30
0.0
 11
-501.708217023872
 21
-338.1208420976408
 31
0.0
  0
LINE
  5
D6
330
1F
100
AcDbEntity
  8
D-0_通り芯
  6
Continuous
 62
     3
370
     9
100
AcDbLine
 10
-512.2589343033266
 20
-344.4289186899756
 30
0.0
 11
-505.9508577109913
 21
-338.1208420976401
 31
0.0
  0
LINE
  5
D7
330
1F
100
AcDbEntity
  8
D-0_通り芯
  6
Continuous
 62
     3
370
     9
100
AcDbLine
 10
-511.1038326959308
 20
-339.0311763954596
 30
0.0
 11
-510.1934983981133
 21
-338.1208420976424
 31
0.0
  0
LINE
  5
D8
330
1F
100
AcDbEntity
  8
D-0_通り芯
  6
Continuous
 62
     3
370
     9
100
AcDbLine
 10
-533.678977724208
 20
-353.1210400494969
 30
0.0
 11
-530.9854343931329
 21
-350.4274967184219
 31
0.0
  0
LINE
  5
D9
330
1F
100
AcDbEntity
  8
D-0_通り芯
  6
Continuous
 62
     3
370
     9
100
AcDbLine
 10
-537.9216184113151
 20
-353.1210400494952
 30
0.0
 11
-531.7333052642587
 21
-346.9327269024384
 31
0.0
  0
LINE
  5
DA
330
1F
100
AcDbEntity
  8
D-0_通り芯
  6
Continuous
 62
     3
370
     9
100
AcDbLine
 10
-542.1642590984344
 20
-353.1210400494944
 30
0.0
 11
-532.4811761353858
 21
-343.4379570864455
 31
0.0
  0
LINE
  5
DB
330
1F
100
AcDbEntity
  8
D-0_通り芯
  6
Continuous
 62
     3
370
     9
100
AcDbLine
 10
-545.8646746653646
 20
-352.5788149293044
 30
0.0
 11
-533.2290470065129
 21
-339.9431872704527
 31
0.0
  0
LINE
  5
DC
330
1F
100
AcDbEntity
  8
D-0_通り芯
  6
Continuous
 62
     3
370
     9
100
AcDbLine
 10
-546.6125455364914
 20
-349.0840451133115
 30
0.0
 11
-535.6493425208193
 21
-338.1208420976393
 31
0.0
  0
LINE
  5
DD
330
1F
100
AcDbEntity
  8
D-0_通り芯
  6
Continuous
 62
     3
370
     9
100
AcDbLine
 10
-547.3604164076179
 20
-345.5892752973176
 30
0.0
 11
-539.8919832079397
 21
-338.1208420976394
 31
0.0
  0
LINE
  5
DE
330
1F
100
AcDbEntity
  8
D-0_通り芯
  6
Continuous
 62
     3
370
     9
100
AcDbLine
 10
-548.1082872787454
 20
-342.0945054813251
 30
0.0
 11
-544.1346238950604
 21
-338.1208420976404
 31
0.0
  0
LINE
  5
DF
330
1F
100
AcDbEntity
  8
D-0_通り芯
  6
Continuous
 62
     3
370
     9
100
AcDbLine
 10
-548.8561581498728
 20
-338.5997356653326
 30
0.0
 11
-548.3772645821797
 21
-338.1208420976398
 31
0.0
  0
LINE
  5
E0
330
1F
100
AcDbEntity
  8
D-0_通り芯
  6
Continuous
 62
     3
370
     9
100
AcDbLine
 10
-430.0586196395002
 20
-353.1210400494972
 30
0.0
 11
-428.839228608437
 21
-351.901649018434
 31
0.0
  0
LINE
  5
E1
330
1F
100
AcDbEntity
  8
D-0_通り芯
  6
Continuous
 62
     3
370
     9
100
AcDbLine
 10
-434.3012603266202
 20
-353.1210400494972
 30
0.0
 11
-427.684127001044
 21
-346.5039067239209
 31
0.0
  0
LINE
  5
E2
330
1F
100
AcDbEntity
  8
D-0_通り芯
  6
Continuous
 62
     3
370
     9
100
AcDbLine
 10
-438.5439010137405
 20
-353.1210400494972
 30
0.0
 11
-426.5290253936506
 21
-341.1061644294076
 31
0.0
  0
LINE
  5
E3
330
1F
100
AcDbEntity
  8
D-0_通り芯
  6
Continuous
 62
     3
370
     9
100
AcDbLine
 10
-442.7865417008605
 20
-353.1210400494974
 30
0.0
 11
-427.7863437490048
 21
-338.1208420976417
 31
0.0
  0
LINE
  5
E4
330
1F
100
AcDbEntity
  8
D-0_通り芯
  6
Continuous
 62
     3
370
     9
100
AcDbLine
 10
-443.73480332297
 20
-349.826660984487
 30
0.0
 11
-432.0289844361238
 21
-338.1208420976408
 31
0.0
  0
LINE
  5
E5
330
1F
100
AcDbEntity
  8
D-0_通り芯
  6
Continuous
 62
     3
370
     9
100
AcDbLine
 10
-442.5797017155787
 20
-344.4289186899756
 30
0.0
 11
-436.2716251232431
 21
-338.1208420976401
 31
0.0
  0
LINE
  5
E6
330
1F
100
AcDbEntity
  8
D-0_通り芯
  6
Continuous
 62
     3
370
     9
100
AcDbLine
 10
-441.4246001081826
 20
-339.0311763954596
 30
0.0
 11
-440.5142658103655
 21
-338.1208420976424
 31
0.0
  0
LINE
  5
E7
330
1F
100
AcDbEntity
  8
D-0_通り芯
  6
Continuous
 62
     3
370
     9
100
AcDbLine
 10
-463.9997451364599
 20
-353.1210400494969
 30
0.0
 11
-461.3062018053851
 21
-350.4274967184219
 31
0.0
  0
LINE
  5
E8
330
1F
100
AcDbEntity
  8
D-0_通り芯
  6
Continuous
 62
     3
370
     9
100
AcDbLine
 10
-468.2423858235672
 20
-353.1210400494952
 30
0.0
 11
-462.0540726765108
 21
-346.9327269024384
 31
0.0
  0
LINE
  5
E9
330
1F
100
AcDbEntity
  8
D-0_通り芯
  6
Continuous
 62
     3
370
     9
100
AcDbLine
 10
-472.4850265106866
 20
-353.1210400494944
 30
0.0
 11
-462.8019435476376
 21
-343.4379570864455
 31
0.0
  0
LINE
  5
EA
330
1F
100
AcDbEntity
  8
D-0_通り芯
  6
Continuous
 62
     3
370
     9
100
AcDbLine
 10
-476.1854420776165
 20
-352.5788149293044
 30
0.0
 11
-463.5498144187651
 21
-339.9431872704527
 31
0.0
  0
LINE
  5
EB
330
1F
100
AcDbEntity
  8
D-0_通り芯
  6
Continuous
 62
     3
370
     9
100
AcDbLine
 10
-476.9333129487436
 20
-349.0840451133115
 30
0.0
 11
-465.9701099330715
 21
-338.1208420976393
 31
0.0
  0
LINE
  5
EC
330
1F
100
AcDbEntity
  8
D-0_通り芯
  6
Continuous
 62
     3
370
     9
100
AcDbLine
 10
-477.6811838198697
 20
-345.5892752973176
 30
0.0
 11
-470.2127506201915
 21
-338.1208420976394
 31
0.0
  0
LINE
  5
ED
330
1F
100
AcDbEntity
  8
D-0_通り芯
  6
Continuous
 62
     3
370
     9
100
AcDbLine
 10
-478.4290546909975
 20
-342.0945054813251
 30
0.0
 11
-474.4553913073125
 21
-338.1208420976404
 31
0.0
  0
LINE
  5
EE
330
1F
100
AcDbEntity
  8
D-0_通り芯
  6
Continuous
 62
     3
370
     9
100
AcDbLine
 10
-479.1769255621247
 20
-338.5997356653326
 30
0.0
 11
-478.6980319944319
 21
-338.1208420976398
 31
0.0
  0
LINE
  5
EF
330
1F
100
AcDbEntity
  8
D-0_通り芯
  6
Continuous
 62
     3
370
     9
100
AcDbLine
 10
-408.7498221032494
 20
-342.0945054813251
 30
0.0
 11
-404.7761587195647
 21
-338.1208420976404
 31
0.0
  0
LINE
  5
F0
330
1F
100
AcDbEntity
  8
D-0_通り芯
  6
Continuous
 62
     3
370
     9
100
AcDbLine
 10
-409.4976929743768
 20
-338.5997356653326
 30
0.0
 11
-409.018799406684
 21
-338.1208420976398
 31
0.0
  0
LINE
  5
F1
330
1F
100
AcDbEntity
  8
D-0_通り芯
  6
Continuous
 62
     3
370
     9
100
AcDbLine
 10
-639.0963174027423
 20
-353.1210400494972
 30
0.0
 11
-637.8769263716791
 21
-351.901649018434
 31
0.0
  0
LINE
  5
F2
330
1F
100
AcDbEntity
  8
D-0_通り芯
  6
Continuous
 62
     3
370
     9
100
AcDbLine
 10
-642.2640237270522
 20
-352.046105686687
 30
0.0
 11
-636.7218247642858
 21
-346.5039067239209
 31
0.0
  0
LINE
  5
F3
330
1F
100
AcDbEntity
  8
D-0_通り芯
  6
Continuous
 62
     3
370
     9
100
AcDbLine
 10
-642.2640237270522
 20
-347.803464999567
 30
0.0
 11
-635.5667231568927
 21
-341.1061644294076
 31
0.0
  0
LINE
  5
F4
330
1F
100
AcDbEntity
  8
D-0_通り芯
  6
Continuous
 62
     3
370
     9
100
AcDbLine
 10
-642.2640237270522
 20
-343.560824312447
 30
0.0
 11
-636.8240415122466
 21
-338.1208420976417
 31
0.0
  0
LINE
  5
F5
330
1F
100
AcDbEntity
  8
D-0_通り芯
  6
Continuous
 62
     3
370
     9
100
AcDbLine
 10
-642.2640237270522
 20
-339.318183625327
 30
0.0
 11
-641.0666821993659
 21
-338.1208420976408
 31
0.0
  0
LINE
  5
F6
330
1F
100
AcDbEntity
  8
D-0_通り芯
  6
Continuous
 62
     3
370
     9
100
AcDbLine
 10
-402.2640237270522
 20
-338.1208420976408
 30
0.0
 11
-642.2640237270522
 21
-338.1208420976408
 31
0.0
  0
LINE
  5
F7
330
1F
100
AcDbEntity
  8
D-0_通り芯
  6
Continuous
 62
     3
370
     9
100
AcDbLine
 10
-402.2640237270522
 20
-353.1210400494989
 30
0.0
 11
-642.2640237270522
 21
-353.1210400494989
 31
0.0
  0
LINE
  5
F8
330
1F
100
AcDbEntity
  8
D-0_通り芯
  6
Continuous
 62
     3
370
     9
100
AcDbLine
 10
-406.5062094898686
 20
-352.5788149293044
 30
0.0
 11
-402.2640237270522
 21
-348.3366291664879
 31
0.0
  0
LINE
  5
F9
330
1F
100
AcDbEntity
  8
D-0_通り芯
  6
Continuous
 62
     3
370
     9
100
AcDbLine
 10
-407.2540803609958
 20
-349.0840451133115
 30
0.0
 11
-402.2640237270522
 21
-344.0939884793679
 31
0.0
  0
LINE
  5
FA
330
1F
100
AcDbEntity
  8
D-0_通り芯
  6
Continuous
 62
     3
370
     9
100
AcDbLine
 10
-408.0019512321215
 20
-345.5892752973176
 30
0.0
 11
-402.2640237270522
 21
-339.8513477922479
 31
0.0
  0
LINE
  5
FB
330
1F
100
AcDbEntity
  8
D-0_通り芯
  6
Continuous
 62
     3
370
     9
100
AcDbLine
 10
-402.8057939229384
 20
-353.1210400494944
 30
0.0
 11
-402.2640237270522
 21
-352.5792698536079
 31
0.0
  0
LINE
  5
FC
330
1F
100
AcDbEntity
  8
D-4_寸法
  6
Continuous
 62
     7
370
     9
100
AcDbLine
 10
-327.2641227029809
 20
-386.1210400494989
 30
0.0
 11
-312.3924497823737
 21
-384.1631471661981
 31
0.0
  0
LINE
  5
FD
330
1F
100
AcDbEntity
  8
D-4_寸法
  6
Continuous
 62
     7
370
     9
100
AcDbLine
 10
-327.2641227029809
 20
-386.1210400494989
 30
0.0
 11
-312.3924497823737
 21
-388.0789329327997
 31
0.0
  0
LINE
  5
FE
330
1F
100
AcDbEntity
  8
D-4_寸法
  6
Continuous
 62
     7
370
     9
100
AcDbLine
 10
-342.2640237270522
 20
-386.1210400494989
 30
0.0
 11
-357.1356966476594
 21
-384.1631471661981
 31
0.0
  0
LINE
  5
FF
330
1F
100
AcDbEntity
  8
D-4_寸法
  6
Continuous
 62
     7
370
     9
100
AcDbLine
 10
-342.2640237270522
 20
-386.1210400494989
 30
0.0
 11
-357.1356966476594
 21
-388.0789329327997
 31
0.0
  0
LINE
  5
100
330
1F
100
AcDbEntity
  8
D-4_寸法
  6
Continuous
 62
     7
370
     9
100
AcDbLine
 10
-327.2641227029809
 20
-384.3210400494988
 30
0.0
 11
-327.2641227029809
 21
-401.1210400494989
 31
0.0
  0
LINE
  5
101
330
1F
100
AcDbEntity
  8
D-4_寸法
  6
Continuous
 62
     7
370
     9
100
AcDbLine
 10
-342.2640237270522
 20
-384.3210400494988
 30
0.0
 11
-342.2640237270522
 21
-401.1210400494989
 31
0.0
  0
LINE
  5
102
330
1F
100
AcDbEntity
  8
D-4_寸法
  6
Continuous
 62
     7
370
     9
100
AcDbLine
 10
-342.2640237270522
 20
-386.1210400494989
 30
0.0
 11
-360.2640237270522
 21
-386.1210400494989
 31
0.0
  0
LINE
  5
103
330
1F
100
AcDbEntity
  8
D-4_寸法
  6
Continuous
 62
     7
370
     9
100
AcDbLine
 10
-327.2641227029809
 20
-386.1210400494989
 30
0.0
 11
-309.2641227029809
 21
-386.1210400494989
 31
0.0
  0
LINE
  5
104
330
1F
100
AcDbEntity
  8
D-4_寸法
  6
Continuous
 62
     7
370
     9
100
AcDbLine
 10
-453.1964557034522
 20
-388.3240066462354
 30
0.0
 11
-439.0637462249981
 21
-383.2974250247345
 31
0.0
  0
LINE
  5
105
330
1F
100
AcDbEntity
  8
D-4_寸法
  6
Continuous
 62
     7
370
     9
100
AcDbLine
 10
-453.1964557034522
 20
-388.3240066462354
 30
0.0
 11
-438.2443315673662
 21
-387.1265160120025
 31
0.0
  0
LINE
  5
106
330
1F
100
AcDbEntity
  8
D-4_寸法
  6
Continuous
 62
     7
370
     9
100
AcDbLine
 10
-467.8643584520925
 20
-391.4628964111735
 30
0.0
 11
-482.8164825881785
 21
-392.6603870454063
 31
0.0
  0
LINE
  5
107
330
1F
100
AcDbEntity
  8
D-4_寸法
  6
Continuous
 62
     7
370
     9
100
AcDbLine
 10
-467.8643584520925
 20
-391.4628964111735
 30
0.0
 11
-481.9970679305469
 21
-396.4894780326744
 31
0.0
  0
LINE
  5
108
330
1F
100
AcDbEntity
  8
D-4_寸法
  6
Continuous
 62
     7
370
     9
100
AcDbLine
 10
-452.8197889316597
 20
-390.0841549760721
 30
0.0
 11
-458.2186793273536
 21
-364.8553622484111
 31
0.0
  0
LINE
  5
109
330
1F
100
AcDbEntity
  8
D-4_寸法
  6
Continuous
 62
     7
370
     9
100
AcDbLine
 10
-467.4876916802999
 20
-393.2230447410104
 30
0.0
 11
-473.5582956212277
 21
-364.8553622484111
 31
0.0
  0
LINE
  5
10A
330
1F
100
AcDbEntity
  8
D-4_寸法
  6
Continuous
 62
     7
370
     9
100
AcDbLine
 10
-453.1964557034522
 20
-388.3240066462354
 30
0.0
 11
-435.5949724050843
 21
-384.5573389283094
 31
0.0
  0
LINE
  5
10B
330
1F
100
AcDbEntity
  8
D-4_寸法
  6
Continuous
 62
     7
370
     9
100
AcDbLine
 10
-467.8643584520925
 20
-391.4628964111735
 30
0.0
 11
-485.4658417504608
 21
-395.2295641290995
 31
0.0
  0
LINE
  5
10C
330
1F
100
AcDbEntity
  8
D-4_寸法
  6
Continuous
 62
     7
370
     9
100
AcDbLine
 10
-669.2640237270522
 20
-338.1208420976408
 30
0.0
 11
-671.221916610353
 21
-323.2491691770335
 31
0.0
  0
LINE
  5
10D
330
1F
100
AcDbEntity
  8
D-4_寸法
  6
Continuous
 62
     7
370
     9
100
AcDbLine
 10
-669.2640237270522
 20
-338.1208420976408
 30
0.0
 11
-667.3061308437514
 21
-323.2491691770335
 31
0.0
  0
LINE
  5
10E
330
1F
100
AcDbEntity
  8
D-4_寸法
  6
Continuous
 62
     7
370
     9
100
AcDbLine
 10
-669.2640237270522
 20
-353.1210400494989
 30
0.0
 11
-671.221916610353
 21
-367.9927129701061
 31
0.0
  0
LINE
  5
10F
330
1F
100
AcDbEntity
  8
D-4_寸法
  6
Continuous
 62
     7
370
     9
100
AcDbLine
 10
-669.2640237270522
 20
-353.1210400494989
 30
0.0
 11
-667.3061308437514
 21
-367.9927129701061
 31
0.0
  0
LINE
  5
110
330
1F
100
AcDbEntity
  8
D-4_寸法
  6
Continuous
 62
     7
370
     9
100
AcDbLine
 10
-671.0640237270519
 20
-338.1208420976408
 30
0.0
 11
-654.2640237270522
 21
-338.1208420976408
 31
0.0
  0
LINE
  5
111
330
1F
100
AcDbEntity
  8
D-4_寸法
  6
Continuous
 62
     7
370
     9
100
AcDbLine
 10
-671.0640237270519
 20
-353.1210400494989
 30
0.0
 11
-654.2640237270522
 21
-353.1210400494989
 31
0.0
  0
LINE
  5
112
330
1F
100
AcDbEntity
  8
D-4_寸法
  6
Continuous
 62
     7
370
     9
100
AcDbLine
 10
-669.2640237270522
 20
-353.1210400494989
 30
0.0
 11
-669.2640237270522
 21
-371.1210400494989
 31
0.0
  0
LINE
  5
113
330
1F
100
AcDbEntity
  8
D-4_寸法
  6
Continuous
 62
     7
370
     9
100
AcDbLine
 10
-669.2640237270522
 20
-338.1208420976408
 30
0.0
 11
-669.2640237270522
 21
-320.1208420976408
 31
0.0
  0
LINE
  5
114
330
1F
100
AcDbEntity
  8
D-4_寸法
  6
Continuous
 62
     7
370
     9
100
AcDbLine
 10
-441.2297911393041
 20
-311.1208420976408
 30
0.0
 11
-426.3581182186969
 21
-309.16294921434
 31
0.0
  0
LINE
  5
115
330
1F
100
AcDbEntity
  8
D-4_寸法
  6
Continuous
 62
     7
370
     9
100
AcDbLine
 10
-463.9397911393042
 20
-311.1208420976408
 30
0.0
 11
-478.8114640599111
 21
-309.16294921434
 31
0.0
  0
LINE
  5
116
330
1F
100
AcDbEntity
  8
D-4_寸法
  6
Continuous
 62
     7
370
     9
100
AcDbLine
 10
-441.2297911393041
 20
-309.3208420976407
 30
0.0
 11
-441.2297911393041
 21
-326.1208420976408
 31
0.0
  0
LINE
  5
117
330
1F
100
AcDbEntity
  8
D-4_寸法
  6
Continuous
 62
     7
370
     9
100
AcDbLine
 10
-463.9397911393042
 20
-309.3208420976407
 30
0.0
 11
-463.9397911393042
 21
-326.1208420976408
 31
0.0
  0
LINE
  5
118
330
1F
100
AcDbEntity
  8
D-4_寸法
  6
Continuous
 62
     7
370
     9
100
AcDbLine
 10
-463.9397911393042
 20
-311.1208420976408
 30
0.0
 11
-478.8114640599111
 21
-313.0787349809416
 31
0.0
  0
LINE
  5
119
330
1F
100
AcDbEntity
  8
D-4_寸法
  6
Continuous
 62
     7
370
     9
100
AcDbLine
 10
-441.2297911393041
 20
-311.1208420976408
 30
0.0
 11
-426.3581182186969
 21
-313.0787349809416
 31
0.0
  0
LINE
  5
11A
330
1F
100
AcDbEntity
  8
D-4_寸法
  6
Continuous
 62
     7
370
     9
100
AcDbLine
 10
-548.9586400209262
 20
-311.1208420976408
 30
0.0
 11
-534.0869671003189
 21
-309.16294921434
 31
0.0
  0
LINE
  5
11B
330
1F
100
AcDbEntity
  8
D-4_寸法
  6
Continuous
 62
     7
370
     9
100
AcDbLine
 10
-548.9586400209262
 20
-311.1208420976408
 30
0.0
 11
-534.0869671003189
 21
-313.0787349809416
 31
0.0
  0
LINE
  5
11C
330
1F
100
AcDbEntity
  8
D-4_寸法
  6
Continuous
 62
     7
370
     9
100
AcDbLine
 10
-565.248640020926
 20
-311.1208420976408
 30
0.0
 11
-580.1203129415333
 21
-309.16294921434
 31
0.0
  0
LINE
  5
11D
330
1F
100
AcDbEntity
  8
D-4_寸法
  6
Continuous
 62
     7
370
     9
100
AcDbLine
 10
-565.248640020926
 20
-311.1208420976408
 30
0.0
 11
-580.1203129415333
 21
-313.0787349809416
 31
0.0
  0
LINE
  5
11E
330
1F
100
AcDbEntity
  8
D-4_寸法
  6
Continuous
 62
     7
370
     9
100
AcDbLine
 10
-548.9586400209262
 20
-309.3208420976407
 30
0.0
 11
-548.9586400209262
 21
-326.1208420976408
 31
0.0
  0
LINE
  5
11F
330
1F
100
AcDbEntity
  8
D-4_寸法
  6
Continuous
 62
     7
370
     9
100
AcDbLine
 10
-565.248640020926
 20
-309.3208420976407
 30
0.0
 11
-565.248640020926
 21
-326.1208420976408
 31
0.0
  0
LINE
  5
120
330
1F
100
AcDbEntity
  8
D-4_寸法
  6
Continuous
 62
     7
370
     9
100
AcDbLine
 10
-565.248640020926
 20
-311.1208420976408
 30
0.0
 11
-583.248640020926
 21
-311.1208420976408
 31
0.0
  0
LINE
  5
121
330
1F
100
AcDbEntity
  8
D-4_寸法
  6
Continuous
 62
     7
370
     9
100
AcDbLine
 10
-548.9586400209262
 20
-311.1208420976408
 30
0.0
 11
-530.9586400209262
 21
-311.1208420976408
 31
0.0
  0
LINE
  5
122
330
1F
100
AcDbEntity
  8
D-4_寸法
  6
Continuous
 62
     7
370
     9
100
AcDbLine
 10
-441.2297911393041
 20
-311.1208420976408
 30
0.0
 11
-423.2297911393041
 21
-311.1208420976408
 31
0.0
  0
LINE
  5
123
330
1F
100
AcDbEntity
  8
D-4_寸法
  6
Continuous
 62
     7
370
     9
100
AcDbLine
 10
-463.9397911393042
 20
-311.1208420976408
 30
0.0
 11
-481.9397911393042
 21
-311.1208420976408
 31
0.0
  0
LINE
  5
124
330
1F
100
AcDbEntity
  8
D-4_寸法
  6
Continuous
 62
     7
370
     9
100
AcDbLine
 10
-270.2641227029809
 20
-417.6206837361542
 30
0.0
 11
-272.2220155862817
 21
-432.4923566567614
 31
0.0
  0
LINE
  5
125
330
1F
100
AcDbEntity
  8
D-4_寸法
  6
Continuous
 62
     7
370
     9
100
AcDbLine
 10
-270.2641227029809
 20
-417.6206837361542
 30
0.0
 11
-268.3062298196801
 21
-432.4923566567614
 31
0.0
  0
LINE
  5
126
330
1F
100
AcDbEntity
  8
D-4_寸法
  6
Continuous
 62
     7
370
     9
100
AcDbLine
 10
-268.4641227029808
 20
-417.6206837361542
 30
0.0
 11
-315.2641227029809
 21
-417.6206837361542
 31
0.0
  0
LINE
  5
127
330
1F
100
AcDbEntity
  8
D-4_寸法
  6
Continuous
 62
     7
370
     9
100
AcDbLine
 10
-330.2642810644675
 20
-498.620658992172
 30
0.0
 11
-339.2641622933528
 21
-498.620658992172
 31
0.0
  0
LINE
  5
128
330
1F
100
AcDbEntity
  8
D-4_寸法
  6
Continuous
 62
     7
370
     9
100
AcDbLine
 10
-330.2642810644675
 20
-498.620658992172
 30
0.0
 11
-315.3926081438602
 21
-496.6627661088712
 31
0.0
  0
LINE
  5
129
330
1F
100
AcDbEntity
  8
D-4_寸法
  6
Continuous
 62
     7
370
     9
100
AcDbLine
 10
-330.2642810644675
 20
-498.620658992172
 30
0.0
 11
-315.3926081438602
 21
-500.5785518754728
 31
0.0
  0
LINE
  5
12A
330
1F
100
AcDbEntity
  8
D-4_寸法
  6
Continuous
 62
     7
370
     9
100
AcDbLine
 10
-339.2641622933528
 20
-498.620658992172
 30
0.0
 11
-354.13583521396
 21
-496.6627661088712
 31
0.0
  0
LINE
  5
12B
330
1F
100
AcDbEntity
  8
D-4_寸法
  6
Continuous
 62
     7
370
     9
100
AcDbLine
 10
-339.2641622933528
 20
-498.620658992172
 30
0.0
 11
-354.13583521396
 21
-500.5785518754728
 31
0.0
  0
TEXT
  5
12C
330
1F
100
AcDbEntity
  8
D-4_寸法
  6
Continuous
 62
     2
370
   211
100
AcDbText
 10
-325.7642216789103
 20
-491.6366589921721
 30
0.0
 40
18.288
  1
3
  7
ＭＳ ゴシック
100
AcDbText
  0
LINE
  5
12D
330
1F
100
AcDbEntity
  8
D-4_寸法
  6
Continuous
 62
     7
370
     9
100
AcDbLine
 10
-339.2641622933528
 20
-498.620658992172
 30
0.0
 11
-357.2641622933528
 21
-498.620658992172
 31
0.0
  0
LINE
  5
12E
330
1F
100
AcDbEntity
  8
D-4_寸法
  6
Continuous
 62
     7
370
     9
100
AcDbLine
 10
-330.2642810644675
 20
-498.620658992172
 30
0.0
 11
-306.2642810644675
 21
-498.620658992172
 31
0.0
  0
LINE
  5
12F
330
1F
100
AcDbEntity
  8
D-0_通り芯
  6
Continuous
 62
     3
370
     9
100
AcDbLine
 10
-402.2640237270522
 20
-525.620931175977
 30
0.0
 11
-642.2640237270522
 21
-525.620931175977
 31
0.0
  0
LINE
  5
130
330
1F
100
AcDbEntity
  8
D-0_通り芯
  6
Continuous
 62
     3
370
     9
100
AcDbLine
 10
-402.2640237270522
 20
-522.6210697422777
 30
0.0
 11
-642.2640237270522
 21
-522.6210697422777
 31
0.0
  0
LINE
  5
131
330
1F
100
AcDbEntity
  8
D-0_通り芯
  6
Continuous
 62
     3
370
     9
100
AcDbLine
 10
-327.2641227029809
 20
-525.620931175977
 30
0.0
 11
-327.2641227029809
 21
-549.620931175977
 31
0.0
  0
LINE
  5
132
330
1F
100
AcDbEntity
  8
D-0_通り芯
  6
Continuous
 62
     3
370
     9
100
AcDbLine
 10
-330.2642810644675
 20
-522.6207728144905
 30
0.0
 11
-327.2641227029809
 21
-525.620931175977
 31
0.0
  0
LINE
  5
133
330
1F
100
AcDbEntity
  8
D-0_通り芯
  6
Continuous
 62
     3
370
     9
100
AcDbLine
 10
-342.2640237270522
 20
-549.620931175977
 30
0.0
 11
-342.2640237270522
 21
-525.620931175977
 31
0.0
  0
LINE
  5
134
330
1F
100
AcDbEntity
  8
D-0_通り芯
  6
Continuous
 62
     3
370
     9
100
AcDbLine
 10
-342.2640237270522
 20
-525.620931175977
 30
0.0
 11
-339.2641622933528
 21
-522.6207728144905
 31
0.0
  0
LINE
  5
135
330
1F
100
AcDbEntity
  8
D-0_通り芯
  6
Continuous
 62
     3
370
     9
100
AcDbLine
 10
-402.2640237270522
 20
-441.6206837361542
 30
0.0
 11
-642.2640237270522
 21
-441.6206837361542
 31
0.0
  0
LINE
  5
136
330
1F
100
AcDbEntity
  8
D-0_通り芯
  6
Continuous
 62
     3
370
     9
100
AcDbLine
 10
-402.2640237270522
 20
-444.6205451698536
 30
0.0
 11
-642.2640237270522
 21
-444.6205451698536
 31
0.0
  0
LINE
  5
137
330
1F
100
AcDbEntity
  8
D-0_通り芯
  6
Continuous
 62
     3
370
     9
100
AcDbLine
 10
-342.2640237270522
 20
-441.6206837361542
 30
0.0
 11
-342.2640237270522
 21
-417.6206837361542
 31
0.0
  0
LINE
  5
138
330
1F
100
AcDbEntity
  8
D-0_通り芯
  6
Continuous
 62
     3
370
     9
100
AcDbLine
 10
-342.2640237270522
 20
-441.6206837361542
 30
0.0
 11
-339.2641622933528
 21
-444.6205451698536
 31
0.0
  0
LINE
  5
139
330
1F
100
AcDbEntity
  8
D-0_通り芯
  6
Continuous
 62
     3
370
     9
100
AcDbLine
 10
-330.2642810644675
 20
-444.6205451698536
 30
0.0
 11
-327.2641227029809
 21
-441.6206837361542
 31
0.0
  0
LINE
  5
13A
330
1F
100
AcDbEntity
  8
D-0_通り芯
  6
Continuous
 62
     3
370
     9
100
AcDbLine
 10
-327.2641227029809
 20
-417.6206837361542
 30
0.0
 11
-327.2641227029809
 21
-441.6206837361542
 31
0.0
  0
LINE
  5
13B
330
1F
100
AcDbEntity
  8
D-0_通り芯
  6
Continuous
 62
     3
370
     9
100
AcDbLine
 10
-339.2641622933528
 20
-522.6207728144905
 30
0.0
 11
-339.2641622933528
 21
-444.6205451698536
 31
0.0
  0
LINE
  5
13C
330
1F
100
AcDbEntity
  8
D-0_通り芯
  6
Continuous
 62
     3
370
     9
100
AcDbLine
 10
-330.2642810644675
 20
-444.6205451698536
 30
0.0
 11
-330.2642810644675
 21
-522.6207728144905
 31
0.0
  0
TEXT
  5
13D
330
1F
100
AcDbEntity
  8
D-0_通り芯
  6
Continuous
 62
     2
370
   211
100
AcDbText
 10
-711.2640732150165
 20
-638.1722916463104
 30
0.0
 40
18.288
  1
ＤＩ－４４　バー形状詳細　Ｓ＝１：２
 41
1.118055555555556
  7
ＭＳ ゴシック
100
AcDbText
  0
LWPOLYLINE
  5
13E
330
1F
100
AcDbEntity
  8
B-4_寸法
  6
Continuous
 62
     7
370
     9
100
AcDbPolyline
 90
        4
 70
     1
 43
1.2
 10
301.1125577954457
 20
53.97063289657055
 42
0.4142135623731
 10
300.5125577954457
 20
54.57063289657054
 42
0.4142135623731
 10
299.9125577954457
 20
53.97063289657055
 42
0.4142135623731
 10
300.5125577954457
 20
53.37063289657056
 42
0.4142135623731
  0
LINE
  5
13F
330
1F
100
AcDbEntity
  8
B-4_寸法
  6
Continuous
 62
     7
370
     9
100
AcDbLine
 10
299.0125577954457
 20
53.97063289657055
 30
0.0
 11
350.5125577954457
 21
53.97063289657055
 31
0.0
  0
LWPOLYLINE
  5
140
330
1F
100
AcDbEntity
  8
B-4_寸法
  6
Continuous
 62
     7
370
     9
100
AcDbPolyline
 90
        4
 70
     1
 43
1.2
 10
301.1125577954457
 20
49.97091005494681
 42
0.4142135623731
 10
300.5125577954457
 20
50.57091005494681
 42
0.4142135623731
 10
299.9125577954457
 20
49.97091005494681
 42
0.4142135623731
 10
300.5125577954457
 20
49.37091005494682
 42
0.4142135623731
  0
LINE
  5
141
330
1F
100
AcDbEntity
  8
B-4_寸法
  6
Continuous
 62
     7
370
     9
100
AcDbLine
 10
299.0125577954457
 20
49.97091005494681
 30
0.0
 11
352.5125149058763
 21
49.97091005494681
 31
0.0
  0
LINE
  5
142
330
1F
100
AcDbEntity
  8
B-4_寸法
  6
Continuous
 62
     7
370
     9
100
AcDbLine
 10
300.5125577954457
 20
49.97091005494681
 30
0.0
 11
300.5125577954457
 21
43.97099580831039
 31
0.0
  0
LWPOLYLINE
  5
143
330
1F
100
AcDbEntity
  8
B-4_寸法
  6
Continuous
 62
     7
370
     9
100
AcDbPolyline
 90
        4
 70
     1
 43
1.2
 10
301.1125577954457
 20
43.97099580831039
 42
0.4142135623731
 10
300.5125577954457
 20
44.57099580831039
 42
0.4142135623731
 10
299.9125577954457
 20
43.97099580831039
 42
0.4142135623731
 10
300.5125577954457
 20
43.3709958083104
 42
0.4142135623731
  0
LINE
  5
144
330
1F
100
AcDbEntity
  8
B-4_寸法
  6
Continuous
 62
     7
370
     9
100
AcDbLine
 10
300.5125577954457
 20
563.9708308484289
 30
0.0
 11
300.5125577954457
 21
557.9708110532426
 31
0.0
  0
LWPOLYLINE
  5
145
330
1F
100
AcDbEntity
  8
B-4_寸法
  6
Continuous
 62
     7
370
     9
100
AcDbPolyline
 90
        4
 70
     1
 43
1.2
 10
301.1125577954457
 20
563.9708308484289
 42
0.4142135623731
 10
300.5125577954457
 20
564.5708308484288
 42
0.4142135623731
 10
299.9125577954457
 20
563.9708308484289
 42
0.4142135623731
 10
300.5125577954457
 20
563.370830848429
 42
0.4142135623731
  0
LWPOLYLINE
  5
146
330
1F
100
AcDbEntity
  8
B-4_寸法
  6
Continuous
 62
     7
370
     9
100
AcDbPolyline
 90
        4
 70
     1
 43
1.2
 10
301.1125577954457
 20
557.9708110532426
 42
0.4142135623731
 10
300.5125577954457
 20
558.5708110532426
 42
0.4142135623731
 10
299.9125577954457
 20
557.9708110532426
 42
0.4142135623731
 10
300.5125577954457
 20
557.3708110532427
 42
0.4142135623731
  0
LINE
  5
147
330
1F
100
AcDbEntity
  8
B-4_寸法
  6
Continuous
 62
     7
370
     9
100
AcDbLine
 10
299.0125577954457
 20
557.9708110532426
 30
0.0
 11
352.5125149058763
 21
557.9708110532426
 31
0.0
  0
LWPOLYLINE
  5
148
330
1F
100
AcDbEntity
  8
B-4_寸法
  6
Continuous
 62
     7
370
     9
100
AcDbPolyline
 90
        4
 70
     1
 43
1.2
 10
301.1125577954457
 20
553.971045296275
 42
0.4142135623731
 10
300.5125577954457
 20
554.571045296275
 42
0.4142135623731
 10
299.9125577954457
 20
553.971045296275
 42
0.4142135623731
 10
300.5125577954457
 20
553.371045296275
 42
0.4142135623731
  0
LINE
  5
149
330
1F
100
AcDbEntity
  8
B-4_寸法
  6
Continuous
 62
     7
370
     9
100
AcDbLine
 10
299.0125577954457
 20
553.971045296275
 30
0.0
 11
350.5125577954457
 21
553.971045296275
 31
0.0
  0
LINE
  5
14A
330
1F
100
AcDbEntity
  8
B-2_蓋
  6
Continuous
 62
     3
370
     9
100
AcDbLine
 10
398.5127821408847
 20
553.9705999045943
 30
0.0
 11
398.5127821408847
 21
549.4706592901518
 31
0.0
  0
LINE
  5
14B
330
1F
100
AcDbEntity
  8
B-2_蓋
  6
Continuous
 62
     3
370
     9
100
AcDbLine
 10
360.5125577954456
 20
553.9705999045943
 30
0.0
 11
398.5127821408847
 21
553.9705999045943
 31
0.0
  0
LINE
  5
14C
330
1F
100
AcDbEntity
  8
B-1_ピット
  6
Continuous
 62
     2
370
     9
100
AcDbLine
 10
360.5125577954456
 20
560.4709430211485
 30
0.0
 11
360.5125577954456
 21
563.9708308484289
 31
0.0
  0
LINE
  5
14D
330
1F
100
AcDbEntity
  8
B-1_ピット
  6
Continuous
 62
     2
370
     9
100
AcDbLine
 10
407.012636976189
 20
503.970929824358
 30
0.0
 11
410.5128217312566
 21
503.970929824358
 31
0.0
  0
LINE
  5
14E
330
1F
100
AcDbEntity
  8
B-1_ピット
  6
Continuous
 62
     2
370
     9
100
AcDbLine
 10
404.5128019360706
 20
553.9705999045943
 30
0.0
 11
404.5128019360706
 21
506.4707648644763
 31
0.0
  0
LINE
  5
14F
330
1F
100
AcDbEntity
  8
B-1_ピット
  6
Continuous
 62
     2
370
     9
100
AcDbLine
 10
400.5125907874222
 20
557.9708110532431
 30
0.0
 11
363.0126897633509
 21
557.9708110532431
 31
0.0
  0
LINE
  5
150
330
1F
100
AcDbEntity
  8
B-1_ピット
  6
Continuous
 62
     2
370
     9
100
AcDbLine
 10
410.5128217312566
 20
563.9708308484289
 30
0.0
 11
360.5125577954456
 21
563.9708308484289
 31
0.0
  0
LINE
  5
151
330
1F
100
AcDbEntity
  8
B-1_ピット
  6
Continuous
 62
     2
370
     9
100
AcDbLine
 10
385.5126897633509
 20
563.9708308484289
 30
0.0
 11
385.5126897633509
 21
572.9710090051012
 31
0.0
  0
LINE
  5
152
330
1F
100
AcDbEntity
  8
B-1_ピット
  6
Continuous
 62
     2
370
     9
100
AcDbLine
 10
399.3278489166449
 20
572.9710090051012
 30
0.0
 11
385.5126897633509
 21
572.9710090051012
 31
0.0
  0
LINE
  5
153
330
1F
100
AcDbEntity
  8
B-1_ピット
  6
Continuous
 62
     2
370
     9
100
AcDbLine
 10
403.9866458972194
 20
564.584283656706
 30
0.0
 11
462.1773659141112
 21
580.1762586883782
 31
0.0
  0
LINE
  5
154
330
1F
100
AcDbEntity
  8
B-1_ピット
  6
Continuous
 62
     2
370
     9
100
AcDbLine
 10
401.6572474069322
 20
573.2774384814525
 30
0.0
 11
459.8479674238241
 21
588.8697104409121
 31
0.0
  0
LINE
  5
155
330
1F
100
AcDbEntity
  8
B-1_ピット
  6
JWW_CENTER2
 62
     2
370
     9
100
AcDbLine
 10
399.3278489166449
 20
568.4710683906586
 30
0.0
 11
381.7078570986553
 21
568.4710683906586
 31
0.0
  0
LINE
  5
156
330
1F
100
AcDbEntity
  8
B-1_ピット
  6
JWW_CENTER2
 62
     2
370
     9
100
AcDbLine
 10
402.8217981881822
 20
568.9307126051856
 30
0.0
 11
467.9885396366619
 21
586.392144984831
 31
0.0
  0
ARC
  5
157
330
1F
100
AcDbEntity
  8
B-1_ピット
  6
Continuous
 62
     2
370
     9
100
AcDbCircle
 10
363.0126897633509
 20
560.4709430211485
 30
0.0
 40
2.500000032218727
100
AcDbArc
 50
180.0
 51
270.0
  0
ARC
  5
158
330
1F
100
AcDbEntity
  8
B-1_ピット
  6
Continuous
 62
     2
370
     9
100
AcDbCircle
 10
407.012636976189
 20
506.4707648644763
 30
0.0
 40
2.500000032218727
100
AcDbArc
 50
180.0
 51
270.0
  0
ARC
  5
159
330
1F
100
AcDbEntity
  8
B-1_ピット
  6
Continuous
 62
     2
370
     9
100
AcDbCircle
 10
400.5125907874222
 20
553.9705999045943
 30
0.0
 40
4.000000051549963
100
AcDbArc
 50
0.0
 51
90.0
  0
ARC
  5
15A
330
1F
100
AcDbEntity
  8
B-1_ピット
  6
Continuous
 62
     2
370
     9
100
AcDbCircle
 10
399.3278489166449
 20
581.9708902339862
 30
0.0
 40
18.00000023197483
100
AcDbArc
 50
270.0
 51
285.0
  0
ARC
  5
15B
330
1F
100
AcDbEntity
  8
B-1_ピット
  6
Continuous
 62
     2
370
     9
100
AcDbCircle
 10
461.0128151328612
 20
584.5229845646452
 30
0.0
 40
4.500000057993709
100
AcDbArc
 50
285.0001373291016
 51
104.9999084472656
  0
ARC
  5
15C
330
1F
100
AcDbEntity
  8
B-1_ピット
  6
JWW_CENTER2
 62
     2
370
     9
100
AcDbCircle
 10
399.3278489166449
 20
581.9708902339862
 30
0.0
 40
13.50000162382384
100
AcDbArc
 50
270.0
 51
284.9999542236328
  0
ARC
  5
15D
330
1F
100
AcDbEntity
  8
B-1_ピット
  6
Continuous
 62
     2
370
     9
100
AcDbCircle
 10
399.3278489166449
 20
581.9708902339862
 30
0.0
 40
9.000000115987417
100
AcDbArc
 50
270.0
 51
285.0000152587891
  0
LINE
  5
15E
330
1F
100
AcDbEntity
  8
B-1_ピット
  6
Continuous
 62
     2
370
     9
100
AcDbLine
 10
410.5128217312566
 20
563.9708308484289
 30
0.0
 11
410.5128217312566
 21
503.970929824358
 31
0.0
  0
LINE
  5
15F
330
1F
100
AcDbEntity
  8
B-1_ピット
  6
Continuous
 62
     2
370
     9
100
AcDbLine
 10
360.5125577954456
 20
47.47088363559061
 30
0.0
 11
360.5125577954456
 21
43.97099580831039
 31
0.0
  0
LINE
  5
160
330
1F
100
AcDbEntity
  8
B-1_ピット
  6
Continuous
 62
     2
370
     9
100
AcDbLine
 10
400.5125907874222
 20
49.97108983544288
 30
0.0
 11
363.0126897633509
 21
49.97108983544288
 31
0.0
  0
LINE
  5
161
330
1F
100
AcDbEntity
  8
B-1_ピット
  6
Continuous
 62
     2
370
     9
100
AcDbLine
 10
410.5128217312566
 20
43.97099580831039
 30
0.0
 11
360.5125577954456
 21
43.97099580831039
 31
0.0
  0
LINE
  5
162
330
1F
100
AcDbEntity
  8
B-1_ピット
  6
Continuous
 62
     2
370
     9
100
AcDbLine
 10
385.5126897633509
 20
43.97099580831039
 30
0.0
 11
385.5126897633509
 21
34.97089188358476
 31
0.0
  0
LINE
  5
163
330
1F
100
AcDbEntity
  8
B-1_ピット
  6
Continuous
 62
     2
370
     9
100
AcDbLine
 10
399.3278489166449
 20
34.97089188358476
 30
0.0
 11
385.5126897633509
 21
34.97089188358476
 31
0.0
  0
LINE
  5
164
330
1F
100
AcDbEntity
  8
B-1_ピット
  6
Continuous
 62
     2
370
     9
100
AcDbLine
 10
403.9866458972194
 20
43.35769146392678
 30
0.0
 11
462.1773659141112
 21
27.76556796836101
 31
0.0
  0
LINE
  5
165
330
1F
100
AcDbEntity
  8
B-1_ピット
  6
Continuous
 62
     2
370
     9
100
AcDbLine
 10
401.6572474069322
 20
34.66446240723351
 30
0.0
 11
459.8479674238241
 21
19.07226467972069
 31
0.0
  0
LINE
  5
166
330
1F
100
AcDbEntity
  8
B-1_ピット
  6
JWW_CENTER2
 62
     2
370
     9
100
AcDbLine
 10
399.3278489166449
 20
39.47098096192101
 30
0.0
 11
381.7078570986553
 21
39.47098096192101
 31
0.0
  0
LINE
  5
167
330
1F
100
AcDbEntity
  8
B-1_ピット
  6
JWW_CENTER2
 62
     2
370
     9
100
AcDbLine
 10
402.8217981881822
 20
39.01103981960675
 30
0.0
 11
467.9885396366619
 21
21.54983013580178
 31
0.0
  0
ARC
  5
168
330
1F
100
AcDbEntity
  8
B-1_ピット
  6
Continuous
 62
     2
370
     9
100
AcDbCircle
 10
363.0126897633509
 20
47.47088363559061
 30
0.0
 40
2.500000032218727
100
AcDbArc
 50
90.0
 51
180.0
  0
ARC
  5
169
330
1F
100
AcDbEntity
  8
B-1_ピット
  6
Continuous
 62
     2
370
     9
100
AcDbCircle
 10
400.5125907874222
 20
53.97115252019796
 30
0.0
 40
4.000000051549963
100
AcDbArc
 50
270.0
 51
0.0
  0
ARC
  5
16A
330
1F
100
AcDbEntity
  8
B-1_ピット
  6
Continuous
 62
     2
370
     9
100
AcDbCircle
 10
399.3278489166449
 20
25.97101065469968
 30
0.0
 40
18.00000023197483
100
AcDbArc
 50
75.0
 51
90.0
  0
ARC
  5
16B
330
1F
100
AcDbEntity
  8
B-1_ピット
  6
Continuous
 62
     2
370
     9
100
AcDbCircle
 10
461.0128151328612
 20
23.41891632404085
 30
0.0
 40
4.500000057993709
100
AcDbArc
 50
255.0000915527343
 51
74.99986267089841
  0
ARC
  5
16C
330
1F
100
AcDbEntity
  8
B-1_ピット
  6
JWW_CENTER2
 62
     2
370
     9
100
AcDbCircle
 10
399.3278489166449
 20
25.97115911859319
 30
0.0
 40
13.50000162382384
100
AcDbArc
 50
75.00004577636719
 51
90.0
  0
ARC
  5
16D
330
1F
100
AcDbEntity
  8
B-1_ピット
  6
Continuous
 62
     2
370
     9
100
AcDbCircle
 10
399.3278489166449
 20
25.97101065469968
 30
0.0
 40
9.000000115987417
100
AcDbArc
 50
74.99998474121094
 51
90.0
  0
LINE
  5
16E
330
1F
100
AcDbEntity
  8
B-1_ピット
  6
Continuous
 62
     2
370
     9
100
AcDbLine
 10
410.5128217312566
 20
103.9710452962749
 30
0.0
 11
410.5128217312566
 21
43.97099580831039
 31
0.0
  0
LINE
  5
16F
330
1F
100
AcDbEntity
  8
B-1_ピット
  6
Continuous
 62
     2
370
     9
100
AcDbLine
 10
407.012636976189
 20
103.9710452962749
 30
0.0
 11
410.5128217312566
 21
103.9710452962749
 31
0.0
  0
ARC
  5
170
330
1F
100
AcDbEntity
  8
B-1_ピット
  6
Continuous
 62
     2
370
     9
100
AcDbCircle
 10
407.012636976189
 20
101.471061792263
 30
0.0
 40
2.500000032218727
100
AcDbArc
 50
90.0
 51
180.0
  0
LINE
  5
171
330
1F
100
AcDbEntity
  8
B-2_蓋
  6
Continuous
 62
     3
370
     9
100
AcDbLine
 10
396.5126765665603
 20
549.4706592901518
 30
0.0
 11
396.5126765665603
 21
58.47057351101309
 31
0.0
  0
LINE
  5
172
330
1F
100
AcDbEntity
  8
B-2_蓋
  6
Continuous
 62
     3
370
     9
100
AcDbLine
 10
395.5126237793984
 20
549.4706592901518
 30
0.0
 11
395.5126237793984
 21
58.47057351101309
 31
0.0
  0
LINE
  5
173
330
1F
100
AcDbEntity
  8
B-2_蓋
  6
Continuous
 62
     3
370
     9
100
AcDbLine
 10
369.5127359521178
 20
549.4706592901518
 30
0.0
 11
369.5127359521178
 21
58.47057351101309
 31
0.0
  0
LINE
  5
174
330
1F
100
AcDbEntity
  8
B-2_蓋
  6
Continuous
 62
     3
370
     9
100
AcDbLine
 10
404.5128019360706
 20
549.4706592901518
 30
0.0
 11
404.5128019360706
 21
58.47057351101309
 31
0.0
  0
LINE
  5
175
330
1F
100
AcDbEntity
  8
B-2_蓋
  6
Continuous
 62
     3
370
     9
100
AcDbLine
 10
398.5127821408847
 20
53.97063289657055
 30
0.0
 11
398.5127821408847
 21
58.47057351101309
 31
0.0
  0
LINE
  5
176
330
1F
100
AcDbEntity
  8
B-2_蓋
  6
Continuous
 62
     3
370
     9
100
AcDbLine
 10
359.0124786147024
 20
58.47057351101309
 30
0.0
 11
404.5128019360706
 21
58.47057351101309
 31
0.0
  0
LINE
  5
177
330
1F
100
AcDbEntity
  8
B-2_蓋
  6
Continuous
 62
     3
370
     9
100
AcDbLine
 10
360.5125577954456
 20
53.97063289657055
 30
0.0
 11
398.5127821408847
 21
53.97063289657055
 31
0.0
  0
LINE
  5
178
330
1F
100
AcDbEntity
  8
B-1_ピット
  6
Continuous
 62
     2
370
     9
100
AcDbLine
 10
404.5128019360706
 20
53.97115252019796
 30
0.0
 11
404.5128019360706
 21
101.471061792263
 31
0.0
  0
LINE
  5
179
330
1F
100
AcDbEntity
  8
B-2_蓋
  6
Continuous
 62
     3
370
     9
100
AcDbLine
 10
359.0124786147021
 20
545.5667269764898
 30
0.0
 11
360.5125577954456
 21
545.0554173269966
 31
0.0
  0
LINE
  5
17A
330
1F
100
AcDbEntity
  8
B-2_蓋
  6
Continuous
 62
     3
370
     9
100
AcDbLine
 10
360.5125577954456
 20
545.0554173269966
 30
0.0
 11
360.5125577954456
 21
539.9421723681704
 31
0.0
  0
LINE
  5
17B
330
1F
100
AcDbEntity
  8
B-2_蓋
  6
Continuous
 62
     3
370
     9
100
AcDbLine
 10
359.0124786147021
 20
539.4308627186772
 30
0.0
 11
360.5125577954456
 21
539.9421723681704
 31
0.0
  0
LINE
  5
17C
330
1F
100
AcDbEntity
  8
B-2_蓋
  6
Continuous
 62
     3
370
     9
100
AcDbLine
 10
359.0124786147021
 20
539.4308627186772
 30
0.0
 11
359.0124786147021
 21
532.8836050117517
 31
0.0
  0
LINE
  5
17D
330
1F
100
AcDbEntity
  8
B-2_蓋
  6
Continuous
 62
     3
370
     9
100
AcDbLine
 10
359.0124786147021
 20
532.8836050117517
 30
0.0
 11
360.5125577954456
 21
532.3721468983647
 31
0.0
  0
LINE
  5
17E
330
1F
100
AcDbEntity
  8
B-2_蓋
  6
Continuous
 62
     3
370
     9
100
AcDbLine
 10
359.0124786147021
 20
526.747889217833
 30
0.0
 11
359.0124786147021
 21
522.3404416090913
 31
0.0
  0
LINE
  5
17F
330
1F
100
AcDbEntity
  8
B-2_蓋
  6
Continuous
 62
     3
370
     9
100
AcDbLine
 10
359.0124786147021
 20
522.3404416090913
 30
0.0
 11
360.5125577954456
 21
521.8289834957043
 31
0.0
  0
LINE
  5
180
330
1F
100
AcDbEntity
  8
B-2_蓋
  6
Continuous
 62
     3
370
     9
100
AcDbLine
 10
360.5125577954456
 20
521.8289834957043
 30
0.0
 11
360.5125577954456
 21
516.715887000772
 31
0.0
  0
LINE
  5
181
330
1F
100
AcDbEntity
  8
B-2_蓋
  6
Continuous
 62
     3
370
     9
100
AcDbLine
 10
359.0124786147021
 20
516.204428887385
 30
0.0
 11
360.5125577954456
 21
516.715887000772
 31
0.0
  0
LINE
  5
182
330
1F
100
AcDbEntity
  8
B-2_蓋
  6
Continuous
 62
     3
370
     9
100
AcDbLine
 10
359.0124786147021
 20
516.204428887385
 30
0.0
 11
359.0124786147021
 21
509.6571711804595
 31
0.0
  0
LINE
  5
183
330
1F
100
AcDbEntity
  8
B-2_蓋
  6
Continuous
 62
     3
370
     9
100
AcDbLine
 10
359.0124786147021
 20
509.6571711804595
 30
0.0
 11
360.5125577954456
 21
509.14600999486
 31
0.0
  0
LINE
  5
184
330
1F
100
AcDbEntity
  8
B-2_蓋
  6
Continuous
 62
     3
370
     9
100
AcDbLine
 10
359.0124786147021
 20
526.747889217833
 30
0.0
 11
360.5125577954456
 21
527.2590504034324
 31
0.0
  0
LINE
  5
185
330
1F
100
AcDbEntity
  8
B-2_蓋
  6
Continuous
 62
     3
370
     9
100
AcDbLine
 10
360.5125577954456
 20
532.3721468983647
 30
0.0
 11
360.5125577954456
 21
527.2590504034324
 31
0.0
  0
LINE
  5
186
330
1F
100
AcDbEntity
  8
B-2_蓋
  6
Continuous
 62
     3
370
     9
100
AcDbLine
 10
359.0124786147021
 20
503.5214553865405
 30
0.0
 11
359.0124786147021
 21
499.1140077777989
 31
0.0
  0
LINE
  5
187
330
1F
100
AcDbEntity
  8
B-2_蓋
  6
Continuous
 62
     3
370
     9
100
AcDbLine
 10
359.0124786147021
 20
499.1140077777989
 30
0.0
 11
360.5125577954456
 21
498.6025496644122
 31
0.0
  0
LINE
  5
188
330
1F
100
AcDbEntity
  8
B-2_蓋
  6
Continuous
 62
     3
370
     9
100
AcDbLine
 10
360.5125577954456
 20
498.6025496644122
 30
0.0
 11
360.5125577954456
 21
493.4894531694798
 31
0.0
  0
LINE
  5
189
330
1F
100
AcDbEntity
  8
B-2_蓋
  6
Continuous
 62
     3
370
     9
100
AcDbLine
 10
359.0124786147021
 20
492.9779950560928
 30
0.0
 11
360.5125577954456
 21
493.4894531694798
 31
0.0
  0
LINE
  5
18A
330
1F
100
AcDbEntity
  8
B-2_蓋
  6
Continuous
 62
     3
370
     9
100
AcDbLine
 10
359.0124786147021
 20
492.9779950560928
 30
0.0
 11
359.0124786147021
 21
486.4307373491673
 31
0.0
  0
LINE
  5
18B
330
1F
100
AcDbEntity
  8
B-2_蓋
  6
Continuous
 62
     3
370
     9
100
AcDbLine
 10
359.0124786147021
 20
486.4307373491673
 30
0.0
 11
360.5125577954456
 21
485.9195761635676
 31
0.0
  0
LINE
  5
18C
330
1F
100
AcDbEntity
  8
B-2_蓋
  6
Continuous
 62
     3
370
     9
100
AcDbLine
 10
359.0124786147021
 20
503.5214553865405
 30
0.0
 11
360.5125577954456
 21
504.0326165721403
 31
0.0
  0
LINE
  5
18D
330
1F
100
AcDbEntity
  8
B-2_蓋
  6
Continuous
 62
     3
370
     9
100
AcDbLine
 10
360.5125577954456
 20
509.14600999486
 30
0.0
 11
360.5125577954456
 21
504.0326165721403
 31
0.0
  0
LINE
  5
18E
330
1F
100
AcDbEntity
  8
B-2_蓋
  6
Continuous
 62
     3
370
     9
100
AcDbLine
 10
359.0124786147021
 20
480.2950215552481
 30
0.0
 11
359.0124786147021
 21
475.8875739465063
 31
0.0
  0
LINE
  5
18F
330
1F
100
AcDbEntity
  8
B-2_蓋
  6
Continuous
 62
     3
370
     9
100
AcDbLine
 10
359.0124786147021
 20
475.8875739465063
 30
0.0
 11
360.5125577954456
 21
475.37611583312
 31
0.0
  0
LINE
  5
190
330
1F
100
AcDbEntity
  8
B-2_蓋
  6
Continuous
 62
     3
370
     9
100
AcDbLine
 10
359.0124786147021
 20
480.2950215552481
 30
0.0
 11
360.5125577954456
 21
480.8061827408478
 31
0.0
  0
LINE
  5
191
330
1F
100
AcDbEntity
  8
B-2_蓋
  6
Continuous
 62
     3
370
     9
100
AcDbLine
 10
360.5125577954456
 20
485.9195761635676
 30
0.0
 11
360.5125577954456
 21
480.8061827408478
 31
0.0
  0
LINE
  5
192
330
1F
100
AcDbEntity
  8
B-2_蓋
  6
Continuous
 62
     3
370
     9
100
AcDbLine
 10
360.5125577954456
 20
475.37611583312
 30
0.0
 11
360.5125577954456
 21
470.2630193381874
 31
0.0
  0
LINE
  5
193
330
1F
100
AcDbEntity
  8
B-2_蓋
  6
Continuous
 62
     3
370
     9
100
AcDbLine
 10
359.0124786147021
 20
469.7515612248006
 30
0.0
 11
360.5125577954456
 21
470.2630193381874
 31
0.0
  0
LINE
  5
194
330
1F
100
AcDbEntity
  8
B-2_蓋
  6
Continuous
 62
     3
370
     9
100
AcDbLine
 10
359.0124786147021
 20
469.7515612248006
 30
0.0
 11
359.0124786147021
 21
463.2043035178749
 31
0.0
  0
LINE
  5
195
330
1F
100
AcDbEntity
  8
B-2_蓋
  6
Continuous
 62
     3
370
     9
100
AcDbLine
 10
359.0124786147021
 20
463.2043035178749
 30
0.0
 11
360.5125577954456
 21
462.6931423322751
 31
0.0
  0
LINE
  5
196
330
1F
100
AcDbEntity
  8
B-2_蓋
  6
Continuous
 62
     3
370
     9
100
AcDbLine
 10
359.0124786147021
 20
457.0685877239559
 30
0.0
 11
359.0124786147021
 21
452.6611401152142
 31
0.0
  0
LINE
  5
197
330
1F
100
AcDbEntity
  8
B-2_蓋
  6
Continuous
 62
     3
370
     9
100
AcDbLine
 10
359.0124786147021
 20
452.6611401152142
 30
0.0
 11
360.5125577954456
 21
452.1499789296147
 31
0.0
  0
LINE
  5
198
330
1F
100
AcDbEntity
  8
B-2_蓋
  6
Continuous
 62
     3
370
     9
100
AcDbLine
 10
359.0124786147021
 20
457.0685877239559
 30
0.0
 11
360.5125577954456
 21
457.5800458373428
 31
0.0
  0
LINE
  5
199
330
1F
100
AcDbEntity
  8
B-2_蓋
  6
Continuous
 62
     3
370
     9
100
AcDbLine
 10
360.5125577954456
 20
462.6931423322751
 30
0.0
 11
360.5125577954456
 21
457.5800458373428
 31
0.0
  0
LINE
  5
19A
330
1F
100
AcDbEntity
  8
B-2_蓋
  6
Continuous
 62
     3
370
     9
100
AcDbLine
 10
360.5125577954456
 20
452.1499789296147
 30
0.0
 11
360.5125577954456
 21
447.0368824346825
 31
0.0
  0
LINE
  5
19B
330
1F
100
AcDbEntity
  8
B-2_蓋
  6
Continuous
 62
     3
370
     9
100
AcDbLine
 10
359.0124786147021
 20
446.5254243212954
 30
0.0
 11
360.5125577954456
 21
447.0368824346825
 31
0.0
  0
LINE
  5
19C
330
1F
100
AcDbEntity
  8
B-2_蓋
  6
Continuous
 62
     3
370
     9
100
AcDbLine
 10
359.0124786147021
 20
446.5254243212954
 30
0.0
 11
359.0124786147021
 21
439.9778696865829
 31
0.0
  0
LINE
  5
19D
330
1F
100
AcDbEntity
  8
B-2_蓋
  6
Continuous
 62
     3
370
     9
100
AcDbLine
 10
359.0124786147021
 20
439.9778696865829
 30
0.0
 11
360.5125577954456
 21
439.4667085009829
 31
0.0
  0
LINE
  5
19E
330
1F
100
AcDbEntity
  8
B-2_蓋
  6
Continuous
 62
     3
370
     9
100
AcDbLine
 10
359.0124786147021
 20
433.8421538926637
 30
0.0
 11
359.0124786147021
 21
429.434706283922
 31
0.0
  0
LINE
  5
19F
330
1F
100
AcDbEntity
  8
B-2_蓋
  6
Continuous
 62
     3
370
     9
100
AcDbLine
 10
359.0124786147021
 20
429.434706283922
 30
0.0
 11
360.5125577954456
 21
428.9235450983225
 31
0.0
  0
LINE
  5
1A0
330
1F
100
AcDbEntity
  8
B-2_蓋
  6
Continuous
 62
     3
370
     9
100
AcDbLine
 10
359.0124786147021
 20
433.8421538926637
 30
0.0
 11
360.5125577954456
 21
434.3536120060506
 31
0.0
  0
LINE
  5
1A1
330
1F
100
AcDbEntity
  8
B-2_蓋
  6
Continuous
 62
     3
370
     9
100
AcDbLine
 10
360.5125577954456
 20
439.4667085009829
 30
0.0
 11
360.5125577954456
 21
434.3536120060506
 31
0.0
  0
LINE
  5
1A2
330
1F
100
AcDbEntity
  8
B-2_蓋
  6
Continuous
 62
     3
370
     9
100
AcDbLine
 10
360.5125577954456
 20
428.9235450983225
 30
0.0
 11
360.5125577954456
 21
423.8104486033903
 31
0.0
  0
LINE
  5
1A3
330
1F
100
AcDbEntity
  8
B-2_蓋
  6
Continuous
 62
     3
370
     9
100
AcDbLine
 10
359.0124786147021
 20
423.2989904900032
 30
0.0
 11
360.5125577954456
 21
423.8104486033903
 31
0.0
  0
LINE
  5
1A4
330
1F
100
AcDbEntity
  8
B-2_蓋
  6
Continuous
 62
     3
370
     9
100
AcDbLine
 10
359.0124786147021
 20
423.2989904900032
 30
0.0
 11
359.0124786147021
 21
416.751584319184
 31
0.0
  0
LINE
  5
1A5
330
1F
100
AcDbEntity
  8
B-2_蓋
  6
Continuous
 62
     3
370
     9
100
AcDbLine
 10
359.0124786147021
 20
416.751584319184
 30
0.0
 11
360.5125577954456
 21
416.2404231335843
 31
0.0
  0
LINE
  5
1A6
330
1F
100
AcDbEntity
  8
B-2_蓋
  6
Continuous
 62
     3
370
     9
100
AcDbLine
 10
359.0124786147021
 20
410.6157200613715
 30
0.0
 11
359.0124786147021
 21
406.2084209165236
 31
0.0
  0
LINE
  5
1A7
330
1F
100
AcDbEntity
  8
B-2_蓋
  6
Continuous
 62
     3
370
     9
100
AcDbLine
 10
359.0124786147021
 20
406.2084209165236
 30
0.0
 11
360.5125577954456
 21
405.6971112670303
 31
0.0
  0
LINE
  5
1A8
330
1F
100
AcDbEntity
  8
B-2_蓋
  6
Continuous
 62
     3
370
     9
100
AcDbLine
 10
359.0124786147021
 20
410.6157200613715
 30
0.0
 11
360.5125577954456
 21
411.1271781747582
 31
0.0
  0
LINE
  5
1A9
330
1F
100
AcDbEntity
  8
B-2_蓋
  6
Continuous
 62
     3
370
     9
100
AcDbLine
 10
360.5125577954456
 20
416.2404231335843
 30
0.0
 11
360.5125577954456
 21
411.1271781747582
 31
0.0
  0
LINE
  5
1AA
330
1F
100
AcDbEntity
  8
B-2_蓋
  6
Continuous
 62
     3
370
     9
100
AcDbLine
 10
360.5125577954456
 20
405.6971112670303
 30
0.0
 11
360.5125577954456
 21
400.5840147720978
 31
0.0
  0
LINE
  5
1AB
330
1F
100
AcDbEntity
  8
B-2_蓋
  6
Continuous
 62
     3
370
     9
100
AcDbLine
 10
359.0124786147021
 20
400.0725566587112
 30
0.0
 11
360.5125577954456
 21
400.5840147720978
 31
0.0
  0
LINE
  5
1AC
330
1F
100
AcDbEntity
  8
B-2_蓋
  6
Continuous
 62
     3
370
     9
100
AcDbLine
 10
359.0124786147021
 20
400.0725566587112
 30
0.0
 11
359.0124786147021
 21
393.5251504878918
 31
0.0
  0
LINE
  5
1AD
330
1F
100
AcDbEntity
  8
B-2_蓋
  6
Continuous
 62
     3
370
     9
100
AcDbLine
 10
359.0124786147021
 20
393.5251504878918
 30
0.0
 11
360.5125577954456
 21
393.0138408383987
 31
0.0
  0
LINE
  5
1AE
330
1F
100
AcDbEntity
  8
B-2_蓋
  6
Continuous
 62
     3
370
     9
100
AcDbLine
 10
359.0124786147021
 20
387.3892862300793
 30
0.0
 11
359.0124786147021
 21
382.9819870852312
 31
0.0
  0
LINE
  5
1AF
330
1F
100
AcDbEntity
  8
B-2_蓋
  6
Continuous
 62
     3
370
     9
100
AcDbLine
 10
359.0124786147021
 20
382.9819870852312
 30
0.0
 11
360.5125577954456
 21
382.4706774357383
 31
0.0
  0
LINE
  5
1B0
330
1F
100
AcDbEntity
  8
B-2_蓋
  6
Continuous
 62
     3
370
     9
100
AcDbLine
 10
359.0124786147021
 20
387.3892862300793
 30
0.0
 11
360.5125577954456
 21
387.9007443434664
 31
0.0
  0
LINE
  5
1B1
330
1F
100
AcDbEntity
  8
B-2_蓋
  6
Continuous
 62
     3
370
     9
100
AcDbLine
 10
360.5125577954456
 20
393.0138408383987
 30
0.0
 11
360.5125577954456
 21
387.9007443434664
 31
0.0
  0
LINE
  5
1B2
330
1F
100
AcDbEntity
  8
B-2_蓋
  6
Continuous
 62
     3
370
     9
100
AcDbLine
 10
360.5125577954456
 20
382.4706774357383
 30
0.0
 11
360.5125577954456
 21
377.3575809408059
 31
0.0
  0
LINE
  5
1B3
330
1F
100
AcDbEntity
  8
B-2_蓋
  6
Continuous
 62
     3
370
     9
100
AcDbLine
 10
359.0124786147021
 20
376.8461228274187
 30
0.0
 11
360.5125577954456
 21
377.3575809408059
 31
0.0
  0
LINE
  5
1B4
330
1F
100
AcDbEntity
  8
B-2_蓋
  6
Continuous
 62
     3
370
     9
100
AcDbLine
 10
359.0124786147021
 20
376.8461228274187
 30
0.0
 11
359.0124786147021
 21
370.2987166565997
 31
0.0
  0
LINE
  5
1B5
330
1F
100
AcDbEntity
  8
B-2_蓋
  6
Continuous
 62
     3
370
     9
100
AcDbLine
 10
359.0124786147021
 20
370.2987166565997
 30
0.0
 11
360.5125577954456
 21
369.7874070071062
 31
0.0
  0
LINE
  5
1B6
330
1F
100
AcDbEntity
  8
B-2_蓋
  6
Continuous
 62
     3
370
     9
100
AcDbLine
 10
359.0124786147021
 20
364.1628523987872
 30
0.0
 11
359.0124786147021
 21
359.7555532539393
 31
0.0
  0
LINE
  5
1B7
330
1F
100
AcDbEntity
  8
B-2_蓋
  6
Continuous
 62
     3
370
     9
100
AcDbLine
 10
359.0124786147021
 20
359.7555532539393
 30
0.0
 11
360.5125577954456
 21
359.2442436044457
 31
0.0
  0
LINE
  5
1B8
330
1F
100
AcDbEntity
  8
B-2_蓋
  6
Continuous
 62
     3
370
     9
100
AcDbLine
 10
359.0124786147021
 20
364.1628523987872
 30
0.0
 11
360.5125577954456
 21
364.6743105121739
 31
0.0
  0
LINE
  5
1B9
330
1F
100
AcDbEntity
  8
B-2_蓋
  6
Continuous
 62
     3
370
     9
100
AcDbLine
 10
360.5125577954456
 20
369.7874070071062
 30
0.0
 11
360.5125577954456
 21
364.6743105121739
 31
0.0
  0
LINE
  5
1BA
330
1F
100
AcDbEntity
  8
B-2_蓋
  6
Continuous
 62
     3
370
     9
100
AcDbLine
 10
360.5125577954456
 20
359.2442436044457
 30
0.0
 11
360.5125577954456
 21
354.1311471095134
 31
0.0
  0
LINE
  5
1BB
330
1F
100
AcDbEntity
  8
B-2_蓋
  6
Continuous
 62
     3
370
     9
100
AcDbLine
 10
359.0124786147021
 20
353.6196889961268
 30
0.0
 11
360.5125577954456
 21
354.1311471095134
 31
0.0
  0
LINE
  5
1BC
330
1F
100
AcDbEntity
  8
B-2_蓋
  6
Continuous
 62
     3
370
     9
100
AcDbLine
 10
359.0124786147021
 20
353.6196889961268
 30
0.0
 11
359.0124786147021
 21
347.0722828253075
 31
0.0
  0
LINE
  5
1BD
330
1F
100
AcDbEntity
  8
B-2_蓋
  6
Continuous
 62
     3
370
     9
100
AcDbLine
 10
359.0124786147021
 20
347.0722828253075
 30
0.0
 11
360.5125577954456
 21
346.5609731758143
 31
0.0
  0
LINE
  5
1BE
330
1F
100
AcDbEntity
  8
B-2_蓋
  6
Continuous
 62
     3
370
     9
100
AcDbLine
 10
359.0124786147021
 20
340.936418567495
 30
0.0
 11
359.0124786147021
 21
336.5291194226468
 31
0.0
  0
LINE
  5
1BF
330
1F
100
AcDbEntity
  8
B-2_蓋
  6
Continuous
 62
     3
370
     9
100
AcDbLine
 10
359.0124786147021
 20
336.5291194226468
 30
0.0
 11
360.5125577954456
 21
336.0178097731539
 31
0.0
  0
LINE
  5
1C0
330
1F
100
AcDbEntity
  8
B-2_蓋
  6
Continuous
 62
     3
370
     9
100
AcDbLine
 10
359.0124786147021
 20
340.936418567495
 30
0.0
 11
360.5125577954456
 21
341.447876680882
 31
0.0
  0
LINE
  5
1C1
330
1F
100
AcDbEntity
  8
B-2_蓋
  6
Continuous
 62
     3
370
     9
100
AcDbLine
 10
360.5125577954456
 20
346.5609731758143
 30
0.0
 11
360.5125577954456
 21
341.447876680882
 31
0.0
  0
LINE
  5
1C2
330
1F
100
AcDbEntity
  8
B-2_蓋
  6
Continuous
 62
     3
370
     9
100
AcDbLine
 10
360.5125577954456
 20
336.0178097731539
 30
0.0
 11
360.5125577954456
 21
330.904713278221
 31
0.0
  0
LINE
  5
1C3
330
1F
100
AcDbEntity
  8
B-2_蓋
  6
Continuous
 62
     3
370
     9
100
AcDbLine
 10
359.0124786147021
 20
330.3932551648343
 30
0.0
 11
360.5125577954456
 21
330.904713278221
 31
0.0
  0
LINE
  5
1C4
330
1F
100
AcDbEntity
  8
B-2_蓋
  6
Continuous
 62
     3
370
     9
100
AcDbLine
 10
359.0124786147021
 20
330.3932551648343
 30
0.0
 11
359.0124786147021
 21
323.8458489940153
 31
0.0
  0
LINE
  5
1C5
330
1F
100
AcDbEntity
  8
B-2_蓋
  6
Continuous
 62
     3
370
     9
100
AcDbLine
 10
359.0124786147021
 20
323.8458489940153
 30
0.0
 11
360.5125577954456
 21
323.3345393445218
 31
0.0
  0
LINE
  5
1C6
330
1F
100
AcDbEntity
  8
B-2_蓋
  6
Continuous
 62
     3
370
     9
100
AcDbLine
 10
359.0124786147021
 20
317.7099847362028
 30
0.0
 11
359.0124786147021
 21
313.3026855913549
 31
0.0
  0
LINE
  5
1C7
330
1F
100
AcDbEntity
  8
B-2_蓋
  6
Continuous
 62
     3
370
     9
100
AcDbLine
 10
359.0124786147021
 20
313.3026855913549
 30
0.0
 11
360.5125577954456
 21
312.7913759418614
 31
0.0
  0
LINE
  5
1C8
330
1F
100
AcDbEntity
  8
B-2_蓋
  6
Continuous
 62
     3
370
     9
100
AcDbLine
 10
359.0124786147021
 20
317.7099847362028
 30
0.0
 11
360.5125577954456
 21
318.2214428495896
 31
0.0
  0
LINE
  5
1C9
330
1F
100
AcDbEntity
  8
B-2_蓋
  6
Continuous
 62
     3
370
     9
100
AcDbLine
 10
360.5125577954456
 20
323.3345393445218
 30
0.0
 11
360.5125577954456
 21
318.2214428495896
 31
0.0
  0
LINE
  5
1CA
330
1F
100
AcDbEntity
  8
B-2_蓋
  6
Continuous
 62
     3
370
     9
100
AcDbLine
 10
360.5125577954456
 20
312.7913759418614
 30
0.0
 11
360.5125577954456
 21
307.6782794469289
 31
0.0
  0
LINE
  5
1CB
330
1F
100
AcDbEntity
  8
B-2_蓋
  6
Continuous
 62
     3
370
     9
100
AcDbLine
 10
359.0124786147021
 20
307.1668213335424
 30
0.0
 11
360.5125577954456
 21
307.6782794469289
 31
0.0
  0
LINE
  5
1CC
330
1F
100
AcDbEntity
  8
B-2_蓋
  6
Continuous
 62
     3
370
     9
100
AcDbLine
 10
359.0124786147021
 20
307.1668213335424
 30
0.0
 11
359.0124786147021
 21
300.6194151627228
 31
0.0
  0
LINE
  5
1CD
330
1F
100
AcDbEntity
  8
B-2_蓋
  6
Continuous
 62
     3
370
     9
100
AcDbLine
 10
359.0124786147021
 20
300.6194151627228
 30
0.0
 11
360.5125577954456
 21
300.1081055132299
 31
0.0
  0
LINE
  5
1CE
330
1F
100
AcDbEntity
  8
B-2_蓋
  6
Continuous
 62
     3
370
     9
100
AcDbLine
 10
359.0124786147021
 20
294.4835509049103
 30
0.0
 11
359.0124786147021
 21
290.0762517600625
 31
0.0
  0
LINE
  5
1CF
330
1F
100
AcDbEntity
  8
B-2_蓋
  6
Continuous
 62
     3
370
     9
100
AcDbLine
 10
359.0124786147021
 20
290.0762517600625
 30
0.0
 11
360.5125577954456
 21
289.5649421105695
 31
0.0
  0
LINE
  5
1D0
330
1F
100
AcDbEntity
  8
B-2_蓋
  6
Continuous
 62
     3
370
     9
100
AcDbLine
 10
359.0124786147021
 20
294.4835509049103
 30
0.0
 11
360.5125577954456
 21
294.9950090182977
 31
0.0
  0
LINE
  5
1D1
330
1F
100
AcDbEntity
  8
B-2_蓋
  6
Continuous
 62
     3
370
     9
100
AcDbLine
 10
360.5125577954456
 20
300.1081055132299
 30
0.0
 11
360.5125577954456
 21
294.9950090182977
 31
0.0
  0
LINE
  5
1D2
330
1F
100
AcDbEntity
  8
B-2_蓋
  6
Continuous
 62
     3
370
     9
100
AcDbLine
 10
360.5125577954456
 20
289.5649421105695
 30
0.0
 11
360.5125577954456
 21
284.4518456156367
 31
0.0
  0
LINE
  5
1D3
330
1F
100
AcDbEntity
  8
B-2_蓋
  6
Continuous
 62
     3
370
     9
100
AcDbLine
 10
359.0124786147021
 20
283.94038750225
 30
0.0
 11
360.5125577954456
 21
284.4518456156367
 31
0.0
  0
LINE
  5
1D4
330
1F
100
AcDbEntity
  8
B-2_蓋
  6
Continuous
 62
     3
370
     9
100
AcDbLine
 10
359.0124786147021
 20
283.94038750225
 30
0.0
 11
359.0124786147021
 21
277.392981331431
 31
0.0
  0
LINE
  5
1D5
330
1F
100
AcDbEntity
  8
B-2_蓋
  6
Continuous
 62
     3
370
     9
100
AcDbLine
 10
359.0124786147021
 20
277.392981331431
 30
0.0
 11
360.5125577954456
 21
276.8816716819375
 31
0.0
  0
LINE
  5
1D6
330
1F
100
AcDbEntity
  8
B-2_蓋
  6
Continuous
 62
     3
370
     9
100
AcDbLine
 10
360.5125577954456
 20
276.8816716819375
 30
0.0
 11
360.5125577954456
 21
271.7685751870049
 31
0.0
  0
LINE
  5
1D7
330
1F
100
AcDbEntity
  8
B-2_蓋
  6
Continuous
 62
     3
370
     9
100
AcDbLine
 10
359.0124786147021
 20
271.2571170736185
 30
0.0
 11
359.0124786147021
 21
266.8498179287706
 31
0.0
  0
LINE
  5
1D8
330
1F
100
AcDbEntity
  8
B-2_蓋
  6
Continuous
 62
     3
370
     9
100
AcDbLine
 10
359.0124786147021
 20
266.8498179287706
 30
0.0
 11
360.5125577954456
 21
266.3385082792768
 31
0.0
  0
LINE
  5
1D9
330
1F
100
AcDbEntity
  8
B-2_蓋
  6
Continuous
 62
     3
370
     9
100
AcDbLine
 10
359.0124786147021
 20
271.2571170736185
 30
0.0
 11
360.5125577954456
 21
271.7685751870049
 31
0.0
  0
LINE
  5
1DA
330
1F
100
AcDbEntity
  8
B-2_蓋
  6
Continuous
 62
     3
370
     9
100
AcDbLine
 10
360.5125577954456
 20
266.3385082792768
 30
0.0
 11
360.5125577954456
 21
261.2254117843445
 31
0.0
  0
LINE
  5
1DB
330
1F
100
AcDbEntity
  8
B-2_蓋
  6
Continuous
 62
     3
370
     9
100
AcDbLine
 10
359.0124786147021
 20
260.7139536709579
 30
0.0
 11
360.5125577954456
 21
261.2254117843445
 31
0.0
  0
LINE
  5
1DC
330
1F
100
AcDbEntity
  8
B-2_蓋
  6
Continuous
 62
     3
370
     9
100
AcDbLine
 10
359.0124786147021
 20
260.7139536709579
 30
0.0
 11
359.0124786147021
 21
254.1665475001385
 31
0.0
  0
LINE
  5
1DD
330
1F
100
AcDbEntity
  8
B-2_蓋
  6
Continuous
 62
     3
370
     9
100
AcDbLine
 10
359.0124786147021
 20
254.1665475001385
 30
0.0
 11
360.5125577954456
 21
253.6552378506454
 31
0.0
  0
LINE
  5
1DE
330
1F
100
AcDbEntity
  8
B-2_蓋
  6
Continuous
 62
     3
370
     9
100
AcDbLine
 10
359.0124786147021
 20
248.030683242326
 30
0.0
 11
359.0124786147021
 21
243.6233840974778
 31
0.0
  0
LINE
  5
1DF
330
1F
100
AcDbEntity
  8
B-2_蓋
  6
Continuous
 62
     3
370
     9
100
AcDbLine
 10
359.0124786147021
 20
243.6233840974778
 30
0.0
 11
360.5125577954456
 21
243.1120744479846
 31
0.0
  0
LINE
  5
1E0
330
1F
100
AcDbEntity
  8
B-2_蓋
  6
Continuous
 62
     3
370
     9
100
AcDbLine
 10
359.0124786147021
 20
248.030683242326
 30
0.0
 11
360.5125577954456
 21
248.5421413557127
 31
0.0
  0
LINE
  5
1E1
330
1F
100
AcDbEntity
  8
B-2_蓋
  6
Continuous
 62
     3
370
     9
100
AcDbLine
 10
360.5125577954456
 20
253.6552378506454
 30
0.0
 11
360.5125577954456
 21
248.5421413557127
 31
0.0
  0
LINE
  5
1E2
330
1F
100
AcDbEntity
  8
B-2_蓋
  6
Continuous
 62
     3
370
     9
100
AcDbLine
 10
360.5125577954456
 20
243.1120744479846
 30
0.0
 11
360.5125577954456
 21
237.9989779530523
 31
0.0
  0
LINE
  5
1E3
330
1F
100
AcDbEntity
  8
B-2_蓋
  6
Continuous
 62
     3
370
     9
100
AcDbLine
 10
359.0124786147021
 20
237.4875198396653
 30
0.0
 11
360.5125577954456
 21
237.9989779530523
 31
0.0
  0
LINE
  5
1E4
330
1F
100
AcDbEntity
  8
B-2_蓋
  6
Continuous
 62
     3
370
     9
100
AcDbLine
 10
359.0124786147021
 20
237.4875198396653
 30
0.0
 11
359.0124786147021
 21
230.9401136688462
 31
0.0
  0
LINE
  5
1E5
330
1F
100
AcDbEntity
  8
B-2_蓋
  6
Continuous
 62
     3
370
     9
100
AcDbLine
 10
359.0124786147021
 20
230.9401136688462
 30
0.0
 11
360.5125577954456
 21
230.4288040193529
 31
0.0
  0
LINE
  5
1E6
330
1F
100
AcDbEntity
  8
B-2_蓋
  6
Continuous
 62
     3
370
     9
100
AcDbLine
 10
360.5125577954456
 20
230.4288040193529
 30
0.0
 11
360.5125577954456
 21
225.3157075244207
 31
0.0
  0
LINE
  5
1E7
330
1F
100
AcDbEntity
  8
B-2_蓋
  6
Continuous
 62
     3
370
     9
100
AcDbLine
 10
359.0124786147021
 20
224.8042494110337
 30
0.0
 11
359.0124786147021
 21
220.3969502661857
 31
0.0
  0
LINE
  5
1E8
330
1F
100
AcDbEntity
  8
B-2_蓋
  6
Continuous
 62
     3
370
     9
100
AcDbLine
 10
359.0124786147021
 20
220.3969502661857
 30
0.0
 11
360.5125577954456
 21
219.8856406166925
 31
0.0
  0
LINE
  5
1E9
330
1F
100
AcDbEntity
  8
B-2_蓋
  6
Continuous
 62
     3
370
     9
100
AcDbLine
 10
359.0124786147021
 20
224.8042494110337
 30
0.0
 11
360.5125577954456
 21
225.3157075244207
 31
0.0
  0
LINE
  5
1EA
330
1F
100
AcDbEntity
  8
B-2_蓋
  6
Continuous
 62
     3
370
     9
100
AcDbLine
 10
360.5125577954456
 20
219.8856406166925
 30
0.0
 11
360.5125577954456
 21
214.7725441217602
 31
0.0
  0
LINE
  5
1EB
330
1F
100
AcDbEntity
  8
B-2_蓋
  6
Continuous
 62
     3
370
     9
100
AcDbLine
 10
359.0124786147021
 20
214.2610860083732
 30
0.0
 11
360.5125577954456
 21
214.7725441217602
 31
0.0
  0
LINE
  5
1EC
330
1F
100
AcDbEntity
  8
B-2_蓋
  6
Continuous
 62
     3
370
     9
100
AcDbLine
 10
359.0124786147021
 20
214.2610860083732
 30
0.0
 11
359.0124786147021
 21
207.713679837554
 31
0.0
  0
LINE
  5
1ED
330
1F
100
AcDbEntity
  8
B-2_蓋
  6
Continuous
 62
     3
370
     9
100
AcDbLine
 10
359.0124786147021
 20
207.713679837554
 30
0.0
 11
360.5125577954456
 21
207.2023701880607
 31
0.0
  0
LINE
  5
1EE
330
1F
100
AcDbEntity
  8
B-2_蓋
  6
Continuous
 62
     3
370
     9
100
AcDbLine
 10
359.0124786147021
 20
201.5778155797415
 30
0.0
 11
359.0124786147021
 21
197.1705164348936
 31
0.0
  0
LINE
  5
1EF
330
1F
100
AcDbEntity
  8
B-2_蓋
  6
Continuous
 62
     3
370
     9
100
AcDbLine
 10
359.0124786147021
 20
197.1705164348936
 30
0.0
 11
360.5125577954456
 21
196.6592067854004
 31
0.0
  0
LINE
  5
1F0
330
1F
100
AcDbEntity
  8
B-2_蓋
  6
Continuous
 62
     3
370
     9
100
AcDbLine
 10
359.0124786147021
 20
201.5778155797415
 30
0.0
 11
360.5125577954456
 21
202.0892736931285
 31
0.0
  0
LINE
  5
1F1
330
1F
100
AcDbEntity
  8
B-2_蓋
  6
Continuous
 62
     3
370
     9
100
AcDbLine
 10
360.5125577954456
 20
207.2023701880607
 30
0.0
 11
360.5125577954456
 21
202.0892736931285
 31
0.0
  0
LINE
  5
1F2
330
1F
100
AcDbEntity
  8
B-2_蓋
  6
Continuous
 62
     3
370
     9
100
AcDbLine
 10
360.5125577954456
 20
196.6592067854004
 30
0.0
 11
360.5125577954456
 21
191.5461102904681
 31
0.0
  0
LINE
  5
1F3
330
1F
100
AcDbEntity
  8
B-2_蓋
  6
Continuous
 62
     3
370
     9
100
AcDbLine
 10
359.0124786147021
 20
191.0346521770811
 30
0.0
 11
360.5125577954456
 21
191.5461102904681
 31
0.0
  0
LINE
  5
1F4
330
1F
100
AcDbEntity
  8
B-2_蓋
  6
Continuous
 62
     3
370
     9
100
AcDbLine
 10
359.0124786147021
 20
191.0346521770811
 30
0.0
 11
359.0124786147021
 21
184.4872460062618
 31
0.0
  0
LINE
  5
1F5
330
1F
100
AcDbEntity
  8
B-2_蓋
  6
Continuous
 62
     3
370
     9
100
AcDbLine
 10
359.0124786147021
 20
184.4872460062618
 30
0.0
 11
360.5125577954456
 21
183.9759363567686
 31
0.0
  0
LINE
  5
1F6
330
1F
100
AcDbEntity
  8
B-2_蓋
  6
Continuous
 62
     3
370
     9
100
AcDbLine
 10
360.5125577954456
 20
183.9759363567686
 30
0.0
 11
360.5125577954456
 21
178.8628398618361
 31
0.0
  0
LINE
  5
1F7
330
1F
100
AcDbEntity
  8
B-2_蓋
  6
Continuous
 62
     3
370
     9
100
AcDbLine
 10
359.0124786147021
 20
178.3513817484493
 30
0.0
 11
359.0124786147021
 21
173.9440826036014
 31
0.0
  0
LINE
  5
1F8
330
1F
100
AcDbEntity
  8
B-2_蓋
  6
Continuous
 62
     3
370
     9
100
AcDbLine
 10
359.0124786147021
 20
173.9440826036014
 30
0.0
 11
360.5125577954456
 21
173.4327729541082
 31
0.0
  0
LINE
  5
1F9
330
1F
100
AcDbEntity
  8
B-2_蓋
  6
Continuous
 62
     3
370
     9
100
AcDbLine
 10
359.0124786147021
 20
178.3513817484493
 30
0.0
 11
360.5125577954456
 21
178.8628398618361
 31
0.0
  0
LINE
  5
1FA
330
1F
100
AcDbEntity
  8
B-2_蓋
  6
Continuous
 62
     3
370
     9
100
AcDbLine
 10
360.5125577954456
 20
173.4327729541082
 30
0.0
 11
360.5125577954456
 21
168.3196764591758
 31
0.0
  0
LINE
  5
1FB
330
1F
100
AcDbEntity
  8
B-2_蓋
  6
Continuous
 62
     3
370
     9
100
AcDbLine
 10
359.0124786147021
 20
167.8082183457889
 30
0.0
 11
360.5125577954456
 21
168.3196764591758
 31
0.0
  0
LINE
  5
1FC
330
1F
100
AcDbEntity
  8
B-2_蓋
  6
Continuous
 62
     3
370
     9
100
AcDbLine
 10
359.0124786147021
 20
167.8082183457889
 30
0.0
 11
359.0124786147021
 21
163.4007707370472
 31
0.0
  0
LINE
  5
1FD
330
1F
100
AcDbEntity
  8
B-2_蓋
  6
Continuous
 62
     3
370
     9
100
AcDbLine
 10
359.0124786147021
 20
163.4007707370472
 30
0.0
 11
360.5125577954456
 21
162.889461087554
 31
0.0
  0
LINE
  5
1FE
330
1F
100
AcDbEntity
  8
B-2_蓋
  6
Continuous
 62
     3
370
     9
100
AcDbLine
 10
360.5125577954456
 20
162.889461087554
 30
0.0
 11
360.5125577954456
 21
157.7763645926217
 31
0.0
  0
LINE
  5
1FF
330
1F
100
AcDbEntity
  8
B-2_蓋
  6
Continuous
 62
     3
370
     9
100
AcDbLine
 10
359.0124786147021
 20
157.2649064792347
 30
0.0
 11
360.5125577954456
 21
157.7763645926217
 31
0.0
  0
LINE
  5
200
330
1F
100
AcDbEntity
  8
B-2_蓋
  6
Continuous
 62
     3
370
     9
100
AcDbLine
 10
359.0124786147021
 20
157.2649064792347
 30
0.0
 11
359.0124786147021
 21
152.8574588704935
 31
0.0
  0
LINE
  5
201
330
1F
100
AcDbEntity
  8
B-2_蓋
  6
Continuous
 62
     3
370
     9
100
AcDbLine
 10
359.0124786147021
 20
152.8574588704935
 30
0.0
 11
360.5125577954456
 21
152.3461492209999
 31
0.0
  0
LINE
  5
202
330
1F
100
AcDbEntity
  8
B-2_蓋
  6
Continuous
 62
     3
370
     9
100
AcDbLine
 10
360.5125577954456
 20
152.3461492209999
 30
0.0
 11
360.5125577954456
 21
147.2330527260675
 31
0.0
  0
LINE
  5
203
330
1F
100
AcDbEntity
  8
B-2_蓋
  6
Continuous
 62
     3
370
     9
100
AcDbLine
 10
359.0124786147021
 20
146.721594612681
 30
0.0
 11
360.5125577954456
 21
147.2330527260675
 31
0.0
  0
LINE
  5
204
330
1F
100
AcDbEntity
  8
B-2_蓋
  6
Continuous
 62
     3
370
     9
100
AcDbLine
 10
359.0124786147021
 20
146.721594612681
 30
0.0
 11
359.0124786147021
 21
142.3141470039393
 31
0.0
  0
LINE
  5
205
330
1F
100
AcDbEntity
  8
B-2_蓋
  6
Continuous
 62
     3
370
     9
100
AcDbLine
 10
359.0124786147021
 20
142.3141470039393
 30
0.0
 11
360.5125577954456
 21
141.8028373544458
 31
0.0
  0
LINE
  5
206
330
1F
100
AcDbEntity
  8
B-2_蓋
  6
Continuous
 62
     3
370
     9
100
AcDbLine
 10
360.5125577954456
 20
141.8028373544458
 30
0.0
 11
360.5125577954456
 21
136.6897408595134
 31
0.0
  0
LINE
  5
207
330
1F
100
AcDbEntity
  8
B-2_蓋
  6
Continuous
 62
     3
370
     9
100
AcDbLine
 10
359.0124786147021
 20
136.1782827461268
 30
0.0
 11
360.5125577954456
 21
136.6897408595134
 31
0.0
  0
LINE
  5
208
330
1F
100
AcDbEntity
  8
B-2_蓋
  6
Continuous
 62
     3
370
     9
100
AcDbLine
 10
359.0124786147021
 20
136.1782827461268
 30
0.0
 11
359.0124786147021
 21
131.7708351373853
 31
0.0
  0
LINE
  5
209
330
1F
100
AcDbEntity
  8
B-2_蓋
  6
Continuous
 62
     3
370
     9
100
AcDbLine
 10
359.0124786147021
 20
131.7708351373853
 30
0.0
 11
360.5125577954456
 21
131.2595254878921
 31
0.0
  0
LINE
  5
20A
330
1F
100
AcDbEntity
  8
B-2_蓋
  6
Continuous
 62
     3
370
     9
100
AcDbLine
 10
360.5125577954456
 20
131.2595254878921
 30
0.0
 11
360.5125577954456
 21
126.1464289929593
 31
0.0
  0
LINE
  5
20B
330
1F
100
AcDbEntity
  8
B-2_蓋
  6
Continuous
 62
     3
370
     9
100
AcDbLine
 10
359.0124786147021
 20
125.6349708795728
 30
0.0
 11
360.5125577954456
 21
126.1464289929593
 31
0.0
  0
LINE
  5
20C
330
1F
100
AcDbEntity
  8
B-2_蓋
  6
Continuous
 62
     3
370
     9
100
AcDbLine
 10
359.0124786147021
 20
125.6349708795728
 30
0.0
 11
359.0124786147021
 21
121.2276717347249
 31
0.0
  0
LINE
  5
20D
330
1F
100
AcDbEntity
  8
B-2_蓋
  6
Continuous
 62
     3
370
     9
100
AcDbLine
 10
359.0124786147021
 20
121.2276717347249
 30
0.0
 11
360.5125577954456
 21
120.7162136213379
 31
0.0
  0
LINE
  5
20E
330
1F
100
AcDbEntity
  8
B-2_蓋
  6
Continuous
 62
     3
370
     9
100
AcDbLine
 10
360.5125577954456
 20
120.7162136213379
 30
0.0
 11
360.5125577954456
 21
115.6031171264056
 31
0.0
  0
LINE
  5
20F
330
1F
100
AcDbEntity
  8
B-2_蓋
  6
Continuous
 62
     3
370
     9
100
AcDbLine
 10
359.0124786147021
 20
115.0916590130187
 30
0.0
 11
360.5125577954456
 21
115.6031171264056
 31
0.0
  0
LINE
  5
210
330
1F
100
AcDbEntity
  8
B-2_蓋
  6
Continuous
 62
     3
370
     9
100
AcDbLine
 10
359.0124786147021
 20
115.0916590130187
 30
0.0
 11
359.0124786147021
 21
110.6843598681708
 31
0.0
  0
LINE
  5
211
330
1F
100
AcDbEntity
  8
B-2_蓋
  6
Continuous
 62
     3
370
     9
100
AcDbLine
 10
359.0124786147021
 20
110.6843598681708
 30
0.0
 11
360.5125577954456
 21
110.1729017547838
 31
0.0
  0
LINE
  5
212
330
1F
100
AcDbEntity
  8
B-2_蓋
  6
Continuous
 62
     3
370
     9
100
AcDbLine
 10
360.5125577954456
 20
110.1729017547838
 30
0.0
 11
360.5125577954456
 21
105.0598052598515
 31
0.0
  0
LINE
  5
213
330
1F
100
AcDbEntity
  8
B-2_蓋
  6
Continuous
 62
     3
370
     9
100
AcDbLine
 10
359.0124786147021
 20
104.5483471464648
 30
0.0
 11
360.5125577954456
 21
105.0598052598515
 31
0.0
  0
LINE
  5
214
330
1F
100
AcDbEntity
  8
B-2_蓋
  6
Continuous
 62
     3
370
     9
100
AcDbLine
 10
359.0124786147021
 20
104.5483471464648
 30
0.0
 11
359.0124786147021
 21
100.1410480016169
 31
0.0
  0
LINE
  5
215
330
1F
100
AcDbEntity
  8
B-2_蓋
  6
Continuous
 62
     3
370
     9
100
AcDbLine
 10
359.0124786147021
 20
100.1410480016169
 30
0.0
 11
360.5125577954456
 21
99.6295898882299
 31
0.0
  0
LINE
  5
216
330
1F
100
AcDbEntity
  8
B-2_蓋
  6
Continuous
 62
     3
370
     9
100
AcDbLine
 10
360.5125577954456
 20
99.6295898882299
 30
0.0
 11
360.5125577954456
 21
94.51649339329765
 31
0.0
  0
LINE
  5
217
330
1F
100
AcDbEntity
  8
B-2_蓋
  6
Continuous
 62
     3
370
     9
100
AcDbLine
 10
359.0124786147021
 20
94.00503527991094
 30
0.0
 11
360.5125577954456
 21
94.51649339329765
 31
0.0
  0
LINE
  5
218
330
1F
100
AcDbEntity
  8
B-2_蓋
  6
Continuous
 62
     3
370
     9
100
AcDbLine
 10
359.0124786147021
 20
94.00503527991094
 30
0.0
 11
359.0124786147021
 21
89.59773613506302
 31
0.0
  0
LINE
  5
219
330
1F
100
AcDbEntity
  8
B-2_蓋
  6
Continuous
 62
     3
370
     9
100
AcDbLine
 10
359.0124786147021
 20
89.59773613506302
 30
0.0
 11
360.5125577954456
 21
89.08627802167601
 31
0.0
  0
LINE
  5
21A
330
1F
100
AcDbEntity
  8
B-2_蓋
  6
Continuous
 62
     3
370
     9
100
AcDbLine
 10
360.5125577954456
 20
89.08627802167601
 30
0.0
 11
360.5125577954456
 21
83.97318152674376
 31
0.0
  0
LINE
  5
21B
330
1F
100
AcDbEntity
  8
B-2_蓋
  6
Continuous
 62
     3
370
     9
100
AcDbLine
 10
359.0124786147021
 20
83.46172341335705
 30
0.0
 11
360.5125577954456
 21
83.97318152674376
 31
0.0
  0
LINE
  5
21C
330
1F
100
AcDbEntity
  8
B-2_蓋
  6
Continuous
 62
     3
370
     9
100
AcDbLine
 10
359.0124786147021
 20
83.46172341335705
 30
0.0
 11
359.0124786147021
 21
79.05442426850912
 31
0.0
  0
LINE
  5
21D
330
1F
100
AcDbEntity
  8
B-2_蓋
  6
Continuous
 62
     3
370
     9
100
AcDbLine
 10
359.0124786147021
 20
79.05442426850912
 30
0.0
 11
360.5125577954456
 21
78.54296615512212
 31
0.0
  0
LINE
  5
21E
330
1F
100
AcDbEntity
  8
B-2_蓋
  6
Continuous
 62
     3
370
     9
100
AcDbLine
 10
360.5125577954456
 20
78.54296615512212
 30
0.0
 11
360.5125577954456
 21
73.42986966018987
 31
0.0
  0
LINE
  5
21F
330
1F
100
AcDbEntity
  8
B-2_蓋
  6
Continuous
 62
     3
370
     9
100
AcDbLine
 10
359.0124786147021
 20
72.91841154680316
 30
0.0
 11
360.5125577954456
 21
73.42986966018987
 31
0.0
  0
LINE
  5
220
330
1F
100
AcDbEntity
  8
B-2_蓋
  6
Continuous
 62
     3
370
     9
100
AcDbLine
 10
359.0124786147021
 20
72.91841154680316
 30
0.0
 11
359.0124786147021
 21
68.51111240195523
 31
0.0
  0
LINE
  5
221
330
1F
100
AcDbEntity
  8
B-2_蓋
  6
Continuous
 62
     3
370
     9
100
AcDbLine
 10
359.0124786147021
 20
68.51111240195523
 30
0.0
 11
360.5125577954456
 21
67.99965428856822
 31
0.0
  0
LINE
  5
222
330
1F
100
AcDbEntity
  8
B-2_蓋
  6
Continuous
 62
     3
370
     9
100
AcDbLine
 10
360.5125577954456
 20
67.99965428856822
 30
0.0
 11
360.5125577954456
 21
62.88655779363597
 31
0.0
  0
LINE
  5
223
330
1F
100
AcDbEntity
  8
B-2_蓋
  6
Continuous
 62
     3
370
     9
100
AcDbLine
 10
359.0124786147021
 20
62.37509968024926
 30
0.0
 11
360.5125577954456
 21
62.88655779363597
 31
0.0
  0
LINE
  5
224
330
1F
100
AcDbEntity
  8
B-2_蓋
  6
Continuous
 62
     3
370
     9
100
AcDbLine
 10
360.5125577954456
 20
553.971045296275
 30
0.0
 11
360.5125577954456
 21
549.4708077540456
 31
0.0
  0
LINE
  5
225
330
1F
100
AcDbEntity
  8
B-2_蓋
  6
Continuous
 62
     3
370
     9
100
AcDbLine
 10
360.5125577954456
 20
58.47072197490677
 30
0.0
 11
360.5125577954456
 21
53.97063289657055
 31
0.0
  0
LINE
  5
226
330
1F
100
AcDbEntity
  8
B-2_蓋
  6
Continuous
 62
     3
370
     9
100
AcDbLine
 10
359.0124786147021
 20
62.37509968024926
 30
0.0
 11
359.0124786147021
 21
58.47072197490677
 31
0.0
  0
LINE
  5
227
330
1F
100
AcDbEntity
  8
B-2_蓋
  6
Continuous
 62
     3
370
     9
100
AcDbLine
 10
359.0124786147021
 20
549.4708077540456
 30
0.0
 11
359.0124786147021
 21
545.5667269764898
 31
0.0
  0
LINE
  5
228
330
1F
100
AcDbEntity
  8
B-2_蓋
  6
Continuous
 62
     3
370
     9
100
AcDbLine
 10
359.0124786147021
 20
549.4706592901518
 30
0.0
 11
404.5128019360706
 21
549.4706592901518
 31
0.0
  0
LINE
  5
229
330
1F
100
AcDbEntity
  8
B-2_蓋
  6
Continuous
 62
     3
370
     9
100
AcDbLine
 10
368.9981600969659
 20
503.9710556062677
 30
0.0
 11
364.7553589462059
 21
499.7284771513479
 31
0.0
  0
LINE
  5
22A
330
1F
100
AcDbEntity
  8
B-2_蓋
  6
Continuous
 62
     3
370
     9
100
AcDbLine
 10
364.7553589462059
 20
499.7284771513479
 30
0.0
 11
360.5125577954456
 21
503.9710556062677
 31
0.0
  0
LINE
  5
22B
330
1F
100
AcDbEntity
  8
B-2_蓋
  6
Continuous
 62
     3
370
     9
100
AcDbLine
 10
360.5125577954456
 20
503.9710556062677
 30
0.0
 11
364.7553589462059
 21
508.2135598292407
 31
0.0
  0
LINE
  5
22C
330
1F
100
AcDbEntity
  8
B-2_蓋
  6
Continuous
 62
     3
370
     9
100
AcDbLine
 10
364.7553589462059
 20
508.2135598292407
 30
0.0
 11
368.9981600969659
 21
503.9710556062677
 31
0.0
  0
LINE
  5
22D
330
1F
100
AcDbEntity
  8
B-2_蓋
  6
Continuous
 62
     3
370
     9
100
AcDbLine
 10
368.5126831649559
 20
549.4706592901518
 30
0.0
 11
368.5126831649559
 21
504.4564985627069
 31
0.0
  0
LINE
  5
22E
330
1F
100
AcDbEntity
  8
B-2_蓋
  6
Continuous
 62
     3
370
     9
100
AcDbLine
 10
368.5126831649559
 20
503.4858416264736
 30
0.0
 11
368.5126831649559
 21
396.9561510685514
 31
0.0
  0
LINE
  5
22F
330
1F
100
AcDbEntity
  8
B-2_蓋
  6
Continuous
 62
     3
370
     9
100
AcDbLine
 10
368.9981600969659
 20
403.9710288002866
 30
0.0
 11
364.7553589462059
 21
399.7284503453669
 31
0.0
  0
LINE
  5
230
330
1F
100
AcDbEntity
  8
B-2_蓋
  6
Continuous
 62
     3
370
     9
100
AcDbLine
 10
364.7553589462059
 20
399.7284503453669
 30
0.0
 11
360.5125577954456
 21
403.9710288002866
 31
0.0
  0
LINE
  5
231
330
1F
100
AcDbEntity
  8
B-2_蓋
  6
Continuous
 62
     3
370
     9
100
AcDbLine
 10
360.5125577954456
 20
403.9710288002866
 30
0.0
 11
364.7553589462059
 21
408.2136072552065
 31
0.0
  0
LINE
  5
232
330
1F
100
AcDbEntity
  8
B-2_蓋
  6
Continuous
 62
     3
370
     9
100
AcDbLine
 10
364.7553589462059
 20
408.2136072552065
 30
0.0
 11
368.9981600969659
 21
403.9710288002866
 31
0.0
  0
LINE
  5
233
330
1F
100
AcDbEntity
  8
B-2_蓋
  6
JWW_CENTER1
 62
     3
370
     9
100
AcDbLine
 10
337.9493121767803
 20
303.9709133283696
 30
0.0
 11
418.6671889159497
 21
303.9709133283696
 31
0.0
  0
LINE
  5
234
330
1F
100
AcDbEntity
  8
B-2_蓋
  6
Continuous
 62
     3
370
     9
100
AcDbLine
 10
368.9981600969659
 20
303.9709133283697
 30
0.0
 11
364.7553589462059
 21
299.7283348734499
 31
0.0
  0
LINE
  5
235
330
1F
100
AcDbEntity
  8
B-2_蓋
  6
Continuous
 62
     3
370
     9
100
AcDbLine
 10
364.7553589462059
 20
299.7283348734499
 30
0.0
 11
360.5125577954456
 21
303.9709133283697
 31
0.0
  0
LINE
  5
236
330
1F
100
AcDbEntity
  8
B-2_蓋
  6
Continuous
 62
     3
370
     9
100
AcDbLine
 10
360.5125577954456
 20
303.9709133283697
 30
0.0
 11
364.7553589462059
 21
308.2134917832894
 31
0.0
  0
LINE
  5
237
330
1F
100
AcDbEntity
  8
B-2_蓋
  6
Continuous
 62
     3
370
     9
100
AcDbLine
 10
364.7553589462059
 20
308.2134917832894
 30
0.0
 11
368.9981600969659
 21
303.9709133283697
 31
0.0
  0
LINE
  5
238
330
1F
100
AcDbEntity
  8
B-2_蓋
  6
Continuous
 62
     3
370
     9
100
AcDbLine
 10
368.5126831649559
 20
395.9853456684247
 30
0.0
 11
368.5126831649559
 21
304.4563647787016
 31
0.0
  0
LINE
  5
239
330
1F
100
AcDbEntity
  8
B-2_蓋
  6
Continuous
 62
     3
370
     9
100
AcDbLine
 10
368.9981600969659
 20
203.9706968185247
 30
0.0
 11
364.7553589462059
 21
208.2133495053913
 31
0.0
  0
LINE
  5
23A
330
1F
100
AcDbEntity
  8
B-2_蓋
  6
Continuous
 62
     3
370
     9
100
AcDbLine
 10
364.7553589462059
 20
208.2133495053913
 30
0.0
 11
360.5125577954456
 21
203.9706968185247
 31
0.0
  0
LINE
  5
23B
330
1F
100
AcDbEntity
  8
B-2_蓋
  6
Continuous
 62
     3
370
     9
100
AcDbLine
 10
360.5125577954456
 20
203.9706968185247
 30
0.0
 11
364.7553589462059
 21
199.7281183636051
 31
0.0
  0
LINE
  5
23C
330
1F
100
AcDbEntity
  8
B-2_蓋
  6
Continuous
 62
     3
370
     9
100
AcDbLine
 10
364.7553589462059
 20
199.7281183636051
 30
0.0
 11
368.9981600969659
 21
203.9706968185247
 31
0.0
  0
LINE
  5
23D
330
1F
100
AcDbEntity
  8
B-2_蓋
  6
Continuous
 62
     3
370
     9
100
AcDbLine
 10
368.5126831649559
 20
204.4561567627493
 30
0.0
 11
368.5126831649559
 21
303.485559378575
 31
0.0
  0
LINE
  5
23E
330
1F
100
AcDbEntity
  8
B-2_蓋
  6
Continuous
 62
     3
370
     9
100
AcDbLine
 10
368.9981600969659
 20
103.9706968185247
 30
0.0
 11
364.7553589462059
 21
108.2133495053913
 31
0.0
  0
LINE
  5
23F
330
1F
100
AcDbEntity
  8
B-2_蓋
  6
Continuous
 62
     3
370
     9
100
AcDbLine
 10
364.7553589462059
 20
108.2133495053913
 30
0.0
 11
360.5125577954456
 21
103.9706968185247
 31
0.0
  0
LINE
  5
240
330
1F
100
AcDbEntity
  8
B-2_蓋
  6
Continuous
 62
     3
370
     9
100
AcDbLine
 10
360.5125577954456
 20
103.9706968185247
 30
0.0
 11
364.7553589462059
 21
99.72811836360509
 31
0.0
  0
LINE
  5
241
330
1F
100
AcDbEntity
  8
B-2_蓋
  6
Continuous
 62
     3
370
     9
100
AcDbLine
 10
364.7553589462059
 20
99.72811836360509
 30
0.0
 11
368.9981600969659
 21
103.9706968185247
 31
0.0
  0
LINE
  5
242
330
1F
100
AcDbEntity
  8
B-2_蓋
  6
Continuous
 62
     3
370
     9
100
AcDbLine
 10
368.5126831649559
 20
58.47057351101309
 30
0.0
 11
368.5126831649559
 21
103.4854998265161
 31
0.0
  0
LINE
  5
243
330
1F
100
AcDbEntity
  8
B-2_蓋
  6
Continuous
 62
     3
370
     9
100
AcDbLine
 10
368.5126831649559
 20
104.4561567627493
 30
0.0
 11
368.5126831649559
 21
203.4854255945693
 31
0.0
  0
LWPOLYLINE
  5
244
330
1F
100
AcDbEntity
  8
B-4_寸法
  6
Continuous
 62
     7
370
     9
100
AcDbPolyline
 90
        4
 70
     1
 43
1.2
 10
361.1125577954457
 20
-27.77208841164814
 42
0.4142135623731
 10
360.5125577954457
 20
-27.17208841164814
 42
0.4142135623731
 10
359.9125577954457
 20
-27.77208841164814
 42
0.4142135623731
 10
360.5125577954457
 20
-28.37208841164814
 42
0.4142135623731
  0
LWPOLYLINE
  5
245
330
1F
100
AcDbEntity
  8
B-4_寸法
  6
Continuous
 62
     7
370
     9
100
AcDbPolyline
 90
        4
 70
     1
 43
1.2
 10
405.1128019360706
 20
-27.77208841164814
 42
0.4142135623731
 10
404.5128019360706
 20
-27.17208841164814
 42
0.4142135623731
 10
403.9128019360707
 20
-27.77208841164814
 42
0.4142135623731
 10
404.5128019360706
 20
-28.37208841164814
 42
0.4142135623731
  0
LINE
  5
246
330
1F
100
AcDbEntity
  8
B-4_寸法
  6
Continuous
 62
     7
370
     9
100
AcDbLine
 10
404.5128019360706
 20
-29.27208841164818
 30
0.0
 11
404.5128019360706
 21
48.47072197490678
 31
0.0
  0
LWPOLYLINE
  5
247
330
1F
100
AcDbEntity
  8
B-4_寸法
  6
Continuous
 62
     7
370
     9
100
AcDbPolyline
 90
        4
 70
     1
 43
1.2
 10
361.1125577954457
 20
-73.53416635197368
 42
0.4142135623731
 10
360.5125577954457
 20
-72.93416635197369
 42
0.4142135623731
 10
359.9125577954457
 20
-73.53416635197368
 42
0.4142135623731
 10
360.5125577954457
 20
-74.13416635197369
 42
0.4142135623731
  0
LINE
  5
248
330
1F
100
AcDbEntity
  8
B-4_寸法
  6
Continuous
 62
     7
370
     9
100
AcDbLine
 10
360.5125577954457
 20
-75.03416635197377
 30
0.0
 11
360.5125577954457
 21
33.97099580831041
 31
0.0
  0
LWPOLYLINE
  5
249
330
1F
100
AcDbEntity
  8
B-4_寸法
  6
Continuous
 62
     7
370
     9
100
AcDbPolyline
 90
        4
 70
     1
 43
1.2
 10
411.1128217312565
 20
-73.53416635197368
 42
0.4142135623731
 10
410.5128217312566
 20
-72.93416635197369
 42
0.4142135623731
 10
409.9128217312566
 20
-73.53416635197368
 42
0.4142135623731
 10
410.5128217312566
 20
-74.13416635197369
 42
0.4142135623731
  0
LINE
  5
24A
330
1F
100
AcDbEntity
  8
B-4_寸法
  6
Continuous
 62
     7
370
     9
100
AcDbLine
 10
410.5128217312566
 20
-75.03416635197377
 30
0.0
 11
410.5128217312566
 21
33.97099580831041
 31
0.0
  0
LWPOLYLINE
  5
24B
330
1F
100
AcDbEntity
  8
B-4_寸法
  6
Continuous
 62
     7
370
     9
100
AcDbPolyline
 90
        4
 70
     1
 43
1.2
 10
247.8110345069468
 20
43.97099580831039
 42
0.4142135623731
 10
247.2110345069468
 20
44.57099580831039
 42
0.4142135623731
 10
246.6110345069468
 20
43.97099580831039
 42
0.4142135623731
 10
247.2110345069468
 20
43.3709958083104
 42
0.4142135623731
  0
LINE
  5
24C
330
1F
100
AcDbEntity
  8
B-4_寸法
  6
Continuous
 62
     7
370
     9
100
AcDbLine
 10
245.7110345069468
 20
43.97099580831039
 30
0.0
 11
350.5125577954457
 21
43.97099580831039
 31
0.0
  0
LWPOLYLINE
  5
24D
330
1F
100
AcDbEntity
  8
B-4_寸法
  6
Continuous
 62
     7
370
     9
100
AcDbPolyline
 90
        4
 70
     1
 43
1.2
 10
247.8110345069468
 20
563.9708308484289
 42
0.4142135623731
 10
247.2110345069468
 20
564.5708308484288
 42
0.4142135623731
 10
246.6110345069469
 20
563.9708308484289
 42
0.4142135623731
 10
247.2110345069468
 20
563.370830848429
 42
0.4142135623731
  0
LINE
  5
24E
330
1F
100
AcDbEntity
  8
B-4_寸法
  6
Continuous
 62
     7
370
     9
100
AcDbLine
 10
245.7110345069468
 20
563.9708308484289
 30
0.0
 11
350.5125577954457
 21
563.9708308484289
 31
0.0
  0
LWPOLYLINE
  5
24F
330
1F
100
AcDbEntity
  8
B-4_寸法
  6
Continuous
 62
     7
370
     9
100
AcDbPolyline
 90
        4
 70
     1
 43
1.2
 10
484.4336358526657
 20
103.9708968323812
 42
0.4142135623731
 10
483.8336358526657
 20
104.5708968323812
 42
0.4142135623731
 10
483.2336358526658
 20
103.9708968323812
 42
0.4142135623731
 10
483.8336358526657
 20
103.3708968323812
 42
0.4142135623731
  0
LINE
  5
250
330
1F
100
AcDbEntity
  8
B-4_寸法
  6
Continuous
 62
     7
370
     9
100
AcDbLine
 10
485.3336358526658
 20
103.9708968323812
 30
0.0
 11
420.5128217312566
 21
103.9708968323812
 31
0.0
  0
LWPOLYLINE
  5
251
330
1F
100
AcDbEntity
  8
B-4_寸法
  6
Continuous
 62
     7
370
     9
100
AcDbPolyline
 90
        4
 70
     1
 43
1.2
 10
484.4336358526657
 20
43.97099580831039
 42
0.4142135623731
 10
483.8336358526657
 20
44.57099580831039
 42
0.4142135623731
 10
483.2336358526658
 20
43.97099580831039
 42
0.4142135623731
 10
483.8336358526657
 20
43.3709958083104
 42
0.4142135623731
  0
LINE
  5
252
330
1F
100
AcDbEntity
  8
B-4_寸法
  6
Continuous
 62
     7
370
     9
100
AcDbLine
 10
485.3336358526658
 20
43.97099580831039
 30
0.0
 11
420.5128217312566
 21
43.97099580831039
 31
0.0
  0
LWPOLYLINE
  5
253
330
1F
100
AcDbEntity
  8
B-4_寸法
  6
Continuous
 62
     7
370
     9
100
AcDbPolyline
 90
        4
 70
     1
 43
1.2
 10
484.4336358526659
 20
563.9708308484289
 42
0.4142135623731
 10
483.8336358526659
 20
564.5708308484288
 42
0.4142135623731
 10
483.2336358526659
 20
563.9708308484289
 42
0.4142135623731
 10
483.8336358526659
 20
563.370830848429
 42
0.4142135623731
  0
LWPOLYLINE
  5
254
330
1F
100
AcDbEntity
  8
B-4_寸法
  6
Continuous
 62
     7
370
     9
100
AcDbPolyline
 90
        4
 70
     1
 43
1.2
 10
484.4336358526659
 20
503.970929824358
 42
0.4142135623731
 10
483.8336358526659
 20
504.570929824358
 42
0.4142135623731
 10
483.2336358526659
 20
503.970929824358
 42
0.4142135623731
 10
483.8336358526659
 20
503.370929824358
 42
0.4142135623731
  0
LINE
  5
255
330
1F
100
AcDbEntity
  8
B-4_寸法
  6
Continuous
 62
     7
370
     9
100
AcDbLine
 10
485.3336358526658
 20
563.9708308484289
 30
0.0
 11
420.5128217312566
 21
563.9708308484289
 31
0.0
  0
LINE
  5
256
330
1F
100
AcDbEntity
  8
B-4_寸法
  6
Continuous
 62
     7
370
     9
100
AcDbLine
 10
485.3336358526658
 20
503.970929824358
 30
0.0
 11
420.5128217312566
 21
503.970929824358
 31
0.0
  0
TEXT
  5
257
330
1F
100
AcDbEntity
  8
B-4_寸法
  6
Continuous
 62
     2
370
   211
100
AcDbText
 10
293.93585764045
 20
569.9708209508356
 30
0.0
 40
18.288
  1
6
 50
90.0
  7
ＭＳ ゴシック
100
AcDbText
  0
TEXT
  5
258
330
1F
100
AcDbEntity
  8
B-4_寸法
  6
Continuous
 62
     2
370
   211
100
AcDbText
 10
293.3149624050237
 20
25.9709529316286
 30
0.0
 40
18.288
  1
6
 50
90.0
  7
ＭＳ ゴシック
100
AcDbText
  0
LINE
  5
259
330
1F
100
AcDbEntity
  8
B-4_寸法
  6
Continuous
 62
     7
370
     9
100
AcDbLine
 10
300.5125577954457
 20
43.97099580831039
 30
0.0
 11
300.5125577954457
 21
21.55207767208017
 31
0.0
  0
LINE
  5
25A
330
1F
100
AcDbEntity
  8
B-4_寸法
  6
Continuous
 62
     7
370
     9
100
AcDbLine
 10
300.5125577954457
 20
563.9708308484289
 30
0.0
 11
300.5125577954457
 21
587.8748597193533
 31
0.0
  0
LINE
  5
25B
330
1F
100
AcDbEntity
  8
B-5_仕様文
  6
Continuous
 62
     7
370
     9
100
AcDbLine
 10
170.0802349385584
 20
630.645044979552
 30
0.0
 11
322.0181836294369
 21
630.645044979552
 31
0.0
  0
LINE
  5
25C
330
1F
100
AcDbEntity
  8
B-5_仕様文
  6
Continuous
 62
     7
370
     9
100
AcDbLine
 10
360.5125577954456
 20
563.9708308484289
 30
0.0
 11
322.0181836294369
 21
630.645044979552
 31
0.0
  0
TEXT
  5
25D
330
1F
100
AcDbEntity
  8
B-5_仕様文
  6
Continuous
 62
     7
370
     9
100
AcDbText
 10
161.5862939150157
 20
606.936707088927
 30
0.0
 40
13.716
  1
（四方受四方枠）
 41
1.145833333333333
  7
ＭＳ ゴシック
100
AcDbText
  0
LINE
  5
25E
330
1F
100
AcDbEntity
  8
B-5_仕様文
  6
Continuous
 62
     7
370
     9
100
AcDbLine
 10
360.5125577954456
 20
563.9708308484289
 30
0.0
 11
355.7290511442631
 21
575.5192432745266
 31
0.0
  0
LINE
  5
25F
330
1F
100
AcDbEntity
  8
B-5_仕様文
  6
Continuous
 62
     7
370
     9
100
AcDbLine
 10
360.5125577954456
 20
563.9708308484289
 30
0.0
 11
352.9028924660537
 21
573.8876250840705
 31
0.0
  0
TEXT
  5
260
330
1F
100
AcDbEntity
  8
B-5_仕様文
  6
Continuous
 62
     7
370
     9
100
AcDbText
 10
167.6908718816537
 20
640.7594543967821
 30
0.0
 40
13.716
  1
受枠：Ｌ－４４
 41
1.142857142857143
  7
ＭＳ ゴシック
100
AcDbText
  0
LINE
  5
261
330
1F
100
AcDbEntity
  8
B-5_仕様文
  6
Continuous
 62
     7
370
     9
100
AcDbLine
 10
444.8006173393646
 20
584.494123183733
 30
0.0
 11
471.4457292481484
 21
630.6448668228799
 31
0.0
  0
LINE
  5
262
330
1F
100
AcDbEntity
  8
B-5_仕様文
  6
Continuous
 62
     7
370
     9
100
AcDbLine
 10
471.4457292481484
 20
630.6448668228799
 30
0.0
 11
628.5717487002178
 21
630.6448668228799
 31
0.0
  0
TEXT
  5
263
330
1F
100
AcDbEntity
  8
B-5_仕様文
  6
Continuous
 62
     7
370
     9
100
AcDbText
 10
479.2810745421731
 20
639.3184341529054
 30
0.0
 40
13.716
  1
アンカー：φ９
 41
1.142857142857143
  7
ＭＳ ゴシック
100
AcDbText
  0
LINE
  5
264
330
1F
100
AcDbEntity
  8
B-5_仕様文
  6
Continuous
 62
     7
370
     9
100
AcDbLine
 10
444.8006173393646
 20
584.494123183733
 30
0.0
 11
449.5841239905471
 21
596.0426840737243
 31
0.0
  0
LINE
  5
265
330
1F
100
AcDbEntity
  8
B-5_仕様文
  6
Continuous
 62
     7
370
     9
100
AcDbLine
 10
444.8006173393646
 20
584.494123183733
 30
0.0
 11
452.4102826687565
 21
594.4110658832683
 31
0.0
  0
LINE
  5
266
330
1F
100
AcDbEntity
  8
B-1_ピット
  6
Continuous
 62
     2
370
     9
100
AcDbLine
 10
-490.9282515054501
 20
33.36985725520648
 30
0.0
 11
-490.9282515054501
 21
39.47023864245313
 31
0.0
  0
LINE
  5
267
330
1F
100
AcDbEntity
  8
B-1_ピット
  6
Continuous
 62
     2
370
     9
100
AcDbLine
 10
-390.9283174894032
 20
23.37007170305286
 30
0.0
 11
-480.928243257456
 21
23.37007170305286
 31
0.0
  0
LINE
  5
268
330
1F
100
AcDbEntity
  8
B-1_ピット
  6
Continuous
 62
     2
370
     9
100
AcDbLine
 10
-380.9283092414089
 20
33.36985725520648
 30
0.0
 11
-380.9283092414089
 21
39.47023864245313
 31
0.0
  0
LINE
  5
269
330
1F
100
AcDbEntity
  8
B-1_ピット
  6
Continuous
 62
     2
370
     9
100
AcDbLine
 10
-389.9282647022408
 20
33.36985725520648
 30
0.0
 11
-389.9282647022408
 21
39.47023864245313
 31
0.0
  0
LINE
  5
26A
330
1F
100
AcDbEntity
  8
B-1_ピット
  6
Continuous
 62
     2
370
     9
100
AcDbLine
 10
-480.928243257456
 20
32.36995293193802
 30
0.0
 11
-390.9281690255095
 21
32.36995293193802
 31
0.0
  0
LINE
  5
26B
330
1F
100
AcDbEntity
  8
B-1_ピット
  6
Continuous
 62
     2
370
     9
100
AcDbLine
 10
-481.9283702765649
 20
33.36985725520648
 30
0.0
 11
-481.9283702765649
 21
39.47023864245313
 31
0.0
  0
LINE
  5
26C
330
1F
100
AcDbEntity
  8
B-1_ピット
  6
JWW_CENTER1
 62
     2
370
     9
100
AcDbLine
 10
-486.4283108910076
 20
46.07747576238567
 30
0.0
 11
-486.4283108910076
 21
31.98023521128775
 31
0.0
  0
LINE
  5
26D
330
1F
100
AcDbEntity
  8
B-1_ピット
  6
JWW_CENTER1
 62
     2
370
     9
100
AcDbLine
 10
-478.265320630239
 20
39.47023864245313
 30
0.0
 11
-494.672436669618
 21
39.47023864245313
 31
0.0
  0
LINE
  5
26E
330
1F
100
AcDbEntity
  8
B-1_ピット
  6
JWW_CENTER1
 62
     2
370
     9
100
AcDbLine
 10
-385.428101391958
 20
46.07747576238567
 30
0.0
 11
-385.428101391958
 21
31.98023521128775
 31
0.0
  0
LINE
  5
26F
330
1F
100
AcDbEntity
  8
B-1_ピット
  6
JWW_CENTER1
 62
     2
370
     9
100
AcDbLine
 10
-377.2654080589765
 20
39.47023864245313
 30
0.0
 11
-393.6723014025151
 21
39.47023864245313
 31
0.0
  0
CIRCLE
  5
270
330
1F
100
AcDbEntity
  8
B-1_ピット
  6
Continuous
 62
     2
370
     9
100
AcDbCircle
 10
-486.4283108910076
 20
39.47023864245313
 30
0.0
 40
4.500000057993709
  0
CIRCLE
  5
271
330
1F
100
AcDbEntity
  8
B-1_ピット
  6
Continuous
 62
     2
370
     9
100
AcDbCircle
 10
-385.4283240877984
 20
39.47023864245313
 30
0.0
 40
4.500000057993709
  0
ARC
  5
272
330
1F
100
AcDbEntity
  8
B-1_ピット
  6
Continuous
 62
     2
370
     9
100
AcDbCircle
 10
-480.928243257456
 20
33.36985725520648
 30
0.0
 40
9.999998969000739
100
AcDbArc
 50
180.0
 51
270.0
  0
ARC
  5
273
330
1F
100
AcDbEntity
  8
B-1_ピット
  6
Continuous
 62
     2
370
     9
100
AcDbCircle
 10
-390.9283174894032
 20
33.36985725520648
 30
0.0
 40
9.999998969000739
100
AcDbArc
 50
270.0
 51
0.0
  0
ARC
  5
274
330
1F
100
AcDbEntity
  8
B-1_ピット
  6
Continuous
 62
     2
370
     9
100
AcDbCircle
 10
-390.9281690255095
 20
33.36985725520648
 30
0.0
 40
0.9999999403953552
100
AcDbArc
 50
270.0
 51
0.0
  0
ARC
  5
275
330
1F
100
AcDbEntity
  8
B-1_ピット
  6
Continuous
 62
     2
370
     9
100
AcDbCircle
 10
-480.928243257456
 20
33.36985725520648
 30
0.0
 40
0.9999999403953552
100
AcDbArc
 50
180.0
 51
270.0
  0
LINE
  5
276
330
1F
100
AcDbEntity
  8
B-1_ピット
  6
Continuous
 62
     2
370
     9
100
AcDbLine
 10
-695.9284577053021
 20
43.97062464857628
 30
0.0
 11
-175.9281030415566
 21
43.97062464857628
 31
0.0
  0
LINE
  5
277
330
1F
100
AcDbEntity
  8
B-1_ピット
  6
Continuous
 62
     2
370
     9
100
AcDbLine
 10
-689.9285121420635
 20
49.97071867570911
 30
0.0
 11
-181.9280486047956
 21
49.97071867570911
 31
0.0
  0
LINE
  5
278
330
1F
100
AcDbEntity
  8
B-1_ピット
  6
JWW_DASHED3
 62
     2
370
     9
100
AcDbLine
 10
-235.9285979212019
 20
103.971045296275
 30
0.0
 11
-635.9286309131783
 21
103.971045296275
 31
0.0
  0
LINE
  5
279
330
1F
100
AcDbEntity
  8
B-1_ピット
  6
Continuous
 62
     2
370
     9
100
AcDbLine
 10
-490.9282515054501
 20
574.570855922331
 30
0.0
 11
-490.9282515054501
 21
568.4707714628711
 31
0.0
  0
LINE
  5
27A
330
1F
100
AcDbEntity
  8
B-1_ピット
  6
Continuous
 62
     2
370
     9
100
AcDbLine
 10
-390.9283174894032
 20
584.5706414744843
 30
0.0
 11
-480.928243257456
 21
584.5706414744843
 31
0.0
  0
LINE
  5
27B
330
1F
100
AcDbEntity
  8
B-1_ピット
  6
Continuous
 62
     2
370
     9
100
AcDbLine
 10
-380.9283092414089
 20
574.570855922331
 30
0.0
 11
-380.9283092414089
 21
568.4707714628711
 31
0.0
  0
LINE
  5
27C
330
1F
100
AcDbEntity
  8
B-1_ピット
  6
Continuous
 62
     2
370
     9
100
AcDbLine
 10
-389.9282647022408
 20
574.570855922331
 30
0.0
 11
-389.9282647022408
 21
568.4707714628711
 31
0.0
  0
LINE
  5
27D
330
1F
100
AcDbEntity
  8
B-1_ピット
  6
Continuous
 62
     2
370
     9
100
AcDbLine
 10
-480.928243257456
 20
575.5707602455992
 30
0.0
 11
-390.9281690255095
 21
575.5707602455992
 31
0.0
  0
LINE
  5
27E
330
1F
100
AcDbEntity
  8
B-1_ピット
  6
Continuous
 62
     2
370
     9
100
AcDbLine
 10
-481.9283702765649
 20
574.570855922331
 30
0.0
 11
-481.9283702765649
 21
568.4707714628711
 31
0.0
  0
LINE
  5
27F
330
1F
100
AcDbEntity
  8
B-1_ピット
  6
JWW_CENTER1
 62
     2
370
     9
100
AcDbLine
 10
-486.4283108910076
 20
561.8633858790456
 30
0.0
 11
-486.4283108910076
 21
575.9609233579305
 31
0.0
  0
LINE
  5
280
330
1F
100
AcDbEntity
  8
B-1_ピット
  6
JWW_CENTER1
 62
     2
370
     9
100
AcDbLine
 10
-478.265320630239
 20
568.4707714628711
 30
0.0
 11
-494.672436669618
 21
568.4707714628711
 31
0.0
  0
LINE
  5
281
330
1F
100
AcDbEntity
  8
B-1_ピット
  6
JWW_CENTER1
 62
     2
370
     9
100
AcDbLine
 10
-385.428101391958
 20
561.8633858790456
 30
0.0
 11
-385.428101391958
 21
575.9609233579305
 31
0.0
  0
LINE
  5
282
330
1F
100
AcDbEntity
  8
B-1_ピット
  6
JWW_CENTER1
 62
     2
370
     9
100
AcDbLine
 10
-377.2654080589765
 20
568.4707714628711
 30
0.0
 11
-393.6723014025151
 21
568.4707714628711
 31
0.0
  0
CIRCLE
  5
283
330
1F
100
AcDbEntity
  8
B-1_ピット
  6
Continuous
 62
     2
370
     9
100
AcDbCircle
 10
-486.4283108910076
 20
568.4707714628711
 30
0.0
 40
4.500000057993709
  0
CIRCLE
  5
284
330
1F
100
AcDbEntity
  8
B-1_ピット
  6
Continuous
 62
     2
370
     9
100
AcDbCircle
 10
-385.4283240877984
 20
568.4707714628711
 30
0.0
 40
4.500000057993709
  0
ARC
  5
285
330
1F
100
AcDbEntity
  8
B-1_ピット
  6
Continuous
 62
     2
370
     9
100
AcDbCircle
 10
-480.928243257456
 20
574.570855922331
 30
0.0
 40
9.999998969000739
100
AcDbArc
 50
90.0
 51
180.0
  0
ARC
  5
286
330
1F
100
AcDbEntity
  8
B-1_ピット
  6
Continuous
 62
     2
370
     9
100
AcDbCircle
 10
-390.9283174894032
 20
574.570855922331
 30
0.0
 40
9.999998969000739
100
AcDbArc
 50
0.0
 51
90.0
  0
ARC
  5
287
330
1F
100
AcDbEntity
  8
B-1_ピット
  6
Continuous
 62
     2
370
     9
100
AcDbCircle
 10
-390.9281690255095
 20
574.570855922331
 30
0.0
 40
0.9999999403953552
100
AcDbArc
 50
0.0
 51
90.0
  0
ARC
  5
288
330
1F
100
AcDbEntity
  8
B-1_ピット
  6
Continuous
 62
     2
370
     9
100
AcDbCircle
 10
-480.928243257456
 20
574.570855922331
 30
0.0
 40
0.9999999403953552
100
AcDbArc
 50
90.0
 51
180.0
  0
LINE
  5
289
330
1F
100
AcDbEntity
  8
B-1_ピット
  6
Continuous
 62
     2
370
     9
100
AcDbLine
 10
-689.9285121420635
 20
557.9706625893492
 30
0.0
 11
-181.9280486047956
 21
557.9706625893492
 31
0.0
  0
LINE
  5
28A
330
1F
100
AcDbEntity
  8
B-1_ピット
  6
JWW_DASHED3
 62
     2
370
     9
100
AcDbLine
 10
-635.9286309131783
 20
503.9707813604642
 30
0.0
 11
-235.9285979212019
 21
503.9707813604642
 31
0.0
  0
LINE
  5
28B
330
1F
100
AcDbEntity
  8
B-1_ピット
  6
Continuous
 62
     2
370
     9
100
AcDbLine
 10
-695.9284577053021
 20
563.9708308484289
 30
0.0
 11
-175.9281030415566
 21
563.9708308484289
 31
0.0
  0
LINE
  5
28C
330
1F
100
AcDbEntity
  8
B-1_ピット
  6
Continuous
 62
     2
370
     9
100
AcDbLine
 10
-181.9280486047956
 20
557.9706625893492
 30
0.0
 11
-181.9280486047956
 21
49.97071867570911
 31
0.0
  0
LINE
  5
28D
330
1F
100
AcDbEntity
  8
B-1_ピット
  6
JWW_DASHED3
 62
     2
370
     9
100
AcDbLine
 10
-235.9285979212019
 20
503.9707813604642
 30
0.0
 11
-235.9285979212019
 21
103.971045296275
 31
0.0
  0
LINE
  5
28E
330
1F
100
AcDbEntity
  8
B-1_ピット
  6
Continuous
 62
     2
370
     9
100
AcDbLine
 10
-175.9281030415566
 20
563.9708308484289
 30
0.0
 11
-175.9281030415566
 21
43.97062464857628
 31
0.0
  0
LINE
  5
28F
330
1F
100
AcDbEntity
  8
B-1_ピット
  6
Continuous
 62
     2
370
     9
100
AcDbLine
 10
-689.9285121420635
 20
557.9706625893492
 30
0.0
 11
-689.9285121420635
 21
49.97071867570911
 31
0.0
  0
LINE
  5
290
330
1F
100
AcDbEntity
  8
B-1_ピット
  6
JWW_DASHED3
 62
     2
370
     9
100
AcDbLine
 10
-635.9286309131783
 20
103.971045296275
 30
0.0
 11
-635.9286309131783
 21
503.9707813604642
 31
0.0
  0
LINE
  5
291
330
1F
100
AcDbEntity
  8
B-1_ピット
  6
Continuous
 62
     2
370
     9
100
AcDbLine
 10
-695.9284577053021
 20
563.9708308484289
 30
0.0
 11
-695.9284577053021
 21
43.97062464857628
 31
0.0
  0
LWPOLYLINE
  5
292
330
1F
100
AcDbEntity
  8
B-4_寸法
  6
Continuous
 62
     7
370
     9
100
AcDbPolyline
 90
        4
 70
     1
 43
1.2
 10
-435.3282803734295
 20
623.9708308484287
 42
0.4142135623731
 10
-435.9282803734295
 20
624.5708308484287
 42
0.4142135623731
 10
-436.5282803734294
 20
623.9708308484287
 42
0.4142135623731
 10
-435.9282803734295
 20
623.3708308484288
 42
0.4142135623731
  0
LINE
  5
293
330
1F
100
AcDbEntity
  8
B-4_寸法
  6
Continuous
 62
     7
370
     9
100
AcDbLine
 10
-435.9282803734295
 20
625.4708308484286
 30
0.0
 11
-435.9282803734295
 21
594.5706414744843
 31
0.0
  0
LWPOLYLINE
  5
294
330
1F
100
AcDbEntity
  8
B-4_寸法
  6
Continuous
 62
     7
370
     9
100
AcDbPolyline
 90
        4
 70
     1
 43
1.2
 10
-695.3284577053021
 20
623.9708308484287
 42
0.4142135623731
 10
-695.9284577053021
 20
624.5708308484287
 42
0.4142135623731
 10
-696.5284577053021
 20
623.9708308484287
 42
0.4142135623731
 10
-695.9284577053021
 20
623.3708308484288
 42
0.4142135623731
  0
LINE
  5
295
330
1F
100
AcDbEntity
  8
B-4_寸法
  6
Continuous
 62
     7
370
     9
100
AcDbLine
 10
-695.9284577053021
 20
625.4708308484286
 30
0.0
 11
-695.9284577053021
 21
573.9708308484289
 31
0.0
  0
LINE
  5
296
330
1F
100
AcDbEntity
  8
B-4_寸法
  6
Continuous
 62
     7
370
     9
100
AcDbLine
 10
-175.9281030415566
 20
625.4708308484286
 30
0.0
 11
-175.9281030415566
 21
573.9708308484289
 31
0.0
  0
LWPOLYLINE
  5
297
330
1F
100
AcDbEntity
  8
B-4_寸法
  6
Continuous
 62
     7
370
     9
100
AcDbPolyline
 90
        4
 70
     1
 43
1.2
 10
-175.3281030415566
 20
623.9708308484287
 42
0.4142135623731
 10
-175.9281030415566
 20
624.5708308484287
 42
0.4142135623731
 10
-176.5281030415566
 20
623.9708308484287
 42
0.4142135623731
 10
-175.9281030415566
 20
623.3708308484288
 42
0.4142135623731
  0
LWPOLYLINE
  5
298
330
1F
100
AcDbEntity
  8
B-4_寸法
  6
Continuous
 62
     7
370
     9
100
AcDbPolyline
 90
        4
 70
     1
 43
1.2
 10
-622.8288536090186
 20
583.9708308484289
 42
0.4142135623731
 10
-623.4288536090185
 20
584.5708308484288
 42
0.4142135623731
 10
-624.0288536090184
 20
583.9708308484289
 42
0.4142135623731
 10
-623.4288536090185
 20
583.3708308484289
 42
0.4142135623731
  0
LWPOLYLINE
  5
299
330
1F
100
AcDbEntity
  8
B-4_寸法
  6
Continuous
 62
     7
370
     9
100
AcDbPolyline
 90
        4
 70
     1
 43
1.2
 10
-592.8288536090186
 20
583.9708308484289
 42
0.4142135623731
 10
-593.4288536090185
 20
584.5708308484288
 42
0.4142135623731
 10
-594.0288536090184
 20
583.9708308484289
 42
0.4142135623731
 10
-593.4288536090185
 20
583.3708308484289
 42
0.4142135623731
  0
LINE
  5
29A
330
1F
100
AcDbEntity
  8
B-4_寸法
  6
Continuous
 62
     7
370
     9
100
AcDbLine
 10
-593.4288536090185
 20
585.4708308484287
 30
0.0
 11
-593.4288536090185
 21
533.9708308484288
 31
0.0
  0
LINE
  5
29B
330
1F
100
AcDbEntity
  8
B-4_寸法
  6
Continuous
 62
     7
370
     9
100
AcDbLine
 10
-623.4288536090185
 20
585.4708308484287
 30
0.0
 11
-623.4288536090185
 21
533.9708308484288
 31
0.0
  0
LINE
  5
29C
330
1F
100
AcDbEntity
  8
B-2_蓋
  6
Continuous
 62
     3
370
     9
100
AcDbLine
 10
-685.92861441719
 20
549.4711046818325
 30
0.0
 11
-185.92861441719
 21
549.4711046818325
 31
0.0
  0
LINE
  5
29D
330
1F
100
AcDbEntity
  8
B-2_蓋
  6
Continuous
 62
     3
370
     9
100
AcDbLine
 10
-685.92861441719
 20
553.971045296275
 30
0.0
 11
-185.92861441719
 21
553.971045296275
 31
0.0
  0
LINE
  5
29E
330
1F
100
AcDbEntity
  8
B-2_蓋
  6
Continuous
 62
     3
370
     9
100
AcDbLine
 10
-685.92861441719
 20
53.97137521603827
 30
0.0
 11
-685.92861441719
 21
553.971045296275
 31
0.0
  0
LINE
  5
29F
330
1F
100
AcDbEntity
  8
B-2_蓋
  6
Continuous
 62
     3
370
     9
100
AcDbLine
 10
-185.92861441719
 20
53.97137521603827
 30
0.0
 11
-185.92861441719
 21
553.971045296275
 31
0.0
  0
LINE
  5
2A0
330
1F
100
AcDbEntity
  8
B-2_蓋
  6
Continuous
 62
     3
370
     9
100
AcDbLine
 10
-185.92861441719
 20
58.47116736658751
 30
0.0
 11
-685.92861441719
 21
58.47116736658751
 31
0.0
  0
LINE
  5
2A1
330
1F
100
AcDbEntity
  8
B-2_蓋
  6
Continuous
 62
     3
370
     9
100
AcDbLine
 10
-185.92861441719
 20
53.97137521603827
 30
0.0
 11
-685.92861441719
 21
53.97137521603827
 31
0.0
  0
LINE
  5
2A2
330
1F
100
AcDbEntity
  8
B-2_蓋
  6
Continuous
 62
     3
370
     9
100
AcDbLine
 10
-680.9283504813793
 20
308.2109266571279
 30
0.0
 11
-680.9283504813793
 21
399.7311969273982
 31
0.0
  0
LINE
  5
2A3
330
1F
100
AcDbEntity
  8
B-2_蓋
  6
Continuous
 62
     3
370
     9
100
AcDbLine
 10
-680.9283504813793
 20
408.2108606731752
 30
0.0
 11
-680.9283504813793
 21
499.7312794073393
 31
0.0
  0
LINE
  5
2A4
330
1F
100
AcDbEntity
  8
B-2_蓋
  6
Continuous
 62
     3
370
     9
100
AcDbLine
 10
-680.9283504813793
 20
208.2108441771873
 30
0.0
 11
-680.9283504813793
 21
299.7312629113508
 31
0.0
  0
LINE
  5
2A5
330
1F
100
AcDbEntity
  8
B-2_蓋
  6
Continuous
 62
     3
370
     9
100
AcDbLine
 10
-680.9283504813793
 20
508.2107946892226
 30
0.0
 11
-680.9283504813793
 21
549.4711046818325
 31
0.0
  0
LINE
  5
2A6
330
1F
100
AcDbEntity
  8
B-2_蓋
  6
Continuous
 62
     3
370
     9
100
AcDbLine
 10
-650.929092800847
 20
499.7312794073393
 30
0.0
 11
-650.929092800847
 21
408.2108606731752
 31
0.0
  0
LINE
  5
2A7
330
1F
100
AcDbEntity
  8
B-2_蓋
  6
Continuous
 62
     3
370
     9
100
AcDbLine
 10
-655.92861441719
 20
499.7312794073393
 30
0.0
 11
-655.92861441719
 21
408.2108606731752
 31
0.0
  0
LINE
  5
2A8
330
1F
100
AcDbEntity
  8
B-2_蓋
  6
Continuous
 62
     3
370
     9
100
AcDbLine
 10
-650.929092800847
 20
399.7311969273982
 30
0.0
 11
-650.929092800847
 21
308.2109266571279
 31
0.0
  0
LINE
  5
2A9
330
1F
100
AcDbEntity
  8
B-2_蓋
  6
Continuous
 62
     3
370
     9
100
AcDbLine
 10
-655.92861441719
 20
399.7311969273982
 30
0.0
 11
-655.92861441719
 21
308.2109266571279
 31
0.0
  0
LINE
  5
2AA
330
1F
100
AcDbEntity
  8
B-2_蓋
  6
Continuous
 62
     3
370
     9
100
AcDbLine
 10
-650.929092800847
 20
299.7312629113508
 30
0.0
 11
-650.929092800847
 21
208.2108441771873
 31
0.0
  0
LINE
  5
2AB
330
1F
100
AcDbEntity
  8
B-2_蓋
  6
Continuous
 62
     3
370
     9
100
AcDbLine
 10
-655.92861441719
 20
299.7312629113508
 30
0.0
 11
-655.92861441719
 21
208.2108441771873
 31
0.0
  0
LINE
  5
2AC
330
1F
100
AcDbEntity
  8
B-2_蓋
  6
Continuous
 62
     3
370
     9
100
AcDbLine
 10
-655.92861441719
 20
549.4711046818325
 30
0.0
 11
-655.92861441719
 21
508.2107946892226
 31
0.0
  0
LINE
  5
2AD
330
1F
100
AcDbEntity
  8
B-2_蓋
  6
Continuous
 62
     3
370
     9
100
AcDbLine
 10
-650.929092800847
 20
549.4711046818325
 30
0.0
 11
-650.929092800847
 21
508.2107946892226
 31
0.0
  0
LINE
  5
2AE
330
1F
100
AcDbEntity
  8
B-2_蓋
  6
Continuous
 62
     3
370
     9
100
AcDbLine
 10
-620.929092800847
 20
499.7312794073393
 30
0.0
 11
-620.929092800847
 21
408.2108606731752
 31
0.0
  0
LINE
  5
2AF
330
1F
100
AcDbEntity
  8
B-2_蓋
  6
Continuous
 62
     3
370
     9
100
AcDbLine
 10
-625.92861441719
 20
499.7312794073393
 30
0.0
 11
-625.92861441719
 21
408.2108606731752
 31
0.0
  0
LINE
  5
2B0
330
1F
100
AcDbEntity
  8
B-2_蓋
  6
Continuous
 62
     3
370
     9
100
AcDbLine
 10
-620.929092800847
 20
399.7311969273982
 30
0.0
 11
-620.929092800847
 21
308.2109266571279
 31
0.0
  0
LINE
  5
2B1
330
1F
100
AcDbEntity
  8
B-2_蓋
  6
Continuous
 62
     3
370
     9
100
AcDbLine
 10
-625.92861441719
 20
399.7311969273982
 30
0.0
 11
-625.92861441719
 21
308.2109266571279
 31
0.0
  0
LINE
  5
2B2
330
1F
100
AcDbEntity
  8
B-2_蓋
  6
Continuous
 62
     3
370
     9
100
AcDbLine
 10
-620.929092800847
 20
299.7312629113508
 30
0.0
 11
-620.929092800847
 21
208.2108441771873
 31
0.0
  0
LINE
  5
2B3
330
1F
100
AcDbEntity
  8
B-2_蓋
  6
Continuous
 62
     3
370
     9
100
AcDbLine
 10
-625.92861441719
 20
299.7312629113508
 30
0.0
 11
-625.92861441719
 21
208.2108441771873
 31
0.0
  0
LINE
  5
2B4
330
1F
100
AcDbEntity
  8
B-2_蓋
  6
Continuous
 62
     3
370
     9
100
AcDbLine
 10
-625.92861441719
 20
549.4711046818325
 30
0.0
 11
-625.92861441719
 21
508.2107946892226
 31
0.0
  0
LINE
  5
2B5
330
1F
100
AcDbEntity
  8
B-2_蓋
  6
Continuous
 62
     3
370
     9
100
AcDbLine
 10
-620.929092800847
 20
549.4711046818325
 30
0.0
 11
-620.929092800847
 21
508.2107946892226
 31
0.0
  0
LINE
  5
2B6
330
1F
100
AcDbEntity
  8
B-2_蓋
  6
Continuous
 62
     3
370
     9
100
AcDbLine
 10
-590.929092800847
 20
499.7312794073393
 30
0.0
 11
-590.929092800847
 21
408.2108606731752
 31
0.0
  0
LINE
  5
2B7
330
1F
100
AcDbEntity
  8
B-2_蓋
  6
Continuous
 62
     3
370
     9
100
AcDbLine
 10
-595.92861441719
 20
499.7312794073393
 30
0.0
 11
-595.92861441719
 21
408.2108606731752
 31
0.0
  0
LINE
  5
2B8
330
1F
100
AcDbEntity
  8
B-2_蓋
  6
Continuous
 62
     3
370
     9
100
AcDbLine
 10
-590.929092800847
 20
399.7311969273982
 30
0.0
 11
-590.929092800847
 21
308.2109266571279
 31
0.0
  0
LINE
  5
2B9
330
1F
100
AcDbEntity
  8
B-2_蓋
  6
Continuous
 62
     3
370
     9
100
AcDbLine
 10
-595.92861441719
 20
399.7311969273982
 30
0.0
 11
-595.92861441719
 21
308.2109266571279
 31
0.0
  0
LINE
  5
2BA
330
1F
100
AcDbEntity
  8
B-2_蓋
  6
Continuous
 62
     3
370
     9
100
AcDbLine
 10
-590.929092800847
 20
299.7312629113508
 30
0.0
 11
-590.929092800847
 21
208.2108441771873
 31
0.0
  0
LINE
  5
2BB
330
1F
100
AcDbEntity
  8
B-2_蓋
  6
Continuous
 62
     3
370
     9
100
AcDbLine
 10
-595.92861441719
 20
299.7312629113508
 30
0.0
 11
-595.92861441719
 21
208.2108441771873
 31
0.0
  0
LINE
  5
2BC
330
1F
100
AcDbEntity
  8
B-2_蓋
  6
Continuous
 62
     3
370
     9
100
AcDbLine
 10
-595.92861441719
 20
549.4711046818325
 30
0.0
 11
-595.92861441719
 21
508.2107946892226
 31
0.0
  0
LINE
  5
2BD
330
1F
100
AcDbEntity
  8
B-2_蓋
  6
Continuous
 62
     3
370
     9
100
AcDbLine
 10
-590.929092800847
 20
549.4711046818325
 30
0.0
 11
-590.929092800847
 21
508.2107946892226
 31
0.0
  0
LINE
  5
2BE
330
1F
100
AcDbEntity
  8
B-2_蓋
  6
Continuous
 62
     3
370
     9
100
AcDbLine
 10
-560.929092800847
 20
499.7312794073393
 30
0.0
 11
-560.929092800847
 21
408.2108606731752
 31
0.0
  0
LINE
  5
2BF
330
1F
100
AcDbEntity
  8
B-2_蓋
  6
Continuous
 62
     3
370
     9
100
AcDbLine
 10
-565.92861441719
 20
499.7312794073393
 30
0.0
 11
-565.92861441719
 21
408.2108606731752
 31
0.0
  0
LINE
  5
2C0
330
1F
100
AcDbEntity
  8
B-2_蓋
  6
Continuous
 62
     3
370
     9
100
AcDbLine
 10
-560.929092800847
 20
399.7311969273982
 30
0.0
 11
-560.929092800847
 21
308.2109266571279
 31
0.0
  0
LINE
  5
2C1
330
1F
100
AcDbEntity
  8
B-2_蓋
  6
Continuous
 62
     3
370
     9
100
AcDbLine
 10
-565.92861441719
 20
399.7311969273982
 30
0.0
 11
-565.92861441719
 21
308.2109266571279
 31
0.0
  0
LINE
  5
2C2
330
1F
100
AcDbEntity
  8
B-2_蓋
  6
Continuous
 62
     3
370
     9
100
AcDbLine
 10
-560.929092800847
 20
299.7312629113508
 30
0.0
 11
-560.929092800847
 21
208.2108441771873
 31
0.0
  0
LINE
  5
2C3
330
1F
100
AcDbEntity
  8
B-2_蓋
  6
Continuous
 62
     3
370
     9
100
AcDbLine
 10
-565.92861441719
 20
299.7312629113508
 30
0.0
 11
-565.92861441719
 21
208.2108441771873
 31
0.0
  0
LINE
  5
2C4
330
1F
100
AcDbEntity
  8
B-2_蓋
  6
Continuous
 62
     3
370
     9
100
AcDbLine
 10
-565.92861441719
 20
549.4711046818325
 30
0.0
 11
-565.92861441719
 21
508.2107946892226
 31
0.0
  0
LINE
  5
2C5
330
1F
100
AcDbEntity
  8
B-2_蓋
  6
Continuous
 62
     3
370
     9
100
AcDbLine
 10
-560.929092800847
 20
549.4711046818325
 30
0.0
 11
-560.929092800847
 21
508.2107946892226
 31
0.0
  0
LINE
  5
2C6
330
1F
100
AcDbEntity
  8
B-2_蓋
  6
Continuous
 62
     3
370
     9
100
AcDbLine
 10
-530.929092800847
 20
499.7312794073393
 30
0.0
 11
-530.929092800847
 21
408.2108606731752
 31
0.0
  0
LINE
  5
2C7
330
1F
100
AcDbEntity
  8
B-2_蓋
  6
Continuous
 62
     3
370
     9
100
AcDbLine
 10
-535.92861441719
 20
499.7312794073393
 30
0.0
 11
-535.92861441719
 21
408.2108606731752
 31
0.0
  0
LINE
  5
2C8
330
1F
100
AcDbEntity
  8
B-2_蓋
  6
Continuous
 62
     3
370
     9
100
AcDbLine
 10
-530.929092800847
 20
399.7311969273982
 30
0.0
 11
-530.929092800847
 21
308.2109266571279
 31
0.0
  0
LINE
  5
2C9
330
1F
100
AcDbEntity
  8
B-2_蓋
  6
Continuous
 62
     3
370
     9
100
AcDbLine
 10
-535.92861441719
 20
399.7311969273982
 30
0.0
 11
-535.92861441719
 21
308.2109266571279
 31
0.0
  0
LINE
  5
2CA
330
1F
100
AcDbEntity
  8
B-2_蓋
  6
Continuous
 62
     3
370
     9
100
AcDbLine
 10
-530.929092800847
 20
299.7312629113508
 30
0.0
 11
-530.929092800847
 21
208.2108441771873
 31
0.0
  0
LINE
  5
2CB
330
1F
100
AcDbEntity
  8
B-2_蓋
  6
Continuous
 62
     3
370
     9
100
AcDbLine
 10
-535.92861441719
 20
299.7312629113508
 30
0.0
 11
-535.92861441719
 21
208.2108441771873
 31
0.0
  0
LINE
  5
2CC
330
1F
100
AcDbEntity
  8
B-2_蓋
  6
Continuous
 62
     3
370
     9
100
AcDbLine
 10
-535.92861441719
 20
549.4711046818325
 30
0.0
 11
-535.92861441719
 21
508.2107946892226
 31
0.0
  0
LINE
  5
2CD
330
1F
100
AcDbEntity
  8
B-2_蓋
  6
Continuous
 62
     3
370
     9
100
AcDbLine
 10
-530.929092800847
 20
549.4711046818325
 30
0.0
 11
-530.929092800847
 21
508.2107946892226
 31
0.0
  0
LINE
  5
2CE
330
1F
100
AcDbEntity
  8
B-2_蓋
  6
Continuous
 62
     3
370
     9
100
AcDbLine
 10
-500.9290928008471
 20
499.7312794073393
 30
0.0
 11
-500.9290928008471
 21
408.2108606731752
 31
0.0
  0
LINE
  5
2CF
330
1F
100
AcDbEntity
  8
B-2_蓋
  6
Continuous
 62
     3
370
     9
100
AcDbLine
 10
-505.92861441719
 20
499.7312794073393
 30
0.0
 11
-505.92861441719
 21
408.2108606731752
 31
0.0
  0
LINE
  5
2D0
330
1F
100
AcDbEntity
  8
B-2_蓋
  6
Continuous
 62
     3
370
     9
100
AcDbLine
 10
-500.9290928008471
 20
399.7311969273982
 30
0.0
 11
-500.9290928008471
 21
308.2109266571279
 31
0.0
  0
LINE
  5
2D1
330
1F
100
AcDbEntity
  8
B-2_蓋
  6
Continuous
 62
     3
370
     9
100
AcDbLine
 10
-505.92861441719
 20
399.7311969273982
 30
0.0
 11
-505.92861441719
 21
308.2109266571279
 31
0.0
  0
LINE
  5
2D2
330
1F
100
AcDbEntity
  8
B-2_蓋
  6
Continuous
 62
     3
370
     9
100
AcDbLine
 10
-500.9290928008471
 20
299.7312629113508
 30
0.0
 11
-500.9290928008471
 21
208.2108441771873
 31
0.0
  0
LINE
  5
2D3
330
1F
100
AcDbEntity
  8
B-2_蓋
  6
Continuous
 62
     3
370
     9
100
AcDbLine
 10
-505.92861441719
 20
299.7312629113508
 30
0.0
 11
-505.92861441719
 21
208.2108441771873
 31
0.0
  0
LINE
  5
2D4
330
1F
100
AcDbEntity
  8
B-2_蓋
  6
Continuous
 62
     3
370
     9
100
AcDbLine
 10
-505.92861441719
 20
549.4711046818325
 30
0.0
 11
-505.92861441719
 21
508.2107946892226
 31
0.0
  0
LINE
  5
2D5
330
1F
100
AcDbEntity
  8
B-2_蓋
  6
Continuous
 62
     3
370
     9
100
AcDbLine
 10
-500.9290928008471
 20
549.4711046818325
 30
0.0
 11
-500.9290928008471
 21
508.2107946892226
 31
0.0
  0
LINE
  5
2D6
330
1F
100
AcDbEntity
  8
B-2_蓋
  6
Continuous
 62
     3
370
     9
100
AcDbLine
 10
-470.9290928008471
 20
499.7312794073393
 30
0.0
 11
-470.9290928008471
 21
408.2108606731752
 31
0.0
  0
LINE
  5
2D7
330
1F
100
AcDbEntity
  8
B-2_蓋
  6
Continuous
 62
     3
370
     9
100
AcDbLine
 10
-475.9286144171902
 20
499.7312794073393
 30
0.0
 11
-475.9286144171902
 21
408.2108606731752
 31
0.0
  0
LINE
  5
2D8
330
1F
100
AcDbEntity
  8
B-2_蓋
  6
Continuous
 62
     3
370
     9
100
AcDbLine
 10
-470.9290928008471
 20
399.7311969273982
 30
0.0
 11
-470.9290928008471
 21
308.2109266571279
 31
0.0
  0
LINE
  5
2D9
330
1F
100
AcDbEntity
  8
B-2_蓋
  6
Continuous
 62
     3
370
     9
100
AcDbLine
 10
-475.9286144171902
 20
399.7311969273982
 30
0.0
 11
-475.9286144171902
 21
308.2109266571279
 31
0.0
  0
LINE
  5
2DA
330
1F
100
AcDbEntity
  8
B-2_蓋
  6
Continuous
 62
     3
370
     9
100
AcDbLine
 10
-470.9290928008471
 20
299.7312629113508
 30
0.0
 11
-470.9290928008471
 21
208.2108441771873
 31
0.0
  0
LINE
  5
2DB
330
1F
100
AcDbEntity
  8
B-2_蓋
  6
Continuous
 62
     3
370
     9
100
AcDbLine
 10
-475.9286144171902
 20
299.7312629113508
 30
0.0
 11
-475.9286144171902
 21
208.2108441771873
 31
0.0
  0
LINE
  5
2DC
330
1F
100
AcDbEntity
  8
B-2_蓋
  6
Continuous
 62
     3
370
     9
100
AcDbLine
 10
-475.9286144171902
 20
549.4711046818325
 30
0.0
 11
-475.9286144171902
 21
508.2107946892226
 31
0.0
  0
LINE
  5
2DD
330
1F
100
AcDbEntity
  8
B-2_蓋
  6
Continuous
 62
     3
370
     9
100
AcDbLine
 10
-470.9290928008471
 20
549.4711046818325
 30
0.0
 11
-470.9290928008471
 21
508.2107946892226
 31
0.0
  0
LINE
  5
2DE
330
1F
100
AcDbEntity
  8
B-2_蓋
  6
Continuous
 62
     3
370
     9
100
AcDbLine
 10
-440.9290928008471
 20
499.7312794073393
 30
0.0
 11
-440.9290928008471
 21
408.2108606731752
 31
0.0
  0
LINE
  5
2DF
330
1F
100
AcDbEntity
  8
B-2_蓋
  6
Continuous
 62
     3
370
     9
100
AcDbLine
 10
-445.9286144171902
 20
499.7312794073393
 30
0.0
 11
-445.9286144171902
 21
408.2108606731752
 31
0.0
  0
LINE
  5
2E0
330
1F
100
AcDbEntity
  8
B-2_蓋
  6
Continuous
 62
     3
370
     9
100
AcDbLine
 10
-440.9290928008471
 20
399.7311969273982
 30
0.0
 11
-440.9290928008471
 21
308.2109266571279
 31
0.0
  0
LINE
  5
2E1
330
1F
100
AcDbEntity
  8
B-2_蓋
  6
Continuous
 62
     3
370
     9
100
AcDbLine
 10
-445.9286144171902
 20
399.7311969273982
 30
0.0
 11
-445.9286144171902
 21
308.2109266571279
 31
0.0
  0
LINE
  5
2E2
330
1F
100
AcDbEntity
  8
B-2_蓋
  6
Continuous
 62
     3
370
     9
100
AcDbLine
 10
-440.9290928008471
 20
299.7312629113508
 30
0.0
 11
-440.9290928008471
 21
208.2108441771873
 31
0.0
  0
LINE
  5
2E3
330
1F
100
AcDbEntity
  8
B-2_蓋
  6
Continuous
 62
     3
370
     9
100
AcDbLine
 10
-445.9286144171902
 20
299.7312629113508
 30
0.0
 11
-445.9286144171902
 21
208.2108441771873
 31
0.0
  0
LINE
  5
2E4
330
1F
100
AcDbEntity
  8
B-2_蓋
  6
Continuous
 62
     3
370
     9
100
AcDbLine
 10
-445.9286144171902
 20
549.4711046818325
 30
0.0
 11
-445.9286144171902
 21
508.2107946892226
 31
0.0
  0
LINE
  5
2E5
330
1F
100
AcDbEntity
  8
B-2_蓋
  6
Continuous
 62
     3
370
     9
100
AcDbLine
 10
-440.9290928008471
 20
549.4711046818325
 30
0.0
 11
-440.9290928008471
 21
508.2107946892226
 31
0.0
  0
LINE
  5
2E6
330
1F
100
AcDbEntity
  8
B-2_蓋
  6
Continuous
 62
     3
370
     9
100
AcDbLine
 10
-410.9290928008471
 20
499.7312794073393
 30
0.0
 11
-410.9290928008471
 21
408.2108606731752
 31
0.0
  0
LINE
  5
2E7
330
1F
100
AcDbEntity
  8
B-2_蓋
  6
Continuous
 62
     3
370
     9
100
AcDbLine
 10
-415.9286144171903
 20
499.7312794073393
 30
0.0
 11
-415.9286144171903
 21
408.2108606731752
 31
0.0
  0
LINE
  5
2E8
330
1F
100
AcDbEntity
  8
B-2_蓋
  6
Continuous
 62
     3
370
     9
100
AcDbLine
 10
-410.9290928008471
 20
399.7311969273982
 30
0.0
 11
-410.9290928008471
 21
308.2109266571279
 31
0.0
  0
LINE
  5
2E9
330
1F
100
AcDbEntity
  8
B-2_蓋
  6
Continuous
 62
     3
370
     9
100
AcDbLine
 10
-415.9286144171903
 20
399.7311969273982
 30
0.0
 11
-415.9286144171903
 21
308.2109266571279
 31
0.0
  0
LINE
  5
2EA
330
1F
100
AcDbEntity
  8
B-2_蓋
  6
Continuous
 62
     3
370
     9
100
AcDbLine
 10
-410.9290928008471
 20
299.7312629113508
 30
0.0
 11
-410.9290928008471
 21
208.2108441771873
 31
0.0
  0
LINE
  5
2EB
330
1F
100
AcDbEntity
  8
B-2_蓋
  6
Continuous
 62
     3
370
     9
100
AcDbLine
 10
-415.9286144171903
 20
299.7312629113508
 30
0.0
 11
-415.9286144171903
 21
208.2108441771873
 31
0.0
  0
LINE
  5
2EC
330
1F
100
AcDbEntity
  8
B-2_蓋
  6
Continuous
 62
     3
370
     9
100
AcDbLine
 10
-415.9286144171903
 20
549.4711046818325
 30
0.0
 11
-415.9286144171903
 21
508.2107946892226
 31
0.0
  0
LINE
  5
2ED
330
1F
100
AcDbEntity
  8
B-2_蓋
  6
Continuous
 62
     3
370
     9
100
AcDbLine
 10
-410.9290928008471
 20
549.4711046818325
 30
0.0
 11
-410.9290928008471
 21
508.2107946892226
 31
0.0
  0
LINE
  5
2EE
330
1F
100
AcDbEntity
  8
B-2_蓋
  6
Continuous
 62
     3
370
     9
100
AcDbLine
 10
-380.9290928008469
 20
499.7312794073393
 30
0.0
 11
-380.9290928008469
 21
408.2108606731752
 31
0.0
  0
LINE
  5
2EF
330
1F
100
AcDbEntity
  8
B-2_蓋
  6
Continuous
 62
     3
370
     9
100
AcDbLine
 10
-385.92861441719
 20
499.7312794073393
 30
0.0
 11
-385.92861441719
 21
408.2108606731752
 31
0.0
  0
LINE
  5
2F0
330
1F
100
AcDbEntity
  8
B-2_蓋
  6
Continuous
 62
     3
370
     9
100
AcDbLine
 10
-380.9290928008469
 20
399.7311969273982
 30
0.0
 11
-380.9290928008469
 21
308.2109266571279
 31
0.0
  0
LINE
  5
2F1
330
1F
100
AcDbEntity
  8
B-2_蓋
  6
Continuous
 62
     3
370
     9
100
AcDbLine
 10
-385.92861441719
 20
399.7311969273982
 30
0.0
 11
-385.92861441719
 21
308.2109266571279
 31
0.0
  0
LINE
  5
2F2
330
1F
100
AcDbEntity
  8
B-2_蓋
  6
Continuous
 62
     3
370
     9
100
AcDbLine
 10
-380.9290928008469
 20
299.7312629113508
 30
0.0
 11
-380.9290928008469
 21
208.2108441771873
 31
0.0
  0
LINE
  5
2F3
330
1F
100
AcDbEntity
  8
B-2_蓋
  6
Continuous
 62
     3
370
     9
100
AcDbLine
 10
-385.92861441719
 20
299.7312629113508
 30
0.0
 11
-385.92861441719
 21
208.2108441771873
 31
0.0
  0
LINE
  5
2F4
330
1F
100
AcDbEntity
  8
B-2_蓋
  6
Continuous
 62
     3
370
     9
100
AcDbLine
 10
-385.92861441719
 20
549.4711046818325
 30
0.0
 11
-385.92861441719
 21
508.2107946892226
 31
0.0
  0
LINE
  5
2F5
330
1F
100
AcDbEntity
  8
B-2_蓋
  6
Continuous
 62
     3
370
     9
100
AcDbLine
 10
-380.9290928008469
 20
549.4711046818325
 30
0.0
 11
-380.9290928008469
 21
508.2107946892226
 31
0.0
  0
LINE
  5
2F6
330
1F
100
AcDbEntity
  8
B-2_蓋
  6
Continuous
 62
     3
370
     9
100
AcDbLine
 10
-350.9290928008469
 20
499.7312794073393
 30
0.0
 11
-350.9290928008469
 21
408.2108606731752
 31
0.0
  0
LINE
  5
2F7
330
1F
100
AcDbEntity
  8
B-2_蓋
  6
Continuous
 62
     3
370
     9
100
AcDbLine
 10
-355.92861441719
 20
499.7312794073393
 30
0.0
 11
-355.92861441719
 21
408.2108606731752
 31
0.0
  0
LINE
  5
2F8
330
1F
100
AcDbEntity
  8
B-2_蓋
  6
Continuous
 62
     3
370
     9
100
AcDbLine
 10
-350.9290928008469
 20
399.7311969273982
 30
0.0
 11
-350.9290928008469
 21
308.2109266571279
 31
0.0
  0
LINE
  5
2F9
330
1F
100
AcDbEntity
  8
B-2_蓋
  6
Continuous
 62
     3
370
     9
100
AcDbLine
 10
-355.92861441719
 20
399.7311969273982
 30
0.0
 11
-355.92861441719
 21
308.2109266571279
 31
0.0
  0
LINE
  5
2FA
330
1F
100
AcDbEntity
  8
B-2_蓋
  6
Continuous
 62
     3
370
     9
100
AcDbLine
 10
-350.9290928008469
 20
299.7312629113508
 30
0.0
 11
-350.9290928008469
 21
208.2108441771873
 31
0.0
  0
LINE
  5
2FB
330
1F
100
AcDbEntity
  8
B-2_蓋
  6
Continuous
 62
     3
370
     9
100
AcDbLine
 10
-355.92861441719
 20
299.7312629113508
 30
0.0
 11
-355.92861441719
 21
208.2108441771873
 31
0.0
  0
LINE
  5
2FC
330
1F
100
AcDbEntity
  8
B-2_蓋
  6
Continuous
 62
     3
370
     9
100
AcDbLine
 10
-355.92861441719
 20
549.4711046818325
 30
0.0
 11
-355.92861441719
 21
508.2107946892226
 31
0.0
  0
LINE
  5
2FD
330
1F
100
AcDbEntity
  8
B-2_蓋
  6
Continuous
 62
     3
370
     9
100
AcDbLine
 10
-350.9290928008469
 20
549.4711046818325
 30
0.0
 11
-350.9290928008469
 21
508.2107946892226
 31
0.0
  0
LINE
  5
2FE
330
1F
100
AcDbEntity
  8
B-2_蓋
  6
Continuous
 62
     3
370
     9
100
AcDbLine
 10
-320.9290928008469
 20
499.7312794073393
 30
0.0
 11
-320.9290928008469
 21
408.2108606731752
 31
0.0
  0
LINE
  5
2FF
330
1F
100
AcDbEntity
  8
B-2_蓋
  6
Continuous
 62
     3
370
     9
100
AcDbLine
 10
-325.92861441719
 20
499.7312794073393
 30
0.0
 11
-325.92861441719
 21
408.2108606731752
 31
0.0
  0
LINE
  5
300
330
1F
100
AcDbEntity
  8
B-2_蓋
  6
Continuous
 62
     3
370
     9
100
AcDbLine
 10
-320.9290928008469
 20
399.7311969273982
 30
0.0
 11
-320.9290928008469
 21
308.2109266571279
 31
0.0
  0
LINE
  5
301
330
1F
100
AcDbEntity
  8
B-2_蓋
  6
Continuous
 62
     3
370
     9
100
AcDbLine
 10
-325.92861441719
 20
399.7311969273982
 30
0.0
 11
-325.92861441719
 21
308.2109266571279
 31
0.0
  0
LINE
  5
302
330
1F
100
AcDbEntity
  8
B-2_蓋
  6
Continuous
 62
     3
370
     9
100
AcDbLine
 10
-320.9290928008469
 20
299.7312629113508
 30
0.0
 11
-320.9290928008469
 21
208.2108441771873
 31
0.0
  0
LINE
  5
303
330
1F
100
AcDbEntity
  8
B-2_蓋
  6
Continuous
 62
     3
370
     9
100
AcDbLine
 10
-325.92861441719
 20
299.7312629113508
 30
0.0
 11
-325.92861441719
 21
208.2108441771873
 31
0.0
  0
LINE
  5
304
330
1F
100
AcDbEntity
  8
B-2_蓋
  6
Continuous
 62
     3
370
     9
100
AcDbLine
 10
-325.92861441719
 20
549.4711046818325
 30
0.0
 11
-325.92861441719
 21
508.2107946892226
 31
0.0
  0
LINE
  5
305
330
1F
100
AcDbEntity
  8
B-2_蓋
  6
Continuous
 62
     3
370
     9
100
AcDbLine
 10
-320.9290928008469
 20
549.4711046818325
 30
0.0
 11
-320.9290928008469
 21
508.2107946892226
 31
0.0
  0
LINE
  5
306
330
1F
100
AcDbEntity
  8
B-2_蓋
  6
Continuous
 62
     3
370
     9
100
AcDbLine
 10
-290.9290928008471
 20
499.7312794073393
 30
0.0
 11
-290.9290928008471
 21
408.2108606731752
 31
0.0
  0
LINE
  5
307
330
1F
100
AcDbEntity
  8
B-2_蓋
  6
Continuous
 62
     3
370
     9
100
AcDbLine
 10
-295.92861441719
 20
499.7312794073393
 30
0.0
 11
-295.92861441719
 21
408.2108606731752
 31
0.0
  0
LINE
  5
308
330
1F
100
AcDbEntity
  8
B-2_蓋
  6
Continuous
 62
     3
370
     9
100
AcDbLine
 10
-290.9290928008471
 20
399.7311969273982
 30
0.0
 11
-290.9290928008471
 21
308.2109266571279
 31
0.0
  0
LINE
  5
309
330
1F
100
AcDbEntity
  8
B-2_蓋
  6
Continuous
 62
     3
370
     9
100
AcDbLine
 10
-295.92861441719
 20
399.7311969273982
 30
0.0
 11
-295.92861441719
 21
308.2109266571279
 31
0.0
  0
LINE
  5
30A
330
1F
100
AcDbEntity
  8
B-2_蓋
  6
Continuous
 62
     3
370
     9
100
AcDbLine
 10
-290.9290928008471
 20
299.7312629113508
 30
0.0
 11
-290.9290928008471
 21
208.2108441771873
 31
0.0
  0
LINE
  5
30B
330
1F
100
AcDbEntity
  8
B-2_蓋
  6
Continuous
 62
     3
370
     9
100
AcDbLine
 10
-295.92861441719
 20
299.7312629113508
 30
0.0
 11
-295.92861441719
 21
208.2108441771873
 31
0.0
  0
LINE
  5
30C
330
1F
100
AcDbEntity
  8
B-2_蓋
  6
Continuous
 62
     3
370
     9
100
AcDbLine
 10
-295.92861441719
 20
549.4711046818325
 30
0.0
 11
-295.92861441719
 21
508.2107946892226
 31
0.0
  0
LINE
  5
30D
330
1F
100
AcDbEntity
  8
B-2_蓋
  6
Continuous
 62
     3
370
     9
100
AcDbLine
 10
-290.9290928008471
 20
549.4711046818325
 30
0.0
 11
-290.9290928008471
 21
508.2107946892226
 31
0.0
  0
LINE
  5
30E
330
1F
100
AcDbEntity
  8
B-2_蓋
  6
Continuous
 62
     3
370
     9
100
AcDbLine
 10
-260.929092800847
 20
499.7312794073393
 30
0.0
 11
-260.929092800847
 21
408.2108606731752
 31
0.0
  0
LINE
  5
30F
330
1F
100
AcDbEntity
  8
B-2_蓋
  6
Continuous
 62
     3
370
     9
100
AcDbLine
 10
-265.92861441719
 20
499.7312794073393
 30
0.0
 11
-265.92861441719
 21
408.2108606731752
 31
0.0
  0
LINE
  5
310
330
1F
100
AcDbEntity
  8
B-2_蓋
  6
Continuous
 62
     3
370
     9
100
AcDbLine
 10
-260.929092800847
 20
399.7311969273982
 30
0.0
 11
-260.929092800847
 21
308.2109266571279
 31
0.0
  0
LINE
  5
311
330
1F
100
AcDbEntity
  8
B-2_蓋
  6
Continuous
 62
     3
370
     9
100
AcDbLine
 10
-265.92861441719
 20
399.7311969273982
 30
0.0
 11
-265.92861441719
 21
308.2109266571279
 31
0.0
  0
LINE
  5
312
330
1F
100
AcDbEntity
  8
B-2_蓋
  6
Continuous
 62
     3
370
     9
100
AcDbLine
 10
-260.929092800847
 20
299.7312629113508
 30
0.0
 11
-260.929092800847
 21
208.2108441771873
 31
0.0
  0
LINE
  5
313
330
1F
100
AcDbEntity
  8
B-2_蓋
  6
Continuous
 62
     3
370
     9
100
AcDbLine
 10
-265.92861441719
 20
299.7312629113508
 30
0.0
 11
-265.92861441719
 21
208.2108441771873
 31
0.0
  0
LINE
  5
314
330
1F
100
AcDbEntity
  8
B-2_蓋
  6
Continuous
 62
     3
370
     9
100
AcDbLine
 10
-265.92861441719
 20
549.4711046818325
 30
0.0
 11
-265.92861441719
 21
508.2107946892226
 31
0.0
  0
LINE
  5
315
330
1F
100
AcDbEntity
  8
B-2_蓋
  6
Continuous
 62
     3
370
     9
100
AcDbLine
 10
-260.929092800847
 20
549.4711046818325
 30
0.0
 11
-260.929092800847
 21
508.2107946892226
 31
0.0
  0
LINE
  5
316
330
1F
100
AcDbEntity
  8
B-0_通り芯
  6
Continuous
 62
     3
370
     9
100
AcDbLine
 10
-650.9286226651841
 20
508.2107946892226
 30
0.0
 11
-680.9283504813793
 21
499.7312794073393
 31
0.0
  0
LINE
  5
317
330
1F
100
AcDbEntity
  8
B-0_通り芯
  6
Continuous
 62
     3
370
     9
100
AcDbLine
 10
-680.9283504813793
 20
508.2107946892226
 30
0.0
 11
-685.92861441719
 21
507.210890365954
 31
0.0
  0
LINE
  5
318
330
1F
100
AcDbEntity
  8
B-0_通り芯
  6
Continuous
 62
     3
370
     9
100
AcDbLine
 10
-650.9286226651841
 20
408.2108606731752
 30
0.0
 11
-680.9283504813793
 21
399.7313453912919
 31
0.0
  0
LINE
  5
319
330
1F
100
AcDbEntity
  8
B-0_通り芯
  6
Continuous
 62
     3
370
     9
100
AcDbLine
 10
-680.9283504813793
 20
408.2108606731752
 30
0.0
 11
-685.92861441719
 21
407.2109563499066
 31
0.0
  0
LINE
  5
31A
330
1F
100
AcDbEntity
  8
B-0_通り芯
  6
Continuous
 62
     3
370
     9
100
AcDbLine
 10
-650.9286226651841
 20
308.2109266571279
 30
0.0
 11
-680.9283504813793
 21
299.7314113752444
 31
0.0
  0
LINE
  5
31B
330
1F
100
AcDbEntity
  8
B-0_通り芯
  6
Continuous
 62
     3
370
     9
100
AcDbLine
 10
-680.9283504813793
 20
308.2109266571279
 30
0.0
 11
-685.92861441719
 21
307.2110223338592
 31
0.0
  0
LINE
  5
31C
330
1F
100
AcDbEntity
  8
B-0_通り芯
  6
Continuous
 62
     3
370
     9
100
AcDbLine
 10
-650.9286226651841
 20
208.2108441771873
 30
0.0
 11
-680.9283504813793
 21
199.7313288953039
 31
0.0
  0
LINE
  5
31D
330
1F
100
AcDbEntity
  8
B-0_通り芯
  6
Continuous
 62
     3
370
     9
100
AcDbLine
 10
-680.9283504813793
 20
208.2108441771873
 30
0.0
 11
-685.92861441719
 21
207.2109398539186
 31
0.0
  0
LINE
  5
31E
330
1F
100
AcDbEntity
  8
B-0_通り芯
  6
Continuous
 62
     3
370
     9
100
AcDbLine
 10
-620.929092800847
 20
308.2109266571279
 30
0.0
 11
-650.928820617042
 21
299.7314113752444
 31
0.0
  0
LINE
  5
31F
330
1F
100
AcDbEntity
  8
B-0_通り芯
  6
Continuous
 62
     3
370
     9
100
AcDbLine
 10
-620.929092800847
 20
208.2108441771873
 30
0.0
 11
-650.928820617042
 21
199.7313288953039
 31
0.0
  0
LINE
  5
320
330
1F
100
AcDbEntity
  8
B-0_通り芯
  6
Continuous
 62
     3
370
     9
100
AcDbLine
 10
-620.929092800847
 20
408.2108606731752
 30
0.0
 11
-650.928820617042
 21
399.7313453912919
 31
0.0
  0
LINE
  5
321
330
1F
100
AcDbEntity
  8
B-0_通り芯
  6
Continuous
 62
     3
370
     9
100
AcDbLine
 10
-620.929092800847
 20
508.2107946892226
 30
0.0
 11
-650.928820617042
 21
499.7312794073393
 31
0.0
  0
LINE
  5
322
330
1F
100
AcDbEntity
  8
B-0_通り芯
  6
Continuous
 62
     3
370
     9
100
AcDbLine
 10
-590.92956293651
 20
308.2109266571279
 30
0.0
 11
-620.929290752705
 21
299.7314113752444
 31
0.0
  0
LINE
  5
323
330
1F
100
AcDbEntity
  8
B-0_通り芯
  6
Continuous
 62
     3
370
     9
100
AcDbLine
 10
-590.92956293651
 20
208.2108441771873
 30
0.0
 11
-620.929290752705
 21
199.7313288953039
 31
0.0
  0
LINE
  5
324
330
1F
100
AcDbEntity
  8
B-0_通り芯
  6
Continuous
 62
     3
370
     9
100
AcDbLine
 10
-590.92956293651
 20
408.2108606731752
 30
0.0
 11
-620.929290752705
 21
399.7313453912919
 31
0.0
  0
LINE
  5
325
330
1F
100
AcDbEntity
  8
B-0_通り芯
  6
Continuous
 62
     3
370
     9
100
AcDbLine
 10
-590.92956293651
 20
508.2107946892226
 30
0.0
 11
-620.929290752705
 21
499.7312794073393
 31
0.0
  0
LINE
  5
326
330
1F
100
AcDbEntity
  8
B-0_通り芯
  6
Continuous
 62
     3
370
     9
100
AcDbLine
 10
-560.930033072173
 20
308.2109266571279
 30
0.0
 11
-590.9297608883678
 21
299.7314113752444
 31
0.0
  0
LINE
  5
327
330
1F
100
AcDbEntity
  8
B-0_通り芯
  6
Continuous
 62
     3
370
     9
100
AcDbLine
 10
-560.930033072173
 20
208.2108441771873
 30
0.0
 11
-590.9297608883678
 21
199.7313288953039
 31
0.0
  0
LINE
  5
328
330
1F
100
AcDbEntity
  8
B-0_通り芯
  6
Continuous
 62
     3
370
     9
100
AcDbLine
 10
-560.930033072173
 20
408.2108606731752
 30
0.0
 11
-590.9297608883678
 21
399.7313453912919
 31
0.0
  0
LINE
  5
329
330
1F
100
AcDbEntity
  8
B-0_通り芯
  6
Continuous
 62
     3
370
     9
100
AcDbLine
 10
-560.930033072173
 20
508.2107946892226
 30
0.0
 11
-590.9297608883678
 21
499.7312794073393
 31
0.0
  0
LINE
  5
32A
330
1F
100
AcDbEntity
  8
B-0_通り芯
  6
Continuous
 62
     3
370
     9
100
AcDbLine
 10
-530.9305032078356
 20
308.2109266571279
 30
0.0
 11
-560.9302310240307
 21
299.7314113752444
 31
0.0
  0
LINE
  5
32B
330
1F
100
AcDbEntity
  8
B-0_通り芯
  6
Continuous
 62
     3
370
     9
100
AcDbLine
 10
-530.9305032078356
 20
208.2108441771873
 30
0.0
 11
-560.9302310240307
 21
199.7313288953039
 31
0.0
  0
LINE
  5
32C
330
1F
100
AcDbEntity
  8
B-0_通り芯
  6
Continuous
 62
     3
370
     9
100
AcDbLine
 10
-530.9305032078356
 20
408.2108606731752
 30
0.0
 11
-560.9302310240307
 21
399.7313453912919
 31
0.0
  0
LINE
  5
32D
330
1F
100
AcDbEntity
  8
B-0_通り芯
  6
Continuous
 62
     3
370
     9
100
AcDbLine
 10
-530.9305032078356
 20
508.2107946892226
 30
0.0
 11
-560.9302310240307
 21
499.7312794073393
 31
0.0
  0
LINE
  5
32E
330
1F
100
AcDbEntity
  8
B-0_通り芯
  6
Continuous
 62
     3
370
     9
100
AcDbLine
 10
-500.9309733434986
 20
308.2109266571279
 30
0.0
 11
-530.9307011596939
 21
299.7314113752444
 31
0.0
  0
LINE
  5
32F
330
1F
100
AcDbEntity
  8
B-0_通り芯
  6
Continuous
 62
     3
370
     9
100
AcDbLine
 10
-500.9309733434986
 20
208.2108441771873
 30
0.0
 11
-530.9307011596939
 21
199.7313288953039
 31
0.0
  0
LINE
  5
330
330
1F
100
AcDbEntity
  8
B-0_通り芯
  6
Continuous
 62
     3
370
     9
100
AcDbLine
 10
-500.9309733434986
 20
408.2108606731752
 30
0.0
 11
-530.9307011596939
 21
399.7313453912919
 31
0.0
  0
LINE
  5
331
330
1F
100
AcDbEntity
  8
B-0_通り芯
  6
Continuous
 62
     3
370
     9
100
AcDbLine
 10
-500.9309733434986
 20
508.2107946892226
 30
0.0
 11
-530.9307011596939
 21
499.7312794073393
 31
0.0
  0
LINE
  5
332
330
1F
100
AcDbEntity
  8
B-0_通り芯
  6
Continuous
 62
     3
370
     9
100
AcDbLine
 10
-470.9314434791615
 20
308.2109266571279
 30
0.0
 11
-500.9311712953565
 21
299.7314113752444
 31
0.0
  0
LINE
  5
333
330
1F
100
AcDbEntity
  8
B-0_通り芯
  6
Continuous
 62
     3
370
     9
100
AcDbLine
 10
-470.9314434791615
 20
208.2108441771873
 30
0.0
 11
-500.9311712953565
 21
199.7313288953039
 31
0.0
  0
LINE
  5
334
330
1F
100
AcDbEntity
  8
B-0_通り芯
  6
Continuous
 62
     3
370
     9
100
AcDbLine
 10
-470.9314434791615
 20
408.2108606731752
 30
0.0
 11
-500.9311712953565
 21
399.7313453912919
 31
0.0
  0
LINE
  5
335
330
1F
100
AcDbEntity
  8
B-0_通り芯
  6
Continuous
 62
     3
370
     9
100
AcDbLine
 10
-470.9314434791615
 20
508.2107946892226
 30
0.0
 11
-500.9311712953565
 21
499.7312794073393
 31
0.0
  0
LINE
  5
336
330
1F
100
AcDbEntity
  8
B-0_通り芯
  6
Continuous
 62
     3
370
     9
100
AcDbLine
 10
-440.9319136148243
 20
308.2109266571279
 30
0.0
 11
-470.9316414310193
 21
299.7314113752444
 31
0.0
  0
LINE
  5
337
330
1F
100
AcDbEntity
  8
B-0_通り芯
  6
Continuous
 62
     3
370
     9
100
AcDbLine
 10
-440.9319136148243
 20
208.2108441771873
 30
0.0
 11
-470.9316414310193
 21
199.7313288953039
 31
0.0
  0
LINE
  5
338
330
1F
100
AcDbEntity
  8
B-0_通り芯
  6
Continuous
 62
     3
370
     9
100
AcDbLine
 10
-440.9319136148243
 20
408.2108606731752
 30
0.0
 11
-470.9316414310193
 21
399.7313453912919
 31
0.0
  0
LINE
  5
339
330
1F
100
AcDbEntity
  8
B-0_通り芯
  6
Continuous
 62
     3
370
     9
100
AcDbLine
 10
-440.9319136148243
 20
508.2107946892226
 30
0.0
 11
-470.9316414310193
 21
499.7312794073393
 31
0.0
  0
LINE
  5
33A
330
1F
100
AcDbEntity
  8
B-0_通り芯
  6
Continuous
 62
     3
370
     9
100
AcDbLine
 10
-410.9323837504872
 20
308.2109266571279
 30
0.0
 11
-440.9321115666823
 21
299.7314113752444
 31
0.0
  0
LINE
  5
33B
330
1F
100
AcDbEntity
  8
B-0_通り芯
  6
Continuous
 62
     3
370
     9
100
AcDbLine
 10
-410.9323837504872
 20
208.2108441771873
 30
0.0
 11
-440.9321115666823
 21
199.7313288953039
 31
0.0
  0
LINE
  5
33C
330
1F
100
AcDbEntity
  8
B-0_通り芯
  6
Continuous
 62
     3
370
     9
100
AcDbLine
 10
-410.9323837504872
 20
408.2108606731752
 30
0.0
 11
-440.9321115666823
 21
399.7313453912919
 31
0.0
  0
LINE
  5
33D
330
1F
100
AcDbEntity
  8
B-0_通り芯
  6
Continuous
 62
     3
370
     9
100
AcDbLine
 10
-410.9323837504872
 20
508.2107946892226
 30
0.0
 11
-440.9321115666823
 21
499.7312794073393
 31
0.0
  0
LINE
  5
33E
330
1F
100
AcDbEntity
  8
B-0_通り芯
  6
Continuous
 62
     3
370
     9
100
AcDbLine
 10
-380.9328538861501
 20
308.2109266571279
 30
0.0
 11
-410.9325817023451
 21
299.7314113752444
 31
0.0
  0
LINE
  5
33F
330
1F
100
AcDbEntity
  8
B-0_通り芯
  6
Continuous
 62
     3
370
     9
100
AcDbLine
 10
-380.9328538861501
 20
208.2108441771873
 30
0.0
 11
-410.9325817023451
 21
199.7313288953039
 31
0.0
  0
LINE
  5
340
330
1F
100
AcDbEntity
  8
B-0_通り芯
  6
Continuous
 62
     3
370
     9
100
AcDbLine
 10
-380.9328538861501
 20
408.2108606731752
 30
0.0
 11
-410.9325817023451
 21
399.7313453912919
 31
0.0
  0
LINE
  5
341
330
1F
100
AcDbEntity
  8
B-0_通り芯
  6
Continuous
 62
     3
370
     9
100
AcDbLine
 10
-380.9328538861501
 20
508.2107946892226
 30
0.0
 11
-410.9325817023451
 21
499.7312794073393
 31
0.0
  0
LINE
  5
342
330
1F
100
AcDbEntity
  8
B-0_通り芯
  6
Continuous
 62
     3
370
     9
100
AcDbLine
 10
-350.933324021813
 20
308.2109266571279
 30
0.0
 11
-380.9330518380081
 21
299.7314113752444
 31
0.0
  0
LINE
  5
343
330
1F
100
AcDbEntity
  8
B-0_通り芯
  6
Continuous
 62
     3
370
     9
100
AcDbLine
 10
-350.933324021813
 20
208.2108441771873
 30
0.0
 11
-380.9330518380081
 21
199.7313288953039
 31
0.0
  0
LINE
  5
344
330
1F
100
AcDbEntity
  8
B-0_通り芯
  6
Continuous
 62
     3
370
     9
100
AcDbLine
 10
-350.933324021813
 20
408.2108606731752
 30
0.0
 11
-380.9330518380081
 21
399.7313453912919
 31
0.0
  0
LINE
  5
345
330
1F
100
AcDbEntity
  8
B-0_通り芯
  6
Continuous
 62
     3
370
     9
100
AcDbLine
 10
-350.933324021813
 20
508.2107946892226
 30
0.0
 11
-380.9330518380081
 21
499.7312794073393
 31
0.0
  0
LINE
  5
346
330
1F
100
AcDbEntity
  8
B-0_通り芯
  6
Continuous
 62
     3
370
     9
100
AcDbLine
 10
-320.933794157476
 20
308.2109266571279
 30
0.0
 11
-350.933521973671
 21
299.7314113752444
 31
0.0
  0
LINE
  5
347
330
1F
100
AcDbEntity
  8
B-0_通り芯
  6
Continuous
 62
     3
370
     9
100
AcDbLine
 10
-320.933794157476
 20
208.2108441771873
 30
0.0
 11
-350.933521973671
 21
199.7313288953039
 31
0.0
  0
LINE
  5
348
330
1F
100
AcDbEntity
  8
B-0_通り芯
  6
Continuous
 62
     3
370
     9
100
AcDbLine
 10
-320.933794157476
 20
408.2108606731752
 30
0.0
 11
-350.933521973671
 21
399.7313453912919
 31
0.0
  0
LINE
  5
349
330
1F
100
AcDbEntity
  8
B-0_通り芯
  6
Continuous
 62
     3
370
     9
100
AcDbLine
 10
-320.933794157476
 20
508.2107946892226
 30
0.0
 11
-350.933521973671
 21
499.7312794073393
 31
0.0
  0
LINE
  5
34A
330
1F
100
AcDbEntity
  8
B-0_通り芯
  6
Continuous
 62
     3
370
     9
100
AcDbLine
 10
-290.9342642931388
 20
308.2109266571279
 30
0.0
 11
-320.9339921093338
 21
299.7314113752444
 31
0.0
  0
LINE
  5
34B
330
1F
100
AcDbEntity
  8
B-0_通り芯
  6
Continuous
 62
     3
370
     9
100
AcDbLine
 10
-290.9342642931388
 20
208.2108441771873
 30
0.0
 11
-320.9339921093338
 21
199.7313288953039
 31
0.0
  0
LINE
  5
34C
330
1F
100
AcDbEntity
  8
B-0_通り芯
  6
Continuous
 62
     3
370
     9
100
AcDbLine
 10
-290.9342642931388
 20
408.2108606731752
 30
0.0
 11
-320.9339921093338
 21
399.7313453912919
 31
0.0
  0
LINE
  5
34D
330
1F
100
AcDbEntity
  8
B-0_通り芯
  6
Continuous
 62
     3
370
     9
100
AcDbLine
 10
-290.9342642931388
 20
508.2107946892226
 30
0.0
 11
-320.9339921093338
 21
499.7312794073393
 31
0.0
  0
LINE
  5
34E
330
1F
100
AcDbEntity
  8
B-0_通り芯
  6
Continuous
 62
     3
370
     9
100
AcDbLine
 10
-260.9347344288016
 20
308.2109266571279
 30
0.0
 11
-290.9344622449968
 21
299.7314113752444
 31
0.0
  0
LINE
  5
34F
330
1F
100
AcDbEntity
  8
B-0_通り芯
  6
Continuous
 62
     3
370
     9
100
AcDbLine
 10
-260.9347344288016
 20
208.2108441771873
 30
0.0
 11
-290.9344622449968
 21
199.7313288953039
 31
0.0
  0
LINE
  5
350
330
1F
100
AcDbEntity
  8
B-0_通り芯
  6
Continuous
 62
     3
370
     9
100
AcDbLine
 10
-260.9347344288016
 20
408.2108606731752
 30
0.0
 11
-290.9344622449968
 21
399.7313453912919
 31
0.0
  0
LINE
  5
351
330
1F
100
AcDbEntity
  8
B-0_通り芯
  6
Continuous
 62
     3
370
     9
100
AcDbLine
 10
-260.9347344288016
 20
508.2107946892226
 30
0.0
 11
-290.9344622449968
 21
499.7312794073393
 31
0.0
  0
LINE
  5
352
330
1F
100
AcDbEntity
  8
B-2_蓋
  6
Continuous
 62
     3
370
     9
100
AcDbLine
 10
-190.9281360335334
 20
499.7312794073393
 30
0.0
 11
-190.9281360335334
 21
408.2108606731752
 31
0.0
  0
LINE
  5
353
330
1F
100
AcDbEntity
  8
B-2_蓋
  6
Continuous
 62
     3
370
     9
100
AcDbLine
 10
-190.9281360335334
 20
399.7311969273982
 30
0.0
 11
-190.9281360335334
 21
308.2109266571279
 31
0.0
  0
LINE
  5
354
330
1F
100
AcDbEntity
  8
B-2_蓋
  6
Continuous
 62
     3
370
     9
100
AcDbLine
 10
-190.9281360335334
 20
299.7312629113508
 30
0.0
 11
-190.9281360335334
 21
208.2108441771873
 31
0.0
  0
LINE
  5
355
330
1F
100
AcDbEntity
  8
B-2_蓋
  6
Continuous
 62
     3
370
     9
100
AcDbLine
 10
-190.9281360335334
 20
549.4711046818325
 30
0.0
 11
-190.9281360335334
 21
508.2107946892226
 31
0.0
  0
LINE
  5
356
330
1F
100
AcDbEntity
  8
B-2_蓋
  6
Continuous
 62
     3
370
     9
100
AcDbLine
 10
-685.92861441719
 20
508.2107946892226
 30
0.0
 11
-185.92861441719
 21
508.2107946892226
 31
0.0
  0
LINE
  5
357
330
1F
100
AcDbEntity
  8
B-2_蓋
  6
Continuous
 62
     3
370
     9
100
AcDbLine
 10
-685.92861441719
 20
499.7312794073393
 30
0.0
 11
-185.92861441719
 21
499.7312794073393
 31
0.0
  0
LINE
  5
358
330
1F
100
AcDbEntity
  8
B-2_蓋
  6
Continuous
 62
     3
370
     9
100
AcDbLine
 10
-685.92861441719
 20
408.2108606731752
 30
0.0
 11
-185.92861441719
 21
408.2108606731752
 31
0.0
  0
LINE
  5
359
330
1F
100
AcDbEntity
  8
B-2_蓋
  6
Continuous
 62
     3
370
     9
100
AcDbLine
 10
-685.92861441719
 20
399.7311969273982
 30
0.0
 11
-185.92861441719
 21
399.7311969273982
 31
0.0
  0
LINE
  5
35A
330
1F
100
AcDbEntity
  8
B-2_蓋
  6
Continuous
 62
     3
370
     9
100
AcDbLine
 10
-685.92861441719
 20
208.2108441771873
 30
0.0
 11
-185.92861441719
 21
208.2108441771873
 31
0.0
  0
LINE
  5
35B
330
1F
100
AcDbEntity
  8
B-2_蓋
  6
Continuous
 62
     3
370
     9
100
AcDbLine
 10
-685.92861441719
 20
199.7305865758357
 30
0.0
 11
-185.92861441719
 21
199.7305865758357
 31
0.0
  0
LINE
  5
35C
330
1F
100
AcDbEntity
  8
B-2_蓋
  6
Continuous
 62
     3
370
     9
100
AcDbLine
 10
-685.92861441719
 20
308.2109266571279
 30
0.0
 11
-185.92861441719
 21
308.2109266571279
 31
0.0
  0
LINE
  5
35D
330
1F
100
AcDbEntity
  8
B-2_蓋
  6
Continuous
 62
     3
370
     9
100
AcDbLine
 10
-685.92861441719
 20
299.7312629113508
 30
0.0
 11
-185.92861441719
 21
299.7312629113508
 31
0.0
  0
LINE
  5
35E
330
1F
100
AcDbEntity
  8
B-2_蓋
  6
Continuous
 62
     3
370
     9
100
AcDbLine
 10
-230.929092800847
 20
499.7312794073393
 30
0.0
 11
-230.929092800847
 21
408.2108606731752
 31
0.0
  0
LINE
  5
35F
330
1F
100
AcDbEntity
  8
B-2_蓋
  6
Continuous
 62
     3
370
     9
100
AcDbLine
 10
-235.92861441719
 20
499.7312794073393
 30
0.0
 11
-235.92861441719
 21
408.2108606731752
 31
0.0
  0
LINE
  5
360
330
1F
100
AcDbEntity
  8
B-2_蓋
  6
Continuous
 62
     3
370
     9
100
AcDbLine
 10
-230.929092800847
 20
399.7311969273982
 30
0.0
 11
-230.929092800847
 21
308.2109266571279
 31
0.0
  0
LINE
  5
361
330
1F
100
AcDbEntity
  8
B-2_蓋
  6
Continuous
 62
     3
370
     9
100
AcDbLine
 10
-235.92861441719
 20
399.7311969273982
 30
0.0
 11
-235.92861441719
 21
308.2109266571279
 31
0.0
  0
LINE
  5
362
330
1F
100
AcDbEntity
  8
B-2_蓋
  6
Continuous
 62
     3
370
     9
100
AcDbLine
 10
-230.929092800847
 20
299.7312629113508
 30
0.0
 11
-230.929092800847
 21
208.2108441771873
 31
0.0
  0
LINE
  5
363
330
1F
100
AcDbEntity
  8
B-2_蓋
  6
Continuous
 62
     3
370
     9
100
AcDbLine
 10
-235.92861441719
 20
299.7312629113508
 30
0.0
 11
-235.92861441719
 21
208.2108441771873
 31
0.0
  0
LINE
  5
364
330
1F
100
AcDbEntity
  8
B-2_蓋
  6
Continuous
 62
     3
370
     9
100
AcDbLine
 10
-235.92861441719
 20
549.4711046818325
 30
0.0
 11
-235.92861441719
 21
508.2107946892226
 31
0.0
  0
LINE
  5
365
330
1F
100
AcDbEntity
  8
B-2_蓋
  6
Continuous
 62
     3
370
     9
100
AcDbLine
 10
-230.929092800847
 20
549.4711046818325
 30
0.0
 11
-230.929092800847
 21
508.2107946892226
 31
0.0
  0
LINE
  5
366
330
1F
100
AcDbEntity
  8
B-2_蓋
  6
Continuous
 62
     3
370
     9
100
AcDbLine
 10
-200.929092800847
 20
499.7312794073393
 30
0.0
 11
-200.929092800847
 21
408.2108606731752
 31
0.0
  0
LINE
  5
367
330
1F
100
AcDbEntity
  8
B-2_蓋
  6
Continuous
 62
     3
370
     9
100
AcDbLine
 10
-205.92861441719
 20
499.7312794073393
 30
0.0
 11
-205.92861441719
 21
408.2108606731752
 31
0.0
  0
LINE
  5
368
330
1F
100
AcDbEntity
  8
B-2_蓋
  6
Continuous
 62
     3
370
     9
100
AcDbLine
 10
-200.929092800847
 20
399.7311969273982
 30
0.0
 11
-200.929092800847
 21
308.2109266571279
 31
0.0
  0
LINE
  5
369
330
1F
100
AcDbEntity
  8
B-2_蓋
  6
Continuous
 62
     3
370
     9
100
AcDbLine
 10
-205.92861441719
 20
399.7311969273982
 30
0.0
 11
-205.92861441719
 21
308.2109266571279
 31
0.0
  0
LINE
  5
36A
330
1F
100
AcDbEntity
  8
B-2_蓋
  6
Continuous
 62
     3
370
     9
100
AcDbLine
 10
-200.929092800847
 20
299.7312629113508
 30
0.0
 11
-200.929092800847
 21
208.2108441771873
 31
0.0
  0
LINE
  5
36B
330
1F
100
AcDbEntity
  8
B-2_蓋
  6
Continuous
 62
     3
370
     9
100
AcDbLine
 10
-205.92861441719
 20
299.7312629113508
 30
0.0
 11
-205.92861441719
 21
208.2108441771873
 31
0.0
  0
LINE
  5
36C
330
1F
100
AcDbEntity
  8
B-2_蓋
  6
Continuous
 62
     3
370
     9
100
AcDbLine
 10
-205.92861441719
 20
549.4711046818325
 30
0.0
 11
-205.92861441719
 21
508.2107946892226
 31
0.0
  0
LINE
  5
36D
330
1F
100
AcDbEntity
  8
B-2_蓋
  6
Continuous
 62
     3
370
     9
100
AcDbLine
 10
-200.929092800847
 20
549.4711046818325
 30
0.0
 11
-200.929092800847
 21
508.2107946892226
 31
0.0
  0
LINE
  5
36E
330
1F
100
AcDbEntity
  8
B-0_通り芯
  6
Continuous
 62
     3
370
     9
100
AcDbLine
 10
-230.9347344288016
 20
208.2108441771873
 30
0.0
 11
-260.9344622449967
 21
199.7313288953039
 31
0.0
  0
LINE
  5
36F
330
1F
100
AcDbEntity
  8
B-0_通り芯
  6
Continuous
 62
     3
370
     9
100
AcDbLine
 10
-230.9347344288016
 20
308.2109266571279
 30
0.0
 11
-260.9344622449967
 21
299.7314113752444
 31
0.0
  0
LINE
  5
370
330
1F
100
AcDbEntity
  8
B-0_通り芯
  6
Continuous
 62
     3
370
     9
100
AcDbLine
 10
-230.9347344288016
 20
408.2108606731752
 30
0.0
 11
-260.9344622449967
 21
399.7313453912919
 31
0.0
  0
LINE
  5
371
330
1F
100
AcDbEntity
  8
B-0_通り芯
  6
Continuous
 62
     3
370
     9
100
AcDbLine
 10
-230.9347344288016
 20
508.2107946892226
 30
0.0
 11
-260.9344622449967
 21
499.7312794073393
 31
0.0
  0
LINE
  5
372
330
1F
100
AcDbEntity
  8
B-0_通り芯
  6
Continuous
 62
     3
370
     9
100
AcDbLine
 10
-200.9347344288016
 20
208.2108441771873
 30
0.0
 11
-230.9344622449967
 21
199.7313288953039
 31
0.0
  0
LINE
  5
373
330
1F
100
AcDbEntity
  8
B-0_通り芯
  6
Continuous
 62
     3
370
     9
100
AcDbLine
 10
-200.9347344288016
 20
308.2109266571279
 30
0.0
 11
-230.9344622449967
 21
299.7314113752444
 31
0.0
  0
LINE
  5
374
330
1F
100
AcDbEntity
  8
B-0_通り芯
  6
Continuous
 62
     3
370
     9
100
AcDbLine
 10
-200.9347344288016
 20
408.2108606731752
 30
0.0
 11
-230.9344622449967
 21
399.7313453912919
 31
0.0
  0
LINE
  5
375
330
1F
100
AcDbEntity
  8
B-0_通り芯
  6
Continuous
 62
     3
370
     9
100
AcDbLine
 10
-200.9347344288016
 20
508.2107946892226
 30
0.0
 11
-230.9344622449967
 21
499.7312794073393
 31
0.0
  0
LINE
  5
376
330
1F
100
AcDbEntity
  8
B-0_通り芯
  6
Continuous
 62
     3
370
     9
100
AcDbLine
 10
-185.92861441719
 20
503.9727284215806
 30
0.0
 11
-200.9344622449967
 21
499.7312794073393
 31
0.0
  0
LINE
  5
377
330
1F
100
AcDbEntity
  8
B-0_通り芯
  6
Continuous
 62
     3
370
     9
100
AcDbLine
 10
-185.92861441719
 20
203.972777909545
 30
0.0
 11
-200.9344622449967
 21
199.7313288953039
 31
0.0
  0
LINE
  5
378
330
1F
100
AcDbEntity
  8
B-0_通り芯
  6
Continuous
 62
     3
370
     9
100
AcDbLine
 10
-185.92861441719
 20
303.9728603894855
 30
0.0
 11
-200.9344622449967
 21
299.7314113752444
 31
0.0
  0
LINE
  5
379
330
1F
100
AcDbEntity
  8
B-0_通り芯
  6
Continuous
 62
     3
370
     9
100
AcDbLine
 10
-185.92861441719
 20
403.972794405533
 30
0.0
 11
-200.9344622449967
 21
399.7313453912919
 31
0.0
  0
LINE
  5
37A
330
1F
100
AcDbEntity
  8
B-0_通り芯
  6
Continuous
 62
     3
370
     9
100
AcDbLine
 10
-650.9286226651841
 20
108.2108441771872
 30
0.0
 11
-680.9283504813793
 21
99.73132889530392
 31
0.0
  0
LINE
  5
37B
330
1F
100
AcDbEntity
  8
B-0_通り芯
  6
Continuous
 62
     3
370
     9
100
AcDbLine
 10
-680.9283504813793
 20
108.2108441771872
 30
0.0
 11
-685.92861441719
 21
107.2109398539186
 31
0.0
  0
LINE
  5
37C
330
1F
100
AcDbEntity
  8
B-0_通り芯
  6
Continuous
 62
     3
370
     9
100
AcDbLine
 10
-620.929092800847
 20
108.2108441771872
 30
0.0
 11
-650.928820617042
 21
99.73132889530392
 31
0.0
  0
LINE
  5
37D
330
1F
100
AcDbEntity
  8
B-0_通り芯
  6
Continuous
 62
     3
370
     9
100
AcDbLine
 10
-590.92956293651
 20
108.2108441771872
 30
0.0
 11
-620.929290752705
 21
99.73132889530392
 31
0.0
  0
LINE
  5
37E
330
1F
100
AcDbEntity
  8
B-0_通り芯
  6
Continuous
 62
     3
370
     9
100
AcDbLine
 10
-560.930033072173
 20
108.2108441771872
 30
0.0
 11
-590.9297608883678
 21
99.73132889530392
 31
0.0
  0
LINE
  5
37F
330
1F
100
AcDbEntity
  8
B-0_通り芯
  6
Continuous
 62
     3
370
     9
100
AcDbLine
 10
-530.9305032078356
 20
108.2108441771872
 30
0.0
 11
-560.9302310240307
 21
99.73132889530392
 31
0.0
  0
LINE
  5
380
330
1F
100
AcDbEntity
  8
B-0_通り芯
  6
Continuous
 62
     3
370
     9
100
AcDbLine
 10
-500.9309733434986
 20
108.2108441771872
 30
0.0
 11
-530.9307011596939
 21
99.73132889530392
 31
0.0
  0
LINE
  5
381
330
1F
100
AcDbEntity
  8
B-0_通り芯
  6
Continuous
 62
     3
370
     9
100
AcDbLine
 10
-470.9314434791615
 20
108.2108441771872
 30
0.0
 11
-500.9311712953565
 21
99.73132889530392
 31
0.0
  0
LINE
  5
382
330
1F
100
AcDbEntity
  8
B-0_通り芯
  6
Continuous
 62
     3
370
     9
100
AcDbLine
 10
-440.9319136148243
 20
108.2108441771872
 30
0.0
 11
-470.9316414310193
 21
99.73132889530392
 31
0.0
  0
LINE
  5
383
330
1F
100
AcDbEntity
  8
B-0_通り芯
  6
Continuous
 62
     3
370
     9
100
AcDbLine
 10
-410.9323837504872
 20
108.2108441771872
 30
0.0
 11
-440.9321115666823
 21
99.73132889530392
 31
0.0
  0
LINE
  5
384
330
1F
100
AcDbEntity
  8
B-0_通り芯
  6
Continuous
 62
     3
370
     9
100
AcDbLine
 10
-380.9328538861501
 20
108.2108441771872
 30
0.0
 11
-410.9325817023451
 21
99.73132889530392
 31
0.0
  0
LINE
  5
385
330
1F
100
AcDbEntity
  8
B-0_通り芯
  6
Continuous
 62
     3
370
     9
100
AcDbLine
 10
-350.933324021813
 20
108.2108441771872
 30
0.0
 11
-380.9330518380081
 21
99.73132889530392
 31
0.0
  0
LINE
  5
386
330
1F
100
AcDbEntity
  8
B-0_通り芯
  6
Continuous
 62
     3
370
     9
100
AcDbLine
 10
-320.933794157476
 20
108.2108441771872
 30
0.0
 11
-350.933521973671
 21
99.73132889530392
 31
0.0
  0
LINE
  5
387
330
1F
100
AcDbEntity
  8
B-0_通り芯
  6
Continuous
 62
     3
370
     9
100
AcDbLine
 10
-290.9342642931388
 20
108.2108441771872
 30
0.0
 11
-320.9339921093338
 21
99.73132889530392
 31
0.0
  0
LINE
  5
388
330
1F
100
AcDbEntity
  8
B-0_通り芯
  6
Continuous
 62
     3
370
     9
100
AcDbLine
 10
-260.9347344288016
 20
108.2108441771872
 30
0.0
 11
-290.9344622449968
 21
99.73132889530392
 31
0.0
  0
LINE
  5
389
330
1F
100
AcDbEntity
  8
B-2_蓋
  6
Continuous
 62
     3
370
     9
100
AcDbLine
 10
-685.92861441719
 20
108.2108441771872
 30
0.0
 11
-185.92861441719
 21
108.2108441771872
 31
0.0
  0
LINE
  5
38A
330
1F
100
AcDbEntity
  8
B-2_蓋
  6
Continuous
 62
     3
370
     9
100
AcDbLine
 10
-685.92861441719
 20
99.73058657583564
 30
0.0
 11
-185.92861441719
 21
99.73058657583564
 31
0.0
  0
LINE
  5
38B
330
1F
100
AcDbEntity
  8
B-0_通り芯
  6
Continuous
 62
     3
370
     9
100
AcDbLine
 10
-230.9347344288016
 20
108.2108441771872
 30
0.0
 11
-260.9344622449967
 21
99.73132889530392
 31
0.0
  0
LINE
  5
38C
330
1F
100
AcDbEntity
  8
B-0_通り芯
  6
Continuous
 62
     3
370
     9
100
AcDbLine
 10
-200.9347344288016
 20
108.2108441771872
 30
0.0
 11
-230.9344622449967
 21
99.73132889530392
 31
0.0
  0
LINE
  5
38D
330
1F
100
AcDbEntity
  8
B-0_通り芯
  6
Continuous
 62
     3
370
     9
100
AcDbLine
 10
-185.92861441719
 20
103.9727779095451
 30
0.0
 11
-200.9344622449967
 21
99.73132889530392
 31
0.0
  0
LINE
  5
38E
330
1F
100
AcDbEntity
  8
B-2_蓋
  6
Continuous
 62
     3
370
     9
100
AcDbLine
 10
-680.9283504813793
 20
58.47116736658751
 30
0.0
 11
-680.9283504813793
 21
99.73058657583564
 31
0.0
  0
LINE
  5
38F
330
1F
100
AcDbEntity
  8
B-2_蓋
  6
Continuous
 62
     3
370
     9
100
AcDbLine
 10
-680.9283504813793
 20
108.2108441771872
 30
0.0
 11
-680.9283504813793
 21
199.7305865758357
 31
0.0
  0
LINE
  5
390
330
1F
100
AcDbEntity
  8
B-2_蓋
  6
Continuous
 62
     3
370
     9
100
AcDbLine
 10
-190.9281360335334
 20
199.7305865758357
 30
0.0
 11
-190.9281360335334
 21
108.2108441771872
 31
0.0
  0
LINE
  5
391
330
1F
100
AcDbEntity
  8
B-2_蓋
  6
Continuous
 62
     3
370
     9
100
AcDbLine
 10
-190.9281360335334
 20
99.73058657583564
 30
0.0
 11
-190.9281360335334
 21
58.47116736658751
 31
0.0
  0
LINE
  5
392
330
1F
100
AcDbEntity
  8
B-2_蓋
  6
Continuous
 62
     3
370
     9
100
AcDbLine
 10
-650.929092800847
 20
199.7305865758357
 30
0.0
 11
-650.929092800847
 21
108.2108441771872
 31
0.0
  0
LINE
  5
393
330
1F
100
AcDbEntity
  8
B-2_蓋
  6
Continuous
 62
     3
370
     9
100
AcDbLine
 10
-650.929092800847
 20
99.73058657583564
 30
0.0
 11
-650.929092800847
 21
58.47116736658751
 31
0.0
  0
LINE
  5
394
330
1F
100
AcDbEntity
  8
B-2_蓋
  6
Continuous
 62
     3
370
     9
100
AcDbLine
 10
-655.92861441719
 20
199.7305865758357
 30
0.0
 11
-655.92861441719
 21
108.2108441771872
 31
0.0
  0
LINE
  5
395
330
1F
100
AcDbEntity
  8
B-2_蓋
  6
Continuous
 62
     3
370
     9
100
AcDbLine
 10
-655.92861441719
 20
99.73058657583564
 30
0.0
 11
-655.92861441719
 21
58.47116736658751
 31
0.0
  0
LINE
  5
396
330
1F
100
AcDbEntity
  8
B-2_蓋
  6
Continuous
 62
     3
370
     9
100
AcDbLine
 10
-620.929092800847
 20
199.7305865758357
 30
0.0
 11
-620.929092800847
 21
108.2108441771872
 31
0.0
  0
LINE
  5
397
330
1F
100
AcDbEntity
  8
B-2_蓋
  6
Continuous
 62
     3
370
     9
100
AcDbLine
 10
-620.929092800847
 20
99.73058657583564
 30
0.0
 11
-620.929092800847
 21
58.47116736658751
 31
0.0
  0
LINE
  5
398
330
1F
100
AcDbEntity
  8
B-2_蓋
  6
Continuous
 62
     3
370
     9
100
AcDbLine
 10
-625.92861441719
 20
199.7305865758357
 30
0.0
 11
-625.92861441719
 21
108.2108441771872
 31
0.0
  0
LINE
  5
399
330
1F
100
AcDbEntity
  8
B-2_蓋
  6
Continuous
 62
     3
370
     9
100
AcDbLine
 10
-625.92861441719
 20
99.73058657583564
 30
0.0
 11
-625.92861441719
 21
58.47116736658751
 31
0.0
  0
LINE
  5
39A
330
1F
100
AcDbEntity
  8
B-2_蓋
  6
Continuous
 62
     3
370
     9
100
AcDbLine
 10
-590.929092800847
 20
199.7305865758357
 30
0.0
 11
-590.929092800847
 21
108.2108441771872
 31
0.0
  0
LINE
  5
39B
330
1F
100
AcDbEntity
  8
B-2_蓋
  6
Continuous
 62
     3
370
     9
100
AcDbLine
 10
-590.929092800847
 20
99.73058657583564
 30
0.0
 11
-590.929092800847
 21
58.47116736658751
 31
0.0
  0
LINE
  5
39C
330
1F
100
AcDbEntity
  8
B-2_蓋
  6
Continuous
 62
     3
370
     9
100
AcDbLine
 10
-595.92861441719
 20
199.7305865758357
 30
0.0
 11
-595.92861441719
 21
108.2108441771872
 31
0.0
  0
LINE
  5
39D
330
1F
100
AcDbEntity
  8
B-2_蓋
  6
Continuous
 62
     3
370
     9
100
AcDbLine
 10
-595.92861441719
 20
99.73058657583564
 30
0.0
 11
-595.92861441719
 21
58.47116736658751
 31
0.0
  0
LINE
  5
39E
330
1F
100
AcDbEntity
  8
B-2_蓋
  6
Continuous
 62
     3
370
     9
100
AcDbLine
 10
-560.929092800847
 20
199.7305865758357
 30
0.0
 11
-560.929092800847
 21
108.2108441771872
 31
0.0
  0
LINE
  5
39F
330
1F
100
AcDbEntity
  8
B-2_蓋
  6
Continuous
 62
     3
370
     9
100
AcDbLine
 10
-560.929092800847
 20
99.73058657583564
 30
0.0
 11
-560.929092800847
 21
58.47116736658751
 31
0.0
  0
LINE
  5
3A0
330
1F
100
AcDbEntity
  8
B-2_蓋
  6
Continuous
 62
     3
370
     9
100
AcDbLine
 10
-565.92861441719
 20
199.7305865758357
 30
0.0
 11
-565.92861441719
 21
108.2108441771872
 31
0.0
  0
LINE
  5
3A1
330
1F
100
AcDbEntity
  8
B-2_蓋
  6
Continuous
 62
     3
370
     9
100
AcDbLine
 10
-565.92861441719
 20
99.73058657583564
 30
0.0
 11
-565.92861441719
 21
58.47116736658751
 31
0.0
  0
LINE
  5
3A2
330
1F
100
AcDbEntity
  8
B-2_蓋
  6
Continuous
 62
     3
370
     9
100
AcDbLine
 10
-530.929092800847
 20
199.7305865758357
 30
0.0
 11
-530.929092800847
 21
108.2108441771872
 31
0.0
  0
LINE
  5
3A3
330
1F
100
AcDbEntity
  8
B-2_蓋
  6
Continuous
 62
     3
370
     9
100
AcDbLine
 10
-530.929092800847
 20
99.73058657583564
 30
0.0
 11
-530.929092800847
 21
58.47116736658751
 31
0.0
  0
LINE
  5
3A4
330
1F
100
AcDbEntity
  8
B-2_蓋
  6
Continuous
 62
     3
370
     9
100
AcDbLine
 10
-535.92861441719
 20
199.7305865758357
 30
0.0
 11
-535.92861441719
 21
108.2108441771872
 31
0.0
  0
LINE
  5
3A5
330
1F
100
AcDbEntity
  8
B-2_蓋
  6
Continuous
 62
     3
370
     9
100
AcDbLine
 10
-535.92861441719
 20
99.73058657583564
 30
0.0
 11
-535.92861441719
 21
58.47116736658751
 31
0.0
  0
LINE
  5
3A6
330
1F
100
AcDbEntity
  8
B-2_蓋
  6
Continuous
 62
     3
370
     9
100
AcDbLine
 10
-500.9290928008471
 20
199.7305865758357
 30
0.0
 11
-500.9290928008471
 21
108.2108441771872
 31
0.0
  0
LINE
  5
3A7
330
1F
100
AcDbEntity
  8
B-2_蓋
  6
Continuous
 62
     3
370
     9
100
AcDbLine
 10
-500.9290928008471
 20
99.73058657583564
 30
0.0
 11
-500.9290928008471
 21
58.47116736658751
 31
0.0
  0
LINE
  5
3A8
330
1F
100
AcDbEntity
  8
B-2_蓋
  6
Continuous
 62
     3
370
     9
100
AcDbLine
 10
-505.92861441719
 20
199.7305865758357
 30
0.0
 11
-505.92861441719
 21
108.2108441771872
 31
0.0
  0
LINE
  5
3A9
330
1F
100
AcDbEntity
  8
B-2_蓋
  6
Continuous
 62
     3
370
     9
100
AcDbLine
 10
-505.92861441719
 20
99.73058657583564
 30
0.0
 11
-505.92861441719
 21
58.47116736658751
 31
0.0
  0
LINE
  5
3AA
330
1F
100
AcDbEntity
  8
B-2_蓋
  6
Continuous
 62
     3
370
     9
100
AcDbLine
 10
-470.9290928008471
 20
199.7305865758357
 30
0.0
 11
-470.9290928008471
 21
108.2108441771872
 31
0.0
  0
LINE
  5
3AB
330
1F
100
AcDbEntity
  8
B-2_蓋
  6
Continuous
 62
     3
370
     9
100
AcDbLine
 10
-470.9290928008471
 20
99.73058657583564
 30
0.0
 11
-470.9290928008471
 21
58.47116736658751
 31
0.0
  0
LINE
  5
3AC
330
1F
100
AcDbEntity
  8
B-2_蓋
  6
Continuous
 62
     3
370
     9
100
AcDbLine
 10
-475.9286144171902
 20
199.7305865758357
 30
0.0
 11
-475.9286144171902
 21
108.2108441771872
 31
0.0
  0
LINE
  5
3AD
330
1F
100
AcDbEntity
  8
B-2_蓋
  6
Continuous
 62
     3
370
     9
100
AcDbLine
 10
-475.9286144171902
 20
99.73058657583564
 30
0.0
 11
-475.9286144171902
 21
58.47116736658751
 31
0.0
  0
LINE
  5
3AE
330
1F
100
AcDbEntity
  8
B-2_蓋
  6
Continuous
 62
     3
370
     9
100
AcDbLine
 10
-440.9290928008471
 20
199.7305865758357
 30
0.0
 11
-440.9290928008471
 21
108.2108441771872
 31
0.0
  0
LINE
  5
3AF
330
1F
100
AcDbEntity
  8
B-2_蓋
  6
Continuous
 62
     3
370
     9
100
AcDbLine
 10
-440.9290928008471
 20
99.73058657583564
 30
0.0
 11
-440.9290928008471
 21
58.47116736658751
 31
0.0
  0
LINE
  5
3B0
330
1F
100
AcDbEntity
  8
B-2_蓋
  6
Continuous
 62
     3
370
     9
100
AcDbLine
 10
-445.9286144171902
 20
199.7305865758357
 30
0.0
 11
-445.9286144171902
 21
108.2108441771872
 31
0.0
  0
LINE
  5
3B1
330
1F
100
AcDbEntity
  8
B-2_蓋
  6
Continuous
 62
     3
370
     9
100
AcDbLine
 10
-445.9286144171902
 20
99.73058657583564
 30
0.0
 11
-445.9286144171902
 21
58.47116736658751
 31
0.0
  0
LINE
  5
3B2
330
1F
100
AcDbEntity
  8
B-2_蓋
  6
Continuous
 62
     3
370
     9
100
AcDbLine
 10
-410.9290928008471
 20
199.7305865758357
 30
0.0
 11
-410.9290928008471
 21
108.2108441771872
 31
0.0
  0
LINE
  5
3B3
330
1F
100
AcDbEntity
  8
B-2_蓋
  6
Continuous
 62
     3
370
     9
100
AcDbLine
 10
-410.9290928008471
 20
99.73058657583564
 30
0.0
 11
-410.9290928008471
 21
58.47116736658751
 31
0.0
  0
LINE
  5
3B4
330
1F
100
AcDbEntity
  8
B-2_蓋
  6
Continuous
 62
     3
370
     9
100
AcDbLine
 10
-415.9286144171903
 20
199.7305865758357
 30
0.0
 11
-415.9286144171903
 21
108.2108441771872
 31
0.0
  0
LINE
  5
3B5
330
1F
100
AcDbEntity
  8
B-2_蓋
  6
Continuous
 62
     3
370
     9
100
AcDbLine
 10
-415.9286144171903
 20
99.73058657583564
 30
0.0
 11
-415.9286144171903
 21
58.47116736658751
 31
0.0
  0
LINE
  5
3B6
330
1F
100
AcDbEntity
  8
B-2_蓋
  6
Continuous
 62
     3
370
     9
100
AcDbLine
 10
-380.9290928008469
 20
199.7305865758357
 30
0.0
 11
-380.9290928008469
 21
108.2108441771872
 31
0.0
  0
LINE
  5
3B7
330
1F
100
AcDbEntity
  8
B-2_蓋
  6
Continuous
 62
     3
370
     9
100
AcDbLine
 10
-380.9290928008469
 20
99.73058657583564
 30
0.0
 11
-380.9290928008469
 21
58.47116736658751
 31
0.0
  0
LINE
  5
3B8
330
1F
100
AcDbEntity
  8
B-2_蓋
  6
Continuous
 62
     3
370
     9
100
AcDbLine
 10
-385.92861441719
 20
199.7305865758357
 30
0.0
 11
-385.92861441719
 21
108.2108441771872
 31
0.0
  0
LINE
  5
3B9
330
1F
100
AcDbEntity
  8
B-2_蓋
  6
Continuous
 62
     3
370
     9
100
AcDbLine
 10
-385.92861441719
 20
99.73058657583564
 30
0.0
 11
-385.92861441719
 21
58.47116736658751
 31
0.0
  0
LINE
  5
3BA
330
1F
100
AcDbEntity
  8
B-2_蓋
  6
Continuous
 62
     3
370
     9
100
AcDbLine
 10
-350.9290928008469
 20
199.7305865758357
 30
0.0
 11
-350.9290928008469
 21
108.2108441771872
 31
0.0
  0
LINE
  5
3BB
330
1F
100
AcDbEntity
  8
B-2_蓋
  6
Continuous
 62
     3
370
     9
100
AcDbLine
 10
-350.9290928008469
 20
99.73058657583564
 30
0.0
 11
-350.9290928008469
 21
58.47116736658751
 31
0.0
  0
LINE
  5
3BC
330
1F
100
AcDbEntity
  8
B-2_蓋
  6
Continuous
 62
     3
370
     9
100
AcDbLine
 10
-355.92861441719
 20
199.7305865758357
 30
0.0
 11
-355.92861441719
 21
108.2108441771872
 31
0.0
  0
LINE
  5
3BD
330
1F
100
AcDbEntity
  8
B-2_蓋
  6
Continuous
 62
     3
370
     9
100
AcDbLine
 10
-355.92861441719
 20
99.73058657583564
 30
0.0
 11
-355.92861441719
 21
58.47116736658751
 31
0.0
  0
LINE
  5
3BE
330
1F
100
AcDbEntity
  8
B-2_蓋
  6
Continuous
 62
     3
370
     9
100
AcDbLine
 10
-320.9290928008469
 20
199.7305865758357
 30
0.0
 11
-320.9290928008469
 21
108.2108441771872
 31
0.0
  0
LINE
  5
3BF
330
1F
100
AcDbEntity
  8
B-2_蓋
  6
Continuous
 62
     3
370
     9
100
AcDbLine
 10
-320.9290928008469
 20
99.73058657583564
 30
0.0
 11
-320.9290928008469
 21
58.47116736658751
 31
0.0
  0
LINE
  5
3C0
330
1F
100
AcDbEntity
  8
B-2_蓋
  6
Continuous
 62
     3
370
     9
100
AcDbLine
 10
-325.92861441719
 20
199.7305865758357
 30
0.0
 11
-325.92861441719
 21
108.2108441771872
 31
0.0
  0
LINE
  5
3C1
330
1F
100
AcDbEntity
  8
B-2_蓋
  6
Continuous
 62
     3
370
     9
100
AcDbLine
 10
-325.92861441719
 20
99.73058657583564
 30
0.0
 11
-325.92861441719
 21
58.47116736658751
 31
0.0
  0
LINE
  5
3C2
330
1F
100
AcDbEntity
  8
B-2_蓋
  6
Continuous
 62
     3
370
     9
100
AcDbLine
 10
-290.9290928008471
 20
199.7305865758357
 30
0.0
 11
-290.9290928008471
 21
108.2108441771872
 31
0.0
  0
LINE
  5
3C3
330
1F
100
AcDbEntity
  8
B-2_蓋
  6
Continuous
 62
     3
370
     9
100
AcDbLine
 10
-290.9290928008471
 20
99.73058657583564
 30
0.0
 11
-290.9290928008471
 21
58.47116736658751
 31
0.0
  0
LINE
  5
3C4
330
1F
100
AcDbEntity
  8
B-2_蓋
  6
Continuous
 62
     3
370
     9
100
AcDbLine
 10
-295.92861441719
 20
199.7305865758357
 30
0.0
 11
-295.92861441719
 21
108.2108441771872
 31
0.0
  0
LINE
  5
3C5
330
1F
100
AcDbEntity
  8
B-2_蓋
  6
Continuous
 62
     3
370
     9
100
AcDbLine
 10
-295.92861441719
 20
99.73058657583564
 30
0.0
 11
-295.92861441719
 21
58.47116736658751
 31
0.0
  0
LINE
  5
3C6
330
1F
100
AcDbEntity
  8
B-2_蓋
  6
Continuous
 62
     3
370
     9
100
AcDbLine
 10
-260.929092800847
 20
199.7305865758357
 30
0.0
 11
-260.929092800847
 21
108.2108441771872
 31
0.0
  0
LINE
  5
3C7
330
1F
100
AcDbEntity
  8
B-2_蓋
  6
Continuous
 62
     3
370
     9
100
AcDbLine
 10
-260.929092800847
 20
99.73058657583564
 30
0.0
 11
-260.929092800847
 21
58.47116736658751
 31
0.0
  0
LINE
  5
3C8
330
1F
100
AcDbEntity
  8
B-2_蓋
  6
Continuous
 62
     3
370
     9
100
AcDbLine
 10
-265.92861441719
 20
199.7305865758357
 30
0.0
 11
-265.92861441719
 21
108.2108441771872
 31
0.0
  0
LINE
  5
3C9
330
1F
100
AcDbEntity
  8
B-2_蓋
  6
Continuous
 62
     3
370
     9
100
AcDbLine
 10
-265.92861441719
 20
99.73058657583564
 30
0.0
 11
-265.92861441719
 21
58.47116736658751
 31
0.0
  0
LINE
  5
3CA
330
1F
100
AcDbEntity
  8
B-2_蓋
  6
Continuous
 62
     3
370
     9
100
AcDbLine
 10
-230.929092800847
 20
199.7305865758357
 30
0.0
 11
-230.929092800847
 21
108.2108441771872
 31
0.0
  0
LINE
  5
3CB
330
1F
100
AcDbEntity
  8
B-2_蓋
  6
Continuous
 62
     3
370
     9
100
AcDbLine
 10
-230.929092800847
 20
99.73058657583564
 30
0.0
 11
-230.929092800847
 21
58.47116736658751
 31
0.0
  0
LINE
  5
3CC
330
1F
100
AcDbEntity
  8
B-2_蓋
  6
Continuous
 62
     3
370
     9
100
AcDbLine
 10
-235.92861441719
 20
199.7305865758357
 30
0.0
 11
-235.92861441719
 21
108.2108441771872
 31
0.0
  0
LINE
  5
3CD
330
1F
100
AcDbEntity
  8
B-2_蓋
  6
Continuous
 62
     3
370
     9
100
AcDbLine
 10
-235.92861441719
 20
99.73058657583564
 30
0.0
 11
-235.92861441719
 21
58.47116736658751
 31
0.0
  0
LINE
  5
3CE
330
1F
100
AcDbEntity
  8
B-2_蓋
  6
Continuous
 62
     3
370
     9
100
AcDbLine
 10
-200.929092800847
 20
199.7305865758357
 30
0.0
 11
-200.929092800847
 21
108.2108441771872
 31
0.0
  0
LINE
  5
3CF
330
1F
100
AcDbEntity
  8
B-2_蓋
  6
Continuous
 62
     3
370
     9
100
AcDbLine
 10
-200.929092800847
 20
99.73058657583564
 30
0.0
 11
-200.929092800847
 21
58.47116736658751
 31
0.0
  0
LINE
  5
3D0
330
1F
100
AcDbEntity
  8
B-2_蓋
  6
Continuous
 62
     3
370
     9
100
AcDbLine
 10
-205.92861441719
 20
199.7305865758357
 30
0.0
 11
-205.92861441719
 21
108.2108441771872
 31
0.0
  0
LINE
  5
3D1
330
1F
100
AcDbEntity
  8
B-2_蓋
  6
Continuous
 62
     3
370
     9
100
AcDbLine
 10
-205.92861441719
 20
99.73058657583564
 30
0.0
 11
-205.92861441719
 21
58.47116736658751
 31
0.0
  0
LWPOLYLINE
  5
3D2
330
1F
100
AcDbEntity
  8
B-4_寸法
  6
Continuous
 62
     7
370
     9
100
AcDbPolyline
 90
        4
 70
     1
 43
1.2
 10
-635.3286309131782
 20
-27.77208841164814
 42
0.4142135623731
 10
-635.9286309131783
 20
-27.17208841164814
 42
0.4142135623731
 10
-636.5286309131782
 20
-27.77208841164814
 42
0.4142135623731
 10
-635.9286309131783
 20
-28.37208841164814
 42
0.4142135623731
  0
LWPOLYLINE
  5
3D3
330
1F
100
AcDbEntity
  8
B-4_寸法
  6
Continuous
 62
     7
370
     9
100
AcDbPolyline
 90
        4
 70
     1
 43
1.2
 10
-235.329092800847
 20
-27.77208841164814
 42
0.4142135623731
 10
-235.929092800847
 20
-27.17208841164814
 42
0.4142135623731
 10
-236.529092800847
 20
-27.77208841164814
 42
0.4142135623731
 10
-235.929092800847
 20
-28.37208841164814
 42
0.4142135623731
  0
LINE
  5
3D4
330
1F
100
AcDbEntity
  8
B-4_寸法
  6
Continuous
 62
     7
370
     9
100
AcDbLine
 10
-635.9286309131783
 20
-29.27208841164818
 30
0.0
 11
-635.9286309131783
 21
93.97104529627498
 31
0.0
  0
LINE
  5
3D5
330
1F
100
AcDbEntity
  8
B-4_寸法
  6
Continuous
 62
     7
370
     9
100
AcDbLine
 10
-235.929092800847
 20
-29.27208841164818
 30
0.0
 11
-235.929092800847
 21
93.97104529627498
 31
0.0
  0
LINE
  5
3D6
330
1F
100
AcDbEntity
  8
B-4_寸法
  6
Continuous
 62
     7
370
     9
100
AcDbLine
 10
-695.9284577053021
 20
-73.53416635197368
 30
0.0
 11
-689.9285121420635
 21
-73.53416635197368
 31
0.0
  0
LWPOLYLINE
  5
3D7
330
1F
100
AcDbEntity
  8
B-4_寸法
  6
Continuous
 62
     7
370
     9
100
AcDbPolyline
 90
        4
 70
     1
 43
1.2
 10
-695.3284577053021
 20
-73.53416635197368
 42
0.4142135623731
 10
-695.9284577053021
 20
-72.93416635197369
 42
0.4142135623731
 10
-696.5284577053021
 20
-73.53416635197368
 42
0.4142135623731
 10
-695.9284577053021
 20
-74.13416635197369
 42
0.4142135623731
  0
LWPOLYLINE
  5
3D8
330
1F
100
AcDbEntity
  8
B-4_寸法
  6
Continuous
 62
     7
370
     9
100
AcDbPolyline
 90
        4
 70
     1
 43
1.2
 10
-689.3285121420636
 20
-73.53416635197368
 42
0.4142135623731
 10
-689.9285121420635
 20
-72.93416635197369
 42
0.4142135623731
 10
-690.5285121420635
 20
-73.53416635197368
 42
0.4142135623731
 10
-689.9285121420635
 20
-74.13416635197369
 42
0.4142135623731
  0
LINE
  5
3D9
330
1F
100
AcDbEntity
  8
B-4_寸法
  6
Continuous
 62
     7
370
     9
100
AcDbLine
 10
-689.9285121420635
 20
-75.03416635197377
 30
0.0
 11
-689.9285121420635
 21
39.97071867570912
 31
0.0
  0
LINE
  5
3DA
330
1F
100
AcDbEntity
  8
B-4_寸法
  6
Continuous
 62
     7
370
     9
100
AcDbLine
 10
-689.9285121420635
 20
-73.53416635197368
 30
0.0
 11
-685.92861441719
 21
-73.53416635197368
 31
0.0
  0
LWPOLYLINE
  5
3DB
330
1F
100
AcDbEntity
  8
B-4_寸法
  6
Continuous
 62
     7
370
     9
100
AcDbPolyline
 90
        4
 70
     1
 43
1.2
 10
-685.32861441719
 20
-73.53416635197368
 42
0.4142135623731
 10
-685.92861441719
 20
-72.93416635197369
 42
0.4142135623731
 10
-686.52861441719
 20
-73.53416635197368
 42
0.4142135623731
 10
-685.92861441719
 20
-74.13416635197369
 42
0.4142135623731
  0
LINE
  5
3DC
330
1F
100
AcDbEntity
  8
B-4_寸法
  6
Continuous
 62
     7
370
     9
100
AcDbLine
 10
-685.92861441719
 20
-75.03416635197377
 30
0.0
 11
-685.92861441719
 21
43.97137521603824
 31
0.0
  0
TEXT
  5
3DD
330
1F
100
AcDbEntity
  8
B-4_寸法
  6
Continuous
 62
     2
370
   211
100
AcDbText
 10
-678.9285632796267
 20
-69.15016635197357
 30
0.0
 40
18.288
  1
4
  7
ＭＳ ゴシック
100
AcDbText
  0
TEXT
  5
3DE
330
1F
100
AcDbEntity
  8
B-4_寸法
  6
Continuous
 62
     2
370
   211
100
AcDbText
 10
-713.9284849236833
 20
-69.15016635197357
 30
0.0
 40
18.288
  1
6
  7
ＭＳ ゴシック
100
AcDbText
  0
LINE
  5
3DF
330
1F
100
AcDbEntity
  8
B-4_寸法
  6
Continuous
 62
     7
370
     9
100
AcDbLine
 10
-695.9284577053021
 20
-73.53416635197368
 30
0.0
 11
-712.9284849236831
 21
-73.53416635197368
 31
0.0
  0
LWPOLYLINE
  5
3E0
330
1F
100
AcDbEntity
  8
B-4_寸法
  6
Continuous
 62
     7
370
     9
100
AcDbPolyline
 90
        4
 70
     1
 43
1.2
 10
-185.32861441719
 20
-73.53416635197368
 42
0.4142135623731
 10
-185.92861441719
 20
-72.93416635197369
 42
0.4142135623731
 10
-186.5286144171901
 20
-73.53416635197368
 42
0.4142135623731
 10
-185.92861441719
 20
-74.13416635197369
 42
0.4142135623731
  0
LINE
  5
3E1
330
1F
100
AcDbEntity
  8
B-4_寸法
  6
Continuous
 62
     7
370
     9
100
AcDbLine
 10
-185.92861441719
 20
-75.03416635197377
 30
0.0
 11
-185.92861441719
 21
43.97137521603824
 31
0.0
  0
LINE
  5
3E2
330
1F
100
AcDbEntity
  8
B-4_寸法
  6
Continuous
 62
     7
370
     9
100
AcDbLine
 10
-185.92861441719
 20
-73.53416635197368
 30
0.0
 11
-181.9280486047956
 21
-73.53416635197368
 31
0.0
  0
LWPOLYLINE
  5
3E3
330
1F
100
AcDbEntity
  8
B-4_寸法
  6
Continuous
 62
     7
370
     9
100
AcDbPolyline
 90
        4
 70
     1
 43
1.2
 10
-181.3280486047956
 20
-73.53416635197368
 42
0.4142135623731
 10
-181.9280486047956
 20
-72.93416635197369
 42
0.4142135623731
 10
-182.5280486047956
 20
-73.53416635197368
 42
0.4142135623731
 10
-181.9280486047956
 20
-74.13416635197369
 42
0.4142135623731
  0
LINE
  5
3E4
330
1F
100
AcDbEntity
  8
B-4_寸法
  6
Continuous
 62
     7
370
     9
100
AcDbLine
 10
-181.9280486047956
 20
-75.03416635197377
 30
0.0
 11
-181.9280486047956
 21
39.97071867570912
 31
0.0
  0
LINE
  5
3E5
330
1F
100
AcDbEntity
  8
B-4_寸法
  6
Continuous
 62
     7
370
     9
100
AcDbLine
 10
-181.9280486047956
 20
-73.53416635197368
 30
0.0
 11
-175.9281030415566
 21
-73.53416635197368
 31
0.0
  0
LWPOLYLINE
  5
3E6
330
1F
100
AcDbEntity
  8
B-4_寸法
  6
Continuous
 62
     7
370
     9
100
AcDbPolyline
 90
        4
 70
     1
 43
1.2
 10
-175.3281030415566
 20
-73.53416635197368
 42
0.4142135623731
 10
-175.9281030415566
 20
-72.93416635197369
 42
0.4142135623731
 10
-176.5281030415566
 20
-73.53416635197368
 42
0.4142135623731
 10
-175.9281030415566
 20
-74.13416635197369
 42
0.4142135623731
  0
TEXT
  5
3E7
330
1F
100
AcDbEntity
  8
B-4_寸法
  6
Continuous
 62
     2
370
   211
100
AcDbText
 10
-169.9280758231762
 20
-69.15016635197357
 30
0.0
 40
18.288
  1
6
  7
ＭＳ ゴシック
100
AcDbText
  0
LINE
  5
3E8
330
1F
100
AcDbEntity
  8
B-4_寸法
  6
Continuous
 62
     7
370
     9
100
AcDbLine
 10
-175.9281030415566
 20
-73.53416635197368
 30
0.0
 11
-158.9280758231762
 21
-73.53416635197368
 31
0.0
  0
TEXT
  5
3E9
330
1F
100
AcDbEntity
  8
B-4_寸法
  6
Continuous
 62
     2
370
   211
100
AcDbText
 10
-204.9283315109928
 20
-69.15016635197357
 30
0.0
 40
18.288
  1
4
  7
ＭＳ ゴシック
100
AcDbText
  0
LWPOLYLINE
  5
3EA
330
1F
100
AcDbEntity
  8
B-4_寸法
  6
Continuous
 62
     7
370
     9
100
AcDbPolyline
 90
        4
 70
     1
 43
1.2
 10
-695.3284577053021
 20
-118.1924320125339
 42
0.4142135623731
 10
-695.9284577053021
 20
-117.5924320125339
 42
0.4142135623731
 10
-696.5284577053021
 20
-118.1924320125339
 42
0.4142135623731
 10
-695.9284577053021
 20
-118.7924320125339
 42
0.4142135623731
  0
LINE
  5
3EB
330
1F
100
AcDbEntity
  8
B-4_寸法
  6
Continuous
 62
     7
370
     9
100
AcDbLine
 10
-695.9284577053021
 20
-119.6924320125339
 30
0.0
 11
-695.9284577053021
 21
33.97062464857629
 31
0.0
  0
LWPOLYLINE
  5
3EC
330
1F
100
AcDbEntity
  8
B-4_寸法
  6
Continuous
 62
     7
370
     9
100
AcDbPolyline
 90
        4
 70
     1
 43
1.2
 10
-175.3281030415566
 20
-118.1924320125339
 42
0.4142135623731
 10
-175.9281030415566
 20
-117.5924320125339
 42
0.4142135623731
 10
-176.5281030415566
 20
-118.1924320125339
 42
0.4142135623731
 10
-175.9281030415566
 20
-118.7924320125339
 42
0.4142135623731
  0
LINE
  5
3ED
330
1F
100
AcDbEntity
  8
B-4_寸法
  6
Continuous
 62
     7
370
     9
100
AcDbLine
 10
-175.9281030415566
 20
-119.6924320125339
 30
0.0
 11
-175.9281030415566
 21
33.97062464857629
 31
0.0
  0
LINE
  5
3EE
330
1F
100
AcDbEntity
  8
B-5_仕様文
  6
Continuous
 62
     7
370
     9
100
AcDbLine
 10
-200.929092800847
 20
525.7374522061144
 30
0.0
 11
-199.2975488423381
 21
538.1304757227952
 31
0.0
  0
LINE
  5
3EF
330
1F
100
AcDbEntity
  8
B-5_仕様文
  6
Continuous
 62
     7
370
     9
100
AcDbLine
 10
-200.929092800847
 20
525.7374522061144
 30
0.0
 11
-196.1455119177181
 21
537.2858646322126
 31
0.0
  0
LINE
  5
3F0
330
1F
100
AcDbEntity
  8
B-5_仕様文
  6
Continuous
 62
     7
370
     9
100
AcDbLine
 10
-251.9287315387064
 20
508.2107946892226
 30
0.0
 11
-250.2972618121439
 21
520.6038182059033
 31
0.0
  0
LINE
  5
3F1
330
1F
100
AcDbEntity
  8
B-5_仕様文
  6
Continuous
 62
     7
370
     9
100
AcDbLine
 10
-251.9287315387064
 20
508.2107946892226
 30
0.0
 11
-247.1452248875239
 21
519.7593555792141
 31
0.0
  0
LINE
  5
3F2
330
1F
100
AcDbEntity
  8
B-5_仕様文
  6
Continuous
 62
     7
370
     9
100
AcDbLine
 10
-276.9539725420435
 20
553.971045296275
 30
0.0
 11
-275.3223543515873
 21
566.3640688129558
 31
0.0
  0
LINE
  5
3F3
330
1F
100
AcDbEntity
  8
B-5_仕様文
  6
Continuous
 62
     7
370
     9
100
AcDbLine
 10
-276.9539725420435
 20
553.971045296275
 30
0.0
 11
-272.170465890861
 21
565.5194577223731
 31
0.0
  0
TEXT
  5
3F4
330
1F
100
AcDbEntity
  8
B-5_仕様文
  6
Continuous
 62
     7
370
     9
100
AcDbText
 10
-220.4419127797074
 20
766.0827002541664
 30
0.0
 40
13.716
  1
エンドプレート ＦＢ4.5×38
 41
1.16025641025641
  7
ＭＳ ゴシック
100
AcDbText
  0
TEXT
  5
3F5
330
1F
100
AcDbEntity
  8
B-5_仕様文
  6
Continuous
 62
     7
370
     9
100
AcDbText
 10
-152.8006877311553
 20
686.0826342702138
 30
0.0
 40
13.716
  1
メインバー ＤⅠ－４４＠30
 50
359.9999060071308
 41
1.16
  7
ＭＳ ゴシック
100
AcDbText
  0
LINE
  5
3F6
330
1F
100
AcDbEntity
  8
B-5_仕様文
  6
Continuous
 62
     7
370
     9
100
AcDbLine
 10
-160.1943447335184
 20
678.5446672621898
 30
0.0
 11
127.2578086527779
 21
678.5446672621898
 31
0.0
  0
LINE
  5
3F7
330
1F
100
AcDbEntity
  8
B-5_仕様文
  6
Continuous
 62
     7
370
     9
100
AcDbLine
 10
-200.9290185689006
 20
525.7374522061144
 30
0.0
 11
-160.1943447335184
 21
678.5446672621898
 31
0.0
  0
TEXT
  5
3F8
330
1F
100
AcDbEntity
  8
B-5_仕様文
  6
Continuous
 62
     7
370
     9
100
AcDbText
 10
-183.1694173774575
 20
728.5825187982767
 30
0.0
 40
13.716
  1
クロスバー □６ ＠100
 50
0.0000776836118713
 41
1.158730158730157
  7
ＭＳ ゴシック
100
AcDbText
  0
LINE
  5
3F9
330
1F
100
AcDbEntity
  8
B-5_仕様文
  6
Continuous
 62
     7
370
     9
100
AcDbLine
 10
-195.1101323037429
 20
721.044551790273
 30
0.0
 11
48.89220682738068
 21
721.044551790273
 31
0.0
  0
LINE
  5
3FA
330
1F
100
AcDbEntity
  8
B-5_仕様文
  6
Continuous
 62
     7
370
     9
100
AcDbLine
 10
-251.9287315387064
 20
508.2107946892226
 30
0.0
 11
-195.1101323037429
 21
721.044551790273
 31
0.0
  0
LINE
  5
3FB
330
1F
100
AcDbEntity
  8
B-5_仕様文
  6
Continuous
 62
     7
370
     9
100
AcDbLine
 10
-222.3485628074208
 20
758.5447332461422
 30
0.0
 11
58.00293370862633
 21
758.5447332461422
 31
0.0
  0
LINE
  5
3FC
330
1F
100
AcDbEntity
  8
B-5_仕様文
  6
Continuous
 62
     7
370
     9
100
AcDbLine
 10
-276.9539725420435
 20
553.971045296275
 30
0.0
 11
-222.3485628074208
 21
758.5447332461422
 31
0.0
  0
LINE
  5
3FD
330
1F
100
AcDbEntity
  8
D-4_寸法
  6
Continuous
 62
     7
370
     9
100
AcDbLine
 10
-327.2641227029809
 20
-386.1210400494989
 30
0.0
 11
-342.2640237270522
 21
-386.1210400494989
 31
0.0
  0
TEXT
  5
3FE
330
1F
100
AcDbEntity
  8
D-4_寸法
  6
Continuous
 62
     2
370
   211
100
AcDbText
 10
-340.7640732150165
 20
-379.137040049499
 30
0.0
 40
18.288
  1
5
  7
ＭＳ ゴシック
100
AcDbText
  0
LINE
  5
3FF
330
1F
100
AcDbEntity
  8
D-4_寸法
  6
Continuous
 62
     7
370
     9
100
AcDbLine
 10
-453.1964557034522
 20
-388.3240066462354
 30
0.0
 11
-467.8643584520925
 21
-391.4628964111735
 31
0.0
  0
TEXT
  5
400
330
1F
100
AcDbEntity
  8
D-4_寸法
  6
Continuous
 62
     2
370
   211
100
AcDbText
 10
-467.8590352517836
 20
-384.3196319149127
 30
0.0
 40
18.288
  1
5
 50
12.07894990907533
 41
0.9999999999999755
  7
ＭＳ ゴシック
100
AcDbText
  0
LINE
  5
401
330
1F
100
AcDbEntity
  8
D-4_寸法
  6
Continuous
 62
     7
370
     9
100
AcDbLine
 10
-669.2640237270522
 20
-338.1208420976408
 30
0.0
 11
-669.2640237270522
 21
-353.1210400494989
 31
0.0
  0
TEXT
  5
402
330
1F
100
AcDbEntity
  8
D-4_寸法
  6
Continuous
 62
     2
370
   211
100
AcDbText
 10
-676.248023727052
 20
-351.6209410735698
 30
0.0
 40
18.288
  1
5
 50
90.0
  7
ＭＳ ゴシック
100
AcDbText
  0
LINE
  5
403
330
1F
100
AcDbEntity
  8
D-4_寸法
  6
Continuous
 62
     7
370
     9
100
AcDbLine
 10
-441.2297911393041
 20
-311.1208420976408
 30
0.0
 11
-463.9397911393042
 21
-311.1208420976408
 31
0.0
  0
TEXT
  5
404
330
1F
100
AcDbEntity
  8
D-4_寸法
  6
Continuous
 62
     2
370
   211
100
AcDbText
 10
-472.084791139304
 20
-304.1368420976409
 30
0.0
 40
18.288
  1
7.6
 41
1.083333333333333
  7
ＭＳ ゴシック
100
AcDbText
  0
LINE
  5
405
330
1F
100
AcDbEntity
  8
D-4_寸法
  6
Continuous
 62
     7
370
     9
100
AcDbLine
 10
-548.9586400209262
 20
-311.1208420976408
 30
0.0
 11
-565.248640020926
 21
-311.1208420976408
 31
0.0
  0
TEXT
  5
406
330
1F
100
AcDbEntity
  8
D-4_寸法
  6
Continuous
 62
     2
370
   211
100
AcDbText
 10
-576.6036400209263
 20
-304.1368420976409
 30
0.0
 40
18.288
  1
5.4
 41
1.083333333333333
  7
ＭＳ ゴシック
100
AcDbText
  0
LINE
  5
407
330
1F
100
AcDbEntity
  8
D-4_寸法
  6
Continuous
 62
     7
370
     9
100
AcDbLine
 10
-270.2641227029809
 20
-549.620931175977
 30
0.0
 11
-270.2641227029809
 21
-417.6206837361542
 31
0.0
  0
TEXT
  5
408
330
1F
100
AcDbEntity
  8
D-4_寸法
  6
Continuous
 62
     2
370
   211
100
AcDbText
 10
-277.248122702981
 20
-496.3708074560657
 30
0.0
 40
18.288
  1
44
 50
90.0
 41
1.0625
  7
ＭＳ ゴシック
100
AcDbText
  0
LINE
  5
409
330
1F
100
AcDbEntity
  8
B-4_寸法
  6
Continuous
 62
     7
370
     9
100
AcDbLine
 10
300.5125577954457
 20
53.97063289657055
 30
0.0
 11
300.5125577954457
 21
49.97091005494681
 31
0.0
  0
TEXT
  5
40A
330
1F
100
AcDbEntity
  8
B-4_寸法
  6
Continuous
 62
     2
370
   211
100
AcDbText
 10
293.5285577954457
 20
45.97077147575868
 30
0.0
 40
18.288
  1
4
 50
90.0
  7
ＭＳ ゴシック
100
AcDbText
  0
LINE
  5
40B
330
1F
100
AcDbEntity
  8
B-4_寸法
  6
Continuous
 62
     7
370
     9
100
AcDbLine
 10
300.5125577954457
 20
557.9708110532426
 30
0.0
 11
300.5125577954457
 21
553.971045296275
 31
0.0
  0
TEXT
  5
40C
330
1F
100
AcDbEntity
  8
B-4_寸法
  6
Continuous
 62
     2
370
   211
100
AcDbText
 10
293.5285577954457
 20
549.9709281747588
 30
0.0
 40
18.288
  1
4
 50
90.0
  7
ＭＳ ゴシック
100
AcDbText
  0
LINE
  5
40D
330
1F
100
AcDbEntity
  8
B-4_寸法
  6
Continuous
 62
     7
370
     9
100
AcDbLine
 10
300.5125577954457
 20
553.971045296275
 30
0.0
 11
300.5125577954457
 21
53.97063289657055
 31
0.0
  0
TEXT
  5
40E
330
1F
100
AcDbEntity
  8
B-4_寸法
  6
Continuous
 62
     2
370
   211
100
AcDbText
 10
293.5285577954457
 20
284.4708390964228
 30
0.0
 40
18.288
  1
500
 50
90.0
 41
1.083333333333333
  7
ＭＳ ゴシック
100
AcDbText
  0
LINE
  5
40F
330
1F
100
AcDbEntity
  8
B-4_寸法
  6
Continuous
 62
     7
370
     9
100
AcDbLine
 10
360.5125577954457
 20
-27.77208841164814
 30
0.0
 11
404.5128019360706
 21
-27.77208841164814
 31
0.0
  0
TEXT
  5
410
330
1F
100
AcDbEntity
  8
B-4_寸法
  6
Continuous
 62
     2
370
   211
100
AcDbText
 10
369.7626798657582
 20
-20.788088411648
 30
0.0
 40
18.288
  1
44
 41
1.062499999999998
  7
ＭＳ ゴシック
100
AcDbText
  0
LINE
  5
411
330
1F
100
AcDbEntity
  8
B-4_寸法
  6
Continuous
 62
     7
370
     9
100
AcDbLine
 10
360.5125577954457
 20
-73.53416635197368
 30
0.0
 11
410.5128217312566
 21
-73.53416635197368
 31
0.0
  0
TEXT
  5
412
330
1F
100
AcDbEntity
  8
B-4_寸法
  6
Continuous
 62
     2
370
   211
100
AcDbText
 10
372.7626897633511
 20
-66.55016635197354
 30
0.0
 40
18.288
  1
50
 41
1.0625
  7
ＭＳ ゴシック
100
AcDbText
  0
LINE
  5
413
330
1F
100
AcDbEntity
  8
B-4_寸法
  6
Continuous
 62
     7
370
     9
100
AcDbLine
 10
247.2110345069468
 20
563.9708308484289
 30
0.0
 11
247.2110345069468
 21
43.97099580831039
 31
0.0
  0
TEXT
  5
414
330
1F
100
AcDbEntity
  8
B-4_寸法
  6
Continuous
 62
     2
370
   211
100
AcDbText
 10
240.2270345069469
 20
284.4709133283696
 30
0.0
 40
18.288
  1
520
 50
90.00000000000006
 41
1.083333333333333
  7
ＭＳ ゴシック
100
AcDbText
  0
LINE
  5
415
330
1F
100
AcDbEntity
  8
B-4_寸法
  6
Continuous
 62
     7
370
     9
100
AcDbLine
 10
483.8336358526657
 20
103.9708968323812
 30
0.0
 11
483.8336358526657
 21
43.97099580831039
 31
0.0
  0
TEXT
  5
416
330
1F
100
AcDbEntity
  8
B-4_寸法
  6
Continuous
 62
     2
370
   211
100
AcDbText
 10
476.8496358526656
 20
61.22094632034582
 30
0.0
 40
18.288
  1
60
 50
90.0
 41
1.0625
  7
ＭＳ ゴシック
100
AcDbText
  0
LINE
  5
417
330
1F
100
AcDbEntity
  8
B-4_寸法
  6
Continuous
 62
     7
370
     9
100
AcDbLine
 10
483.8336358526659
 20
563.9708308484289
 30
0.0
 11
483.8336358526659
 21
503.970929824358
 31
0.0
  0
TEXT
  5
418
330
1F
100
AcDbEntity
  8
B-4_寸法
  6
Continuous
 62
     2
370
   211
100
AcDbText
 10
476.8496358526658
 20
521.2208803363935
 30
0.0
 40
18.288
  1
60
 50
90.0
 41
1.0625
  7
ＭＳ ゴシック
100
AcDbText
  0
LINE
  5
419
330
1F
100
AcDbEntity
  8
B-4_寸法
  6
Continuous
 62
     7
370
     9
100
AcDbLine
 10
483.8336358526659
 20
503.970929824358
 30
0.0
 11
483.8336358526657
 21
103.9708968323812
 31
0.0
  0
TEXT
  5
41A
330
1F
100
AcDbEntity
  8
B-4_寸法
  6
Continuous
 62
     2
370
   211
100
AcDbText
 10
476.8496358526658
 20
284.4709133283696
 30
0.0
 40
18.288
  1
400
 50
90.0
 41
1.083333333333333
  7
ＭＳ ゴシック
100
AcDbText
  0
LINE
  5
41B
330
1F
100
AcDbEntity
  8
B-4_寸法
  6
Continuous
 62
     7
370
     9
100
AcDbLine
 10
-435.9282803734295
 20
623.9708308484287
 30
0.0
 11
-175.9281030415566
 21
623.9708308484287
 31
0.0
  0
TEXT
  5
41C
330
1F
100
AcDbEntity
  8
B-4_寸法
  6
Continuous
 62
     2
370
   211
100
AcDbText
 10
-325.428191707493
 20
630.9548308484282
 30
0.0
 40
18.288
  1
260
 41
1.083333333333333
  7
ＭＳ ゴシック
100
AcDbText
  0
LINE
  5
41D
330
1F
100
AcDbEntity
  8
B-4_寸法
  6
Continuous
 62
     7
370
     9
100
AcDbLine
 10
-695.9284577053021
 20
623.9708308484287
 30
0.0
 11
-435.9282803734295
 21
623.9708308484287
 31
0.0
  0
TEXT
  5
41E
330
1F
100
AcDbEntity
  8
B-4_寸法
  6
Continuous
 62
     2
370
   211
100
AcDbText
 10
-585.4283690393657
 20
630.9548308484282
 30
0.0
 40
18.288
  1
260
 41
1.083333333333333
  7
ＭＳ ゴシック
100
AcDbText
  0
LINE
  5
41F
330
1F
100
AcDbEntity
  8
B-4_寸法
  6
Continuous
 62
     7
370
     9
100
AcDbLine
 10
-623.4288536090185
 20
583.9708308484289
 30
0.0
 11
-593.4288536090185
 21
583.9708308484289
 31
0.0
  0
TEXT
  5
420
330
1F
100
AcDbEntity
  8
B-4_寸法
  6
Continuous
 62
     2
370
   211
100
AcDbText
 10
-621.1788536090185
 20
590.9548308484287
 30
0.0
 40
18.288
  1
30
 41
1.0625
  7
ＭＳ ゴシック
100
AcDbText
  0
LINE
  5
421
330
1F
100
AcDbEntity
  8
B-4_寸法
  6
Continuous
 62
     7
370
     9
100
AcDbLine
 10
-635.9286309131783
 20
-27.77208841164814
 30
0.0
 11
-235.929092800847
 21
-27.77208841164814
 31
0.0
  0
TEXT
  5
422
330
1F
100
AcDbEntity
  8
B-4_寸法
  6
Continuous
 62
     2
370
   211
100
AcDbText
 10
-455.4288618570126
 20
-20.788088411648
 30
0.0
 40
18.288
  1
400
 41
1.083333333333333
  7
ＭＳ ゴシック
100
AcDbText
  0
LINE
  5
423
330
1F
100
AcDbEntity
  8
B-4_寸法
  6
Continuous
 62
     7
370
     9
100
AcDbLine
 10
-685.92861441719
 20
-73.53416635197368
 30
0.0
 11
-185.92861441719
 21
-73.53416635197368
 31
0.0
  0
TEXT
  5
424
330
1F
100
AcDbEntity
  8
B-4_寸法
  6
Continuous
 62
     2
370
   211
100
AcDbText
 10
-455.4286144171901
 20
-66.55016635197354
 30
0.0
 40
18.288
  1
500
 41
1.083333333333333
  7
ＭＳ ゴシック
100
AcDbText
  0
LINE
  5
425
330
1F
100
AcDbEntity
  8
B-4_寸法
  6
Continuous
 62
     7
370
     9
100
AcDbLine
 10
-695.9284577053021
 20
-118.1924320125339
 30
0.0
 11
-175.9281030415566
 21
-118.1924320125339
 31
0.0
  0
TEXT
  5
426
330
1F
100
AcDbEntity
  8
B-4_寸法
  6
Continuous
 62
     2
370
   211
100
AcDbText
 10
-455.4282803734293
 20
-111.2084320125338
 30
0.0
 40
18.288
  1
520
 41
1.083333333333333
  7
ＭＳ ゴシック
100
AcDbText
  0
TEXT
  5
427
330
1F
100
AcDbEntity
  8
F-0ﾚｲﾔ
  6
Continuous
 62
     2
370
     9
100
AcDbText
 10
369.7739448277284
 20
-479.4847704676132
 30
0.0
 40
18.288
  1
処理：溶融亜鉛めっき
 41
1.1125
  7
ＭＳ ゴシック
100
AcDbText
  0
TEXT
  5
428
330
1F
100
AcDbEntity
  8
F-0ﾚｲﾔ
  6
Continuous
 62
     2
370
     9
100
AcDbText
 10
369.7739305710143
 20
-446.4841419704605
 30
0.0
 40
18.288
  1
材質：ＳＳ４００
 50
359.999990016014
 41
1.109375
  7
ＭＳ ゴシック
100
AcDbText
  0
TEXT
  5
429
330
1F
100
AcDbEntity
  8
F-0ﾚｲﾔ
  6
Continuous
 62
     2
370
     9
100
AcDbText
 10
367.0744110043543
 20
-551.4851379157499
 30
0.0
 40
18.288
  1
材質：ＳＳ４００
 41
1.109375
  7
ＭＳ ゴシック
100
AcDbText
  0
TEXT
  5
42A
330
1F
100
AcDbEntity
  8
F-0ﾚｲﾔ
  6
Continuous
 62
     2
370
     9
100
AcDbText
 10
336.6466320901864
 20
-380.4854088623557
 30
0.0
 40
18.288
  1
スチール製グレーチング　枠付正方形型　滑り止め模様付
 41
1.120192307692308
  7
ＭＳ ゴシック
100
AcDbText
  0
LINE
  5
42B
330
1F
100
AcDbEntity
  8
F-0ﾚｲﾔ
  6
Continuous
 62
     2
370
     9
100
AcDbLine
 10
269.1467805540797
 20
-351.5171964204216
 30
0.0
 11
269.1467805540797
 21
-321.5168005167054
 31
0.0
  0
LINE
  5
42C
330
1F
100
AcDbEntity
  8
F-0ﾚｲﾔ
  6
Continuous
 62
     2
370
     9
100
AcDbLine
 10
269.1467805540797
 20
-321.5168005167054
 30
0.0
 11
404.1464836262928
 21
-321.5168005167054
 31
0.0
  0
LINE
  5
42D
330
1F
100
AcDbEntity
  8
F-0ﾚｲﾔ
  6
Continuous
 62
     2
370
     9
100
AcDbLine
 10
404.1464836262928
 20
-321.5168005167054
 30
0.0
 11
404.1464836262928
 21
-351.5171964204216
 31
0.0
  0
LINE
  5
42E
330
1F
100
AcDbEntity
  8
F-0ﾚｲﾔ
  6
Continuous
 62
     2
370
     9
100
AcDbLine
 10
404.1464836262928
 20
-351.5171964204216
 30
0.0
 11
269.1467805540797
 21
-351.5171964204216
 31
0.0
  0
TEXT
  5
42F
330
1F
100
AcDbEntity
  8
F-0ﾚｲﾔ
  6
Continuous
 62
     2
370
   211
100
AcDbText
 10
297.6466320901862
 20
-345.1329984685635
 30
0.0
 40
18.288
  1
仕　様
 41
1.083333333333333
  7
ＭＳ ゴシック
100
AcDbText
  0
TEXT
  5
430
330
1F
100
AcDbEntity
  8
F-0ﾚｲﾔ
  6
Continuous
 62
     2
370
     9
100
AcDbText
 10
336.6466320901864
 20
-413.4860373595052
 30
0.0
 40
18.288
  1
集水桝用　ＨＸＣ　４４４４
 41
1.115384615384615
  7
ＭＳ ゴシック
100
AcDbText
  0
TEXT
  5
431
330
1F
100
AcDbEntity
  8
F-0ﾚｲﾔ
  6
Continuous
 62
     2
370
     9
100
AcDbText
 10
336.6466023974076
 20
-518.485140390148
 30
0.0
 40
18.288
  1
スチール製受枠　Ｌ－４４（四方受四方枠）
 41
1.11875
  7
ＭＳ ゴシック
100
AcDbText
  0
TEXT
  5
432
330
1F
100
AcDbEntity
  8
F-0ﾚｲﾔ
  6
Continuous
 62
     2
370
     9
100
AcDbText
 10
367.0744258507435
 20
-584.4850983253783
 30
0.0
 40
18.288
  1
処理：樹脂系塗装
 41
1.109375
  7
ＭＳ ゴシック
100
AcDbText
  0
TEXT
  5
433
330
1F
100
AcDbEntity
  8
F-5ﾚｲﾔ
  6
Continuous
 62
     3
370
     9
100
AcDbText
 10
434.1464836262928
 20
-347.2871964204215
 30
0.0
 40
22.86
  1
※適用荷重：Ｔ－１４，Ｔ－６
 41
1.092857142857143
  7
ＭＳ ゴシック
100
AcDbText
  0
ENDSEC
  0
SECTION
  2
OBJECTS
  0
DICTIONARY
  5
C
330
0
100
AcDbDictionary
281
     1
  3
ACAD_DETAILVIEWSTYLE
350
479
  3
ACAD_GROUP
350
D
  3
ACAD_LAYOUT
350
1A
  3
ACAD_MATERIAL
350
43
  3
ACAD_MLEADERSTYLE
350
6B
  3
ACAD_MLINESTYLE
350
17
  3
ACAD_PLOTSETTINGS
350
19
  3
ACAD_PLOTSTYLENAME
350
E
  3
ACAD_SCALELIST
350
47
  3
ACAD_SECTIONVIEWSTYLE
350
47A
  3
ACAD_TABLESTYLE
350
69
  3
ACAD_VISUALSTYLE
350
2A
  3
ACDB_RECOMPOSE_DATA
350
476
  3
AcDbVariableDictionary
350
436
  0
DICTIONARY
  5
434
330
8
100
AcDbDictionary
280
     1
281
     1
  3
ACAD_XREC_ROUNDTRIP
360
435
  0
DICTIONARY
  5
479
102
{ACAD_REACTORS
330
C
102
}
330
C
100
AcDbDictionary
281
     1
  0
DICTIONARY
  5
D
102
{ACAD_REACTORS
330
C
102
}
330
C
100
AcDbDictionary
281
     1
  0
DICTIONARY
  5
1A
102
{ACAD_REACTORS
330
C
102
}
330
C
100
AcDbDictionary
281
     1
  3
Layout1
350
1E
  3
Layout2
350
26
  3
Model
350
22
  0
DICTIONARY
  5
43
102
{ACAD_REACTORS
330
C
102
}
330
C
100
AcDbDictionary
281
     1
  3
ByBlock
350
45
  3
ByLayer
350
44
  3
Global
350
46
  0
DICTIONARY
  5
6B
102
{ACAD_REACTORS
330
C
102
}
330
C
100
AcDbDictionary
281
     1
  3
Standard
350
6C
  0
DICTIONARY
  5
17
102
{ACAD_REACTORS
330
C
102
}
330
C
100
AcDbDictionary
281
     1
  3
Standard
350
18
  0
DICTIONARY
  5
19
102
{ACAD_REACTORS
330
C
102
}
330
C
100
AcDbDictionary
281
     1
  0
ACDBDICTIONARYWDFLT
  5
E
102
{ACAD_REACTORS
330
C
102
}
330
C
100
AcDbDictionary
281
     1
  3
Normal
350
F
100
AcDbDictionaryWithDefault
340
F
  0
DICTIONARY
  5
47
102
{ACAD_REACTORS
330
C
102
}
330
C
100
AcDbDictionary
281
     1
  3
A0
350
48
  3
A1
350
49
  3
A2
350
4A
  3
A3
350
4B
  3
A4
350
4C
  3
A5
350
4D
  3
A6
350
4E
  3
A7
350
4F
  3
A8
350
50
  3
A9
350
51
  3
B0
350
52
  3
B1
350
53
  3
B2
350
54
  3
B3
350
55
  3
B4
350
56
  3
B5
350
57
  3
B6
350
58
  3
B7
350
59
  3
B8
350
5A
  3
B9
350
5B
  3
C0
350
5C
  3
C1
350
5D
  3
C2
350
5E
  3
C3
350
5F
  3
C4
350
60
  3
C5
350
61
  3
C6
350
62
  3
C7
350
63
  3
C8
350
64
  3
C9
350
65
  3
D0
350
66
  3
D1
350
67
  3
D2
350
68
  0
DICTIONARY
  5
47A
102
{ACAD_REACTORS
330
C
102
}
330
C
100
AcDbDictionary
281
     1
  0
DICTIONARY
  5
69
102
{ACAD_REACTORS
330
C
102
}
330
C
100
AcDbDictionary
281
     1
  3
Standard
350
6A
  0
DICTIONARY
  5
2A
102
{ACAD_REACTORS
330
C
102
}
330
C
100
AcDbDictionary
281
     1
  3
2dWireframe
350
2F
  3
Basic
350
32
  3
Brighten
350
36
  3
ColorChange
350
3A
  3
Conceptual
350
34
  3
Dim
350
35
  3
EdgeColorOff
350
3D
  3
Facepattern
350
39
  3
Flat
350
2B
  3
FlatWithEdges
350
2C
  3
Gouraud
350
2D
  3
GouraudWithEdges
350
2E
  3
Hidden
350
31
  3
JitterOff
350
3B
  3
Linepattern
350
38
  3
OverhangOff
350
3C
  3
Realistic
350
33
  3
Shaded
350
42
  3
Shaded with edges
350
41
  3
Shades of Gray
350
3E
  3
Sketchy
350
3F
  3
Thicken
350
37
  3
Wireframe
350
30
  3
X-Ray
350
40
  0
XRECORD
  5
476
102
{ACAD_REACTORS
330
C
102
}
330
C
100
AcDbXrecord
280
     1
 90
        1
330
6A
  0
DICTIONARY
  5
436
102
{ACAD_REACTORS
330
C
102
}
330
C
100
AcDbDictionary
281
     1
  3
CANNOSCALE
350
437
  3
CENTEREXE
350
47B
  3
CENTERLTYPEFILE
350
47C
  3
CMLEADERSTYLE
350
478
  3
CTABLESTYLE
350
477
  3
MSLTSCALE
350
438
  3
XCLIPFRAME
350
439
  0
XRECORD
  5
435
102
{ACAD_REACTORS
330
434
102
}
330
434
100
AcDbXrecord
280
     1
102
VTR_0.000_0.000_1.000_1.000_VISUALSTYLE
340
2F
102
VTR_0.000_0.000_1.000_1.000_GRIDDISPLAY
 70
     3
102
VTR_0.000_0.000_1.000_1.000_GRIDMAJOR
 70
     5
102
VTR_0.000_0.000_1.000_1.000_DEFAULTLIGHTING
280
     1
102
VTR_0.000_0.000_1.000_1.000_DEFAULTLIGHTINGTYPE
 70
     1
102
VTR_0.000_0.000_1.000_1.000_BRIGHTNESS
141
0.0
102
VTR_0.000_0.000_1.000_1.000_CONTRAST
142
0.0
  0
LAYOUT
  5
1E
102
{ACAD_REACTORS
330
1A
102
}
330
1A
100
AcDbPlotSettings
  1

  2
none_device
  4

  6

 40
0.0
 41
0.0
 42
0.0
 43
0.0
 44
0.0
 45
0.0
 46
0.0
 47
0.0
 48
0.0
 49
0.0
140
0.0
141
0.0
142
1.0
143
1.0
 70
   688
 72
     1
 73
     0
 74
     5
  7

 75
    16
 76
     0
 77
     5
 78
   300
147
1.0
148
0.0
149
0.0
100
AcDbLayout
  1
Layout1
 70
     1
 71
     1
 10
0.0
 20
0.0
 11
420.0
 21
297.0
 12
0.0
 22
0.0
 32
0.0
 14
1.000000000000000E+20
 24
1.000000000000000E+20
 34
1.000000000000000E+20
 15
-1.000000000000000E+20
 25
-1.000000000000000E+20
 35
-1.000000000000000E+20
146
0.0
 13
0.0
 23
0.0
 33
0.0
 16
1.0
 26
0.0
 36
0.0
 17
0.0
 27
1.0
 37
0.0
 76
     0
330
1B
  0
LAYOUT
  5
26
102
{ACAD_REACTORS
330
1A
102
}
330
1A
100
AcDbPlotSettings
  1

  2
none_device
  4

  6

 40
0.0
 41
0.0
 42
0.0
 43
0.0
 44
0.0
 45
0.0
 46
0.0
 47
0.0
 48
0.0
 49
0.0
140
0.0
141
0.0
142
1.0
143
1.0
 70
   688
 72
     1
 73
     0
 74
     5
  7

 75
    16
 76
     0
 77
     5
 78
   300
147
1.0
148
0.0
149
0.0
100
AcDbLayout
  1
Layout2
 70
     1
 71
     2
 10
0.0
 20
0.0
 11
0.0
 21
0.0
 12
0.0
 22
0.0
 32
0.0
 14
0.0
 24
0.0
 34
0.0
 15
0.0
 25
0.0
 35
0.0
146
0.0
 13
0.0
 23
0.0
 33
0.0
 16
1.0
 26
0.0
 36
0.0
 17
0.0
 27
1.0
 37
0.0
 76
     0
330
23
  0
LAYOUT
  5
22
102
{ACAD_REACTORS
330
1A
102
}
330
1A
100
AcDbPlotSettings
  1

  2
none_device
  4
Letter_(8.50_x_11.00_Inches)
  6

 40
6.35
 41
6.35
 42
6.35000508
 43
6.35000508
 44
215.9
 45
279.4
 46
0.0
 47
0.0
 48
0.0
 49
0.0
140
0.0
141
0.0
142
1.0
143
1.0
 70
  1712
 72
     1
 73
     0
 74
     0
  7

 75
     0
 76
     0
 77
     5
 78
   300
147
1.0
148
0.0
149
0.0
100
AcDbLayout
  1
Model
 70
     1
 71
     0
 10
-1260.0
 20
-891.0
 11
1260.0
 21
891.0
 12
0.0
 22
0.0
 32
0.0
 14
-1260.0
 24
-891.0
 34
0.0
 15
1260.0
 25
891.0
 35
0.0
146
0.0
 13
0.0
 23
0.0
 33
0.0
 16
1.0
 26
0.0
 36
0.0
 17
0.0
 27
1.0
 37
0.0
 76
     0
330
1F
331
29
  0
MATERIAL
  5
45
102
{ACAD_REACTORS
330
43
102
}
102
{ACAD_XDICTIONARY
360
46C
102
}
330
43
100
AcDbMaterial
  1
ByBlock
  0
MATERIAL
  5
44
102
{ACAD_REACTORS
330
43
102
}
102
{ACAD_XDICTIONARY
360
46A
102
}
330
43
100
AcDbMaterial
  1
ByLayer
  0
MATERIAL
  5
46
102
{ACAD_REACTORS
330
43
102
}
102
{ACAD_XDICTIONARY
360
46E
102
}
330
43
100
AcDbMaterial
  1
Global
  0
MLEADERSTYLE
  5
6C
102
{ACAD_REACTORS
330
6B
102
}
102
{ACAD_XDICTIONARY
360
474
102
}
330
6B
100
AcDbMLeaderStyle
170
     2
171
     1
172
     0
 90
        2
 40
0.0
 41
0.0
173
     1
 91
-1056964608
340
14
 92
       -2
290
     1
 42
2.0
291
     1
 43
8.0
  3
Standard
341
0
 44
4.0
300

342
11
174
     1
178
     6
175
     1
176
     0
 93
-1056964608
 45
4.0
292
     0
297
     0
 46
4.0
343
0
 94
-1056964608
 47
1.0
 49
1.0
140
1.0
293
     1
141
0.0
294
     1
177
     0
142
1.0
295
     0
296
     0
143
3.75
1001
ACAD_MLEADERVER
1070
     2
  0
MLINESTYLE
  5
18
102
{ACAD_REACTORS
330
17
102
}
330
17
100
AcDbMlineStyle
  2
Standard
 70
     0
  3

 62
   256
 51
90.0
 52
90.0
 71
     2
 49
0.5
 62
   256
  6
BYLAYER
 49
-0.5
 62
   256
  6
BYLAYER
  0
ACDBPLACEHOLDER
  5
F
102
{ACAD_REACTORS
330
E
102
}
330
E
  0
SCALE
  5
48
102
{ACAD_REACTORS
330
47
102
}
330
47
100
AcDbScale
 70
     0
300
1:1
140
1.0
141
1.0
290
     1
  0
SCALE
  5
49
102
{ACAD_REACTORS
330
47
102
}
330
47
100
AcDbScale
 70
     0
300
1:2
140
1.0
141
2.0
290
     0
  0
SCALE
  5
4A
102
{ACAD_REACTORS
330
47
102
}
330
47
100
AcDbScale
 70
     0
300
1:4
140
1.0
141
4.0
290
     0
  0
SCALE
  5
4B
102
{ACAD_REACTORS
330
47
102
}
330
47
100
AcDbScale
 70
     0
300
1:5
140
1.0
141
5.0
290
     0
  0
SCALE
  5
4C
102
{ACAD_REACTORS
330
47
102
}
330
47
100
AcDbScale
 70
     0
300
1:8
140
1.0
141
8.0
290
     0
  0
SCALE
  5
4D
102
{ACAD_REACTORS
330
47
102
}
330
47
100
AcDbScale
 70
     0
300
1:10
140
1.0
141
10.0
290
     0
  0
SCALE
  5
4E
102
{ACAD_REACTORS
330
47
102
}
330
47
100
AcDbScale
 70
     0
300
1:16
140
1.0
141
16.0
290
     0
  0
SCALE
  5
4F
102
{ACAD_REACTORS
330
47
102
}
330
47
100
AcDbScale
 70
     0
300
1:20
140
1.0
141
20.0
290
     0
  0
SCALE
  5
50
102
{ACAD_REACTORS
330
47
102
}
330
47
100
AcDbScale
 70
     0
300
1:30
140
1.0
141
30.0
290
     0
  0
SCALE
  5
51
102
{ACAD_REACTORS
330
47
102
}
330
47
100
AcDbScale
 70
     0
300
1:40
140
1.0
141
40.0
290
     0
  0
SCALE
  5
52
102
{ACAD_REACTORS
330
47
102
}
330
47
100
AcDbScale
 70
     0
300
1:50
140
1.0
141
50.0
290
     0
  0
SCALE
  5
53
102
{ACAD_REACTORS
330
47
102
}
330
47
100
AcDbScale
 70
     0
300
1:100
140
1.0
141
100.0
290
     0
  0
SCALE
  5
54
102
{ACAD_REACTORS
330
47
102
}
330
47
100
AcDbScale
 70
     0
300
2:1
140
2.0
141
1.0
290
     0
  0
SCALE
  5
55
102
{ACAD_REACTORS
330
47
102
}
330
47
100
AcDbScale
 70
     0
300
4:1
140
4.0
141
1.0
290
     0
  0
SCALE
  5
56
102
{ACAD_REACTORS
330
47
102
}
330
47
100
AcDbScale
 70
     0
300
8:1
140
8.0
141
1.0
290
     0
  0
SCALE
  5
57
102
{ACAD_REACTORS
330
47
102
}
330
47
100
AcDbScale
 70
     0
300
10:1
140
10.0
141
1.0
290
     0
  0
SCALE
  5
58
102
{ACAD_REACTORS
330
47
102
}
330
47
100
AcDbScale
 70
     0
300
100:1
140
100.0
141
1.0
290
     0
  0
SCALE
  5
59
102
{ACAD_REACTORS
330
47
102
}
330
47
100
AcDbScale
 70
     0
300
1/128" = 1'-0"
140
0.0078125
141
12.0
290
     0
  0
SCALE
  5
5A
102
{ACAD_REACTORS
330
47
102
}
330
47
100
AcDbScale
 70
     0
300
1/64" = 1'-0"
140
0.015625
141
12.0
290
     0
  0
SCALE
  5
5B
102
{ACAD_REACTORS
330
47
102
}
330
47
100
AcDbScale
 70
     0
300
1/32" = 1'-0"
140
0.03125
141
12.0
290
     0
  0
SCALE
  5
5C
102
{ACAD_REACTORS
330
47
102
}
330
47
100
AcDbScale
 70
     0
300
1/16" = 1'-0"
140
0.0625
141
12.0
290
     0
  0
SCALE
  5
5D
102
{ACAD_REACTORS
330
47
102
}
330
47
100
AcDbScale
 70
     0
300
3/32" = 1'-0"
140
0.09375
141
12.0
290
     0
  0
SCALE
  5
5E
102
{ACAD_REACTORS
330
47
102
}
330
47
100
AcDbScale
 70
     0
300
1/8" = 1'-0"
140
0.125
141
12.0
290
     0
  0
SCALE
  5
5F
102
{ACAD_REACTORS
330
47
102
}
330
47
100
AcDbScale
 70
     0
300
3/16" = 1'-0"
140
0.1875
141
12.0
290
     0
  0
SCALE
  5
60
102
{ACAD_REACTORS
330
47
102
}
330
47
100
AcDbScale
 70
     0
300
1/4" = 1'-0"
140
0.25
141
12.0
290
     0
  0
SCALE
  5
61
102
{ACAD_REACTORS
330
47
102
}
330
47
100
AcDbScale
 70
     0
300
3/8" = 1'-0"
140
0.375
141
12.0
290
     0
  0
SCALE
  5
62
102
{ACAD_REACTORS
330
47
102
}
330
47
100
AcDbScale
 70
     0
300
1/2" = 1'-0"
140
0.5
141
12.0
290
     0
  0
SCALE
  5
63
102
{ACAD_REACTORS
330
47
102
}
330
47
100
AcDbScale
 70
     0
300
3/4" = 1'-0"
140
0.75
141
12.0
290
     0
  0
SCALE
  5
64
102
{ACAD_REACTORS
330
47
102
}
330
47
100
AcDbScale
 70
     0
300
1" = 1'-0"
140
1.0
141
12.0
290
     0
  0
SCALE
  5
65
102
{ACAD_REACTORS
330
47
102
}
330
47
100
AcDbScale
 70
     0
300
1-1/2" = 1'-0"
140
1.5
141
12.0
290
     0
  0
SCALE
  5
66
102
{ACAD_REACTORS
330
47
102
}
330
47
100
AcDbScale
 70
     0
300
3" = 1'-0"
140
3.0
141
12.0
290
     0
  0
SCALE
  5
67
102
{ACAD_REACTORS
330
47
102
}
330
47
100
AcDbScale
 70
     0
300
6" = 1'-0"
140
6.0
141
12.0
290
     0
  0
SCALE
  5
68
102
{ACAD_REACTORS
330
47
102
}
330
47
100
AcDbScale
 70
     0
300
1'-0" = 1'-0"
140
12.0
141
12.0
290
     0
  0
TABLESTYLE
  5
6A
102
{ACAD_REACTORS
330
69
102
}
102
{ACAD_XDICTIONARY
360
470
102
}
330
69
100
AcDbTableStyle
  3
Standard
 70
     0
 71
     0
 40
0.06
 41
0.06
280
     0
281
     0
  7
Standard
140
4.5
170
     2
 62
     0
 63
   257
283
     0
274
    -2
284
     1
 64
     0
275
    -2
285
     1
 65
     0
276
    -2
286
     1
 66
     0
277
    -2
287
     1
 67
     0
278
    -2
288
     1
 68
     0
279
    -2
289
     1
 69
     0
  7
Standard
140
6.0
170
     5
 62
     0
 63
   257
283
     0
274
    -2
284
     1
 64
     0
275
    -2
285
     1
 65
     0
276
    -2
286
     1
 66
     0
277
    -2
287
     1
 67
     0
278
    -2
288
     1
 68
     0
279
    -2
289
     1
 69
     0
  7
Standard
140
4.5
170
     5
 62
     0
 63
   257
283
     0
274
    -2
284
     1
 64
     0
275
    -2
285
     1
 65
     0
276
    -2
286
     1
 66
     0
277
    -2
287
     1
 67
     0
278
    -2
288
     1
 68
     0
279
    -2
289
     1
 69
     0
  0
VISUALSTYLE
  5
2F
102
{ACAD_REACTORS
330
2A
102
}
102
{ACAD_XDICTIONARY
360
442
102
}
330
2A
100
AcDbVisualStyle
  2
2dWireframe
 70
     4
 71
     0
 72
     2
 73
     0
 90
        0
 40
0.6
 41
30.0
 62
     5
 63
     7
421
 16777215
 74
     1
 91
        4
 64
     7
 65
   257
 75
     1
175
     1
 42
1.0
 92
        0
 66
   257
 43
1.0
 76
     1
 77
     6
 78
     2
 67
     7
 79
     5
170
     0
171
     0
290
     0
174
     0
 93
        1
 44
0.0
173
     0
291
     0
 45
0.0
1001
ACAD
1000
AcDbSavedByObjectVersion
1070
     0
  0
VISUALSTYLE
  5
32
102
{ACAD_REACTORS
330
2A
102
}
102
{ACAD_XDICTIONARY
360
448
102
}
330
2A
100
AcDbVisualStyle
  2
Basic
 70
     7
 71
     1
 72
     0
 73
     1
 90
        0
 40
0.6
 41
30.0
 62
     5
 63
     7
421
 16777215
 74
     0
 91
        4
 64
     7
 65
   257
 75
     1
175
     1
 42
1.0
 92
        8
 66
     7
 43
1.0
 76
     1
 77
     6
 78
     2
 67
     7
 79
     5
170
     0
171
     0
290
     0
174
     0
 93
        1
 44
0.0
173
     0
291
     1
 45
0.0
1001
ACAD
1000
AcDbSavedByObjectVersion
1070
     0
  0
VISUALSTYLE
  5
36
102
{ACAD_REACTORS
330
2A
102
}
102
{ACAD_XDICTIONARY
360
450
102
}
330
2A
100
AcDbVisualStyle
  2
Brighten
 70
    12
 71
     2
 72
     2
 73
     0
 90
        0
 40
0.6
 41
30.0
 62
     5
 63
     7
421
 16777215
 74
     1
 91
        4
 64
     7
 65
   257
 75
     1
175
     1
 42
1.0
 92
        8
 66
     7
 43
1.0
 76
     1
 77
     6
 78
     2
 67
     7
 79
     5
170
     0
171
     0
290
     0
174
     0
 93
        1
 44
50.0
173
     0
291
     1
 45
0.0
1001
ACAD
1000
AcDbSavedByObjectVersion
1070
     0
  0
VISUALSTYLE
  5
3A
102
{ACAD_REACTORS
330
2A
102
}
102
{ACAD_XDICTIONARY
360
458
102
}
330
2A
100
AcDbVisualStyle
  2
ColorChange
 70
    16
 71
     2
 72
     2
 73
     3
 90
        0
 40
0.6
 41
30.0
 62
     5
 63
     8
421
  8421504
 74
     1
 91
        4
 64
     7
 65
   257
 75
     1
175
     1
 42
1.0
 92
        8
 66
     8
424
  8421504
 43
1.0
 76
     1
 77
     6
 78
     2
 67
     7
 79
     5
170
     0
171
     0
290
     0
174
     0
 93
        1
 44
0.0
173
     0
291
     1
 45
0.0
1001
ACAD
1000
AcDbSavedByObjectVersion
1070
     0
  0
VISUALSTYLE
  5
34
102
{ACAD_REACTORS
330
2A
102
}
102
{ACAD_XDICTIONARY
360
44C
102
}
330
2A
100
AcDbVisualStyle
  2
Conceptual
 70
     9
 71
     3
 72
     2
 73
     0
 90
        0
 40
0.6
 41
30.0
 62
     5
 63
     7
421
 16777215
 74
     2
 91
        2
 64
     7
 65
   257
 75
     1
175
     1
 42
179.0
 92
        8
 66
     7
 43
1.0
 76
     1
 77
     6
 78
     2
 67
     7
 79
     3
170
     0
171
     0
290
     0
174
     0
 93
        1
 44
0.0
173
     0
291
     0
 45
0.0
1001
ACAD
1000
AcDbSavedByObjectVersion
1070
     0
  0
VISUALSTYLE
  5
35
102
{ACAD_REACTORS
330
2A
102
}
102
{ACAD_XDICTIONARY
360
44E
102
}
330
2A
100
AcDbVisualStyle
  2
Dim
 70
    11
 71
     2
 72
     2
 73
     0
 90
        0
 40
0.6
 41
30.0
 62
     5
 63
     7
421
 16777215
 74
     1
 91
        4
 64
     7
 65
   257
 75
     1
175
     1
 42
1.0
 92
        8
 66
     7
 43
1.0
 76
     1
 77
     6
 78
     2
 67
     7
 79
     5
170
     0
171
     0
290
     0
174
     0
 93
        1
 44
-50.0
173
     0
291
     1
 45
0.0
1001
ACAD
1000
AcDbSavedByObjectVersion
1070
     0
  0
VISUALSTYLE
  5
3D
102
{ACAD_REACTORS
330
2A
102
}
102
{ACAD_XDICTIONARY
360
45E
102
}
330
2A
100
AcDbVisualStyle
  2
EdgeColorOff
 70
    22
 71
     2
 72
     2
 73
     0
 90
        0
 40
0.6
 41
30.0
 62
     5
 63
     7
421
 16777215
 74
     1
 91
        4
 64
     7
 65
   257
 75
     1
175
     1
 42
1.0
 92
        8
 66
     7
 43
1.0
 76
     1
 77
     6
 78
     2
 67
     7
 79
     5
170
     0
171
     0
290
     0
174
     0
 93
        1
 44
0.0
173
     0
291
     1
 45
0.0
1001
ACAD
1000
AcDbSavedByObjectVersion
1070
     0
  0
VISUALSTYLE
  5
39
102
{ACAD_REACTORS
330
2A
102
}
102
{ACAD_XDICTIONARY
360
456
102
}
330
2A
100
AcDbVisualStyle
  2
Facepattern
 70
    15
 71
     2
 72
     2
 73
     0
 90
        0
 40
0.6
 41
30.0
 62
     5
 63
     7
421
 16777215
 74
     1
 91
        4
 64
     7
 65
   257
 75
     1
175
     1
 42
1.0
 92
        8
 66
     7
 43
1.0
 76
     1
 77
     6
 78
     2
 67
     7
 79
     5
170
     0
171
     0
290
     0
174
     0
 93
        1
 44
0.0
173
     0
291
     1
 45
0.0
1001
ACAD
1000
AcDbSavedByObjectVersion
1070
     0
  0
VISUALSTYLE
  5
2B
102
{ACAD_REACTORS
330
2A
102
}
102
{ACAD_XDICTIONARY
360
43A
102
}
330
2A
100
AcDbVisualStyle
  2
Flat
 70
     0
 71
     2
 72
     1
 73
     1
 90
        2
 40
0.6
 41
30.0
 62
     5
 63
     7
421
 16777215
 74
     0
 91
        0
 64
     7
 65
   257
 75
     1
175
     1
 42
1.0
 92
        8
 66
     7
 43
1.0
 76
     1
 77
     6
 78
     2
 67
     7
 79
     5
170
     0
171
     0
290
     0
174
     0
 93
       13
 44
0.0
173
     0
291
     1
 45
0.0
1001
ACAD
1000
AcDbSavedByObjectVersion
1070
     0
  0
VISUALSTYLE
  5
2C
102
{ACAD_REACTORS
330
2A
102
}
102
{ACAD_XDICTIONARY
360
43C
102
}
330
2A
100
AcDbVisualStyle
  2
FlatWithEdges
 70
     1
 71
     2
 72
     1
 73
     1
 90
        2
 40
0.6
 41
30.0
 62
     5
 63
     7
421
 16777215
 74
     1
 91
        0
 64
     7
 65
   257
 75
     1
175
     1
 42
1.0
 92
        0
 66
   257
 43
1.0
 76
     1
 77
     6
 78
     2
 67
     7
 79
     5
170
     0
171
     0
290
     0
174
     0
 93
       13
 44
0.0
173
     0
291
     1
 45
0.0
1001
ACAD
1000
AcDbSavedByObjectVersion
1070
     0
  0
VISUALSTYLE
  5
2D
102
{ACAD_REACTORS
330
2A
102
}
102
{ACAD_XDICTIONARY
360
43E
102
}
330
2A
100
AcDbVisualStyle
  2
Gouraud
 70
     2
 71
     2
 72
     2
 73
     1
 90
        2
 40
0.6
 41
30.0
 62
     5
 63
     7
421
 16777215
 74
     0
 91
        0
 64
     7
 65
   257
 75
     1
175
     1
 42
1.0
 92
        0
 66
     7
 43
1.0
 76
     1
 77
     6
 78
     2
 67
     7
 79
     5
170
     0
171
     0
290
     0
174
     0
 93
       13
 44
0.0
173
     0
291
     1
 45
0.0
1001
ACAD
1000
AcDbSavedByObjectVersion
1070
     0
  0
VISUALSTYLE
  5
2E
102
{ACAD_REACTORS
330
2A
102
}
102
{ACAD_XDICTIONARY
360
440
102
}
330
2A
100
AcDbVisualStyle
  2
GouraudWithEdges
 70
     3
 71
     2
 72
     2
 73
     1
 90
        2
 40
0.6
 41
30.0
 62
     5
 63
     7
421
 16777215
 74
     1
 91
        0
 64
     7
 65
   257
 75
     1
175
     1
 42
1.0
 92
        0
 66
   257
 43
1.0
 76
     1
 77
     6
 78
     2
 67
     7
 79
     5
170
     0
171
     0
290
     0
174
     0
 93
       13
 44
0.0
173
     0
291
     1
 45
0.0
1001
ACAD
1000
AcDbSavedByObjectVersion
1070
     0
  0
VISUALSTYLE
  5
31
102
{ACAD_REACTORS
330
2A
102
}
102
{ACAD_XDICTIONARY
360
446
102
}
330
2A
100
AcDbVisualStyle
  2
Hidden
 70
     6
 71
     1
 72
     2
 73
     2
 90
        0
 40
0.6
 41
30.0
 62
     5
 63
     7
421
 16777215
 74
     2
 91
        2
 64
     7
 65
   257
 75
     2
175
     1
 42
40.0
 92
        0
 66
   257
 43
1.0
 76
     1
 77
     6
 78
     2
 67
     7
 79
     3
170
     0
171
     0
290
     0
174
     0
 93
        1
 44
0.0
173
     0
291
     0
 45
0.0
1001
ACAD
1000
AcDbSavedByObjectVersion
1070
     0
  0
VISUALSTYLE
  5
3B
102
{ACAD_REACTORS
330
2A
102
}
102
{ACAD_XDICTIONARY
360
45A
102
}
330
2A
100
AcDbVisualStyle
  2
JitterOff
 70
    20
 71
     2
 72
     2
 73
     0
 90
        0
 40
0.6
 41
30.0
 62
     5
 63
     7
421
 16777215
 74
     1
 91
        4
 64
     7
 65
   257
 75
     1
175
     1
 42
1.0
 92
       10
 66
     7
 43
1.0
 76
     1
 77
     6
 78
     2
 67
     7
 79
     5
170
     0
171
     0
290
     0
174
     0
 93
        1
 44
0.0
173
     0
291
     1
 45
0.0
1001
ACAD
1000
AcDbSavedByObjectVersion
1070
     0
  0
VISUALSTYLE
  5
38
102
{ACAD_REACTORS
330
2A
102
}
102
{ACAD_XDICTIONARY
360
454
102
}
330
2A
100
AcDbVisualStyle
  2
Linepattern
 70
    14
 71
     2
 72
     2
 73
     0
 90
        0
 40
0.6
 41
30.0
 62
     5
 63
     7
421
 16777215
 74
     1
 91
        4
 64
     7
 65
   257
 75
     7
175
     7
 42
1.0
 92
        8
 66
     7
 43
1.0
 76
     1
 77
     6
 78
     2
 67
     7
 79
     5
170
     0
171
     0
290
     0
174
     0
 93
        1
 44
0.0
173
     0
291
     1
 45
0.0
1001
ACAD
1000
AcDbSavedByObjectVersion
1070
     0
  0
VISUALSTYLE
  5
3C
102
{ACAD_REACTORS
330
2A
102
}
102
{ACAD_XDICTIONARY
360
45C
102
}
330
2A
100
AcDbVisualStyle
  2
OverhangOff
 70
    21
 71
     2
 72
     2
 73
     0
 90
        0
 40
0.6
 41
30.0
 62
     5
 63
     7
421
 16777215
 74
     1
 91
        4
 64
     7
 65
   257
 75
     1
175
     1
 42
1.0
 92
        9
 66
     7
 43
1.0
 76
     1
 77
     6
 78
     2
 67
     7
 79
     5
170
     0
171
     0
290
     0
174
     0
 93
        1
 44
0.0
173
     0
291
     1
 45
0.0
1001
ACAD
1000
AcDbSavedByObjectVersion
1070
     0
  0
VISUALSTYLE
  5
33
102
{ACAD_REACTORS
330
2A
102
}
102
{ACAD_XDICTIONARY
360
44A
102
}
330
2A
100
AcDbVisualStyle
  2
Realistic
 70
     8
 71
     2
 72
     3
 73
     0
 90
        2
 40
0.6
 41
30.0
 62
     5
 63
     7
421
 16777215
 74
     0
 91
        0
 64
     7
 65
   257
 75
     1
175
     1
 42
1.0
 92
        8
 66
   257
 43
1.0
 76
     1
 77
     6
 78
     2
 67
     7
 79
     3
170
     0
171
     0
290
     0
174
     0
 93
       13
 44
0.0
173
     0
291
     0
 45
0.0
1001
ACAD
1000
AcDbSavedByObjectVersion
1070
     0
  0
VISUALSTYLE
  5
42
102
{ACAD_REACTORS
330
2A
102
}
102
{ACAD_XDICTIONARY
360
468
102
}
330
2A
100
AcDbVisualStyle
  2
Shaded
 70
    27
 71
     2
 72
     2
 73
     1
 90
        2
 40
0.6
 41
30.0
 62
     5
 63
     7
421
 16777215
 74
     0
 91
        4
 64
     7
 65
   257
 75
     1
175
     1
 42
1.0
 92
        8
 66
   257
 43
1.0
 76
     1
 77
     6
 78
     2
 67
     8
425
  7895160
 79
     3
170
     0
171
     0
290
     0
174
     0
 93
        5
 44
0.0
173
     0
291
     0
 45
0.0
1001
ACAD
1000
AcDbSavedByObjectVersion
1070
     0
  0
VISUALSTYLE
  5
41
102
{ACAD_REACTORS
330
2A
102
}
102
{ACAD_XDICTIONARY
360
466
102
}
330
2A
100
AcDbVisualStyle
  2
Shaded with edges
 70
    26
 71
     2
 72
     2
 73
     1
 90
        2
 40
0.6
 41
30.0
 62
     5
 63
     7
421
 16777215
 74
     1
 91
       10
 64
     7
 65
   257
 75
     2
175
     1
 42
1.0
 92
        8
 66
   257
 43
1.0
 76
     1
 77
     6
 78
     2
 67
     7
 79
     3
170
     0
171
     0
290
     0
174
     0
 93
        5
 44
0.0
173
     0
291
     0
 45
0.0
1001
ACAD
1000
AcDbSavedByObjectVersion
1070
     0
  0
VISUALSTYLE
  5
3E
102
{ACAD_REACTORS
330
2A
102
}
102
{ACAD_XDICTIONARY
360
460
102
}
330
2A
100
AcDbVisualStyle
  2
Shades of Gray
 70
    23
 71
     2
 72
     2
 73
     3
 90
        0
 40
0.6
 41
30.0
 62
     5
 63
     7
421
 16777215
 74
     2
 91
        2
 64
     7
 65
     7
 75
     1
175
     1
 42
40.0
 92
        8
 66
     7
 43
1.0
 76
     1
 77
     6
 78
     2
 67
     7
 79
     3
170
     0
171
     0
290
     0
174
     0
 93
        1
 44
0.0
173
     0
291
     0
 45
0.0
1001
ACAD
1000
AcDbSavedByObjectVersion
1070
     0
  0
VISUALSTYLE
  5
3F
102
{ACAD_REACTORS
330
2A
102
}
102
{ACAD_XDICTIONARY
360
462
102
}
330
2A
100
AcDbVisualStyle
  2
Sketchy
 70
    24
 71
     1
 72
     2
 73
     2
 90
        0
 40
0.6
 41
30.0
 62
     5
 63
     7
421
 16777215
 74
     2
 91
        2
 64
     7
 65
     7
 75
     1
175
     1
 42
40.0
 92
       11
 66
     7
 43
1.0
 76
     1
 77
     6
 78
     2
 67
     7
 79
     6
170
     0
171
     0
290
     0
174
     0
 93
        1
 44
0.0
173
     0
291
     0
 45
0.0
1001
ACAD
1000
AcDbSavedByObjectVersion
1070
     0
  0
VISUALSTYLE
  5
37
102
{ACAD_REACTORS
330
2A
102
}
102
{ACAD_XDICTIONARY
360
452
102
}
330
2A
100
AcDbVisualStyle
  2
Thicken
 70
    13
 71
     2
 72
     2
 73
     0
 90
        0
 40
0.6
 41
30.0
 62
     5
 63
     7
421
 16777215
 74
     1
 91
        4
 64
     7
 65
   257
 75
     1
175
     1
 42
1.0
 92
       12
 66
     7
 43
1.0
 76
     1
 77
     6
 78
     2
 67
     7
 79
     5
170
     0
171
     0
290
     0
174
     0
 93
        1
 44
0.0
173
     0
291
     1
 45
0.0
1001
ACAD
1000
AcDbSavedByObjectVersion
1070
     0
  0
VISUALSTYLE
  5
30
102
{ACAD_REACTORS
330
2A
102
}
102
{ACAD_XDICTIONARY
360
444
102
}
330
2A
100
AcDbVisualStyle
  2
Wireframe
 70
     5
 71
     0
 72
     2
 73
     0
 90
        0
 40
0.6
 41
30.0
 62
     5
 63
     7
421
 16777215
 74
     1
 91
        4
 64
     7
 65
   257
 75
     1
175
     1
 42
1.0
 92
        0
 66
   257
 43
1.0
 76
     1
 77
     6
 78
     2
 67
     7
 79
     3
170
     0
171
     0
290
     0
174
     0
 93
        1
 44
0.0
173
     0
291
     0
 45
0.0
1001
ACAD
1000
AcDbSavedByObjectVersion
1070
     0
  0
VISUALSTYLE
  5
40
102
{ACAD_REACTORS
330
2A
102
}
102
{ACAD_XDICTIONARY
360
464
102
}
330
2A
100
AcDbVisualStyle
  2
X-Ray
 70
    25
 71
     2
 72
     2
 73
     1
 90
        1
 40
0.5
 41
30.0
 62
     5
 63
     7
421
 16777215
 74
     1
 91
        0
 64
     7
 65
   257
 75
     1
175
     1
 42
1.0
 92
        8
 66
     7
 43
1.0
 76
     1
 77
     6
 78
     2
 67
     7
 79
     3
170
     0
171
     0
290
     0
174
     0
 93
       13
 44
0.0
173
     0
291
     0
 45
0.0
1001
ACAD
1000
AcDbSavedByObjectVersion
1070
     0
  0
DICTIONARYVAR
  5
437
102
{ACAD_REACTORS
330
436
102
}
330
436
100
DictionaryVariables
280
     0
  1
1:1
  0
DICTIONARYVAR
  5
47B
102
{ACAD_REACTORS
330
436
102
}
330
436
100
DictionaryVariables
280
     0
  1
3.500000
  0
DICTIONARYVAR
  5
47C
102
{ACAD_REACTORS
330
436
102
}
330
436
100
DictionaryVariables
280
     0
  1
acadiso.lin
  0
DICTIONARYVAR
  5
478
102
{ACAD_REACTORS
330
436
102
}
330
436
100
DictionaryVariables
280
     0
  1
Standard
  0
DICTIONARYVAR
  5
477
102
{ACAD_REACTORS
330
436
102
}
330
436
100
DictionaryVariables
280
     0
  1
Standard
  0
DICTIONARYVAR
  5
438
102
{ACAD_REACTORS
330
436
102
}
330
436
100
DictionaryVariables
280
     0
  1
1
  0
DICTIONARYVAR
  5
439
102
{ACAD_REACTORS
330
436
102
}
330
436
100
DictionaryVariables
280
     0
  1
2
  0
DICTIONARY
  5
46C
330
45
100
AcDbDictionary
280
     1
281
     1
  3
ACAD_XREC_ROUNDTRIP
360
46D
  0
DICTIONARY
  5
46A
330
44
100
AcDbDictionary
280
     1
281
     1
  3
ACAD_XREC_ROUNDTRIP
360
46B
  0
DICTIONARY
  5
46E
330
46
100
AcDbDictionary
280
     1
281
     1
  3
ACAD_XREC_ROUNDTRIP
360
46F
  0
DICTIONARY
  5
474
330
6C
100
AcDbDictionary
280
     1
281
     1
  3
ACAD_XREC_ROUNDTRIP
360
475
  0
DICTIONARY
  5
470
330
6A
100
AcDbDictionary
280
     1
281
     1
  3
ACAD_ROUNDTRIP_2008_TABLESTYLE_CELLSTYLEMAP
360
472
  3
ACAD_XREC_ROUNDTRIP
360
471
  0
DICTIONARY
  5
442
330
2F
100
AcDbDictionary
280
     1
281
     1
  3
ACAD_XREC_ROUNDTRIP
360
443
  0
DICTIONARY
  5
448
330
32
100
AcDbDictionary
280
     1
281
     1
  3
ACAD_XREC_ROUNDTRIP
360
449
  0
DICTIONARY
  5
450
330
36
100
AcDbDictionary
280
     1
281
     1
  3
ACAD_XREC_ROUNDTRIP
360
451
  0
DICTIONARY
  5
458
330
3A
100
AcDbDictionary
280
     1
281
     1
  3
ACAD_XREC_ROUNDTRIP
360
459
  0
DICTIONARY
  5
44C
330
34
100
AcDbDictionary
280
     1
281
     1
  3
ACAD_XREC_ROUNDTRIP
360
44D
  0
DICTIONARY
  5
44E
330
35
100
AcDbDictionary
280
     1
281
     1
  3
ACAD_XREC_ROUNDTRIP
360
44F
  0
DICTIONARY
  5
45E
330
3D
100
AcDbDictionary
280
     1
281
     1
  3
ACAD_XREC_ROUNDTRIP
360
45F
  0
DICTIONARY
  5
456
330
39
100
AcDbDictionary
280
     1
281
     1
  3
ACAD_XREC_ROUNDTRIP
360
457
  0
DICTIONARY
  5
43A
330
2B
100
AcDbDictionary
280
     1
281
     1
  3
ACAD_XREC_ROUNDTRIP
360
43B
  0
DICTIONARY
  5
43C
330
2C
100
AcDbDictionary
280
     1
281
     1
  3
ACAD_XREC_ROUNDTRIP
360
43D
  0
DICTIONARY
  5
43E
330
2D
100
AcDbDictionary
280
     1
281
     1
  3
ACAD_XREC_ROUNDTRIP
360
43F
  0
DICTIONARY
  5
440
330
2E
100
AcDbDictionary
280
     1
281
     1
  3
ACAD_XREC_ROUNDTRIP
360
441
  0
DICTIONARY
  5
446
330
31
100
AcDbDictionary
280
     1
281
     1
  3
ACAD_XREC_ROUNDTRIP
360
447
  0
DICTIONARY
  5
45A
330
3B
100
AcDbDictionary
280
     1
281
     1
  3
ACAD_XREC_ROUNDTRIP
360
45B
  0
DICTIONARY
  5
454
330
38
100
AcDbDictionary
280
     1
281
     1
  3
ACAD_XREC_ROUNDTRIP
360
455
  0
DICTIONARY
  5
45C
330
3C
100
AcDbDictionary
280
     1
281
     1
  3
ACAD_XREC_ROUNDTRIP
360
45D
  0
DICTIONARY
  5
44A
330
33
100
AcDbDictionary
280
     1
281
     1
  3
ACAD_XREC_ROUNDTRIP
360
44B
  0
DICTIONARY
  5
468
330
42
100
AcDbDictionary
280
     1
281
     1
  3
ACAD_XREC_ROUNDTRIP
360
469
  0
DICTIONARY
  5
466
330
41
100
AcDbDictionary
280
     1
281
     1
  3
ACAD_XREC_ROUNDTRIP
360
467
  0
DICTIONARY
  5
460
330
3E
100
AcDbDictionary
280
     1
281
     1
  3
ACAD_XREC_ROUNDTRIP
360
461
  0
DICTIONARY
  5
462
330
3F
100
AcDbDictionary
280
     1
281
     1
  3
ACAD_XREC_ROUNDTRIP
360
463
  0
DICTIONARY
  5
452
330
37
100
AcDbDictionary
280
     1
281
     1
  3
ACAD_XREC_ROUNDTRIP
360
453
  0
DICTIONARY
  5
444
330
30
100
AcDbDictionary
280
     1
281
     1
  3
ACAD_XREC_ROUNDTRIP
360
445
  0
DICTIONARY
  5
464
330
40
100
AcDbDictionary
280
     1
281
     1
  3
ACAD_XREC_ROUNDTRIP
360
465
  0
XRECORD
  5
46D
102
{ACAD_REACTORS
330
46C
102
}
330
46C
100
AcDbXrecord
280
     1
102
MATERIAL
148
0.0
149
0.0
149
0.0
 93
        0
 94
      127
282
     0
 72
     1
 77
     1
171
     1
175
     1
179
     1
273
     0
  0
XRECORD
  5
46B
102
{ACAD_REACTORS
330
46A
102
}
330
46A
100
AcDbXrecord
280
     1
102
MATERIAL
148
0.0
149
0.0
149
0.0
 93
        0
 94
      127
282
     0
 72
     1
 77
     1
171
     1
175
     1
179
     1
273
     0
  0
XRECORD
  5
46F
102
{ACAD_REACTORS
330
46E
102
}
330
46E
100
AcDbXrecord
280
     1
102
MATERIAL
148
0.0
149
0.0
149
0.0
 93
        0
 94
      127
282
     0
 72
     1
 77
     1
171
     1
175
     1
179
     1
273
     0
  0
XRECORD
  5
475
102
{ACAD_REACTORS
330
474
102
}
330
474
100
AcDbXrecord
280
     1
102
ACAD_ROUNDTRIP_2010_MLEADER_STYLE
  0
CELLSTYLEMAP
  5
472
102
{ACAD_REACTORS
330
470
102
}
330
470
100
AcDbCellStyleMap
 90
        3
300
CELLSTYLE
  1
TABLEFORMAT_BEGIN
 90
        5
170
     1
 91
        0
 92
    32768
 62
   257
 93
        1
300
CONTENTFORMAT
  1
CONTENTFORMAT_BEGIN
 90
        0
 91
        0
 92
        4
 93
        0
300

 40
0.0
140
1.0
 94
        5
 62
     0
340
11
144
6.0
309
CONTENTFORMAT_END
171
     1
301
MARGIN
  1
CELLMARGIN_BEGIN
 40
1.5
 40
1.5
 40
1.5
 40
1.5
 40
1.5
 40
1.5
309
CELLMARGIN_END
 94
        6
 95
        1
302
GRIDFORMAT
  1
GRIDFORMAT_BEGIN
 90
        0
 91
        1
 62
     0
 92
       -2
340
14
 93
        0
 40
0.045
309
GRIDFORMAT_END
 95
        2
302
GRIDFORMAT
  1
GRIDFORMAT_BEGIN
 90
        0
 91
        1
 62
     0
 92
       -2
340
14
 93
        0
 40
0.045
309
GRIDFORMAT_END
 95
        4
302
GRIDFORMAT
  1
GRIDFORMAT_BEGIN
 90
        0
 91
        1
 62
     0
 92
       -2
340
14
 93
        0
 40
0.045
309
GRIDFORMAT_END
 95
        8
302
GRIDFORMAT
  1
GRIDFORMAT_BEGIN
 90
        0
 91
        1
 62
     0
 92
       -2
340
14
 93
        0
 40
0.045
309
GRIDFORMAT_END
 95
       16
302
GRIDFORMAT
  1
GRIDFORMAT_BEGIN
 90
        0
 91
        1
 62
     0
 92
       -2
340
14
 93
        0
 40
0.045
309
GRIDFORMAT_END
 95
       32
302
GRIDFORMAT
  1
GRIDFORMAT_BEGIN
 90
        0
 91
        1
 62
     0
 92
       -2
340
14
 93
        0
 40
0.045
309
GRIDFORMAT_END
309
TABLEFORMAT_END
  1
CELLSTYLE_BEGIN
 90
        1
 91
        1
300
_TITLE
309
CELLSTYLE_END
300
CELLSTYLE
  1
TABLEFORMAT_BEGIN
 90
        5
170
     1
 91
        0
 92
        0
 62
   257
 93
        1
300
CONTENTFORMAT
  1
CONTENTFORMAT_BEGIN
 90
        0
 91
        0
 92
        4
 93
        0
300

 40
0.0
140
1.0
 94
        5
 62
     0
340
11
144
4.5
309
CONTENTFORMAT_END
171
     1
301
MARGIN
  1
CELLMARGIN_BEGIN
 40
1.5
 40
1.5
 40
1.5
 40
1.5
 40
1.5
 40
1.5
309
CELLMARGIN_END
 94
        6
 95
        1
302
GRIDFORMAT
  1
GRIDFORMAT_BEGIN
 90
        0
 91
        1
 62
     0
 92
       -2
340
14
 93
        0
 40
0.045
309
GRIDFORMAT_END
 95
        2
302
GRIDFORMAT
  1
GRIDFORMAT_BEGIN
 90
        0
 91
        1
 62
     0
 92
       -2
340
14
 93
        0
 40
0.045
309
GRIDFORMAT_END
 95
        4
302
GRIDFORMAT
  1
GRIDFORMAT_BEGIN
 90
        0
 91
        1
 62
     0
 92
       -2
340
14
 93
        0
 40
0.045
309
GRIDFORMAT_END
 95
        8
302
GRIDFORMAT
  1
GRIDFORMAT_BEGIN
 90
        0
 91
        1
 62
     0
 92
       -2
340
14
 93
        0
 40
0.045
309
GRIDFORMAT_END
 95
       16
302
GRIDFORMAT
  1
GRIDFORMAT_BEGIN
 90
        0
 91
        1
 62
     0
 92
       -2
340
14
 93
        0
 40
0.045
309
GRIDFORMAT_END
 95
       32
302
GRIDFORMAT
  1
GRIDFORMAT_BEGIN
 90
        0
 91
        1
 62
     0
 92
       -2
340
14
 93
        0
 40
0.045
309
GRIDFORMAT_END
309
TABLEFORMAT_END
  1
CELLSTYLE_BEGIN
 90
        2
 91
        1
300
_HEADER
309
CELLSTYLE_END
300
CELLSTYLE
  1
TABLEFORMAT_BEGIN
 90
        5
170
     1
 91
        0
 92
        0
 62
   257
 93
        1
300
CONTENTFORMAT
  1
CONTENTFORMAT_BEGIN
 90
        0
 91
        0
 92
        4
 93
        0
300

 40
0.0
140
1.0
 94
        2
 62
     0
340
11
144
4.5
309
CONTENTFORMAT_END
171
     1
301
MARGIN
  1
CELLMARGIN_BEGIN
 40
1.5
 40
1.5
 40
1.5
 40
1.5
 40
1.5
 40
1.5
309
CELLMARGIN_END
 94
        6
 95
        1
302
GRIDFORMAT
  1
GRIDFORMAT_BEGIN
 90
        0
 91
        1
 62
     0
 92
       -2
340
14
 93
        0
 40
0.045
309
GRIDFORMAT_END
 95
        2
302
GRIDFORMAT
  1
GRIDFORMAT_BEGIN
 90
        0
 91
        1
 62
     0
 92
       -2
340
14
 93
        0
 40
0.045
309
GRIDFORMAT_END
 95
        4
302
GRIDFORMAT
  1
GRIDFORMAT_BEGIN
 90
        0
 91
        1
 62
     0
 92
       -2
340
14
 93
        0
 40
0.045
309
GRIDFORMAT_END
 95
        8
302
GRIDFORMAT
  1
GRIDFORMAT_BEGIN
 90
        0
 91
        1
 62
     0
 92
       -2
340
14
 93
        0
 40
0.045
309
GRIDFORMAT_END
 95
       16
302
GRIDFORMAT
  1
GRIDFORMAT_BEGIN
 90
        0
 91
        1
 62
     0
 92
       -2
340
14
 93
        0
 40
0.045
309
GRIDFORMAT_END
 95
       32
302
GRIDFORMAT
  1
GRIDFORMAT_BEGIN
 90
        0
 91
        1
 62
     0
 92
       -2
340
14
 93
        0
 40
0.045
309
GRIDFORMAT_END
309
TABLEFORMAT_END
  1
CELLSTYLE_BEGIN
 90
        3
 91
        2
300
_DATA
309
CELLSTYLE_END
  0
XRECORD
  5
471
102
{ACAD_REACTORS
330
470
102
}
330
470
100
AcDbXrecord
280
     1
102
ACAD_ROUNDTRIP_PRE2007_TABLESTYLE
 90
        4
 91
        0
  1

 92
        4
 93
        0
  2

 94
        4
 95
        0
  3

  0
XRECORD
  5
443
102
{ACAD_REACTORS
330
442
102
}
330
442
100
AcDbXrecord
280
     1
102
RTVSPropertyOp0
 70
     1
102
RTVSPropertyOp1
 70
     1
102
RTVSPropertyOp2
 70
     1
102
RTVSPropertyOp3
 70
     1
102
RTVSPropertyOp4
 70
     1
102
RTVSPropertyOp5
 70
     1
102
RTVSPropertyOp6
 70
     1
102
RTVSPropertyOp7
 70
     1
102
RTVSPropertyOp8
 70
     1
102
RTVSPropertyOp9
 70
     1
102
RTVSPropertyOp10
 70
     1
102
RTVSPropertyOp11
 70
     1
102
RTVSPropertyOp12
 70
     1
102
RTVSPropertyOp13
 70
     1
102
RTVSPropertyOp14
 70
     1
102
RTVSPropertyOp15
 70
     1
102
RTVSPropertyOp16
 70
     1
102
RTVSPropertyOp17
 70
     1
102
RTVSPropertyOp18
 70
     1
102
RTVSPropertyOp19
 70
     1
102
RTVSPropertyOp20
 70
     1
102
RTVSPropertyOp21
 70
     1
102
RTVSPropertyOp22
 70
     1
102
RTVSPropertyOp23
 70
     1
102
RTVSPropertyOp24
 70
     1
102
RTVSPropertyOp25
 70
     1
102
RTVSPropertyOp26
 70
     1
102
RTVSPropertyOp27
 70
     1
102
RTVSPropertyOp28
 70
     1
102
RTVSPropertyOp29
 70
     1
102
RTVSPropertyOp30
 70
     1
102
RTVSPropertyOp31
 70
     1
102
RTVSPropertyOp32
 70
     1
102
RTVSPropertyOp33
 70
     1
102
RTVSPropertyOp34
 70
     1
102
RTVSPropertyOp35
 70
     1
102
RTVSPropertyOp36
 70
     1
102
RTVSPropertyOp37
 70
     1
102
RTVSPropertyOp38
 70
     1
102
RTVSPropertyOp39
 70
     1
102
RTVSPropertyOp40
 70
     1
102
RTVSPropertyOp41
 70
     1
102
RTVSPropertyOp42
 70
     1
102
RTVSPropertyOp43
 70
     1
102
RTVSPropertyOp44
 70
     1
102
RTVSPropertyOp45
 70
     1
102
RTVSPropertyOp46
 70
     1
102
RTVSPropertyOp47
 70
     1
102
RTVSPropertyOp48
 70
     1
102
RTVSPropertyOp49
 70
     1
102
RTVSPropertyOp50
 70
     1
102
RTVSPropertyOp51
 70
     0
102
RTVSPropertyOp52
 70
     0
102
RTVSPropertyOp53
 70
     1
102
RTVSPropertyOp54
 70
     1
102
RTVSPropertyOp55
 70
     1
102
RTVSPropertyOp56
 70
     1
102
RTVSPropertyOp57
 70
     1
102
RTVSPost2010Prop28
280
     1
102
RTVSPost2010PropOp28
 70
     1
102
RTVSPost2010Prop29
280
     1
102
RTVSPost2010PropOp29
 70
     1
102
RTVSPost2010Prop30
280
     0
102
RTVSPost2010PropOp30
 70
     1
102
RTVSPost2010Prop31
280
     0
102
RTVSPost2010PropOp31
 70
     1
102
RTVSPost2010Prop32
280
     0
102
RTVSPost2010PropOp32
 70
     1
102
RTVSPost2010Prop33
280
     0
102
RTVSPost2010PropOp33
 70
     1
102
RTVSPost2010Prop34
280
     0
102
RTVSPost2010PropOp34
 70
     1
102
RTVSPost2010Prop35
280
     0
102
RTVSPost2010PropOp35
 70
     1
102
RTVSPost2010Prop36
280
     0
102
RTVSPost2010PropOp36
 70
     1
102
RTVSPost2010Prop37
 90
       50
102
RTVSPost2010PropOp37
 70
     1
102
RTVSPost2010Prop38
140
0.0
102
RTVSPost2010PropOp38
 70
     1
102
RTVSPost2010Prop39
140
1.0
102
RTVSPost2010PropOp39
 70
     1
102
RTVSPost2010Prop40
 90
        0
102
RTVSPost2010PropOp40
 70
     1
102
RTVSPost2010Prop41ColorIndex
 90
       18
102
RTVSPost2010Prop41ColorRGB
 90
        0
102
RTVSPost2010PropOp41
 70
     1
102
RTVSPost2010Prop42
 90
       50
102
RTVSPost2010PropOp42
 70
     1
102
RTVSPost2010Prop43
 90
        3
102
RTVSPost2010PropOp43
 70
     1
102
RTVSPost2010Prop44ColorIndex
 90
        5
102
RTVSPost2010Prop44ColorRGB
 90
      255
102
RTVSPost2010PropOp44
 70
     1
102
RTVSPost2010Prop45
280
     0
102
RTVSPost2010PropOp45
 70
     1
102
RTVSPost2010Prop46
 90
       50
102
RTVSPost2010PropOp46
 70
     1
102
RTVSPost2010Prop47
 90
       50
102
RTVSPost2010PropOp47
 70
     1
102
RTVSPost2010Prop48
 90
       50
102
RTVSPost2010PropOp48
 70
     1
102
RTVSPost2010Prop49
280
     0
102
RTVSPost2010PropOp49
 70
     1
102
RTVSPost2010Prop50
 90
       50
102
RTVSPost2010PropOp50
 70
     1
102
RTVSPost2010Prop51ColorIndex
 90
      256
102
RTVSPost2010Prop51ColorRGB
 90
-16777216
102
RTVSPost2010PropOp51
 70
     0
102
RTVSPost2010Prop52
140
1.0
102
RTVSPost2010PropOp52
 70
     0
102
RTVSPost2010Prop53
 90
        2
102
RTVSPost2010PropOp53
 70
     1
102
RTVSPost2010Prop54
  1
strokes_ogs.tif
102
RTVSPost2010PropOp54
 70
     1
102
RTVSPost2010Prop55
280
     0
102
RTVSPost2010PropOp55
 70
     1
102
RTVSPost2010Prop56
140
1.0
102
RTVSPost2010PropOp56
 70
     1
102
RTVSPost2010Prop57
140
1.0
102
RTVSPost2010PropOp57
 70
     1
  0
XRECORD
  5
449
102
{ACAD_REACTORS
330
448
102
}
330
448
100
AcDbXrecord
280
     1
102
RTVSPropertyOp0
 70
     1
102
RTVSPropertyOp1
 70
     1
102
RTVSPropertyOp2
 70
     1
102
RTVSPropertyOp3
 70
     1
102
RTVSPropertyOp4
 70
     1
102
RTVSPropertyOp5
 70
     1
102
RTVSPropertyOp6
 70
     1
102
RTVSPropertyOp7
 70
     1
102
RTVSPropertyOp8
 70
     1
102
RTVSPropertyOp9
 70
     1
102
RTVSPropertyOp10
 70
     1
102
RTVSPropertyOp11
 70
     1
102
RTVSPropertyOp12
 70
     1
102
RTVSPropertyOp13
 70
     1
102
RTVSPropertyOp14
 70
     1
102
RTVSPropertyOp15
 70
     1
102
RTVSPropertyOp16
 70
     1
102
RTVSPropertyOp17
 70
     1
102
RTVSPropertyOp18
 70
     1
102
RTVSPropertyOp19
 70
     1
102
RTVSPropertyOp20
 70
     1
102
RTVSPropertyOp21
 70
     1
102
RTVSPropertyOp22
 70
     1
102
RTVSPropertyOp23
 70
     1
102
RTVSPropertyOp24
 70
     1
102
RTVSPropertyOp25
 70
     1
102
RTVSPropertyOp26
 70
     1
102
RTVSPropertyOp27
 70
     1
102
RTVSPropertyOp28
 70
     1
102
RTVSPropertyOp29
 70
     1
102
RTVSPropertyOp30
 70
     1
102
RTVSPropertyOp31
 70
     1
102
RTVSPropertyOp32
 70
     1
102
RTVSPropertyOp33
 70
     1
102
RTVSPropertyOp34
 70
     1
102
RTVSPropertyOp35
 70
     1
102
RTVSPropertyOp36
 70
     1
102
RTVSPropertyOp37
 70
     1
102
RTVSPropertyOp38
 70
     1
102
RTVSPropertyOp39
 70
     1
102
RTVSPropertyOp40
 70
     1
102
RTVSPropertyOp41
 70
     1
102
RTVSPropertyOp42
 70
     1
102
RTVSPropertyOp43
 70
     1
102
RTVSPropertyOp44
 70
     1
102
RTVSPropertyOp45
 70
     1
102
RTVSPropertyOp46
 70
     1
102
RTVSPropertyOp47
 70
     1
102
RTVSPropertyOp48
 70
     1
102
RTVSPropertyOp49
 70
     1
102
RTVSPropertyOp50
 70
     1
102
RTVSPropertyOp51
 70
     0
102
RTVSPropertyOp52
 70
     0
102
RTVSPropertyOp53
 70
     1
102
RTVSPropertyOp54
 70
     1
102
RTVSPropertyOp55
 70
     1
102
RTVSPropertyOp56
 70
     1
102
RTVSPropertyOp57
 70
     1
102
RTVSPost2010Prop28
280
     0
102
RTVSPost2010PropOp28
 70
     1
102
RTVSPost2010Prop29
280
     1
102
RTVSPost2010PropOp29
 70
     1
102
RTVSPost2010Prop30
280
     1
102
RTVSPost2010PropOp30
 70
     1
102
RTVSPost2010Prop31
280
     0
102
RTVSPost2010PropOp31
 70
     1
102
RTVSPost2010Prop32
280
     0
102
RTVSPost2010PropOp32
 70
     1
102
RTVSPost2010Prop33
280
     0
102
RTVSPost2010PropOp33
 70
     1
102
RTVSPost2010Prop34
280
     0
102
RTVSPost2010PropOp34
 70
     1
102
RTVSPost2010Prop35
280
     0
102
RTVSPost2010PropOp35
 70
     1
102
RTVSPost2010Prop36
280
     0
102
RTVSPost2010PropOp36
 70
     1
102
RTVSPost2010Prop37
 90
       50
102
RTVSPost2010PropOp37
 70
     1
102
RTVSPost2010Prop38
140
0.0
102
RTVSPost2010PropOp38
 70
     1
102
RTVSPost2010Prop39
140
1.0
102
RTVSPost2010PropOp39
 70
     1
102
RTVSPost2010Prop40
 90
        0
102
RTVSPost2010PropOp40
 70
     1
102
RTVSPost2010Prop41ColorIndex
 90
       18
102
RTVSPost2010Prop41ColorRGB
 90
        0
102
RTVSPost2010PropOp41
 70
     1
102
RTVSPost2010Prop42
 90
       50
102
RTVSPost2010PropOp42
 70
     1
102
RTVSPost2010Prop43
 90
        3
102
RTVSPost2010PropOp43
 70
     1
102
RTVSPost2010Prop44ColorIndex
 90
        5
102
RTVSPost2010Prop44ColorRGB
 90
      255
102
RTVSPost2010PropOp44
 70
     1
102
RTVSPost2010Prop45
280
     0
102
RTVSPost2010PropOp45
 70
     1
102
RTVSPost2010Prop46
 90
       50
102
RTVSPost2010PropOp46
 70
     1
102
RTVSPost2010Prop47
 90
       50
102
RTVSPost2010PropOp47
 70
     1
102
RTVSPost2010Prop48
 90
       50
102
RTVSPost2010PropOp48
 70
     1
102
RTVSPost2010Prop49
280
     0
102
RTVSPost2010PropOp49
 70
     1
102
RTVSPost2010Prop50
 90
       50
102
RTVSPost2010PropOp50
 70
     1
102
RTVSPost2010Prop51ColorIndex
 90
      256
102
RTVSPost2010Prop51ColorRGB
 90
-16777216
102
RTVSPost2010PropOp51
 70
     0
102
RTVSPost2010Prop52
140
1.0
102
RTVSPost2010PropOp52
 70
     0
102
RTVSPost2010Prop53
 90
        2
102
RTVSPost2010PropOp53
 70
     1
102
RTVSPost2010Prop54
  1
strokes_ogs.tif
102
RTVSPost2010PropOp54
 70
     1
102
RTVSPost2010Prop55
280
     0
102
RTVSPost2010PropOp55
 70
     1
102
RTVSPost2010Prop56
140
1.0
102
RTVSPost2010PropOp56
 70
     1
102
RTVSPost2010Prop57
140
1.0
102
RTVSPost2010PropOp57
 70
     1
  0
XRECORD
  5
451
102
{ACAD_REACTORS
330
450
102
}
330
450
100
AcDbXrecord
280
     1
102
RTVSPropertyOp0
 70
     1
102
RTVSPropertyOp1
 70
     1
102
RTVSPropertyOp2
 70
     1
102
RTVSPropertyOp3
 70
     1
102
RTVSPropertyOp4
 70
     1
102
RTVSPropertyOp5
 70
     1
102
RTVSPropertyOp6
 70
     1
102
RTVSPropertyOp7
 70
     1
102
RTVSPropertyOp8
 70
     1
102
RTVSPropertyOp9
 70
     1
102
RTVSPropertyOp10
 70
     1
102
RTVSPropertyOp11
 70
     1
102
RTVSPropertyOp12
 70
     1
102
RTVSPropertyOp13
 70
     1
102
RTVSPropertyOp14
 70
     1
102
RTVSPropertyOp15
 70
     1
102
RTVSPropertyOp16
 70
     1
102
RTVSPropertyOp17
 70
     1
102
RTVSPropertyOp18
 70
     1
102
RTVSPropertyOp19
 70
     1
102
RTVSPropertyOp20
 70
     1
102
RTVSPropertyOp21
 70
     1
102
RTVSPropertyOp22
 70
     1
102
RTVSPropertyOp23
 70
     1
102
RTVSPropertyOp24
 70
     1
102
RTVSPropertyOp25
 70
     1
102
RTVSPropertyOp26
 70
     1
102
RTVSPropertyOp27
 70
     1
102
RTVSPropertyOp28
 70
     1
102
RTVSPropertyOp29
 70
     1
102
RTVSPropertyOp30
 70
     1
102
RTVSPropertyOp31
 70
     1
102
RTVSPropertyOp32
 70
     1
102
RTVSPropertyOp33
 70
     1
102
RTVSPropertyOp34
 70
     1
102
RTVSPropertyOp35
 70
     1
102
RTVSPropertyOp36
 70
     1
102
RTVSPropertyOp37
 70
     1
102
RTVSPropertyOp38
 70
     1
102
RTVSPropertyOp39
 70
     1
102
RTVSPropertyOp40
 70
     1
102
RTVSPropertyOp41
 70
     1
102
RTVSPropertyOp42
 70
     1
102
RTVSPropertyOp43
 70
     1
102
RTVSPropertyOp44
 70
     1
102
RTVSPropertyOp45
 70
     1
102
RTVSPropertyOp46
 70
     1
102
RTVSPropertyOp47
 70
     1
102
RTVSPropertyOp48
 70
     1
102
RTVSPropertyOp49
 70
     1
102
RTVSPropertyOp50
 70
     1
102
RTVSPropertyOp51
 70
     0
102
RTVSPropertyOp52
 70
     0
102
RTVSPropertyOp53
 70
     1
102
RTVSPropertyOp54
 70
     1
102
RTVSPropertyOp55
 70
     1
102
RTVSPropertyOp56
 70
     1
102
RTVSPropertyOp57
 70
     1
102
RTVSPost2010Prop28
280
     0
102
RTVSPost2010PropOp28
 70
     1
102
RTVSPost2010Prop29
280
     1
102
RTVSPost2010PropOp29
 70
     1
102
RTVSPost2010Prop30
280
     1
102
RTVSPost2010PropOp30
 70
     1
102
RTVSPost2010Prop31
280
     0
102
RTVSPost2010PropOp31
 70
     1
102
RTVSPost2010Prop32
280
     0
102
RTVSPost2010PropOp32
 70
     1
102
RTVSPost2010Prop33
280
     0
102
RTVSPost2010PropOp33
 70
     1
102
RTVSPost2010Prop34
280
     0
102
RTVSPost2010PropOp34
 70
     1
102
RTVSPost2010Prop35
280
     0
102
RTVSPost2010PropOp35
 70
     1
102
RTVSPost2010Prop36
280
     0
102
RTVSPost2010PropOp36
 70
     1
102
RTVSPost2010Prop37
 90
       50
102
RTVSPost2010PropOp37
 70
     1
102
RTVSPost2010Prop38
140
0.0
102
RTVSPost2010PropOp38
 70
     1
102
RTVSPost2010Prop39
140
1.0
102
RTVSPost2010PropOp39
 70
     1
102
RTVSPost2010Prop40
 90
        0
102
RTVSPost2010PropOp40
 70
     1
102
RTVSPost2010Prop41ColorIndex
 90
       18
102
RTVSPost2010Prop41ColorRGB
 90
        0
102
RTVSPost2010PropOp41
 70
     1
102
RTVSPost2010Prop42
 90
       50
102
RTVSPost2010PropOp42
 70
     1
102
RTVSPost2010Prop43
 90
        3
102
RTVSPost2010PropOp43
 70
     1
102
RTVSPost2010Prop44ColorIndex
 90
        5
102
RTVSPost2010Prop44ColorRGB
 90
      255
102
RTVSPost2010PropOp44
 70
     1
102
RTVSPost2010Prop45
280
     0
102
RTVSPost2010PropOp45
 70
     1
102
RTVSPost2010Prop46
 90
       50
102
RTVSPost2010PropOp46
 70
     1
102
RTVSPost2010Prop47
 90
       50
102
RTVSPost2010PropOp47
 70
     1
102
RTVSPost2010Prop48
 90
       50
102
RTVSPost2010PropOp48
 70
     1
102
RTVSPost2010Prop49
280
     0
102
RTVSPost2010PropOp49
 70
     1
102
RTVSPost2010Prop50
 90
       50
102
RTVSPost2010PropOp50
 70
     1
102
RTVSPost2010Prop51ColorIndex
 90
      256
102
RTVSPost2010Prop51ColorRGB
 90
-16777216
102
RTVSPost2010PropOp51
 70
     0
102
RTVSPost2010Prop52
140
1.0
102
RTVSPost2010PropOp52
 70
     0
102
RTVSPost2010Prop53
 90
        2
102
RTVSPost2010PropOp53
 70
     1
102
RTVSPost2010Prop54
  1
strokes_ogs.tif
102
RTVSPost2010PropOp54
 70
     1
102
RTVSPost2010Prop55
280
     0
102
RTVSPost2010PropOp55
 70
     1
102
RTVSPost2010Prop56
140
1.0
102
RTVSPost2010PropOp56
 70
     1
102
RTVSPost2010Prop57
140
1.0
102
RTVSPost2010PropOp57
 70
     1
  0
XRECORD
  5
459
102
{ACAD_REACTORS
330
458
102
}
330
458
100
AcDbXrecord
280
     1
102
RTVSPropertyOp0
 70
     1
102
RTVSPropertyOp1
 70
     1
102
RTVSPropertyOp2
 70
     1
102
RTVSPropertyOp3
 70
     1
102
RTVSPropertyOp4
 70
     1
102
RTVSPropertyOp5
 70
     1
102
RTVSPropertyOp6
 70
     1
102
RTVSPropertyOp7
 70
     1
102
RTVSPropertyOp8
 70
     1
102
RTVSPropertyOp9
 70
     1
102
RTVSPropertyOp10
 70
     1
102
RTVSPropertyOp11
 70
     1
102
RTVSPropertyOp12
 70
     1
102
RTVSPropertyOp13
 70
     1
102
RTVSPropertyOp14
 70
     1
102
RTVSPropertyOp15
 70
     1
102
RTVSPropertyOp16
 70
     1
102
RTVSPropertyOp17
 70
     1
102
RTVSPropertyOp18
 70
     1
102
RTVSPropertyOp19
 70
     1
102
RTVSPropertyOp20
 70
     1
102
RTVSPropertyOp21
 70
     1
102
RTVSPropertyOp22
 70
     1
102
RTVSPropertyOp23
 70
     1
102
RTVSPropertyOp24
 70
     1
102
RTVSPropertyOp25
 70
     1
102
RTVSPropertyOp26
 70
     1
102
RTVSPropertyOp27
 70
     1
102
RTVSPropertyOp28
 70
     1
102
RTVSPropertyOp29
 70
     1
102
RTVSPropertyOp30
 70
     1
102
RTVSPropertyOp31
 70
     1
102
RTVSPropertyOp32
 70
     1
102
RTVSPropertyOp33
 70
     1
102
RTVSPropertyOp34
 70
     1
102
RTVSPropertyOp35
 70
     1
102
RTVSPropertyOp36
 70
     1
102
RTVSPropertyOp37
 70
     1
102
RTVSPropertyOp38
 70
     1
102
RTVSPropertyOp39
 70
     1
102
RTVSPropertyOp40
 70
     1
102
RTVSPropertyOp41
 70
     1
102
RTVSPropertyOp42
 70
     1
102
RTVSPropertyOp43
 70
     1
102
RTVSPropertyOp44
 70
     1
102
RTVSPropertyOp45
 70
     1
102
RTVSPropertyOp46
 70
     1
102
RTVSPropertyOp47
 70
     1
102
RTVSPropertyOp48
 70
     1
102
RTVSPropertyOp49
 70
     1
102
RTVSPropertyOp50
 70
     1
102
RTVSPropertyOp51
 70
     0
102
RTVSPropertyOp52
 70
     0
102
RTVSPropertyOp53
 70
     1
102
RTVSPropertyOp54
 70
     1
102
RTVSPropertyOp55
 70
     1
102
RTVSPropertyOp56
 70
     1
102
RTVSPropertyOp57
 70
     1
102
RTVSPost2010Prop28
280
     0
102
RTVSPost2010PropOp28
 70
     1
102
RTVSPost2010Prop29
280
     1
102
RTVSPost2010PropOp29
 70
     1
102
RTVSPost2010Prop30
280
     1
102
RTVSPost2010PropOp30
 70
     1
102
RTVSPost2010Prop31
280
     0
102
RTVSPost2010PropOp31
 70
     1
102
RTVSPost2010Prop32
280
     0
102
RTVSPost2010PropOp32
 70
     1
102
RTVSPost2010Prop33
280
     0
102
RTVSPost2010PropOp33
 70
     1
102
RTVSPost2010Prop34
280
     0
102
RTVSPost2010PropOp34
 70
     1
102
RTVSPost2010Prop35
280
     0
102
RTVSPost2010PropOp35
 70
     1
102
RTVSPost2010Prop36
280
     0
102
RTVSPost2010PropOp36
 70
     1
102
RTVSPost2010Prop37
 90
       50
102
RTVSPost2010PropOp37
 70
     1
102
RTVSPost2010Prop38
140
0.0
102
RTVSPost2010PropOp38
 70
     1
102
RTVSPost2010Prop39
140
1.0
102
RTVSPost2010PropOp39
 70
     1
102
RTVSPost2010Prop40
 90
        0
102
RTVSPost2010PropOp40
 70
     1
102
RTVSPost2010Prop41ColorIndex
 90
       18
102
RTVSPost2010Prop41ColorRGB
 90
        0
102
RTVSPost2010PropOp41
 70
     1
102
RTVSPost2010Prop42
 90
       50
102
RTVSPost2010PropOp42
 70
     1
102
RTVSPost2010Prop43
 90
        3
102
RTVSPost2010PropOp43
 70
     1
102
RTVSPost2010Prop44ColorIndex
 90
        5
102
RTVSPost2010Prop44ColorRGB
 90
      255
102
RTVSPost2010PropOp44
 70
     1
102
RTVSPost2010Prop45
280
     0
102
RTVSPost2010PropOp45
 70
     1
102
RTVSPost2010Prop46
 90
       50
102
RTVSPost2010PropOp46
 70
     1
102
RTVSPost2010Prop47
 90
       50
102
RTVSPost2010PropOp47
 70
     1
102
RTVSPost2010Prop48
 90
       50
102
RTVSPost2010PropOp48
 70
     1
102
RTVSPost2010Prop49
280
     0
102
RTVSPost2010PropOp49
 70
     1
102
RTVSPost2010Prop50
 90
       50
102
RTVSPost2010PropOp50
 70
     1
102
RTVSPost2010Prop51ColorIndex
 90
      256
102
RTVSPost2010Prop51ColorRGB
 90
-16777216
102
RTVSPost2010PropOp51
 70
     0
102
RTVSPost2010Prop52
140
1.0
102
RTVSPost2010PropOp52
 70
     0
102
RTVSPost2010Prop53
 90
        2
102
RTVSPost2010PropOp53
 70
     1
102
RTVSPost2010Prop54
  1
strokes_ogs.tif
102
RTVSPost2010PropOp54
 70
     1
102
RTVSPost2010Prop55
280
     0
102
RTVSPost2010PropOp55
 70
     1
102
RTVSPost2010Prop56
140
1.0
102
RTVSPost2010PropOp56
 70
     1
102
RTVSPost2010Prop57
140
1.0
102
RTVSPost2010PropOp57
 70
     1
  0
XRECORD
  5
44D
102
{ACAD_REACTORS
330
44C
102
}
330
44C
100
AcDbXrecord
280
     1
102
RTVSPropertyOp0
 70
     1
102
RTVSPropertyOp1
 70
     1
102
RTVSPropertyOp2
 70
     1
102
RTVSPropertyOp3
 70
     1
102
RTVSPropertyOp4
 70
     1
102
RTVSPropertyOp5
 70
     1
102
RTVSPropertyOp6
 70
     1
102
RTVSPropertyOp7
 70
     1
102
RTVSPropertyOp8
 70
     1
102
RTVSPropertyOp9
 70
     1
102
RTVSPropertyOp10
 70
     1
102
RTVSPropertyOp11
 70
     1
102
RTVSPropertyOp12
 70
     1
102
RTVSPropertyOp13
 70
     1
102
RTVSPropertyOp14
 70
     1
102
RTVSPropertyOp15
 70
     1
102
RTVSPropertyOp16
 70
     1
102
RTVSPropertyOp17
 70
     1
102
RTVSPropertyOp18
 70
     1
102
RTVSPropertyOp19
 70
     1
102
RTVSPropertyOp20
 70
     1
102
RTVSPropertyOp21
 70
     1
102
RTVSPropertyOp22
 70
     1
102
RTVSPropertyOp23
 70
     1
102
RTVSPropertyOp24
 70
     1
102
RTVSPropertyOp25
 70
     1
102
RTVSPropertyOp26
 70
     1
102
RTVSPropertyOp27
 70
     1
102
RTVSPropertyOp28
 70
     1
102
RTVSPropertyOp29
 70
     1
102
RTVSPropertyOp30
 70
     1
102
RTVSPropertyOp31
 70
     1
102
RTVSPropertyOp32
 70
     1
102
RTVSPropertyOp33
 70
     1
102
RTVSPropertyOp34
 70
     1
102
RTVSPropertyOp35
 70
     1
102
RTVSPropertyOp36
 70
     1
102
RTVSPropertyOp37
 70
     1
102
RTVSPropertyOp38
 70
     1
102
RTVSPropertyOp39
 70
     1
102
RTVSPropertyOp40
 70
     1
102
RTVSPropertyOp41
 70
     1
102
RTVSPropertyOp42
 70
     1
102
RTVSPropertyOp43
 70
     1
102
RTVSPropertyOp44
 70
     1
102
RTVSPropertyOp45
 70
     1
102
RTVSPropertyOp46
 70
     1
102
RTVSPropertyOp47
 70
     1
102
RTVSPropertyOp48
 70
     1
102
RTVSPropertyOp49
 70
     1
102
RTVSPropertyOp50
 70
     1
102
RTVSPropertyOp51
 70
     0
102
RTVSPropertyOp52
 70
     0
102
RTVSPropertyOp53
 70
     1
102
RTVSPropertyOp54
 70
     1
102
RTVSPropertyOp55
 70
     1
102
RTVSPropertyOp56
 70
     1
102
RTVSPropertyOp57
 70
     1
102
RTVSPost2010Prop28
280
     0
102
RTVSPost2010PropOp28
 70
     1
102
RTVSPost2010Prop29
280
     1
102
RTVSPost2010PropOp29
 70
     1
102
RTVSPost2010Prop30
280
     1
102
RTVSPost2010PropOp30
 70
     1
102
RTVSPost2010Prop31
280
     0
102
RTVSPost2010PropOp31
 70
     1
102
RTVSPost2010Prop32
280
     0
102
RTVSPost2010PropOp32
 70
     1
102
RTVSPost2010Prop33
280
     0
102
RTVSPost2010PropOp33
 70
     1
102
RTVSPost2010Prop34
280
     0
102
RTVSPost2010PropOp34
 70
     1
102
RTVSPost2010Prop35
280
     0
102
RTVSPost2010PropOp35
 70
     1
102
RTVSPost2010Prop36
280
     0
102
RTVSPost2010PropOp36
 70
     1
102
RTVSPost2010Prop37
 90
       50
102
RTVSPost2010PropOp37
 70
     1
102
RTVSPost2010Prop38
140
0.0
102
RTVSPost2010PropOp38
 70
     1
102
RTVSPost2010Prop39
140
1.0
102
RTVSPost2010PropOp39
 70
     1
102
RTVSPost2010Prop40
 90
        0
102
RTVSPost2010PropOp40
 70
     1
102
RTVSPost2010Prop41ColorIndex
 90
       18
102
RTVSPost2010Prop41ColorRGB
 90
        0
102
RTVSPost2010PropOp41
 70
     1
102
RTVSPost2010Prop42
 90
       50
102
RTVSPost2010PropOp42
 70
     1
102
RTVSPost2010Prop43
 90
        3
102
RTVSPost2010PropOp43
 70
     1
102
RTVSPost2010Prop44ColorIndex
 90
        5
102
RTVSPost2010Prop44ColorRGB
 90
      255
102
RTVSPost2010PropOp44
 70
     1
102
RTVSPost2010Prop45
280
     0
102
RTVSPost2010PropOp45
 70
     1
102
RTVSPost2010Prop46
 90
       50
102
RTVSPost2010PropOp46
 70
     1
102
RTVSPost2010Prop47
 90
       50
102
RTVSPost2010PropOp47
 70
     1
102
RTVSPost2010Prop48
 90
       50
102
RTVSPost2010PropOp48
 70
     1
102
RTVSPost2010Prop49
280
     0
102
RTVSPost2010PropOp49
 70
     1
102
RTVSPost2010Prop50
 90
       50
102
RTVSPost2010PropOp50
 70
     1
102
RTVSPost2010Prop51ColorIndex
 90
      256
102
RTVSPost2010Prop51ColorRGB
 90
-16777216
102
RTVSPost2010PropOp51
 70
     0
102
RTVSPost2010Prop52
140
1.0
102
RTVSPost2010PropOp52
 70
     0
102
RTVSPost2010Prop53
 90
        2
102
RTVSPost2010PropOp53
 70
     1
102
RTVSPost2010Prop54
  1
strokes_ogs.tif
102
RTVSPost2010PropOp54
 70
     1
102
RTVSPost2010Prop55
280
     0
102
RTVSPost2010PropOp55
 70
     1
102
RTVSPost2010Prop56
140
1.0
102
RTVSPost2010PropOp56
 70
     1
102
RTVSPost2010Prop57
140
1.0
102
RTVSPost2010PropOp57
 70
     1
  0
XRECORD
  5
44F
102
{ACAD_REACTORS
330
44E
102
}
330
44E
100
AcDbXrecord
280
     1
102
RTVSPropertyOp0
 70
     1
102
RTVSPropertyOp1
 70
     1
102
RTVSPropertyOp2
 70
     1
102
RTVSPropertyOp3
 70
     1
102
RTVSPropertyOp4
 70
     1
102
RTVSPropertyOp5
 70
     1
102
RTVSPropertyOp6
 70
     1
102
RTVSPropertyOp7
 70
     1
102
RTVSPropertyOp8
 70
     1
102
RTVSPropertyOp9
 70
     1
102
RTVSPropertyOp10
 70
     1
102
RTVSPropertyOp11
 70
     1
102
RTVSPropertyOp12
 70
     1
102
RTVSPropertyOp13
 70
     1
102
RTVSPropertyOp14
 70
     1
102
RTVSPropertyOp15
 70
     1
102
RTVSPropertyOp16
 70
     1
102
RTVSPropertyOp17
 70
     1
102
RTVSPropertyOp18
 70
     1
102
RTVSPropertyOp19
 70
     1
102
RTVSPropertyOp20
 70
     1
102
RTVSPropertyOp21
 70
     1
102
RTVSPropertyOp22
 70
     1
102
RTVSPropertyOp23
 70
     1
102
RTVSPropertyOp24
 70
     1
102
RTVSPropertyOp25
 70
     1
102
RTVSPropertyOp26
 70
     1
102
RTVSPropertyOp27
 70
     1
102
RTVSPropertyOp28
 70
     1
102
RTVSPropertyOp29
 70
     1
102
RTVSPropertyOp30
 70
     1
102
RTVSPropertyOp31
 70
     1
102
RTVSPropertyOp32
 70
     1
102
RTVSPropertyOp33
 70
     1
102
RTVSPropertyOp34
 70
     1
102
RTVSPropertyOp35
 70
     1
102
RTVSPropertyOp36
 70
     1
102
RTVSPropertyOp37
 70
     1
102
RTVSPropertyOp38
 70
     1
102
RTVSPropertyOp39
 70
     1
102
RTVSPropertyOp40
 70
     1
102
RTVSPropertyOp41
 70
     1
102
RTVSPropertyOp42
 70
     1
102
RTVSPropertyOp43
 70
     1
102
RTVSPropertyOp44
 70
     1
102
RTVSPropertyOp45
 70
     1
102
RTVSPropertyOp46
 70
     1
102
RTVSPropertyOp47
 70
     1
102
RTVSPropertyOp48
 70
     1
102
RTVSPropertyOp49
 70
     1
102
RTVSPropertyOp50
 70
     1
102
RTVSPropertyOp51
 70
     0
102
RTVSPropertyOp52
 70
     0
102
RTVSPropertyOp53
 70
     1
102
RTVSPropertyOp54
 70
     1
102
RTVSPropertyOp55
 70
     1
102
RTVSPropertyOp56
 70
     1
102
RTVSPropertyOp57
 70
     1
102
RTVSPost2010Prop28
280
     0
102
RTVSPost2010PropOp28
 70
     1
102
RTVSPost2010Prop29
280
     1
102
RTVSPost2010PropOp29
 70
     1
102
RTVSPost2010Prop30
280
     1
102
RTVSPost2010PropOp30
 70
     1
102
RTVSPost2010Prop31
280
     0
102
RTVSPost2010PropOp31
 70
     1
102
RTVSPost2010Prop32
280
     0
102
RTVSPost2010PropOp32
 70
     1
102
RTVSPost2010Prop33
280
     0
102
RTVSPost2010PropOp33
 70
     1
102
RTVSPost2010Prop34
280
     0
102
RTVSPost2010PropOp34
 70
     1
102
RTVSPost2010Prop35
280
     0
102
RTVSPost2010PropOp35
 70
     1
102
RTVSPost2010Prop36
280
     0
102
RTVSPost2010PropOp36
 70
     1
102
RTVSPost2010Prop37
 90
       50
102
RTVSPost2010PropOp37
 70
     1
102
RTVSPost2010Prop38
140
0.0
102
RTVSPost2010PropOp38
 70
     1
102
RTVSPost2010Prop39
140
1.0
102
RTVSPost2010PropOp39
 70
     1
102
RTVSPost2010Prop40
 90
        0
102
RTVSPost2010PropOp40
 70
     1
102
RTVSPost2010Prop41ColorIndex
 90
       18
102
RTVSPost2010Prop41ColorRGB
 90
        0
102
RTVSPost2010PropOp41
 70
     1
102
RTVSPost2010Prop42
 90
       50
102
RTVSPost2010PropOp42
 70
     1
102
RTVSPost2010Prop43
 90
        3
102
RTVSPost2010PropOp43
 70
     1
102
RTVSPost2010Prop44ColorIndex
 90
        5
102
RTVSPost2010Prop44ColorRGB
 90
      255
102
RTVSPost2010PropOp44
 70
     1
102
RTVSPost2010Prop45
280
     0
102
RTVSPost2010PropOp45
 70
     1
102
RTVSPost2010Prop46
 90
       50
102
RTVSPost2010PropOp46
 70
     1
102
RTVSPost2010Prop47
 90
       50
102
RTVSPost2010PropOp47
 70
     1
102
RTVSPost2010Prop48
 90
       50
102
RTVSPost2010PropOp48
 70
     1
102
RTVSPost2010Prop49
280
     0
102
RTVSPost2010PropOp49
 70
     1
102
RTVSPost2010Prop50
 90
       50
102
RTVSPost2010PropOp50
 70
     1
102
RTVSPost2010Prop51ColorIndex
 90
      256
102
RTVSPost2010Prop51ColorRGB
 90
-16777216
102
RTVSPost2010PropOp51
 70
     0
102
RTVSPost2010Prop52
140
1.0
102
RTVSPost2010PropOp52
 70
     0
102
RTVSPost2010Prop53
 90
        2
102
RTVSPost2010PropOp53
 70
     1
102
RTVSPost2010Prop54
  1
strokes_ogs.tif
102
RTVSPost2010PropOp54
 70
     1
102
RTVSPost2010Prop55
280
     0
102
RTVSPost2010PropOp55
 70
     1
102
RTVSPost2010Prop56
140
1.0
102
RTVSPost2010PropOp56
 70
     1
102
RTVSPost2010Prop57
140
1.0
102
RTVSPost2010PropOp57
 70
     1
  0
XRECORD
  5
45F
102
{ACAD_REACTORS
330
45E
102
}
330
45E
100
AcDbXrecord
280
     1
102
RTVSPropertyOp0
 70
     0
102
RTVSPropertyOp1
 70
     0
102
RTVSPropertyOp2
 70
     0
102
RTVSPropertyOp3
 70
     0
102
RTVSPropertyOp4
 70
     0
102
RTVSPropertyOp5
 70
     0
102
RTVSPropertyOp6
 70
     0
102
RTVSPropertyOp7
 70
     0
102
RTVSPropertyOp8
 70
     0
102
RTVSPropertyOp9
 70
     0
102
RTVSPropertyOp10
 70
     0
102
RTVSPropertyOp11
 70
     0
102
RTVSPropertyOp12
 70
     0
102
RTVSPropertyOp13
 70
     0
102
RTVSPropertyOp14
 70
     2
102
RTVSPropertyOp15
 70
     0
102
RTVSPropertyOp16
 70
     0
102
RTVSPropertyOp17
 70
     0
102
RTVSPropertyOp18
 70
     0
102
RTVSPropertyOp19
 70
     0
102
RTVSPropertyOp20
 70
     0
102
RTVSPropertyOp21
 70
     0
102
RTVSPropertyOp22
 70
     0
102
RTVSPropertyOp23
 70
     0
102
RTVSPropertyOp24
 70
     0
102
RTVSPropertyOp25
 70
     0
102
RTVSPropertyOp26
 70
     0
102
RTVSPropertyOp27
 70
     0
102
RTVSPropertyOp28
 70
     0
102
RTVSPropertyOp29
 70
     0
102
RTVSPropertyOp30
 70
     0
102
RTVSPropertyOp31
 70
     0
102
RTVSPropertyOp32
 70
     0
102
RTVSPropertyOp33
 70
     0
102
RTVSPropertyOp34
 70
     0
102
RTVSPropertyOp35
 70
     0
102
RTVSPropertyOp36
 70
     0
102
RTVSPropertyOp37
 70
     0
102
RTVSPropertyOp38
 70
     0
102
RTVSPropertyOp39
 70
     0
102
RTVSPropertyOp40
 70
     0
102
RTVSPropertyOp41
 70
     0
102
RTVSPropertyOp42
 70
     0
102
RTVSPropertyOp43
 70
     0
102
RTVSPropertyOp44
 70
     0
102
RTVSPropertyOp45
 70
     0
102
RTVSPropertyOp46
 70
     0
102
RTVSPropertyOp47
 70
     0
102
RTVSPropertyOp48
 70
     0
102
RTVSPropertyOp49
 70
     0
102
RTVSPropertyOp50
 70
     0
102
RTVSPropertyOp51
 70
     0
102
RTVSPropertyOp52
 70
     0
102
RTVSPropertyOp53
 70
     0
102
RTVSPropertyOp54
 70
     0
102
RTVSPropertyOp55
 70
     0
102
RTVSPropertyOp56
 70
     0
102
RTVSPropertyOp57
 70
     0
102
RTVSPost2010Prop28
280
     0
102
RTVSPost2010PropOp28
 70
     0
102
RTVSPost2010Prop29
280
     1
102
RTVSPost2010PropOp29
 70
     0
102
RTVSPost2010Prop30
280
     1
102
RTVSPost2010PropOp30
 70
     0
102
RTVSPost2010Prop31
280
     0
102
RTVSPost2010PropOp31
 70
     0
102
RTVSPost2010Prop32
280
     0
102
RTVSPost2010PropOp32
 70
     0
102
RTVSPost2010Prop33
280
     0
102
RTVSPost2010PropOp33
 70
     0
102
RTVSPost2010Prop34
280
     0
102
RTVSPost2010PropOp34
 70
     0
102
RTVSPost2010Prop35
280
     0
102
RTVSPost2010PropOp35
 70
     0
102
RTVSPost2010Prop36
280
     0
102
RTVSPost2010PropOp36
 70
     0
102
RTVSPost2010Prop37
 90
       50
102
RTVSPost2010PropOp37
 70
     0
102
RTVSPost2010Prop38
140
0.0
102
RTVSPost2010PropOp38
 70
     0
102
RTVSPost2010Prop39
140
1.0
102
RTVSPost2010PropOp39
 70
     0
102
RTVSPost2010Prop40
 90
        0
102
RTVSPost2010PropOp40
 70
     0
102
RTVSPost2010Prop41ColorIndex
 90
       18
102
RTVSPost2010Prop41ColorRGB
 90
        0
102
RTVSPost2010PropOp41
 70
     0
102
RTVSPost2010Prop42
 90
       50
102
RTVSPost2010PropOp42
 70
     0
102
RTVSPost2010Prop43
 90
        3
102
RTVSPost2010PropOp43
 70
     0
102
RTVSPost2010Prop44ColorIndex
 90
        5
102
RTVSPost2010Prop44ColorRGB
 90
      255
102
RTVSPost2010PropOp44
 70
     0
102
RTVSPost2010Prop45
280
     0
102
RTVSPost2010PropOp45
 70
     0
102
RTVSPost2010Prop46
 90
       50
102
RTVSPost2010PropOp46
 70
     0
102
RTVSPost2010Prop47
 90
       50
102
RTVSPost2010PropOp47
 70
     0
102
RTVSPost2010Prop48
 90
       50
102
RTVSPost2010PropOp48
 70
     0
102
RTVSPost2010Prop49
280
     0
102
RTVSPost2010PropOp49
 70
     0
102
RTVSPost2010Prop50
 90
       50
102
RTVSPost2010PropOp50
 70
     0
102
RTVSPost2010Prop51ColorIndex
 90
      256
102
RTVSPost2010Prop51ColorRGB
 90
-16777216
102
RTVSPost2010PropOp51
 70
     0
102
RTVSPost2010Prop52
140
1.0
102
RTVSPost2010PropOp52
 70
     0
102
RTVSPost2010Prop53
 90
        2
102
RTVSPost2010PropOp53
 70
     0
102
RTVSPost2010Prop54
  1
strokes_ogs.tif
102
RTVSPost2010PropOp54
 70
     0
102
RTVSPost2010Prop55
280
     0
102
RTVSPost2010PropOp55
 70
     0
102
RTVSPost2010Prop56
140
1.0
102
RTVSPost2010PropOp56
 70
     0
102
RTVSPost2010Prop57
140
1.0
102
RTVSPost2010PropOp57
 70
     0
  0
XRECORD
  5
457
102
{ACAD_REACTORS
330
456
102
}
330
456
100
AcDbXrecord
280
     1
102
RTVSPropertyOp0
 70
     1
102
RTVSPropertyOp1
 70
     1
102
RTVSPropertyOp2
 70
     1
102
RTVSPropertyOp3
 70
     1
102
RTVSPropertyOp4
 70
     1
102
RTVSPropertyOp5
 70
     1
102
RTVSPropertyOp6
 70
     1
102
RTVSPropertyOp7
 70
     1
102
RTVSPropertyOp8
 70
     1
102
RTVSPropertyOp9
 70
     1
102
RTVSPropertyOp10
 70
     1
102
RTVSPropertyOp11
 70
     1
102
RTVSPropertyOp12
 70
     1
102
RTVSPropertyOp13
 70
     1
102
RTVSPropertyOp14
 70
     1
102
RTVSPropertyOp15
 70
     1
102
RTVSPropertyOp16
 70
     1
102
RTVSPropertyOp17
 70
     1
102
RTVSPropertyOp18
 70
     1
102
RTVSPropertyOp19
 70
     1
102
RTVSPropertyOp20
 70
     1
102
RTVSPropertyOp21
 70
     1
102
RTVSPropertyOp22
 70
     1
102
RTVSPropertyOp23
 70
     1
102
RTVSPropertyOp24
 70
     1
102
RTVSPropertyOp25
 70
     1
102
RTVSPropertyOp26
 70
     1
102
RTVSPropertyOp27
 70
     1
102
RTVSPropertyOp28
 70
     1
102
RTVSPropertyOp29
 70
     1
102
RTVSPropertyOp30
 70
     1
102
RTVSPropertyOp31
 70
     1
102
RTVSPropertyOp32
 70
     1
102
RTVSPropertyOp33
 70
     1
102
RTVSPropertyOp34
 70
     1
102
RTVSPropertyOp35
 70
     1
102
RTVSPropertyOp36
 70
     1
102
RTVSPropertyOp37
 70
     1
102
RTVSPropertyOp38
 70
     1
102
RTVSPropertyOp39
 70
     1
102
RTVSPropertyOp40
 70
     1
102
RTVSPropertyOp41
 70
     1
102
RTVSPropertyOp42
 70
     1
102
RTVSPropertyOp43
 70
     1
102
RTVSPropertyOp44
 70
     1
102
RTVSPropertyOp45
 70
     1
102
RTVSPropertyOp46
 70
     1
102
RTVSPropertyOp47
 70
     1
102
RTVSPropertyOp48
 70
     1
102
RTVSPropertyOp49
 70
     1
102
RTVSPropertyOp50
 70
     1
102
RTVSPropertyOp51
 70
     0
102
RTVSPropertyOp52
 70
     0
102
RTVSPropertyOp53
 70
     1
102
RTVSPropertyOp54
 70
     1
102
RTVSPropertyOp55
 70
     1
102
RTVSPropertyOp56
 70
     1
102
RTVSPropertyOp57
 70
     1
102
RTVSPost2010Prop28
280
     0
102
RTVSPost2010PropOp28
 70
     1
102
RTVSPost2010Prop29
280
     1
102
RTVSPost2010PropOp29
 70
     1
102
RTVSPost2010Prop30
280
     1
102
RTVSPost2010PropOp30
 70
     1
102
RTVSPost2010Prop31
280
     0
102
RTVSPost2010PropOp31
 70
     1
102
RTVSPost2010Prop32
280
     0
102
RTVSPost2010PropOp32
 70
     1
102
RTVSPost2010Prop33
280
     0
102
RTVSPost2010PropOp33
 70
     1
102
RTVSPost2010Prop34
280
     0
102
RTVSPost2010PropOp34
 70
     1
102
RTVSPost2010Prop35
280
     0
102
RTVSPost2010PropOp35
 70
     1
102
RTVSPost2010Prop36
280
     0
102
RTVSPost2010PropOp36
 70
     1
102
RTVSPost2010Prop37
 90
       50
102
RTVSPost2010PropOp37
 70
     1
102
RTVSPost2010Prop38
140
0.0
102
RTVSPost2010PropOp38
 70
     1
102
RTVSPost2010Prop39
140
1.0
102
RTVSPost2010PropOp39
 70
     1
102
RTVSPost2010Prop40
 90
        0
102
RTVSPost2010PropOp40
 70
     1
102
RTVSPost2010Prop41ColorIndex
 90
       18
102
RTVSPost2010Prop41ColorRGB
 90
        0
102
RTVSPost2010PropOp41
 70
     1
102
RTVSPost2010Prop42
 90
       50
102
RTVSPost2010PropOp42
 70
     1
102
RTVSPost2010Prop43
 90
        3
102
RTVSPost2010PropOp43
 70
     1
102
RTVSPost2010Prop44ColorIndex
 90
        5
102
RTVSPost2010Prop44ColorRGB
 90
      255
102
RTVSPost2010PropOp44
 70
     1
102
RTVSPost2010Prop45
280
     0
102
RTVSPost2010PropOp45
 70
     1
102
RTVSPost2010Prop46
 90
       50
102
RTVSPost2010PropOp46
 70
     1
102
RTVSPost2010Prop47
 90
       50
102
RTVSPost2010PropOp47
 70
     1
102
RTVSPost2010Prop48
 90
       50
102
RTVSPost2010PropOp48
 70
     1
102
RTVSPost2010Prop49
280
     0
102
RTVSPost2010PropOp49
 70
     1
102
RTVSPost2010Prop50
 90
       50
102
RTVSPost2010PropOp50
 70
     1
102
RTVSPost2010Prop51ColorIndex
 90
      256
102
RTVSPost2010Prop51ColorRGB
 90
-16777216
102
RTVSPost2010PropOp51
 70
     0
102
RTVSPost2010Prop52
140
1.0
102
RTVSPost2010PropOp52
 70
     0
102
RTVSPost2010Prop53
 90
        2
102
RTVSPost2010PropOp53
 70
     1
102
RTVSPost2010Prop54
  1
strokes_ogs.tif
102
RTVSPost2010PropOp54
 70
     1
102
RTVSPost2010Prop55
280
     0
102
RTVSPost2010PropOp55
 70
     1
102
RTVSPost2010Prop56
140
1.0
102
RTVSPost2010PropOp56
 70
     1
102
RTVSPost2010Prop57
140
1.0
102
RTVSPost2010PropOp57
 70
     1
  0
XRECORD
  5
43B
102
{ACAD_REACTORS
330
43A
102
}
330
43A
100
AcDbXrecord
280
     1
102
RTVSPropertyOp0
 70
     1
102
RTVSPropertyOp1
 70
     1
102
RTVSPropertyOp2
 70
     1
102
RTVSPropertyOp3
 70
     1
102
RTVSPropertyOp4
 70
     1
102
RTVSPropertyOp5
 70
     1
102
RTVSPropertyOp6
 70
     1
102
RTVSPropertyOp7
 70
     1
102
RTVSPropertyOp8
 70
     1
102
RTVSPropertyOp9
 70
     1
102
RTVSPropertyOp10
 70
     1
102
RTVSPropertyOp11
 70
     1
102
RTVSPropertyOp12
 70
     1
102
RTVSPropertyOp13
 70
     1
102
RTVSPropertyOp14
 70
     1
102
RTVSPropertyOp15
 70
     1
102
RTVSPropertyOp16
 70
     1
102
RTVSPropertyOp17
 70
     1
102
RTVSPropertyOp18
 70
     1
102
RTVSPropertyOp19
 70
     1
102
RTVSPropertyOp20
 70
     1
102
RTVSPropertyOp21
 70
     1
102
RTVSPropertyOp22
 70
     1
102
RTVSPropertyOp23
 70
     1
102
RTVSPropertyOp24
 70
     1
102
RTVSPropertyOp25
 70
     1
102
RTVSPropertyOp26
 70
     1
102
RTVSPropertyOp27
 70
     1
102
RTVSPropertyOp28
 70
     1
102
RTVSPropertyOp29
 70
     1
102
RTVSPropertyOp30
 70
     1
102
RTVSPropertyOp31
 70
     1
102
RTVSPropertyOp32
 70
     1
102
RTVSPropertyOp33
 70
     1
102
RTVSPropertyOp34
 70
     1
102
RTVSPropertyOp35
 70
     1
102
RTVSPropertyOp36
 70
     1
102
RTVSPropertyOp37
 70
     1
102
RTVSPropertyOp38
 70
     1
102
RTVSPropertyOp39
 70
     1
102
RTVSPropertyOp40
 70
     1
102
RTVSPropertyOp41
 70
     1
102
RTVSPropertyOp42
 70
     1
102
RTVSPropertyOp43
 70
     1
102
RTVSPropertyOp44
 70
     1
102
RTVSPropertyOp45
 70
     1
102
RTVSPropertyOp46
 70
     1
102
RTVSPropertyOp47
 70
     1
102
RTVSPropertyOp48
 70
     1
102
RTVSPropertyOp49
 70
     1
102
RTVSPropertyOp50
 70
     1
102
RTVSPropertyOp51
 70
     0
102
RTVSPropertyOp52
 70
     0
102
RTVSPropertyOp53
 70
     1
102
RTVSPropertyOp54
 70
     1
102
RTVSPropertyOp55
 70
     1
102
RTVSPropertyOp56
 70
     1
102
RTVSPropertyOp57
 70
     1
102
RTVSPost2010Prop28
280
     0
102
RTVSPost2010PropOp28
 70
     1
102
RTVSPost2010Prop29
280
     1
102
RTVSPost2010PropOp29
 70
     1
102
RTVSPost2010Prop30
280
     1
102
RTVSPost2010PropOp30
 70
     1
102
RTVSPost2010Prop31
280
     0
102
RTVSPost2010PropOp31
 70
     1
102
RTVSPost2010Prop32
280
     0
102
RTVSPost2010PropOp32
 70
     1
102
RTVSPost2010Prop33
280
     0
102
RTVSPost2010PropOp33
 70
     1
102
RTVSPost2010Prop34
280
     0
102
RTVSPost2010PropOp34
 70
     1
102
RTVSPost2010Prop35
280
     0
102
RTVSPost2010PropOp35
 70
     1
102
RTVSPost2010Prop36
280
     0
102
RTVSPost2010PropOp36
 70
     1
102
RTVSPost2010Prop37
 90
       50
102
RTVSPost2010PropOp37
 70
     1
102
RTVSPost2010Prop38
140
0.0
102
RTVSPost2010PropOp38
 70
     1
102
RTVSPost2010Prop39
140
1.0
102
RTVSPost2010PropOp39
 70
     1
102
RTVSPost2010Prop40
 90
        0
102
RTVSPost2010PropOp40
 70
     1
102
RTVSPost2010Prop41ColorIndex
 90
       18
102
RTVSPost2010Prop41ColorRGB
 90
        0
102
RTVSPost2010PropOp41
 70
     1
102
RTVSPost2010Prop42
 90
       50
102
RTVSPost2010PropOp42
 70
     1
102
RTVSPost2010Prop43
 90
        3
102
RTVSPost2010PropOp43
 70
     1
102
RTVSPost2010Prop44ColorIndex
 90
        5
102
RTVSPost2010Prop44ColorRGB
 90
      255
102
RTVSPost2010PropOp44
 70
     1
102
RTVSPost2010Prop45
280
     0
102
RTVSPost2010PropOp45
 70
     1
102
RTVSPost2010Prop46
 90
       50
102
RTVSPost2010PropOp46
 70
     1
102
RTVSPost2010Prop47
 90
       50
102
RTVSPost2010PropOp47
 70
     1
102
RTVSPost2010Prop48
 90
       50
102
RTVSPost2010PropOp48
 70
     1
102
RTVSPost2010Prop49
280
     0
102
RTVSPost2010PropOp49
 70
     1
102
RTVSPost2010Prop50
 90
       50
102
RTVSPost2010PropOp50
 70
     1
102
RTVSPost2010Prop51ColorIndex
 90
      256
102
RTVSPost2010Prop51ColorRGB
 90
-16777216
102
RTVSPost2010PropOp51
 70
     0
102
RTVSPost2010Prop52
140
1.0
102
RTVSPost2010PropOp52
 70
     0
102
RTVSPost2010Prop53
 90
        2
102
RTVSPost2010PropOp53
 70
     1
102
RTVSPost2010Prop54
  1
strokes_ogs.tif
102
RTVSPost2010PropOp54
 70
     1
102
RTVSPost2010Prop55
280
     0
102
RTVSPost2010PropOp55
 70
     1
102
RTVSPost2010Prop56
140
1.0
102
RTVSPost2010PropOp56
 70
     1
102
RTVSPost2010Prop57
140
1.0
102
RTVSPost2010PropOp57
 70
     1
  0
XRECORD
  5
43D
102
{ACAD_REACTORS
330
43C
102
}
330
43C
100
AcDbXrecord
280
     1
102
RTVSPropertyOp0
 70
     1
102
RTVSPropertyOp1
 70
     1
102
RTVSPropertyOp2
 70
     1
102
RTVSPropertyOp3
 70
     1
102
RTVSPropertyOp4
 70
     1
102
RTVSPropertyOp5
 70
     1
102
RTVSPropertyOp6
 70
     1
102
RTVSPropertyOp7
 70
     1
102
RTVSPropertyOp8
 70
     1
102
RTVSPropertyOp9
 70
     1
102
RTVSPropertyOp10
 70
     1
102
RTVSPropertyOp11
 70
     1
102
RTVSPropertyOp12
 70
     1
102
RTVSPropertyOp13
 70
     1
102
RTVSPropertyOp14
 70
     1
102
RTVSPropertyOp15
 70
     1
102
RTVSPropertyOp16
 70
     1
102
RTVSPropertyOp17
 70
     1
102
RTVSPropertyOp18
 70
     1
102
RTVSPropertyOp19
 70
     1
102
RTVSPropertyOp20
 70
     1
102
RTVSPropertyOp21
 70
     1
102
RTVSPropertyOp22
 70
     1
102
RTVSPropertyOp23
 70
     1
102
RTVSPropertyOp24
 70
     1
102
RTVSPropertyOp25
 70
     1
102
RTVSPropertyOp26
 70
     1
102
RTVSPropertyOp27
 70
     1
102
RTVSPropertyOp28
 70
     1
102
RTVSPropertyOp29
 70
     1
102
RTVSPropertyOp30
 70
     1
102
RTVSPropertyOp31
 70
     1
102
RTVSPropertyOp32
 70
     1
102
RTVSPropertyOp33
 70
     1
102
RTVSPropertyOp34
 70
     1
102
RTVSPropertyOp35
 70
     1
102
RTVSPropertyOp36
 70
     1
102
RTVSPropertyOp37
 70
     1
102
RTVSPropertyOp38
 70
     1
102
RTVSPropertyOp39
 70
     1
102
RTVSPropertyOp40
 70
     1
102
RTVSPropertyOp41
 70
     1
102
RTVSPropertyOp42
 70
     1
102
RTVSPropertyOp43
 70
     1
102
RTVSPropertyOp44
 70
     1
102
RTVSPropertyOp45
 70
     1
102
RTVSPropertyOp46
 70
     1
102
RTVSPropertyOp47
 70
     1
102
RTVSPropertyOp48
 70
     1
102
RTVSPropertyOp49
 70
     1
102
RTVSPropertyOp50
 70
     1
102
RTVSPropertyOp51
 70
     0
102
RTVSPropertyOp52
 70
     0
102
RTVSPropertyOp53
 70
     1
102
RTVSPropertyOp54
 70
     1
102
RTVSPropertyOp55
 70
     1
102
RTVSPropertyOp56
 70
     1
102
RTVSPropertyOp57
 70
     1
102
RTVSPost2010Prop28
280
     0
102
RTVSPost2010PropOp28
 70
     1
102
RTVSPost2010Prop29
280
     1
102
RTVSPost2010PropOp29
 70
     1
102
RTVSPost2010Prop30
280
     1
102
RTVSPost2010PropOp30
 70
     1
102
RTVSPost2010Prop31
280
     0
102
RTVSPost2010PropOp31
 70
     1
102
RTVSPost2010Prop32
280
     0
102
RTVSPost2010PropOp32
 70
     1
102
RTVSPost2010Prop33
280
     0
102
RTVSPost2010PropOp33
 70
     1
102
RTVSPost2010Prop34
280
     0
102
RTVSPost2010PropOp34
 70
     1
102
RTVSPost2010Prop35
280
     0
102
RTVSPost2010PropOp35
 70
     1
102
RTVSPost2010Prop36
280
     0
102
RTVSPost2010PropOp36
 70
     1
102
RTVSPost2010Prop37
 90
       50
102
RTVSPost2010PropOp37
 70
     1
102
RTVSPost2010Prop38
140
0.0
102
RTVSPost2010PropOp38
 70
     1
102
RTVSPost2010Prop39
140
1.0
102
RTVSPost2010PropOp39
 70
     1
102
RTVSPost2010Prop40
 90
        0
102
RTVSPost2010PropOp40
 70
     1
102
RTVSPost2010Prop41ColorIndex
 90
       18
102
RTVSPost2010Prop41ColorRGB
 90
        0
102
RTVSPost2010PropOp41
 70
     1
102
RTVSPost2010Prop42
 90
       50
102
RTVSPost2010PropOp42
 70
     1
102
RTVSPost2010Prop43
 90
        3
102
RTVSPost2010PropOp43
 70
     1
102
RTVSPost2010Prop44ColorIndex
 90
        5
102
RTVSPost2010Prop44ColorRGB
 90
      255
102
RTVSPost2010PropOp44
 70
     1
102
RTVSPost2010Prop45
280
     0
102
RTVSPost2010PropOp45
 70
     1
102
RTVSPost2010Prop46
 90
       50
102
RTVSPost2010PropOp46
 70
     1
102
RTVSPost2010Prop47
 90
       50
102
RTVSPost2010PropOp47
 70
     1
102
RTVSPost2010Prop48
 90
       50
102
RTVSPost2010PropOp48
 70
     1
102
RTVSPost2010Prop49
280
     0
102
RTVSPost2010PropOp49
 70
     1
102
RTVSPost2010Prop50
 90
       50
102
RTVSPost2010PropOp50
 70
     1
102
RTVSPost2010Prop51ColorIndex
 90
      256
102
RTVSPost2010Prop51ColorRGB
 90
-16777216
102
RTVSPost2010PropOp51
 70
     0
102
RTVSPost2010Prop52
140
1.0
102
RTVSPost2010PropOp52
 70
     0
102
RTVSPost2010Prop53
 90
        2
102
RTVSPost2010PropOp53
 70
     1
102
RTVSPost2010Prop54
  1
strokes_ogs.tif
102
RTVSPost2010PropOp54
 70
     1
102
RTVSPost2010Prop55
280
     0
102
RTVSPost2010PropOp55
 70
     1
102
RTVSPost2010Prop56
140
1.0
102
RTVSPost2010PropOp56
 70
     1
102
RTVSPost2010Prop57
140
1.0
102
RTVSPost2010PropOp57
 70
     1
  0
XRECORD
  5
43F
102
{ACAD_REACTORS
330
43E
102
}
330
43E
100
AcDbXrecord
280
     1
102
RTVSPropertyOp0
 70
     1
102
RTVSPropertyOp1
 70
     1
102
RTVSPropertyOp2
 70
     1
102
RTVSPropertyOp3
 70
     1
102
RTVSPropertyOp4
 70
     1
102
RTVSPropertyOp5
 70
     1
102
RTVSPropertyOp6
 70
     1
102
RTVSPropertyOp7
 70
     1
102
RTVSPropertyOp8
 70
     1
102
RTVSPropertyOp9
 70
     1
102
RTVSPropertyOp10
 70
     1
102
RTVSPropertyOp11
 70
     1
102
RTVSPropertyOp12
 70
     1
102
RTVSPropertyOp13
 70
     1
102
RTVSPropertyOp14
 70
     1
102
RTVSPropertyOp15
 70
     1
102
RTVSPropertyOp16
 70
     1
102
RTVSPropertyOp17
 70
     1
102
RTVSPropertyOp18
 70
     1
102
RTVSPropertyOp19
 70
     1
102
RTVSPropertyOp20
 70
     1
102
RTVSPropertyOp21
 70
     1
102
RTVSPropertyOp22
 70
     1
102
RTVSPropertyOp23
 70
     1
102
RTVSPropertyOp24
 70
     1
102
RTVSPropertyOp25
 70
     1
102
RTVSPropertyOp26
 70
     1
102
RTVSPropertyOp27
 70
     1
102
RTVSPropertyOp28
 70
     1
102
RTVSPropertyOp29
 70
     1
102
RTVSPropertyOp30
 70
     1
102
RTVSPropertyOp31
 70
     1
102
RTVSPropertyOp32
 70
     1
102
RTVSPropertyOp33
 70
     1
102
RTVSPropertyOp34
 70
     1
102
RTVSPropertyOp35
 70
     1
102
RTVSPropertyOp36
 70
     1
102
RTVSPropertyOp37
 70
     1
102
RTVSPropertyOp38
 70
     1
102
RTVSPropertyOp39
 70
     1
102
RTVSPropertyOp40
 70
     1
102
RTVSPropertyOp41
 70
     1
102
RTVSPropertyOp42
 70
     1
102
RTVSPropertyOp43
 70
     1
102
RTVSPropertyOp44
 70
     1
102
RTVSPropertyOp45
 70
     1
102
RTVSPropertyOp46
 70
     1
102
RTVSPropertyOp47
 70
     1
102
RTVSPropertyOp48
 70
     1
102
RTVSPropertyOp49
 70
     1
102
RTVSPropertyOp50
 70
     1
102
RTVSPropertyOp51
 70
     0
102
RTVSPropertyOp52
 70
     0
102
RTVSPropertyOp53
 70
     1
102
RTVSPropertyOp54
 70
     1
102
RTVSPropertyOp55
 70
     1
102
RTVSPropertyOp56
 70
     1
102
RTVSPropertyOp57
 70
     1
102
RTVSPost2010Prop28
280
     0
102
RTVSPost2010PropOp28
 70
     1
102
RTVSPost2010Prop29
280
     1
102
RTVSPost2010PropOp29
 70
     1
102
RTVSPost2010Prop30
280
     1
102
RTVSPost2010PropOp30
 70
     1
102
RTVSPost2010Prop31
280
     0
102
RTVSPost2010PropOp31
 70
     1
102
RTVSPost2010Prop32
280
     0
102
RTVSPost2010PropOp32
 70
     1
102
RTVSPost2010Prop33
280
     0
102
RTVSPost2010PropOp33
 70
     1
102
RTVSPost2010Prop34
280
     0
102
RTVSPost2010PropOp34
 70
     1
102
RTVSPost2010Prop35
280
     0
102
RTVSPost2010PropOp35
 70
     1
102
RTVSPost2010Prop36
280
     0
102
RTVSPost2010PropOp36
 70
     1
102
RTVSPost2010Prop37
 90
       50
102
RTVSPost2010PropOp37
 70
     1
102
RTVSPost2010Prop38
140
0.0
102
RTVSPost2010PropOp38
 70
     1
102
RTVSPost2010Prop39
140
1.0
102
RTVSPost2010PropOp39
 70
     1
102
RTVSPost2010Prop40
 90
        0
102
RTVSPost2010PropOp40
 70
     1
102
RTVSPost2010Prop41ColorIndex
 90
       18
102
RTVSPost2010Prop41ColorRGB
 90
        0
102
RTVSPost2010PropOp41
 70
     1
102
RTVSPost2010Prop42
 90
       50
102
RTVSPost2010PropOp42
 70
     1
102
RTVSPost2010Prop43
 90
        3
102
RTVSPost2010PropOp43
 70
     1
102
RTVSPost2010Prop44ColorIndex
 90
        5
102
RTVSPost2010Prop44ColorRGB
 90
      255
102
RTVSPost2010PropOp44
 70
     1
102
RTVSPost2010Prop45
280
     0
102
RTVSPost2010PropOp45
 70
     1
102
RTVSPost2010Prop46
 90
       50
102
RTVSPost2010PropOp46
 70
     1
102
RTVSPost2010Prop47
 90
       50
102
RTVSPost2010PropOp47
 70
     1
102
RTVSPost2010Prop48
 90
       50
102
RTVSPost2010PropOp48
 70
     1
102
RTVSPost2010Prop49
280
     0
102
RTVSPost2010PropOp49
 70
     1
102
RTVSPost2010Prop50
 90
       50
102
RTVSPost2010PropOp50
 70
     1
102
RTVSPost2010Prop51ColorIndex
 90
      256
102
RTVSPost2010Prop51ColorRGB
 90
-16777216
102
RTVSPost2010PropOp51
 70
     0
102
RTVSPost2010Prop52
140
1.0
102
RTVSPost2010PropOp52
 70
     0
102
RTVSPost2010Prop53
 90
        2
102
RTVSPost2010PropOp53
 70
     1
102
RTVSPost2010Prop54
  1
strokes_ogs.tif
102
RTVSPost2010PropOp54
 70
     1
102
RTVSPost2010Prop55
280
     0
102
RTVSPost2010PropOp55
 70
     1
102
RTVSPost2010Prop56
140
1.0
102
RTVSPost2010PropOp56
 70
     1
102
RTVSPost2010Prop57
140
1.0
102
RTVSPost2010PropOp57
 70
     1
  0
XRECORD
  5
441
102
{ACAD_REACTORS
330
440
102
}
330
440
100
AcDbXrecord
280
     1
102
RTVSPropertyOp0
 70
     1
102
RTVSPropertyOp1
 70
     1
102
RTVSPropertyOp2
 70
     1
102
RTVSPropertyOp3
 70
     1
102
RTVSPropertyOp4
 70
     1
102
RTVSPropertyOp5
 70
     1
102
RTVSPropertyOp6
 70
     1
102
RTVSPropertyOp7
 70
     1
102
RTVSPropertyOp8
 70
     1
102
RTVSPropertyOp9
 70
     1
102
RTVSPropertyOp10
 70
     1
102
RTVSPropertyOp11
 70
     1
102
RTVSPropertyOp12
 70
     1
102
RTVSPropertyOp13
 70
     1
102
RTVSPropertyOp14
 70
     1
102
RTVSPropertyOp15
 70
     1
102
RTVSPropertyOp16
 70
     1
102
RTVSPropertyOp17
 70
     1
102
RTVSPropertyOp18
 70
     1
102
RTVSPropertyOp19
 70
     1
102
RTVSPropertyOp20
 70
     1
102
RTVSPropertyOp21
 70
     1
102
RTVSPropertyOp22
 70
     1
102
RTVSPropertyOp23
 70
     1
102
RTVSPropertyOp24
 70
     1
102
RTVSPropertyOp25
 70
     1
102
RTVSPropertyOp26
 70
     1
102
RTVSPropertyOp27
 70
     1
102
RTVSPropertyOp28
 70
     1
102
RTVSPropertyOp29
 70
     1
102
RTVSPropertyOp30
 70
     1
102
RTVSPropertyOp31
 70
     1
102
RTVSPropertyOp32
 70
     1
102
RTVSPropertyOp33
 70
     1
102
RTVSPropertyOp34
 70
     1
102
RTVSPropertyOp35
 70
     1
102
RTVSPropertyOp36
 70
     1
102
RTVSPropertyOp37
 70
     1
102
RTVSPropertyOp38
 70
     1
102
RTVSPropertyOp39
 70
     1
102
RTVSPropertyOp40
 70
     1
102
RTVSPropertyOp41
 70
     1
102
RTVSPropertyOp42
 70
     1
102
RTVSPropertyOp43
 70
     1
102
RTVSPropertyOp44
 70
     1
102
RTVSPropertyOp45
 70
     1
102
RTVSPropertyOp46
 70
     1
102
RTVSPropertyOp47
 70
     1
102
RTVSPropertyOp48
 70
     1
102
RTVSPropertyOp49
 70
     1
102
RTVSPropertyOp50
 70
     1
102
RTVSPropertyOp51
 70
     0
102
RTVSPropertyOp52
 70
     0
102
RTVSPropertyOp53
 70
     1
102
RTVSPropertyOp54
 70
     1
102
RTVSPropertyOp55
 70
     1
102
RTVSPropertyOp56
 70
     1
102
RTVSPropertyOp57
 70
     1
102
RTVSPost2010Prop28
280
     0
102
RTVSPost2010PropOp28
 70
     1
102
RTVSPost2010Prop29
280
     1
102
RTVSPost2010PropOp29
 70
     1
102
RTVSPost2010Prop30
280
     1
102
RTVSPost2010PropOp30
 70
     1
102
RTVSPost2010Prop31
280
     0
102
RTVSPost2010PropOp31
 70
     1
102
RTVSPost2010Prop32
280
     0
102
RTVSPost2010PropOp32
 70
     1
102
RTVSPost2010Prop33
280
     0
102
RTVSPost2010PropOp33
 70
     1
102
RTVSPost2010Prop34
280
     0
102
RTVSPost2010PropOp34
 70
     1
102
RTVSPost2010Prop35
280
     0
102
RTVSPost2010PropOp35
 70
     1
102
RTVSPost2010Prop36
280
     0
102
RTVSPost2010PropOp36
 70
     1
102
RTVSPost2010Prop37
 90
       50
102
RTVSPost2010PropOp37
 70
     1
102
RTVSPost2010Prop38
140
0.0
102
RTVSPost2010PropOp38
 70
     1
102
RTVSPost2010Prop39
140
1.0
102
RTVSPost2010PropOp39
 70
     1
102
RTVSPost2010Prop40
 90
        0
102
RTVSPost2010PropOp40
 70
     1
102
RTVSPost2010Prop41ColorIndex
 90
       18
102
RTVSPost2010Prop41ColorRGB
 90
        0
102
RTVSPost2010PropOp41
 70
     1
102
RTVSPost2010Prop42
 90
       50
102
RTVSPost2010PropOp42
 70
     1
102
RTVSPost2010Prop43
 90
        3
102
RTVSPost2010PropOp43
 70
     1
102
RTVSPost2010Prop44ColorIndex
 90
        5
102
RTVSPost2010Prop44ColorRGB
 90
      255
102
RTVSPost2010PropOp44
 70
     1
102
RTVSPost2010Prop45
280
     0
102
RTVSPost2010PropOp45
 70
     1
102
RTVSPost2010Prop46
 90
       50
102
RTVSPost2010PropOp46
 70
     1
102
RTVSPost2010Prop47
 90
       50
102
RTVSPost2010PropOp47
 70
     1
102
RTVSPost2010Prop48
 90
       50
102
RTVSPost2010PropOp48
 70
     1
102
RTVSPost2010Prop49
280
     0
102
RTVSPost2010PropOp49
 70
     1
102
RTVSPost2010Prop50
 90
       50
102
RTVSPost2010PropOp50
 70
     1
102
RTVSPost2010Prop51ColorIndex
 90
      256
102
RTVSPost2010Prop51ColorRGB
 90
-16777216
102
RTVSPost2010PropOp51
 70
     0
102
RTVSPost2010Prop52
140
1.0
102
RTVSPost2010PropOp52
 70
     0
102
RTVSPost2010Prop53
 90
        2
102
RTVSPost2010PropOp53
 70
     1
102
RTVSPost2010Prop54
  1
strokes_ogs.tif
102
RTVSPost2010PropOp54
 70
     1
102
RTVSPost2010Prop55
280
     0
102
RTVSPost2010PropOp55
 70
     1
102
RTVSPost2010Prop56
140
1.0
102
RTVSPost2010PropOp56
 70
     1
102
RTVSPost2010Prop57
140
1.0
102
RTVSPost2010PropOp57
 70
     1
  0
XRECORD
  5
447
102
{ACAD_REACTORS
330
446
102
}
330
446
100
AcDbXrecord
280
     1
102
RTVSPropertyOp0
 70
     1
102
RTVSPropertyOp1
 70
     1
102
RTVSPropertyOp2
 70
     1
102
RTVSPropertyOp3
 70
     1
102
RTVSPropertyOp4
 70
     1
102
RTVSPropertyOp5
 70
     1
102
RTVSPropertyOp6
 70
     1
102
RTVSPropertyOp7
 70
     1
102
RTVSPropertyOp8
 70
     1
102
RTVSPropertyOp9
 70
     1
102
RTVSPropertyOp10
 70
     1
102
RTVSPropertyOp11
 70
     1
102
RTVSPropertyOp12
 70
     1
102
RTVSPropertyOp13
 70
     1
102
RTVSPropertyOp14
 70
     1
102
RTVSPropertyOp15
 70
     1
102
RTVSPropertyOp16
 70
     1
102
RTVSPropertyOp17
 70
     1
102
RTVSPropertyOp18
 70
     1
102
RTVSPropertyOp19
 70
     1
102
RTVSPropertyOp20
 70
     1
102
RTVSPropertyOp21
 70
     1
102
RTVSPropertyOp22
 70
     1
102
RTVSPropertyOp23
 70
     1
102
RTVSPropertyOp24
 70
     1
102
RTVSPropertyOp25
 70
     1
102
RTVSPropertyOp26
 70
     1
102
RTVSPropertyOp27
 70
     1
102
RTVSPropertyOp28
 70
     1
102
RTVSPropertyOp29
 70
     1
102
RTVSPropertyOp30
 70
     1
102
RTVSPropertyOp31
 70
     1
102
RTVSPropertyOp32
 70
     1
102
RTVSPropertyOp33
 70
     1
102
RTVSPropertyOp34
 70
     1
102
RTVSPropertyOp35
 70
     1
102
RTVSPropertyOp36
 70
     1
102
RTVSPropertyOp37
 70
     1
102
RTVSPropertyOp38
 70
     1
102
RTVSPropertyOp39
 70
     1
102
RTVSPropertyOp40
 70
     1
102
RTVSPropertyOp41
 70
     1
102
RTVSPropertyOp42
 70
     1
102
RTVSPropertyOp43
 70
     1
102
RTVSPropertyOp44
 70
     1
102
RTVSPropertyOp45
 70
     1
102
RTVSPropertyOp46
 70
     1
102
RTVSPropertyOp47
 70
     1
102
RTVSPropertyOp48
 70
     1
102
RTVSPropertyOp49
 70
     1
102
RTVSPropertyOp50
 70
     1
102
RTVSPropertyOp51
 70
     0
102
RTVSPropertyOp52
 70
     0
102
RTVSPropertyOp53
 70
     1
102
RTVSPropertyOp54
 70
     1
102
RTVSPropertyOp55
 70
     1
102
RTVSPropertyOp56
 70
     1
102
RTVSPropertyOp57
 70
     1
102
RTVSPost2010Prop28
280
     0
102
RTVSPost2010PropOp28
 70
     1
102
RTVSPost2010Prop29
280
     1
102
RTVSPost2010PropOp29
 70
     1
102
RTVSPost2010Prop30
280
     1
102
RTVSPost2010PropOp30
 70
     1
102
RTVSPost2010Prop31
280
     0
102
RTVSPost2010PropOp31
 70
     1
102
RTVSPost2010Prop32
280
     0
102
RTVSPost2010PropOp32
 70
     1
102
RTVSPost2010Prop33
280
     0
102
RTVSPost2010PropOp33
 70
     1
102
RTVSPost2010Prop34
280
     0
102
RTVSPost2010PropOp34
 70
     1
102
RTVSPost2010Prop35
280
     0
102
RTVSPost2010PropOp35
 70
     1
102
RTVSPost2010Prop36
280
     0
102
RTVSPost2010PropOp36
 70
     1
102
RTVSPost2010Prop37
 90
       50
102
RTVSPost2010PropOp37
 70
     1
102
RTVSPost2010Prop38
140
0.0
102
RTVSPost2010PropOp38
 70
     1
102
RTVSPost2010Prop39
140
1.0
102
RTVSPost2010PropOp39
 70
     1
102
RTVSPost2010Prop40
 90
        0
102
RTVSPost2010PropOp40
 70
     1
102
RTVSPost2010Prop41ColorIndex
 90
       18
102
RTVSPost2010Prop41ColorRGB
 90
        0
102
RTVSPost2010PropOp41
 70
     1
102
RTVSPost2010Prop42
 90
       50
102
RTVSPost2010PropOp42
 70
     1
102
RTVSPost2010Prop43
 90
        3
102
RTVSPost2010PropOp43
 70
     1
102
RTVSPost2010Prop44ColorIndex
 90
        5
102
RTVSPost2010Prop44ColorRGB
 90
      255
102
RTVSPost2010PropOp44
 70
     1
102
RTVSPost2010Prop45
280
     0
102
RTVSPost2010PropOp45
 70
     1
102
RTVSPost2010Prop46
 90
       50
102
RTVSPost2010PropOp46
 70
     1
102
RTVSPost2010Prop47
 90
       50
102
RTVSPost2010PropOp47
 70
     1
102
RTVSPost2010Prop48
 90
       50
102
RTVSPost2010PropOp48
 70
     1
102
RTVSPost2010Prop49
280
     0
102
RTVSPost2010PropOp49
 70
     1
102
RTVSPost2010Prop50
 90
       50
102
RTVSPost2010PropOp50
 70
     1
102
RTVSPost2010Prop51ColorIndex
 90
      256
102
RTVSPost2010Prop51ColorRGB
 90
-16777216
102
RTVSPost2010PropOp51
 70
     0
102
RTVSPost2010Prop52
140
1.0
102
RTVSPost2010PropOp52
 70
     0
102
RTVSPost2010Prop53
 90
        2
102
RTVSPost2010PropOp53
 70
     1
102
RTVSPost2010Prop54
  1
strokes_ogs.tif
102
RTVSPost2010PropOp54
 70
     1
102
RTVSPost2010Prop55
280
     0
102
RTVSPost2010PropOp55
 70
     1
102
RTVSPost2010Prop56
140
1.0
102
RTVSPost2010PropOp56
 70
     1
102
RTVSPost2010Prop57
140
1.0
102
RTVSPost2010PropOp57
 70
     1
  0
XRECORD
  5
45B
102
{ACAD_REACTORS
330
45A
102
}
330
45A
100
AcDbXrecord
280
     1
102
RTVSPropertyOp0
 70
     0
102
RTVSPropertyOp1
 70
     0
102
RTVSPropertyOp2
 70
     0
102
RTVSPropertyOp3
 70
     0
102
RTVSPropertyOp4
 70
     0
102
RTVSPropertyOp5
 70
     0
102
RTVSPropertyOp6
 70
     0
102
RTVSPropertyOp7
 70
     0
102
RTVSPropertyOp8
 70
     0
102
RTVSPropertyOp9
 70
     0
102
RTVSPropertyOp10
 70
     0
102
RTVSPropertyOp11
 70
     0
102
RTVSPropertyOp12
 70
     0
102
RTVSPropertyOp13
 70
     0
102
RTVSPropertyOp14
 70
     2
102
RTVSPropertyOp15
 70
     0
102
RTVSPropertyOp16
 70
     0
102
RTVSPropertyOp17
 70
     0
102
RTVSPropertyOp18
 70
     0
102
RTVSPropertyOp19
 70
     0
102
RTVSPropertyOp20
 70
     0
102
RTVSPropertyOp21
 70
     0
102
RTVSPropertyOp22
 70
     0
102
RTVSPropertyOp23
 70
     0
102
RTVSPropertyOp24
 70
     0
102
RTVSPropertyOp25
 70
     0
102
RTVSPropertyOp26
 70
     0
102
RTVSPropertyOp27
 70
     0
102
RTVSPropertyOp28
 70
     0
102
RTVSPropertyOp29
 70
     0
102
RTVSPropertyOp30
 70
     0
102
RTVSPropertyOp31
 70
     0
102
RTVSPropertyOp32
 70
     0
102
RTVSPropertyOp33
 70
     0
102
RTVSPropertyOp34
 70
     0
102
RTVSPropertyOp35
 70
     0
102
RTVSPropertyOp36
 70
     0
102
RTVSPropertyOp37
 70
     0
102
RTVSPropertyOp38
 70
     0
102
RTVSPropertyOp39
 70
     0
102
RTVSPropertyOp40
 70
     0
102
RTVSPropertyOp41
 70
     0
102
RTVSPropertyOp42
 70
     0
102
RTVSPropertyOp43
 70
     0
102
RTVSPropertyOp44
 70
     0
102
RTVSPropertyOp45
 70
     0
102
RTVSPropertyOp46
 70
     0
102
RTVSPropertyOp47
 70
     0
102
RTVSPropertyOp48
 70
     0
102
RTVSPropertyOp49
 70
     0
102
RTVSPropertyOp50
 70
     0
102
RTVSPropertyOp51
 70
     0
102
RTVSPropertyOp52
 70
     0
102
RTVSPropertyOp53
 70
     0
102
RTVSPropertyOp54
 70
     0
102
RTVSPropertyOp55
 70
     0
102
RTVSPropertyOp56
 70
     0
102
RTVSPropertyOp57
 70
     0
102
RTVSPost2010Prop28
280
     0
102
RTVSPost2010PropOp28
 70
     0
102
RTVSPost2010Prop29
280
     1
102
RTVSPost2010PropOp29
 70
     0
102
RTVSPost2010Prop30
280
     1
102
RTVSPost2010PropOp30
 70
     0
102
RTVSPost2010Prop31
280
     0
102
RTVSPost2010PropOp31
 70
     0
102
RTVSPost2010Prop32
280
     0
102
RTVSPost2010PropOp32
 70
     0
102
RTVSPost2010Prop33
280
     0
102
RTVSPost2010PropOp33
 70
     0
102
RTVSPost2010Prop34
280
     0
102
RTVSPost2010PropOp34
 70
     0
102
RTVSPost2010Prop35
280
     0
102
RTVSPost2010PropOp35
 70
     0
102
RTVSPost2010Prop36
280
     0
102
RTVSPost2010PropOp36
 70
     0
102
RTVSPost2010Prop37
 90
       50
102
RTVSPost2010PropOp37
 70
     0
102
RTVSPost2010Prop38
140
0.0
102
RTVSPost2010PropOp38
 70
     0
102
RTVSPost2010Prop39
140
1.0
102
RTVSPost2010PropOp39
 70
     0
102
RTVSPost2010Prop40
 90
        0
102
RTVSPost2010PropOp40
 70
     0
102
RTVSPost2010Prop41ColorIndex
 90
       18
102
RTVSPost2010Prop41ColorRGB
 90
        0
102
RTVSPost2010PropOp41
 70
     0
102
RTVSPost2010Prop42
 90
       50
102
RTVSPost2010PropOp42
 70
     0
102
RTVSPost2010Prop43
 90
        3
102
RTVSPost2010PropOp43
 70
     0
102
RTVSPost2010Prop44ColorIndex
 90
        5
102
RTVSPost2010Prop44ColorRGB
 90
      255
102
RTVSPost2010PropOp44
 70
     0
102
RTVSPost2010Prop45
280
     0
102
RTVSPost2010PropOp45
 70
     0
102
RTVSPost2010Prop46
 90
       50
102
RTVSPost2010PropOp46
 70
     0
102
RTVSPost2010Prop47
 90
       50
102
RTVSPost2010PropOp47
 70
     0
102
RTVSPost2010Prop48
 90
       50
102
RTVSPost2010PropOp48
 70
     0
102
RTVSPost2010Prop49
280
     0
102
RTVSPost2010PropOp49
 70
     0
102
RTVSPost2010Prop50
 90
       50
102
RTVSPost2010PropOp50
 70
     0
102
RTVSPost2010Prop51ColorIndex
 90
      256
102
RTVSPost2010Prop51ColorRGB
 90
-16777216
102
RTVSPost2010PropOp51
 70
     0
102
RTVSPost2010Prop52
140
1.0
102
RTVSPost2010PropOp52
 70
     0
102
RTVSPost2010Prop53
 90
        2
102
RTVSPost2010PropOp53
 70
     0
102
RTVSPost2010Prop54
  1
strokes_ogs.tif
102
RTVSPost2010PropOp54
 70
     0
102
RTVSPost2010Prop55
280
     0
102
RTVSPost2010PropOp55
 70
     0
102
RTVSPost2010Prop56
140
1.0
102
RTVSPost2010PropOp56
 70
     0
102
RTVSPost2010Prop57
140
1.0
102
RTVSPost2010PropOp57
 70
     0
  0
XRECORD
  5
455
102
{ACAD_REACTORS
330
454
102
}
330
454
100
AcDbXrecord
280
     1
102
RTVSPropertyOp0
 70
     1
102
RTVSPropertyOp1
 70
     1
102
RTVSPropertyOp2
 70
     1
102
RTVSPropertyOp3
 70
     1
102
RTVSPropertyOp4
 70
     1
102
RTVSPropertyOp5
 70
     1
102
RTVSPropertyOp6
 70
     1
102
RTVSPropertyOp7
 70
     1
102
RTVSPropertyOp8
 70
     1
102
RTVSPropertyOp9
 70
     1
102
RTVSPropertyOp10
 70
     1
102
RTVSPropertyOp11
 70
     1
102
RTVSPropertyOp12
 70
     1
102
RTVSPropertyOp13
 70
     1
102
RTVSPropertyOp14
 70
     1
102
RTVSPropertyOp15
 70
     1
102
RTVSPropertyOp16
 70
     1
102
RTVSPropertyOp17
 70
     1
102
RTVSPropertyOp18
 70
     1
102
RTVSPropertyOp19
 70
     1
102
RTVSPropertyOp20
 70
     1
102
RTVSPropertyOp21
 70
     1
102
RTVSPropertyOp22
 70
     1
102
RTVSPropertyOp23
 70
     1
102
RTVSPropertyOp24
 70
     1
102
RTVSPropertyOp25
 70
     1
102
RTVSPropertyOp26
 70
     1
102
RTVSPropertyOp27
 70
     1
102
RTVSPropertyOp28
 70
     1
102
RTVSPropertyOp29
 70
     1
102
RTVSPropertyOp30
 70
     1
102
RTVSPropertyOp31
 70
     1
102
RTVSPropertyOp32
 70
     1
102
RTVSPropertyOp33
 70
     1
102
RTVSPropertyOp34
 70
     1
102
RTVSPropertyOp35
 70
     1
102
RTVSPropertyOp36
 70
     1
102
RTVSPropertyOp37
 70
     1
102
RTVSPropertyOp38
 70
     1
102
RTVSPropertyOp39
 70
     1
102
RTVSPropertyOp40
 70
     1
102
RTVSPropertyOp41
 70
     1
102
RTVSPropertyOp42
 70
     1
102
RTVSPropertyOp43
 70
     1
102
RTVSPropertyOp44
 70
     1
102
RTVSPropertyOp45
 70
     1
102
RTVSPropertyOp46
 70
     1
102
RTVSPropertyOp47
 70
     1
102
RTVSPropertyOp48
 70
     1
102
RTVSPropertyOp49
 70
     1
102
RTVSPropertyOp50
 70
     1
102
RTVSPropertyOp51
 70
     0
102
RTVSPropertyOp52
 70
     0
102
RTVSPropertyOp53
 70
     1
102
RTVSPropertyOp54
 70
     1
102
RTVSPropertyOp55
 70
     1
102
RTVSPropertyOp56
 70
     1
102
RTVSPropertyOp57
 70
     1
102
RTVSPost2010Prop28
280
     0
102
RTVSPost2010PropOp28
 70
     1
102
RTVSPost2010Prop29
280
     1
102
RTVSPost2010PropOp29
 70
     1
102
RTVSPost2010Prop30
280
     1
102
RTVSPost2010PropOp30
 70
     1
102
RTVSPost2010Prop31
280
     0
102
RTVSPost2010PropOp31
 70
     1
102
RTVSPost2010Prop32
280
     0
102
RTVSPost2010PropOp32
 70
     1
102
RTVSPost2010Prop33
280
     0
102
RTVSPost2010PropOp33
 70
     1
102
RTVSPost2010Prop34
280
     0
102
RTVSPost2010PropOp34
 70
     1
102
RTVSPost2010Prop35
280
     0
102
RTVSPost2010PropOp35
 70
     1
102
RTVSPost2010Prop36
280
     0
102
RTVSPost2010PropOp36
 70
     1
102
RTVSPost2010Prop37
 90
       50
102
RTVSPost2010PropOp37
 70
     1
102
RTVSPost2010Prop38
140
0.0
102
RTVSPost2010PropOp38
 70
     1
102
RTVSPost2010Prop39
140
1.0
102
RTVSPost2010PropOp39
 70
     1
102
RTVSPost2010Prop40
 90
        0
102
RTVSPost2010PropOp40
 70
     1
102
RTVSPost2010Prop41ColorIndex
 90
       18
102
RTVSPost2010Prop41ColorRGB
 90
        0
102
RTVSPost2010PropOp41
 70
     1
102
RTVSPost2010Prop42
 90
       50
102
RTVSPost2010PropOp42
 70
     1
102
RTVSPost2010Prop43
 90
        3
102
RTVSPost2010PropOp43
 70
     1
102
RTVSPost2010Prop44ColorIndex
 90
        5
102
RTVSPost2010Prop44ColorRGB
 90
      255
102
RTVSPost2010PropOp44
 70
     1
102
RTVSPost2010Prop45
280
     0
102
RTVSPost2010PropOp45
 70
     1
102
RTVSPost2010Prop46
 90
       50
102
RTVSPost2010PropOp46
 70
     1
102
RTVSPost2010Prop47
 90
       50
102
RTVSPost2010PropOp47
 70
     1
102
RTVSPost2010Prop48
 90
       50
102
RTVSPost2010PropOp48
 70
     1
102
RTVSPost2010Prop49
280
     0
102
RTVSPost2010PropOp49
 70
     1
102
RTVSPost2010Prop50
 90
       50
102
RTVSPost2010PropOp50
 70
     1
102
RTVSPost2010Prop51ColorIndex
 90
      256
102
RTVSPost2010Prop51ColorRGB
 90
-16777216
102
RTVSPost2010PropOp51
 70
     0
102
RTVSPost2010Prop52
140
1.0
102
RTVSPost2010PropOp52
 70
     0
102
RTVSPost2010Prop53
 90
        2
102
RTVSPost2010PropOp53
 70
     1
102
RTVSPost2010Prop54
  1
strokes_ogs.tif
102
RTVSPost2010PropOp54
 70
     1
102
RTVSPost2010Prop55
280
     0
102
RTVSPost2010PropOp55
 70
     1
102
RTVSPost2010Prop56
140
1.0
102
RTVSPost2010PropOp56
 70
     1
102
RTVSPost2010Prop57
140
1.0
102
RTVSPost2010PropOp57
 70
     1
  0
XRECORD
  5
45D
102
{ACAD_REACTORS
330
45C
102
}
330
45C
100
AcDbXrecord
280
     1
102
RTVSPropertyOp0
 70
     0
102
RTVSPropertyOp1
 70
     0
102
RTVSPropertyOp2
 70
     0
102
RTVSPropertyOp3
 70
     0
102
RTVSPropertyOp4
 70
     0
102
RTVSPropertyOp5
 70
     0
102
RTVSPropertyOp6
 70
     0
102
RTVSPropertyOp7
 70
     0
102
RTVSPropertyOp8
 70
     0
102
RTVSPropertyOp9
 70
     0
102
RTVSPropertyOp10
 70
     0
102
RTVSPropertyOp11
 70
     0
102
RTVSPropertyOp12
 70
     0
102
RTVSPropertyOp13
 70
     0
102
RTVSPropertyOp14
 70
     2
102
RTVSPropertyOp15
 70
     0
102
RTVSPropertyOp16
 70
     0
102
RTVSPropertyOp17
 70
     0
102
RTVSPropertyOp18
 70
     0
102
RTVSPropertyOp19
 70
     0
102
RTVSPropertyOp20
 70
     0
102
RTVSPropertyOp21
 70
     0
102
RTVSPropertyOp22
 70
     0
102
RTVSPropertyOp23
 70
     0
102
RTVSPropertyOp24
 70
     0
102
RTVSPropertyOp25
 70
     0
102
RTVSPropertyOp26
 70
     0
102
RTVSPropertyOp27
 70
     0
102
RTVSPropertyOp28
 70
     0
102
RTVSPropertyOp29
 70
     0
102
RTVSPropertyOp30
 70
     0
102
RTVSPropertyOp31
 70
     0
102
RTVSPropertyOp32
 70
     0
102
RTVSPropertyOp33
 70
     0
102
RTVSPropertyOp34
 70
     0
102
RTVSPropertyOp35
 70
     0
102
RTVSPropertyOp36
 70
     0
102
RTVSPropertyOp37
 70
     0
102
RTVSPropertyOp38
 70
     0
102
RTVSPropertyOp39
 70
     0
102
RTVSPropertyOp40
 70
     0
102
RTVSPropertyOp41
 70
     0
102
RTVSPropertyOp42
 70
     0
102
RTVSPropertyOp43
 70
     0
102
RTVSPropertyOp44
 70
     0
102
RTVSPropertyOp45
 70
     0
102
RTVSPropertyOp46
 70
     0
102
RTVSPropertyOp47
 70
     0
102
RTVSPropertyOp48
 70
     0
102
RTVSPropertyOp49
 70
     0
102
RTVSPropertyOp50
 70
     0
102
RTVSPropertyOp51
 70
     0
102
RTVSPropertyOp52
 70
     0
102
RTVSPropertyOp53
 70
     0
102
RTVSPropertyOp54
 70
     0
102
RTVSPropertyOp55
 70
     0
102
RTVSPropertyOp56
 70
     0
102
RTVSPropertyOp57
 70
     0
102
RTVSPost2010Prop28
280
     0
102
RTVSPost2010PropOp28
 70
     0
102
RTVSPost2010Prop29
280
     1
102
RTVSPost2010PropOp29
 70
     0
102
RTVSPost2010Prop30
280
     1
102
RTVSPost2010PropOp30
 70
     0
102
RTVSPost2010Prop31
280
     0
102
RTVSPost2010PropOp31
 70
     0
102
RTVSPost2010Prop32
280
     0
102
RTVSPost2010PropOp32
 70
     0
102
RTVSPost2010Prop33
280
     0
102
RTVSPost2010PropOp33
 70
     0
102
RTVSPost2010Prop34
280
     0
102
RTVSPost2010PropOp34
 70
     0
102
RTVSPost2010Prop35
280
     0
102
RTVSPost2010PropOp35
 70
     0
102
RTVSPost2010Prop36
280
     0
102
RTVSPost2010PropOp36
 70
     0
102
RTVSPost2010Prop37
 90
       50
102
RTVSPost2010PropOp37
 70
     0
102
RTVSPost2010Prop38
140
0.0
102
RTVSPost2010PropOp38
 70
     0
102
RTVSPost2010Prop39
140
1.0
102
RTVSPost2010PropOp39
 70
     0
102
RTVSPost2010Prop40
 90
        0
102
RTVSPost2010PropOp40
 70
     0
102
RTVSPost2010Prop41ColorIndex
 90
       18
102
RTVSPost2010Prop41ColorRGB
 90
        0
102
RTVSPost2010PropOp41
 70
     0
102
RTVSPost2010Prop42
 90
       50
102
RTVSPost2010PropOp42
 70
     0
102
RTVSPost2010Prop43
 90
        3
102
RTVSPost2010PropOp43
 70
     0
102
RTVSPost2010Prop44ColorIndex
 90
        5
102
RTVSPost2010Prop44ColorRGB
 90
      255
102
RTVSPost2010PropOp44
 70
     0
102
RTVSPost2010Prop45
280
     0
102
RTVSPost2010PropOp45
 70
     0
102
RTVSPost2010Prop46
 90
       50
102
RTVSPost2010PropOp46
 70
     0
102
RTVSPost2010Prop47
 90
       50
102
RTVSPost2010PropOp47
 70
     0
102
RTVSPost2010Prop48
 90
       50
102
RTVSPost2010PropOp48
 70
     0
102
RTVSPost2010Prop49
280
     0
102
RTVSPost2010PropOp49
 70
     0
102
RTVSPost2010Prop50
 90
       50
102
RTVSPost2010PropOp50
 70
     0
102
RTVSPost2010Prop51ColorIndex
 90
      256
102
RTVSPost2010Prop51ColorRGB
 90
-16777216
102
RTVSPost2010PropOp51
 70
     0
102
RTVSPost2010Prop52
140
1.0
102
RTVSPost2010PropOp52
 70
     0
102
RTVSPost2010Prop53
 90
        2
102
RTVSPost2010PropOp53
 70
     0
102
RTVSPost2010Prop54
  1
strokes_ogs.tif
102
RTVSPost2010PropOp54
 70
     0
102
RTVSPost2010Prop55
280
     0
102
RTVSPost2010PropOp55
 70
     0
102
RTVSPost2010Prop56
140
1.0
102
RTVSPost2010PropOp56
 70
     0
102
RTVSPost2010Prop57
140
1.0
102
RTVSPost2010PropOp57
 70
     0
  0
XRECORD
  5
44B
102
{ACAD_REACTORS
330
44A
102
}
330
44A
100
AcDbXrecord
280
     1
102
RTVSPropertyOp0
 70
     1
102
RTVSPropertyOp1
 70
     1
102
RTVSPropertyOp2
 70
     1
102
RTVSPropertyOp3
 70
     1
102
RTVSPropertyOp4
 70
     1
102
RTVSPropertyOp5
 70
     1
102
RTVSPropertyOp6
 70
     1
102
RTVSPropertyOp7
 70
     1
102
RTVSPropertyOp8
 70
     1
102
RTVSPropertyOp9
 70
     1
102
RTVSPropertyOp10
 70
     1
102
RTVSPropertyOp11
 70
     1
102
RTVSPropertyOp12
 70
     1
102
RTVSPropertyOp13
 70
     1
102
RTVSPropertyOp14
 70
     1
102
RTVSPropertyOp15
 70
     1
102
RTVSPropertyOp16
 70
     1
102
RTVSPropertyOp17
 70
     1
102
RTVSPropertyOp18
 70
     1
102
RTVSPropertyOp19
 70
     1
102
RTVSPropertyOp20
 70
     1
102
RTVSPropertyOp21
 70
     1
102
RTVSPropertyOp22
 70
     1
102
RTVSPropertyOp23
 70
     1
102
RTVSPropertyOp24
 70
     1
102
RTVSPropertyOp25
 70
     1
102
RTVSPropertyOp26
 70
     1
102
RTVSPropertyOp27
 70
     1
102
RTVSPropertyOp28
 70
     1
102
RTVSPropertyOp29
 70
     1
102
RTVSPropertyOp30
 70
     1
102
RTVSPropertyOp31
 70
     1
102
RTVSPropertyOp32
 70
     1
102
RTVSPropertyOp33
 70
     1
102
RTVSPropertyOp34
 70
     1
102
RTVSPropertyOp35
 70
     1
102
RTVSPropertyOp36
 70
     1
102
RTVSPropertyOp37
 70
     1
102
RTVSPropertyOp38
 70
     1
102
RTVSPropertyOp39
 70
     1
102
RTVSPropertyOp40
 70
     1
102
RTVSPropertyOp41
 70
     1
102
RTVSPropertyOp42
 70
     1
102
RTVSPropertyOp43
 70
     1
102
RTVSPropertyOp44
 70
     1
102
RTVSPropertyOp45
 70
     1
102
RTVSPropertyOp46
 70
     1
102
RTVSPropertyOp47
 70
     1
102
RTVSPropertyOp48
 70
     1
102
RTVSPropertyOp49
 70
     1
102
RTVSPropertyOp50
 70
     1
102
RTVSPropertyOp51
 70
     0
102
RTVSPropertyOp52
 70
     0
102
RTVSPropertyOp53
 70
     1
102
RTVSPropertyOp54
 70
     1
102
RTVSPropertyOp55
 70
     1
102
RTVSPropertyOp56
 70
     1
102
RTVSPropertyOp57
 70
     1
102
RTVSPost2010Prop28
280
     0
102
RTVSPost2010PropOp28
 70
     1
102
RTVSPost2010Prop29
280
     1
102
RTVSPost2010PropOp29
 70
     1
102
RTVSPost2010Prop30
280
     1
102
RTVSPost2010PropOp30
 70
     1
102
RTVSPost2010Prop31
280
     0
102
RTVSPost2010PropOp31
 70
     1
102
RTVSPost2010Prop32
280
     0
102
RTVSPost2010PropOp32
 70
     1
102
RTVSPost2010Prop33
280
     0
102
RTVSPost2010PropOp33
 70
     1
102
RTVSPost2010Prop34
280
     0
102
RTVSPost2010PropOp34
 70
     1
102
RTVSPost2010Prop35
280
     0
102
RTVSPost2010PropOp35
 70
     1
102
RTVSPost2010Prop36
280
     0
102
RTVSPost2010PropOp36
 70
     1
102
RTVSPost2010Prop37
 90
       50
102
RTVSPost2010PropOp37
 70
     1
102
RTVSPost2010Prop38
140
0.0
102
RTVSPost2010PropOp38
 70
     1
102
RTVSPost2010Prop39
140
1.0
102
RTVSPost2010PropOp39
 70
     1
102
RTVSPost2010Prop40
 90
        0
102
RTVSPost2010PropOp40
 70
     1
102
RTVSPost2010Prop41ColorIndex
 90
       18
102
RTVSPost2010Prop41ColorRGB
 90
        0
102
RTVSPost2010PropOp41
 70
     1
102
RTVSPost2010Prop42
 90
       50
102
RTVSPost2010PropOp42
 70
     1
102
RTVSPost2010Prop43
 90
        3
102
RTVSPost2010PropOp43
 70
     1
102
RTVSPost2010Prop44ColorIndex
 90
        5
102
RTVSPost2010Prop44ColorRGB
 90
      255
102
RTVSPost2010PropOp44
 70
     1
102
RTVSPost2010Prop45
280
     0
102
RTVSPost2010PropOp45
 70
     1
102
RTVSPost2010Prop46
 90
       50
102
RTVSPost2010PropOp46
 70
     1
102
RTVSPost2010Prop47
 90
       50
102
RTVSPost2010PropOp47
 70
     1
102
RTVSPost2010Prop48
 90
       50
102
RTVSPost2010PropOp48
 70
     1
102
RTVSPost2010Prop49
280
     0
102
RTVSPost2010PropOp49
 70
     1
102
RTVSPost2010Prop50
 90
       50
102
RTVSPost2010PropOp50
 70
     1
102
RTVSPost2010Prop51ColorIndex
 90
      256
102
RTVSPost2010Prop51ColorRGB
 90
-16777216
102
RTVSPost2010PropOp51
 70
     0
102
RTVSPost2010Prop52
140
1.0
102
RTVSPost2010PropOp52
 70
     0
102
RTVSPost2010Prop53
 90
        2
102
RTVSPost2010PropOp53
 70
     1
102
RTVSPost2010Prop54
  1
strokes_ogs.tif
102
RTVSPost2010PropOp54
 70
     1
102
RTVSPost2010Prop55
280
     0
102
RTVSPost2010PropOp55
 70
     1
102
RTVSPost2010Prop56
140
1.0
102
RTVSPost2010PropOp56
 70
     1
102
RTVSPost2010Prop57
140
1.0
102
RTVSPost2010PropOp57
 70
     1
  0
XRECORD
  5
469
102
{ACAD_REACTORS
330
468
102
}
330
468
100
AcDbXrecord
280
     1
102
RTVSPropertyOp0
 70
     1
102
RTVSPropertyOp1
 70
     1
102
RTVSPropertyOp2
 70
     1
102
RTVSPropertyOp3
 70
     1
102
RTVSPropertyOp4
 70
     1
102
RTVSPropertyOp5
 70
     1
102
RTVSPropertyOp6
 70
     1
102
RTVSPropertyOp7
 70
     1
102
RTVSPropertyOp8
 70
     1
102
RTVSPropertyOp9
 70
     1
102
RTVSPropertyOp10
 70
     1
102
RTVSPropertyOp11
 70
     1
102
RTVSPropertyOp12
 70
     1
102
RTVSPropertyOp13
 70
     1
102
RTVSPropertyOp14
 70
     1
102
RTVSPropertyOp15
 70
     1
102
RTVSPropertyOp16
 70
     1
102
RTVSPropertyOp17
 70
     1
102
RTVSPropertyOp18
 70
     1
102
RTVSPropertyOp19
 70
     1
102
RTVSPropertyOp20
 70
     1
102
RTVSPropertyOp21
 70
     1
102
RTVSPropertyOp22
 70
     1
102
RTVSPropertyOp23
 70
     1
102
RTVSPropertyOp24
 70
     1
102
RTVSPropertyOp25
 70
     1
102
RTVSPropertyOp26
 70
     1
102
RTVSPropertyOp27
 70
     1
102
RTVSPropertyOp28
 70
     1
102
RTVSPropertyOp29
 70
     1
102
RTVSPropertyOp30
 70
     1
102
RTVSPropertyOp31
 70
     1
102
RTVSPropertyOp32
 70
     1
102
RTVSPropertyOp33
 70
     1
102
RTVSPropertyOp34
 70
     1
102
RTVSPropertyOp35
 70
     1
102
RTVSPropertyOp36
 70
     1
102
RTVSPropertyOp37
 70
     1
102
RTVSPropertyOp38
 70
     1
102
RTVSPropertyOp39
 70
     1
102
RTVSPropertyOp40
 70
     1
102
RTVSPropertyOp41
 70
     1
102
RTVSPropertyOp42
 70
     1
102
RTVSPropertyOp43
 70
     1
102
RTVSPropertyOp44
 70
     1
102
RTVSPropertyOp45
 70
     1
102
RTVSPropertyOp46
 70
     1
102
RTVSPropertyOp47
 70
     1
102
RTVSPropertyOp48
 70
     1
102
RTVSPropertyOp49
 70
     1
102
RTVSPropertyOp50
 70
     1
102
RTVSPropertyOp51
 70
     0
102
RTVSPropertyOp52
 70
     0
102
RTVSPropertyOp53
 70
     1
102
RTVSPropertyOp54
 70
     1
102
RTVSPropertyOp55
 70
     1
102
RTVSPropertyOp56
 70
     1
102
RTVSPropertyOp57
 70
     1
102
RTVSPost2010Prop28
280
     0
102
RTVSPost2010PropOp28
 70
     1
102
RTVSPost2010Prop29
280
     1
102
RTVSPost2010PropOp29
 70
     1
102
RTVSPost2010Prop30
280
     1
102
RTVSPost2010PropOp30
 70
     1
102
RTVSPost2010Prop31
280
     0
102
RTVSPost2010PropOp31
 70
     1
102
RTVSPost2010Prop32
280
     0
102
RTVSPost2010PropOp32
 70
     1
102
RTVSPost2010Prop33
280
     0
102
RTVSPost2010PropOp33
 70
     1
102
RTVSPost2010Prop34
280
     0
102
RTVSPost2010PropOp34
 70
     1
102
RTVSPost2010Prop35
280
     0
102
RTVSPost2010PropOp35
 70
     1
102
RTVSPost2010Prop36
280
     0
102
RTVSPost2010PropOp36
 70
     1
102
RTVSPost2010Prop37
 90
       50
102
RTVSPost2010PropOp37
 70
     1
102
RTVSPost2010Prop38
140
0.0
102
RTVSPost2010PropOp38
 70
     1
102
RTVSPost2010Prop39
140
1.0
102
RTVSPost2010PropOp39
 70
     1
102
RTVSPost2010Prop40
 90
        0
102
RTVSPost2010PropOp40
 70
     1
102
RTVSPost2010Prop41ColorIndex
 90
       18
102
RTVSPost2010Prop41ColorRGB
 90
        0
102
RTVSPost2010PropOp41
 70
     1
102
RTVSPost2010Prop42
 90
       50
102
RTVSPost2010PropOp42
 70
     1
102
RTVSPost2010Prop43
 90
        3
102
RTVSPost2010PropOp43
 70
     1
102
RTVSPost2010Prop44ColorIndex
 90
        5
102
RTVSPost2010Prop44ColorRGB
 90
      255
102
RTVSPost2010PropOp44
 70
     1
102
RTVSPost2010Prop45
280
     0
102
RTVSPost2010PropOp45
 70
     1
102
RTVSPost2010Prop46
 90
       50
102
RTVSPost2010PropOp46
 70
     1
102
RTVSPost2010Prop47
 90
       50
102
RTVSPost2010PropOp47
 70
     1
102
RTVSPost2010Prop48
 90
       50
102
RTVSPost2010PropOp48
 70
     1
102
RTVSPost2010Prop49
280
     0
102
RTVSPost2010PropOp49
 70
     1
102
RTVSPost2010Prop50
 90
       50
102
RTVSPost2010PropOp50
 70
     1
102
RTVSPost2010Prop51ColorIndex
 90
      256
102
RTVSPost2010Prop51ColorRGB
 90
-16777216
102
RTVSPost2010PropOp51
 70
     0
102
RTVSPost2010Prop52
140
1.0
102
RTVSPost2010PropOp52
 70
     0
102
RTVSPost2010Prop53
 90
        2
102
RTVSPost2010PropOp53
 70
     1
102
RTVSPost2010Prop54
  1
strokes_ogs.tif
102
RTVSPost2010PropOp54
 70
     1
102
RTVSPost2010Prop55
280
     0
102
RTVSPost2010PropOp55
 70
     1
102
RTVSPost2010Prop56
140
1.0
102
RTVSPost2010PropOp56
 70
     1
102
RTVSPost2010Prop57
140
1.0
102
RTVSPost2010PropOp57
 70
     1
  0
XRECORD
  5
467
102
{ACAD_REACTORS
330
466
102
}
330
466
100
AcDbXrecord
280
     1
102
RTVSPropertyOp0
 70
     1
102
RTVSPropertyOp1
 70
     1
102
RTVSPropertyOp2
 70
     1
102
RTVSPropertyOp3
 70
     1
102
RTVSPropertyOp4
 70
     1
102
RTVSPropertyOp5
 70
     1
102
RTVSPropertyOp6
 70
     1
102
RTVSPropertyOp7
 70
     1
102
RTVSPropertyOp8
 70
     1
102
RTVSPropertyOp9
 70
     1
102
RTVSPropertyOp10
 70
     1
102
RTVSPropertyOp11
 70
     1
102
RTVSPropertyOp12
 70
     1
102
RTVSPropertyOp13
 70
     1
102
RTVSPropertyOp14
 70
     1
102
RTVSPropertyOp15
 70
     1
102
RTVSPropertyOp16
 70
     1
102
RTVSPropertyOp17
 70
     1
102
RTVSPropertyOp18
 70
     1
102
RTVSPropertyOp19
 70
     1
102
RTVSPropertyOp20
 70
     1
102
RTVSPropertyOp21
 70
     1
102
RTVSPropertyOp22
 70
     1
102
RTVSPropertyOp23
 70
     1
102
RTVSPropertyOp24
 70
     1
102
RTVSPropertyOp25
 70
     1
102
RTVSPropertyOp26
 70
     1
102
RTVSPropertyOp27
 70
     1
102
RTVSPropertyOp28
 70
     1
102
RTVSPropertyOp29
 70
     1
102
RTVSPropertyOp30
 70
     1
102
RTVSPropertyOp31
 70
     1
102
RTVSPropertyOp32
 70
     1
102
RTVSPropertyOp33
 70
     1
102
RTVSPropertyOp34
 70
     1
102
RTVSPropertyOp35
 70
     1
102
RTVSPropertyOp36
 70
     1
102
RTVSPropertyOp37
 70
     1
102
RTVSPropertyOp38
 70
     1
102
RTVSPropertyOp39
 70
     1
102
RTVSPropertyOp40
 70
     1
102
RTVSPropertyOp41
 70
     1
102
RTVSPropertyOp42
 70
     1
102
RTVSPropertyOp43
 70
     1
102
RTVSPropertyOp44
 70
     1
102
RTVSPropertyOp45
 70
     1
102
RTVSPropertyOp46
 70
     1
102
RTVSPropertyOp47
 70
     1
102
RTVSPropertyOp48
 70
     1
102
RTVSPropertyOp49
 70
     1
102
RTVSPropertyOp50
 70
     1
102
RTVSPropertyOp51
 70
     0
102
RTVSPropertyOp52
 70
     0
102
RTVSPropertyOp53
 70
     1
102
RTVSPropertyOp54
 70
     1
102
RTVSPropertyOp55
 70
     1
102
RTVSPropertyOp56
 70
     1
102
RTVSPropertyOp57
 70
     1
102
RTVSPost2010Prop28
280
     0
102
RTVSPost2010PropOp28
 70
     1
102
RTVSPost2010Prop29
280
     1
102
RTVSPost2010PropOp29
 70
     1
102
RTVSPost2010Prop30
280
     1
102
RTVSPost2010PropOp30
 70
     1
102
RTVSPost2010Prop31
280
     0
102
RTVSPost2010PropOp31
 70
     1
102
RTVSPost2010Prop32
280
     0
102
RTVSPost2010PropOp32
 70
     1
102
RTVSPost2010Prop33
280
     0
102
RTVSPost2010PropOp33
 70
     1
102
RTVSPost2010Prop34
280
     0
102
RTVSPost2010PropOp34
 70
     1
102
RTVSPost2010Prop35
280
     0
102
RTVSPost2010PropOp35
 70
     1
102
RTVSPost2010Prop36
280
     0
102
RTVSPost2010PropOp36
 70
     1
102
RTVSPost2010Prop37
 90
       50
102
RTVSPost2010PropOp37
 70
     1
102
RTVSPost2010Prop38
140
0.0
102
RTVSPost2010PropOp38
 70
     1
102
RTVSPost2010Prop39
140
1.0
102
RTVSPost2010PropOp39
 70
     1
102
RTVSPost2010Prop40
 90
        0
102
RTVSPost2010PropOp40
 70
     1
102
RTVSPost2010Prop41ColorIndex
 90
       18
102
RTVSPost2010Prop41ColorRGB
 90
        0
102
RTVSPost2010PropOp41
 70
     1
102
RTVSPost2010Prop42
 90
       50
102
RTVSPost2010PropOp42
 70
     1
102
RTVSPost2010Prop43
 90
        3
102
RTVSPost2010PropOp43
 70
     1
102
RTVSPost2010Prop44ColorIndex
 90
        5
102
RTVSPost2010Prop44ColorRGB
 90
      255
102
RTVSPost2010PropOp44
 70
     1
102
RTVSPost2010Prop45
280
     0
102
RTVSPost2010PropOp45
 70
     1
102
RTVSPost2010Prop46
 90
       50
102
RTVSPost2010PropOp46
 70
     1
102
RTVSPost2010Prop47
 90
       50
102
RTVSPost2010PropOp47
 70
     1
102
RTVSPost2010Prop48
 90
       50
102
RTVSPost2010PropOp48
 70
     1
102
RTVSPost2010Prop49
280
     0
102
RTVSPost2010PropOp49
 70
     1
102
RTVSPost2010Prop50
 90
       50
102
RTVSPost2010PropOp50
 70
     1
102
RTVSPost2010Prop51ColorIndex
 90
      256
102
RTVSPost2010Prop51ColorRGB
 90
-16777216
102
RTVSPost2010PropOp51
 70
     0
102
RTVSPost2010Prop52
140
1.0
102
RTVSPost2010PropOp52
 70
     0
102
RTVSPost2010Prop53
 90
        2
102
RTVSPost2010PropOp53
 70
     1
102
RTVSPost2010Prop54
  1
strokes_ogs.tif
102
RTVSPost2010PropOp54
 70
     1
102
RTVSPost2010Prop55
280
     0
102
RTVSPost2010PropOp55
 70
     1
102
RTVSPost2010Prop56
140
1.0
102
RTVSPost2010PropOp56
 70
     1
102
RTVSPost2010Prop57
140
1.0
102
RTVSPost2010PropOp57
 70
     1
  0
XRECORD
  5
461
102
{ACAD_REACTORS
330
460
102
}
330
460
100
AcDbXrecord
280
     1
102
RTVSPropertyOp0
 70
     1
102
RTVSPropertyOp1
 70
     1
102
RTVSPropertyOp2
 70
     1
102
RTVSPropertyOp3
 70
     1
102
RTVSPropertyOp4
 70
     1
102
RTVSPropertyOp5
 70
     1
102
RTVSPropertyOp6
 70
     1
102
RTVSPropertyOp7
 70
     1
102
RTVSPropertyOp8
 70
     1
102
RTVSPropertyOp9
 70
     1
102
RTVSPropertyOp10
 70
     1
102
RTVSPropertyOp11
 70
     1
102
RTVSPropertyOp12
 70
     1
102
RTVSPropertyOp13
 70
     1
102
RTVSPropertyOp14
 70
     1
102
RTVSPropertyOp15
 70
     1
102
RTVSPropertyOp16
 70
     1
102
RTVSPropertyOp17
 70
     1
102
RTVSPropertyOp18
 70
     1
102
RTVSPropertyOp19
 70
     1
102
RTVSPropertyOp20
 70
     1
102
RTVSPropertyOp21
 70
     1
102
RTVSPropertyOp22
 70
     1
102
RTVSPropertyOp23
 70
     1
102
RTVSPropertyOp24
 70
     1
102
RTVSPropertyOp25
 70
     1
102
RTVSPropertyOp26
 70
     1
102
RTVSPropertyOp27
 70
     1
102
RTVSPropertyOp28
 70
     1
102
RTVSPropertyOp29
 70
     1
102
RTVSPropertyOp30
 70
     1
102
RTVSPropertyOp31
 70
     1
102
RTVSPropertyOp32
 70
     1
102
RTVSPropertyOp33
 70
     1
102
RTVSPropertyOp34
 70
     1
102
RTVSPropertyOp35
 70
     1
102
RTVSPropertyOp36
 70
     1
102
RTVSPropertyOp37
 70
     1
102
RTVSPropertyOp38
 70
     1
102
RTVSPropertyOp39
 70
     1
102
RTVSPropertyOp40
 70
     1
102
RTVSPropertyOp41
 70
     1
102
RTVSPropertyOp42
 70
     1
102
RTVSPropertyOp43
 70
     1
102
RTVSPropertyOp44
 70
     1
102
RTVSPropertyOp45
 70
     1
102
RTVSPropertyOp46
 70
     1
102
RTVSPropertyOp47
 70
     1
102
RTVSPropertyOp48
 70
     1
102
RTVSPropertyOp49
 70
     1
102
RTVSPropertyOp50
 70
     1
102
RTVSPropertyOp51
 70
     0
102
RTVSPropertyOp52
 70
     0
102
RTVSPropertyOp53
 70
     1
102
RTVSPropertyOp54
 70
     1
102
RTVSPropertyOp55
 70
     1
102
RTVSPropertyOp56
 70
     1
102
RTVSPropertyOp57
 70
     1
102
RTVSPost2010Prop28
280
     0
102
RTVSPost2010PropOp28
 70
     1
102
RTVSPost2010Prop29
280
     1
102
RTVSPost2010PropOp29
 70
     1
102
RTVSPost2010Prop30
280
     1
102
RTVSPost2010PropOp30
 70
     1
102
RTVSPost2010Prop31
280
     0
102
RTVSPost2010PropOp31
 70
     1
102
RTVSPost2010Prop32
280
     0
102
RTVSPost2010PropOp32
 70
     1
102
RTVSPost2010Prop33
280
     0
102
RTVSPost2010PropOp33
 70
     1
102
RTVSPost2010Prop34
280
     0
102
RTVSPost2010PropOp34
 70
     1
102
RTVSPost2010Prop35
280
     0
102
RTVSPost2010PropOp35
 70
     1
102
RTVSPost2010Prop36
280
     0
102
RTVSPost2010PropOp36
 70
     1
102
RTVSPost2010Prop37
 90
       50
102
RTVSPost2010PropOp37
 70
     1
102
RTVSPost2010Prop38
140
0.0
102
RTVSPost2010PropOp38
 70
     1
102
RTVSPost2010Prop39
140
1.0
102
RTVSPost2010PropOp39
 70
     1
102
RTVSPost2010Prop40
 90
        0
102
RTVSPost2010PropOp40
 70
     1
102
RTVSPost2010Prop41ColorIndex
 90
       18
102
RTVSPost2010Prop41ColorRGB
 90
        0
102
RTVSPost2010PropOp41
 70
     1
102
RTVSPost2010Prop42
 90
       50
102
RTVSPost2010PropOp42
 70
     1
102
RTVSPost2010Prop43
 90
        3
102
RTVSPost2010PropOp43
 70
     1
102
RTVSPost2010Prop44ColorIndex
 90
        5
102
RTVSPost2010Prop44ColorRGB
 90
      255
102
RTVSPost2010PropOp44
 70
     1
102
RTVSPost2010Prop45
280
     0
102
RTVSPost2010PropOp45
 70
     1
102
RTVSPost2010Prop46
 90
       50
102
RTVSPost2010PropOp46
 70
     1
102
RTVSPost2010Prop47
 90
       50
102
RTVSPost2010PropOp47
 70
     1
102
RTVSPost2010Prop48
 90
       50
102
RTVSPost2010PropOp48
 70
     1
102
RTVSPost2010Prop49
280
     0
102
RTVSPost2010PropOp49
 70
     1
102
RTVSPost2010Prop50
 90
       50
102
RTVSPost2010PropOp50
 70
     1
102
RTVSPost2010Prop51ColorIndex
 90
      256
102
RTVSPost2010Prop51ColorRGB
 90
-16777216
102
RTVSPost2010PropOp51
 70
     0
102
RTVSPost2010Prop52
140
1.0
102
RTVSPost2010PropOp52
 70
     0
102
RTVSPost2010Prop53
 90
        2
102
RTVSPost2010PropOp53
 70
     1
102
RTVSPost2010Prop54
  1
strokes_ogs.tif
102
RTVSPost2010PropOp54
 70
     1
102
RTVSPost2010Prop55
280
     0
102
RTVSPost2010PropOp55
 70
     1
102
RTVSPost2010Prop56
140
1.0
102
RTVSPost2010PropOp56
 70
     1
102
RTVSPost2010Prop57
140
1.0
102
RTVSPost2010PropOp57
 70
     1
  0
XRECORD
  5
463
102
{ACAD_REACTORS
330
462
102
}
330
462
100
AcDbXrecord
280
     1
102
RTVSPropertyOp0
 70
     1
102
RTVSPropertyOp1
 70
     1
102
RTVSPropertyOp2
 70
     1
102
RTVSPropertyOp3
 70
     1
102
RTVSPropertyOp4
 70
     1
102
RTVSPropertyOp5
 70
     1
102
RTVSPropertyOp6
 70
     1
102
RTVSPropertyOp7
 70
     1
102
RTVSPropertyOp8
 70
     1
102
RTVSPropertyOp9
 70
     1
102
RTVSPropertyOp10
 70
     1
102
RTVSPropertyOp11
 70
     1
102
RTVSPropertyOp12
 70
     1
102
RTVSPropertyOp13
 70
     1
102
RTVSPropertyOp14
 70
     1
102
RTVSPropertyOp15
 70
     1
102
RTVSPropertyOp16
 70
     1
102
RTVSPropertyOp17
 70
     1
102
RTVSPropertyOp18
 70
     1
102
RTVSPropertyOp19
 70
     1
102
RTVSPropertyOp20
 70
     1
102
RTVSPropertyOp21
 70
     1
102
RTVSPropertyOp22
 70
     1
102
RTVSPropertyOp23
 70
     1
102
RTVSPropertyOp24
 70
     1
102
RTVSPropertyOp25
 70
     1
102
RTVSPropertyOp26
 70
     1
102
RTVSPropertyOp27
 70
     1
102
RTVSPropertyOp28
 70
     1
102
RTVSPropertyOp29
 70
     1
102
RTVSPropertyOp30
 70
     1
102
RTVSPropertyOp31
 70
     1
102
RTVSPropertyOp32
 70
     1
102
RTVSPropertyOp33
 70
     1
102
RTVSPropertyOp34
 70
     1
102
RTVSPropertyOp35
 70
     1
102
RTVSPropertyOp36
 70
     1
102
RTVSPropertyOp37
 70
     1
102
RTVSPropertyOp38
 70
     1
102
RTVSPropertyOp39
 70
     1
102
RTVSPropertyOp40
 70
     1
102
RTVSPropertyOp41
 70
     1
102
RTVSPropertyOp42
 70
     1
102
RTVSPropertyOp43
 70
     1
102
RTVSPropertyOp44
 70
     1
102
RTVSPropertyOp45
 70
     1
102
RTVSPropertyOp46
 70
     1
102
RTVSPropertyOp47
 70
     1
102
RTVSPropertyOp48
 70
     1
102
RTVSPropertyOp49
 70
     1
102
RTVSPropertyOp50
 70
     1
102
RTVSPropertyOp51
 70
     0
102
RTVSPropertyOp52
 70
     0
102
RTVSPropertyOp53
 70
     1
102
RTVSPropertyOp54
 70
     1
102
RTVSPropertyOp55
 70
     1
102
RTVSPropertyOp56
 70
     1
102
RTVSPropertyOp57
 70
     1
102
RTVSPost2010Prop28
280
     0
102
RTVSPost2010PropOp28
 70
     1
102
RTVSPost2010Prop29
280
     1
102
RTVSPost2010PropOp29
 70
     1
102
RTVSPost2010Prop30
280
     1
102
RTVSPost2010PropOp30
 70
     1
102
RTVSPost2010Prop31
280
     0
102
RTVSPost2010PropOp31
 70
     1
102
RTVSPost2010Prop32
280
     0
102
RTVSPost2010PropOp32
 70
     1
102
RTVSPost2010Prop33
280
     0
102
RTVSPost2010PropOp33
 70
     1
102
RTVSPost2010Prop34
280
     0
102
RTVSPost2010PropOp34
 70
     1
102
RTVSPost2010Prop35
280
     0
102
RTVSPost2010PropOp35
 70
     1
102
RTVSPost2010Prop36
280
     0
102
RTVSPost2010PropOp36
 70
     1
102
RTVSPost2010Prop37
 90
       50
102
RTVSPost2010PropOp37
 70
     1
102
RTVSPost2010Prop38
140
0.0
102
RTVSPost2010PropOp38
 70
     1
102
RTVSPost2010Prop39
140
1.0
102
RTVSPost2010PropOp39
 70
     1
102
RTVSPost2010Prop40
 90
        0
102
RTVSPost2010PropOp40
 70
     1
102
RTVSPost2010Prop41ColorIndex
 90
       18
102
RTVSPost2010Prop41ColorRGB
 90
        0
102
RTVSPost2010PropOp41
 70
     1
102
RTVSPost2010Prop42
 90
       50
102
RTVSPost2010PropOp42
 70
     1
102
RTVSPost2010Prop43
 90
        3
102
RTVSPost2010PropOp43
 70
     1
102
RTVSPost2010Prop44ColorIndex
 90
        5
102
RTVSPost2010Prop44ColorRGB
 90
      255
102
RTVSPost2010PropOp44
 70
     1
102
RTVSPost2010Prop45
280
     0
102
RTVSPost2010PropOp45
 70
     1
102
RTVSPost2010Prop46
 90
       50
102
RTVSPost2010PropOp46
 70
     1
102
RTVSPost2010Prop47
 90
       50
102
RTVSPost2010PropOp47
 70
     1
102
RTVSPost2010Prop48
 90
       50
102
RTVSPost2010PropOp48
 70
     1
102
RTVSPost2010Prop49
280
     0
102
RTVSPost2010PropOp49
 70
     1
102
RTVSPost2010Prop50
 90
       50
102
RTVSPost2010PropOp50
 70
     1
102
RTVSPost2010Prop51ColorIndex
 90
      256
102
RTVSPost2010Prop51ColorRGB
 90
-16777216
102
RTVSPost2010PropOp51
 70
     0
102
RTVSPost2010Prop52
140
1.0
102
RTVSPost2010PropOp52
 70
     0
102
RTVSPost2010Prop53
 90
        2
102
RTVSPost2010PropOp53
 70
     1
102
RTVSPost2010Prop54
  1
strokes_ogs.tif
102
RTVSPost2010PropOp54
 70
     1
102
RTVSPost2010Prop55
280
     0
102
RTVSPost2010PropOp55
 70
     1
102
RTVSPost2010Prop56
140
1.0
102
RTVSPost2010PropOp56
 70
     1
102
RTVSPost2010Prop57
140
1.0
102
RTVSPost2010PropOp57
 70
     1
  0
XRECORD
  5
453
102
{ACAD_REACTORS
330
452
102
}
330
452
100
AcDbXrecord
280
     1
102
RTVSPropertyOp0
 70
     1
102
RTVSPropertyOp1
 70
     1
102
RTVSPropertyOp2
 70
     1
102
RTVSPropertyOp3
 70
     1
102
RTVSPropertyOp4
 70
     1
102
RTVSPropertyOp5
 70
     1
102
RTVSPropertyOp6
 70
     1
102
RTVSPropertyOp7
 70
     1
102
RTVSPropertyOp8
 70
     1
102
RTVSPropertyOp9
 70
     1
102
RTVSPropertyOp10
 70
     1
102
RTVSPropertyOp11
 70
     1
102
RTVSPropertyOp12
 70
     1
102
RTVSPropertyOp13
 70
     1
102
RTVSPropertyOp14
 70
     1
102
RTVSPropertyOp15
 70
     1
102
RTVSPropertyOp16
 70
     1
102
RTVSPropertyOp17
 70
     1
102
RTVSPropertyOp18
 70
     1
102
RTVSPropertyOp19
 70
     1
102
RTVSPropertyOp20
 70
     1
102
RTVSPropertyOp21
 70
     1
102
RTVSPropertyOp22
 70
     1
102
RTVSPropertyOp23
 70
     1
102
RTVSPropertyOp24
 70
     1
102
RTVSPropertyOp25
 70
     1
102
RTVSPropertyOp26
 70
     1
102
RTVSPropertyOp27
 70
     1
102
RTVSPropertyOp28
 70
     1
102
RTVSPropertyOp29
 70
     1
102
RTVSPropertyOp30
 70
     1
102
RTVSPropertyOp31
 70
     1
102
RTVSPropertyOp32
 70
     1
102
RTVSPropertyOp33
 70
     1
102
RTVSPropertyOp34
 70
     1
102
RTVSPropertyOp35
 70
     1
102
RTVSPropertyOp36
 70
     1
102
RTVSPropertyOp37
 70
     1
102
RTVSPropertyOp38
 70
     1
102
RTVSPropertyOp39
 70
     1
102
RTVSPropertyOp40
 70
     1
102
RTVSPropertyOp41
 70
     1
102
RTVSPropertyOp42
 70
     1
102
RTVSPropertyOp43
 70
     1
102
RTVSPropertyOp44
 70
     1
102
RTVSPropertyOp45
 70
     1
102
RTVSPropertyOp46
 70
     1
102
RTVSPropertyOp47
 70
     1
102
RTVSPropertyOp48
 70
     1
102
RTVSPropertyOp49
 70
     1
102
RTVSPropertyOp50
 70
     1
102
RTVSPropertyOp51
 70
     0
102
RTVSPropertyOp52
 70
     0
102
RTVSPropertyOp53
 70
     1
102
RTVSPropertyOp54
 70
     1
102
RTVSPropertyOp55
 70
     1
102
RTVSPropertyOp56
 70
     1
102
RTVSPropertyOp57
 70
     1
102
RTVSPost2010Prop28
280
     0
102
RTVSPost2010PropOp28
 70
     1
102
RTVSPost2010Prop29
280
     1
102
RTVSPost2010PropOp29
 70
     1
102
RTVSPost2010Prop30
280
     1
102
RTVSPost2010PropOp30
 70
     1
102
RTVSPost2010Prop31
280
     0
102
RTVSPost2010PropOp31
 70
     1
102
RTVSPost2010Prop32
280
     0
102
RTVSPost2010PropOp32
 70
     1
102
RTVSPost2010Prop33
280
     0
102
RTVSPost2010PropOp33
 70
     1
102
RTVSPost2010Prop34
280
     0
102
RTVSPost2010PropOp34
 70
     1
102
RTVSPost2010Prop35
280
     0
102
RTVSPost2010PropOp35
 70
     1
102
RTVSPost2010Prop36
280
     0
102
RTVSPost2010PropOp36
 70
     1
102
RTVSPost2010Prop37
 90
       50
102
RTVSPost2010PropOp37
 70
     1
102
RTVSPost2010Prop38
140
0.0
102
RTVSPost2010PropOp38
 70
     1
102
RTVSPost2010Prop39
140
1.0
102
RTVSPost2010PropOp39
 70
     1
102
RTVSPost2010Prop40
 90
        0
102
RTVSPost2010PropOp40
 70
     1
102
RTVSPost2010Prop41ColorIndex
 90
       18
102
RTVSPost2010Prop41ColorRGB
 90
        0
102
RTVSPost2010PropOp41
 70
     1
102
RTVSPost2010Prop42
 90
       50
102
RTVSPost2010PropOp42
 70
     1
102
RTVSPost2010Prop43
 90
        3
102
RTVSPost2010PropOp43
 70
     1
102
RTVSPost2010Prop44ColorIndex
 90
        5
102
RTVSPost2010Prop44ColorRGB
 90
      255
102
RTVSPost2010PropOp44
 70
     1
102
RTVSPost2010Prop45
280
     0
102
RTVSPost2010PropOp45
 70
     1
102
RTVSPost2010Prop46
 90
       50
102
RTVSPost2010PropOp46
 70
     1
102
RTVSPost2010Prop47
 90
       50
102
RTVSPost2010PropOp47
 70
     1
102
RTVSPost2010Prop48
 90
       50
102
RTVSPost2010PropOp48
 70
     1
102
RTVSPost2010Prop49
280
     0
102
RTVSPost2010PropOp49
 70
     1
102
RTVSPost2010Prop50
 90
       50
102
RTVSPost2010PropOp50
 70
     1
102
RTVSPost2010Prop51ColorIndex
 90
      256
102
RTVSPost2010Prop51ColorRGB
 90
-16777216
102
RTVSPost2010PropOp51
 70
     0
102
RTVSPost2010Prop52
140
1.0
102
RTVSPost2010PropOp52
 70
     0
102
RTVSPost2010Prop53
 90
        2
102
RTVSPost2010PropOp53
 70
     1
102
RTVSPost2010Prop54
  1
strokes_ogs.tif
102
RTVSPost2010PropOp54
 70
     1
102
RTVSPost2010Prop55
280
     0
102
RTVSPost2010PropOp55
 70
     1
102
RTVSPost2010Prop56
140
1.0
102
RTVSPost2010PropOp56
 70
     1
102
RTVSPost2010Prop57
140
1.0
102
RTVSPost2010PropOp57
 70
     1
  0
XRECORD
  5
445
102
{ACAD_REACTORS
330
444
102
}
330
444
100
AcDbXrecord
280
     1
102
RTVSPropertyOp0
 70
     1
102
RTVSPropertyOp1
 70
     1
102
RTVSPropertyOp2
 70
     1
102
RTVSPropertyOp3
 70
     1
102
RTVSPropertyOp4
 70
     1
102
RTVSPropertyOp5
 70
     1
102
RTVSPropertyOp6
 70
     1
102
RTVSPropertyOp7
 70
     1
102
RTVSPropertyOp8
 70
     1
102
RTVSPropertyOp9
 70
     1
102
RTVSPropertyOp10
 70
     1
102
RTVSPropertyOp11
 70
     1
102
RTVSPropertyOp12
 70
     1
102
RTVSPropertyOp13
 70
     1
102
RTVSPropertyOp14
 70
     1
102
RTVSPropertyOp15
 70
     1
102
RTVSPropertyOp16
 70
     1
102
RTVSPropertyOp17
 70
     1
102
RTVSPropertyOp18
 70
     1
102
RTVSPropertyOp19
 70
     1
102
RTVSPropertyOp20
 70
     1
102
RTVSPropertyOp21
 70
     1
102
RTVSPropertyOp22
 70
     1
102
RTVSPropertyOp23
 70
     1
102
RTVSPropertyOp24
 70
     1
102
RTVSPropertyOp25
 70
     1
102
RTVSPropertyOp26
 70
     1
102
RTVSPropertyOp27
 70
     1
102
RTVSPropertyOp28
 70
     1
102
RTVSPropertyOp29
 70
     1
102
RTVSPropertyOp30
 70
     1
102
RTVSPropertyOp31
 70
     1
102
RTVSPropertyOp32
 70
     1
102
RTVSPropertyOp33
 70
     1
102
RTVSPropertyOp34
 70
     1
102
RTVSPropertyOp35
 70
     1
102
RTVSPropertyOp36
 70
     1
102
RTVSPropertyOp37
 70
     1
102
RTVSPropertyOp38
 70
     1
102
RTVSPropertyOp39
 70
     1
102
RTVSPropertyOp40
 70
     1
102
RTVSPropertyOp41
 70
     1
102
RTVSPropertyOp42
 70
     1
102
RTVSPropertyOp43
 70
     1
102
RTVSPropertyOp44
 70
     1
102
RTVSPropertyOp45
 70
     1
102
RTVSPropertyOp46
 70
     1
102
RTVSPropertyOp47
 70
     1
102
RTVSPropertyOp48
 70
     1
102
RTVSPropertyOp49
 70
     1
102
RTVSPropertyOp50
 70
     1
102
RTVSPropertyOp51
 70
     0
102
RTVSPropertyOp52
 70
     0
102
RTVSPropertyOp53
 70
     1
102
RTVSPropertyOp54
 70
     1
102
RTVSPropertyOp55
 70
     1
102
RTVSPropertyOp56
 70
     1
102
RTVSPropertyOp57
 70
     1
102
RTVSPost2010Prop28
280
     0
102
RTVSPost2010PropOp28
 70
     1
102
RTVSPost2010Prop29
280
     1
102
RTVSPost2010PropOp29
 70
     1
102
RTVSPost2010Prop30
280
     1
102
RTVSPost2010PropOp30
 70
     1
102
RTVSPost2010Prop31
280
     0
102
RTVSPost2010PropOp31
 70
     1
102
RTVSPost2010Prop32
280
     0
102
RTVSPost2010PropOp32
 70
     1
102
RTVSPost2010Prop33
280
     0
102
RTVSPost2010PropOp33
 70
     1
102
RTVSPost2010Prop34
280
     0
102
RTVSPost2010PropOp34
 70
     1
102
RTVSPost2010Prop35
280
     0
102
RTVSPost2010PropOp35
 70
     1
102
RTVSPost2010Prop36
280
     0
102
RTVSPost2010PropOp36
 70
     1
102
RTVSPost2010Prop37
 90
       50
102
RTVSPost2010PropOp37
 70
     1
102
RTVSPost2010Prop38
140
0.0
102
RTVSPost2010PropOp38
 70
     1
102
RTVSPost2010Prop39
140
1.0
102
RTVSPost2010PropOp39
 70
     1
102
RTVSPost2010Prop40
 90
        0
102
RTVSPost2010PropOp40
 70
     1
102
RTVSPost2010Prop41ColorIndex
 90
       18
102
RTVSPost2010Prop41ColorRGB
 90
        0
102
RTVSPost2010PropOp41
 70
     1
102
RTVSPost2010Prop42
 90
       50
102
RTVSPost2010PropOp42
 70
     1
102
RTVSPost2010Prop43
 90
        3
102
RTVSPost2010PropOp43
 70
     1
102
RTVSPost2010Prop44ColorIndex
 90
        5
102
RTVSPost2010Prop44ColorRGB
 90
      255
102
RTVSPost2010PropOp44
 70
     1
102
RTVSPost2010Prop45
280
     0
102
RTVSPost2010PropOp45
 70
     1
102
RTVSPost2010Prop46
 90
       50
102
RTVSPost2010PropOp46
 70
     1
102
RTVSPost2010Prop47
 90
       50
102
RTVSPost2010PropOp47
 70
     1
102
RTVSPost2010Prop48
 90
       50
102
RTVSPost2010PropOp48
 70
     1
102
RTVSPost2010Prop49
280
     0
102
RTVSPost2010PropOp49
 70
     1
102
RTVSPost2010Prop50
 90
       50
102
RTVSPost2010PropOp50
 70
     1
102
RTVSPost2010Prop51ColorIndex
 90
      256
102
RTVSPost2010Prop51ColorRGB
 90
-16777216
102
RTVSPost2010PropOp51
 70
     0
102
RTVSPost2010Prop52
140
1.0
102
RTVSPost2010PropOp52
 70
     0
102
RTVSPost2010Prop53
 90
        2
102
RTVSPost2010PropOp53
 70
     1
102
RTVSPost2010Prop54
  1
strokes_ogs.tif
102
RTVSPost2010PropOp54
 70
     1
102
RTVSPost2010Prop55
280
     0
102
RTVSPost2010PropOp55
 70
     1
102
RTVSPost2010Prop56
140
1.0
102
RTVSPost2010PropOp56
 70
     1
102
RTVSPost2010Prop57
140
1.0
102
RTVSPost2010PropOp57
 70
     1
  0
XRECORD
  5
465
102
{ACAD_REACTORS
330
464
102
}
330
464
100
AcDbXrecord
280
     1
102
RTVSPropertyOp0
 70
     1
102
RTVSPropertyOp1
 70
     1
102
RTVSPropertyOp2
 70
     1
102
RTVSPropertyOp3
 70
     1
102
RTVSPropertyOp4
 70
     1
102
RTVSPropertyOp5
 70
     1
102
RTVSPropertyOp6
 70
     1
102
RTVSPropertyOp7
 70
     1
102
RTVSPropertyOp8
 70
     1
102
RTVSPropertyOp9
 70
     1
102
RTVSPropertyOp10
 70
     1
102
RTVSPropertyOp11
 70
     1
102
RTVSPropertyOp12
 70
     1
102
RTVSPropertyOp13
 70
     1
102
RTVSPropertyOp14
 70
     1
102
RTVSPropertyOp15
 70
     1
102
RTVSPropertyOp16
 70
     1
102
RTVSPropertyOp17
 70
     1
102
RTVSPropertyOp18
 70
     1
102
RTVSPropertyOp19
 70
     1
102
RTVSPropertyOp20
 70
     1
102
RTVSPropertyOp21
 70
     1
102
RTVSPropertyOp22
 70
     1
102
RTVSPropertyOp23
 70
     1
102
RTVSPropertyOp24
 70
     1
102
RTVSPropertyOp25
 70
     1
102
RTVSPropertyOp26
 70
     1
102
RTVSPropertyOp27
 70
     1
102
RTVSPropertyOp28
 70
     1
102
RTVSPropertyOp29
 70
     1
102
RTVSPropertyOp30
 70
     1
102
RTVSPropertyOp31
 70
     1
102
RTVSPropertyOp32
 70
     1
102
RTVSPropertyOp33
 70
     1
102
RTVSPropertyOp34
 70
     1
102
RTVSPropertyOp35
 70
     1
102
RTVSPropertyOp36
 70
     1
102
RTVSPropertyOp37
 70
     1
102
RTVSPropertyOp38
 70
     1
102
RTVSPropertyOp39
 70
     1
102
RTVSPropertyOp40
 70
     1
102
RTVSPropertyOp41
 70
     1
102
RTVSPropertyOp42
 70
     1
102
RTVSPropertyOp43
 70
     1
102
RTVSPropertyOp44
 70
     1
102
RTVSPropertyOp45
 70
     1
102
RTVSPropertyOp46
 70
     1
102
RTVSPropertyOp47
 70
     1
102
RTVSPropertyOp48
 70
     1
102
RTVSPropertyOp49
 70
     1
102
RTVSPropertyOp50
 70
     1
102
RTVSPropertyOp51
 70
     0
102
RTVSPropertyOp52
 70
     0
102
RTVSPropertyOp53
 70
     1
102
RTVSPropertyOp54
 70
     1
102
RTVSPropertyOp55
 70
     1
102
RTVSPropertyOp56
 70
     1
102
RTVSPropertyOp57
 70
     1
102
RTVSPost2010Prop28
280
     0
102
RTVSPost2010PropOp28
 70
     1
102
RTVSPost2010Prop29
280
     1
102
RTVSPost2010PropOp29
 70
     1
102
RTVSPost2010Prop30
280
     1
102
RTVSPost2010PropOp30
 70
     1
102
RTVSPost2010Prop31
280
     0
102
RTVSPost2010PropOp31
 70
     1
102
RTVSPost2010Prop32
280
     0
102
RTVSPost2010PropOp32
 70
     1
102
RTVSPost2010Prop33
280
     0
102
RTVSPost2010PropOp33
 70
     1
102
RTVSPost2010Prop34
280
     0
102
RTVSPost2010PropOp34
 70
     1
102
RTVSPost2010Prop35
280
     0
102
RTVSPost2010PropOp35
 70
     1
102
RTVSPost2010Prop36
280
     0
102
RTVSPost2010PropOp36
 70
     1
102
RTVSPost2010Prop37
 90
       50
102
RTVSPost2010PropOp37
 70
     1
102
RTVSPost2010Prop38
140
0.0
102
RTVSPost2010PropOp38
 70
     1
102
RTVSPost2010Prop39
140
1.0
102
RTVSPost2010PropOp39
 70
     1
102
RTVSPost2010Prop40
 90
        0
102
RTVSPost2010PropOp40
 70
     1
102
RTVSPost2010Prop41ColorIndex
 90
       18
102
RTVSPost2010Prop41ColorRGB
 90
        0
102
RTVSPost2010PropOp41
 70
     1
102
RTVSPost2010Prop42
 90
       50
102
RTVSPost2010PropOp42
 70
     1
102
RTVSPost2010Prop43
 90
        3
102
RTVSPost2010PropOp43
 70
     1
102
RTVSPost2010Prop44ColorIndex
 90
        5
102
RTVSPost2010Prop44ColorRGB
 90
      255
102
RTVSPost2010PropOp44
 70
     1
102
RTVSPost2010Prop45
280
     0
102
RTVSPost2010PropOp45
 70
     1
102
RTVSPost2010Prop46
 90
       50
102
RTVSPost2010PropOp46
 70
     1
102
RTVSPost2010Prop47
 90
       50
102
RTVSPost2010PropOp47
 70
     1
102
RTVSPost2010Prop48
 90
       50
102
RTVSPost2010PropOp48
 70
     1
102
RTVSPost2010Prop49
280
     0
102
RTVSPost2010PropOp49
 70
     1
102
RTVSPost2010Prop50
 90
       50
102
RTVSPost2010PropOp50
 70
     1
102
RTVSPost2010Prop51ColorIndex
 90
      256
102
RTVSPost2010Prop51ColorRGB
 90
-16777216
102
RTVSPost2010PropOp51
 70
     0
102
RTVSPost2010Prop52
140
1.0
102
RTVSPost2010PropOp52
 70
     0
102
RTVSPost2010Prop53
 90
        2
102
RTVSPost2010PropOp53
 70
     1
102
RTVSPost2010Prop54
  1
strokes_ogs.tif
102
RTVSPost2010PropOp54
 70
     1
102
RTVSPost2010Prop55
280
     0
102
RTVSPost2010PropOp55
 70
     1
102
RTVSPost2010Prop56
140
1.0
102
RTVSPost2010PropOp56
 70
     1
102
RTVSPost2010Prop57
140
1.0
102
RTVSPost2010PropOp57
 70
     1
  0
ENDSEC
  0
EOF
