  0
SECTION
  2
HEADER
  9
$ACADVER
  1
AC1018
  9
$ACADMAINTVER
 70
     0
  9
$DWGCODEPAGE
  3
ANSI_932
  9
$INSBASE
 10
0.0
 20
0.0
 30
0.0
  9
$EXTMIN
 10
-1260.0
 20
-891.0
 30
0.0
  9
$EXTMAX
 10
1260.0
 20
891.0
 30
0.0
  9
$LIMMIN
 10
-1260.0
 20
-891.0
  9
$LIMMAX
 10
1260.0
 20
891.0
  9
$ORTHOMODE
 70
     0
  9
$REGENMODE
 70
     1
  9
$FILLMODE
 70
     1
  9
$QTEXTMODE
 70
     0
  9
$MIRRTEXT
 70
     1
  9
$LTSCALE
 40
6.0
  9
$ATTMODE
 70
     1
  9
$TEXTSIZE
 40
2.5
  9
$TRACEWID
 40
1.0
  9
$TEXTSTYLE
  7
Standard
  9
$CLAYER
  8
0
  9
$CELTYPE
  6
ByLayer
  9
$CECOLOR
 62
   256
  9
$CELTSCALE
 40
1.0
  9
$DISPSILH
 70
     0
  9
$DIMSCALE
 40
1.0
  9
$DIMASZ
 40
2.5
  9
$DIMEXO
 40
0.625
  9
$DIMDLI
 40
3.75
  9
$DIMRND
 40
0.0
  9
$DIMDLE
 40
0.0
  9
$DIMEXE
 40
1.25
  9
$DIMTP
 40
0.0
  9
$DIMTM
 40
0.0
  9
$DIMTXT
 40
2.5
  9
$DIMCEN
 40
2.5
  9
$DIMTSZ
 40
0.0
  9
$DIMTOL
 70
     0
  9
$DIMLIM
 70
     0
  9
$DIMTIH
 70
     0
  9
$DIMTOH
 70
     0
  9
$DIMSE1
 70
     0
  9
$DIMSE2
 70
     0
  9
$DIMTAD
 70
     1
  9
$DIMZIN
 70
     8
  9
$DIMBLK
  1

  9
$DIMASO
 70
     1
  9
$DIMSHO
 70
     1
  9
$DIMPOST
  1

  9
$DIMAPOST
  1

  9
$DIMALT
 70
     0
  9
$DIMALTD
 70
     3
  9
$DIMALTF
 40
0.03937007874016
  9
$DIMLFAC
 40
1.0
  9
$DIMTOFL
 70
     1
  9
$DIMTVP
 40
0.0
  9
$DIMTIX
 70
     0
  9
$DIMSOXD
 70
     0
  9
$DIMSAH
 70
     0
  9
$DIMBLK1
  1

  9
$DIMBLK2
  1

  9
$DIMSTYLE
  2
ISO-25
  9
$DIMCLRD
 70
     0
  9
$DIMCLRE
 70
     0
  9
$DIMCLRT
 70
     0
  9
$DIMTFAC
 40
1.0
  9
$DIMGAP
 40
0.625
  9
$DIMJUST
 70
     0
  9
$DIMSD1
 70
     0
  9
$DIMSD2
 70
     0
  9
$DIMTOLJ
 70
     0
  9
$DIMTZIN
 70
     8
  9
$DIMALTZ
 70
     0
  9
$DIMALTTZ
 70
     0
  9
$DIMUPT
 70
     0
  9
$DIMDEC
 70
     2
  9
$DIMTDEC
 70
     2
  9
$DIMALTU
 70
     2
  9
$DIMALTTD
 70
     3
  9
$DIMTXSTY
  7
Standard
  9
$DIMAUNIT
 70
     0
  9
$DIMADEC
 70
     0
  9
$DIMALTRND
 40
0.0
  9
$DIMAZIN
 70
     0
  9
$DIMDSEP
 70
    44
  9
$DIMATFIT
 70
     3
  9
$DIMFRAC
 70
     0
  9
$DIMLDRBLK
  1

  9
$DIMLUNIT
 70
     2
  9
$DIMLWD
 70
    -2
  9
$DIMLWE
 70
    -2
  9
$DIMTMOVE
 70
     0
  9
$LUNITS
 70
     2
  9
$LUPREC
 70
     4
  9
$SKETCHINC
 40
1.0
  9
$FILLETRAD
 40
10.0
  9
$AUNITS
 70
     0
  9
$AUPREC
 70
     0
  9
$MENU
  1
.
  9
$ELEVATION
 40
0.0
  9
$PELEVATION
 40
0.0
  9
$THICKNESS
 40
0.0
  9
$LIMCHECK
 70
     0
  9
$CHAMFERA
 40
0.0
  9
$CHAMFERB
 40
0.0
  9
$CHAMFERC
 40
0.0
  9
$CHAMFERD
 40
0.0
  9
$SKPOLY
 70
     0
  9
$TDCREATE
 40
2459488.590219502
  9
$TDUCREATE
 40
2459488.215219502
  9
$TDUPDATE
 40
2459488.590219653
  9
$TDUUPDATE
 40
2459488.215219653
  9
$TDINDWG
 40
0.0000000116
  9
$TDUSRTIMER
 40
0.0000000116
  9
$USRTIMER
 70
     1
  9
$ANGBASE
 50
0.0
  9
$ANGDIR
 70
     0
  9
$PDMODE
 70
     0
  9
$PDSIZE
 40
0.0
  9
$PLINEWID
 40
0.0
  9
$SPLFRAME
 70
     0
  9
$SPLINETYPE
 70
     6
  9
$SPLINESEGS
 70
     8
  9
$HANDSEED
  5
476
  9
$SURFTAB1
 70
     6
  9
$SURFTAB2
 70
     6
  9
$SURFTYPE
 70
     6
  9
$SURFU
 70
     6
  9
$SURFV
 70
     6
  9
$UCSBASE
  2

  9
$UCSNAME
  2

  9
$UCSORG
 10
0.0
 20
0.0
 30
0.0
  9
$UCSXDIR
 10
1.0
 20
0.0
 30
0.0
  9
$UCSYDIR
 10
0.0
 20
1.0
 30
0.0
  9
$UCSORTHOREF
  2

  9
$UCSORTHOVIEW
 70
     0
  9
$UCSORGTOP
 10
0.0
 20
0.0
 30
0.0
  9
$UCSORGBOTTOM
 10
0.0
 20
0.0
 30
0.0
  9
$UCSORGLEFT
 10
0.0
 20
0.0
 30
0.0
  9
$UCSORGRIGHT
 10
0.0
 20
0.0
 30
0.0
  9
$UCSORGFRONT
 10
0.0
 20
0.0
 30
0.0
  9
$UCSORGBACK
 10
0.0
 20
0.0
 30
0.0
  9
$PUCSBASE
  2

  9
$PUCSNAME
  2

  9
$PUCSORG
 10
0.0
 20
0.0
 30
0.0
  9
$PUCSXDIR
 10
1.0
 20
0.0
 30
0.0
  9
$PUCSYDIR
 10
0.0
 20
1.0
 30
0.0
  9
$PUCSORTHOREF
  2

  9
$PUCSORTHOVIEW
 70
     0
  9
$PUCSORGTOP
 10
0.0
 20
0.0
 30
0.0
  9
$PUCSORGBOTTOM
 10
0.0
 20
0.0
 30
0.0
  9
$PUCSORGLEFT
 10
0.0
 20
0.0
 30
0.0
  9
$PUCSORGRIGHT
 10
0.0
 20
0.0
 30
0.0
  9
$PUCSORGFRONT
 10
0.0
 20
0.0
 30
0.0
  9
$PUCSORGBACK
 10
0.0
 20
0.0
 30
0.0
  9
$USERI1
 70
     0
  9
$USERI2
 70
     0
  9
$USERI3
 70
     0
  9
$USERI4
 70
     0
  9
$USERI5
 70
     0
  9
$USERR1
 40
0.0
  9
$USERR2
 40
0.0
  9
$USERR3
 40
0.0
  9
$USERR4
 40
0.0
  9
$USERR5
 40
0.0
  9
$WORLDVIEW
 70
     1
  9
$SHADEDGE
 70
     3
  9
$SHADEDIF
 70
    70
  9
$TILEMODE
 70
     1
  9
$MAXACTVP
 70
    64
  9
$PINSBASE
 10
0.0
 20
0.0
 30
0.0
  9
$PLIMCHECK
 70
     0
  9
$PEXTMIN
 10
1.000000000000000E+20
 20
1.000000000000000E+20
 30
1.000000000000000E+20
  9
$PEXTMAX
 10
-1.000000000000000E+20
 20
-1.000000000000000E+20
 30
-1.000000000000000E+20
  9
$PLIMMIN
 10
0.0
 20
0.0
  9
$PLIMMAX
 10
420.0
 20
297.0
  9
$UNITMODE
 70
     0
  9
$VISRETAIN
 70
     1
  9
$PLINEGEN
 70
     0
  9
$PSLTSCALE
 70
     1
  9
$TREEDEPTH
 70
  3020
  9
$CMLSTYLE
  2
Standard
  9
$CMLJUST
 70
     0
  9
$CMLSCALE
 40
20.0
  9
$PROXYGRAPHICS
 70
     1
  9
$MEASUREMENT
 70
     1
  9
$CELWEIGHT
370
    -1
  9
$ENDCAPS
280
     0
  9
$JOINSTYLE
280
     0
  9
$LWDISPLAY
290
     0
  9
$INSUNITS
 70
     4
  9
$HYPERLINKBASE
  1

  9
$STYLESHEET
  1

  9
$XEDIT
290
     1
  9
$CEPSNTYPE
380
     0
  9
$PSTYLEMODE
290
     1
  9
$FINGERPRINTGUID
  2
{3AD1DD95-BCAD-4790-8D6B-79CFE70A5911}
  9
$VERSIONGUID
  2
{FAEB1C32-E019-11D5-929B-00C0DF256EC4}
  9
$EXTNAMES
290
     1
  9
$PSVPSCALE
 40
0.0
  9
$OLESTARTUP
290
     0
  9
$SORTENTS
280
   127
  9
$INDEXCTL
280
     0
  9
$HIDETEXT
280
     1
  9
$XCLIPFRAME
290
     0
  9
$HALOGAP
280
     0
  9
$OBSCOLOR
 70
   257
  9
$OBSLTYPE
280
     0
  9
$INTERSECTIONDISPLAY
280
     0
  9
$INTERSECTIONCOLOR
 70
   257
  9
$DIMASSOC
280
     2
  9
$PROJECTNAME
  1

  0
ENDSEC
  0
SECTION
  2
CLASSES
  0
CLASS
  1
ACDBDICTIONARYWDFLT
  2
AcDbDictionaryWithDefault
  3
ObjectDBX Classes
 90
        0
 91
        4
280
     0
281
     0
  0
CLASS
  1
VISUALSTYLE
  2
AcDbVisualStyle
  3
ObjectDBX Classes
 90
     4095
 91
        4
280
     0
281
     0
  0
CLASS
  1
MATERIAL
  2
AcDbMaterial
  3
ObjectDBX Classes
 90
     1153
 91
        4
280
     0
281
     0
  0
CLASS
  1
SCALE
  2
AcDbScale
  3
ObjectDBX Classes
 90
     1153
 91
        4
280
     0
281
     0
  0
CLASS
  1
TABLESTYLE
  2
AcDbTableStyle
  3
ObjectDBX Classes
 90
     4095
 91
        4
280
     0
281
     0
  0
CLASS
  1
MLEADERSTYLE
  2
AcDbMLeaderStyle
  3
ACDB_MLEADERSTYLE_CLASS
 90
     4095
 91
        4
280
     0
281
     0
  0
CLASS
  1
SUN
  2
AcDbSun
  3
SCENEOE
 90
     1153
 91
        4
280
     0
281
     0
  0
CLASS
  1
DICTIONARYVAR
  2
AcDbDictionaryVar
  3
ObjectDBX Classes
 90
        0
 91
        4
280
     0
281
     0
  0
CLASS
  1
CELLSTYLEMAP
  2
AcDbCellStyleMap
  3
ObjectDBX Classes
 90
     1152
 91
        4
280
     0
281
     0
  0
ENDSEC
  0
SECTION
  2
TABLES
  0
TABLE
  2
VPORT
  5
8
102
{ACAD_XDICTIONARY
360
42D
102
}
330
0
100
AcDbSymbolTable
 70
     1
  0
VPORT
  5
29
330
8
100
AcDbSymbolTableRecord
100
AcDbViewportTableRecord
  2
*Active
 70
     0
 10
0.0
 20
0.0
 11
1.0
 21
1.0
 12
0.0
 22
0.0
 13
0.0
 23
0.0
 14
10.0
 24
10.0
 15
10.0
 25
10.0
 16
0.0
 26
0.0
 36
1.0
 17
0.0
 27
0.0
 37
0.0
 40
1960.2
 41
1.414141414141414
 42
50.0
 43
0.0
 44
0.0
 50
0.0
 51
0.0
 71
     0
 72
 10000
 73
     1
 74
     3
 75
     0
 76
     0
 77
     0
 78
     0
281
     0
 65
     1
110
0.0
120
0.0
130
0.0
111
1.0
121
0.0
131
0.0
112
0.0
122
1.0
132
0.0
 79
     0
146
0.0
  0
ENDTAB
  0
TABLE
  2
LTYPE
  5
5
330
0
100
AcDbSymbolTable
 70
     4
  0
LTYPE
  5
14
330
5
100
AcDbSymbolTableRecord
100
AcDbLinetypeTableRecord
  2
ByBlock
 70
     0
  3

 72
    65
 73
     0
 40
0.0
  0
LTYPE
  5
15
330
5
100
AcDbSymbolTableRecord
100
AcDbLinetypeTableRecord
  2
ByLayer
 70
     0
  3

 72
    65
 73
     0
 40
0.0
  0
LTYPE
  5
16
330
5
100
AcDbSymbolTableRecord
100
AcDbLinetypeTableRecord
  2
Continuous
 70
     0
  3
Solid line
 72
    65
 73
     0
 40
0.0
  0
LTYPE
  5
6F
330
5
100
AcDbSymbolTableRecord
100
AcDbLinetypeTableRecord
  2
JWW_CENTER1
 70
     0
  3
-----  --  ----------  --  -----
 72
    65
 73
     4
 40
6.773333333333333
 49
4.233333333333333
 74
     0
 49
-0.8466666666666667
 74
     0
 49
0.8466666666666667
 74
     0
 49
-0.8466666666666667
 74
     0
  0
LTYPE
  5
70
330
5
100
AcDbSymbolTableRecord
100
AcDbLinetypeTableRecord
  2
JWW_DASHED3
 70
     0
  3
---  ------  ------  ------  ---
 72
    65
 73
     2
 40
3.386666666666667
 49
2.54
 74
     0
 49
-0.8466666666666667
 74
     0
  0
LTYPE
  5
71
330
5
100
AcDbSymbolTableRecord
100
AcDbLinetypeTableRecord
  2
JWW_CENTER2
 70
     0
  3
-------------  --  -------------
 72
    65
 73
     4
 40
13.54666666666667
 49
11.00666666666667
 74
     0
 49
-0.8466666666666667
 74
     0
 49
0.8466666666666667
 74
     0
 49
-0.8466666666666667
 74
     0
  0
ENDTAB
  0
TABLE
  2
LAYER
  5
2
330
0
100
AcDbSymbolTable
 70
    11
  0
LAYER
  5
10
330
2
100
AcDbSymbolTableRecord
100
AcDbLayerTableRecord
  2
0
 70
     0
 62
     7
  6
Continuous
370
    -3
390
F
  0
LAYER
  5
72
330
2
100
AcDbSymbolTableRecord
100
AcDbLayerTableRecord
  2
A-2_蓋
 70
     0
 62
     7
  6
Continuous
370
    -3
390
F
  0
LAYER
  5
73
330
2
100
AcDbSymbolTableRecord
100
AcDbLayerTableRecord
  2
A-1_ピット
 70
     0
 62
     7
  6
Continuous
370
    -3
390
F
  0
LAYER
  5
74
330
2
100
AcDbSymbolTableRecord
100
AcDbLayerTableRecord
  2
A-9_ｸｯｼｮﾝ材
 70
     0
 62
     7
  6
Continuous
370
    -3
390
F
  0
LAYER
  5
75
330
2
100
AcDbSymbolTableRecord
100
AcDbLayerTableRecord
  2
A-4_寸法
 70
     0
 62
     7
  6
Continuous
370
    -3
390
F
  0
LAYER
  5
76
330
2
100
AcDbSymbolTableRecord
100
AcDbLayerTableRecord
  2
A-5_仕様文
 70
     0
 62
     7
  6
Continuous
370
    -3
390
F
  0
LAYER
  5
77
330
2
100
AcDbSymbolTableRecord
100
AcDbLayerTableRecord
  2
F-4ﾚｲﾔ
 70
     0
 62
     7
  6
Continuous
370
    -3
390
F
  0
LAYER
  5
78
330
2
100
AcDbSymbolTableRecord
100
AcDbLayerTableRecord
  2
F-5ﾚｲﾔ
 70
     0
 62
     7
  6
Continuous
370
    -3
390
F
  0
LAYER
  5
79
330
2
100
AcDbSymbolTableRecord
100
AcDbLayerTableRecord
  2
D-0_通り芯
 70
     0
 62
     7
  6
Continuous
370
    -3
390
F
  0
LAYER
  5
7A
330
2
100
AcDbSymbolTableRecord
100
AcDbLayerTableRecord
  2
D-4_寸法
 70
     0
 62
     7
  6
Continuous
370
    -3
390
F
  0
LAYER
  5
7B
330
2
100
AcDbSymbolTableRecord
100
AcDbLayerTableRecord
  2
D-5_仕様文
 70
     0
 62
     7
  6
Continuous
370
    -3
390
F
  0
ENDTAB
  0
TABLE
  2
STYLE
  5
3
330
0
100
AcDbSymbolTable
 70
     2
  0
STYLE
  5
11
330
3
100
AcDbSymbolTableRecord
100
AcDbTextStyleTableRecord
  2
Standard
 70
     0
 40
0.0
 41
1.0
 50
0.0
 71
     0
 42
2.5
  3
txt
  4

  0
STYLE
  5
6E
330
3
100
AcDbSymbolTableRecord
100
AcDbTextStyleTableRecord
  2
ＭＳ ゴシック
 70
     0
 40
1.0
 41
1.0
 50
0.0
 71
     0
 42
2.5
  3

  4

1001
ACAD
1000
MS Gothic
1071
    32817
  0
ENDTAB
  0
TABLE
  2
VIEW
  5
6
330
0
100
AcDbSymbolTable
 70
     0
  0
ENDTAB
  0
TABLE
  2
UCS
  5
7
330
0
100
AcDbSymbolTable
 70
     0
  0
ENDTAB
  0
TABLE
  2
APPID
  5
9
330
0
100
AcDbSymbolTable
 70
     2
  0
APPID
  5
12
330
9
100
AcDbSymbolTableRecord
100
AcDbRegAppTableRecord
  2
ACAD
 70
     0
  0
APPID
  5
46C
330
9
100
AcDbSymbolTableRecord
100
AcDbRegAppTableRecord
  2
ACAD_MLEADERVER
 70
     0
  0
ENDTAB
  0
TABLE
  2
DIMSTYLE
  5
A
330
0
100
AcDbSymbolTable
 70
     1
100
AcDbDimStyleTable
  0
DIMSTYLE
105
27
330
A
100
AcDbSymbolTableRecord
100
AcDbDimStyleTableRecord
  2
ISO-25
 70
     0
 41
2.5
 42
0.625
 43
3.75
 44
1.25
 73
     0
 74
     0
 77
     1
 78
     8
140
2.5
141
2.5
143
0.03937007874016
147
0.625
171
     3
172
     1
178
     0
271
     2
272
     2
274
     3
278
    44
283
     0
284
     8
340
11
  0
ENDTAB
  0
TABLE
  2
BLOCK_RECORD
  5
1
330
0
100
AcDbSymbolTable
 70
     1
  0
BLOCK_RECORD
  5
1F
330
1
100
AcDbSymbolTableRecord
100
AcDbBlockTableRecord
  2
*Model_Space
340
22
  0
BLOCK_RECORD
  5
1B
330
1
100
AcDbSymbolTableRecord
100
AcDbBlockTableRecord
  2
*Paper_Space
340
1E
  0
BLOCK_RECORD
  5
23
330
1
100
AcDbSymbolTableRecord
100
AcDbBlockTableRecord
  2
*Paper_Space0
340
26
  0
ENDTAB
  0
ENDSEC
  0
SECTION
  2
BLOCKS
  0
BLOCK
  5
20
330
1F
100
AcDbEntity
  8
0
100
AcDbBlockBegin
  2
*Model_Space
 70
     0
 10
0.0
 20
0.0
 30
0.0
  3
*Model_Space
  1

  0
ENDBLK
  5
21
330
1F
100
AcDbEntity
  8
0
100
AcDbBlockEnd
  0
BLOCK
  5
1C
330
1B
100
AcDbEntity
 67
     1
  8
0
100
AcDbBlockBegin
  2
*Paper_Space
 70
     0
 10
0.0
 20
0.0
 30
0.0
  3
*Paper_Space
  1

  0
ENDBLK
  5
1D
330
1B
100
AcDbEntity
 67
     1
  8
0
100
AcDbBlockEnd
  0
BLOCK
  5
24
330
23
100
AcDbEntity
  8
0
100
AcDbBlockBegin
  2
*Paper_Space0
 70
     0
 10
0.0
 20
0.0
 30
0.0
  3
*Paper_Space0
  1

  0
ENDBLK
  5
25
330
23
100
AcDbEntity
  8
0
100
AcDbBlockEnd
  0
ENDSEC
  0
SECTION
  2
ENTITIES
  0
LINE
  5
7C
330
1F
100
AcDbEntity
  8
A-2_蓋
  6
Continuous
 62
     3
370
     9
100
AcDbLine
 10
-244.7850461746879
 20
6.97743126306203
 30
0.0
 11
-533.784935651567
 21
6.97743126306203
 31
0.0
  0
LINE
  5
7D
330
1F
100
AcDbEntity
  8
A-2_蓋
  6
Continuous
 62
     3
370
     9
100
AcDbLine
 10
-244.7850461746879
 20
11.4772234136111
 30
0.0
 11
-533.784935651567
 21
11.4772234136111
 31
0.0
  0
LINE
  5
7E
330
1F
100
AcDbEntity
  8
A-2_蓋
  6
Continuous
 62
     3
370
     9
100
AcDbLine
 10
-533.784935651567
 20
562.477358680714
 30
0.0
 11
-244.7850461746879
 21
562.477358680714
 31
0.0
  0
LINE
  5
7F
330
1F
100
AcDbEntity
  8
A-2_蓋
  6
Continuous
 62
     3
370
     9
100
AcDbLine
 10
-533.784935651567
 20
551.4776688052918
 30
0.0
 11
-244.7850461746879
 21
551.4776688052918
 31
0.0
  0
LINE
  5
80
330
1F
100
AcDbEntity
  8
A-2_蓋
  6
Continuous
 62
     3
370
     9
100
AcDbLine
 10
-533.784935651567
 20
362.4768967930452
 30
0.0
 11
-244.7850461746879
 21
362.4768967930452
 31
0.0
  0
LINE
  5
81
330
1F
100
AcDbEntity
  8
A-2_蓋
  6
Continuous
 62
     3
370
     9
100
AcDbLine
 10
-533.784935651567
 20
351.4772069176228
 30
0.0
 11
-244.7850461746879
 21
351.4772069176228
 31
0.0
  0
LINE
  5
82
330
1F
100
AcDbEntity
  8
A-2_蓋
  6
Continuous
 62
     3
370
     9
100
AcDbLine
 10
-533.784935651567
 20
602.477540136584
 30
0.0
 11
-244.7850461746879
 21
602.477540136584
 31
0.0
  0
LINE
  5
83
330
1F
100
AcDbEntity
  8
A-2_蓋
  6
Continuous
 62
     3
370
     9
100
AcDbLine
 10
-533.784935651567
 20
62.47694628100969
 30
0.0
 11
-244.7850461746879
 21
62.47694628100969
 31
0.0
  0
LINE
  5
84
330
1F
100
AcDbEntity
  8
A-2_蓋
  6
Continuous
 62
     3
370
     9
100
AcDbLine
 10
-533.784935651567
 20
51.47725640558734
 30
0.0
 11
-244.7850461746879
 21
51.47725640558734
 31
0.0
  0
LINE
  5
85
330
1F
100
AcDbEntity
  8
A-2_蓋
  6
Continuous
 62
     3
370
     9
100
AcDbLine
 10
-526.7845661414319
 20
11.4772234136111
 30
0.0
 11
-526.7845661414319
 21
51.47725640558734
 31
0.0
  0
LINE
  5
86
330
1F
100
AcDbEntity
  8
A-2_蓋
  6
Continuous
 62
     3
370
     9
100
AcDbLine
 10
-251.785044525089
 20
51.47725640558734
 30
0.0
 11
-251.785044525089
 21
11.4772234136111
 31
0.0
  0
LINE
  5
87
330
1F
100
AcDbEntity
  8
A-2_蓋
  6
Continuous
 62
     3
370
     9
100
AcDbLine
 10
-526.7845661414319
 20
362.4768967930452
 30
0.0
 11
-526.7845661414319
 21
451.4777347892445
 31
0.0
  0
LINE
  5
88
330
1F
100
AcDbEntity
  8
A-2_蓋
  6
Continuous
 62
     3
370
     9
100
AcDbLine
 10
-526.7845661414319
 20
562.477358680714
 30
0.0
 11
-526.7845661414319
 21
602.477540136584
 31
0.0
  0
LINE
  5
89
330
1F
100
AcDbEntity
  8
A-2_蓋
  6
Continuous
 62
     3
370
     9
100
AcDbLine
 10
-251.785044525089
 20
602.477540136584
 30
0.0
 11
-251.785044525089
 21
562.477358680714
 31
0.0
  0
LINE
  5
8A
330
1F
100
AcDbEntity
  8
A-2_蓋
  6
Continuous
 62
     3
370
     9
100
AcDbLine
 10
-251.785044525089
 20
451.4777347892445
 30
0.0
 11
-251.785044525089
 21
362.4768967930452
 31
0.0
  0
LINE
  5
8B
330
1F
100
AcDbEntity
  8
A-2_蓋
  6
Continuous
 62
     3
370
     9
100
AcDbLine
 10
-287.0846364143415
 20
602.477540136584
 30
0.0
 11
-287.0846364143415
 21
562.477358680714
 31
0.0
  0
LINE
  5
8C
330
1F
100
AcDbEntity
  8
A-2_蓋
  6
Continuous
 62
     3
370
     9
100
AcDbLine
 10
-280.0846380639404
 20
602.477540136584
 30
0.0
 11
-280.0846380639404
 21
562.477358680714
 31
0.0
  0
LINE
  5
8D
330
1F
100
AcDbEntity
  8
A-2_蓋
  6
Continuous
 62
     3
370
     9
100
AcDbLine
 10
-287.0846364143415
 20
451.4777347892445
 30
0.0
 11
-287.0846364143415
 21
362.4768967930452
 31
0.0
  0
LINE
  5
8E
330
1F
100
AcDbEntity
  8
A-2_蓋
  6
Continuous
 62
     3
370
     9
100
AcDbLine
 10
-280.0846380639404
 20
451.4777347892445
 30
0.0
 11
-280.0846380639404
 21
362.4768967930452
 31
0.0
  0
LINE
  5
8F
330
1F
100
AcDbEntity
  8
A-2_蓋
  6
Continuous
 62
     3
370
     9
100
AcDbLine
 10
-287.0846364143415
 20
51.47725640558734
 30
0.0
 11
-287.0846364143415
 21
11.4772234136111
 31
0.0
  0
LINE
  5
90
330
1F
100
AcDbEntity
  8
A-2_蓋
  6
Continuous
 62
     3
370
     9
100
AcDbLine
 10
-280.0846380639404
 20
51.47725640558734
 30
0.0
 11
-280.0846380639404
 21
11.4772234136111
 31
0.0
  0
LINE
  5
91
330
1F
100
AcDbEntity
  8
A-2_蓋
  6
Continuous
 62
     3
370
     9
100
AcDbLine
 10
-322.3842283035941
 20
602.477540136584
 30
0.0
 11
-322.3842283035941
 21
562.477358680714
 31
0.0
  0
LINE
  5
92
330
1F
100
AcDbEntity
  8
A-2_蓋
  6
Continuous
 62
     3
370
     9
100
AcDbLine
 10
-315.3843041851397
 20
602.477540136584
 30
0.0
 11
-315.3843041851397
 21
562.477358680714
 31
0.0
  0
LINE
  5
93
330
1F
100
AcDbEntity
  8
A-2_蓋
  6
Continuous
 62
     3
370
     9
100
AcDbLine
 10
-322.3842283035941
 20
451.4777347892445
 30
0.0
 11
-322.3842283035941
 21
362.4768967930452
 31
0.0
  0
LINE
  5
94
330
1F
100
AcDbEntity
  8
A-2_蓋
  6
Continuous
 62
     3
370
     9
100
AcDbLine
 10
-315.3843041851397
 20
451.4777347892445
 30
0.0
 11
-315.3843041851397
 21
362.4768967930452
 31
0.0
  0
LINE
  5
95
330
1F
100
AcDbEntity
  8
A-2_蓋
  6
Continuous
 62
     3
370
     9
100
AcDbLine
 10
-322.3842283035941
 20
51.47725640558734
 30
0.0
 11
-322.3842283035941
 21
11.4772234136111
 31
0.0
  0
LINE
  5
96
330
1F
100
AcDbEntity
  8
A-2_蓋
  6
Continuous
 62
     3
370
     9
100
AcDbLine
 10
-315.3843041851397
 20
51.47725640558734
 30
0.0
 11
-315.3843041851397
 21
11.4772234136111
 31
0.0
  0
LINE
  5
97
330
1F
100
AcDbEntity
  8
A-2_蓋
  6
Continuous
 62
     3
370
     9
100
AcDbLine
 10
-357.6844882803678
 20
602.477540136584
 30
0.0
 11
-357.6844882803678
 21
562.477358680714
 31
0.0
  0
LINE
  5
98
330
1F
100
AcDbEntity
  8
A-2_蓋
  6
Continuous
 62
     3
370
     9
100
AcDbLine
 10
-350.6844156980198
 20
602.477540136584
 30
0.0
 11
-350.6844156980198
 21
562.477358680714
 31
0.0
  0
LINE
  5
99
330
1F
100
AcDbEntity
  8
A-2_蓋
  6
Continuous
 62
     3
370
     9
100
AcDbLine
 10
-357.6844882803678
 20
451.4777347892445
 30
0.0
 11
-357.6844882803678
 21
362.4768967930452
 31
0.0
  0
LINE
  5
9A
330
1F
100
AcDbEntity
  8
A-2_蓋
  6
Continuous
 62
     3
370
     9
100
AcDbLine
 10
-350.6844156980198
 20
451.4777347892445
 30
0.0
 11
-350.6844156980198
 21
362.4768967930452
 31
0.0
  0
LINE
  5
9B
330
1F
100
AcDbEntity
  8
A-2_蓋
  6
Continuous
 62
     3
370
     9
100
AcDbLine
 10
-357.6844882803678
 20
51.47725640558734
 30
0.0
 11
-357.6844882803678
 21
11.4772234136111
 31
0.0
  0
LINE
  5
9C
330
1F
100
AcDbEntity
  8
A-2_蓋
  6
Continuous
 62
     3
370
     9
100
AcDbLine
 10
-350.6844156980198
 20
51.47725640558734
 30
0.0
 11
-350.6844156980198
 21
11.4772234136111
 31
0.0
  0
LINE
  5
9D
330
1F
100
AcDbEntity
  8
A-2_蓋
  6
Continuous
 62
     3
370
     9
100
AcDbLine
 10
-392.9846740251946
 20
602.477540136584
 30
0.0
 11
-392.9846740251946
 21
562.477358680714
 31
0.0
  0
LINE
  5
9E
330
1F
100
AcDbEntity
  8
A-2_蓋
  6
Continuous
 62
     3
370
     9
100
AcDbLine
 10
-385.9846756747935
 20
602.477540136584
 30
0.0
 11
-385.9846756747935
 21
562.477358680714
 31
0.0
  0
LINE
  5
9F
330
1F
100
AcDbEntity
  8
A-2_蓋
  6
Continuous
 62
     3
370
     9
100
AcDbLine
 10
-392.9846740251946
 20
451.4777347892445
 30
0.0
 11
-392.9846740251946
 21
362.4768967930452
 31
0.0
  0
LINE
  5
A0
330
1F
100
AcDbEntity
  8
A-2_蓋
  6
Continuous
 62
     3
370
     9
100
AcDbLine
 10
-385.9846756747935
 20
451.4777347892445
 30
0.0
 11
-385.9846756747935
 21
362.4768967930452
 31
0.0
  0
LINE
  5
A1
330
1F
100
AcDbEntity
  8
A-2_蓋
  6
Continuous
 62
     3
370
     9
100
AcDbLine
 10
-392.9846740251946
 20
51.47725640558734
 30
0.0
 11
-392.9846740251946
 21
11.4772234136111
 31
0.0
  0
LINE
  5
A2
330
1F
100
AcDbEntity
  8
A-2_蓋
  6
Continuous
 62
     3
370
     9
100
AcDbLine
 10
-385.9846756747935
 20
51.47725640558734
 30
0.0
 11
-385.9846756747935
 21
11.4772234136111
 31
0.0
  0
LINE
  5
A3
330
1F
100
AcDbEntity
  8
A-2_蓋
  6
Continuous
 62
     3
370
     9
100
AcDbLine
 10
-428.2843401463939
 20
602.477540136584
 30
0.0
 11
-428.2843401463939
 21
562.477358680714
 31
0.0
  0
LINE
  5
A4
330
1F
100
AcDbEntity
  8
A-2_蓋
  6
Continuous
 62
     3
370
     9
100
AcDbLine
 10
-421.2843417959928
 20
602.477540136584
 30
0.0
 11
-421.2843417959928
 21
562.477358680714
 31
0.0
  0
LINE
  5
A5
330
1F
100
AcDbEntity
  8
A-2_蓋
  6
Continuous
 62
     3
370
     9
100
AcDbLine
 10
-428.2843401463939
 20
451.4777347892445
 30
0.0
 11
-428.2843401463939
 21
362.4768967930452
 31
0.0
  0
LINE
  5
A6
330
1F
100
AcDbEntity
  8
A-2_蓋
  6
Continuous
 62
     3
370
     9
100
AcDbLine
 10
-421.2843417959928
 20
451.4777347892445
 30
0.0
 11
-421.2843417959928
 21
362.4768967930452
 31
0.0
  0
LINE
  5
A7
330
1F
100
AcDbEntity
  8
A-2_蓋
  6
Continuous
 62
     3
370
     9
100
AcDbLine
 10
-428.2843401463939
 20
51.47725640558734
 30
0.0
 11
-428.2843401463939
 21
11.4772234136111
 31
0.0
  0
LINE
  5
A8
330
1F
100
AcDbEntity
  8
A-2_蓋
  6
Continuous
 62
     3
370
     9
100
AcDbLine
 10
-421.2843417959928
 20
51.47725640558734
 30
0.0
 11
-421.2843417959928
 21
11.4772234136111
 31
0.0
  0
LINE
  5
A9
330
1F
100
AcDbEntity
  8
A-2_蓋
  6
Continuous
 62
     3
370
     9
100
AcDbLine
 10
-463.584451659274
 20
602.477540136584
 30
0.0
 11
-463.584451659274
 21
562.477358680714
 31
0.0
  0
LINE
  5
AA
330
1F
100
AcDbEntity
  8
A-2_蓋
  6
Continuous
 62
     3
370
     9
100
AcDbLine
 10
-456.5844533088729
 20
602.477540136584
 30
0.0
 11
-456.5844533088729
 21
562.477358680714
 31
0.0
  0
LINE
  5
AB
330
1F
100
AcDbEntity
  8
A-2_蓋
  6
Continuous
 62
     3
370
     9
100
AcDbLine
 10
-463.584451659274
 20
451.4777347892445
 30
0.0
 11
-463.584451659274
 21
362.4768967930452
 31
0.0
  0
LINE
  5
AC
330
1F
100
AcDbEntity
  8
A-2_蓋
  6
Continuous
 62
     3
370
     9
100
AcDbLine
 10
-456.5844533088729
 20
451.4777347892445
 30
0.0
 11
-456.5844533088729
 21
362.4768967930452
 31
0.0
  0
LINE
  5
AD
330
1F
100
AcDbEntity
  8
A-2_蓋
  6
Continuous
 62
     3
370
     9
100
AcDbLine
 10
-463.584451659274
 20
51.47725640558734
 30
0.0
 11
-463.584451659274
 21
11.4772234136111
 31
0.0
  0
LINE
  5
AE
330
1F
100
AcDbEntity
  8
A-2_蓋
  6
Continuous
 62
     3
370
     9
100
AcDbLine
 10
-456.5844533088729
 20
51.47725640558734
 30
0.0
 11
-456.5844533088729
 21
11.4772234136111
 31
0.0
  0
LINE
  5
AF
330
1F
100
AcDbEntity
  8
A-2_蓋
  6
Continuous
 62
     3
370
     9
100
AcDbLine
 10
-498.8847116360477
 20
602.477540136584
 30
0.0
 11
-498.8847116360477
 21
562.477358680714
 31
0.0
  0
LINE
  5
B0
330
1F
100
AcDbEntity
  8
A-2_蓋
  6
Continuous
 62
     3
370
     9
100
AcDbLine
 10
-491.8846390536997
 20
602.477540136584
 30
0.0
 11
-491.8846390536997
 21
562.477358680714
 31
0.0
  0
LINE
  5
B1
330
1F
100
AcDbEntity
  8
A-2_蓋
  6
Continuous
 62
     3
370
     9
100
AcDbLine
 10
-498.8847116360477
 20
451.4777347892445
 30
0.0
 11
-498.8847116360477
 21
362.4768967930452
 31
0.0
  0
LINE
  5
B2
330
1F
100
AcDbEntity
  8
A-2_蓋
  6
Continuous
 62
     3
370
     9
100
AcDbLine
 10
-491.8846390536997
 20
451.4777347892445
 30
0.0
 11
-491.8846390536997
 21
362.4768967930452
 31
0.0
  0
LINE
  5
B3
330
1F
100
AcDbEntity
  8
A-2_蓋
  6
Continuous
 62
     3
370
     9
100
AcDbLine
 10
-498.8847116360477
 20
51.47725640558734
 30
0.0
 11
-498.8847116360477
 21
11.4772234136111
 31
0.0
  0
LINE
  5
B4
330
1F
100
AcDbEntity
  8
A-2_蓋
  6
Continuous
 62
     3
370
     9
100
AcDbLine
 10
-491.8846390536997
 20
51.47725640558734
 30
0.0
 11
-491.8846390536997
 21
11.4772234136111
 31
0.0
  0
LINE
  5
B5
330
1F
100
AcDbEntity
  8
A-1_ピット
  6
Continuous
 62
     2
370
     9
100
AcDbLine
 10
-444.2850362770949
 20
-13.62341861024875
 30
0.0
 11
-444.2850362770949
 21
-7.523037223002191
 31
0.0
  0
LINE
  5
B6
330
1F
100
AcDbEntity
  8
A-1_ピット
  6
Continuous
 62
     2
370
     9
100
AcDbLine
 10
-344.2850280291009
 20
-23.6232041624025
 30
0.0
 11
-434.2849537971541
 21
-23.6232041624025
 31
0.0
  0
LINE
  5
B7
330
1F
100
AcDbEntity
  8
A-1_ピット
  6
Continuous
 62
     2
370
     9
100
AcDbLine
 10
-334.2850197811067
 20
-13.62341861024875
 30
0.0
 11
-334.2850197811067
 21
-7.523037223002191
 31
0.0
  0
LINE
  5
B8
330
1F
100
AcDbEntity
  8
A-1_ピット
  6
Continuous
 62
     2
370
     9
100
AcDbLine
 10
-343.2849752419387
 20
-13.62341861024875
 30
0.0
 11
-343.2849752419387
 21
-7.523037223002191
 31
0.0
  0
LINE
  5
B9
330
1F
100
AcDbEntity
  8
A-1_ピット
  6
Continuous
 62
     2
370
     9
100
AcDbLine
 10
-434.2849537971541
 20
-14.62332293351734
 30
0.0
 11
-344.2848795652073
 21
-14.62332293351734
 31
0.0
  0
LINE
  5
BA
330
1F
100
AcDbEntity
  8
A-1_ピット
  6
Continuous
 62
     2
370
     9
100
AcDbLine
 10
-435.2850808162631
 20
-13.62341861024875
 30
0.0
 11
-435.2850808162631
 21
-7.523037223002191
 31
0.0
  0
LINE
  5
BB
330
1F
100
AcDbEntity
  8
A-1_ピット
  6
JWW_CENTER1
 62
     2
370
     9
100
AcDbLine
 10
-439.7850956626523
 20
0.5841306137800046
 30
0.0
 11
-439.7850956626523
 21
-15.01304065416765
 31
0.0
  0
LINE
  5
BC
330
1F
100
AcDbEntity
  8
A-1_ピット
  6
JWW_CENTER1
 62
     2
370
     9
100
AcDbLine
 10
-431.622031169937
 20
-7.523037223002191
 30
0.0
 11
-448.0291472093163
 21
-7.523037223002191
 31
0.0
  0
LINE
  5
BD
330
1F
100
AcDbEntity
  8
A-1_ピット
  6
JWW_CENTER1
 62
     2
370
     9
100
AcDbLine
 10
-338.7848119316558
 20
0.5841306137800046
 30
0.0
 11
-338.7848119316558
 21
-15.01304065416765
 31
0.0
  0
LINE
  5
BE
330
1F
100
AcDbEntity
  8
A-1_ピット
  6
JWW_CENTER1
 62
     2
370
     9
100
AcDbLine
 10
-330.6221928306211
 20
-7.523037223002191
 30
0.0
 11
-347.0290119422132
 21
-7.523037223002191
 31
0.0
  0
LINE
  5
BF
330
1F
100
AcDbEntity
  8
A-1_ピット
  6
Continuous
 62
     2
370
     9
100
AcDbLine
 10
-444.2850362770949
 20
627.5772913770822
 30
0.0
 11
-444.2850362770949
 21
621.47750384541
 31
0.0
  0
LINE
  5
C0
330
1F
100
AcDbEntity
  8
A-1_ピット
  6
Continuous
 62
     2
370
     9
100
AcDbLine
 10
-344.2850280291009
 20
637.577076929236
 30
0.0
 11
-434.2849537971541
 21
637.577076929236
 31
0.0
  0
LINE
  5
C1
330
1F
100
AcDbEntity
  8
A-1_ピット
  6
Continuous
 62
     2
370
     9
100
AcDbLine
 10
-334.2850197811067
 20
627.5772913770822
 30
0.0
 11
-334.2850197811067
 21
621.47750384541
 31
0.0
  0
LINE
  5
C2
330
1F
100
AcDbEntity
  8
A-1_ピット
  6
Continuous
 62
     2
370
     9
100
AcDbLine
 10
-343.2849752419387
 20
627.5772913770822
 30
0.0
 11
-343.2849752419387
 21
621.47750384541
 31
0.0
  0
LINE
  5
C3
330
1F
100
AcDbEntity
  8
A-1_ピット
  6
Continuous
 62
     2
370
     9
100
AcDbLine
 10
-434.2849537971541
 20
628.5771957003509
 30
0.0
 11
-344.2848795652073
 21
628.5771957003509
 31
0.0
  0
LINE
  5
C4
330
1F
100
AcDbEntity
  8
A-1_ピット
  6
Continuous
 62
     2
370
     9
100
AcDbLine
 10
-435.2850808162631
 20
627.5772913770822
 30
0.0
 11
-435.2850808162631
 21
621.47750384541
 31
0.0
  0
LINE
  5
C5
330
1F
100
AcDbEntity
  8
A-1_ピット
  6
JWW_CENTER1
 62
     2
370
     9
100
AcDbLine
 10
-439.7850956626523
 20
613.3698906169471
 30
0.0
 11
-439.7850956626523
 21
628.9675072765756
 31
0.0
  0
LINE
  5
C6
330
1F
100
AcDbEntity
  8
A-1_ピット
  6
JWW_CENTER1
 62
     2
370
     9
100
AcDbLine
 10
-431.622031169937
 20
621.47750384541
 30
0.0
 11
-448.0291472093163
 21
621.47750384541
 31
0.0
  0
LINE
  5
C7
330
1F
100
AcDbEntity
  8
A-1_ピット
  6
JWW_CENTER1
 62
     2
370
     9
100
AcDbLine
 10
-338.7848119316558
 20
613.3698906169471
 30
0.0
 11
-338.7848119316558
 21
628.9675072765756
 31
0.0
  0
LINE
  5
C8
330
1F
100
AcDbEntity
  8
A-1_ピット
  6
JWW_CENTER1
 62
     2
370
     9
100
AcDbLine
 10
-330.6221928306211
 20
621.47750384541
 30
0.0
 11
-347.0290119422132
 21
621.47750384541
 31
0.0
  0
LINE
  5
C9
330
1F
100
AcDbEntity
  8
A-2_蓋
  6
Continuous
 62
     3
370
     9
100
AcDbLine
 10
-526.7845661414319
 20
551.4776688052918
 30
0.0
 11
-491.8846390536997
 21
562.477358680714
 31
0.0
  0
LINE
  5
CA
330
1F
100
AcDbEntity
  8
A-2_蓋
  6
Continuous
 62
     3
370
     9
100
AcDbLine
 10
-491.4845288604987
 20
551.4776688052918
 30
0.0
 11
-456.5847502366601
 21
562.477358680714
 31
0.0
  0
LINE
  5
CB
330
1F
100
AcDbEntity
  8
A-2_蓋
  6
Continuous
 62
     3
370
     9
100
AcDbLine
 10
-456.1843431156718
 20
551.4776688052918
 30
0.0
 11
-421.2847129557267
 21
562.477358680714
 31
0.0
  0
LINE
  5
CC
330
1F
100
AcDbEntity
  8
A-2_蓋
  6
Continuous
 62
     3
370
     9
100
AcDbLine
 10
-420.8845285305789
 20
551.4776688052918
 30
0.0
 11
-385.9846756747935
 21
562.477358680714
 31
0.0
  0
LINE
  5
CD
330
1F
100
AcDbEntity
  8
A-2_蓋
  6
Continuous
 62
     3
370
     9
100
AcDbLine
 10
-385.5845654815924
 20
551.4776688052918
 30
0.0
 11
-350.684712625807
 21
562.477358680714
 31
0.0
  0
LINE
  5
CE
330
1F
100
AcDbEntity
  8
A-2_蓋
  6
Continuous
 62
     3
370
     9
100
AcDbLine
 10
-350.2844539687123
 20
551.4776688052918
 30
0.0
 11
-315.3846753448737
 21
562.477358680714
 31
0.0
  0
LINE
  5
CF
330
1F
100
AcDbEntity
  8
A-2_蓋
  6
Continuous
 62
     3
370
     9
100
AcDbLine
 10
-314.9844166877791
 20
551.4776688052918
 30
0.0
 11
-280.0846380639404
 21
562.477358680714
 31
0.0
  0
LINE
  5
D0
330
1F
100
AcDbEntity
  8
A-2_蓋
  6
Continuous
 62
     3
370
     9
100
AcDbLine
 10
-279.6845278707393
 20
551.4776688052918
 30
0.0
 11
-244.7848234788474
 21
562.477358680714
 31
0.0
  0
LINE
  5
D1
330
1F
100
AcDbEntity
  8
A-2_蓋
  6
Continuous
 62
     3
370
     9
100
AcDbLine
 10
-533.784935651567
 20
560.3972310677495
 30
0.0
 11
-527.184676334633
 21
562.477358680714
 31
0.0
  0
LINE
  5
D2
330
1F
100
AcDbEntity
  8
A-2_蓋
  6
Continuous
 62
     3
370
     9
100
AcDbLine
 10
-526.7845661414319
 20
351.4776523093036
 30
0.0
 11
-491.8846390536997
 21
362.477342184726
 31
0.0
  0
LINE
  5
D3
330
1F
100
AcDbEntity
  8
A-2_蓋
  6
Continuous
 62
     3
370
     9
100
AcDbLine
 10
-491.4845288604987
 20
351.4776523093036
 30
0.0
 11
-456.5847502366601
 21
362.477342184726
 31
0.0
  0
LINE
  5
D4
330
1F
100
AcDbEntity
  8
A-2_蓋
  6
Continuous
 62
     3
370
     9
100
AcDbLine
 10
-456.1843431156718
 20
351.4776523093036
 30
0.0
 11
-421.2847129557267
 21
362.477342184726
 31
0.0
  0
LINE
  5
D5
330
1F
100
AcDbEntity
  8
A-2_蓋
  6
Continuous
 62
     3
370
     9
100
AcDbLine
 10
-420.8845285305789
 20
351.4776523093036
 30
0.0
 11
-385.9846756747935
 21
362.477342184726
 31
0.0
  0
LINE
  5
D6
330
1F
100
AcDbEntity
  8
A-2_蓋
  6
Continuous
 62
     3
370
     9
100
AcDbLine
 10
-385.5845654815924
 20
351.4776523093036
 30
0.0
 11
-350.684712625807
 21
362.477342184726
 31
0.0
  0
LINE
  5
D7
330
1F
100
AcDbEntity
  8
A-2_蓋
  6
Continuous
 62
     3
370
     9
100
AcDbLine
 10
-350.2844539687123
 20
351.4776523093036
 30
0.0
 11
-315.3846753448737
 21
362.477342184726
 31
0.0
  0
LINE
  5
D8
330
1F
100
AcDbEntity
  8
A-2_蓋
  6
Continuous
 62
     3
370
     9
100
AcDbLine
 10
-314.9844166877791
 20
351.4776523093036
 30
0.0
 11
-280.0846380639404
 21
362.477342184726
 31
0.0
  0
LINE
  5
D9
330
1F
100
AcDbEntity
  8
A-2_蓋
  6
Continuous
 62
     3
370
     9
100
AcDbLine
 10
-279.6845278707393
 20
351.4776523093036
 30
0.0
 11
-244.7848234788474
 21
362.477342184726
 31
0.0
  0
LINE
  5
DA
330
1F
100
AcDbEntity
  8
A-2_蓋
  6
Continuous
 62
     3
370
     9
100
AcDbLine
 10
-533.784935651567
 20
360.3971403398145
 30
0.0
 11
-527.184676334633
 21
362.477342184726
 31
0.0
  0
LINE
  5
DB
330
1F
100
AcDbEntity
  8
A-2_蓋
  6
Continuous
 62
     3
370
     9
100
AcDbLine
 10
-526.7845661414319
 20
51.47755333337453
 30
0.0
 11
-491.8846390536997
 21
62.47724320879688
 31
0.0
  0
LINE
  5
DC
330
1F
100
AcDbEntity
  8
A-2_蓋
  6
Continuous
 62
     3
370
     9
100
AcDbLine
 10
-491.4845288604987
 20
51.47755333337453
 30
0.0
 11
-456.5847502366601
 21
62.47724320879688
 31
0.0
  0
LINE
  5
DD
330
1F
100
AcDbEntity
  8
A-2_蓋
  6
Continuous
 62
     3
370
     9
100
AcDbLine
 10
-456.1843431156718
 20
51.47755333337453
 30
0.0
 11
-421.2847129557267
 21
62.47724320879688
 31
0.0
  0
LINE
  5
DE
330
1F
100
AcDbEntity
  8
A-2_蓋
  6
Continuous
 62
     3
370
     9
100
AcDbLine
 10
-420.8845285305789
 20
51.47755333337453
 30
0.0
 11
-385.9846756747935
 21
62.47724320879688
 31
0.0
  0
LINE
  5
DF
330
1F
100
AcDbEntity
  8
A-2_蓋
  6
Continuous
 62
     3
370
     9
100
AcDbLine
 10
-385.5845654815924
 20
51.47755333337453
 30
0.0
 11
-350.684712625807
 21
62.47724320879688
 31
0.0
  0
LINE
  5
E0
330
1F
100
AcDbEntity
  8
A-2_蓋
  6
Continuous
 62
     3
370
     9
100
AcDbLine
 10
-350.2844539687123
 20
51.47755333337453
 30
0.0
 11
-315.3846753448737
 21
62.47724320879688
 31
0.0
  0
LINE
  5
E1
330
1F
100
AcDbEntity
  8
A-2_蓋
  6
Continuous
 62
     3
370
     9
100
AcDbLine
 10
-314.9844166877791
 20
51.47755333337453
 30
0.0
 11
-280.0846380639404
 21
62.47724320879688
 31
0.0
  0
LINE
  5
E2
330
1F
100
AcDbEntity
  8
A-2_蓋
  6
Continuous
 62
     3
370
     9
100
AcDbLine
 10
-279.6845278707393
 20
51.47755333337453
 30
0.0
 11
-244.7848234788474
 21
62.47724320879688
 31
0.0
  0
LINE
  5
E3
330
1F
100
AcDbEntity
  8
A-2_蓋
  6
Continuous
 62
     3
370
     9
100
AcDbLine
 10
-533.784935651567
 20
60.39711559583235
 30
0.0
 11
-527.184676334633
 21
62.47724320879688
 31
0.0
  0
LINE
  5
E4
330
1F
100
AcDbEntity
  8
A-1_ピット
  6
Continuous
 62
     2
370
     9
100
AcDbLine
 10
-227.7850395762926
 20
-3.022725448825625
 30
0.0
 11
-550.785090713856
 21
-3.022725448825625
 31
0.0
  0
LINE
  5
E5
330
1F
100
AcDbEntity
  8
A-1_ピット
  6
Continuous
 62
     2
370
     9
100
AcDbLine
 10
-227.7850395762926
 20
2.977442810253748
 30
0.0
 11
-550.785090713856
 21
2.977442810253748
 31
0.0
  0
LINE
  5
E6
330
1F
100
AcDbEntity
  8
A-1_ピット
  6
JWW_DASHED3
 62
     2
370
     9
100
AcDbLine
 10
-233.7851336034253
 20
56.9771013432986
 30
0.0
 11
-544.78507091867
 21
56.9771013432986
 31
0.0
  0
LINE
  5
E7
330
1F
100
AcDbEntity
  8
A-1_ピット
  6
JWW_DASHED3
 62
     2
370
     9
100
AcDbLine
 10
-233.7851336034253
 20
556.9775137430029
 30
0.0
 11
-544.78507091867
 21
556.9775137430029
 31
0.0
  0
LINE
  5
E8
330
1F
100
AcDbEntity
  8
A-1_ピット
  6
Continuous
 62
     2
370
     9
100
AcDbLine
 10
-227.7850395762926
 20
610.9770980441009
 30
0.0
 11
-550.785090713856
 21
610.9770980441009
 31
0.0
  0
LINE
  5
E9
330
1F
100
AcDbEntity
  8
A-2_蓋
  6
Continuous
 62
     3
370
     9
100
AcDbLine
 10
-533.784935651567
 20
262.4768143131042
 30
0.0
 11
-244.7850461746879
 21
262.4768143131042
 31
0.0
  0
LINE
  5
EA
330
1F
100
AcDbEntity
  8
A-2_蓋
  6
Continuous
 62
     3
370
     9
100
AcDbLine
 10
-533.784935651567
 20
251.4771986696288
 30
0.0
 11
-244.7850461746879
 21
251.4771986696288
 31
0.0
  0
LINE
  5
EB
330
1F
100
AcDbEntity
  8
A-2_蓋
  6
Continuous
 62
     3
370
     9
100
AcDbLine
 10
-526.7845661414319
 20
251.4776440613095
 30
0.0
 11
-491.8846390536997
 21
262.4773339367319
 31
0.0
  0
LINE
  5
EC
330
1F
100
AcDbEntity
  8
A-2_蓋
  6
Continuous
 62
     3
370
     9
100
AcDbLine
 10
-491.4845288604987
 20
251.4776440613095
 30
0.0
 11
-456.5847502366601
 21
262.4773339367319
 31
0.0
  0
LINE
  5
ED
330
1F
100
AcDbEntity
  8
A-2_蓋
  6
Continuous
 62
     3
370
     9
100
AcDbLine
 10
-456.1843431156718
 20
251.4776440613095
 30
0.0
 11
-421.2847129557267
 21
262.4773339367319
 31
0.0
  0
LINE
  5
EE
330
1F
100
AcDbEntity
  8
A-2_蓋
  6
Continuous
 62
     3
370
     9
100
AcDbLine
 10
-420.8845285305789
 20
251.4776440613095
 30
0.0
 11
-385.9846756747935
 21
262.4773339367319
 31
0.0
  0
LINE
  5
EF
330
1F
100
AcDbEntity
  8
A-2_蓋
  6
Continuous
 62
     3
370
     9
100
AcDbLine
 10
-385.5845654815924
 20
251.4776440613095
 30
0.0
 11
-350.684712625807
 21
262.4773339367319
 31
0.0
  0
LINE
  5
F0
330
1F
100
AcDbEntity
  8
A-2_蓋
  6
Continuous
 62
     3
370
     9
100
AcDbLine
 10
-350.2844539687123
 20
251.4776440613095
 30
0.0
 11
-315.3846753448737
 21
262.4773339367319
 31
0.0
  0
LINE
  5
F1
330
1F
100
AcDbEntity
  8
A-2_蓋
  6
Continuous
 62
     3
370
     9
100
AcDbLine
 10
-314.9844166877791
 20
251.4776440613095
 30
0.0
 11
-280.0846380639404
 21
262.4773339367319
 31
0.0
  0
LINE
  5
F2
330
1F
100
AcDbEntity
  8
A-2_蓋
  6
Continuous
 62
     3
370
     9
100
AcDbLine
 10
-279.6845278707393
 20
251.4776440613095
 30
0.0
 11
-244.7848234788474
 21
262.4773339367319
 31
0.0
  0
LINE
  5
F3
330
1F
100
AcDbEntity
  8
A-2_蓋
  6
Continuous
 62
     3
370
     9
100
AcDbLine
 10
-533.784935651567
 20
260.3971320918205
 30
0.0
 11
-527.184676334633
 21
262.4773339367319
 31
0.0
  0
LINE
  5
F4
330
1F
100
AcDbEntity
  8
A-2_蓋
  6
Continuous
 62
     3
370
     9
100
AcDbLine
 10
-533.784935651567
 20
162.4767318331635
 30
0.0
 11
-244.7850461746879
 21
162.4767318331635
 31
0.0
  0
LINE
  5
F5
330
1F
100
AcDbEntity
  8
A-2_蓋
  6
Continuous
 62
     3
370
     9
100
AcDbLine
 10
-533.784935651567
 20
151.4770419577411
 30
0.0
 11
-244.7850461746879
 21
151.4770419577411
 31
0.0
  0
LINE
  5
F6
330
1F
100
AcDbEntity
  8
A-2_蓋
  6
Continuous
 62
     3
370
     9
100
AcDbLine
 10
-526.7845661414319
 20
151.4775615813686
 30
0.0
 11
-491.8846390536997
 21
162.477251456791
 31
0.0
  0
LINE
  5
F7
330
1F
100
AcDbEntity
  8
A-2_蓋
  6
Continuous
 62
     3
370
     9
100
AcDbLine
 10
-491.4845288604987
 20
151.4775615813686
 30
0.0
 11
-456.5847502366601
 21
162.477251456791
 31
0.0
  0
LINE
  5
F8
330
1F
100
AcDbEntity
  8
A-2_蓋
  6
Continuous
 62
     3
370
     9
100
AcDbLine
 10
-456.1843431156718
 20
151.4775615813686
 30
0.0
 11
-421.2847129557267
 21
162.477251456791
 31
0.0
  0
LINE
  5
F9
330
1F
100
AcDbEntity
  8
A-2_蓋
  6
Continuous
 62
     3
370
     9
100
AcDbLine
 10
-420.8845285305789
 20
151.4775615813686
 30
0.0
 11
-385.9846756747935
 21
162.477251456791
 31
0.0
  0
LINE
  5
FA
330
1F
100
AcDbEntity
  8
A-2_蓋
  6
Continuous
 62
     3
370
     9
100
AcDbLine
 10
-385.5845654815924
 20
151.4775615813686
 30
0.0
 11
-350.684712625807
 21
162.477251456791
 31
0.0
  0
LINE
  5
FB
330
1F
100
AcDbEntity
  8
A-2_蓋
  6
Continuous
 62
     3
370
     9
100
AcDbLine
 10
-350.2844539687123
 20
151.4775615813686
 30
0.0
 11
-315.3846753448737
 21
162.477251456791
 31
0.0
  0
LINE
  5
FC
330
1F
100
AcDbEntity
  8
A-2_蓋
  6
Continuous
 62
     3
370
     9
100
AcDbLine
 10
-314.9844166877791
 20
151.4775615813686
 30
0.0
 11
-280.0846380639404
 21
162.477251456791
 31
0.0
  0
LINE
  5
FD
330
1F
100
AcDbEntity
  8
A-2_蓋
  6
Continuous
 62
     3
370
     9
100
AcDbLine
 10
-279.6845278707393
 20
151.4775615813686
 30
0.0
 11
-244.7848234788474
 21
162.477251456791
 31
0.0
  0
LINE
  5
FE
330
1F
100
AcDbEntity
  8
A-2_蓋
  6
Continuous
 62
     3
370
     9
100
AcDbLine
 10
-533.784935651567
 20
160.3970496118797
 30
0.0
 11
-527.184676334633
 21
162.477251456791
 31
0.0
  0
LINE
  5
FF
330
1F
100
AcDbEntity
  8
A-2_蓋
  6
Continuous
 62
     3
370
     9
100
AcDbLine
 10
-526.7845661414319
 20
262.4768143131042
 30
0.0
 11
-526.7845661414319
 21
351.4772069176228
 31
0.0
  0
LINE
  5
100
330
1F
100
AcDbEntity
  8
A-2_蓋
  6
Continuous
 62
     3
370
     9
100
AcDbLine
 10
-251.785044525089
 20
351.4772069176228
 30
0.0
 11
-251.785044525089
 21
262.4768143131042
 31
0.0
  0
LINE
  5
101
330
1F
100
AcDbEntity
  8
A-2_蓋
  6
Continuous
 62
     3
370
     9
100
AcDbLine
 10
-287.0846364143415
 20
351.4772069176228
 30
0.0
 11
-287.0846364143415
 21
262.4768143131042
 31
0.0
  0
LINE
  5
102
330
1F
100
AcDbEntity
  8
A-2_蓋
  6
Continuous
 62
     3
370
     9
100
AcDbLine
 10
-280.0846380639404
 20
351.4772069176228
 30
0.0
 11
-280.0846380639404
 21
262.4768143131042
 31
0.0
  0
LINE
  5
103
330
1F
100
AcDbEntity
  8
A-2_蓋
  6
Continuous
 62
     3
370
     9
100
AcDbLine
 10
-322.3842283035941
 20
351.4772069176228
 30
0.0
 11
-322.3842283035941
 21
262.4768143131042
 31
0.0
  0
LINE
  5
104
330
1F
100
AcDbEntity
  8
A-2_蓋
  6
Continuous
 62
     3
370
     9
100
AcDbLine
 10
-315.3843041851397
 20
351.4772069176228
 30
0.0
 11
-315.3843041851397
 21
262.4768143131042
 31
0.0
  0
LINE
  5
105
330
1F
100
AcDbEntity
  8
A-2_蓋
  6
Continuous
 62
     3
370
     9
100
AcDbLine
 10
-357.6844882803678
 20
351.4772069176228
 30
0.0
 11
-357.6844882803678
 21
262.4768143131042
 31
0.0
  0
LINE
  5
106
330
1F
100
AcDbEntity
  8
A-2_蓋
  6
Continuous
 62
     3
370
     9
100
AcDbLine
 10
-350.6844156980198
 20
351.4772069176228
 30
0.0
 11
-350.6844156980198
 21
262.4768143131042
 31
0.0
  0
LINE
  5
107
330
1F
100
AcDbEntity
  8
A-2_蓋
  6
Continuous
 62
     3
370
     9
100
AcDbLine
 10
-392.9846740251946
 20
351.4772069176228
 30
0.0
 11
-392.9846740251946
 21
262.4768143131042
 31
0.0
  0
LINE
  5
108
330
1F
100
AcDbEntity
  8
A-2_蓋
  6
Continuous
 62
     3
370
     9
100
AcDbLine
 10
-385.9846756747935
 20
351.4772069176228
 30
0.0
 11
-385.9846756747935
 21
262.4768143131042
 31
0.0
  0
LINE
  5
109
330
1F
100
AcDbEntity
  8
A-2_蓋
  6
Continuous
 62
     3
370
     9
100
AcDbLine
 10
-428.2843401463939
 20
351.4772069176228
 30
0.0
 11
-428.2843401463939
 21
262.4768143131042
 31
0.0
  0
LINE
  5
10A
330
1F
100
AcDbEntity
  8
A-2_蓋
  6
Continuous
 62
     3
370
     9
100
AcDbLine
 10
-421.2843417959928
 20
351.4772069176228
 30
0.0
 11
-421.2843417959928
 21
262.4768143131042
 31
0.0
  0
LINE
  5
10B
330
1F
100
AcDbEntity
  8
A-2_蓋
  6
Continuous
 62
     3
370
     9
100
AcDbLine
 10
-463.584451659274
 20
351.4772069176228
 30
0.0
 11
-463.584451659274
 21
262.4768143131042
 31
0.0
  0
LINE
  5
10C
330
1F
100
AcDbEntity
  8
A-2_蓋
  6
Continuous
 62
     3
370
     9
100
AcDbLine
 10
-456.5844533088729
 20
351.4772069176228
 30
0.0
 11
-456.5844533088729
 21
262.4768143131042
 31
0.0
  0
LINE
  5
10D
330
1F
100
AcDbEntity
  8
A-2_蓋
  6
Continuous
 62
     3
370
     9
100
AcDbLine
 10
-498.8847116360477
 20
351.4772069176228
 30
0.0
 11
-498.8847116360477
 21
262.4768143131042
 31
0.0
  0
LINE
  5
10E
330
1F
100
AcDbEntity
  8
A-2_蓋
  6
Continuous
 62
     3
370
     9
100
AcDbLine
 10
-491.8846390536997
 20
351.4772069176228
 30
0.0
 11
-491.8846390536997
 21
262.4768143131042
 31
0.0
  0
LINE
  5
10F
330
1F
100
AcDbEntity
  8
A-2_蓋
  6
Continuous
 62
     3
370
     9
100
AcDbLine
 10
-526.7845661414319
 20
62.47694628100969
 30
0.0
 11
-526.7845661414319
 21
151.4770419577411
 31
0.0
  0
LINE
  5
110
330
1F
100
AcDbEntity
  8
A-2_蓋
  6
Continuous
 62
     3
370
     9
100
AcDbLine
 10
-526.7845661414319
 20
162.4767318331635
 30
0.0
 11
-526.7845661414319
 21
251.4771986696288
 31
0.0
  0
LINE
  5
111
330
1F
100
AcDbEntity
  8
A-2_蓋
  6
Continuous
 62
     3
370
     9
100
AcDbLine
 10
-251.785044525089
 20
251.4771986696288
 30
0.0
 11
-251.785044525089
 21
162.4767318331635
 31
0.0
  0
LINE
  5
112
330
1F
100
AcDbEntity
  8
A-2_蓋
  6
Continuous
 62
     3
370
     9
100
AcDbLine
 10
-251.785044525089
 20
151.4770419577411
 30
0.0
 11
-251.785044525089
 21
62.47694628100969
 31
0.0
  0
LINE
  5
113
330
1F
100
AcDbEntity
  8
A-2_蓋
  6
Continuous
 62
     3
370
     9
100
AcDbLine
 10
-287.0846364143415
 20
251.4771986696288
 30
0.0
 11
-287.0846364143415
 21
162.4767318331635
 31
0.0
  0
LINE
  5
114
330
1F
100
AcDbEntity
  8
A-2_蓋
  6
Continuous
 62
     3
370
     9
100
AcDbLine
 10
-287.0846364143415
 20
151.4770419577411
 30
0.0
 11
-287.0846364143415
 21
62.47694628100969
 31
0.0
  0
LINE
  5
115
330
1F
100
AcDbEntity
  8
A-2_蓋
  6
Continuous
 62
     3
370
     9
100
AcDbLine
 10
-280.0846380639404
 20
251.4771986696288
 30
0.0
 11
-280.0846380639404
 21
162.4767318331635
 31
0.0
  0
LINE
  5
116
330
1F
100
AcDbEntity
  8
A-2_蓋
  6
Continuous
 62
     3
370
     9
100
AcDbLine
 10
-280.0846380639404
 20
151.4770419577411
 30
0.0
 11
-280.0846380639404
 21
62.47694628100969
 31
0.0
  0
LINE
  5
117
330
1F
100
AcDbEntity
  8
A-2_蓋
  6
Continuous
 62
     3
370
     9
100
AcDbLine
 10
-322.3842283035941
 20
251.4771986696288
 30
0.0
 11
-322.3842283035941
 21
162.4767318331635
 31
0.0
  0
LINE
  5
118
330
1F
100
AcDbEntity
  8
A-2_蓋
  6
Continuous
 62
     3
370
     9
100
AcDbLine
 10
-322.3842283035941
 20
151.4770419577411
 30
0.0
 11
-322.3842283035941
 21
62.47694628100969
 31
0.0
  0
LINE
  5
119
330
1F
100
AcDbEntity
  8
A-2_蓋
  6
Continuous
 62
     3
370
     9
100
AcDbLine
 10
-315.3843041851397
 20
251.4771986696288
 30
0.0
 11
-315.3843041851397
 21
162.4767318331635
 31
0.0
  0
LINE
  5
11A
330
1F
100
AcDbEntity
  8
A-2_蓋
  6
Continuous
 62
     3
370
     9
100
AcDbLine
 10
-315.3843041851397
 20
151.4770419577411
 30
0.0
 11
-315.3843041851397
 21
62.47694628100969
 31
0.0
  0
LINE
  5
11B
330
1F
100
AcDbEntity
  8
A-2_蓋
  6
Continuous
 62
     3
370
     9
100
AcDbLine
 10
-357.6844882803678
 20
251.4771986696288
 30
0.0
 11
-357.6844882803678
 21
162.4767318331635
 31
0.0
  0
LINE
  5
11C
330
1F
100
AcDbEntity
  8
A-2_蓋
  6
Continuous
 62
     3
370
     9
100
AcDbLine
 10
-357.6844882803678
 20
151.4770419577411
 30
0.0
 11
-357.6844882803678
 21
62.47694628100969
 31
0.0
  0
LINE
  5
11D
330
1F
100
AcDbEntity
  8
A-2_蓋
  6
Continuous
 62
     3
370
     9
100
AcDbLine
 10
-350.6844156980198
 20
251.4771986696288
 30
0.0
 11
-350.6844156980198
 21
162.4767318331635
 31
0.0
  0
LINE
  5
11E
330
1F
100
AcDbEntity
  8
A-2_蓋
  6
Continuous
 62
     3
370
     9
100
AcDbLine
 10
-350.6844156980198
 20
151.4770419577411
 30
0.0
 11
-350.6844156980198
 21
62.47694628100969
 31
0.0
  0
LINE
  5
11F
330
1F
100
AcDbEntity
  8
A-2_蓋
  6
Continuous
 62
     3
370
     9
100
AcDbLine
 10
-392.9846740251946
 20
251.4771986696288
 30
0.0
 11
-392.9846740251946
 21
162.4767318331635
 31
0.0
  0
LINE
  5
120
330
1F
100
AcDbEntity
  8
A-2_蓋
  6
Continuous
 62
     3
370
     9
100
AcDbLine
 10
-392.9846740251946
 20
151.4770419577411
 30
0.0
 11
-392.9846740251946
 21
62.47694628100969
 31
0.0
  0
LINE
  5
121
330
1F
100
AcDbEntity
  8
A-2_蓋
  6
Continuous
 62
     3
370
     9
100
AcDbLine
 10
-385.9846756747935
 20
251.4771986696288
 30
0.0
 11
-385.9846756747935
 21
162.4767318331635
 31
0.0
  0
LINE
  5
122
330
1F
100
AcDbEntity
  8
A-2_蓋
  6
Continuous
 62
     3
370
     9
100
AcDbLine
 10
-385.9846756747935
 20
151.4770419577411
 30
0.0
 11
-385.9846756747935
 21
62.47694628100969
 31
0.0
  0
LINE
  5
123
330
1F
100
AcDbEntity
  8
A-2_蓋
  6
Continuous
 62
     3
370
     9
100
AcDbLine
 10
-428.2843401463939
 20
251.4771986696288
 30
0.0
 11
-428.2843401463939
 21
162.4767318331635
 31
0.0
  0
LINE
  5
124
330
1F
100
AcDbEntity
  8
A-2_蓋
  6
Continuous
 62
     3
370
     9
100
AcDbLine
 10
-428.2843401463939
 20
151.4770419577411
 30
0.0
 11
-428.2843401463939
 21
62.47694628100969
 31
0.0
  0
LINE
  5
125
330
1F
100
AcDbEntity
  8
A-2_蓋
  6
Continuous
 62
     3
370
     9
100
AcDbLine
 10
-421.2843417959928
 20
251.4771986696288
 30
0.0
 11
-421.2843417959928
 21
162.4767318331635
 31
0.0
  0
LINE
  5
126
330
1F
100
AcDbEntity
  8
A-2_蓋
  6
Continuous
 62
     3
370
     9
100
AcDbLine
 10
-421.2843417959928
 20
151.4770419577411
 30
0.0
 11
-421.2843417959928
 21
62.47694628100969
 31
0.0
  0
LINE
  5
127
330
1F
100
AcDbEntity
  8
A-2_蓋
  6
Continuous
 62
     3
370
     9
100
AcDbLine
 10
-463.584451659274
 20
251.4771986696288
 30
0.0
 11
-463.584451659274
 21
162.4767318331635
 31
0.0
  0
LINE
  5
128
330
1F
100
AcDbEntity
  8
A-2_蓋
  6
Continuous
 62
     3
370
     9
100
AcDbLine
 10
-463.584451659274
 20
151.4770419577411
 30
0.0
 11
-463.584451659274
 21
62.47694628100969
 31
0.0
  0
LINE
  5
129
330
1F
100
AcDbEntity
  8
A-2_蓋
  6
Continuous
 62
     3
370
     9
100
AcDbLine
 10
-456.5844533088729
 20
251.4771986696288
 30
0.0
 11
-456.5844533088729
 21
162.4767318331635
 31
0.0
  0
LINE
  5
12A
330
1F
100
AcDbEntity
  8
A-2_蓋
  6
Continuous
 62
     3
370
     9
100
AcDbLine
 10
-456.5844533088729
 20
151.4770419577411
 30
0.0
 11
-456.5844533088729
 21
62.47694628100969
 31
0.0
  0
LINE
  5
12B
330
1F
100
AcDbEntity
  8
A-2_蓋
  6
Continuous
 62
     3
370
     9
100
AcDbLine
 10
-498.8847116360477
 20
251.4771986696288
 30
0.0
 11
-498.8847116360477
 21
162.4767318331635
 31
0.0
  0
LINE
  5
12C
330
1F
100
AcDbEntity
  8
A-2_蓋
  6
Continuous
 62
     3
370
     9
100
AcDbLine
 10
-498.8847116360477
 20
151.4770419577411
 30
0.0
 11
-498.8847116360477
 21
62.47694628100969
 31
0.0
  0
LINE
  5
12D
330
1F
100
AcDbEntity
  8
A-2_蓋
  6
Continuous
 62
     3
370
     9
100
AcDbLine
 10
-491.8846390536997
 20
251.4771986696288
 30
0.0
 11
-491.8846390536997
 21
162.4767318331635
 31
0.0
  0
LINE
  5
12E
330
1F
100
AcDbEntity
  8
A-2_蓋
  6
Continuous
 62
     3
370
     9
100
AcDbLine
 10
-491.8846390536997
 20
151.4770419577411
 30
0.0
 11
-491.8846390536997
 21
62.47694628100969
 31
0.0
  0
LINE
  5
12F
330
1F
100
AcDbEntity
  8
A-9_ｸｯｼｮﾝ材
  6
JWW_CENTER1
 62
     4
370
     9
100
AcDbLine
 10
-512.7850148323104
 20
627.8725860614152
 30
0.0
 11
-512.7850148323104
 21
581.5159230018712
 31
0.0
  0
LINE
  5
130
330
1F
100
AcDbEntity
  8
A-9_ｸｯｼｮﾝ材
  6
Continuous
 62
     4
370
     9
100
AcDbLine
 10
-502.7849323523695
 20
-3.022725448825625
 30
0.0
 11
-502.7849323523695
 21
-31.0226446184836
 31
0.0
  0
LINE
  5
131
330
1F
100
AcDbEntity
  8
A-9_ｸｯｼｮﾝ材
  6
Continuous
 62
     4
370
     9
100
AcDbLine
 10
-519.285135253024
 20
6.977282799168435
 30
0.0
 11
-519.285135253024
 21
2.977368578307036
 31
0.0
  0
LINE
  5
132
330
1F
100
AcDbEntity
  8
A-9_ｸｯｼｮﾝ材
  6
Continuous
 62
     4
370
     9
100
AcDbLine
 10
-506.285117107437
 20
6.977282799168435
 30
0.0
 11
-506.285117107437
 21
2.977368578307036
 31
0.0
  0
LINE
  5
133
330
1F
100
AcDbEntity
  8
A-9_ｸｯｼｮﾝ材
  6
JWW_CENTER1
 62
     4
370
     9
100
AcDbLine
 10
-512.7850148323104
 20
35.6808465924539
 30
0.0
 11
-512.7850148323104
 21
-37.51452529310343
 31
0.0
  0
LINE
  5
134
330
1F
100
AcDbEntity
  8
A-9_ｸｯｼｮﾝ材
  6
Continuous
 62
     4
370
     9
100
AcDbLine
 10
-522.7850973122512
 20
-3.022725448825625
 30
0.0
 11
-522.7850973122512
 21
-31.0226446184836
 31
0.0
  0
LINE
  5
135
330
1F
100
AcDbEntity
  8
A-9_ｸｯｼｮﾝ材
  6
Continuous
 62
     4
370
     9
100
AcDbLine
 10
-522.7850973122512
 20
-31.0226446184836
 30
0.0
 11
-502.7849323523695
 21
-31.0226446184836
 31
0.0
  0
LINE
  5
136
330
1F
100
AcDbEntity
  8
A-2_蓋
  6
Continuous
 62
     3
370
     9
100
AcDbLine
 10
384.2518685476518
 20
556.9775137430029
 30
0.0
 11
378.5948003466382
 21
551.3207424697765
 31
0.0
  0
LINE
  5
137
330
1F
100
AcDbEntity
  8
A-2_蓋
  6
Continuous
 62
     3
370
     9
100
AcDbLine
 10
378.5948003466382
 20
551.3207424697765
 30
0.0
 11
372.9380290734118
 21
556.9775137430029
 31
0.0
  0
LINE
  5
138
330
1F
100
AcDbEntity
  8
A-2_蓋
  6
Continuous
 62
     3
370
     9
100
AcDbLine
 10
372.9380290734118
 20
556.9775137430029
 30
0.0
 11
378.5948003466382
 21
562.6342850162293
 31
0.0
  0
LINE
  5
139
330
1F
100
AcDbEntity
  8
A-2_蓋
  6
Continuous
 62
     3
370
     9
100
AcDbLine
 10
378.5948003466382
 20
562.6342850162293
 30
0.0
 11
384.2518685476518
 21
556.9775137430029
 31
0.0
  0
LINE
  5
13A
330
1F
100
AcDbEntity
  8
A-2_蓋
  6
Continuous
 62
     3
370
     9
100
AcDbLine
 10
371.4379498926687
 20
600.3338699771668
 30
0.0
 11
371.4379498926687
 21
597.3338600795739
 31
0.0
  0
LINE
  5
13B
330
1F
100
AcDbEntity
  8
A-2_蓋
  6
Continuous
 62
     3
370
     9
100
AcDbLine
 10
371.4379498926687
 20
600.3338699771668
 30
0.0
 11
372.9380290734118
 21
601.3340712282225
 31
0.0
  0
LINE
  5
13C
330
1F
100
AcDbEntity
  8
A-2_蓋
  6
Continuous
 62
     3
370
     9
100
AcDbLine
 10
371.4379498926687
 20
584.221083606812
 30
0.0
 11
372.9380290734118
 21
583.2208823557562
 31
0.0
  0
LINE
  5
13D
330
1F
100
AcDbEntity
  8
A-2_蓋
  6
Continuous
 62
     3
370
     9
100
AcDbLine
 10
371.4379498926687
 20
590.2209549381043
 30
0.0
 11
371.4379498926687
 21
584.221083606812
 31
0.0
  0
LINE
  5
13E
330
1F
100
AcDbEntity
  8
A-2_蓋
  6
Continuous
 62
     3
370
     9
100
AcDbLine
 10
371.4379498926687
 20
590.2209549381043
 30
0.0
 11
372.9380290734118
 21
591.2208592613728
 31
0.0
  0
LINE
  5
13F
330
1F
100
AcDbEntity
  8
A-2_蓋
  6
Continuous
 62
     3
370
     9
100
AcDbLine
 10
372.9380290734118
 20
596.3339557563053
 30
0.0
 11
372.9380290734118
 21
591.2208592613728
 31
0.0
  0
LINE
  5
140
330
1F
100
AcDbEntity
  8
A-2_蓋
  6
Continuous
 62
     3
370
     9
100
AcDbLine
 10
371.4379498926687
 20
597.3338600795739
 30
0.0
 11
372.9380290734118
 21
596.3339557563053
 31
0.0
  0
LINE
  5
141
330
1F
100
AcDbEntity
  8
A-2_蓋
  6
Continuous
 62
     3
370
     9
100
AcDbLine
 10
371.4379498926687
 20
577.1078815375553
 30
0.0
 11
371.4379498926687
 21
574.1078716399622
 31
0.0
  0
LINE
  5
142
330
1F
100
AcDbEntity
  8
A-2_蓋
  6
Continuous
 62
     3
370
     9
100
AcDbLine
 10
371.4379498926687
 20
577.1078815375553
 30
0.0
 11
372.9380290734118
 21
578.1077858608239
 31
0.0
  0
LINE
  5
143
330
1F
100
AcDbEntity
  8
A-2_蓋
  6
Continuous
 62
     3
370
     9
100
AcDbLine
 10
371.4379498926687
 20
560.994946703307
 30
0.0
 11
372.9380290734118
 21
559.9948939161447
 31
0.0
  0
LINE
  5
144
330
1F
100
AcDbEntity
  8
A-2_蓋
  6
Continuous
 62
     3
370
     9
100
AcDbLine
 10
371.4379498926687
 20
566.9948180345991
 30
0.0
 11
371.4379498926687
 21
560.994946703307
 31
0.0
  0
LINE
  5
145
330
1F
100
AcDbEntity
  8
A-2_蓋
  6
Continuous
 62
     3
370
     9
100
AcDbLine
 10
371.4379498926687
 20
566.9948180345991
 30
0.0
 11
372.9380290734118
 21
567.995019285655
 31
0.0
  0
LINE
  5
146
330
1F
100
AcDbEntity
  8
A-2_蓋
  6
Continuous
 62
     3
370
     9
100
AcDbLine
 10
372.9380290734118
 20
573.1081157805872
 30
0.0
 11
372.9380290734118
 21
567.995019285655
 31
0.0
  0
LINE
  5
147
330
1F
100
AcDbEntity
  8
A-2_蓋
  6
Continuous
 62
     3
370
     9
100
AcDbLine
 10
371.4379498926687
 20
574.1078716399622
 30
0.0
 11
372.9380290734118
 21
573.1081157805872
 31
0.0
  0
LINE
  5
148
330
1F
100
AcDbEntity
  8
A-2_蓋
  6
Continuous
 62
     3
370
     9
100
AcDbLine
 10
372.9380290734118
 20
578.1077858608239
 30
0.0
 11
372.9380290734118
 21
583.2208823557562
 31
0.0
  0
LINE
  5
149
330
1F
100
AcDbEntity
  8
A-2_蓋
  6
Continuous
 62
     3
370
     9
100
AcDbLine
 10
371.4379498926687
 20
553.8820415618372
 30
0.0
 11
371.4379498926687
 21
550.8820316642446
 31
0.0
  0
LINE
  5
14A
330
1F
100
AcDbEntity
  8
A-2_蓋
  6
Continuous
 62
     3
370
     9
100
AcDbLine
 10
371.4379498926687
 20
553.8820415618372
 30
0.0
 11
372.9380290734118
 21
554.8817974212122
 31
0.0
  0
LINE
  5
14B
330
1F
100
AcDbEntity
  8
A-2_蓋
  6
Continuous
 62
     3
370
     9
100
AcDbLine
 10
371.4379498926687
 20
537.7689582636954
 30
0.0
 11
372.9380290734118
 21
536.7690539404268
 31
0.0
  0
LINE
  5
14C
330
1F
100
AcDbEntity
  8
A-2_蓋
  6
Continuous
 62
     3
370
     9
100
AcDbLine
 10
371.4379498926687
 20
543.7688295949878
 30
0.0
 11
371.4379498926687
 21
537.7689582636954
 31
0.0
  0
LINE
  5
14D
330
1F
100
AcDbEntity
  8
A-2_蓋
  6
Continuous
 62
     3
370
     9
100
AcDbLine
 10
371.4379498926687
 20
543.7688295949878
 30
0.0
 11
372.9380290734118
 21
544.7690308460434
 31
0.0
  0
LINE
  5
14E
330
1F
100
AcDbEntity
  8
A-2_蓋
  6
Continuous
 62
     3
370
     9
100
AcDbLine
 10
372.9380290734118
 20
549.8818304131887
 30
0.0
 11
372.9380290734118
 21
544.7690308460434
 31
0.0
  0
LINE
  5
14F
330
1F
100
AcDbEntity
  8
A-2_蓋
  6
Continuous
 62
     3
370
     9
100
AcDbLine
 10
371.4379498926687
 20
550.8820316642446
 30
0.0
 11
372.9380290734118
 21
549.8818304131887
 31
0.0
  0
LINE
  5
150
330
1F
100
AcDbEntity
  8
A-2_蓋
  6
Continuous
 62
     3
370
     9
100
AcDbLine
 10
372.9380290734118
 20
554.8817974212122
 30
0.0
 11
372.9380290734118
 21
559.9948939161447
 31
0.0
  0
LINE
  5
151
330
1F
100
AcDbEntity
  8
A-2_蓋
  6
Continuous
 62
     3
370
     9
100
AcDbLine
 10
371.4379498926687
 20
530.6557561944387
 30
0.0
 11
371.4379498926687
 21
527.6558947607393
 31
0.0
  0
LINE
  5
152
330
1F
100
AcDbEntity
  8
A-2_蓋
  6
Continuous
 62
     3
370
     9
100
AcDbLine
 10
371.4379498926687
 20
530.6557561944387
 30
0.0
 11
372.9380290734118
 21
531.6559574454946
 31
0.0
  0
LINE
  5
153
330
1F
100
AcDbEntity
  8
A-2_蓋
  6
Continuous
 62
     3
370
     9
100
AcDbLine
 10
371.4379498926687
 20
527.6558947607393
 30
0.0
 11
372.9380290734118
 21
526.6558419735773
 31
0.0
  0
LINE
  5
154
330
1F
100
AcDbEntity
  8
A-2_蓋
  6
Continuous
 62
     3
370
     9
100
AcDbLine
 10
372.9380290734118
 20
531.6559574454946
 30
0.0
 11
372.9380290734118
 21
536.7690539404268
 31
0.0
  0
LINE
  5
155
330
1F
100
AcDbEntity
  8
A-2_蓋
  6
Continuous
 62
     3
370
     9
100
AcDbLine
 10
372.9380290734118
 20
606.9771838232393
 30
0.0
 11
372.9380290734118
 21
601.3340712282225
 31
0.0
  0
LINE
  5
156
330
1F
100
AcDbEntity
  8
A-2_蓋
  6
Continuous
 62
     3
370
     9
100
AcDbLine
 10
371.4379498926687
 20
514.542969824084
 30
0.0
 11
372.9380290734118
 21
513.5429170369218
 31
0.0
  0
LINE
  5
157
330
1F
100
AcDbEntity
  8
A-2_蓋
  6
Continuous
 62
     3
370
     9
100
AcDbLine
 10
371.4379498926687
 20
520.5429896192697
 30
0.0
 11
371.4379498926687
 21
514.542969824084
 31
0.0
  0
LINE
  5
158
330
1F
100
AcDbEntity
  8
A-2_蓋
  6
Continuous
 62
     3
370
     9
100
AcDbLine
 10
371.4379498926687
 20
520.5429896192697
 30
0.0
 11
372.9380290734118
 21
521.5427454786447
 31
0.0
  0
LINE
  5
159
330
1F
100
AcDbEntity
  8
A-2_蓋
  6
Continuous
 62
     3
370
     9
100
AcDbLine
 10
372.9380290734118
 20
526.6558419735773
 30
0.0
 11
372.9380290734118
 21
521.5427454786447
 31
0.0
  0
LINE
  5
15A
330
1F
100
AcDbEntity
  8
A-2_蓋
  6
Continuous
 62
     3
370
     9
100
AcDbLine
 10
371.4379498926687
 20
507.4297677548273
 30
0.0
 11
371.4379498926687
 21
504.4299063211279
 31
0.0
  0
LINE
  5
15B
330
1F
100
AcDbEntity
  8
A-2_蓋
  6
Continuous
 62
     3
370
     9
100
AcDbLine
 10
371.4379498926687
 20
507.4297677548273
 30
0.0
 11
372.9380290734118
 21
508.4298205419893
 31
0.0
  0
LINE
  5
15C
330
1F
100
AcDbEntity
  8
A-2_蓋
  6
Continuous
 62
     3
370
     9
100
AcDbLine
 10
371.4379498926687
 20
504.4299063211279
 30
0.0
 11
372.9380290734118
 21
503.4300019978593
 31
0.0
  0
LINE
  5
15D
330
1F
100
AcDbEntity
  8
A-2_蓋
  6
Continuous
 62
     3
370
     9
100
AcDbLine
 10
372.9380290734118
 20
508.4298205419893
 30
0.0
 11
372.9380290734118
 21
513.5429170369218
 31
0.0
  0
LINE
  5
15E
330
1F
100
AcDbEntity
  8
A-2_蓋
  6
Continuous
 62
     3
370
     9
100
AcDbLine
 10
371.4379498926687
 20
491.3168329205789
 30
0.0
 11
372.9380290734118
 21
490.3169285973103
 31
0.0
  0
LINE
  5
15F
330
1F
100
AcDbEntity
  8
A-2_蓋
  6
Continuous
 62
     3
370
     9
100
AcDbLine
 10
371.4379498926687
 20
497.3167042518712
 30
0.0
 11
371.4379498926687
 21
491.3168329205789
 31
0.0
  0
LINE
  5
160
330
1F
100
AcDbEntity
  8
A-2_蓋
  6
Continuous
 62
     3
370
     9
100
AcDbLine
 10
371.4379498926687
 20
497.3167042518712
 30
0.0
 11
372.9380290734118
 21
498.3169055029268
 31
0.0
  0
LINE
  5
161
330
1F
100
AcDbEntity
  8
A-2_蓋
  6
Continuous
 62
     3
370
     9
100
AcDbLine
 10
372.9380290734118
 20
503.4300019978593
 30
0.0
 11
372.9380290734118
 21
498.3169055029268
 31
0.0
  0
LINE
  5
162
330
1F
100
AcDbEntity
  8
A-2_蓋
  6
Continuous
 62
     3
370
     9
100
AcDbLine
 10
371.4379498926687
 20
484.2039277791093
 30
0.0
 11
371.4379498926687
 21
481.2039178815164
 31
0.0
  0
LINE
  5
163
330
1F
100
AcDbEntity
  8
A-2_蓋
  6
Continuous
 62
     3
370
     9
100
AcDbLine
 10
371.4379498926687
 20
481.2039178815164
 30
0.0
 11
372.9380290734118
 21
480.2037166304607
 31
0.0
  0
LINE
  5
164
330
1F
100
AcDbEntity
  8
A-2_蓋
  6
Continuous
 62
     3
370
     9
100
AcDbLine
 10
372.9380290734118
 20
485.2038321023779
 30
0.0
 11
372.9380290734118
 21
490.3169285973103
 31
0.0
  0
LINE
  5
165
330
1F
100
AcDbEntity
  8
A-2_蓋
  6
Continuous
 62
     3
370
     9
100
AcDbLine
 10
372.9380290734118
 20
480.2037166304607
 30
0.0
 11
372.9380290734118
 21
475.0906201355282
 31
0.0
  0
LINE
  5
166
330
1F
100
AcDbEntity
  8
A-1_ピット
  6
Continuous
 62
     2
370
     9
100
AcDbLine
 10
372.9380290734118
 20
613.4772300120064
 30
0.0
 11
372.9380290734118
 21
616.9772663031803
 31
0.0
  0
LINE
  5
167
330
1F
100
AcDbEntity
  8
A-1_ピット
  6
Continuous
 62
     2
370
     9
100
AcDbLine
 10
425.4378311215538
 20
556.9773652791093
 30
0.0
 11
428.9380158766213
 21
556.9773652791093
 31
0.0
  0
LINE
  5
168
330
1F
100
AcDbEntity
  8
A-1_ピット
  6
Continuous
 62
     2
370
     9
100
AcDbLine
 10
422.9379960814355
 20
606.9773322871329
 30
0.0
 11
422.9379960814355
 21
559.4772003192277
 31
0.0
  0
LINE
  5
169
330
1F
100
AcDbEntity
  8
A-1_ピット
  6
Continuous
 62
     2
370
     9
100
AcDbLine
 10
428.9380158766213
 20
616.9772663031803
 30
0.0
 11
372.9380290734118
 21
616.9772663031803
 31
0.0
  0
LINE
  5
16A
330
1F
100
AcDbEntity
  8
A-1_ピット
  6
Continuous
 62
     2
370
     9
100
AcDbLine
 10
428.9380158766213
 20
616.9772663031803
 30
0.0
 11
428.9380158766213
 21
556.9773652791093
 31
0.0
  0
LINE
  5
16B
330
1F
100
AcDbEntity
  8
A-1_ピット
  6
Continuous
 62
     2
370
     9
100
AcDbLine
 10
403.938180836503
 20
616.9772663031803
 30
0.0
 11
403.938180836503
 21
625.9771475320654
 31
0.0
  0
LINE
  5
16C
330
1F
100
AcDbEntity
  8
A-1_ピット
  6
Continuous
 62
     2
370
     9
100
AcDbLine
 10
417.7530430620097
 20
625.9771475320654
 30
0.0
 11
403.938180836503
 21
625.9771475320654
 31
0.0
  0
LINE
  5
16D
330
1F
100
AcDbEntity
  8
A-1_ピット
  6
Continuous
 62
     2
370
     9
100
AcDbLine
 10
422.4118400425841
 20
617.5907191114572
 30
0.0
 11
480.6025600594762
 21
633.1828426070233
 31
0.0
  0
LINE
  5
16E
330
1F
100
AcDbEntity
  8
A-1_ピット
  6
Continuous
 62
     2
370
     9
100
AcDbLine
 10
420.0824415522969
 20
626.2840224000975
 30
0.0
 11
478.273161569189
 21
641.8761458956634
 31
0.0
  0
LINE
  5
16F
330
1F
100
AcDbEntity
  8
A-1_ピット
  6
JWW_CENTER2
 62
     2
370
     9
100
AcDbLine
 10
417.7530430620097
 20
621.4772069176228
 30
0.0
 11
400.1330512440199
 21
621.4772069176228
 31
0.0
  0
LINE
  5
170
330
1F
100
AcDbEntity
  8
A-1_ピット
  6
JWW_CENTER2
 62
     2
370
     9
100
AcDbLine
 10
421.2472892613341
 20
621.9372965238306
 30
0.0
 11
486.4137337820268
 21
639.3985804395822
 31
0.0
  0
LINE
  5
171
330
1F
100
AcDbEntity
  8
A-2_蓋
  6
Continuous
 62
     3
370
     9
100
AcDbLine
 10
380.9378575151347
 20
560.2909309199454
 30
0.0
 11
380.9378575151347
 21
602.4772432087968
 31
0.0
  0
LINE
  5
172
330
1F
100
AcDbEntity
  8
A-2_蓋
  6
Continuous
 62
     3
370
     9
100
AcDbLine
 10
371.4379498926687
 20
484.2039277791093
 30
0.0
 11
372.9380290734118
 21
485.2038321023779
 31
0.0
  0
LINE
  5
173
330
1F
100
AcDbEntity
  8
A-1_ピット
  6
Continuous
 62
     2
370
     9
100
AcDbLine
 10
372.9380290734118
 20
0.4773108423482739
 30
0.0
 11
372.9380290734118
 21
-3.022725448825625
 31
0.0
  0
LINE
  5
174
330
1F
100
AcDbEntity
  8
A-1_ピット
  6
Continuous
 62
     2
370
     9
100
AcDbLine
 10
425.4378311215538
 20
56.97724980719219
 30
0.0
 11
428.9380158766213
 21
56.97724980719219
 31
0.0
  0
LINE
  5
175
330
1F
100
AcDbEntity
  8
A-1_ピット
  6
Continuous
 62
     2
370
     9
100
AcDbLine
 10
422.9379960814355
 20
6.977357031115318
 30
0.0
 11
422.9379960814355
 21
54.47734053512703
 31
0.0
  0
LINE
  5
176
330
1F
100
AcDbEntity
  8
A-1_ピット
  6
Continuous
 62
     2
370
     9
100
AcDbLine
 10
428.9380158766213
 20
-3.022725448825625
 30
0.0
 11
372.9380290734118
 21
-3.022725448825625
 31
0.0
  0
LINE
  5
177
330
1F
100
AcDbEntity
  8
A-1_ピット
  6
Continuous
 62
     2
370
     9
100
AcDbLine
 10
428.9380158766213
 20
-3.022725448825625
 30
0.0
 11
428.9380158766213
 21
56.97724980719219
 31
0.0
  0
LINE
  5
178
330
1F
100
AcDbEntity
  8
A-1_ピット
  6
Continuous
 62
     2
370
     9
100
AcDbLine
 10
403.938180836503
 20
-3.022725448825625
 30
0.0
 11
403.938180836503
 21
-12.02260667771078
 31
0.0
  0
LINE
  5
179
330
1F
100
AcDbEntity
  8
A-1_ピット
  6
Continuous
 62
     2
370
     9
100
AcDbLine
 10
417.7530430620097
 20
-12.02260667771078
 30
0.0
 11
403.938180836503
 21
-12.02260667771078
 31
0.0
  0
LINE
  5
17A
330
1F
100
AcDbEntity
  8
A-1_ピット
  6
Continuous
 62
     2
370
     9
100
AcDbLine
 10
422.4118400425841
 20
-3.636029793209062
 30
0.0
 11
480.6025600594762
 21
-19.228153288775
 31
0.0
  0
LINE
  5
17B
330
1F
100
AcDbEntity
  8
A-1_ピット
  6
Continuous
 62
     2
370
     9
100
AcDbLine
 10
420.0824415522969
 20
-12.32948154574281
 30
0.0
 11
478.273161569189
 21
-27.92160504130875
 31
0.0
  0
LINE
  5
17C
330
1F
100
AcDbEntity
  8
A-1_ピット
  6
JWW_CENTER2
 62
     2
370
     9
100
AcDbLine
 10
417.7530430620097
 20
-7.522666063268119
 30
0.0
 11
400.1330512440199
 21
-7.522666063268119
 31
0.0
  0
LINE
  5
17D
330
1F
100
AcDbEntity
  8
A-1_ピット
  6
JWW_CENTER2
 62
     2
370
     9
100
AcDbLine
 10
421.2472892613341
 20
-7.98260720558234
 30
0.0
 11
486.4137337820268
 21
-25.44389112133406
 31
0.0
  0
LINE
  5
17E
330
1F
100
AcDbEntity
  8
A-2_蓋
  6
Continuous
 62
     3
370
     9
100
AcDbLine
 10
413.4380884589693
 20
602.4772432087968
 30
0.0
 11
413.4380884589693
 21
11.4772234136111
 31
0.0
  0
LINE
  5
17F
330
1F
100
AcDbEntity
  8
A-2_蓋
  6
Continuous
 62
     3
370
     9
100
AcDbLine
 10
414.9378707119254
 20
602.4772432087968
 30
0.0
 11
414.9378707119254
 21
11.4772234136111
 31
0.0
  0
LINE
  5
180
330
1F
100
AcDbEntity
  8
A-2_蓋
  6
Continuous
 62
     3
370
     9
100
AcDbLine
 10
371.4379498926687
 20
468.0905475531803
 30
0.0
 11
372.9380290734118
 21
467.0907916938053
 31
0.0
  0
LINE
  5
181
330
1F
100
AcDbEntity
  8
A-2_蓋
  6
Continuous
 62
     3
370
     9
100
AcDbLine
 10
371.4379498926687
 20
474.0905673483661
 30
0.0
 11
371.4379498926687
 21
468.0905475531803
 31
0.0
  0
LINE
  5
182
330
1F
100
AcDbEntity
  8
A-2_蓋
  6
Continuous
 62
     3
370
     9
100
AcDbLine
 10
371.4379498926687
 20
474.0905673483661
 30
0.0
 11
372.9380290734118
 21
475.0906201355282
 31
0.0
  0
LINE
  5
183
330
1F
100
AcDbEntity
  8
A-2_蓋
  6
Continuous
 62
     3
370
     9
100
AcDbLine
 10
371.4379498926687
 20
460.9776424117107
 30
0.0
 11
371.4379498926687
 21
457.9777809780114
 31
0.0
  0
LINE
  5
184
330
1F
100
AcDbEntity
  8
A-2_蓋
  6
Continuous
 62
     3
370
     9
100
AcDbLine
 10
371.4379498926687
 20
457.9777809780114
 30
0.0
 11
372.9380290734118
 21
456.9775797269556
 31
0.0
  0
LINE
  5
185
330
1F
100
AcDbEntity
  8
A-2_蓋
  6
Continuous
 62
     3
370
     9
100
AcDbLine
 10
372.9380290734118
 20
461.9776951988728
 30
0.0
 11
372.9380290734118
 21
467.0907916938053
 31
0.0
  0
LINE
  5
186
330
1F
100
AcDbEntity
  8
A-2_蓋
  6
Continuous
 62
     3
370
     9
100
AcDbLine
 10
372.9380290734118
 20
456.9775797269556
 30
0.0
 11
372.9380290734118
 21
451.8644832320232
 31
0.0
  0
LINE
  5
187
330
1F
100
AcDbEntity
  8
A-2_蓋
  6
Continuous
 62
     3
370
     9
100
AcDbLine
 10
371.4379498926687
 20
460.9776424117107
 30
0.0
 11
372.9380290734118
 21
461.9776951988728
 31
0.0
  0
LINE
  5
188
330
1F
100
AcDbEntity
  8
A-2_蓋
  6
Continuous
 62
     3
370
     9
100
AcDbLine
 10
371.4379498926687
 20
444.8644106496753
 30
0.0
 11
372.9380290734118
 21
443.8645063264067
 31
0.0
  0
LINE
  5
189
330
1F
100
AcDbEntity
  8
A-2_蓋
  6
Continuous
 62
     3
370
     9
100
AcDbLine
 10
371.4379498926687
 20
450.8642819809675
 30
0.0
 11
371.4379498926687
 21
444.8644106496753
 31
0.0
  0
LINE
  5
18A
330
1F
100
AcDbEntity
  8
A-2_蓋
  6
Continuous
 62
     3
370
     9
100
AcDbLine
 10
371.4379498926687
 20
450.8642819809675
 30
0.0
 11
372.9380290734118
 21
451.8644832320232
 31
0.0
  0
LINE
  5
18B
330
1F
100
AcDbEntity
  8
A-2_蓋
  6
Continuous
 62
     3
370
     9
100
AcDbLine
 10
371.4379498926687
 20
437.7515055082056
 30
0.0
 11
371.4379498926687
 21
434.7514956106128
 31
0.0
  0
LINE
  5
18C
330
1F
100
AcDbEntity
  8
A-2_蓋
  6
Continuous
 62
     3
370
     9
100
AcDbLine
 10
371.4379498926687
 20
434.7514956106128
 30
0.0
 11
372.9380290734118
 21
433.7514428234506
 31
0.0
  0
LINE
  5
18D
330
1F
100
AcDbEntity
  8
A-2_蓋
  6
Continuous
 62
     3
370
     9
100
AcDbLine
 10
372.9380290734118
 20
438.7514098314742
 30
0.0
 11
372.9380290734118
 21
443.8645063264067
 31
0.0
  0
LINE
  5
18E
330
1F
100
AcDbEntity
  8
A-2_蓋
  6
Continuous
 62
     3
370
     9
100
AcDbLine
 10
372.9380290734118
 20
433.7514428234506
 30
0.0
 11
372.9380290734118
 21
428.6383463285181
 31
0.0
  0
LINE
  5
18F
330
1F
100
AcDbEntity
  8
A-2_蓋
  6
Continuous
 62
     3
370
     9
100
AcDbLine
 10
371.4379498926687
 20
437.7515055082056
 30
0.0
 11
372.9380290734118
 21
438.7514098314742
 31
0.0
  0
LINE
  5
190
330
1F
100
AcDbEntity
  8
A-2_蓋
  6
Continuous
 62
     3
370
     9
100
AcDbLine
 10
371.4379498926687
 20
421.6382737461701
 30
0.0
 11
372.9380290734118
 21
420.6383694229015
 31
0.0
  0
LINE
  5
191
330
1F
100
AcDbEntity
  8
A-2_蓋
  6
Continuous
 62
     3
370
     9
100
AcDbLine
 10
371.4379498926687
 20
427.6381450774623
 30
0.0
 11
371.4379498926687
 21
421.6382737461701
 31
0.0
  0
LINE
  5
192
330
1F
100
AcDbEntity
  8
A-2_蓋
  6
Continuous
 62
     3
370
     9
100
AcDbLine
 10
371.4379498926687
 20
427.6381450774623
 30
0.0
 11
372.9380290734118
 21
428.6383463285181
 31
0.0
  0
LINE
  5
193
330
1F
100
AcDbEntity
  8
A-2_蓋
  6
Continuous
 62
     3
370
     9
100
AcDbLine
 10
371.4379498926687
 20
414.5253686047006
 30
0.0
 11
371.4379498926687
 21
411.5253587071076
 31
0.0
  0
LINE
  5
194
330
1F
100
AcDbEntity
  8
A-2_蓋
  6
Continuous
 62
     3
370
     9
100
AcDbLine
 10
371.4379498926687
 20
411.5253587071076
 30
0.0
 11
372.9380290734118
 21
410.5251574560518
 31
0.0
  0
LINE
  5
195
330
1F
100
AcDbEntity
  8
A-2_蓋
  6
Continuous
 62
     3
370
     9
100
AcDbLine
 10
372.9380290734118
 20
415.5252729279692
 30
0.0
 11
372.9380290734118
 21
420.6383694229015
 31
0.0
  0
LINE
  5
196
330
1F
100
AcDbEntity
  8
A-2_蓋
  6
Continuous
 62
     3
370
     9
100
AcDbLine
 10
372.9380290734118
 20
410.5251574560518
 30
0.0
 11
372.9380290734118
 21
405.4120609611195
 31
0.0
  0
LINE
  5
197
330
1F
100
AcDbEntity
  8
A-2_蓋
  6
Continuous
 62
     3
370
     9
100
AcDbLine
 10
371.4379498926687
 20
414.5253686047006
 30
0.0
 11
372.9380290734118
 21
415.5252729279692
 31
0.0
  0
LINE
  5
198
330
1F
100
AcDbEntity
  8
A-2_蓋
  6
Continuous
 62
     3
370
     9
100
AcDbLine
 10
371.4379498926687
 20
398.4119883787715
 30
0.0
 11
372.9380290734118
 21
397.4122325193965
 31
0.0
  0
LINE
  5
199
330
1F
100
AcDbEntity
  8
A-2_蓋
  6
Continuous
 62
     3
370
     9
100
AcDbLine
 10
371.4379498926687
 20
404.4120081739573
 30
0.0
 11
371.4379498926687
 21
398.4119883787715
 31
0.0
  0
LINE
  5
19A
330
1F
100
AcDbEntity
  8
A-2_蓋
  6
Continuous
 62
     3
370
     9
100
AcDbLine
 10
371.4379498926687
 20
404.4120081739573
 30
0.0
 11
372.9380290734118
 21
405.4120609611195
 31
0.0
  0
LINE
  5
19B
330
1F
100
AcDbEntity
  8
A-2_蓋
  6
Continuous
 62
     3
370
     9
100
AcDbLine
 10
371.4379498926687
 20
391.2990832373018
 30
0.0
 11
371.4379498926687
 21
388.2992218036026
 31
0.0
  0
LINE
  5
19C
330
1F
100
AcDbEntity
  8
A-2_蓋
  6
Continuous
 62
     3
370
     9
100
AcDbLine
 10
371.4379498926687
 20
388.2992218036026
 30
0.0
 11
372.9380290734118
 21
387.2990205525468
 31
0.0
  0
LINE
  5
19D
330
1F
100
AcDbEntity
  8
A-2_蓋
  6
Continuous
 62
     3
370
     9
100
AcDbLine
 10
372.9380290734118
 20
392.299136024464
 30
0.0
 11
372.9380290734118
 21
397.4122325193965
 31
0.0
  0
LINE
  5
19E
330
1F
100
AcDbEntity
  8
A-2_蓋
  6
Continuous
 62
     3
370
     9
100
AcDbLine
 10
372.9380290734118
 20
387.2990205525468
 30
0.0
 11
372.9380290734118
 21
382.1859240576144
 31
0.0
  0
LINE
  5
19F
330
1F
100
AcDbEntity
  8
A-2_蓋
  6
Continuous
 62
     3
370
     9
100
AcDbLine
 10
371.4379498926687
 20
391.2990832373018
 30
0.0
 11
372.9380290734118
 21
392.299136024464
 31
0.0
  0
LINE
  5
1A0
330
1F
100
AcDbEntity
  8
A-2_蓋
  6
Continuous
 62
     3
370
     9
100
AcDbLine
 10
371.4379498926687
 20
375.1858514752664
 30
0.0
 11
372.9380290734118
 21
374.1859471519978
 31
0.0
  0
LINE
  5
1A1
330
1F
100
AcDbEntity
  8
A-2_蓋
  6
Continuous
 62
     3
370
     9
100
AcDbLine
 10
371.4379498926687
 20
381.1857228065588
 30
0.0
 11
371.4379498926687
 21
375.1858514752664
 31
0.0
  0
LINE
  5
1A2
330
1F
100
AcDbEntity
  8
A-2_蓋
  6
Continuous
 62
     3
370
     9
100
AcDbLine
 10
371.4379498926687
 20
381.1857228065588
 30
0.0
 11
372.9380290734118
 21
382.1859240576144
 31
0.0
  0
LINE
  5
1A3
330
1F
100
AcDbEntity
  8
A-2_蓋
  6
Continuous
 62
     3
370
     9
100
AcDbLine
 10
371.4379498926687
 20
368.0729463337969
 30
0.0
 11
371.4379498926687
 21
365.0729364362039
 31
0.0
  0
LINE
  5
1A4
330
1F
100
AcDbEntity
  8
A-2_蓋
  6
Continuous
 62
     3
370
     9
100
AcDbLine
 10
371.4379498926687
 20
365.0729364362039
 30
0.0
 11
372.9380290734118
 21
364.0728836490417
 31
0.0
  0
LINE
  5
1A5
330
1F
100
AcDbEntity
  8
A-2_蓋
  6
Continuous
 62
     3
370
     9
100
AcDbLine
 10
372.9380290734118
 20
369.0728506570655
 30
0.0
 11
372.9380290734118
 21
374.1859471519978
 31
0.0
  0
LINE
  5
1A6
330
1F
100
AcDbEntity
  8
A-2_蓋
  6
Continuous
 62
     3
370
     9
100
AcDbLine
 10
372.9380290734118
 20
364.0728836490417
 30
0.0
 11
372.9380290734118
 21
358.9597871541094
 31
0.0
  0
LINE
  5
1A7
330
1F
100
AcDbEntity
  8
A-2_蓋
  6
Continuous
 62
     3
370
     9
100
AcDbLine
 10
371.4379498926687
 20
368.0729463337969
 30
0.0
 11
372.9380290734118
 21
369.0728506570655
 31
0.0
  0
LINE
  5
1A8
330
1F
100
AcDbEntity
  8
A-2_蓋
  6
Continuous
 62
     3
370
     9
100
AcDbLine
 10
371.4379498926687
 20
351.9597145717614
 30
0.0
 11
372.9380290734118
 21
350.9598102484928
 31
0.0
  0
LINE
  5
1A9
330
1F
100
AcDbEntity
  8
A-2_蓋
  6
Continuous
 62
     3
370
     9
100
AcDbLine
 10
371.4379498926687
 20
357.9595859030536
 30
0.0
 11
371.4379498926687
 21
351.9597145717614
 31
0.0
  0
LINE
  5
1AA
330
1F
100
AcDbEntity
  8
A-2_蓋
  6
Continuous
 62
     3
370
     9
100
AcDbLine
 10
371.4379498926687
 20
357.9595859030536
 30
0.0
 11
372.9380290734118
 21
358.9597871541094
 31
0.0
  0
LINE
  5
1AB
330
1F
100
AcDbEntity
  8
A-2_蓋
  6
Continuous
 62
     3
370
     9
100
AcDbLine
 10
371.4379498926687
 20
344.8468094302917
 30
0.0
 11
371.4379498926687
 21
341.8467995326989
 31
0.0
  0
LINE
  5
1AC
330
1F
100
AcDbEntity
  8
A-2_蓋
  6
Continuous
 62
     3
370
     9
100
AcDbLine
 10
371.4379498926687
 20
341.8467995326989
 30
0.0
 11
372.9380290734118
 21
340.8465982816431
 31
0.0
  0
LINE
  5
1AD
330
1F
100
AcDbEntity
  8
A-2_蓋
  6
Continuous
 62
     3
370
     9
100
AcDbLine
 10
372.9380290734118
 20
345.8467137535603
 30
0.0
 11
372.9380290734118
 21
350.9598102484928
 31
0.0
  0
LINE
  5
1AE
330
1F
100
AcDbEntity
  8
A-2_蓋
  6
Continuous
 62
     3
370
     9
100
AcDbLine
 10
372.9380290734118
 20
340.8465982816431
 30
0.0
 11
372.9380290734118
 21
335.7335017867108
 31
0.0
  0
LINE
  5
1AF
330
1F
100
AcDbEntity
  8
A-2_蓋
  6
Continuous
 62
     3
370
     9
100
AcDbLine
 10
371.4379498926687
 20
344.8468094302917
 30
0.0
 11
372.9380290734118
 21
345.8467137535603
 31
0.0
  0
LINE
  5
1B0
330
1F
100
AcDbEntity
  8
A-2_蓋
  6
Continuous
 62
     3
370
     9
100
AcDbLine
 10
371.4379498926687
 20
328.7334292043627
 30
0.0
 11
372.9380290734118
 21
327.7336733449877
 31
0.0
  0
LINE
  5
1B1
330
1F
100
AcDbEntity
  8
A-2_蓋
  6
Continuous
 62
     3
370
     9
100
AcDbLine
 10
371.4379498926687
 20
334.7334489995486
 30
0.0
 11
371.4379498926687
 21
328.7334292043627
 31
0.0
  0
LINE
  5
1B2
330
1F
100
AcDbEntity
  8
A-2_蓋
  6
Continuous
 62
     3
370
     9
100
AcDbLine
 10
371.4379498926687
 20
334.7334489995486
 30
0.0
 11
372.9380290734118
 21
335.7335017867108
 31
0.0
  0
LINE
  5
1B3
330
1F
100
AcDbEntity
  8
A-2_蓋
  6
Continuous
 62
     3
370
     9
100
AcDbLine
 10
371.4379498926687
 20
321.6205240628931
 30
0.0
 11
371.4379498926687
 21
318.6206626291938
 31
0.0
  0
LINE
  5
1B4
330
1F
100
AcDbEntity
  8
A-2_蓋
  6
Continuous
 62
     3
370
     9
100
AcDbLine
 10
371.4379498926687
 20
318.6206626291938
 30
0.0
 11
372.9380290734118
 21
317.6204613781381
 31
0.0
  0
LINE
  5
1B5
330
1F
100
AcDbEntity
  8
A-2_蓋
  6
Continuous
 62
     3
370
     9
100
AcDbLine
 10
372.9380290734118
 20
322.6205768500553
 30
0.0
 11
372.9380290734118
 21
327.7336733449877
 31
0.0
  0
LINE
  5
1B6
330
1F
100
AcDbEntity
  8
A-2_蓋
  6
Continuous
 62
     3
370
     9
100
AcDbLine
 10
372.9380290734118
 20
317.6204613781381
 30
0.0
 11
372.9380290734118
 21
312.5073648832056
 31
0.0
  0
LINE
  5
1B7
330
1F
100
AcDbEntity
  8
A-2_蓋
  6
Continuous
 62
     3
370
     9
100
AcDbLine
 10
371.4379498926687
 20
321.6205240628931
 30
0.0
 11
372.9380290734118
 21
322.6205768500553
 31
0.0
  0
LINE
  5
1B8
330
1F
100
AcDbEntity
  8
A-2_蓋
  6
Continuous
 62
     3
370
     9
100
AcDbLine
 10
371.4379498926687
 20
305.5072923008577
 30
0.0
 11
372.9380290734118
 21
304.5073879775891
 31
0.0
  0
LINE
  5
1B9
330
1F
100
AcDbEntity
  8
A-2_蓋
  6
Continuous
 62
     3
370
     9
100
AcDbLine
 10
371.4379498926687
 20
311.5071636321499
 30
0.0
 11
371.4379498926687
 21
305.5072923008577
 31
0.0
  0
LINE
  5
1BA
330
1F
100
AcDbEntity
  8
A-2_蓋
  6
Continuous
 62
     3
370
     9
100
AcDbLine
 10
371.4379498926687
 20
311.5071636321499
 30
0.0
 11
372.9380290734118
 21
312.5073648832056
 31
0.0
  0
LINE
  5
1BB
330
1F
100
AcDbEntity
  8
A-2_蓋
  6
Continuous
 62
     3
370
     9
100
AcDbLine
 10
371.4379498926687
 20
298.3943871593881
 30
0.0
 11
371.4379498926687
 21
295.3943772617952
 31
0.0
  0
LINE
  5
1BC
330
1F
100
AcDbEntity
  8
A-2_蓋
  6
Continuous
 62
     3
370
     9
100
AcDbLine
 10
371.4379498926687
 20
295.3943772617952
 30
0.0
 11
372.9380290734118
 21
294.394324474633
 31
0.0
  0
LINE
  5
1BD
330
1F
100
AcDbEntity
  8
A-2_蓋
  6
Continuous
 62
     3
370
     9
100
AcDbLine
 10
372.9380290734118
 20
299.3942914826567
 30
0.0
 11
372.9380290734118
 21
304.5073879775891
 31
0.0
  0
LINE
  5
1BE
330
1F
100
AcDbEntity
  8
A-2_蓋
  6
Continuous
 62
     3
370
     9
100
AcDbLine
 10
372.9380290734118
 20
294.394324474633
 30
0.0
 11
372.9380290734118
 21
289.2812279797006
 31
0.0
  0
LINE
  5
1BF
330
1F
100
AcDbEntity
  8
A-2_蓋
  6
Continuous
 62
     3
370
     9
100
AcDbLine
 10
371.4379498926687
 20
298.3943871593881
 30
0.0
 11
372.9380290734118
 21
299.3942914826567
 31
0.0
  0
LINE
  5
1C0
330
1F
100
AcDbEntity
  8
A-2_蓋
  6
Continuous
 62
     3
370
     9
100
AcDbLine
 10
371.4379498926687
 20
282.2811553973527
 30
0.0
 11
372.9380290734118
 21
281.2812510740841
 31
0.0
  0
LINE
  5
1C1
330
1F
100
AcDbEntity
  8
A-2_蓋
  6
Continuous
 62
     3
370
     9
100
AcDbLine
 10
371.4379498926687
 20
288.2810267286449
 30
0.0
 11
371.4379498926687
 21
282.2811553973527
 31
0.0
  0
LINE
  5
1C2
330
1F
100
AcDbEntity
  8
A-2_蓋
  6
Continuous
 62
     3
370
     9
100
AcDbLine
 10
371.4379498926687
 20
288.2810267286449
 30
0.0
 11
372.9380290734118
 21
289.2812279797006
 31
0.0
  0
LINE
  5
1C3
330
1F
100
AcDbEntity
  8
A-2_蓋
  6
Continuous
 62
     3
370
     9
100
AcDbLine
 10
371.4379498926687
 20
275.168250255883
 30
0.0
 11
371.4379498926687
 21
272.1682403582902
 31
0.0
  0
LINE
  5
1C4
330
1F
100
AcDbEntity
  8
A-2_蓋
  6
Continuous
 62
     3
370
     9
100
AcDbLine
 10
371.4379498926687
 20
272.1682403582902
 30
0.0
 11
372.9380290734118
 21
271.1680391072344
 31
0.0
  0
LINE
  5
1C5
330
1F
100
AcDbEntity
  8
A-2_蓋
  6
Continuous
 62
     3
370
     9
100
AcDbLine
 10
372.9380290734118
 20
276.1681545791516
 30
0.0
 11
372.9380290734118
 21
281.2812510740841
 31
0.0
  0
LINE
  5
1C6
330
1F
100
AcDbEntity
  8
A-2_蓋
  6
Continuous
 62
     3
370
     9
100
AcDbLine
 10
372.9380290734118
 20
271.1680391072344
 30
0.0
 11
372.9380290734118
 21
266.0549426123019
 31
0.0
  0
LINE
  5
1C7
330
1F
100
AcDbEntity
  8
A-2_蓋
  6
Continuous
 62
     3
370
     9
100
AcDbLine
 10
371.4379498926687
 20
275.168250255883
 30
0.0
 11
372.9380290734118
 21
276.1681545791516
 31
0.0
  0
LINE
  5
1C8
330
1F
100
AcDbEntity
  8
A-2_蓋
  6
Continuous
 62
     3
370
     9
100
AcDbLine
 10
371.4379498926687
 20
259.0548700299539
 30
0.0
 11
372.9380290734118
 21
258.0549657066853
 31
0.0
  0
LINE
  5
1C9
330
1F
100
AcDbEntity
  8
A-2_蓋
  6
Continuous
 62
     3
370
     9
100
AcDbLine
 10
371.4379498926687
 20
265.0548898251397
 30
0.0
 11
371.4379498926687
 21
259.0548700299539
 31
0.0
  0
LINE
  5
1CA
330
1F
100
AcDbEntity
  8
A-2_蓋
  6
Continuous
 62
     3
370
     9
100
AcDbLine
 10
371.4379498926687
 20
265.0548898251397
 30
0.0
 11
372.9380290734118
 21
266.0549426123019
 31
0.0
  0
LINE
  5
1CB
330
1F
100
AcDbEntity
  8
A-2_蓋
  6
Continuous
 62
     3
370
     9
100
AcDbLine
 10
371.4379498926687
 20
251.9419648884844
 30
0.0
 11
371.4379498926687
 21
248.942103454785
 31
0.0
  0
LINE
  5
1CC
330
1F
100
AcDbEntity
  8
A-2_蓋
  6
Continuous
 62
     3
370
     9
100
AcDbLine
 10
371.4379498926687
 20
248.942103454785
 30
0.0
 11
372.9380290734118
 21
247.9419022037292
 31
0.0
  0
LINE
  5
1CD
330
1F
100
AcDbEntity
  8
A-2_蓋
  6
Continuous
 62
     3
370
     9
100
AcDbLine
 10
372.9380290734118
 20
252.941869211753
 30
0.0
 11
372.9380290734118
 21
258.0549657066853
 31
0.0
  0
LINE
  5
1CE
330
1F
100
AcDbEntity
  8
A-2_蓋
  6
Continuous
 62
     3
370
     9
100
AcDbLine
 10
372.9380290734118
 20
247.9419022037292
 30
0.0
 11
372.9380290734118
 21
242.8288057087969
 31
0.0
  0
LINE
  5
1CF
330
1F
100
AcDbEntity
  8
A-2_蓋
  6
Continuous
 62
     3
370
     9
100
AcDbLine
 10
371.4379498926687
 20
251.9419648884844
 30
0.0
 11
372.9380290734118
 21
252.941869211753
 31
0.0
  0
LINE
  5
1D0
330
1F
100
AcDbEntity
  8
A-2_蓋
  6
Continuous
 62
     3
370
     9
100
AcDbLine
 10
371.4379498926687
 20
235.8287331264489
 30
0.0
 11
372.9380290734118
 21
234.8288288031803
 31
0.0
  0
LINE
  5
1D1
330
1F
100
AcDbEntity
  8
A-2_蓋
  6
Continuous
 62
     3
370
     9
100
AcDbLine
 10
371.4379498926687
 20
241.828678689688
 30
0.0
 11
371.4379498926687
 21
235.8287331264489
 31
0.0
  0
LINE
  5
1D2
330
1F
100
AcDbEntity
  8
A-2_蓋
  6
Continuous
 62
     3
370
     9
100
AcDbLine
 10
371.4379498926687
 20
241.828678689688
 30
0.0
 11
372.9380290734118
 21
242.8288057087969
 31
0.0
  0
LINE
  5
1D3
330
1F
100
AcDbEntity
  8
A-2_蓋
  6
Continuous
 62
     3
370
     9
100
AcDbLine
 10
371.4379498926687
 20
228.7158279849792
 30
0.0
 11
371.4379498926687
 21
225.7158923193331
 31
0.0
  0
LINE
  5
1D4
330
1F
100
AcDbEntity
  8
A-2_蓋
  6
Continuous
 62
     3
370
     9
100
AcDbLine
 10
371.4379498926687
 20
225.7158923193331
 30
0.0
 11
372.9380290734118
 21
224.7156910682775
 31
0.0
  0
LINE
  5
1D5
330
1F
100
AcDbEntity
  8
A-2_蓋
  6
Continuous
 62
     3
370
     9
100
AcDbLine
 10
372.9380290734118
 20
229.7157323082478
 30
0.0
 11
372.9380290734118
 21
234.8288288031803
 31
0.0
  0
LINE
  5
1D6
330
1F
100
AcDbEntity
  8
A-2_蓋
  6
Continuous
 62
     3
370
     9
100
AcDbLine
 10
372.9380290734118
 20
224.7156910682775
 30
0.0
 11
372.9380290734118
 21
219.602594573345
 31
0.0
  0
LINE
  5
1D7
330
1F
100
AcDbEntity
  8
A-2_蓋
  6
Continuous
 62
     3
370
     9
100
AcDbLine
 10
371.4379498926687
 20
228.7158279849792
 30
0.0
 11
372.9380290734118
 21
229.7157323082478
 31
0.0
  0
LINE
  5
1D8
330
1F
100
AcDbEntity
  8
A-2_蓋
  6
Continuous
 62
     3
370
     9
100
AcDbLine
 10
371.4379498926687
 20
212.602521990997
 30
0.0
 11
372.9380290734118
 21
211.6026918996752
 31
0.0
  0
LINE
  5
1D9
330
1F
100
AcDbEntity
  8
A-2_蓋
  6
Continuous
 62
     3
370
     9
100
AcDbLine
 10
371.4379498926687
 20
218.6024675542361
 30
0.0
 11
371.4379498926687
 21
212.602521990997
 31
0.0
  0
LINE
  5
1DA
330
1F
100
AcDbEntity
  8
A-2_蓋
  6
Continuous
 62
     3
370
     9
100
AcDbLine
 10
371.4379498926687
 20
218.6024675542361
 30
0.0
 11
372.9380290734118
 21
219.602594573345
 31
0.0
  0
LINE
  5
1DB
330
1F
100
AcDbEntity
  8
A-2_蓋
  6
Continuous
 62
     3
370
     9
100
AcDbLine
 10
371.4379498926687
 20
205.4896168495275
 30
0.0
 11
371.4379498926687
 21
202.4896811838813
 31
0.0
  0
LINE
  5
1DC
330
1F
100
AcDbEntity
  8
A-2_蓋
  6
Continuous
 62
     3
370
     9
100
AcDbLine
 10
371.4379498926687
 20
202.4896811838813
 30
0.0
 11
372.9380290734118
 21
201.4894799328256
 31
0.0
  0
LINE
  5
1DD
330
1F
100
AcDbEntity
  8
A-2_蓋
  6
Continuous
 62
     3
370
     9
100
AcDbLine
 10
372.9380290734118
 20
206.4895954047428
 30
0.0
 11
372.9380290734118
 21
211.6026918996752
 31
0.0
  0
LINE
  5
1DE
330
1F
100
AcDbEntity
  8
A-2_蓋
  6
Continuous
 62
     3
370
     9
100
AcDbLine
 10
372.9380290734118
 20
201.4894799328256
 30
0.0
 11
372.9380290734118
 21
196.3763834378931
 31
0.0
  0
LINE
  5
1DF
330
1F
100
AcDbEntity
  8
A-2_蓋
  6
Continuous
 62
     3
370
     9
100
AcDbLine
 10
371.4379498926687
 20
205.4896168495275
 30
0.0
 11
372.9380290734118
 21
206.4895954047428
 31
0.0
  0
LINE
  5
1E0
330
1F
100
AcDbEntity
  8
A-2_蓋
  6
Continuous
 62
     3
370
     9
100
AcDbLine
 10
371.4379498926687
 20
189.3763850874919
 30
0.0
 11
372.9380290734118
 21
188.3764807642235
 31
0.0
  0
LINE
  5
1E1
330
1F
100
AcDbEntity
  8
A-2_蓋
  6
Continuous
 62
     3
370
     9
100
AcDbLine
 10
371.4379498926687
 20
195.3762564187842
 30
0.0
 11
371.4379498926687
 21
189.3763850874919
 31
0.0
  0
LINE
  5
1E2
330
1F
100
AcDbEntity
  8
A-2_蓋
  6
Continuous
 62
     3
370
     9
100
AcDbLine
 10
371.4379498926687
 20
195.3762564187842
 30
0.0
 11
372.9380290734118
 21
196.3763834378931
 31
0.0
  0
LINE
  5
1E3
330
1F
100
AcDbEntity
  8
A-2_蓋
  6
Continuous
 62
     3
370
     9
100
AcDbLine
 10
371.4379498926687
 20
182.2634057140756
 30
0.0
 11
371.4379498926687
 21
179.2634700484294
 31
0.0
  0
LINE
  5
1E4
330
1F
100
AcDbEntity
  8
A-2_蓋
  6
Continuous
 62
     3
370
     9
100
AcDbLine
 10
371.4379498926687
 20
179.2634700484294
 30
0.0
 11
372.9380290734118
 21
178.2633430293205
 31
0.0
  0
LINE
  5
1E5
330
1F
100
AcDbEntity
  8
A-2_蓋
  6
Continuous
 62
     3
370
     9
100
AcDbLine
 10
372.9380290734118
 20
183.263384269291
 30
0.0
 11
372.9380290734118
 21
188.3764807642235
 31
0.0
  0
LINE
  5
1E6
330
1F
100
AcDbEntity
  8
A-2_蓋
  6
Continuous
 62
     3
370
     9
100
AcDbLine
 10
372.9380290734118
 20
178.2633430293205
 30
0.0
 11
372.9380290734118
 21
173.1502465343881
 31
0.0
  0
LINE
  5
1E7
330
1F
100
AcDbEntity
  8
A-2_蓋
  6
Continuous
 62
     3
370
     9
100
AcDbLine
 10
371.4379498926687
 20
182.2634057140756
 30
0.0
 11
372.9380290734118
 21
183.263384269291
 31
0.0
  0
LINE
  5
1E8
330
1F
100
AcDbEntity
  8
A-2_蓋
  6
Continuous
 62
     3
370
     9
100
AcDbLine
 10
371.4379498926687
 20
166.1501739520402
 30
0.0
 11
372.9380290734118
 21
165.1502696287716
 31
0.0
  0
LINE
  5
1E9
330
1F
100
AcDbEntity
  8
A-2_蓋
  6
Continuous
 62
     3
370
     9
100
AcDbLine
 10
371.4379498926687
 20
172.1501195152791
 30
0.0
 11
371.4379498926687
 21
166.1501739520402
 31
0.0
  0
LINE
  5
1EA
330
1F
100
AcDbEntity
  8
A-2_蓋
  6
Continuous
 62
     3
370
     9
100
AcDbLine
 10
371.4379498926687
 20
172.1501195152791
 30
0.0
 11
372.9380290734118
 21
173.1502465343881
 31
0.0
  0
LINE
  5
1EB
330
1F
100
AcDbEntity
  8
A-2_蓋
  6
Continuous
 62
     3
370
     9
100
AcDbLine
 10
371.4379498926687
 20
159.0372688105705
 30
0.0
 11
371.4379498926687
 21
156.0373331449244
 31
0.0
  0
LINE
  5
1EC
330
1F
100
AcDbEntity
  8
A-2_蓋
  6
Continuous
 62
     3
370
     9
100
AcDbLine
 10
371.4379498926687
 20
156.0373331449244
 30
0.0
 11
372.9380290734118
 21
155.0372061258155
 31
0.0
  0
LINE
  5
1ED
330
1F
100
AcDbEntity
  8
A-2_蓋
  6
Continuous
 62
     3
370
     9
100
AcDbLine
 10
372.9380290734118
 20
160.0371731338391
 30
0.0
 11
372.9380290734118
 21
165.1502696287716
 31
0.0
  0
LINE
  5
1EE
330
1F
100
AcDbEntity
  8
A-2_蓋
  6
Continuous
 62
     3
370
     9
100
AcDbLine
 10
372.9380290734118
 20
155.0372061258155
 30
0.0
 11
372.9380290734118
 21
149.924109630883
 31
0.0
  0
LINE
  5
1EF
330
1F
100
AcDbEntity
  8
A-2_蓋
  6
Continuous
 62
     3
370
     9
100
AcDbLine
 10
371.4379498926687
 20
159.0372688105705
 30
0.0
 11
372.9380290734118
 21
160.0371731338391
 31
0.0
  0
LINE
  5
1F0
330
1F
100
AcDbEntity
  8
A-2_蓋
  6
Continuous
 62
     3
370
     9
100
AcDbLine
 10
371.4379498926687
 20
142.924037048535
 30
0.0
 11
372.9380290734118
 21
141.9240584933197
 31
0.0
  0
LINE
  5
1F1
330
1F
100
AcDbEntity
  8
A-2_蓋
  6
Continuous
 62
     3
370
     9
100
AcDbLine
 10
371.4379498926687
 20
148.9239083798272
 30
0.0
 11
371.4379498926687
 21
142.924037048535
 31
0.0
  0
LINE
  5
1F2
330
1F
100
AcDbEntity
  8
A-2_蓋
  6
Continuous
 62
     3
370
     9
100
AcDbLine
 10
371.4379498926687
 20
148.9239083798272
 30
0.0
 11
372.9380290734118
 21
149.924109630883
 31
0.0
  0
LINE
  5
1F3
330
1F
100
AcDbEntity
  8
A-2_蓋
  6
Continuous
 62
     3
370
     9
100
AcDbLine
 10
371.4379498926687
 20
135.8111319070655
 30
0.0
 11
371.4379498926687
 21
132.8111220094725
 31
0.0
  0
LINE
  5
1F4
330
1F
100
AcDbEntity
  8
A-2_蓋
  6
Continuous
 62
     3
370
     9
100
AcDbLine
 10
371.4379498926687
 20
132.8111220094725
 30
0.0
 11
372.9380290734118
 21
131.8109949903636
 31
0.0
  0
LINE
  5
1F5
330
1F
100
AcDbEntity
  8
A-2_蓋
  6
Continuous
 62
     3
370
     9
100
AcDbLine
 10
372.9380290734118
 20
136.8109619983872
 30
0.0
 11
372.9380290734118
 21
141.9240584933197
 31
0.0
  0
LINE
  5
1F6
330
1F
100
AcDbEntity
  8
A-2_蓋
  6
Continuous
 62
     3
370
     9
100
AcDbLine
 10
372.9380290734118
 20
131.8109949903636
 30
0.0
 11
372.9380290734118
 21
126.6978984954311
 31
0.0
  0
LINE
  5
1F7
330
1F
100
AcDbEntity
  8
A-2_蓋
  6
Continuous
 62
     3
370
     9
100
AcDbLine
 10
371.4379498926687
 20
135.8111319070655
 30
0.0
 11
372.9380290734118
 21
136.8109619983872
 31
0.0
  0
LINE
  5
1F8
330
1F
100
AcDbEntity
  8
A-2_蓋
  6
Continuous
 62
     3
370
     9
100
AcDbLine
 10
371.4379498926687
 20
119.6978259130831
 30
0.0
 11
372.9380290734118
 21
118.6978473578678
 31
0.0
  0
LINE
  5
1F9
330
1F
100
AcDbEntity
  8
A-2_蓋
  6
Continuous
 62
     3
370
     9
100
AcDbLine
 10
371.4379498926687
 20
125.6976972443755
 30
0.0
 11
371.4379498926687
 21
119.6978259130831
 31
0.0
  0
LINE
  5
1FA
330
1F
100
AcDbEntity
  8
A-2_蓋
  6
Continuous
 62
     3
370
     9
100
AcDbLine
 10
371.4379498926687
 20
125.6976972443755
 30
0.0
 11
372.9380290734118
 21
126.6978984954311
 31
0.0
  0
LINE
  5
1FB
330
1F
100
AcDbEntity
  8
A-2_蓋
  6
JWW_CENTER1
 62
     3
370
     9
100
AcDbLine
 10
355.0018091620943
 20
306.9773075431508
 30
0.0
 11
442.086275219949
 21
306.9773075431508
 31
0.0
  0
LINE
  5
1FC
330
1F
100
AcDbEntity
  8
A-9_ｸｯｼｮﾝ材
  6
JWW_CENTER1
 62
     4
370
     9
100
AcDbLine
 10
390.9380884589693
 20
627.8725860614152
 30
0.0
 11
390.9380884589693
 21
581.5159230018712
 31
0.0
  0
LINE
  5
1FD
330
1F
100
AcDbEntity
  8
A-9_ｸｯｼｮﾝ材
  6
Continuous
 62
     4
370
     9
100
AcDbLine
 10
380.9378575151347
 20
-31.02257038653671
 30
0.0
 11
400.9380224750166
 21
-31.02257038653671
 31
0.0
  0
LINE
  5
1FE
330
1F
100
AcDbEntity
  8
A-9_ｸｯｼｮﾝ材
  6
Continuous
 62
     4
370
     9
100
AcDbLine
 10
380.9378575151347
 20
-3.022428521038435
 30
0.0
 11
380.9378575151347
 21
-31.02257038653671
 31
0.0
  0
LINE
  5
1FF
330
1F
100
AcDbEntity
  8
A-9_ｸｯｼｮﾝ材
  6
Continuous
 62
     4
370
     9
100
AcDbLine
 10
400.9380224750166
 20
-3.022428521038435
 30
0.0
 11
400.9380224750166
 21
-31.02257038653671
 31
0.0
  0
LINE
  5
200
330
1F
100
AcDbEntity
  8
A-9_ｸｯｼｮﾝ材
  6
JWW_CENTER1
 62
     4
370
     9
100
AcDbLine
 10
390.9380884589693
 20
35.68092082440079
 30
0.0
 11
390.9380884589693
 21
-37.51430259726312
 31
0.0
  0
LINE
  5
201
330
1F
100
AcDbEntity
  8
A-1_ピット
  6
Continuous
 62
     2
370
     9
100
AcDbLine
 10
418.938081860574
 20
2.977145882466559
 30
0.0
 11
397.4381346477361
 21
2.977145882466559
 31
0.0
  0
LINE
  5
202
330
1F
100
AcDbEntity
  8
A-1_ピット
  6
Continuous
 62
     2
370
     9
100
AcDbLine
 10
384.4380422702024
 20
2.977145882466559
 30
0.0
 11
375.4378641135301
 21
2.977145882466559
 31
0.0
  0
LINE
  5
203
330
1F
100
AcDbEntity
  8
A-2_蓋
  6
Continuous
 62
     3
370
     9
100
AcDbLine
 10
372.9380290734118
 20
6.97743126306203
 30
0.0
 11
384.4380422702024
 21
6.97743126306203
 31
0.0
  0
LINE
  5
204
330
1F
100
AcDbEntity
  8
A-4_寸法
  6
Continuous
 62
     7
370
     9
100
AcDbLine
 10
112.1371488474827
 20
772.652941978856
 30
0.0
 11
271.2313541367565
 21
772.652941978856
 31
0.0
  0
LINE
  5
205
330
1F
100
AcDbEntity
  8
A-2_蓋
  6
Continuous
 62
     3
370
     9
100
AcDbLine
 10
384.2518685476518
 20
356.9775714789616
 30
0.0
 11
378.5948003466382
 21
351.3208002057352
 31
0.0
  0
LINE
  5
206
330
1F
100
AcDbEntity
  8
A-2_蓋
  6
Continuous
 62
     3
370
     9
100
AcDbLine
 10
378.5948003466382
 20
351.3208002057352
 30
0.0
 11
372.9380290734118
 21
356.9775714789616
 31
0.0
  0
LINE
  5
207
330
1F
100
AcDbEntity
  8
A-2_蓋
  6
Continuous
 62
     3
370
     9
100
AcDbLine
 10
372.9380290734118
 20
356.9775714789616
 30
0.0
 11
378.5948003466382
 21
362.634342752188
 31
0.0
  0
LINE
  5
208
330
1F
100
AcDbEntity
  8
A-2_蓋
  6
Continuous
 62
     3
370
     9
100
AcDbLine
 10
378.5948003466382
 20
362.634342752188
 30
0.0
 11
384.2518685476518
 21
356.9775714789616
 31
0.0
  0
LINE
  5
209
330
1F
100
AcDbEntity
  8
A-2_蓋
  6
Continuous
 62
     3
370
     9
100
AcDbLine
 10
384.2518685476518
 20
256.9775632309675
 30
0.0
 11
378.5948003466382
 21
251.3207919577411
 31
0.0
  0
LINE
  5
20A
330
1F
100
AcDbEntity
  8
A-2_蓋
  6
Continuous
 62
     3
370
     9
100
AcDbLine
 10
378.5948003466382
 20
251.3207919577411
 30
0.0
 11
372.9380290734118
 21
256.9775632309675
 31
0.0
  0
LINE
  5
20B
330
1F
100
AcDbEntity
  8
A-2_蓋
  6
Continuous
 62
     3
370
     9
100
AcDbLine
 10
372.9380290734118
 20
256.9775632309675
 30
0.0
 11
378.5948003466382
 21
262.6343345041938
 31
0.0
  0
LINE
  5
20C
330
1F
100
AcDbEntity
  8
A-2_蓋
  6
Continuous
 62
     3
370
     9
100
AcDbLine
 10
378.5948003466382
 20
262.6343345041938
 30
0.0
 11
384.2518685476518
 21
256.9775632309675
 31
0.0
  0
LINE
  5
20D
330
1F
100
AcDbEntity
  8
A-2_蓋
  6
Continuous
 62
     3
370
     9
100
AcDbLine
 10
384.2518685476518
 20
156.9776292149202
 30
0.0
 11
378.5948003466382
 21
151.3208579416938
 31
0.0
  0
LINE
  5
20E
330
1F
100
AcDbEntity
  8
A-2_蓋
  6
Continuous
 62
     3
370
     9
100
AcDbLine
 10
378.5948003466382
 20
151.3208579416938
 30
0.0
 11
372.9380290734118
 21
156.9776292149202
 31
0.0
  0
LINE
  5
20F
330
1F
100
AcDbEntity
  8
A-2_蓋
  6
Continuous
 62
     3
370
     9
100
AcDbLine
 10
372.9380290734118
 20
156.9776292149202
 30
0.0
 11
378.5948003466382
 21
162.6344004881466
 31
0.0
  0
LINE
  5
210
330
1F
100
AcDbEntity
  8
A-2_蓋
  6
Continuous
 62
     3
370
     9
100
AcDbLine
 10
378.5948003466382
 20
162.6344004881466
 30
0.0
 11
384.2518685476518
 21
156.9776292149202
 31
0.0
  0
LINE
  5
211
330
1F
100
AcDbEntity
  8
A-2_蓋
  6
Continuous
 62
     3
370
     9
100
AcDbLine
 10
384.2518685476518
 20
56.97754673497921
 30
0.0
 11
378.5948003466382
 21
51.32077546175297
 31
0.0
  0
LINE
  5
212
330
1F
100
AcDbEntity
  8
A-2_蓋
  6
Continuous
 62
     3
370
     9
100
AcDbLine
 10
378.5948003466382
 20
51.32077546175297
 30
0.0
 11
372.9380290734118
 21
56.97754673497921
 31
0.0
  0
LINE
  5
213
330
1F
100
AcDbEntity
  8
A-2_蓋
  6
Continuous
 62
     3
370
     9
100
AcDbLine
 10
372.9380290734118
 20
56.97754673497921
 30
0.0
 11
378.5948003466382
 21
62.63431800820563
 31
0.0
  0
LINE
  5
214
330
1F
100
AcDbEntity
  8
A-2_蓋
  6
Continuous
 62
     3
370
     9
100
AcDbLine
 10
378.5948003466382
 20
62.63431800820563
 30
0.0
 11
384.2518685476518
 21
56.97754673497921
 31
0.0
  0
LINE
  5
215
330
1F
100
AcDbEntity
  8
A-2_蓋
  6
Continuous
 62
     3
370
     9
100
AcDbLine
 10
382.437936695878
 20
602.4772432087968
 30
0.0
 11
382.437936695878
 21
558.7911486669893
 31
0.0
  0
LINE
  5
216
330
1F
100
AcDbEntity
  8
A-2_蓋
  6
Continuous
 62
     3
370
     9
100
AcDbLine
 10
380.9378575151347
 20
260.2912773356972
 30
0.0
 11
380.9378575151347
 21
353.6638573742319
 31
0.0
  0
LINE
  5
217
330
1F
100
AcDbEntity
  8
A-2_蓋
  6
Continuous
 62
     3
370
     9
100
AcDbLine
 10
382.437936695878
 20
355.1638623230283
 30
0.0
 11
382.437936695878
 21
258.7912723869008
 31
0.0
  0
LINE
  5
218
330
1F
100
AcDbEntity
  8
A-2_蓋
  6
Continuous
 62
     3
370
     9
100
AcDbLine
 10
380.9378575151347
 20
160.2913433196499
 30
0.0
 11
380.9378575151347
 21
253.6638491262377
 31
0.0
  0
LINE
  5
219
330
1F
100
AcDbEntity
  8
A-2_蓋
  6
Continuous
 62
     3
370
     9
100
AcDbLine
 10
382.437936695878
 20
255.1638540750342
 30
0.0
 11
382.437936695878
 21
158.7913383708535
 31
0.0
  0
LINE
  5
21A
330
1F
100
AcDbEntity
  8
A-2_蓋
  6
Continuous
 62
     3
370
     9
100
AcDbLine
 10
380.9378575151347
 20
11.4772234136111
 30
0.0
 11
380.9378575151347
 21
53.66383263024953
 31
0.0
  0
LINE
  5
21B
330
1F
100
AcDbEntity
  8
A-2_蓋
  6
Continuous
 62
     3
370
     9
100
AcDbLine
 10
380.9378575151347
 20
60.29126083970907
 30
0.0
 11
380.9378575151347
 21
153.6639151101905
 31
0.0
  0
LINE
  5
21C
330
1F
100
AcDbEntity
  8
A-2_蓋
  6
Continuous
 62
     3
370
     9
100
AcDbLine
 10
382.437936695878
 20
155.1639200589869
 30
0.0
 11
382.437936695878
 21
58.7912558909125
 31
0.0
  0
LINE
  5
21D
330
1F
100
AcDbEntity
  8
A-2_蓋
  6
Continuous
 62
     3
370
     9
100
AcDbLine
 10
382.437936695878
 20
55.16383757904593
 30
0.0
 11
382.437936695878
 21
11.4772234136111
 31
0.0
  0
LINE
  5
21E
330
1F
100
AcDbEntity
  8
A-4_寸法
  6
Continuous
 62
     7
370
     9
100
AcDbLine
 10
-280.0846380639404
 20
587.8194029955366
 30
0.0
 11
-275.7796305417698
 21
602.1883324718881
 31
0.0
  0
LINE
  5
21F
330
1F
100
AcDbEntity
  8
A-4_寸法
  6
Continuous
 62
     7
370
     9
100
AcDbLine
 10
-280.0846380639404
 20
587.8194029955366
 30
0.0
 11
-272.2073665663685
 21
600.5844770295316
 31
0.0
  0
LINE
  5
220
330
1F
100
AcDbEntity
  8
A-4_寸法
  6
Continuous
 62
     7
370
     9
100
AcDbLine
 10
271.2313541367565
 20
772.652941978856
 30
0.0
 11
372.9380290734118
 21
616.9772663031803
 31
0.0
  0
LINE
  5
221
330
1F
100
AcDbEntity
  8
A-4_寸法
  6
Continuous
 62
     7
370
     9
100
AcDbLine
 10
543.801561062432
 20
772.652941978856
 30
0.0
 11
483.784735154493
 21
638.6941192645402
 31
0.0
  0
LINE
  5
222
330
1F
100
AcDbEntity
  8
A-4_寸法
  6
Continuous
 62
     7
370
     9
100
AcDbLine
 10
372.9380290734118
 20
616.9772663031803
 30
0.0
 11
363.1649478867565
 21
628.3565783544893
 31
0.0
  0
LINE
  5
223
330
1F
100
AcDbEntity
  8
A-4_寸法
  6
Continuous
 62
     7
370
     9
100
AcDbLine
 10
372.9380290734118
 20
616.9772663031803
 30
0.0
 11
366.4433275848138
 21
630.4981700193965
 31
0.0
  0
LINE
  5
224
330
1F
100
AcDbEntity
  8
A-4_寸法
  6
Continuous
 62
     7
370
     9
100
AcDbLine
 10
483.784735154493
 20
638.6941192645402
 30
0.0
 11
488.0783109568577
 21
653.0664634104439
 31
0.0
  0
LINE
  5
225
330
1F
100
AcDbEntity
  8
A-4_寸法
  6
Continuous
 62
     7
370
     9
100
AcDbLine
 10
483.784735154493
 20
638.6941192645402
 30
0.0
 11
491.6518368753543
 21
651.4654287820654
 31
0.0
  0
LINE
  5
226
330
1F
100
AcDbEntity
  8
A-4_寸法
  6
Continuous
 62
     7
370
     9
100
AcDbLine
 10
-829.1656548106675
 20
-162.6575620065748
 30
0.0
 11
-655.8712492600976
 21
-162.6575620065748
 31
0.0
  0
LINE
  5
227
330
1F
100
AcDbEntity
  8
A-4_寸法
  6
Continuous
 62
     7
370
     9
100
AcDbLine
 10
-655.8712492600976
 20
-162.6575620065748
 30
0.0
 11
-522.7850973122512
 21
-31.0226446184836
 31
0.0
  0
LINE
  5
228
330
1F
100
AcDbEntity
  8
A-4_寸法
  6
Continuous
 62
     7
370
     9
100
AcDbLine
 10
-550.785090713856
 20
680.2205095464235
 30
0.0
 11
-389.2850280291009
 21
680.2205095464235
 31
0.0
  0
LINE
  5
229
330
1F
100
AcDbEntity
  8
A-4_寸法
  6
Continuous
 62
     7
370
     9
100
AcDbLine
 10
-550.785090713856
 20
625.977295995959
 30
0.0
 11
-550.785090713856
 21
682.0204857922006
 31
0.0
  0
LINE
  5
22A
330
1F
100
AcDbEntity
  8
A-4_寸法
  6
Continuous
 62
     7
370
     9
100
AcDbLine
 10
-389.2850280291009
 20
646.5771066220148
 30
0.0
 11
-389.2850280291009
 21
682.0204857922006
 31
0.0
  0
LINE
  5
22B
330
1F
100
AcDbEntity
  8
A-4_寸法
  6
Continuous
 62
     7
370
     9
100
AcDbLine
 10
-389.2850280291009
 20
680.2205095464235
 30
0.0
 11
-227.7850395762926
 21
680.2205095464235
 31
0.0
  0
LINE
  5
22C
330
1F
100
AcDbEntity
  8
A-4_寸法
  6
Continuous
 62
     7
370
     9
100
AcDbLine
 10
-227.7850395762926
 20
625.977295995959
 30
0.0
 11
-227.7850395762926
 21
682.0204857922006
 31
0.0
  0
LINE
  5
22D
330
1F
100
AcDbEntity
  8
A-4_寸法
  6
Continuous
 62
     7
370
     9
100
AcDbLine
 10
-550.785090713856
 20
-183.6656483399785
 30
0.0
 11
-227.7850395762926
 21
-183.6656483399785
 31
0.0
  0
LINE
  5
22E
330
1F
100
AcDbEntity
  8
A-4_寸法
  6
Continuous
 62
     7
370
     9
100
AcDbLine
 10
-550.785090713856
 20
-12.02275514160438
 30
0.0
 11
-550.785090713856
 21
-185.4656245857556
 31
0.0
  0
LINE
  5
22F
330
1F
100
AcDbEntity
  8
A-4_寸法
  6
Continuous
 62
     7
370
     9
100
AcDbLine
 10
-227.7850395762926
 20
-12.02275514160438
 30
0.0
 11
-227.7850395762926
 21
-185.4656245857556
 31
0.0
  0
LINE
  5
230
330
1F
100
AcDbEntity
  8
A-4_寸法
  6
Continuous
 62
     7
370
     9
100
AcDbLine
 10
-544.78507091867
 20
-6.022586882525005
 30
0.0
 11
-544.78507091867
 21
-133.4119565378248
 31
0.0
  0
LINE
  5
231
330
1F
100
AcDbEntity
  8
A-4_寸法
  6
Continuous
 62
     7
370
     9
100
AcDbLine
 10
-544.78507091867
 20
-131.6119802920477
 30
0.0
 11
-233.7851336034253
 21
-131.6119802920477
 31
0.0
  0
LINE
  5
232
330
1F
100
AcDbEntity
  8
A-4_寸法
  6
Continuous
 62
     7
370
     9
100
AcDbLine
 10
-233.7851336034253
 20
-6.022586882525005
 30
0.0
 11
-233.7851336034253
 21
-133.4119565378248
 31
0.0
  0
LINE
  5
233
330
1F
100
AcDbEntity
  8
A-4_寸法
  6
Continuous
 62
     7
370
     9
100
AcDbLine
 10
-227.7849653443457
 20
-140.6120099848265
 30
0.0
 11
-227.7849653443457
 21
-133.4119565378248
 31
0.0
  0
LINE
  5
234
330
1F
100
AcDbEntity
  8
A-4_寸法
  6
Continuous
 62
     7
370
     9
100
AcDbLine
 10
-544.78507091867
 20
-80.44323128180703
 30
0.0
 11
-533.784935651567
 21
-80.44323128180703
 31
0.0
  0
LINE
  5
235
330
1F
100
AcDbEntity
  8
A-4_寸法
  6
Continuous
 62
     7
370
     9
100
AcDbLine
 10
-533.784935651567
 20
-80.44323128180703
 30
0.0
 11
-244.7850461746879
 21
-80.44323128180703
 31
0.0
  0
LINE
  5
236
330
1F
100
AcDbEntity
  8
A-4_寸法
  6
Continuous
 62
     7
370
     9
100
AcDbLine
 10
-244.7850461746879
 20
-80.44323128180703
 30
0.0
 11
-233.7849851395317
 21
-80.44323128180703
 31
0.0
  0
LINE
  5
237
330
1F
100
AcDbEntity
  8
A-4_寸法
  6
Continuous
 62
     7
370
     9
100
AcDbLine
 10
-233.7849851395317
 20
-89.44326097458578
 30
0.0
 11
-233.7849851395317
 21
-82.24320752758406
 31
0.0
  0
LINE
  5
238
330
1F
100
AcDbEntity
  8
A-4_寸法
  6
Continuous
 62
     7
370
     9
100
AcDbLine
 10
-574.0199869870823
 20
-131.6119802920477
 30
0.0
 11
-544.78507091867
 21
-131.6119802920477
 31
0.0
  0
LINE
  5
239
330
1F
100
AcDbEntity
  8
A-4_寸法
  6
Continuous
 62
     7
370
     9
100
AcDbLine
 10
-233.7851336034253
 20
-131.6119802920477
 30
0.0
 11
-205.3796853084506
 21
-131.6119802920477
 31
0.0
  0
LINE
  5
23A
330
1F
100
AcDbEntity
  8
A-4_寸法
  6
Continuous
 62
     7
370
     9
100
AcDbLine
 10
268.7160788517057
 20
-3.022725448825625
 30
0.0
 11
268.7160788517057
 21
616.9772663031803
 31
0.0
  0
LINE
  5
23B
330
1F
100
AcDbEntity
  8
A-4_寸法
  6
Continuous
 62
     7
370
     9
100
AcDbLine
 10
363.9381478445268
 20
-3.022725448825625
 30
0.0
 11
266.9161026059286
 21
-3.022725448825625
 31
0.0
  0
LINE
  5
23C
330
1F
100
AcDbEntity
  8
A-4_寸法
  6
Continuous
 62
     7
370
     9
100
AcDbLine
 10
363.9381478445268
 20
616.9772663031803
 30
0.0
 11
266.9161026059286
 21
616.9772663031803
 31
0.0
  0
LINE
  5
23D
330
1F
100
AcDbEntity
  8
A-4_寸法
  6
Continuous
 62
     7
370
     9
100
AcDbLine
 10
366.4379828846449
 20
2.977145882466559
 30
0.0
 11
314.6614969260301
 21
2.977145882466559
 31
0.0
  0
LINE
  5
23E
330
1F
100
AcDbEntity
  8
A-4_寸法
  6
Continuous
 62
     7
370
     9
100
AcDbLine
 10
316.4614731718071
 20
2.977145882466559
 30
0.0
 11
316.4614731718071
 21
6.97743126306203
 31
0.0
  0
LINE
  5
23F
330
1F
100
AcDbEntity
  8
A-4_寸法
  6
Continuous
 62
     7
370
     9
100
AcDbLine
 10
363.9381478445268
 20
6.97743126306203
 30
0.0
 11
314.6614969260301
 21
6.97743126306203
 31
0.0
  0
LINE
  5
240
330
1F
100
AcDbEntity
  8
A-4_寸法
  6
Continuous
 62
     7
370
     9
100
AcDbLine
 10
316.4614731718071
 20
6.97743126306203
 30
0.0
 11
316.4614731718071
 21
606.9771838232393
 31
0.0
  0
LINE
  5
241
330
1F
100
AcDbEntity
  8
A-4_寸法
  6
Continuous
 62
     7
370
     9
100
AcDbLine
 10
363.9381478445268
 20
606.9771838232393
 30
0.0
 11
314.6614969260301
 21
606.9771838232393
 31
0.0
  0
LINE
  5
242
330
1F
100
AcDbEntity
  8
A-4_寸法
  6
Continuous
 62
     7
370
     9
100
AcDbLine
 10
316.4614731718071
 20
606.9771838232393
 30
0.0
 11
316.4614731718071
 21
610.9773949718881
 31
0.0
  0
LINE
  5
243
330
1F
100
AcDbEntity
  8
A-4_寸法
  6
Continuous
 62
     7
370
     9
100
AcDbLine
 10
366.4379828846449
 20
610.9773949718881
 30
0.0
 11
314.6614969260301
 21
610.9773949718881
 31
0.0
  0
LINE
  5
244
330
1F
100
AcDbEntity
  8
A-4_寸法
  6
Continuous
 62
     7
370
     9
100
AcDbLine
 10
506.1912029015368
 20
-3.022725448825625
 30
0.0
 11
506.1912029015368
 21
56.97724980719219
 31
0.0
  0
LINE
  5
245
330
1F
100
AcDbEntity
  8
A-4_寸法
  6
Continuous
 62
     7
370
     9
100
AcDbLine
 10
437.9378971055065
 20
-3.022725448825625
 30
0.0
 11
507.991179147314
 21
-3.022725448825625
 31
0.0
  0
LINE
  5
246
330
1F
100
AcDbEntity
  8
A-4_寸法
  6
Continuous
 62
     7
370
     9
100
AcDbLine
 10
437.9378971055065
 20
56.97724980719219
 30
0.0
 11
507.991179147314
 21
56.97724980719219
 31
0.0
  0
LINE
  5
247
330
1F
100
AcDbEntity
  8
A-4_寸法
  6
Continuous
 62
     7
370
     9
100
AcDbLine
 10
506.1912029015368
 20
56.97724980719219
 30
0.0
 11
506.1912029015368
 21
556.9773652791093
 31
0.0
  0
LINE
  5
248
330
1F
100
AcDbEntity
  8
A-4_寸法
  6
Continuous
 62
     7
370
     9
100
AcDbLine
 10
437.9378971055065
 20
556.9773652791093
 30
0.0
 11
507.991179147314
 21
556.9773652791093
 31
0.0
  0
LINE
  5
249
330
1F
100
AcDbEntity
  8
A-4_寸法
  6
Continuous
 62
     7
370
     9
100
AcDbLine
 10
506.1912029015368
 20
556.9773652791093
 30
0.0
 11
506.1912029015368
 21
616.9772663031803
 31
0.0
  0
LINE
  5
24A
330
1F
100
AcDbEntity
  8
A-4_寸法
  6
Continuous
 62
     7
370
     9
100
AcDbLine
 10
437.9378971055065
 20
616.9772663031803
 30
0.0
 11
507.991179147314
 21
616.9772663031803
 31
0.0
  0
LINE
  5
24B
330
1F
100
AcDbEntity
  8
A-4_寸法
  6
Continuous
 62
     7
370
     9
100
AcDbLine
 10
316.4614731718071
 20
-29.72685175530798
 30
0.0
 11
316.4614731718071
 21
2.977145882466559
 31
0.0
  0
LINE
  5
24C
330
1F
100
AcDbEntity
  8
A-4_寸法
  6
Continuous
 62
     7
370
     9
100
AcDbLine
 10
316.4614731718071
 20
610.9773949718881
 30
0.0
 11
316.4614731718071
 21
635.8920117370908
 31
0.0
  0
LINE
  5
24D
330
1F
100
AcDbEntity
  8
A-4_寸法
  6
Continuous
 62
     7
370
     9
100
AcDbLine
 10
372.9380290734118
 20
-133.4683728173856
 30
0.0
 11
428.9380158766213
 21
-133.4683728173856
 31
0.0
  0
LINE
  5
24E
330
1F
100
AcDbEntity
  8
A-4_寸法
  6
Continuous
 62
     7
370
     9
100
AcDbLine
 10
372.9380290734118
 20
-12.0226809096575
 30
0.0
 11
372.9380290734118
 21
-135.2683490631626
 31
0.0
  0
LINE
  5
24F
330
1F
100
AcDbEntity
  8
A-4_寸法
  6
Continuous
 62
     7
370
     9
100
AcDbLine
 10
428.9380158766213
 20
-12.0226809096575
 30
0.0
 11
428.9380158766213
 21
-135.2683490631626
 31
0.0
  0
LINE
  5
250
330
1F
100
AcDbEntity
  8
A-4_寸法
  6
Continuous
 62
     7
370
     9
100
AcDbLine
 10
372.9380290734118
 20
-80.44323128180703
 30
0.0
 11
422.9379960814355
 21
-80.44323128180703
 31
0.0
  0
LINE
  5
251
330
1F
100
AcDbEntity
  8
A-4_寸法
  6
Continuous
 62
     7
370
     9
100
AcDbLine
 10
422.9379960814355
 20
-2.022672661663435
 30
0.0
 11
422.9379960814355
 21
-82.24320752758406
 31
0.0
  0
LINE
  5
252
330
1F
100
AcDbEntity
  8
A-4_寸法
  6
Continuous
 62
     7
370
     9
100
AcDbLine
 10
-522.7850973122512
 20
-31.0226446184836
 30
0.0
 11
-531.9816189681844
 21
-42.87273567633828
 31
0.0
  0
LINE
  5
253
330
1F
100
AcDbEntity
  8
A-4_寸法
  6
Continuous
 62
     7
370
     9
100
AcDbLine
 10
-522.7850973122512
 20
-31.0226446184836
 30
0.0
 11
-534.7352530343795
 21
-40.08866651195906
 31
0.0
  0
LINE
  5
254
330
1F
100
AcDbEntity
  8
A-1_ピット
  6
Continuous
 62
     2
370
     9
100
AcDbLine
 10
-550.785090713856
 20
-3.022725448825625
 30
0.0
 11
-550.785090713856
 21
616.9772663031803
 31
0.0
  0
LINE
  5
255
330
1F
100
AcDbEntity
  8
A-1_ピット
  6
Continuous
 62
     2
370
     9
100
AcDbLine
 10
-227.7850395762926
 20
-3.022725448825625
 30
0.0
 11
-227.7850395762926
 21
616.9772663031803
 31
0.0
  0
LINE
  5
256
330
1F
100
AcDbEntity
  8
A-1_ピット
  6
Continuous
 62
     2
370
     9
100
AcDbLine
 10
-227.7850395762926
 20
616.9772663031803
 30
0.0
 11
-550.785090713856
 21
616.9772663031803
 31
0.0
  0
LINE
  5
257
330
1F
100
AcDbEntity
  8
A-1_ピット
  6
Continuous
 62
     2
370
     9
100
AcDbLine
 10
-233.7851336034253
 20
2.977442810253748
 30
0.0
 11
-233.7851336034253
 21
610.9770980441009
 31
0.0
  0
LINE
  5
258
330
1F
100
AcDbEntity
  8
A-1_ピット
  6
Continuous
 62
     2
370
     9
100
AcDbLine
 10
-544.78507091867
 20
2.977442810253748
 30
0.0
 11
-544.78507091867
 21
610.9770980441009
 31
0.0
  0
LINE
  5
259
330
1F
100
AcDbEntity
  8
A-2_蓋
  6
Continuous
 62
     3
370
     9
100
AcDbLine
 10
-533.784935651567
 20
6.97743126306203
 30
0.0
 11
-533.784935651567
 21
606.9771838232393
 31
0.0
  0
LINE
  5
25A
330
1F
100
AcDbEntity
  8
A-2_蓋
  6
Continuous
 62
     3
370
     9
100
AcDbLine
 10
-244.7850461746879
 20
606.9771838232393
 30
0.0
 11
-244.7850461746879
 21
6.97743126306203
 31
0.0
  0
LINE
  5
25B
330
1F
100
AcDbEntity
  8
A-2_蓋
  6
Continuous
 62
     3
370
     9
100
AcDbLine
 10
-533.784935651567
 20
606.9771838232393
 30
0.0
 11
-244.7850461746879
 21
606.9771838232393
 31
0.0
  0
LINE
  5
25C
330
1F
100
AcDbEntity
  8
A-2_蓋
  6
Continuous
 62
     3
370
     9
100
AcDbLine
 10
-533.784935651567
 20
462.4768308090925
 30
0.0
 11
-244.7850461746879
 21
462.4768308090925
 31
0.0
  0
LINE
  5
25D
330
1F
100
AcDbEntity
  8
A-2_蓋
  6
Continuous
 62
     3
370
     9
100
AcDbLine
 10
-533.784935651567
 20
451.4771409336701
 30
0.0
 11
-244.7850461746879
 21
451.4771409336701
 31
0.0
  0
LINE
  5
25E
330
1F
100
AcDbEntity
  8
A-2_蓋
  6
Continuous
 62
     3
370
     9
100
AcDbLine
 10
-526.7845661414319
 20
462.4768308090925
 30
0.0
 11
-526.7845661414319
 21
551.4776688052918
 31
0.0
  0
LINE
  5
25F
330
1F
100
AcDbEntity
  8
A-2_蓋
  6
Continuous
 62
     3
370
     9
100
AcDbLine
 10
-251.785044525089
 20
551.4776688052918
 30
0.0
 11
-251.785044525089
 21
462.4768308090925
 31
0.0
  0
LINE
  5
260
330
1F
100
AcDbEntity
  8
A-2_蓋
  6
Continuous
 62
     3
370
     9
100
AcDbLine
 10
-287.0846364143415
 20
551.4776688052918
 30
0.0
 11
-287.0846364143415
 21
462.4768308090925
 31
0.0
  0
LINE
  5
261
330
1F
100
AcDbEntity
  8
A-2_蓋
  6
Continuous
 62
     3
370
     9
100
AcDbLine
 10
-280.0846380639404
 20
551.4776688052918
 30
0.0
 11
-280.0846380639404
 21
462.4768308090925
 31
0.0
  0
LINE
  5
262
330
1F
100
AcDbEntity
  8
A-2_蓋
  6
Continuous
 62
     3
370
     9
100
AcDbLine
 10
-322.3842283035941
 20
551.4776688052918
 30
0.0
 11
-322.3842283035941
 21
462.4768308090925
 31
0.0
  0
LINE
  5
263
330
1F
100
AcDbEntity
  8
A-2_蓋
  6
Continuous
 62
     3
370
     9
100
AcDbLine
 10
-315.3843041851397
 20
551.4776688052918
 30
0.0
 11
-315.3843041851397
 21
462.4768308090925
 31
0.0
  0
LINE
  5
264
330
1F
100
AcDbEntity
  8
A-2_蓋
  6
Continuous
 62
     3
370
     9
100
AcDbLine
 10
-357.6844882803678
 20
551.4776688052918
 30
0.0
 11
-357.6844882803678
 21
462.4768308090925
 31
0.0
  0
LINE
  5
265
330
1F
100
AcDbEntity
  8
A-2_蓋
  6
Continuous
 62
     3
370
     9
100
AcDbLine
 10
-350.6844156980198
 20
551.4776688052918
 30
0.0
 11
-350.6844156980198
 21
462.4768308090925
 31
0.0
  0
LINE
  5
266
330
1F
100
AcDbEntity
  8
A-2_蓋
  6
Continuous
 62
     3
370
     9
100
AcDbLine
 10
-392.9846740251946
 20
551.4776688052918
 30
0.0
 11
-392.9846740251946
 21
462.4768308090925
 31
0.0
  0
LINE
  5
267
330
1F
100
AcDbEntity
  8
A-2_蓋
  6
Continuous
 62
     3
370
     9
100
AcDbLine
 10
-385.9846756747935
 20
551.4776688052918
 30
0.0
 11
-385.9846756747935
 21
462.4768308090925
 31
0.0
  0
LINE
  5
268
330
1F
100
AcDbEntity
  8
A-2_蓋
  6
Continuous
 62
     3
370
     9
100
AcDbLine
 10
-428.2843401463939
 20
551.4776688052918
 30
0.0
 11
-428.2843401463939
 21
462.4768308090925
 31
0.0
  0
LINE
  5
269
330
1F
100
AcDbEntity
  8
A-2_蓋
  6
Continuous
 62
     3
370
     9
100
AcDbLine
 10
-421.2843417959928
 20
551.4776688052918
 30
0.0
 11
-421.2843417959928
 21
462.4768308090925
 31
0.0
  0
LINE
  5
26A
330
1F
100
AcDbEntity
  8
A-2_蓋
  6
Continuous
 62
     3
370
     9
100
AcDbLine
 10
-463.584451659274
 20
551.4776688052918
 30
0.0
 11
-463.584451659274
 21
462.4768308090925
 31
0.0
  0
LINE
  5
26B
330
1F
100
AcDbEntity
  8
A-2_蓋
  6
Continuous
 62
     3
370
     9
100
AcDbLine
 10
-456.5844533088729
 20
551.4776688052918
 30
0.0
 11
-456.5844533088729
 21
462.4768308090925
 31
0.0
  0
LINE
  5
26C
330
1F
100
AcDbEntity
  8
A-2_蓋
  6
Continuous
 62
     3
370
     9
100
AcDbLine
 10
-498.8847116360477
 20
551.4776688052918
 30
0.0
 11
-498.8847116360477
 21
462.4768308090925
 31
0.0
  0
LINE
  5
26D
330
1F
100
AcDbEntity
  8
A-2_蓋
  6
Continuous
 62
     3
370
     9
100
AcDbLine
 10
-491.8846390536997
 20
551.4776688052918
 30
0.0
 11
-491.8846390536997
 21
462.4768308090925
 31
0.0
  0
LINE
  5
26E
330
1F
100
AcDbEntity
  8
A-2_蓋
  6
Continuous
 62
     3
370
     9
100
AcDbLine
 10
-526.7845661414319
 20
451.4775863253509
 30
0.0
 11
-491.8846390536997
 21
462.4772762007732
 31
0.0
  0
LINE
  5
26F
330
1F
100
AcDbEntity
  8
A-2_蓋
  6
Continuous
 62
     3
370
     9
100
AcDbLine
 10
-491.4845288604987
 20
451.4775863253509
 30
0.0
 11
-456.5847502366601
 21
462.4772762007732
 31
0.0
  0
LINE
  5
270
330
1F
100
AcDbEntity
  8
A-2_蓋
  6
Continuous
 62
     3
370
     9
100
AcDbLine
 10
-456.1843431156718
 20
451.4775863253509
 30
0.0
 11
-421.2847129557267
 21
462.4772762007732
 31
0.0
  0
LINE
  5
271
330
1F
100
AcDbEntity
  8
A-2_蓋
  6
Continuous
 62
     3
370
     9
100
AcDbLine
 10
-420.8845285305789
 20
451.4775863253509
 30
0.0
 11
-385.9846756747935
 21
462.4772762007732
 31
0.0
  0
LINE
  5
272
330
1F
100
AcDbEntity
  8
A-2_蓋
  6
Continuous
 62
     3
370
     9
100
AcDbLine
 10
-385.5845654815924
 20
451.4775863253509
 30
0.0
 11
-350.684712625807
 21
462.4772762007732
 31
0.0
  0
LINE
  5
273
330
1F
100
AcDbEntity
  8
A-2_蓋
  6
Continuous
 62
     3
370
     9
100
AcDbLine
 10
-350.2844539687123
 20
451.4775863253509
 30
0.0
 11
-315.3846753448737
 21
462.4772762007732
 31
0.0
  0
LINE
  5
274
330
1F
100
AcDbEntity
  8
A-2_蓋
  6
Continuous
 62
     3
370
     9
100
AcDbLine
 10
-314.9844166877791
 20
451.4775863253509
 30
0.0
 11
-280.0846380639404
 21
462.4772762007732
 31
0.0
  0
LINE
  5
275
330
1F
100
AcDbEntity
  8
A-2_蓋
  6
Continuous
 62
     3
370
     9
100
AcDbLine
 10
-279.6845278707393
 20
451.4775863253509
 30
0.0
 11
-244.7848234788474
 21
462.4772762007732
 31
0.0
  0
LINE
  5
276
330
1F
100
AcDbEntity
  8
A-2_蓋
  6
Continuous
 62
     3
370
     9
100
AcDbLine
 10
-533.784935651567
 20
460.3971485878087
 30
0.0
 11
-527.184676334633
 21
462.4772762007732
 31
0.0
  0
LINE
  5
277
330
1F
100
AcDbEntity
  8
A-2_蓋
  6
Continuous
 62
     3
370
     9
100
AcDbLine
 10
384.2518685476518
 20
456.9775797269556
 30
0.0
 11
378.5948003466382
 21
451.3208084537292
 31
0.0
  0
LINE
  5
278
330
1F
100
AcDbEntity
  8
A-2_蓋
  6
Continuous
 62
     3
370
     9
100
AcDbLine
 10
378.5948003466382
 20
451.3208084537292
 30
0.0
 11
372.9380290734118
 21
456.9775797269556
 31
0.0
  0
LINE
  5
279
330
1F
100
AcDbEntity
  8
A-2_蓋
  6
Continuous
 62
     3
370
     9
100
AcDbLine
 10
372.9380290734118
 20
456.9775797269556
 30
0.0
 11
378.5948003466382
 21
462.634351000182
 31
0.0
  0
LINE
  5
27A
330
1F
100
AcDbEntity
  8
A-2_蓋
  6
Continuous
 62
     3
370
     9
100
AcDbLine
 10
378.5948003466382
 20
462.634351000182
 30
0.0
 11
384.2518685476518
 21
456.9775797269556
 31
0.0
  0
LINE
  5
27B
330
1F
100
AcDbEntity
  8
A-2_蓋
  6
Continuous
 62
     3
370
     9
100
AcDbLine
 10
371.4379498926687
 20
112.5848465396667
 30
0.0
 11
371.4379498926687
 21
109.5849108740206
 31
0.0
  0
LINE
  5
27C
330
1F
100
AcDbEntity
  8
A-2_蓋
  6
Continuous
 62
     3
370
     9
100
AcDbLine
 10
371.4379498926687
 20
109.5849108740206
 30
0.0
 11
372.9380290734118
 21
108.5847838549117
 31
0.0
  0
LINE
  5
27D
330
1F
100
AcDbEntity
  8
A-2_蓋
  6
Continuous
 62
     3
370
     9
100
AcDbLine
 10
372.9380290734118
 20
113.5847508629353
 30
0.0
 11
372.9380290734118
 21
118.6978473578678
 31
0.0
  0
LINE
  5
27E
330
1F
100
AcDbEntity
  8
A-2_蓋
  6
Continuous
 62
     3
370
     9
100
AcDbLine
 10
372.9380290734118
 20
108.5847838549117
 30
0.0
 11
372.9380290734118
 21
103.4716873599792
 31
0.0
  0
LINE
  5
27F
330
1F
100
AcDbEntity
  8
A-2_蓋
  6
Continuous
 62
     3
370
     9
100
AcDbLine
 10
371.4379498926687
 20
112.5848465396667
 30
0.0
 11
372.9380290734118
 21
113.5847508629353
 31
0.0
  0
LINE
  5
280
330
1F
100
AcDbEntity
  8
A-2_蓋
  6
Continuous
 62
     3
370
     9
100
AcDbLine
 10
371.4379498926687
 20
96.47161477763125
 30
0.0
 11
372.9380290734118
 21
95.47163622241594
 31
0.0
  0
LINE
  5
281
330
1F
100
AcDbEntity
  8
A-2_蓋
  6
Continuous
 62
     3
370
     9
100
AcDbLine
 10
371.4379498926687
 20
102.4714861089236
 30
0.0
 11
371.4379498926687
 21
96.47161477763125
 31
0.0
  0
LINE
  5
282
330
1F
100
AcDbEntity
  8
A-2_蓋
  6
Continuous
 62
     3
370
     9
100
AcDbLine
 10
371.4379498926687
 20
102.4714861089236
 30
0.0
 11
372.9380290734118
 21
103.4716873599792
 31
0.0
  0
LINE
  5
283
330
1F
100
AcDbEntity
  8
A-2_蓋
  6
Continuous
 62
     3
370
     9
100
AcDbLine
 10
371.4379498926687
 20
89.35870963616172
 30
0.0
 11
371.4379498926687
 21
86.35869973856875
 31
0.0
  0
LINE
  5
284
330
1F
100
AcDbEntity
  8
A-2_蓋
  6
Continuous
 62
     3
370
     9
100
AcDbLine
 10
371.4379498926687
 20
86.35869973856875
 30
0.0
 11
372.9380290734118
 21
85.35857271945984
 31
0.0
  0
LINE
  5
285
330
1F
100
AcDbEntity
  8
A-2_蓋
  6
Continuous
 62
     3
370
     9
100
AcDbLine
 10
372.9380290734118
 20
90.35853972748343
 30
0.0
 11
372.9380290734118
 21
95.47163622241594
 31
0.0
  0
LINE
  5
286
330
1F
100
AcDbEntity
  8
A-2_蓋
  6
Continuous
 62
     3
370
     9
100
AcDbLine
 10
372.9380290734118
 20
85.35857271945984
 30
0.0
 11
372.9380290734118
 21
80.24547622452734
 31
0.0
  0
LINE
  5
287
330
1F
100
AcDbEntity
  8
A-2_蓋
  6
Continuous
 62
     3
370
     9
100
AcDbLine
 10
371.4379498926687
 20
89.35870963616172
 30
0.0
 11
372.9380290734118
 21
90.35853972748343
 31
0.0
  0
LINE
  5
288
330
1F
100
AcDbEntity
  8
A-2_蓋
  6
Continuous
 62
     3
370
     9
100
AcDbLine
 10
371.4379498926687
 20
73.24540364217937
 30
0.0
 11
372.9380290734118
 21
72.24542508696406
 31
0.0
  0
LINE
  5
289
330
1F
100
AcDbEntity
  8
A-2_蓋
  6
Continuous
 62
     3
370
     9
100
AcDbLine
 10
371.4379498926687
 20
79.24527497347172
 30
0.0
 11
371.4379498926687
 21
73.24540364217937
 31
0.0
  0
LINE
  5
28A
330
1F
100
AcDbEntity
  8
A-2_蓋
  6
Continuous
 62
     3
370
     9
100
AcDbLine
 10
371.4379498926687
 20
79.24527497347172
 30
0.0
 11
372.9380290734118
 21
80.24547622452734
 31
0.0
  0
LINE
  5
28B
330
1F
100
AcDbEntity
  8
A-2_蓋
  6
Continuous
 62
     3
370
     9
100
AcDbLine
 10
371.4379498926687
 20
66.13242426876313
 30
0.0
 11
371.4379498926687
 21
63.13248860311687
 31
0.0
  0
LINE
  5
28C
330
1F
100
AcDbEntity
  8
A-2_蓋
  6
Continuous
 62
     3
370
     9
100
AcDbLine
 10
371.4379498926687
 20
63.13248860311687
 30
0.0
 11
372.9380290734118
 21
62.13236158400797
 31
0.0
  0
LINE
  5
28D
330
1F
100
AcDbEntity
  8
A-2_蓋
  6
Continuous
 62
     3
370
     9
100
AcDbLine
 10
372.9380290734118
 20
67.13232859203156
 30
0.0
 11
372.9380290734118
 21
72.24542508696406
 31
0.0
  0
LINE
  5
28E
330
1F
100
AcDbEntity
  8
A-2_蓋
  6
Continuous
 62
     3
370
     9
100
AcDbLine
 10
372.9380290734118
 20
62.13236158400797
 30
0.0
 11
372.9380290734118
 21
57.01926508907563
 31
0.0
  0
LINE
  5
28F
330
1F
100
AcDbEntity
  8
A-2_蓋
  6
Continuous
 62
     3
370
     9
100
AcDbLine
 10
371.4379498926687
 20
66.13242426876313
 30
0.0
 11
372.9380290734118
 21
67.13232859203156
 31
0.0
  0
LINE
  5
290
330
1F
100
AcDbEntity
  8
A-2_蓋
  6
Continuous
 62
     3
370
     9
100
AcDbLine
 10
371.4379498926687
 20
50.01919250672766
 30
0.0
 11
372.9380290734118
 21
49.01921395151219
 31
0.0
  0
LINE
  5
291
330
1F
100
AcDbEntity
  8
A-2_蓋
  6
Continuous
 62
     3
370
     9
100
AcDbLine
 10
371.4379498926687
 20
56.01906383801985
 30
0.0
 11
371.4379498926687
 21
50.01919250672766
 31
0.0
  0
LINE
  5
292
330
1F
100
AcDbEntity
  8
A-2_蓋
  6
Continuous
 62
     3
370
     9
100
AcDbLine
 10
371.4379498926687
 20
56.01906383801985
 30
0.0
 11
372.9380290734118
 21
57.01926508907563
 31
0.0
  0
LINE
  5
293
330
1F
100
AcDbEntity
  8
A-2_蓋
  6
Continuous
 62
     3
370
     9
100
AcDbLine
 10
371.4379498926687
 20
42.90628736525797
 30
0.0
 11
371.4379498926687
 21
39.90627746766516
 31
0.0
  0
LINE
  5
294
330
1F
100
AcDbEntity
  8
A-2_蓋
  6
Continuous
 62
     3
370
     9
100
AcDbLine
 10
371.4379498926687
 20
39.90627746766516
 30
0.0
 11
372.9380290734118
 21
38.90615044855609
 31
0.0
  0
LINE
  5
295
330
1F
100
AcDbEntity
  8
A-2_蓋
  6
Continuous
 62
     3
370
     9
100
AcDbLine
 10
372.9380290734118
 20
43.90611745657985
 30
0.0
 11
372.9380290734118
 21
49.01921395151219
 31
0.0
  0
LINE
  5
296
330
1F
100
AcDbEntity
  8
A-2_蓋
  6
Continuous
 62
     3
370
     9
100
AcDbLine
 10
372.9380290734118
 20
38.90615044855609
 30
0.0
 11
372.9380290734118
 21
33.79305395362375
 31
0.0
  0
LINE
  5
297
330
1F
100
AcDbEntity
  8
A-2_蓋
  6
Continuous
 62
     3
370
     9
100
AcDbLine
 10
371.4379498926687
 20
42.90628736525797
 30
0.0
 11
372.9380290734118
 21
43.90611745657985
 31
0.0
  0
LINE
  5
298
330
1F
100
AcDbEntity
  8
A-2_蓋
  6
Continuous
 62
     3
370
     9
100
AcDbLine
 10
371.4379498926687
 20
26.79298137127579
 30
0.0
 11
372.9380290734118
 21
25.79300281606031
 31
0.0
  0
LINE
  5
299
330
1F
100
AcDbEntity
  8
A-2_蓋
  6
Continuous
 62
     3
370
     9
100
AcDbLine
 10
371.4379498926687
 20
32.79285270256797
 30
0.0
 11
371.4379498926687
 21
26.79298137127579
 31
0.0
  0
LINE
  5
29A
330
1F
100
AcDbEntity
  8
A-2_蓋
  6
Continuous
 62
     3
370
     9
100
AcDbLine
 10
371.4379498926687
 20
32.79285270256797
 30
0.0
 11
372.9380290734118
 21
33.79305395362375
 31
0.0
  0
LINE
  5
29B
330
1F
100
AcDbEntity
  8
A-2_蓋
  6
Continuous
 62
     3
370
     9
100
AcDbLine
 10
371.4379498926687
 20
19.68000199785938
 30
0.0
 11
371.4379498926687
 21
16.68006633221329
 31
0.0
  0
LINE
  5
29C
330
1F
100
AcDbEntity
  8
A-2_蓋
  6
Continuous
 62
     3
370
     9
100
AcDbLine
 10
372.9380290734118
 20
20.67990632112797
 30
0.0
 11
372.9380290734118
 21
25.79300281606031
 31
0.0
  0
LINE
  5
29D
330
1F
100
AcDbEntity
  8
A-2_蓋
  6
Continuous
 62
     3
370
     9
100
AcDbLine
 10
371.4379498926687
 20
19.68000199785938
 30
0.0
 11
372.9380290734118
 21
20.67990632112797
 31
0.0
  0
LINE
  5
29E
330
1F
100
AcDbEntity
  8
A-2_蓋
  6
Continuous
 62
     3
370
     9
100
AcDbLine
 10
372.9380290734118
 20
11.4772234136111
 30
0.0
 11
384.4380422702024
 21
11.4772234136111
 31
0.0
  0
LINE
  5
29F
330
1F
100
AcDbEntity
  8
A-2_蓋
  6
Continuous
 62
     3
370
     9
100
AcDbLine
 10
372.9380290734118
 20
15.67993931310421
 30
0.0
 11
372.9380290734118
 21
6.97743126306203
 31
0.0
  0
LINE
  5
2A0
330
1F
100
AcDbEntity
  8
A-2_蓋
  6
Continuous
 62
     3
370
     9
100
AcDbLine
 10
371.4379498926687
 20
16.68006633221329
 30
0.0
 11
372.9380290734118
 21
15.67993931310421
 31
0.0
  0
LINE
  5
2A1
330
1F
100
AcDbEntity
  8
A-2_蓋
  6
Continuous
 62
     3
370
     9
100
AcDbLine
 10
380.9378575151347
 20
360.2912113517446
 30
0.0
 11
380.9378575151347
 21
453.6637171583323
 31
0.0
  0
LINE
  5
2A2
330
1F
100
AcDbEntity
  8
A-2_蓋
  6
Continuous
 62
     3
370
     9
100
AcDbLine
 10
380.9378575151347
 20
460.2914422955789
 30
0.0
 11
380.9378575151347
 21
553.663502710486
 31
0.0
  0
LINE
  5
2A3
330
1F
100
AcDbEntity
  8
A-2_蓋
  6
Continuous
 62
     3
370
     9
100
AcDbLine
 10
382.437936695878
 20
358.790909475161
 30
0.0
 11
382.437936695878
 21
455.1637963390756
 31
0.0
  0
LINE
  5
2A4
330
1F
100
AcDbEntity
  8
A-2_蓋
  6
Continuous
 62
     3
370
     9
100
AcDbLine
 10
382.437936695878
 20
458.7913631148357
 30
0.0
 11
382.437936695878
 21
555.1638788190164
 31
0.0
  0
LINE
  5
2A5
330
1F
100
AcDbEntity
  8
A-5_仕様文
  6
Continuous
 62
     7
370
     9
100
AcDbLine
 10
-613.2989308479355
 20
735.4186428604016
 30
0.0
 11
-517.7851303042276
 21
622.6340375764066
 31
0.0
  0
LINE
  5
2A6
330
1F
100
AcDbEntity
  8
A-5_仕様文
  6
Continuous
 62
     7
370
     9
100
AcDbLine
 10
-517.7851303042276
 20
622.6340375764066
 30
0.0
 11
-528.890192428119
 21
632.7175567645402
 31
0.0
  0
LINE
  5
2A7
330
1F
100
AcDbEntity
  8
A-5_仕様文
  6
Continuous
 62
     7
370
     9
100
AcDbLine
 10
-517.7851303042276
 20
622.6340375764066
 30
0.0
 11
-525.9019854100658
 21
635.2481238306297
 31
0.0
  0
LINE
  5
2A8
330
1F
100
AcDbEntity
  8
A-4_寸法
  6
Continuous
 62
     7
370
     9
100
AcDbLine
 10
-495.3846753448737
 20
646.6771712862884
 30
0.0
 11
-460.0844524840735
 21
646.6771712862884
 31
0.0
  0
LINE
  5
2A9
330
1F
100
AcDbEntity
  8
A-4_寸法
  6
Continuous
 62
     7
370
     9
100
AcDbLine
 10
-495.3846753448737
 20
609.401747669312
 30
0.0
 11
-495.3846753448737
 21
648.4771475320654
 31
0.0
  0
LINE
  5
2AA
330
1F
100
AcDbEntity
  8
A-4_寸法
  6
Continuous
 62
     7
370
     9
100
AcDbLine
 10
-460.0844524840735
 20
609.401747669312
 30
0.0
 11
-460.0844524840735
 21
648.4771475320654
 31
0.0
  0
LINE
  5
2AB
330
1F
100
AcDbEntity
  8
A-4_寸法
  6
Continuous
 62
     7
370
     9
100
AcDbLine
 10
-228.4234343186912
 20
702.8860467877664
 30
0.0
 11
-280.0846380639404
 21
587.8194029955366
 31
0.0
  0
LINE
  5
2AC
330
1F
100
AcDbEntity
  8
A-4_寸法
  6
Continuous
 62
     7
370
     9
100
AcDbLine
 10
-228.4234343186912
 20
702.8860467877664
 30
0.0
 11
79.43931246129193
 21
702.8860467877664
 31
0.0
  0
LINE
  5
2AD
330
1F
100
AcDbEntity
  8
A-9_ｸｯｼｮﾝ材
  6
Continuous
 62
     4
370
     9
100
AcDbLine
 10
-522.504500553383
 20
625.9376561363728
 30
0.0
 11
-503.0655291112377
 21
625.9376561363728
 31
0.0
  0
LINE
  5
2AE
330
1F
100
AcDbEntity
  8
A-9_ｸｯｼｮﾝ材
  6
Continuous
 62
     4
370
     9
100
AcDbLine
 10
-525.2239879240544
 20
624.8967757784759
 30
0.0
 11
-525.2239879240544
 21
616.9772663031803
 31
0.0
  0
LINE
  5
2AF
330
1F
100
AcDbEntity
  8
A-9_ｸｯｼｮﾝ材
  6
Continuous
 62
     4
370
     9
100
AcDbLine
 10
-525.2239879240544
 20
616.9772663031803
 30
0.0
 11
-500.3460417405663
 21
616.9772663031803
 31
0.0
  0
LINE
  5
2B0
330
1F
100
AcDbEntity
  8
A-9_ｸｯｼｮﾝ材
  6
Continuous
 62
     4
370
     9
100
AcDbLine
 10
-500.3460417405663
 20
624.8967757784759
 30
0.0
 11
-500.3460417405663
 21
616.9772663031803
 31
0.0
  0
LINE
  5
2B1
330
1F
100
AcDbEntity
  8
A-9_ｸｯｼｮﾝ材
  6
Continuous
 62
     4
370
     9
100
AcDbLine
 10
-519.7849389507647
 20
616.9772663031803
 30
0.0
 11
-519.7849389507647
 21
624.8967757784759
 31
0.0
  0
LINE
  5
2B2
330
1F
100
AcDbEntity
  8
A-9_ｸｯｼｮﾝ材
  6
Continuous
 62
     4
370
     9
100
AcDbLine
 10
-505.7848680180156
 20
616.9772663031803
 30
0.0
 11
-505.7848680180156
 21
624.8967757784759
 31
0.0
  0
LINE
  5
2B3
330
1F
100
AcDbEntity
  8
A-9_ｸｯｼｮﾝ材
  6
Continuous
 62
     4
370
     9
100
AcDbLine
 10
-519.7850131827115
 20
610.9770980441009
 30
0.0
 11
-519.7850131827115
 21
606.9771838232393
 31
0.0
  0
LINE
  5
2B4
330
1F
100
AcDbEntity
  8
A-9_ｸｯｼｮﾝ材
  6
Continuous
 62
     4
370
     9
100
AcDbLine
 10
-505.7850164819092
 20
610.9770980441009
 30
0.0
 11
-505.7850164819092
 21
606.9771838232393
 31
0.0
  0
LINE
  5
2B5
330
1F
100
AcDbEntity
  8
A-9_ｸｯｼｮﾝ材
  6
Continuous
 62
     4
370
     9
100
AcDbLine
 10
381.2186027378966
 20
625.9376561363728
 30
0.0
 11
400.6575741800419
 21
625.9376561363728
 31
0.0
  0
LINE
  5
2B6
330
1F
100
AcDbEntity
  8
A-9_ｸｯｼｮﾝ材
  6
Continuous
 62
     4
370
     9
100
AcDbLine
 10
378.4991895991719
 20
624.8967757784759
 30
0.0
 11
378.4991895991719
 21
616.9772663031803
 31
0.0
  0
LINE
  5
2B7
330
1F
100
AcDbEntity
  8
A-9_ｸｯｼｮﾝ材
  6
Continuous
 62
     4
370
     9
100
AcDbLine
 10
378.4991895991719
 20
616.9772663031803
 30
0.0
 11
403.3769873187666
 21
616.9772663031803
 31
0.0
  0
LINE
  5
2B8
330
1F
100
AcDbEntity
  8
A-9_ｸｯｼｮﾝ材
  6
Continuous
 62
     4
370
     9
100
AcDbLine
 10
403.3769873187666
 20
624.8967757784759
 30
0.0
 11
403.3769873187666
 21
616.9772663031803
 31
0.0
  0
LINE
  5
2B9
330
1F
100
AcDbEntity
  8
A-9_ｸｯｼｮﾝ材
  6
Continuous
 62
     4
370
     9
100
AcDbLine
 10
383.9381643405149
 20
616.9772663031803
 30
0.0
 11
383.9381643405149
 21
624.8967757784759
 31
0.0
  0
LINE
  5
2BA
330
1F
100
AcDbEntity
  8
A-9_ｸｯｼｮﾝ材
  6
Continuous
 62
     4
370
     9
100
AcDbLine
 10
397.9381610413172
 20
616.9772663031803
 30
0.0
 11
397.9381610413172
 21
624.8967757784759
 31
0.0
  0
LINE
  5
2BB
330
1F
100
AcDbEntity
  8
A-1_ピット
  6
Continuous
 62
     2
370
     9
100
AcDbLine
 10
383.9380158766213
 20
610.9773949718881
 30
0.0
 11
375.4378641135301
 21
610.9773949718881
 31
0.0
  0
LINE
  5
2BC
330
1F
100
AcDbEntity
  8
A-2_蓋
  6
Continuous
 62
     3
370
     9
100
AcDbLine
 10
372.9380290734118
 20
606.9771838232393
 30
0.0
 11
383.9380158766213
 21
606.9771838232393
 31
0.0
  0
LINE
  5
2BD
330
1F
100
AcDbEntity
  8
A-2_蓋
  6
Continuous
 62
     3
370
     9
100
AcDbLine
 10
372.9380290734118
 20
602.4772432087968
 30
0.0
 11
383.9380158766213
 21
602.4772432087968
 31
0.0
  0
LINE
  5
2BE
330
1F
100
AcDbEntity
  8
A-1_ピット
  6
Continuous
 62
     2
370
     9
100
AcDbLine
 10
418.938081860574
 20
610.9773949718881
 30
0.0
 11
397.9381610413172
 21
610.9773949718881
 31
0.0
  0
CIRCLE
  5
2BF
330
1F
100
AcDbEntity
  8
A-1_ピット
  6
Continuous
 62
     2
370
     9
100
AcDbCircle
 10
-439.7850956626523
 20
-7.523037223002191
 30
0.0
 40
4.500000637930793
  0
CIRCLE
  5
2C0
330
1F
100
AcDbEntity
  8
A-1_ピット
  6
Continuous
 62
     2
370
     9
100
AcDbCircle
 10
-338.7850346274961
 20
-7.523037223002191
 30
0.0
 40
4.500000637930793
  0
ARC
  5
2C1
330
1F
100
AcDbEntity
  8
A-1_ピット
  6
Continuous
 62
     2
370
     9
100
AcDbCircle
 10
-434.2849537971541
 20
-13.62341861024875
 30
0.0
 40
10.00000012887491
100
AcDbArc
 50
180.0
 51
270.0
  0
ARC
  5
2C2
330
1F
100
AcDbEntity
  8
A-1_ピット
  6
Continuous
 62
     2
370
     9
100
AcDbCircle
 10
-344.2850280291009
 20
-13.62341861024875
 30
0.0
 40
10.00000012887491
100
AcDbArc
 50
270.0
 51
0.0
  0
ARC
  5
2C3
330
1F
100
AcDbEntity
  8
A-1_ピット
  6
Continuous
 62
     2
370
     9
100
AcDbCircle
 10
-344.2848795652073
 20
-13.62341861024875
 30
0.0
 40
1.000000012887491
100
AcDbArc
 50
270.0
 51
0.0
  0
ARC
  5
2C4
330
1F
100
AcDbEntity
  8
A-1_ピット
  6
Continuous
 62
     2
370
     9
100
AcDbCircle
 10
-434.2849537971541
 20
-13.62341861024875
 30
0.0
 40
1.000000012887491
100
AcDbArc
 50
180.0
 51
270.0
  0
CIRCLE
  5
2C5
330
1F
100
AcDbEntity
  8
A-1_ピット
  6
Continuous
 62
     2
370
     9
100
AcDbCircle
 10
-439.7850956626523
 20
621.47750384541
 30
0.0
 40
4.500000637930793
  0
CIRCLE
  5
2C6
330
1F
100
AcDbEntity
  8
A-1_ピット
  6
Continuous
 62
     2
370
     9
100
AcDbCircle
 10
-338.7850346274961
 20
621.47750384541
 30
0.0
 40
4.500000637930793
  0
ARC
  5
2C7
330
1F
100
AcDbEntity
  8
A-1_ピット
  6
Continuous
 62
     2
370
     9
100
AcDbCircle
 10
-434.2849537971541
 20
627.5772913770822
 30
0.0
 40
10.00000012887491
100
AcDbArc
 50
90.0
 51
180.0
  0
ARC
  5
2C8
330
1F
100
AcDbEntity
  8
A-1_ピット
  6
Continuous
 62
     2
370
     9
100
AcDbCircle
 10
-344.2850280291009
 20
627.5772913770822
 30
0.0
 40
10.00000012887491
100
AcDbArc
 50
0.0
 51
90.0
  0
ARC
  5
2C9
330
1F
100
AcDbEntity
  8
A-1_ピット
  6
Continuous
 62
     2
370
     9
100
AcDbCircle
 10
-344.2848795652073
 20
627.5772913770822
 30
0.0
 40
1.000000012887491
100
AcDbArc
 50
0.0
 51
90.0
  0
ARC
  5
2CA
330
1F
100
AcDbEntity
  8
A-1_ピット
  6
Continuous
 62
     2
370
     9
100
AcDbCircle
 10
-434.2849537971541
 20
627.5772913770822
 30
0.0
 40
1.000000012887491
100
AcDbArc
 50
90.0
 51
180.0
  0
ARC
  5
2CB
330
1F
100
AcDbEntity
  8
A-1_ピット
  6
Continuous
 62
     2
370
     9
100
AcDbCircle
 10
375.4378641135301
 20
613.4772300120064
 30
0.0
 40
2.500000612155811
100
AcDbArc
 50
180.0
 51
270.0
  0
ARC
  5
2CC
330
1F
100
AcDbEntity
  8
A-1_ピット
  6
Continuous
 62
     2
370
     9
100
AcDbCircle
 10
425.4378311215538
 20
559.4772003192277
 30
0.0
 40
2.500000612155811
100
AcDbArc
 50
180.0
 51
270.0
  0
ARC
  5
2CD
330
1F
100
AcDbEntity
  8
A-1_ピット
  6
Continuous
 62
     2
370
     9
100
AcDbCircle
 10
418.938081860574
 20
606.9773322871329
 30
0.0
 40
4.000000631487048
100
AcDbArc
 50
0.0
 51
90.0
  0
ARC
  5
2CE
330
1F
100
AcDbEntity
  8
A-1_ピット
  6
Continuous
 62
     2
370
     9
100
AcDbCircle
 10
417.7530430620097
 20
634.9773256887378
 30
0.0
 40
18.00000255172317
100
AcDbArc
 50
270.0
 51
285.0
  0
ARC
  5
2CF
330
1F
100
AcDbEntity
  8
A-1_ピット
  6
Continuous
 62
     2
370
     9
100
AcDbCircle
 10
479.4380092782262
 20
637.5294200193965
 30
0.0
 40
4.500000637930793
100
AcDbArc
 50
285.0001373291016
 51
104.9999084472657
  0
ARC
  5
2D0
330
1F
100
AcDbEntity
  8
A-1_ピット
  6
JWW_CENTER2
 62
     2
370
     9
100
AcDbCircle
 10
417.7530430620097
 20
634.9773256887378
 30
0.0
 40
13.50000162382384
100
AcDbArc
 50
270.0
 51
284.9999542236328
  0
ARC
  5
2D1
330
1F
100
AcDbEntity
  8
A-1_ピット
  6
Continuous
 62
     2
370
     9
100
AcDbCircle
 10
417.7530430620097
 20
634.9773256887378
 30
0.0
 40
9.000001275861585
100
AcDbArc
 50
270.0
 51
285.0000152587891
  0
ARC
  5
2D2
330
1F
100
AcDbEntity
  8
A-1_ピット
  6
Continuous
 62
     2
370
     9
100
AcDbCircle
 10
375.4378641135301
 20
0.4773108423482739
 30
0.0
 40
2.500000612155811
100
AcDbArc
 50
90.0
 51
180.0
  0
ARC
  5
2D3
330
1F
100
AcDbEntity
  8
A-1_ピット
  6
Continuous
 62
     2
370
     9
100
AcDbCircle
 10
425.4378311215538
 20
54.47734053512703
 30
0.0
 40
2.500000612155811
100
AcDbArc
 50
90.0
 51
180.0
  0
ARC
  5
2D4
330
1F
100
AcDbEntity
  8
A-1_ピット
  6
Continuous
 62
     2
370
     9
100
AcDbCircle
 10
418.938081860574
 20
6.977357031115318
 30
0.0
 40
4.000000631487048
100
AcDbArc
 50
270.0
 51
0.0
  0
ARC
  5
2D5
330
1F
100
AcDbEntity
  8
A-1_ピット
  6
Continuous
 62
     2
370
     9
100
AcDbCircle
 10
417.7530430620097
 20
-21.02263637048954
 30
0.0
 40
18.00000255172317
100
AcDbArc
 50
75.0
 51
89.99999999999999
  0
ARC
  5
2D6
330
1F
100
AcDbEntity
  8
A-1_ピット
  6
Continuous
 62
     2
370
     9
100
AcDbCircle
 10
479.4380092782262
 20
-23.57473070114828
 30
0.0
 40
4.500000637930793
100
AcDbArc
 50
255.0000915527343
 51
74.99986267089842
  0
ARC
  5
2D7
330
1F
100
AcDbEntity
  8
A-1_ピット
  6
JWW_CENTER2
 62
     2
370
     9
100
AcDbCircle
 10
417.7530430620097
 20
-21.02263637048954
 30
0.0
 40
13.50000162382384
100
AcDbArc
 50
75.00004577636717
 51
90.0
  0
ARC
  5
2D8
330
1F
100
AcDbEntity
  8
A-1_ピット
  6
Continuous
 62
     2
370
     9
100
AcDbCircle
 10
417.7530430620097
 20
-21.02263637048954
 30
0.0
 40
9.000001275861585
100
AcDbArc
 50
74.99998474121094
 51
90.00000000000001
  0
ARC
  5
2D9
330
1F
100
AcDbEntity
  8
A-9_ｸｯｼｮﾝ材
  6
Continuous
 62
     4
370
     9
100
AcDbCircle
 10
-503.0655291112377
 20
621.8636584326143
 30
0.0
 40
4.074000313475326
100
AcDbArc
 50
48.12370300292969
 51
131.8761138916015
  0
ARC
  5
2DA
330
1F
100
AcDbEntity
  8
A-9_ｸｯｼｮﾝ材
  6
Continuous
 62
     4
370
     9
100
AcDbCircle
 10
-522.504500553383
 20
621.8636584326143
 30
0.0
 40
4.074000313475326
100
AcDbArc
 50
48.12388610839845
 51
131.8762969970703
  0
ARC
  5
2DB
330
1F
100
AcDbEntity
  8
A-9_ｸｯｼｮﾝ材
  6
Continuous
 62
     4
370
     9
100
AcDbCircle
 10
-512.7850148323104
 20
601.8712135951989
 30
0.0
 40
24.06618504910856
100
AcDbArc
 50
73.09028625488283
 51
106.9097137451172
  0
ARC
  5
2DC
330
1F
100
AcDbEntity
  8
A-9_ｸｯｼｮﾝ材
  6
Continuous
 62
     4
370
     9
100
AcDbCircle
 10
400.6575741800419
 20
621.8636584326143
 30
0.0
 40
4.074000313475326
100
AcDbArc
 50
48.12370300292969
 51
131.8761138916015
  0
ARC
  5
2DD
330
1F
100
AcDbEntity
  8
A-9_ｸｯｼｮﾝ材
  6
Continuous
 62
     4
370
     9
100
AcDbCircle
 10
381.2186027378966
 20
621.8636584326143
 30
0.0
 40
4.074000313475326
100
AcDbArc
 50
48.12388610839845
 51
131.8762969970703
  0
ARC
  5
2DE
330
1F
100
AcDbEntity
  8
A-9_ｸｯｼｮﾝ材
  6
Continuous
 62
     4
370
     9
100
AcDbCircle
 10
390.9380884589693
 20
601.8712135951989
 30
0.0
 40
24.06618504910856
100
AcDbArc
 50
73.09028625488283
 51
106.9097137451172
  0
TEXT
  5
2DF
330
1F
100
AcDbEntity
  8
A-4_寸法
  6
Continuous
 62
     2
370
     9
100
AcDbText
 10
-408.7851022610477
 20
-176.6816216164776
 30
0.0
 40
18.288
  1
323
 41
1.083333333333333
  7
ＭＳ ゴシック
100
AcDbText
  0
TEXT
  5
2E0
330
1F
100
AcDbEntity
  8
A-4_寸法
  6
Continuous
 62
     2
370
     9
100
AcDbText
 10
-574.9717135396847
 20
-124.627953568547
 30
0.0
 40
18.288
  1
6
  7
ＭＳ ゴシック
100
AcDbText
  0
TEXT
  5
2E1
330
1F
100
AcDbEntity
  8
A-4_寸法
  6
Continuous
 62
     2
370
     9
100
AcDbText
 10
-408.7851022610477
 20
-124.627953568547
 30
0.0
 40
18.288
  1
311
 41
1.083333333333333
  7
ＭＳ ゴシック
100
AcDbText
  0
TEXT
  5
2E2
330
1F
100
AcDbEntity
  8
A-4_寸法
  6
Continuous
 62
     2
370
     9
100
AcDbText
 10
-216.3053832537102
 20
-124.627953568547
 30
0.0
 40
18.288
  1
6
  7
ＭＳ ゴシック
100
AcDbText
  0
TEXT
  5
2E3
330
1F
100
AcDbEntity
  8
A-4_寸法
  6
Continuous
 62
     2
370
     9
100
AcDbText
 10
-528.9551033167909
 20
-73.45920455830617
 30
0.0
 40
18.288
  1
11
 41
1.0625
  7
ＭＳ ゴシック
100
AcDbText
  0
TEXT
  5
2E4
330
1F
100
AcDbEntity
  8
A-4_寸法
  6
Continuous
 62
     2
370
     9
100
AcDbText
 10
-408.7850280291009
 20
-73.45920455830617
 30
0.0
 40
18.288
  1
289
 41
1.083333333333333
  7
ＭＳ ゴシック
100
AcDbText
  0
TEXT
  5
2E5
330
1F
100
AcDbEntity
  8
A-4_寸法
  6
Continuous
 62
     2
370
     9
100
AcDbText
 10
-276.4798555470485
 20
-73.45920455830617
 30
0.0
 40
18.288
  1
11
 41
1.0625
  7
ＭＳ ゴシック
100
AcDbText
  0
TEXT
  5
2E6
330
1F
100
AcDbEntity
  8
A-4_寸法
  6
Continuous
 62
     2
370
     9
100
AcDbText
 10
309.477520680253
 20
-24.00744603977789
 30
0.0
 40
18.288
  1
6
 50
90.0
  7
ＭＳ ゴシック
100
AcDbText
  0
TEXT
  5
2E7
330
1F
100
AcDbEntity
  8
A-4_寸法
  6
Continuous
 62
     2
370
     9
100
AcDbText
 10
309.477520680253
 20
8.838854239993978
 30
0.0
 40
18.288
  1
4
 50
90.0
  7
ＭＳ ゴシック
100
AcDbText
  0
TEXT
  5
2E8
330
1F
100
AcDbEntity
  8
A-4_寸法
  6
Continuous
 62
     2
370
     9
100
AcDbText
 10
309.477520680253
 20
592.0249595041939
 30
0.0
 40
18.288
  1
4
 50
90.0
  7
ＭＳ ゴシック
100
AcDbText
  0
TEXT
  5
2E9
330
1F
100
AcDbEntity
  8
A-4_寸法
  6
Continuous
 62
     2
370
     9
100
AcDbText
 10
309.477520680253
 20
626.217530370959
 30
0.0
 40
18.288
  1
6
 50
90.0
  7
ＭＳ ゴシック
100
AcDbText
  0
TEXT
  5
2EA
330
1F
100
AcDbEntity
  8
A-4_寸法
  6
Continuous
 62
     2
370
     9
100
AcDbText
 10
499.2072504099827
 20
14.22729929515664
 30
0.0
 40
18.288
  1
60
 50
90.0
 41
1.0625
  7
ＭＳ ゴシック
100
AcDbText
  0
TEXT
  5
2EB
330
1F
100
AcDbEntity
  8
A-4_寸法
  6
Continuous
 62
     2
370
     9
100
AcDbText
 10
499.2072504099827
 20
574.2273900230916
 30
0.0
 40
18.288
  1
60
 50
90.0
 41
1.0625
  7
ＭＳ ゴシック
100
AcDbText
  0
TEXT
  5
2EC
330
1F
100
AcDbEntity
  8
A-4_寸法
  6
Continuous
 62
     2
370
     9
100
AcDbText
 10
388.1879482430699
 20
-126.4843460938848
 30
0.0
 40
18.288
  1
56
 41
1.0625
  7
ＭＳ ゴシック
100
AcDbText
  0
TEXT
  5
2ED
330
1F
100
AcDbEntity
  8
A-4_寸法
  6
Continuous
 62
     2
370
     9
100
AcDbText
 10
385.1880868093705
 20
-73.45920455830617
 30
0.0
 40
18.288
  1
50
 41
1.0625
  7
ＭＳ ゴシック
100
AcDbText
  0
TEXT
  5
2EE
330
1F
100
AcDbEntity
  8
A-4_寸法
  6
Continuous
 62
     2
370
     9
100
AcDbText
 10
261.7321263601518
 20
287.477233311204
 30
0.0
 40
18.288
  1
620
 50
90.0
 41
1.083333333333333
  7
ＭＳ ゴシック
100
AcDbText
  0
TEXT
  5
2EF
330
1F
100
AcDbEntity
  8
A-4_寸法
  6
Continuous
 62
     2
370
     9
100
AcDbText
 10
309.477520680253
 20
287.4773075431507
 30
0.0
 40
18.288
  1
600
 50
90.0
 41
1.083333333333333
  7
ＭＳ ゴシック
100
AcDbText
  0
TEXT
  5
2F0
330
1F
100
AcDbEntity
  8
A-4_寸法
  6
Continuous
 62
     2
370
     9
100
AcDbText
 10
499.2072504099827
 20
287.4773075431507
 30
0.0
 40
18.288
  1
500
 50
90.0
 41
1.083333333333333
  7
ＭＳ ゴシック
100
AcDbText
  0
TEXT
  5
2F1
330
1F
100
AcDbEntity
  8
A-4_寸法
  6
Continuous
 62
     2
370
     9
100
AcDbText
 10
-503.9845639144735
 20
653.6611237778425
 30
0.0
 40
18.288
  1
35.3
 41
1.09375
  7
ＭＳ ゴシック
100
AcDbText
  0
TEXT
  5
2F2
330
1F
100
AcDbEntity
  8
A-4_寸法
  6
Continuous
 62
     2
370
     9
100
AcDbText
 10
-503.0350408134917
 20
687.2044620379777
 30
0.0
 40
18.288
  1
161.5
 41
1.1
  7
ＭＳ ゴシック
100
AcDbText
  0
TEXT
  5
2F3
330
1F
100
AcDbEntity
  8
A-4_寸法
  6
Continuous
 62
     2
370
     9
100
AcDbText
 10
-341.5350338026967
 20
687.2044620379777
 30
0.0
 40
18.288
  1
161.5
 41
1.1
  7
ＭＳ ゴシック
100
AcDbText
  0
LWPOLYLINE
  5
2F4
330
1F
100
AcDbEntity
  8
A-4_寸法
  6
Continuous
 62
     7
370
     9
100
AcDbPolyline
 90
        4
 70
     1
 43
1.2
 10
-550.185090713856
 20
680.2205095464235
 42
0.4142135623731
 10
-550.785090713856
 20
680.8205095464235
 42
0.4142135623731
 10
-551.3850907138559
 20
680.2205095464235
 42
0.4142135623731
 10
-550.785090713856
 20
679.6205095464236
 42
0.4142135623731
  0
LWPOLYLINE
  5
2F5
330
1F
100
AcDbEntity
  8
A-4_寸法
  6
Continuous
 62
     7
370
     9
100
AcDbPolyline
 90
        4
 70
     1
 43
1.2
 10
-388.6850280291009
 20
680.2205095464235
 42
0.4142135623731
 10
-389.2850280291009
 20
680.8205095464235
 42
0.4142135623731
 10
-389.8850280291009
 20
680.2205095464235
 42
0.4142135623731
 10
-389.2850280291009
 20
679.6205095464236
 42
0.4142135623731
  0
LWPOLYLINE
  5
2F6
330
1F
100
AcDbEntity
  8
A-4_寸法
  6
Continuous
 62
     7
370
     9
100
AcDbPolyline
 90
        4
 70
     1
 43
1.2
 10
-227.1850395762926
 20
680.2205095464235
 42
0.4142135623731
 10
-227.7850395762926
 20
680.8205095464235
 42
0.4142135623731
 10
-228.3850395762926
 20
680.2205095464235
 42
0.4142135623731
 10
-227.7850395762926
 20
679.6205095464236
 42
0.4142135623731
  0
LWPOLYLINE
  5
2F7
330
1F
100
AcDbEntity
  8
A-4_寸法
  6
Continuous
 62
     7
370
     9
100
AcDbPolyline
 90
        4
 70
     1
 43
1.2
 10
-550.185090713856
 20
-183.6656483399785
 42
0.4142135623731
 10
-550.785090713856
 20
-183.0656483399785
 42
0.4142135623731
 10
-551.3850907138559
 20
-183.6656483399785
 42
0.4142135623731
 10
-550.785090713856
 20
-184.2656483399785
 42
0.4142135623731
  0
LWPOLYLINE
  5
2F8
330
1F
100
AcDbEntity
  8
A-4_寸法
  6
Continuous
 62
     7
370
     9
100
AcDbPolyline
 90
        4
 70
     1
 43
1.2
 10
-227.1850395762926
 20
-183.6656483399785
 42
0.4142135623731
 10
-227.7850395762926
 20
-183.0656483399785
 42
0.4142135623731
 10
-228.3850395762926
 20
-183.6656483399785
 42
0.4142135623731
 10
-227.7850395762926
 20
-184.2656483399785
 42
0.4142135623731
  0
LWPOLYLINE
  5
2F9
330
1F
100
AcDbEntity
  8
A-4_寸法
  6
Continuous
 62
     7
370
     9
100
AcDbPolyline
 90
        4
 70
     1
 43
1.2
 10
-550.185090713856
 20
-131.6119802920477
 42
0.4142135623731
 10
-550.785090713856
 20
-131.0119802920477
 42
0.4142135623731
 10
-551.3850907138559
 20
-131.6119802920477
 42
0.4142135623731
 10
-550.785090713856
 20
-132.2119802920477
 42
0.4142135623731
  0
LWPOLYLINE
  5
2FA
330
1F
100
AcDbEntity
  8
A-4_寸法
  6
Continuous
 62
     7
370
     9
100
AcDbPolyline
 90
        4
 70
     1
 43
1.2
 10
-544.1850709186701
 20
-131.6119802920477
 42
0.4142135623731
 10
-544.78507091867
 20
-131.0119802920477
 42
0.4142135623731
 10
-545.3850709186701
 20
-131.6119802920477
 42
0.4142135623731
 10
-544.78507091867
 20
-132.2119802920477
 42
0.4142135623731
  0
LWPOLYLINE
  5
2FB
330
1F
100
AcDbEntity
  8
A-4_寸法
  6
Continuous
 62
     7
370
     9
100
AcDbPolyline
 90
        4
 70
     1
 43
1.2
 10
-233.1851336034252
 20
-131.6119802920477
 42
0.4142135623731
 10
-233.7851336034253
 20
-131.0119802920477
 42
0.4142135623731
 10
-234.3851336034253
 20
-131.6119802920477
 42
0.4142135623731
 10
-233.7851336034253
 20
-132.2119802920477
 42
0.4142135623731
  0
LWPOLYLINE
  5
2FC
330
1F
100
AcDbEntity
  8
A-4_寸法
  6
Continuous
 62
     7
370
     9
100
AcDbPolyline
 90
        4
 70
     1
 43
1.2
 10
-227.1849653443457
 20
-131.6119802920477
 42
0.4142135623731
 10
-227.7849653443457
 20
-131.0119802920477
 42
0.4142135623731
 10
-228.3849653443457
 20
-131.6119802920477
 42
0.4142135623731
 10
-227.7849653443457
 20
-132.2119802920477
 42
0.4142135623731
  0
LWPOLYLINE
  5
2FD
330
1F
100
AcDbEntity
  8
A-4_寸法
  6
Continuous
 62
     7
370
     9
100
AcDbPolyline
 90
        4
 70
     1
 43
1.2
 10
-544.1850709186701
 20
-80.44323128180703
 42
0.4142135623731
 10
-544.78507091867
 20
-79.84323128180704
 42
0.4142135623731
 10
-545.3850709186701
 20
-80.44323128180703
 42
0.4142135623731
 10
-544.78507091867
 20
-81.04323128180702
 42
0.4142135623731
  0
LWPOLYLINE
  5
2FE
330
1F
100
AcDbEntity
  8
A-4_寸法
  6
Continuous
 62
     7
370
     9
100
AcDbPolyline
 90
        4
 70
     1
 43
1.2
 10
-533.1849356515671
 20
-80.44323128180703
 42
0.4142135623731
 10
-533.784935651567
 20
-79.84323128180704
 42
0.4142135623731
 10
-534.384935651567
 20
-80.44323128180703
 42
0.4142135623731
 10
-533.784935651567
 20
-81.04323128180702
 42
0.4142135623731
  0
LWPOLYLINE
  5
2FF
330
1F
100
AcDbEntity
  8
A-4_寸法
  6
Continuous
 62
     7
370
     9
100
AcDbPolyline
 90
        4
 70
     1
 43
1.2
 10
-244.1850461746879
 20
-80.44323128180703
 42
0.4142135623731
 10
-244.7850461746879
 20
-79.84323128180704
 42
0.4142135623731
 10
-245.3850461746879
 20
-80.44323128180703
 42
0.4142135623731
 10
-244.7850461746879
 20
-81.04323128180702
 42
0.4142135623731
  0
LWPOLYLINE
  5
300
330
1F
100
AcDbEntity
  8
A-4_寸法
  6
Continuous
 62
     7
370
     9
100
AcDbPolyline
 90
        4
 70
     1
 43
1.2
 10
-233.1849851395316
 20
-80.44323128180703
 42
0.4142135623731
 10
-233.7849851395317
 20
-79.84323128180704
 42
0.4142135623731
 10
-234.3849851395317
 20
-80.44323128180703
 42
0.4142135623731
 10
-233.7849851395317
 20
-81.04323128180702
 42
0.4142135623731
  0
LWPOLYLINE
  5
301
330
1F
100
AcDbEntity
  8
A-4_寸法
  6
Continuous
 62
     7
370
     9
100
AcDbPolyline
 90
        4
 70
     1
 43
1.2
 10
269.3160788517057
 20
-3.022725448825625
 42
0.4142135623731
 10
268.7160788517057
 20
-2.422725448825625
 42
0.4142135623731
 10
268.1160788517057
 20
-3.022725448825625
 42
0.4142135623731
 10
268.7160788517057
 20
-3.622725448825625
 42
0.4142135623731
  0
LWPOLYLINE
  5
302
330
1F
100
AcDbEntity
  8
A-4_寸法
  6
Continuous
 62
     7
370
     9
100
AcDbPolyline
 90
        4
 70
     1
 43
1.2
 10
269.3160788517057
 20
616.9772663031803
 42
0.4142135623731
 10
268.7160788517057
 20
617.5772663031803
 42
0.4142135623731
 10
268.1160788517057
 20
616.9772663031803
 42
0.4142135623731
 10
268.7160788517057
 20
616.3772663031802
 42
0.4142135623731
  0
LWPOLYLINE
  5
303
330
1F
100
AcDbEntity
  8
A-4_寸法
  6
Continuous
 62
     7
370
     9
100
AcDbPolyline
 90
        4
 70
     1
 43
1.2
 10
317.0614731718071
 20
-3.022725448825625
 42
0.4142135623731
 10
316.4614731718071
 20
-2.422725448825625
 42
0.4142135623731
 10
315.8614731718071
 20
-3.022725448825625
 42
0.4142135623731
 10
316.4614731718071
 20
-3.622725448825625
 42
0.4142135623731
  0
LWPOLYLINE
  5
304
330
1F
100
AcDbEntity
  8
A-4_寸法
  6
Continuous
 62
     7
370
     9
100
AcDbPolyline
 90
        4
 70
     1
 43
1.2
 10
317.0614731718071
 20
2.977145882466559
 42
0.4142135623731
 10
316.4614731718071
 20
3.577145882466558
 42
0.4142135623731
 10
315.8614731718071
 20
2.977145882466559
 42
0.4142135623731
 10
316.4614731718071
 20
2.377145882466559
 42
0.4142135623731
  0
LWPOLYLINE
  5
305
330
1F
100
AcDbEntity
  8
A-4_寸法
  6
Continuous
 62
     7
370
     9
100
AcDbPolyline
 90
        4
 70
     1
 43
1.2
 10
317.0614731718071
 20
6.97743126306203
 42
0.4142135623731
 10
316.4614731718071
 20
7.577431263062031
 42
0.4142135623731
 10
315.8614731718071
 20
6.97743126306203
 42
0.4142135623731
 10
316.4614731718071
 20
6.37743126306203
 42
0.4142135623731
  0
LWPOLYLINE
  5
306
330
1F
100
AcDbEntity
  8
A-4_寸法
  6
Continuous
 62
     7
370
     9
100
AcDbPolyline
 90
        4
 70
     1
 43
1.2
 10
317.0614731718071
 20
606.9771838232393
 42
0.4142135623731
 10
316.4614731718071
 20
607.5771838232392
 42
0.4142135623731
 10
315.8614731718071
 20
606.9771838232393
 42
0.4142135623731
 10
316.4614731718071
 20
606.3771838232394
 42
0.4142135623731
  0
LWPOLYLINE
  5
307
330
1F
100
AcDbEntity
  8
A-4_寸法
  6
Continuous
 62
     7
370
     9
100
AcDbPolyline
 90
        4
 70
     1
 43
1.2
 10
317.0614731718071
 20
610.9773949718881
 42
0.4142135623731
 10
316.4614731718071
 20
611.577394971888
 42
0.4142135623731
 10
315.8614731718071
 20
610.9773949718881
 42
0.4142135623731
 10
316.4614731718071
 20
610.3773949718882
 42
0.4142135623731
  0
LWPOLYLINE
  5
308
330
1F
100
AcDbEntity
  8
A-4_寸法
  6
Continuous
 62
     7
370
     9
100
AcDbPolyline
 90
        4
 70
     1
 43
1.2
 10
317.0614731718071
 20
616.9772663031803
 42
0.4142135623731
 10
316.4614731718071
 20
617.5772663031803
 42
0.4142135623731
 10
315.8614731718071
 20
616.9772663031803
 42
0.4142135623731
 10
316.4614731718071
 20
616.3772663031802
 42
0.4142135623731
  0
LWPOLYLINE
  5
309
330
1F
100
AcDbEntity
  8
A-4_寸法
  6
Continuous
 62
     7
370
     9
100
AcDbPolyline
 90
        4
 70
     1
 43
1.2
 10
506.7912029015367
 20
-3.022725448825625
 42
0.4142135623731
 10
506.1912029015368
 20
-2.422725448825625
 42
0.4142135623731
 10
505.5912029015368
 20
-3.022725448825625
 42
0.4142135623731
 10
506.1912029015368
 20
-3.622725448825625
 42
0.4142135623731
  0
LWPOLYLINE
  5
30A
330
1F
100
AcDbEntity
  8
A-4_寸法
  6
Continuous
 62
     7
370
     9
100
AcDbPolyline
 90
        4
 70
     1
 43
1.2
 10
506.7912029015367
 20
56.97724980719219
 42
0.4142135623731
 10
506.1912029015368
 20
57.57724980719219
 42
0.4142135623731
 10
505.5912029015368
 20
56.97724980719219
 42
0.4142135623731
 10
506.1912029015368
 20
56.3772498071922
 42
0.4142135623731
  0
LWPOLYLINE
  5
30B
330
1F
100
AcDbEntity
  8
A-4_寸法
  6
Continuous
 62
     7
370
     9
100
AcDbPolyline
 90
        4
 70
     1
 43
1.2
 10
506.7912029015367
 20
556.9773652791093
 42
0.4142135623731
 10
506.1912029015368
 20
557.5773652791092
 42
0.4142135623731
 10
505.5912029015368
 20
556.9773652791093
 42
0.4142135623731
 10
506.1912029015368
 20
556.3773652791094
 42
0.4142135623731
  0
LWPOLYLINE
  5
30C
330
1F
100
AcDbEntity
  8
A-4_寸法
  6
Continuous
 62
     7
370
     9
100
AcDbPolyline
 90
        4
 70
     1
 43
1.2
 10
506.7912029015367
 20
616.9772663031803
 42
0.4142135623731
 10
506.1912029015368
 20
617.5772663031803
 42
0.4142135623731
 10
505.5912029015368
 20
616.9772663031803
 42
0.4142135623731
 10
506.1912029015368
 20
616.3772663031802
 42
0.4142135623731
  0
LWPOLYLINE
  5
30D
330
1F
100
AcDbEntity
  8
A-4_寸法
  6
Continuous
 62
     7
370
     9
100
AcDbPolyline
 90
        4
 70
     1
 43
1.2
 10
373.5380290734118
 20
-133.4683728173856
 42
0.4142135623731
 10
372.9380290734118
 20
-132.8683728173856
 42
0.4142135623731
 10
372.3380290734117
 20
-133.4683728173856
 42
0.4142135623731
 10
372.9380290734118
 20
-134.0683728173856
 42
0.4142135623731
  0
LWPOLYLINE
  5
30E
330
1F
100
AcDbEntity
  8
A-4_寸法
  6
Continuous
 62
     7
370
     9
100
AcDbPolyline
 90
        4
 70
     1
 43
1.2
 10
429.5380158766213
 20
-133.4683728173856
 42
0.4142135623731
 10
428.9380158766213
 20
-132.8683728173856
 42
0.4142135623731
 10
428.3380158766213
 20
-133.4683728173856
 42
0.4142135623731
 10
428.9380158766213
 20
-134.0683728173856
 42
0.4142135623731
  0
LWPOLYLINE
  5
30F
330
1F
100
AcDbEntity
  8
A-4_寸法
  6
Continuous
 62
     7
370
     9
100
AcDbPolyline
 90
        4
 70
     1
 43
1.2
 10
373.5380290734118
 20
-80.44323128180703
 42
0.4142135623731
 10
372.9380290734118
 20
-79.84323128180704
 42
0.4142135623731
 10
372.3380290734117
 20
-80.44323128180703
 42
0.4142135623731
 10
372.9380290734118
 20
-81.04323128180702
 42
0.4142135623731
  0
LWPOLYLINE
  5
310
330
1F
100
AcDbEntity
  8
A-4_寸法
  6
Continuous
 62
     7
370
     9
100
AcDbPolyline
 90
        4
 70
     1
 43
1.2
 10
423.5379960814355
 20
-80.44323128180703
 42
0.4142135623731
 10
422.9379960814355
 20
-79.84323128180704
 42
0.4142135623731
 10
422.3379960814356
 20
-80.44323128180703
 42
0.4142135623731
 10
422.9379960814355
 20
-81.04323128180702
 42
0.4142135623731
  0
LWPOLYLINE
  5
311
330
1F
100
AcDbEntity
  8
A-4_寸法
  6
Continuous
 62
     7
370
     9
100
AcDbPolyline
 90
        4
 70
     1
 43
1.2
 10
-494.7846753448737
 20
646.6771712862884
 42
0.4142135623731
 10
-495.3846753448737
 20
647.2771712862884
 42
0.4142135623731
 10
-495.9846753448737
 20
646.6771712862884
 42
0.4142135623731
 10
-495.3846753448737
 20
646.0771712862884
 42
0.4142135623731
  0
LWPOLYLINE
  5
312
330
1F
100
AcDbEntity
  8
A-4_寸法
  6
Continuous
 62
     7
370
     9
100
AcDbPolyline
 90
        4
 70
     1
 43
1.2
 10
-459.4844524840735
 20
646.6771712862884
 42
0.4142135623731
 10
-460.0844524840735
 20
647.2771712862884
 42
0.4142135623731
 10
-460.6844524840734
 20
646.6771712862884
 42
0.4142135623731
 10
-460.0844524840735
 20
646.0771712862884
 42
0.4142135623731
  0
LINE
  5
313
330
1F
100
AcDbEntity
  8
A-2_蓋
  6
Continuous
 62
     3
370
     9
100
AcDbLine
 10
397.9381610413172
 20
606.9771838232393
 30
0.0
 11
416.9380290734118
 21
606.9771838232393
 31
0.0
  0
LINE
  5
314
330
1F
100
AcDbEntity
  8
A-2_蓋
  6
Continuous
 62
     3
370
     9
100
AcDbLine
 10
416.9380290734118
 20
606.9771838232393
 30
0.0
 11
416.9380290734118
 21
602.4772432087968
 31
0.0
  0
LINE
  5
315
330
1F
100
AcDbEntity
  8
A-2_蓋
  6
Continuous
 62
     3
370
     9
100
AcDbLine
 10
397.9381610413172
 20
602.4772432087968
 30
0.0
 11
422.9379960814355
 21
602.4772432087968
 31
0.0
  0
LINE
  5
316
330
1F
100
AcDbEntity
  8
A-2_蓋
  6
Continuous
 62
     3
370
     9
100
AcDbLine
 10
397.4381346477361
 20
6.97743126306203
 30
0.0
 11
416.9380290734118
 21
6.97743126306203
 31
0.0
  0
LINE
  5
317
330
1F
100
AcDbEntity
  8
A-2_蓋
  6
Continuous
 62
     3
370
     9
100
AcDbLine
 10
397.4381346477361
 20
11.4772234136111
 30
0.0
 11
422.9379960814355
 21
11.4772234136111
 31
0.0
  0
LINE
  5
318
330
1F
100
AcDbEntity
  8
A-2_蓋
  6
Continuous
 62
     3
370
     9
100
AcDbLine
 10
422.9379960814355
 20
602.4772432087968
 30
0.0
 11
422.9379960814355
 21
11.4772234136111
 31
0.0
  0
LINE
  5
319
330
1F
100
AcDbEntity
  8
A-2_蓋
  6
Continuous
 62
     3
370
     9
100
AcDbLine
 10
416.9380290734118
 20
11.4772234136111
 30
0.0
 11
416.9380290734118
 21
6.97743126306203
 31
0.0
  0
LINE
  5
31A
330
1F
100
AcDbEntity
  8
A-4_寸法
  6
Continuous
 62
     7
370
     9
100
AcDbLine
 10
-244.7850461746879
 20
-6.022586882525005
 30
0.0
 11
-244.7850461746879
 21
-82.24320752758406
 31
0.0
  0
LINE
  5
31B
330
1F
100
AcDbEntity
  8
A-4_寸法
  6
Continuous
 62
     7
370
     9
100
AcDbLine
 10
-533.784935651567
 20
-6.022586882525005
 30
0.0
 11
-533.784935651567
 21
-82.24320752758406
 31
0.0
  0
LINE
  5
31C
330
1F
100
AcDbEntity
  8
A-4_寸法
  6
Continuous
 62
     7
370
     9
100
AcDbLine
 10
-185.9692189338728
 20
413.7100049011532
 30
0.0
 11
-61.91858074110178
 21
413.7100049011532
 31
0.0
  0
LINE
  5
31D
330
1F
100
AcDbEntity
  8
A-9_ｸｯｼｮﾝ材
  6
Continuous
 62
     4
370
     9
100
AcDbLine
 10
-519.784864718818
 20
586.9773157911447
 30
0.0
 11
-505.7848680180156
 21
586.9773157911447
 31
0.0
  0
LINE
  5
31E
330
1F
100
AcDbEntity
  8
A-9_ｸｯｼｮﾝ材
  6
Continuous
 62
     4
370
     9
100
AcDbLine
 10
-505.7850164819092
 20
602.477540136584
 30
0.0
 11
-505.7848680180156
 21
586.9773157911447
 31
0.0
  0
LINE
  5
31F
330
1F
100
AcDbEntity
  8
A-9_ｸｯｼｮﾝ材
  6
Continuous
 62
     4
370
     9
100
AcDbLine
 10
-519.7850131827115
 20
602.477540136584
 30
0.0
 11
-519.784864718818
 21
586.9773157911447
 31
0.0
  0
LINE
  5
320
330
1F
100
AcDbEntity
  8
A-9_ｸｯｼｮﾝ材
  6
Continuous
 62
     4
370
     9
100
AcDbLine
 10
383.9380158766213
 20
586.9772663031803
 30
0.0
 11
397.9381610413172
 21
586.9772663031803
 31
0.0
  0
LINE
  5
321
330
1F
100
AcDbEntity
  8
A-9_ｸｯｼｮﾝ材
  6
Continuous
 62
     4
370
     9
100
AcDbLine
 10
397.9381610413172
 20
616.9772663031803
 30
0.0
 11
397.9381610413172
 21
586.9772663031803
 31
0.0
  0
LINE
  5
322
330
1F
100
AcDbEntity
  8
A-9_ｸｯｼｮﾝ材
  6
Continuous
 62
     4
370
     9
100
AcDbLine
 10
383.9380158766213
 20
616.9772663031803
 30
0.0
 11
383.9380158766213
 21
586.9772663031803
 31
0.0
  0
LINE
  5
323
330
1F
100
AcDbEntity
  8
A-9_ｸｯｼｮﾝ材
  6
Continuous
 62
     4
370
     9
100
AcDbLine
 10
-519.285135253024
 20
21.97727455117438
 30
0.0
 11
-506.285117107437
 21
21.97727455117438
 31
0.0
  0
LINE
  5
324
330
1F
100
AcDbEntity
  8
A-9_ｸｯｼｮﾝ材
  6
Continuous
 62
     4
370
     9
100
AcDbLine
 10
-519.285135253024
 20
21.97727455117438
 30
0.0
 11
-519.285135253024
 21
11.4772234136111
 31
0.0
  0
LINE
  5
325
330
1F
100
AcDbEntity
  8
A-9_ｸｯｼｮﾝ材
  6
Continuous
 62
     4
370
     9
100
AcDbLine
 10
-506.285117107437
 20
21.97727455117438
 30
0.0
 11
-506.285117107437
 21
11.4772234136111
 31
0.0
  0
LINE
  5
326
330
1F
100
AcDbEntity
  8
A-4_寸法
  6
Continuous
 62
     7
370
     9
100
AcDbLine
 10
-643.386697753024
 20
151.726255099105
 30
0.0
 11
-519.285135253024
 21
21.97727455117438
 31
0.0
  0
LINE
  5
327
330
1F
100
AcDbEntity
  8
A-4_寸法
  6
Continuous
 62
     7
370
     9
100
AcDbLine
 10
-519.285135253024
 20
21.97727455117438
 30
0.0
 11
-530.9794134545655
 21
31.37110472167687
 31
0.0
  0
LINE
  5
328
330
1F
100
AcDbEntity
  8
A-4_寸法
  6
Continuous
 62
     7
370
     9
100
AcDbLine
 10
-519.285135253024
 20
21.97727455117438
 30
0.0
 11
-528.1496174109632
 21
34.07774996555359
 31
0.0
  0
LINE
  5
329
330
1F
100
AcDbEntity
  8
A-9_ｸｯｼｮﾝ材
  6
Continuous
 62
     4
370
     9
100
AcDbLine
 10
384.4380422702024
 20
21.97727455117438
 30
0.0
 11
397.4381346477361
 21
21.97727455117438
 31
0.0
  0
LINE
  5
32A
330
1F
100
AcDbEntity
  8
A-9_ｸｯｼｮﾝ材
  6
Continuous
 62
     4
370
     9
100
AcDbLine
 10
384.4380422702024
 20
21.97727455117438
 30
0.0
 11
384.4380422702024
 21
-3.022428521038435
 31
0.0
  0
LINE
  5
32B
330
1F
100
AcDbEntity
  8
A-9_ｸｯｼｮﾝ材
  6
Continuous
 62
     4
370
     9
100
AcDbLine
 10
397.4381346477361
 20
21.97727455117438
 30
0.0
 11
397.4381346477361
 21
-3.022428521038435
 31
0.0
  0
TEXT
  5
32C
330
1F
100
AcDbEntity
  8
A-4_寸法
  6
Continuous
 62
     7
370
     9
100
AcDbText
 10
-225.7204034380375
 20
711.8046422474474
 30
0.0
 40
13.716
  1
メインバー ＤⅠ－５０ ＠35.3
 41
1.160714285714286
  7
ＭＳ ゴシック
100
AcDbText
  0
TEXT
  5
32D
330
1F
100
AcDbEntity
  8
A-4_寸法
  6
Continuous
 62
     7
370
     9
100
AcDbText
 10
-184.5880672356105
 20
419.3286210648876
 30
0.0
 40
13.716
  1
ＦＢ６×５０
 41
1.138888888888889
  7
ＭＳ ゴシック
100
AcDbText
  0
TEXT
  5
32E
330
1F
100
AcDbEntity
  8
A-4_寸法
  6
Continuous
 62
     7
370
     9
100
AcDbText
 10
-828.5076534607509
 20
-155.0079839313185
 30
0.0
 40
13.716
  1
ボックス φ２０
 50
359.9998898853713
 41
1.144444444444444
  7
ＭＳ ゴシック
100
AcDbText
  0
TEXT
  5
32F
330
1F
100
AcDbEntity
  8
A-4_寸法
  6
Continuous
 62
     7
370
     9
100
AcDbText
 10
118.3105893167607
 20
779.0982888049847
 30
0.0
 40
13.716
  1
受枠：Ｌ－５０
 41
1.142857142857143
  7
ＭＳ ゴシック
100
AcDbText
  0
TEXT
  5
330
330
1F
100
AcDbEntity
  8
A-4_寸法
  6
Continuous
 62
     7
370
     9
100
AcDbText
 10
109.2239655836525
 20
751.4500190987324
 30
0.0
 40
13.716
  1
（二方受四方枠）
 41
1.145833333333333
  7
ＭＳ ゴシック
100
AcDbText
  0
TEXT
  5
331
330
1F
100
AcDbEntity
  8
A-4_寸法
  6
Continuous
 62
     7
370
     9
100
AcDbText
 10
547.6803204936
 20
780.5187142784339
 30
0.0
 40
13.716
  1
アンカー：φ９
 41
1.142857142857143
  7
ＭＳ ゴシック
100
AcDbText
  0
LINE
  5
332
330
1F
100
AcDbEntity
  8
A-4_寸法
  6
Continuous
 62
     7
370
     9
100
AcDbLine
 10
543.801561062432
 20
772.652941978856
 30
0.0
 11
694.6558746678915
 21
772.652941978856
 31
0.0
  0
LINE
  5
333
330
1F
100
AcDbEntity
  8
A-4_寸法
  6
Continuous
 62
     7
370
     9
100
AcDbLine
 10
-613.2989308479355
 20
735.4186428604016
 30
0.0
 11
-855.1971275488328
 21
735.4186428604016
 31
0.0
  0
TEXT
  5
334
330
1F
100
AcDbEntity
  8
A-4_寸法
  6
Continuous
 62
     7
370
     9
100
AcDbText
 10
-852.4342507928843
 20
742.9495732326782
 30
0.0
 40
13.716
  1
六角頭ピン φ１４×３０
 50
0.00006065136961
 41
1.152173913043477
  7
ＭＳ ゴシック
100
AcDbText
  0
LINE
  5
335
330
1F
100
AcDbEntity
  8
A-4_寸法
  6
Continuous
 62
     7
370
     9
100
AcDbLine
 10
-643.386697753024
 20
151.726255099105
 30
0.0
 11
-801.0089707358138
 21
151.726255099105
 31
0.0
  0
LINE
  5
336
330
1F
100
AcDbEntity
  8
F-4ﾚｲﾔ
  6
Continuous
 62
     2
370
     9
100
AcDbLine
 10
119.9589234349776
 20
-335.4203032880177
 30
0.0
 11
119.9589234349776
 21
-305.4203156600089
 31
0.0
  0
LINE
  5
337
330
1F
100
AcDbEntity
  8
F-4ﾚｲﾔ
  6
Continuous
 62
     2
370
     9
100
AcDbLine
 10
119.9589234349776
 20
-305.4203156600089
 30
0.0
 11
254.9587749710842
 21
-305.4203156600089
 31
0.0
  0
LINE
  5
338
330
1F
100
AcDbEntity
  8
F-4ﾚｲﾔ
  6
Continuous
 62
     2
370
     9
100
AcDbLine
 10
254.9587749710842
 20
-305.4203156600089
 30
0.0
 11
254.9587749710842
 21
-335.4203032880177
 31
0.0
  0
LINE
  5
339
330
1F
100
AcDbEntity
  8
F-4ﾚｲﾔ
  6
Continuous
 62
     2
370
     9
100
AcDbLine
 10
254.9587749710842
 20
-335.4203032880177
 30
0.0
 11
119.9589234349776
 21
-335.4203032880177
 31
0.0
  0
TEXT
  5
33A
330
1F
100
AcDbEntity
  8
F-4ﾚｲﾔ
  6
Continuous
 62
     2
370
     9
100
AcDbText
 10
148.4589234349777
 20
-329.0367387821055
 30
0.0
 40
18.288
  1
仕　様
 41
1.083333333333333
  7
ＭＳ ゴシック
100
AcDbText
  0
TEXT
  5
33B
330
1F
100
AcDbEntity
  8
F-4ﾚｲﾔ
  6
Continuous
 62
     2
370
     9
100
AcDbText
 10
217.0395921163543
 20
-538.4588118593626
 30
0.0
 40
18.288
  1
材質：ＳＳ４００
 41
1.109375
  7
ＭＳ ゴシック
100
AcDbText
  0
TEXT
  5
33C
330
1F
100
AcDbEntity
  8
F-4ﾚｲﾔ
  6
Continuous
 62
     2
370
     9
100
AcDbText
 10
217.0399038905309
 20
-466.4584258532392
 30
0.0
 40
18.288
  1
処理：溶融亜鉛めっき
 41
1.1125
  7
ＭＳ ゴシック
100
AcDbText
  0
TEXT
  5
33D
330
1F
100
AcDbEntity
  8
F-4ﾚｲﾔ
  6
Continuous
 62
     2
370
     9
100
AcDbText
 10
217.0398890441415
 20
-433.4583912116641
 30
0.0
 40
18.288
  1
材質：ＳＳ４００
 41
1.109375
  7
ＭＳ ゴシック
100
AcDbText
  0
TEXT
  5
33E
330
1F
100
AcDbEntity
  8
F-4ﾚｲﾔ
  6
Continuous
 62
     3
370
     9
100
AcDbText
 10
181.9700789241094
 20
-631.8269642717689
 30
0.0
 40
22.86
  1
※脱着ピン付
 41
1.083333333333333
  7
ＭＳ ゴシック
100
AcDbText
  0
TEXT
  5
33F
330
1F
100
AcDbEntity
  8
F-4ﾚｲﾔ
  6
Continuous
 62
     2
370
     9
100
AcDbText
 10
217.0396069627437
 20
-571.458772268991
 30
0.0
 40
18.288
  1
処理：樹脂系塗装
 41
1.109375
  7
ＭＳ ゴシック
100
AcDbText
  0
TEXT
  5
340
330
1F
100
AcDbEntity
  8
F-4ﾚｲﾔ
  6
Continuous
 62
     2
370
     9
100
AcDbText
 10
181.2122853173681
 20
-366.7884716856635
 30
0.0
 40
18.288
  1
スチール製グレーチング　１１０°開閉式　滑り止め模様付
 41
1.12037037037037
  7
ＭＳ ゴシック
100
AcDbText
  0
TEXT
  5
341
330
1F
100
AcDbEntity
  8
F-5ﾚｲﾔ
  6
Continuous
 62
     2
370
     0
100
AcDbText
 10
-512.0455100730139
 20
-793.139783035557
 30
0.0
 40
18.288
  1
スチール製グレーチング　１１０°開閉式　滑り止め模様付
 41
0.8990740740740741
  7
ＭＳ ゴシック
100
AcDbText
  0
TEXT
  5
342
330
1F
100
AcDbEntity
  8
F-5ﾚｲﾔ
  6
Continuous
 62
     2
370
     0
100
AcDbText
 10
-39.07081062922896
 20
-822.5231586954468
 30
0.0
 40
18.288
  1
集水桝用　ＨＸＦ　５３５０
 41
0.8980769230769234
  7
ＭＳ ゴシック
100
AcDbText
  0
TEXT
  5
343
330
1F
100
AcDbEntity
  8
F-4ﾚｲﾔ
  6
Continuous
 62
     2
370
     9
100
AcDbText
 10
181.212285317368
 20
-401.4762021278081
 30
0.0
 40
18.288
  1
集水桝用　ＨＸＦ　５３５０
 41
1.115384615384615
  7
ＭＳ ゴシック
100
AcDbText
  0
TEXT
  5
344
330
1F
100
AcDbEntity
  8
F-4ﾚｲﾔ
  6
Continuous
 62
     2
370
     9
100
AcDbText
 10
181.2131909471187
 20
-505.4587772177874
 30
0.0
 40
18.288
  1
スチール製受枠　Ｌ－５０（二方受四方枠）
 41
1.11875
  7
ＭＳ ゴシック
100
AcDbText
  0
LINE
  5
345
330
1F
100
AcDbEntity
  8
D-0_通り芯
  6
Continuous
 62
     3
370
     9
100
AcDbLine
 10
-287.1885550283839
 20
-549.3017732599533
 30
0.0
 11
-527.188549306338
 21
-549.3017732599533
 31
0.0
  0
LINE
  5
346
330
1F
100
AcDbEntity
  8
D-0_通り芯
  6
Continuous
 62
     7
370
     9
100
AcDbLine
 10
-606.1809408926417
 20
-609.3017761209762
 30
0.0
 11
-606.1809408926417
 21
-649.1724969843185
 31
0.0
  0
LINE
  5
347
330
1F
100
AcDbEntity
  8
D-0_通り芯
  6
Continuous
 62
     7
370
     9
100
AcDbLine
 10
-606.1809408926417
 20
-649.1724969843185
 30
0.0
 11
-103.1962607168605
 21
-649.1724969843185
 31
0.0
  0
LINE
  5
348
330
1F
100
AcDbEntity
  8
D-0_通り芯
  6
Continuous
 62
     7
370
     9
100
AcDbLine
 10
-103.1962607168605
 20
-649.1724969843185
 30
0.0
 11
-103.1962607168605
 21
-609.3017761209762
 31
0.0
  0
LINE
  5
349
330
1F
100
AcDbEntity
  8
D-0_通り芯
  6
Continuous
 62
     7
370
     9
100
AcDbLine
 10
-103.1962607168605
 20
-609.3017761209762
 30
0.0
 11
-606.1809408926417
 21
-609.3017761209762
 31
0.0
  0
LINE
  5
34A
330
1F
100
AcDbEntity
  8
D-0_通り芯
  6
Continuous
 62
     3
370
     9
100
AcDbLine
 10
-227.1885550283839
 20
-394.8018762567795
 30
0.0
 11
-227.1885550283839
 21
-399.3015329340255
 31
0.0
  0
LINE
  5
34B
330
1F
100
AcDbEntity
  8
D-0_通り芯
  6
Continuous
 62
     3
370
     9
100
AcDbLine
 10
-287.1885550283839
 20
-334.8018762567795
 30
0.0
 11
-527.188549306338
 21
-334.8018762567795
 31
0.0
  0
LINE
  5
34C
330
1F
100
AcDbEntity
  8
D-4_寸法
  6
Continuous
 62
     7
370
     9
100
AcDbLine
 10
-227.1885550283839
 20
-367.8018762567795
 30
0.0
 11
-242.0602209829738
 21
-365.8439981439865
 31
0.0
  0
LINE
  5
34D
330
1F
100
AcDbEntity
  8
D-4_寸法
  6
Continuous
 62
     7
370
     9
100
AcDbLine
 10
-227.1885550283839
 20
-367.8018762567795
 30
0.0
 11
-242.0602209829738
 21
-369.759777257756
 31
0.0
  0
LINE
  5
34E
330
1F
100
AcDbEntity
  8
D-4_寸法
  6
Continuous
 62
     7
370
     9
100
AcDbLine
 10
-227.1885550283839
 20
-366.0018808344162
 30
0.0
 11
-227.1885550283839
 21
-382.8018762567795
 31
0.0
  0
LINE
  5
34F
330
1F
100
AcDbEntity
  8
D-4_寸法
  6
Continuous
 62
     7
370
     9
100
AcDbLine
 10
-227.1885550283839
 20
-367.8018762567795
 30
0.0
 11
-245.1885550283839
 21
-367.8018762567795
 31
0.0
  0
LINE
  5
350
330
1F
100
AcDbEntity
  8
D-4_寸法
  6
Continuous
 62
     7
370
     9
100
AcDbLine
 10
-554.188549306338
 20
-334.8018762567795
 30
0.0
 11
-556.1464445852687
 21
-349.6735650995529
 31
0.0
  0
LINE
  5
351
330
1F
100
AcDbEntity
  8
D-4_寸法
  6
Continuous
 62
     7
370
     9
100
AcDbLine
 10
-554.188549306338
 20
-334.8018762567795
 30
0.0
 11
-552.2306540274074
 21
-349.6735650995529
 31
0.0
  0
LINE
  5
352
330
1F
100
AcDbEntity
  8
D-4_寸法
  6
Continuous
 62
     7
370
     9
100
AcDbLine
 10
-555.9885504507472
 20
-334.8018762567795
 30
0.0
 11
-539.188549306338
 21
-334.8018762567795
 31
0.0
  0
LINE
  5
353
330
1F
100
AcDbEntity
  8
D-4_寸法
  6
Continuous
 62
     7
370
     9
100
AcDbLine
 10
-554.188549306338
 20
-334.8018762567795
 30
0.0
 11
-554.188549306338
 21
-352.8018762567795
 31
0.0
  0
LINE
  5
354
330
1F
100
AcDbEntity
  8
D-0_通り芯
  6
Continuous
 62
     3
370
     9
100
AcDbLine
 10
-206.1886465811183
 20
-549.3017732599533
 30
0.0
 11
-227.1885550283839
 21
-549.3017732599533
 31
0.0
  0
LINE
  5
355
330
1F
100
AcDbEntity
  8
D-4_寸法
  6
Continuous
 62
     7
370
     9
100
AcDbLine
 10
-149.1886465811183
 20
-549.3017732599533
 30
0.0
 11
-151.1465475820949
 21
-534.4301073053634
 31
0.0
  0
LINE
  5
356
330
1F
100
AcDbEntity
  8
D-4_寸法
  6
Continuous
 62
     7
370
     9
100
AcDbLine
 10
-149.1886465811183
 20
-549.3017732599533
 30
0.0
 11
-147.2307455801418
 21
-534.4301073053634
 31
0.0
  0
LINE
  5
357
330
1F
100
AcDbEntity
  8
D-4_寸法
  6
Continuous
 62
     7
370
     9
100
AcDbLine
 10
-147.3886282705714
 20
-549.3017732599533
 30
0.0
 11
-194.1886465811183
 21
-549.3017732599533
 31
0.0
  0
LINE
  5
358
330
1F
100
AcDbEntity
  8
D-0_通り芯
  6
Continuous
 62
     3
370
     9
100
AcDbLine
 10
-227.1885550283839
 20
-399.3015329340255
 30
0.0
 11
-206.1886465811183
 21
-399.3015329340255
 31
0.0
  0
LINE
  5
359
330
1F
100
AcDbEntity
  8
D-0_通り芯
  6
Continuous
 62
     3
370
     9
100
AcDbLine
 10
-227.1885550283839
 20
-394.8018762567795
 30
0.0
 11
-206.1886465811183
 21
-394.8018762567795
 31
0.0
  0
LINE
  5
35A
330
1F
100
AcDbEntity
  8
D-0_通り芯
  6
Continuous
 62
     3
370
     9
100
AcDbLine
 10
-206.1886465811183
 20
-394.8018762567795
 30
0.0
 11
-206.1886465811183
 21
-399.3015329340255
 31
0.0
  0
LINE
  5
35B
330
1F
100
AcDbEntity
  8
D-4_寸法
  6
Continuous
 62
     7
370
     9
100
AcDbLine
 10
-206.1886465811183
 20
-367.8018762567795
 30
0.0
 11
-191.3169577383449
 21
-365.8439981439865
 31
0.0
  0
LINE
  5
35C
330
1F
100
AcDbEntity
  8
D-4_寸法
  6
Continuous
 62
     7
370
     9
100
AcDbLine
 10
-206.1886465811183
 20
-367.8018762567795
 30
0.0
 11
-191.3169577383449
 21
-369.759777257756
 31
0.0
  0
LINE
  5
35D
330
1F
100
AcDbEntity
  8
D-4_寸法
  6
Continuous
 62
     7
370
     9
100
AcDbLine
 10
-206.1886465811183
 20
-366.0018808344162
 30
0.0
 11
-206.1886465811183
 21
-382.8018762567795
 31
0.0
  0
LINE
  5
35E
330
1F
100
AcDbEntity
  8
D-4_寸法
  6
Continuous
 62
     7
370
     9
100
AcDbLine
 10
-206.1886465811183
 20
-367.8018762567795
 30
0.0
 11
-188.1886465811183
 21
-367.8018762567795
 31
0.0
  0
LINE
  5
35F
330
1F
100
AcDbEntity
  8
D-4_寸法
  6
Continuous
 62
     7
370
     9
100
AcDbLine
 10
-149.1886465811183
 20
-399.3015329340255
 30
0.0
 11
-151.1465475820949
 21
-414.1731988886154
 31
0.0
  0
LINE
  5
360
330
1F
100
AcDbEntity
  8
D-4_寸法
  6
Continuous
 62
     7
370
     9
100
AcDbLine
 10
-149.1886465811183
 20
-399.3015329340255
 30
0.0
 11
-147.2307455801418
 21
-414.1731988886154
 31
0.0
  0
LINE
  5
361
330
1F
100
AcDbEntity
  8
D-4_寸法
  6
Continuous
 62
     7
370
     9
100
AcDbLine
 10
-147.3886282705714
 20
-399.3015329340255
 30
0.0
 11
-194.1886465811183
 21
-399.3015329340255
 31
0.0
  0
LINE
  5
362
330
1F
100
AcDbEntity
  8
D-4_寸法
  6
Continuous
 62
     7
370
     9
100
AcDbLine
 10
-149.1886465811183
 20
-549.3017732599533
 30
0.0
 11
-149.1886465811183
 21
-399.3015329340255
 31
0.0
  0
LINE
  5
363
330
1F
100
AcDbEntity
  8
D-4_寸法
  6
Continuous
 62
     7
370
     9
100
AcDbLine
 10
-206.1886465811183
 20
-367.8018762567795
 30
0.0
 11
-227.1885550283839
 21
-367.8018762567795
 31
0.0
  0
LINE
  5
364
330
1F
100
AcDbEntity
  8
D-4_寸法
  6
Continuous
 62
     7
370
     9
100
AcDbLine
 10
-222.6886923574855
 20
-489.3014986017502
 30
0.0
 11
-239.0603583120754
 21
-487.3436090448654
 31
0.0
  0
LINE
  5
365
330
1F
100
AcDbEntity
  8
D-4_寸法
  6
Continuous
 62
     7
370
     9
100
AcDbLine
 10
-222.6886923574855
 20
-489.3014986017502
 30
0.0
 11
-239.0603583120754
 21
-491.2593996027267
 31
0.0
  0
LINE
  5
366
330
1F
100
AcDbEntity
  8
D-4_寸法
  6
Continuous
 62
     7
370
     9
100
AcDbLine
 10
-222.6886923574855
 20
-489.3014986017502
 30
0.0
 11
-242.1886923574855
 21
-489.3014986017502
 31
0.0
  0
LINE
  5
367
330
1F
100
AcDbEntity
  8
D-4_寸法
  6
Continuous
 62
     7
370
     9
100
AcDbLine
 10
-210.6887839102199
 20
-489.3014986017502
 30
0.0
 11
-194.3171408438136
 21
-487.3436090448654
 31
0.0
  0
LINE
  5
368
330
1F
100
AcDbEntity
  8
D-4_寸法
  6
Continuous
 62
     7
370
     9
100
AcDbLine
 10
-210.6887839102199
 20
-489.3014986017502
 30
0.0
 11
-194.3171408438136
 21
-491.2593996027267
 31
0.0
  0
LINE
  5
369
330
1F
100
AcDbEntity
  8
D-4_寸法
  6
Continuous
 62
     7
370
     9
100
AcDbLine
 10
-210.6887839102199
 20
-489.3014986017502
 30
0.0
 11
-185.1887839102199
 21
-489.3014986017502
 31
0.0
  0
LINE
  5
36A
330
1F
100
AcDbEntity
  8
D-4_寸法
  6
Continuous
 62
     7
370
     9
100
AcDbLine
 10
-210.6887839102199
 20
-489.3014986017502
 30
0.0
 11
-222.6886923574855
 21
-489.3014986017502
 31
0.0
  0
LINE
  5
36B
330
1F
100
AcDbEntity
  8
D-0_通り芯
  6
Continuous
 62
     3
370
     9
100
AcDbLine
 10
-287.1885550283839
 20
-423.3015329340255
 30
0.0
 11
-527.188549306338
 21
-423.3015329340255
 31
0.0
  0
LINE
  5
36C
330
1F
100
AcDbEntity
  8
D-0_通り芯
  6
Continuous
 62
     3
370
     9
100
AcDbLine
 10
-227.1885550283839
 20
-423.3015329340255
 30
0.0
 11
-227.1885550283839
 21
-399.3015329340255
 31
0.0
  0
LINE
  5
36D
330
1F
100
AcDbEntity
  8
D-0_通り芯
  6
Continuous
 62
     3
370
     9
100
AcDbLine
 10
-206.1886465811183
 20
-399.3015329340255
 30
0.0
 11
-206.1886465811183
 21
-423.3015329340255
 31
0.0
  0
LINE
  5
36E
330
1F
100
AcDbEntity
  8
D-0_通り芯
  6
Continuous
 62
     3
370
     9
100
AcDbLine
 10
-287.1885550283839
 20
-525.3017732599533
 30
0.0
 11
-527.188549306338
 21
-525.3017732599533
 31
0.0
  0
LINE
  5
36F
330
1F
100
AcDbEntity
  8
D-0_通り芯
  6
Continuous
 62
     3
370
     9
100
AcDbLine
 10
-227.1885550283839
 20
-549.3017732599533
 30
0.0
 11
-227.1885550283839
 21
-525.3017732599533
 31
0.0
  0
LINE
  5
370
330
1F
100
AcDbEntity
  8
D-0_通り芯
  6
Continuous
 62
     3
370
     9
100
AcDbLine
 10
-206.1886465811183
 20
-525.3017732599533
 30
0.0
 11
-206.1886465811183
 21
-549.3017732599533
 31
0.0
  0
LINE
  5
371
330
1F
100
AcDbEntity
  8
D-0_通り芯
  6
Continuous
 62
     3
370
     9
100
AcDbLine
 10
-287.1885550283839
 20
-520.8017732599533
 30
0.0
 11
-527.188549306338
 21
-520.8017732599533
 31
0.0
  0
LINE
  5
372
330
1F
100
AcDbEntity
  8
D-0_通り芯
  6
Continuous
 62
     3
370
     9
100
AcDbLine
 10
-287.1885550283839
 20
-427.8015329340255
 30
0.0
 11
-527.188549306338
 21
-427.8015329340255
 31
0.0
  0
LINE
  5
373
330
1F
100
AcDbEntity
  8
D-0_通り芯
  6
Continuous
 62
     3
370
     9
100
AcDbLine
 10
-227.1885550283839
 20
-423.3015329340255
 30
0.0
 11
-222.6886923574855
 21
-427.8015329340255
 31
0.0
  0
LINE
  5
374
330
1F
100
AcDbEntity
  8
D-0_通り芯
  6
Continuous
 62
     3
370
     9
100
AcDbLine
 10
-210.6887839102199
 20
-427.8015329340255
 30
0.0
 11
-206.1886465811183
 21
-423.3015329340255
 31
0.0
  0
LINE
  5
375
330
1F
100
AcDbEntity
  8
D-0_通り芯
  6
Continuous
 62
     3
370
     9
100
AcDbLine
 10
-227.1885550283839
 20
-525.3017732599533
 30
0.0
 11
-222.6886923574855
 21
-520.8017732599533
 31
0.0
  0
LINE
  5
376
330
1F
100
AcDbEntity
  8
D-0_通り芯
  6
Continuous
 62
     3
370
     9
100
AcDbLine
 10
-210.6887839102199
 20
-520.8017732599533
 30
0.0
 11
-206.1886465811183
 21
-525.3017732599533
 31
0.0
  0
LINE
  5
377
330
1F
100
AcDbEntity
  8
D-0_通り芯
  6
Continuous
 62
     3
370
     9
100
AcDbLine
 10
-222.6886923574855
 20
-520.8017732599533
 30
0.0
 11
-222.6886923574855
 21
-427.8015329340255
 31
0.0
  0
LINE
  5
378
330
1F
100
AcDbEntity
  8
D-0_通り芯
  6
Continuous
 62
     3
370
     9
100
AcDbLine
 10
-210.6887839102199
 20
-427.8015329340255
 30
0.0
 11
-210.6887839102199
 21
-520.8017732599533
 31
0.0
  0
LINE
  5
379
330
1F
100
AcDbEntity
  8
D-0_通り芯
  6
Continuous
 62
     3
370
     9
100
AcDbLine
 10
-287.1885550283839
 20
-313.8016931513107
 30
0.0
 11
-527.188549306338
 21
-313.8016931513107
 31
0.0
  0
LINE
  5
37A
330
1F
100
AcDbEntity
  8
D-4_寸法
  6
Continuous
 62
     7
370
     9
100
AcDbLine
 10
-554.188549306338
 20
-313.8016931513107
 30
0.0
 11
-556.1464445852687
 21
-298.9300043085373
 31
0.0
  0
LINE
  5
37B
330
1F
100
AcDbEntity
  8
D-4_寸法
  6
Continuous
 62
     7
370
     9
100
AcDbLine
 10
-554.188549306338
 20
-313.8016931513107
 30
0.0
 11
-552.2306540274074
 21
-298.9300043085373
 31
0.0
  0
LINE
  5
37C
330
1F
100
AcDbEntity
  8
D-4_寸法
  6
Continuous
 62
     7
370
     9
100
AcDbLine
 10
-555.9885504507472
 20
-313.8016931513107
 30
0.0
 11
-539.188549306338
 21
-313.8016931513107
 31
0.0
  0
LINE
  5
37D
330
1F
100
AcDbEntity
  8
D-4_寸法
  6
Continuous
 62
     7
370
     9
100
AcDbLine
 10
-554.188549306338
 20
-313.8016931513107
 30
0.0
 11
-554.188549306338
 21
-295.8016931513107
 31
0.0
  0
LINE
  5
37E
330
1F
100
AcDbEntity
  8
D-4_寸法
  6
Continuous
 62
     7
370
     9
100
AcDbLine
 10
-554.188549306338
 20
-313.8016931513107
 30
0.0
 11
-554.188549306338
 21
-334.8018762567795
 31
0.0
  0
LINE
  5
37F
330
1F
100
AcDbEntity
  8
D-4_寸法
  6
Continuous
 62
     7
370
     9
100
AcDbLine
 10
-448.8891775869777
 20
-286.8016931513107
 30
0.0
 11
-463.7608549856593
 21
-284.8437921503341
 31
0.0
  0
LINE
  5
380
330
1F
100
AcDbEntity
  8
D-4_寸法
  6
Continuous
 62
     7
370
     9
100
AcDbLine
 10
-448.8891775869777
 20
-286.8016931513107
 30
0.0
 11
-463.7608549856593
 21
-288.7595712641037
 31
0.0
  0
LINE
  5
381
330
1F
100
AcDbEntity
  8
D-4_寸法
  6
Continuous
 62
     7
370
     9
100
AcDbLine
 10
-448.8891775869777
 20
-285.0016977289474
 30
0.0
 11
-448.8891775869777
 21
-301.8016931513107
 31
0.0
  0
LINE
  5
382
330
1F
100
AcDbEntity
  8
D-4_寸法
  6
Continuous
 62
     7
370
     9
100
AcDbLine
 10
-448.8891775869777
 20
-286.8016931513107
 30
0.0
 11
-466.8891775869777
 21
-286.8016931513107
 31
0.0
  0
LINE
  5
383
330
1F
100
AcDbEntity
  8
D-4_寸法
  6
Continuous
 62
     7
370
     9
100
AcDbLine
 10
-433.8891775869777
 20
-286.8016931513107
 30
0.0
 11
-419.0175116323878
 21
-284.8437921503341
 31
0.0
  0
LINE
  5
384
330
1F
100
AcDbEntity
  8
D-4_寸法
  6
Continuous
 62
     7
370
     9
100
AcDbLine
 10
-433.8891775869777
 20
-286.8016931513107
 30
0.0
 11
-419.0175116323878
 21
-288.7595712641037
 31
0.0
  0
LINE
  5
385
330
1F
100
AcDbEntity
  8
D-4_寸法
  6
Continuous
 62
     7
370
     9
100
AcDbLine
 10
-433.8891775869777
 20
-285.0016977289474
 30
0.0
 11
-433.8891775869777
 21
-301.8016931513107
 31
0.0
  0
LINE
  5
386
330
1F
100
AcDbEntity
  8
D-4_寸法
  6
Continuous
 62
     7
370
     9
100
AcDbLine
 10
-433.8891775869777
 20
-286.8016931513107
 30
0.0
 11
-415.8891775869777
 21
-286.8016931513107
 31
0.0
  0
LINE
  5
387
330
1F
100
AcDbEntity
  8
D-4_寸法
  6
Continuous
 62
     7
370
     9
100
AcDbLine
 10
-433.8891775869777
 20
-286.8016931513107
 30
0.0
 11
-448.8891775869777
 21
-286.8016931513107
 31
0.0
  0
LINE
  5
388
330
1F
100
AcDbEntity
  8
D-4_寸法
  6
Continuous
 62
     7
370
     9
100
AcDbLine
 10
-348.8703329824855
 20
-286.8016931513107
 30
0.0
 11
-363.7419989370753
 21
-284.8437921503341
 31
0.0
  0
LINE
  5
389
330
1F
100
AcDbEntity
  8
D-4_寸法
  6
Continuous
 62
     7
370
     9
100
AcDbLine
 10
-348.8703329824855
 20
-285.0016977289474
 30
0.0
 11
-348.8703329824855
 21
-301.8016931513107
 31
0.0
  0
LINE
  5
38A
330
1F
100
AcDbEntity
  8
D-4_寸法
  6
Continuous
 62
     7
370
     9
100
AcDbLine
 10
-348.8703329824855
 20
-286.8016931513107
 30
0.0
 11
-363.7419989370753
 21
-288.7595712641037
 31
0.0
  0
LINE
  5
38B
330
1F
100
AcDbEntity
  8
D-4_寸法
  6
Continuous
 62
     7
370
     9
100
AcDbLine
 10
-348.8703329824855
 20
-286.8016931513107
 30
0.0
 11
-366.8703329824855
 21
-286.8016931513107
 31
0.0
  0
LINE
  5
38C
330
1F
100
AcDbEntity
  8
D-4_寸法
  6
Continuous
 62
     7
370
     9
100
AcDbLine
 10
-324.8703329824855
 20
-286.8016931513107
 30
0.0
 11
-309.9986670278956
 21
-284.8437921503341
 31
0.0
  0
LINE
  5
38D
330
1F
100
AcDbEntity
  8
D-4_寸法
  6
Continuous
 62
     7
370
     9
100
AcDbLine
 10
-324.8703329824855
 20
-285.0016977289474
 30
0.0
 11
-324.8703329824855
 21
-301.8016931513107
 31
0.0
  0
LINE
  5
38E
330
1F
100
AcDbEntity
  8
D-4_寸法
  6
Continuous
 62
     7
370
     9
100
AcDbLine
 10
-324.8703329824855
 20
-286.8016931513107
 30
0.0
 11
-309.9986670278956
 21
-288.7595712641037
 31
0.0
  0
LINE
  5
38F
330
1F
100
AcDbEntity
  8
D-4_寸法
  6
Continuous
 62
     7
370
     9
100
AcDbLine
 10
-324.8703329824855
 20
-286.8016931513107
 30
0.0
 11
-306.8703329824855
 21
-286.8016931513107
 31
0.0
  0
LINE
  5
390
330
1F
100
AcDbEntity
  8
D-4_寸法
  6
Continuous
 62
     7
370
     9
100
AcDbLine
 10
-324.8703329824855
 20
-286.8016931513107
 30
0.0
 11
-348.8703329824855
 21
-286.8016931513107
 31
0.0
  0
LINE
  5
391
330
1F
100
AcDbEntity
  8
D-0_通り芯
  6
Continuous
 62
     3
370
     9
100
AcDbLine
 10
-523.6953661703517
 20
-399.3015329340255
 30
0.0
 11
-527.188549306338
 21
-399.3015329340255
 31
0.0
  0
LINE
  5
392
330
1F
100
AcDbEntity
  8
D-0_通り芯
  6
Continuous
 62
     3
370
     9
100
AcDbLine
 10
-454.0161307119777
 20
-399.3015329340255
 30
0.0
 11
-469.3557455801417
 21
-399.3015329340255
 31
0.0
  0
LINE
  5
393
330
1F
100
AcDbEntity
  8
D-0_通り芯
  6
Continuous
 62
     3
370
     9
100
AcDbLine
 10
-502.7073996328761
 20
-394.8018762567795
 30
0.0
 11
-499.7073996328761
 21
-399.3015329340255
 31
0.0
  0
LINE
  5
394
330
1F
100
AcDbEntity
  8
D-0_通り芯
  6
Continuous
 62
     3
370
     9
100
AcDbLine
 10
-523.6953661703517
 20
-399.3015329340255
 30
0.0
 11
-520.6953661703517
 21
-394.8018762567795
 31
0.0
  0
LINE
  5
395
330
1F
100
AcDbEntity
  8
D-0_通り芯
  6
Continuous
 62
     3
370
     9
100
AcDbLine
 10
-502.7073996328761
 20
-394.8018762567795
 30
0.0
 11
-520.6953661703517
 21
-394.8018762567795
 31
0.0
  0
LINE
  5
396
330
1F
100
AcDbEntity
  8
D-0_通り芯
  6
Continuous
 62
     3
370
     9
100
AcDbLine
 10
-484.367784764712
 20
-399.3015329340255
 30
0.0
 11
-499.7073996328761
 21
-399.3015329340255
 31
0.0
  0
LINE
  5
397
330
1F
100
AcDbEntity
  8
D-0_通り芯
  6
Continuous
 62
     3
370
     9
100
AcDbLine
 10
-484.367784764712
 20
-399.3015329340255
 30
0.0
 11
-481.367784764712
 21
-394.8018762567795
 31
0.0
  0
LINE
  5
398
330
1F
100
AcDbEntity
  8
D-0_通り芯
  6
Continuous
 62
     3
370
     9
100
AcDbLine
 10
-472.367784764712
 20
-394.8018762567795
 30
0.0
 11
-469.3557455801417
 21
-399.3015329340255
 31
0.0
  0
LINE
  5
399
330
1F
100
AcDbEntity
  8
D-0_通り芯
  6
Continuous
 62
     3
370
     9
100
AcDbLine
 10
-472.367784764712
 20
-394.8018762567795
 30
0.0
 11
-481.367784764712
 21
-394.8018762567795
 31
0.0
  0
LINE
  5
39A
330
1F
100
AcDbEntity
  8
D-0_通り芯
  6
Continuous
 62
     3
370
     9
100
AcDbLine
 10
-384.3369009756495
 20
-399.3015329340255
 30
0.0
 11
-399.6765158438136
 21
-399.3015329340255
 31
0.0
  0
LINE
  5
39B
330
1F
100
AcDbEntity
  8
D-0_通り芯
  6
Continuous
 62
     3
370
     9
100
AcDbLine
 10
-433.028169896548
 20
-394.8018762567795
 30
0.0
 11
-430.028169896548
 21
-399.3015329340255
 31
0.0
  0
LINE
  5
39C
330
1F
100
AcDbEntity
  8
D-0_通り芯
  6
Continuous
 62
     3
370
     9
100
AcDbLine
 10
-454.0161307119777
 20
-399.3015329340255
 30
0.0
 11
-451.0161307119777
 21
-394.8018762567795
 31
0.0
  0
LINE
  5
39D
330
1F
100
AcDbEntity
  8
D-0_通り芯
  6
Continuous
 62
     3
370
     9
100
AcDbLine
 10
-433.028169896548
 20
-394.8018762567795
 30
0.0
 11
-451.0161307119777
 21
-394.8018762567795
 31
0.0
  0
LINE
  5
39E
330
1F
100
AcDbEntity
  8
D-0_通り芯
  6
Continuous
 62
     3
370
     9
100
AcDbLine
 10
-414.6885435842921
 20
-399.3015329340255
 30
0.0
 11
-430.028169896548
 21
-399.3015329340255
 31
0.0
  0
LINE
  5
39F
330
1F
100
AcDbEntity
  8
D-0_通り芯
  6
Continuous
 62
     3
370
     9
100
AcDbLine
 10
-414.6885435842921
 20
-399.3015329340255
 30
0.0
 11
-411.6885550283839
 21
-394.8018762567795
 31
0.0
  0
LINE
  5
3A0
330
1F
100
AcDbEntity
  8
D-0_通り芯
  6
Continuous
 62
     3
370
     9
100
AcDbLine
 10
-402.6885550283839
 20
-394.8018762567795
 30
0.0
 11
-399.6765158438136
 21
-399.3015329340255
 31
0.0
  0
LINE
  5
3A1
330
1F
100
AcDbEntity
  8
D-0_通り芯
  6
Continuous
 62
     3
370
     9
100
AcDbLine
 10
-402.6885550283839
 20
-394.8018762567795
 30
0.0
 11
-411.6885550283839
 21
-394.8018762567795
 31
0.0
  0
LINE
  5
3A2
330
1F
100
AcDbEntity
  8
D-0_通り芯
  6
Continuous
 62
     3
370
     9
100
AcDbLine
 10
-314.6576712393214
 20
-399.3015329340255
 30
0.0
 11
-329.9972861074855
 21
-399.3015329340255
 31
0.0
  0
LINE
  5
3A3
330
1F
100
AcDbEntity
  8
D-0_通り芯
  6
Continuous
 62
     3
370
     9
100
AcDbLine
 10
-363.3489401602199
 20
-394.8018762567795
 30
0.0
 11
-360.3489401602199
 21
-399.3015329340255
 31
0.0
  0
LINE
  5
3A4
330
1F
100
AcDbEntity
  8
D-0_通り芯
  6
Continuous
 62
     3
370
     9
100
AcDbLine
 10
-384.3369009756495
 20
-399.3015329340255
 30
0.0
 11
-381.3369009756495
 21
-394.8018762567795
 31
0.0
  0
LINE
  5
3A5
330
1F
100
AcDbEntity
  8
D-0_通り芯
  6
Continuous
 62
     3
370
     9
100
AcDbLine
 10
-363.3489401602199
 20
-394.8018762567795
 30
0.0
 11
-381.3369009756495
 21
-394.8018762567795
 31
0.0
  0
LINE
  5
3A6
330
1F
100
AcDbEntity
  8
D-0_通り芯
  6
Continuous
 62
     3
370
     9
100
AcDbLine
 10
-345.0093252920558
 20
-399.3015329340255
 30
0.0
 11
-360.3489401602199
 21
-399.3015329340255
 31
0.0
  0
LINE
  5
3A7
330
1F
100
AcDbEntity
  8
D-0_通り芯
  6
Continuous
 62
     3
370
     9
100
AcDbLine
 10
-345.0093252920558
 20
-399.3015329340255
 30
0.0
 11
-342.0093252920558
 21
-394.8018762567795
 31
0.0
  0
LINE
  5
3A8
330
1F
100
AcDbEntity
  8
D-0_通り芯
  6
Continuous
 62
     3
370
     9
100
AcDbLine
 10
-333.0093252920558
 20
-394.8018762567795
 30
0.0
 11
-329.9972861074855
 21
-399.3015329340255
 31
0.0
  0
LINE
  5
3A9
330
1F
100
AcDbEntity
  8
D-0_通り芯
  6
Continuous
 62
     3
370
     9
100
AcDbLine
 10
-333.0093252920558
 20
-394.8018762567795
 30
0.0
 11
-342.0093252920558
 21
-394.8018762567795
 31
0.0
  0
LINE
  5
3AA
330
1F
100
AcDbEntity
  8
D-0_通り芯
  6
Continuous
 62
     3
370
     9
100
AcDbLine
 10
-293.6697104238917
 20
-394.8018762567795
 30
0.0
 11
-290.6697104238917
 21
-399.3015329340255
 31
0.0
  0
LINE
  5
3AB
330
1F
100
AcDbEntity
  8
D-0_通り芯
  6
Continuous
 62
     3
370
     9
100
AcDbLine
 10
-314.6576712393214
 20
-399.3015329340255
 30
0.0
 11
-311.6576712393214
 21
-394.8018762567795
 31
0.0
  0
LINE
  5
3AC
330
1F
100
AcDbEntity
  8
D-0_通り芯
  6
Continuous
 62
     3
370
     9
100
AcDbLine
 10
-293.6697104238917
 20
-394.8018762567795
 30
0.0
 11
-311.6576712393214
 21
-394.8018762567795
 31
0.0
  0
LINE
  5
3AD
330
1F
100
AcDbEntity
  8
D-0_通り芯
  6
Continuous
 62
     3
370
     9
100
AcDbLine
 10
-287.1885550283839
 20
-399.3015329340255
 30
0.0
 11
-290.6697104238917
 21
-399.3015329340255
 31
0.0
  0
LINE
  5
3AE
330
1F
100
AcDbEntity
  8
D-0_通り芯
  6
Continuous
 62
     3
370
     9
100
AcDbLine
 10
-454.0682471060206
 20
-334.8018762567795
 30
0.0
 11
-449.5742666983058
 21
-313.8016931513107
 31
0.0
  0
LINE
  5
3AF
330
1F
100
AcDbEntity
  8
D-0_通り芯
  6
Continuous
 62
     3
370
     9
100
AcDbLine
 10
-523.7474825643947
 20
-334.8018762567795
 30
0.0
 11
-519.2535021566798
 21
-313.8016931513107
 31
0.0
  0
LINE
  5
3B0
330
1F
100
AcDbEntity
  8
D-0_通り芯
  6
Continuous
 62
     3
370
     9
100
AcDbLine
 10
-504.2534964346339
 20
-313.8016931513107
 30
0.0
 11
-499.7595160269191
 21
-334.8018762567795
 31
0.0
  0
LINE
  5
3B1
330
1F
100
AcDbEntity
  8
D-0_通り芯
  6
Continuous
 62
     3
370
     9
100
AcDbLine
 10
-484.419901158755
 20
-334.8018762567795
 30
0.0
 11
-488.9138815664699
 21
-313.8016931513107
 31
0.0
  0
LINE
  5
3B2
330
1F
100
AcDbEntity
  8
D-0_通り芯
  6
Continuous
 62
     3
370
     9
100
AcDbLine
 10
-464.9138815664699
 20
-313.8016931513107
 30
0.0
 11
-469.4078734182765
 21
-334.8018762567795
 31
0.0
  0
LINE
  5
3B3
330
1F
100
AcDbEntity
  8
D-0_通り芯
  6
Continuous
 62
     3
370
     9
100
AcDbLine
 10
-520.7474825643947
 20
-334.8018762567795
 30
0.0
 11
-516.2535021566798
 21
-313.8016931513107
 31
0.0
  0
LINE
  5
3B4
330
1F
100
AcDbEntity
  8
D-0_通り芯
  6
Continuous
 62
     3
370
     9
100
AcDbLine
 10
-507.2534964346339
 20
-313.8016931513107
 30
0.0
 11
-502.7595160269191
 21
-334.8018762567795
 31
0.0
  0
LINE
  5
3B5
330
1F
100
AcDbEntity
  8
D-0_通り芯
  6
Continuous
 62
     3
370
     9
100
AcDbLine
 10
-467.9259207510402
 20
-313.8016931513107
 30
0.0
 11
-472.419901158755
 21
-334.8018762567795
 31
0.0
  0
LINE
  5
3B6
330
1F
100
AcDbEntity
  8
D-0_通り芯
  6
Continuous
 62
     3
370
     9
100
AcDbLine
 10
-481.419901158755
 20
-334.8018762567795
 30
0.0
 11
-485.9138815664699
 21
-313.8016931513107
 31
0.0
  0
LINE
  5
3B7
330
1F
100
AcDbEntity
  8
D-0_通り芯
  6
Continuous
 62
     3
370
     9
100
AcDbLine
 10
-451.0682471060206
 20
-334.8018762567795
 30
0.0
 11
-446.5742666983058
 21
-313.8016931513107
 31
0.0
  0
LINE
  5
3B8
330
1F
100
AcDbEntity
  8
D-0_通り芯
  6
Continuous
 62
     3
370
     9
100
AcDbLine
 10
-384.3890173696925
 20
-334.8018762567795
 30
0.0
 11
-379.8950369619777
 21
-313.8016931513107
 31
0.0
  0
LINE
  5
3B9
330
1F
100
AcDbEntity
  8
D-0_通り芯
  6
Continuous
 62
     3
370
     9
100
AcDbLine
 10
-434.5742666983058
 20
-313.8016931513107
 30
0.0
 11
-430.0802862905909
 21
-334.8018762567795
 31
0.0
  0
LINE
  5
3BA
330
1F
100
AcDbEntity
  8
D-0_通り芯
  6
Continuous
 62
     3
370
     9
100
AcDbLine
 10
-414.7406714224269
 20
-334.8018762567795
 30
0.0
 11
-419.2346518301417
 21
-313.8016931513107
 31
0.0
  0
LINE
  5
3BB
330
1F
100
AcDbEntity
  8
D-0_通り芯
  6
Continuous
 62
     3
370
     9
100
AcDbLine
 10
-395.2346518301417
 20
-313.8016931513107
 30
0.0
 11
-399.7286322378566
 21
-334.8018762567795
 31
0.0
  0
LINE
  5
3BC
330
1F
100
AcDbEntity
  8
D-0_通り芯
  6
Continuous
 62
     3
370
     9
100
AcDbLine
 10
-437.5742666983058
 20
-313.8016931513107
 30
0.0
 11
-433.0802862905909
 21
-334.8018762567795
 31
0.0
  0
LINE
  5
3BD
330
1F
100
AcDbEntity
  8
D-0_通り芯
  6
Continuous
 62
     3
370
     9
100
AcDbLine
 10
-398.246691014712
 20
-313.8016931513107
 30
0.0
 11
-402.7406714224269
 21
-334.8018762567795
 31
0.0
  0
LINE
  5
3BE
330
1F
100
AcDbEntity
  8
D-0_通り芯
  6
Continuous
 62
     3
370
     9
100
AcDbLine
 10
-411.7406714224269
 20
-334.8018762567795
 30
0.0
 11
-416.2346518301417
 21
-313.8016931513107
 31
0.0
  0
LINE
  5
3BF
330
1F
100
AcDbEntity
  8
D-0_通り芯
  6
Continuous
 62
     3
370
     9
100
AcDbLine
 10
-381.3890173696925
 20
-334.8018762567795
 30
0.0
 11
-376.8950369619777
 21
-313.8016931513107
 31
0.0
  0
LINE
  5
3C0
330
1F
100
AcDbEntity
  8
D-0_通り芯
  6
Continuous
 62
     3
370
     9
100
AcDbLine
 10
-314.7097876333644
 20
-334.8018762567795
 30
0.0
 11
-310.2158072256495
 21
-313.8016931513107
 31
0.0
  0
LINE
  5
3C1
330
1F
100
AcDbEntity
  8
D-0_通り芯
  6
Continuous
 62
     3
370
     9
100
AcDbLine
 10
-364.8950369619777
 20
-313.8016931513107
 30
0.0
 11
-360.4010565542628
 21
-334.8018762567795
 31
0.0
  0
LINE
  5
3C2
330
1F
100
AcDbEntity
  8
D-0_通り芯
  6
Continuous
 62
     3
370
     9
100
AcDbLine
 10
-345.0614416860988
 20
-334.8018762567795
 30
0.0
 11
-349.5554220938136
 21
-313.8016931513107
 31
0.0
  0
LINE
  5
3C3
330
1F
100
AcDbEntity
  8
D-0_通り芯
  6
Continuous
 62
     3
370
     9
100
AcDbLine
 10
-325.5554220938136
 20
-313.8016931513107
 30
0.0
 11
-330.0494025015284
 21
-334.8018762567795
 31
0.0
  0
LINE
  5
3C4
330
1F
100
AcDbEntity
  8
D-0_通り芯
  6
Continuous
 62
     3
370
     9
100
AcDbLine
 10
-367.8950369619777
 20
-313.8016931513107
 30
0.0
 11
-363.4010565542628
 21
-334.8018762567795
 31
0.0
  0
LINE
  5
3C5
330
1F
100
AcDbEntity
  8
D-0_通り芯
  6
Continuous
 62
     3
370
     9
100
AcDbLine
 10
-328.5674612783839
 20
-313.8016931513107
 30
0.0
 11
-333.0614416860988
 21
-334.8018762567795
 31
0.0
  0
LINE
  5
3C6
330
1F
100
AcDbEntity
  8
D-0_通り芯
  6
Continuous
 62
     3
370
     9
100
AcDbLine
 10
-342.0614416860988
 20
-334.8018762567795
 30
0.0
 11
-346.5554220938136
 21
-313.8016931513107
 31
0.0
  0
LINE
  5
3C7
330
1F
100
AcDbEntity
  8
D-0_通り芯
  6
Continuous
 62
     3
370
     9
100
AcDbLine
 10
-311.7097876333644
 20
-334.8018762567795
 30
0.0
 11
-307.2158072256495
 21
-313.8016931513107
 31
0.0
  0
LINE
  5
3C8
330
1F
100
AcDbEntity
  8
D-0_通り芯
  6
Continuous
 62
     3
370
     9
100
AcDbLine
 10
-295.2158072256495
 20
-313.8016931513107
 30
0.0
 11
-290.7218268179347
 21
-334.8018762567795
 31
0.0
  0
LINE
  5
3C9
330
1F
100
AcDbEntity
  8
D-0_通り芯
  6
Continuous
 62
     3
370
     9
100
AcDbLine
 10
-298.2158072256495
 20
-313.8016931513107
 30
0.0
 11
-293.7218268179347
 21
-334.8018762567795
 31
0.0
  0
LINE
  5
3CA
330
1F
100
AcDbEntity
  8
D-0_通り芯
  6
Continuous
 62
     3
370
     9
100
AcDbLine
 10
-455.7118475698878
 20
-334.8018762567795
 30
0.0
 11
-453.620771672671
 21
-332.7108118036545
 31
0.0
  0
LINE
  5
3CB
330
1F
100
AcDbEntity
  8
D-0_通り芯
  6
Continuous
 62
     3
370
     9
100
AcDbLine
 10
-459.9544813894679
 20
-334.8018762567795
 30
0.0
 11
-452.4656622671534
 21
-327.3130685785568
 31
0.0
  0
LINE
  5
3CC
330
1F
100
AcDbEntity
  8
D-0_通り芯
  6
Continuous
 62
     3
370
     9
100
AcDbLine
 10
-464.1971266531398
 20
-334.8018762567795
 30
0.0
 11
-451.3105643057277
 21
-321.9153253534591
 31
0.0
  0
LINE
  5
3CD
330
1F
100
AcDbEntity
  8
D-0_通り芯
  6
Continuous
 62
     3
370
     9
100
AcDbLine
 10
-468.4397719168117
 20
-334.8018762567795
 30
0.0
 11
-450.1554663443019
 21
-316.5175821283615
 31
0.0
  0
LINE
  5
3CE
330
1F
100
AcDbEntity
  8
D-0_通り芯
  6
Continuous
 62
     3
370
     9
100
AcDbLine
 10
-468.5163443350245
 20
-330.6358148554123
 30
0.0
 11
-451.6822111868312
 21
-313.8016931513107
 31
0.0
  0
LINE
  5
3CF
330
1F
100
AcDbEntity
  8
D-0_通り芯
  6
Continuous
 62
     3
370
     9
100
AcDbLine
 10
-467.3612463735988
 20
-325.2380716303146
 30
0.0
 11
-455.9248450064113
 21
-313.8016931513107
 31
0.0
  0
LINE
  5
3D0
330
1F
100
AcDbEntity
  8
D-0_通り芯
  6
Continuous
 62
     3
370
     9
100
AcDbLine
 10
-466.2061369680812
 20
-319.840328405217
 30
0.0
 11
-460.1674902700831
 21
-313.8016931513107
 31
0.0
  0
LINE
  5
3D1
330
1F
100
AcDbEntity
  8
D-0_通り芯
  6
Continuous
 62
     3
370
     9
100
AcDbLine
 10
-485.4103300833156
 20
-334.8018762567795
 30
0.0
 11
-484.5944922232081
 21
-333.9860498407638
 31
0.0
  0
LINE
  5
3D2
330
1F
100
AcDbEntity
  8
D-0_通り芯
  6
Continuous
 62
     3
370
     9
100
AcDbLine
 10
-465.0510390066554
 20
-314.4425851801193
 30
0.0
 11
-464.410135533755
 21
-313.8016931513107
 31
0.0
  0
LINE
  5
3D3
330
1F
100
AcDbEntity
  8
D-0_通り芯
  6
Continuous
 62
     3
370
     9
100
AcDbLine
 10
-489.6529753469874
 20
-334.8018762567795
 30
0.0
 11
-485.3423636221339
 21
-330.4912759760177
 31
0.0
  0
LINE
  5
3D4
330
1F
100
AcDbEntity
  8
D-0_通り芯
  6
Continuous
 62
     3
370
     9
100
AcDbLine
 10
-493.8956091665675
 20
-334.8018762567795
 30
0.0
 11
-486.0902350210597
 21
-326.9965021112716
 31
0.0
  0
LINE
  5
3D5
330
1F
100
AcDbEntity
  8
D-0_通り芯
  6
Continuous
 62
     3
370
     9
100
AcDbLine
 10
-498.1382544302394
 20
-334.8018762567795
 30
0.0
 11
-486.8381064199855
 21
-323.5017282465255
 31
0.0
  0
LINE
  5
3D6
330
1F
100
AcDbEntity
  8
D-0_通り芯
  6
Continuous
 62
     3
370
     9
100
AcDbLine
 10
-500.2216055654933
 20
-332.6426050165451
 30
0.0
 11
-487.5859778189113
 21
-320.006977269963
 31
0.0
  0
LINE
  5
3D7
330
1F
100
AcDbEntity
  8
D-0_通り芯
  6
Continuous
 62
     3
370
     9
100
AcDbLine
 10
-500.9694769644191
 20
-329.147831151799
 30
0.0
 11
-488.333849217837
 21
-316.512203405217
 31
0.0
  0
LINE
  5
3D8
330
1F
100
AcDbEntity
  8
D-0_通り芯
  6
Continuous
 62
     3
370
     9
100
AcDbLine
 10
-501.7173483633449
 20
-325.6530572870529
 30
0.0
 11
-489.8659727835109
 21
-313.8016931513107
 31
0.0
  0
LINE
  5
3D9
330
1F
100
AcDbEntity
  8
D-0_通り芯
  6
Continuous
 62
     3
370
     9
100
AcDbLine
 10
-502.4652083181788
 20
-322.1582834223068
 30
0.0
 11
-494.1086180471827
 21
-313.8016931513107
 31
0.0
  0
LINE
  5
3DA
330
1F
100
AcDbEntity
  8
D-0_通り芯
  6
Continuous
 62
     3
370
     9
100
AcDbLine
 10
-503.2130797171046
 20
-318.6635095575607
 30
0.0
 11
-498.3512518667628
 21
-313.8016931513107
 31
0.0
  0
LINE
  5
3DB
330
1F
100
AcDbEntity
  8
D-0_通り芯
  6
Continuous
 62
     3
370
     9
100
AcDbLine
 10
-503.9609511160304
 20
-315.1687356928146
 30
0.0
 11
-502.5938971304347
 21
-313.8016931513107
 31
0.0
  0
LINE
  5
3DC
330
1F
100
AcDbEntity
  8
D-0_通り芯
  6
Continuous
 62
     3
370
     9
100
AcDbLine
 10
-390.2752630972316
 20
-334.8018762567795
 30
0.0
 11
-382.7864325308253
 21
-327.3130685785568
 31
0.0
  0
LINE
  5
3DD
330
1F
100
AcDbEntity
  8
D-0_通り芯
  6
Continuous
 62
     3
370
     9
100
AcDbLine
 10
-394.5178854727199
 20
-334.8018762567795
 30
0.0
 11
-381.6313345693995
 21
-321.9153253534591
 31
0.0
  0
LINE
  5
3DE
330
1F
100
AcDbEntity
  8
D-0_通り芯
  6
Continuous
 62
     3
370
     9
100
AcDbLine
 10
-398.7605307363917
 20
-334.8018762567795
 30
0.0
 11
-380.4762366079738
 21
-316.5175821283615
 31
0.0
  0
LINE
  5
3DF
330
1F
100
AcDbEntity
  8
D-0_通り芯
  6
Continuous
 62
     3
370
     9
100
AcDbLine
 10
-398.8371145986964
 20
-330.6358148554123
 30
0.0
 11
-382.0029700064113
 21
-313.8016931513107
 31
0.0
  0
LINE
  5
3E0
330
1F
100
AcDbEntity
  8
D-0_通り芯
  6
Continuous
 62
     3
370
     9
100
AcDbLine
 10
-397.6820166372706
 20
-325.2380716303146
 30
0.0
 11
-386.2456152700831
 21
-313.8016931513107
 31
0.0
  0
LINE
  5
3E1
330
1F
100
AcDbEntity
  8
D-0_通り芯
  6
Continuous
 62
     3
370
     9
100
AcDbLine
 10
-396.5268957876613
 20
-319.840328405217
 30
0.0
 11
-390.488260533755
 21
-313.8016931513107
 31
0.0
  0
LINE
  5
3E2
330
1F
100
AcDbEntity
  8
D-0_通り芯
  6
Continuous
 62
     3
370
     9
100
AcDbLine
 10
-415.7311003469874
 20
-334.8018762567795
 30
0.0
 11
-414.91526248688
 21
-333.9860498407638
 31
0.0
  0
LINE
  5
3E3
330
1F
100
AcDbEntity
  8
D-0_通り芯
  6
Continuous
 62
     3
370
     9
100
AcDbLine
 10
-395.3717978262355
 20
-314.4425851801193
 30
0.0
 11
-394.7309057974269
 21
-313.8016931513107
 31
0.0
  0
LINE
  5
3E4
330
1F
100
AcDbEntity
  8
D-0_通り芯
  6
Continuous
 62
     3
370
     9
100
AcDbLine
 10
-419.9737341665675
 20
-334.8018762567795
 30
0.0
 11
-415.6631338858058
 21
-330.4912759760177
 31
0.0
  0
LINE
  5
3E5
330
1F
100
AcDbEntity
  8
D-0_通り芯
  6
Continuous
 62
     3
370
     9
100
AcDbLine
 10
-424.2163794302394
 20
-334.8018762567795
 30
0.0
 11
-416.4109938406398
 21
-326.9965021112716
 31
0.0
  0
LINE
  5
3E6
330
1F
100
AcDbEntity
  8
D-0_通り芯
  6
Continuous
 62
     3
370
     9
100
AcDbLine
 10
-428.4590132498195
 20
-334.8018762567795
 30
0.0
 11
-417.1588652395656
 21
-323.5017282465255
 31
0.0
  0
LINE
  5
3E7
330
1F
100
AcDbEntity
  8
D-0_通り芯
  6
Continuous
 62
     3
370
     9
100
AcDbLine
 10
-430.5423643850734
 20
-332.6426050165451
 30
0.0
 11
-417.9067366384913
 21
-320.006977269963
 31
0.0
  0
LINE
  5
3E8
330
1F
100
AcDbEntity
  8
D-0_通り芯
  6
Continuous
 62
     3
370
     9
100
AcDbLine
 10
-431.2902357839992
 20
-329.147831151799
 30
0.0
 11
-418.6546080374171
 21
-316.512203405217
 31
0.0
  0
LINE
  5
3E9
330
1F
100
AcDbEntity
  8
D-0_通り芯
  6
Continuous
 62
     3
370
     9
100
AcDbLine
 10
-432.0381071829249
 20
-325.6530572870529
 30
0.0
 11
-420.1867430471827
 21
-313.8016931513107
 31
0.0
  0
LINE
  5
3EA
330
1F
100
AcDbEntity
  8
D-0_通り芯
  6
Continuous
 62
     3
370
     9
100
AcDbLine
 10
-432.7859785818507
 20
-322.1582834223068
 30
0.0
 11
-424.4293883108546
 21
-313.8016931513107
 31
0.0
  0
LINE
  5
3EB
330
1F
100
AcDbEntity
  8
D-0_通り芯
  6
Continuous
 62
     3
370
     9
100
AcDbLine
 10
-433.5338499807765
 20
-318.6635095575607
 30
0.0
 11
-428.6720221304347
 21
-313.8016931513107
 31
0.0
  0
LINE
  5
3EC
330
1F
100
AcDbEntity
  8
D-0_通り芯
  6
Continuous
 62
     3
370
     9
100
AcDbLine
 10
-434.2817213797023
 20
-315.1687356928146
 30
0.0
 11
-432.9146673941066
 21
-313.8016931513107
 31
0.0
  0
LINE
  5
3ED
330
1F
100
AcDbEntity
  8
D-0_通り芯
  6
Continuous
 62
     3
370
     9
100
AcDbLine
 10
-320.5960104727199
 20
-334.8018762567795
 30
0.0
 11
-313.1072027944972
 21
-327.3130685785568
 31
0.0
  0
LINE
  5
3EE
330
1F
100
AcDbEntity
  8
D-0_通り芯
  6
Continuous
 62
     3
370
     9
100
AcDbLine
 10
-324.8386557363917
 20
-334.8018762567795
 30
0.0
 11
-311.9521048330714
 21
-321.9153253534591
 31
0.0
  0
LINE
  5
3EF
330
1F
100
AcDbEntity
  8
D-0_通り芯
  6
Continuous
 62
     3
370
     9
100
AcDbLine
 10
-329.0813010000636
 20
-334.8018762567795
 30
0.0
 11
-310.7970068716456
 21
-316.5175821283615
 31
0.0
  0
LINE
  5
3F0
330
1F
100
AcDbEntity
  8
D-0_通り芯
  6
Continuous
 62
     3
370
     9
100
AcDbLine
 10
-329.1578848623683
 20
-330.6358148554123
 30
0.0
 11
-312.3237402700831
 21
-313.8016931513107
 31
0.0
  0
LINE
  5
3F1
330
1F
100
AcDbEntity
  8
D-0_通り芯
  6
Continuous
 62
     3
370
     9
100
AcDbLine
 10
-328.0027869009425
 20
-325.2380716303146
 30
0.0
 11
-316.566385533755
 21
-313.8016931513107
 31
0.0
  0
LINE
  5
3F2
330
1F
100
AcDbEntity
  8
D-0_通り芯
  6
Continuous
 62
     3
370
     9
100
AcDbLine
 10
-326.8476660513331
 20
-319.840328405217
 30
0.0
 11
-320.8090307974269
 21
-313.8016931513107
 31
0.0
  0
LINE
  5
3F3
330
1F
100
AcDbEntity
  8
D-0_通り芯
  6
Continuous
 62
     3
370
     9
100
AcDbLine
 10
-346.0518591665675
 20
-334.8018762567795
 30
0.0
 11
-345.2360327505519
 21
-333.9860498407638
 31
0.0
  0
LINE
  5
3F4
330
1F
100
AcDbEntity
  8
D-0_通り芯
  6
Continuous
 62
     3
370
     9
100
AcDbLine
 10
-325.6925680899074
 20
-314.4425851801193
 30
0.0
 11
-325.0516760610988
 21
-313.8016931513107
 31
0.0
  0
LINE
  5
3F5
330
1F
100
AcDbEntity
  8
D-0_通り芯
  6
Continuous
 62
     3
370
     9
100
AcDbLine
 10
-350.2945044302394
 20
-334.8018762567795
 30
0.0
 11
-345.9839041494777
 21
-330.4912759760177
 31
0.0
  0
LINE
  5
3F6
330
1F
100
AcDbEntity
  8
D-0_通り芯
  6
Continuous
 62
     3
370
     9
100
AcDbLine
 10
-354.5371496939113
 20
-334.8018762567795
 30
0.0
 11
-346.7317755484034
 21
-326.9965021112716
 31
0.0
  0
LINE
  5
3F7
330
1F
100
AcDbEntity
  8
D-0_通り芯
  6
Continuous
 62
     3
370
     9
100
AcDbLine
 10
-358.7797949575831
 20
-334.8018762567795
 30
0.0
 11
-347.4796469473292
 21
-323.5017282465255
 31
0.0
  0
LINE
  5
3F8
330
1F
100
AcDbEntity
  8
D-0_通り芯
  6
Continuous
 62
     3
370
     9
100
AcDbLine
 10
-360.863146092837
 20
-332.6426050165451
 30
0.0
 11
-348.227518346255
 21
-320.006977269963
 31
0.0
  0
LINE
  5
3F9
330
1F
100
AcDbEntity
  8
D-0_通り芯
  6
Continuous
 62
     3
370
     9
100
AcDbLine
 10
-361.6110174917628
 20
-329.147831151799
 30
0.0
 11
-348.9753897451808
 21
-316.512203405217
 31
0.0
  0
LINE
  5
3FA
330
1F
100
AcDbEntity
  8
D-0_通り芯
  6
Continuous
 62
     3
370
     9
100
AcDbLine
 10
-362.3588888906886
 20
-325.6530572870529
 30
0.0
 11
-350.5075018667628
 21
-313.8016931513107
 31
0.0
  0
LINE
  5
3FB
330
1F
100
AcDbEntity
  8
D-0_通り芯
  6
Continuous
 62
     3
370
     9
100
AcDbLine
 10
-363.1067374014308
 20
-322.1582834223068
 30
0.0
 11
-354.7501471304347
 21
-313.8016931513107
 31
0.0
  0
LINE
  5
3FC
330
1F
100
AcDbEntity
  8
D-0_通り芯
  6
Continuous
 62
     3
370
     9
100
AcDbLine
 10
-363.8546088003566
 20
-318.6635095575607
 30
0.0
 11
-358.9927923941066
 21
-313.8016931513107
 31
0.0
  0
LINE
  5
3FD
330
1F
100
AcDbEntity
  8
D-0_通り芯
  6
Continuous
 62
     3
370
     9
100
AcDbLine
 10
-364.6024801992824
 20
-315.1687356928146
 30
0.0
 11
-363.2354376577784
 21
-313.8016931513107
 31
0.0
  0
LINE
  5
3FE
330
1F
100
AcDbEntity
  8
D-0_通り芯
  6
Continuous
 62
     3
370
     9
100
AcDbLine
 10
-294.1753790640284
 20
-318.6635095575607
 30
0.0
 11
-289.3135626577784
 21
-313.8016931513107
 31
0.0
  0
LINE
  5
3FF
330
1F
100
AcDbEntity
  8
D-0_通り芯
  6
Continuous
 62
     3
370
     9
100
AcDbLine
 10
-294.9232504629542
 20
-315.1687356928146
 30
0.0
 11
-293.5562079214503
 21
-313.8016931513107
 31
0.0
  0
LINE
  5
400
330
1F
100
AcDbEntity
  8
D-0_通り芯
  6
Continuous
 62
     3
370
     9
100
AcDbLine
 10
-386.0326178335597
 20
-334.8018762567795
 30
0.0
 11
-383.9415304922511
 21
-332.7108118036545
 31
0.0
  0
LINE
  5
401
330
1F
100
AcDbEntity
  8
D-0_通り芯
  6
Continuous
 62
     3
370
     9
100
AcDbLine
 10
-316.3533880972316
 20
-334.8018762567795
 30
0.0
 11
-314.262300755923
 21
-332.7108118036545
 31
0.0
  0
LINE
  5
402
330
1F
100
AcDbEntity
  8
D-0_通り芯
  6
Continuous
 62
     3
370
     9
100
AcDbLine
 10
-525.391077306216
 20
-334.8018762567795
 30
0.0
 11
-523.3000014089992
 21
-332.7108118036545
 31
0.0
  0
LINE
  5
403
330
1F
100
AcDbEntity
  8
D-0_通り芯
  6
Continuous
 62
     3
370
     9
100
AcDbLine
 10
-527.188549306338
 20
-315.3861505487716
 30
0.0
 11
-525.6040804647853
 21
-313.8016931513107
 31
0.0
  0
LINE
  5
404
330
1F
100
AcDbEntity
  8
D-0_通り芯
  6
Continuous
 62
     3
370
     9
100
AcDbLine
 10
-527.188549306338
 20
-332.3567087152755
 30
0.0
 11
-522.1448977255275
 21
-327.3130685785568
 31
0.0
  0
LINE
  5
405
330
1F
100
AcDbEntity
  8
D-0_通り芯
  6
Continuous
 62
     3
370
     9
100
AcDbLine
 10
-527.188549306338
 20
-328.1140863397873
 30
0.0
 11
-520.9897997641017
 21
-321.9153253534591
 31
0.0
  0
LINE
  5
406
330
1F
100
AcDbEntity
  8
D-0_通り芯
  6
Continuous
 62
     3
370
     9
100
AcDbLine
 10
-527.188549306338
 20
-323.8714410761154
 30
0.0
 11
-519.83469608063
 21
-316.5175821283615
 31
0.0
  0
LINE
  5
407
330
1F
100
AcDbEntity
  8
D-0_通り芯
  6
Continuous
 62
     3
370
     9
100
AcDbLine
 10
-527.188549306338
 20
-319.6287958124435
 30
0.0
 11
-521.3614409231593
 21
-313.8016931513107
 31
0.0
  0
LINE
  5
408
330
1F
100
AcDbEntity
  8
D-0_通り芯
  6
Continuous
 62
     3
370
     9
100
AcDbLine
 10
-293.4275076651027
 20
-322.1582834223068
 30
0.0
 11
-287.1885550283839
 21
-315.9193078974045
 31
0.0
  0
LINE
  5
409
330
1F
100
AcDbEntity
  8
D-0_通り芯
  6
Continuous
 62
     3
370
     9
100
AcDbLine
 10
-289.1005423330714
 20
-334.8018762567795
 30
0.0
 11
-287.1885550283839
 21
-332.889888952092
 31
0.0
  0
LINE
  5
40A
330
1F
100
AcDbEntity
  8
D-0_通り芯
  6
Continuous
 62
     3
370
     9
100
AcDbLine
 10
-291.1838934683253
 20
-332.6426050165451
 30
0.0
 11
-287.1885550283839
 21
-328.6472436884201
 31
0.0
  0
LINE
  5
40B
330
1F
100
AcDbEntity
  8
D-0_通り芯
  6
Continuous
 62
     3
370
     9
100
AcDbLine
 10
-291.9317648672511
 20
-329.147831151799
 30
0.0
 11
-287.1885550283839
 21
-324.4045984247482
 31
0.0
  0
LINE
  5
40C
330
1F
100
AcDbEntity
  8
D-0_通り芯
  6
Continuous
 62
     3
370
     9
100
AcDbLine
 10
-292.6796362661769
 20
-325.6530572870529
 30
0.0
 11
-287.1885550283839
 21
-320.1619531610763
 31
0.0
  0
LINE
  5
40D
330
1F
100
AcDbEntity
  8
D-4_寸法
  6
Continuous
 62
     7
370
     9
100
AcDbLine
 10
-337.5540716909816
 20
-369.8835336664474
 30
0.0
 11
-352.2219641470363
 21
-373.0224191644943
 31
0.0
  0
LINE
  5
40E
330
1F
100
AcDbEntity
  8
D-4_寸法
  6
Continuous
 62
     7
370
     9
100
AcDbLine
 10
-337.5540716909816
 20
-369.8835336664474
 30
0.0
 11
-323.4213507437159
 21
-364.856945226506
 31
0.0
  0
LINE
  5
40F
330
1F
100
AcDbEntity
  8
D-4_寸法
  6
Continuous
 62
     7
370
     9
100
AcDbLine
 10
-337.5540716909816
 20
-369.8835336664474
 30
0.0
 11
-322.6019308828761
 21
-368.686046789006
 31
0.0
  0
LINE
  5
410
330
1F
100
AcDbEntity
  8
D-4_寸法
  6
Continuous
 62
     7
370
     9
100
AcDbLine
 10
-352.2219641470363
 20
-373.0224191644943
 30
0.0
 11
-367.1740820669581
 21
-374.2199060419357
 31
0.0
  0
LINE
  5
411
330
1F
100
AcDbEntity
  8
D-4_寸法
  6
Continuous
 62
     7
370
     9
100
AcDbLine
 10
-352.2219641470363
 20
-373.0224191644943
 30
0.0
 11
-366.3546850943019
 21
-378.0490076044357
 31
0.0
  0
LINE
  5
412
330
1F
100
AcDbEntity
  8
D-4_寸法
  6
Continuous
 62
     7
370
     9
100
AcDbLine
 10
-337.1774008535792
 20
-371.643680761174
 30
0.0
 11
-342.5762884878566
 21
-346.4148828485763
 31
0.0
  0
LINE
  5
413
330
1F
100
AcDbEntity
  8
D-4_寸法
  6
Continuous
 62
     7
370
     9
100
AcDbLine
 10
-351.8452933096339
 20
-374.7825662592209
 30
0.0
 11
-357.9159033560206
 21
-346.4148828485763
 31
0.0
  0
LINE
  5
414
330
1F
100
AcDbEntity
  8
D-4_寸法
  6
Continuous
 62
     7
370
     9
100
AcDbLine
 10
-337.5540716909816
 20
-369.8835336664474
 30
0.0
 11
-319.9525778555324
 21
-366.1168710687912
 31
0.0
  0
LINE
  5
415
330
1F
100
AcDbEntity
  8
D-4_寸法
  6
Continuous
 62
     7
370
     9
100
AcDbLine
 10
-352.2219641470363
 20
-373.0224191644943
 30
0.0
 11
-369.8234579824855
 21
-376.7890817621505
 31
0.0
  0
TEXT
  5
416
330
1F
100
AcDbEntity
  8
D-0_通り芯
  6
Continuous
 62
     2
370
     9
100
AcDbText
 10
-596.1885986589839
 20
-637.8531365526474
 30
0.0
 40
18.288
  1
ＤＩ－５０　バー形状詳細　Ｓ＝１：２
 41
1.118055555555556
  7
ＭＳ ゴシック
100
AcDbText
  0
TEXT
  5
417
330
1F
100
AcDbEntity
  8
D-4_寸法
  6
Continuous
 62
     2
370
     9
100
AcDbText
 10
-156.1726374258449
 20
-487.0516475228629
 30
0.0
 40
18.288
  1
50
 50
90.00000250447829
 41
1.062500000000001
  7
ＭＳ ゴシック
100
AcDbText
  0
TEXT
  5
418
330
1F
100
AcDbEntity
  8
D-4_寸法
  6
Continuous
 62
     2
370
     9
100
AcDbText
 10
-222.6886008047511
 20
-360.8178854120529
 30
0.0
 40
18.288
  1
7
  7
ＭＳ ゴシック
100
AcDbText
  0
TEXT
  5
419
330
1F
100
AcDbEntity
  8
D-4_寸法
  6
Continuous
 62
     2
370
     9
100
AcDbText
 10
-206.1887381338527
 20
-482.3175077570236
 30
0.0
 40
18.288
  1
4
  7
ＭＳ ゴシック
100
AcDbText
  0
TEXT
  5
41A
330
1F
100
AcDbEntity
  8
D-4_寸法
  6
Continuous
 62
     2
370
     9
100
AcDbText
 10
-561.1725515951564
 20
-330.3017848519644
 30
0.0
 40
18.288
  1
7
 50
90.00000250447816
 41
1.000000000000001
  7
ＭＳ ゴシック
100
AcDbText
  0
TEXT
  5
41B
330
1F
100
AcDbEntity
  8
D-4_寸法
  6
Continuous
 62
     2
370
     9
100
AcDbText
 10
-447.3891775869777
 20
-279.8176794184005
 30
0.0
 40
18.288
  1
5
  7
ＭＳ ゴシック
100
AcDbText
  0
TEXT
  5
41C
330
1F
100
AcDbEntity
  8
D-4_寸法
  6
Continuous
 62
     2
370
     9
100
AcDbText
 10
-342.8703329824855
 20
-279.8176794184005
 30
0.0
 40
18.288
  1
8
  7
ＭＳ ゴシック
100
AcDbText
  0
TEXT
  5
41D
330
1F
100
AcDbEntity
  8
D-4_寸法
  6
Continuous
 62
     2
370
     9
100
AcDbText
 10
-352.2166483656597
 20
-365.8791571924579
 30
0.0
 40
18.288
  1
5
 50
12.07891975469552
 41
0.9999999999999972
  7
ＭＳ ゴシック
100
AcDbText
  0
LINE
  5
41E
330
1F
100
AcDbEntity
  8
A-4_寸法
  6
Continuous
 62
     7
370
     9
100
AcDbLine
 10
-310.9196952063507
 20
562.477358680714
 30
0.0
 11
-306.6146876841801
 21
576.8462881570654
 31
0.0
  0
LINE
  5
41F
330
1F
100
AcDbEntity
  8
A-4_寸法
  6
Continuous
 62
     7
370
     9
100
AcDbLine
 10
-310.9196952063507
 20
562.477358680714
 30
0.0
 11
-303.0424237087789
 21
575.242432714709
 31
0.0
  0
LINE
  5
420
330
1F
100
AcDbEntity
  8
A-4_寸法
  6
Continuous
 62
     7
370
     9
100
AcDbLine
 10
-225.8431290772334
 20
751.9710308196497
 30
0.0
 11
-310.9196952063507
 21
562.477358680714
 31
0.0
  0
LINE
  5
421
330
1F
100
AcDbEntity
  8
A-4_寸法
  6
Continuous
 62
     7
370
     9
100
AcDbLine
 10
-225.8431290772334
 20
751.9710308196497
 30
0.0
 11
10.50879138571008
 21
751.9710308196497
 31
0.0
  0
TEXT
  5
422
330
1F
100
AcDbEntity
  8
A-4_寸法
  6
Continuous
 62
     7
370
     9
100
AcDbText
 10
-222.6856576466456
 20
759.6848182308843
 30
0.0
 40
13.716
  1
クロスバー □８ ＠100
 41
1.158730158730158
  7
ＭＳ ゴシック
100
AcDbText
  0
LINE
  5
423
330
1F
100
AcDbEntity
  8
D-4_寸法
  6
Continuous
 62
     7
370
     9
100
AcDbLine
 10
-310.9276432949883
 20
606.9771838232393
 30
0.0
 11
-306.6226190684831
 21
621.3461352953964
 31
0.0
  0
LINE
  5
424
330
1F
100
AcDbEntity
  8
D-4_寸法
  6
Continuous
 62
     7
370
     9
100
AcDbLine
 10
-310.9276432949883
 20
606.9771838232393
 30
0.0
 11
-303.0503509126587
 21
619.7423028874427
 31
0.0
  0
LINE
  5
425
330
1F
100
AcDbEntity
  8
A-4_寸法
  6
Continuous
 62
     7
370
     9
100
AcDbLine
 10
-225.8479380324392
 20
796.477982229067
 30
0.0
 11
-310.9276432949883
 21
606.9771838232393
 31
0.0
  0
TEXT
  5
426
330
1F
100
AcDbEntity
  8
A-4_寸法
  6
Continuous
 62
     7
370
     9
100
AcDbText
 10
-226.6388934048085
 20
802.8165470093522
 30
0.0
 40
13.716
  1
エンドプレート ＦＢ4.5×44
 41
1.16025641025641
  7
ＭＳ ゴシック
100
AcDbText
  0
LINE
  5
427
330
1F
100
AcDbEntity
  8
A-4_寸法
  6
Continuous
 62
     7
370
     9
100
AcDbLine
 10
-225.8479380324392
 20
796.477982229067
 30
0.0
 11
49.79914771387445
 21
796.477982229067
 31
0.0
  0
LINE
  5
428
330
1F
100
AcDbEntity
  8
A-5_仕様文
  6
Continuous
 62
     7
370
     9
100
AcDbLine
 10
-185.9692189338728
 20
413.7100049011532
 30
0.0
 11
-227.7850395762926
 21
301.4674548392046
 31
0.0
  0
LINE
  5
429
330
1F
100
AcDbEntity
  8
D-5_仕様文
  6
Continuous
 62
     7
370
     9
100
AcDbLine
 10
-227.7850395762926
 20
301.4674548392046
 30
0.0
 11
-224.4279143584016
 21
316.0869524458736
 31
0.0
  0
LINE
  5
42A
330
1F
100
AcDbEntity
  8
D-5_仕様文
  6
Continuous
 62
     7
370
     9
100
AcDbLine
 10
-227.7850395762926
 20
301.4674548392046
 30
0.0
 11
-220.7585012158087
 21
314.7199172016733
 31
0.0
  0
TEXT
  5
42B
330
1F
100
AcDbEntity
  8
A-4_寸法
  6
Continuous
 62
     7
370
     9
100
AcDbText
 10
-799.8691147460819
 20
159.8453939565539
 30
0.0
 40
13.716
  1
脱着ピン φ１３
 50
0.00004328933212
 41
1.144444444444444
  7
ＭＳ ゴシック
100
AcDbText
  0
TEXT
  5
42C
330
1F
100
AcDbEntity
  8
F-5ﾚｲﾔ
  6
Continuous
 62
     3
370
     9
100
AcDbText
 10
284.9587749710842
 20
-331.1903032880177
 30
0.0
 40
22.86
  1
※適用荷重：Ｔ－１４，Ｔ－６
 41
1.092857142857143
  7
ＭＳ ゴシック
100
AcDbText
  0
ENDSEC
  0
SECTION
  2
OBJECTS
  0
DICTIONARY
  5
C
330
0
100
AcDbDictionary
281
     1
  3
ACAD_DETAILVIEWSTYLE
350
472
  3
ACAD_GROUP
350
D
  3
ACAD_LAYOUT
350
1A
  3
ACAD_MATERIAL
350
43
  3
ACAD_MLEADERSTYLE
350
6B
  3
ACAD_MLINESTYLE
350
17
  3
ACAD_PLOTSETTINGS
350
19
  3
ACAD_PLOTSTYLENAME
350
E
  3
ACAD_SCALELIST
350
47
  3
ACAD_SECTIONVIEWSTYLE
350
473
  3
ACAD_TABLESTYLE
350
69
  3
ACAD_VISUALSTYLE
350
2A
  3
ACDB_RECOMPOSE_DATA
350
46F
  3
AcDbVariableDictionary
350
42F
  0
DICTIONARY
  5
42D
330
8
100
AcDbDictionary
280
     1
281
     1
  3
ACAD_XREC_ROUNDTRIP
360
42E
  0
DICTIONARY
  5
472
102
{ACAD_REACTORS
330
C
102
}
330
C
100
AcDbDictionary
281
     1
  0
DICTIONARY
  5
D
102
{ACAD_REACTORS
330
C
102
}
330
C
100
AcDbDictionary
281
     1
  0
DICTIONARY
  5
1A
102
{ACAD_REACTORS
330
C
102
}
330
C
100
AcDbDictionary
281
     1
  3
Layout1
350
1E
  3
Layout2
350
26
  3
Model
350
22
  0
DICTIONARY
  5
43
102
{ACAD_REACTORS
330
C
102
}
330
C
100
AcDbDictionary
281
     1
  3
ByBlock
350
45
  3
ByLayer
350
44
  3
Global
350
46
  0
DICTIONARY
  5
6B
102
{ACAD_REACTORS
330
C
102
}
330
C
100
AcDbDictionary
281
     1
  3
Standard
350
6C
  0
DICTIONARY
  5
17
102
{ACAD_REACTORS
330
C
102
}
330
C
100
AcDbDictionary
281
     1
  3
Standard
350
18
  0
DICTIONARY
  5
19
102
{ACAD_REACTORS
330
C
102
}
330
C
100
AcDbDictionary
281
     1
  0
ACDBDICTIONARYWDFLT
  5
E
102
{ACAD_REACTORS
330
C
102
}
330
C
100
AcDbDictionary
281
     1
  3
Normal
350
F
100
AcDbDictionaryWithDefault
340
F
  0
DICTIONARY
  5
47
102
{ACAD_REACTORS
330
C
102
}
330
C
100
AcDbDictionary
281
     1
  3
A0
350
48
  3
A1
350
49
  3
A2
350
4A
  3
A3
350
4B
  3
A4
350
4C
  3
A5
350
4D
  3
A6
350
4E
  3
A7
350
4F
  3
A8
350
50
  3
A9
350
51
  3
B0
350
52
  3
B1
350
53
  3
B2
350
54
  3
B3
350
55
  3
B4
350
56
  3
B5
350
57
  3
B6
350
58
  3
B7
350
59
  3
B8
350
5A
  3
B9
350
5B
  3
C0
350
5C
  3
C1
350
5D
  3
C2
350
5E
  3
C3
350
5F
  3
C4
350
60
  3
C5
350
61
  3
C6
350
62
  3
C7
350
63
  3
C8
350
64
  3
C9
350
65
  3
D0
350
66
  3
D1
350
67
  3
D2
350
68
  0
DICTIONARY
  5
473
102
{ACAD_REACTORS
330
C
102
}
330
C
100
AcDbDictionary
281
     1
  0
DICTIONARY
  5
69
102
{ACAD_REACTORS
330
C
102
}
330
C
100
AcDbDictionary
281
     1
  3
Standard
350
6A
  0
DICTIONARY
  5
2A
102
{ACAD_REACTORS
330
C
102
}
330
C
100
AcDbDictionary
281
     1
  3
2dWireframe
350
2F
  3
Basic
350
32
  3
Brighten
350
36
  3
ColorChange
350
3A
  3
Conceptual
350
34
  3
Dim
350
35
  3
EdgeColorOff
350
3D
  3
Facepattern
350
39
  3
Flat
350
2B
  3
FlatWithEdges
350
2C
  3
Gouraud
350
2D
  3
GouraudWithEdges
350
2E
  3
Hidden
350
31
  3
JitterOff
350
3B
  3
Linepattern
350
38
  3
OverhangOff
350
3C
  3
Realistic
350
33
  3
Shaded
350
42
  3
Shaded with edges
350
41
  3
Shades of Gray
350
3E
  3
Sketchy
350
3F
  3
Thicken
350
37
  3
Wireframe
350
30
  3
X-Ray
350
40
  0
XRECORD
  5
46F
102
{ACAD_REACTORS
330
C
102
}
330
C
100
AcDbXrecord
280
     1
 90
        1
330
6A
  0
DICTIONARY
  5
42F
102
{ACAD_REACTORS
330
C
102
}
330
C
100
AcDbDictionary
281
     1
  3
CANNOSCALE
350
430
  3
CENTEREXE
350
474
  3
CENTERLTYPEFILE
350
475
  3
CMLEADERSTYLE
350
471
  3
CTABLESTYLE
350
470
  3
MSLTSCALE
350
431
  3
XCLIPFRAME
350
432
  0
XRECORD
  5
42E
102
{ACAD_REACTORS
330
42D
102
}
330
42D
100
AcDbXrecord
280
     1
102
VTR_0.000_0.000_1.000_1.000_VISUALSTYLE
340
2F
102
VTR_0.000_0.000_1.000_1.000_GRIDDISPLAY
 70
     3
102
VTR_0.000_0.000_1.000_1.000_GRIDMAJOR
 70
     5
102
VTR_0.000_0.000_1.000_1.000_DEFAULTLIGHTING
280
     1
102
VTR_0.000_0.000_1.000_1.000_DEFAULTLIGHTINGTYPE
 70
     1
102
VTR_0.000_0.000_1.000_1.000_BRIGHTNESS
141
0.0
102
VTR_0.000_0.000_1.000_1.000_CONTRAST
142
0.0
  0
LAYOUT
  5
1E
102
{ACAD_REACTORS
330
1A
102
}
330
1A
100
AcDbPlotSettings
  1

  2
none_device
  4

  6

 40
0.0
 41
0.0
 42
0.0
 43
0.0
 44
0.0
 45
0.0
 46
0.0
 47
0.0
 48
0.0
 49
0.0
140
0.0
141
0.0
142
1.0
143
1.0
 70
   688
 72
     1
 73
     0
 74
     5
  7

 75
    16
 76
     0
 77
     5
 78
   300
147
1.0
148
0.0
149
0.0
100
AcDbLayout
  1
Layout1
 70
     1
 71
     1
 10
0.0
 20
0.0
 11
420.0
 21
297.0
 12
0.0
 22
0.0
 32
0.0
 14
1.000000000000000E+20
 24
1.000000000000000E+20
 34
1.000000000000000E+20
 15
-1.000000000000000E+20
 25
-1.000000000000000E+20
 35
-1.000000000000000E+20
146
0.0
 13
0.0
 23
0.0
 33
0.0
 16
1.0
 26
0.0
 36
0.0
 17
0.0
 27
1.0
 37
0.0
 76
     0
330
1B
  0
LAYOUT
  5
26
102
{ACAD_REACTORS
330
1A
102
}
330
1A
100
AcDbPlotSettings
  1

  2
none_device
  4

  6

 40
0.0
 41
0.0
 42
0.0
 43
0.0
 44
0.0
 45
0.0
 46
0.0
 47
0.0
 48
0.0
 49
0.0
140
0.0
141
0.0
142
1.0
143
1.0
 70
   688
 72
     1
 73
     0
 74
     5
  7

 75
    16
 76
     0
 77
     5
 78
   300
147
1.0
148
0.0
149
0.0
100
AcDbLayout
  1
Layout2
 70
     1
 71
     2
 10
0.0
 20
0.0
 11
0.0
 21
0.0
 12
0.0
 22
0.0
 32
0.0
 14
0.0
 24
0.0
 34
0.0
 15
0.0
 25
0.0
 35
0.0
146
0.0
 13
0.0
 23
0.0
 33
0.0
 16
1.0
 26
0.0
 36
0.0
 17
0.0
 27
1.0
 37
0.0
 76
     0
330
23
  0
LAYOUT
  5
22
102
{ACAD_REACTORS
330
1A
102
}
330
1A
100
AcDbPlotSettings
  1

  2
none_device
  4
Letter_(8.50_x_11.00_Inches)
  6

 40
6.35
 41
6.35
 42
6.35000508
 43
6.35000508
 44
215.9
 45
279.4
 46
0.0
 47
0.0
 48
0.0
 49
0.0
140
0.0
141
0.0
142
1.0
143
1.0
 70
  1712
 72
     1
 73
     0
 74
     0
  7

 75
     0
 76
     0
 77
     5
 78
   300
147
1.0
148
0.0
149
0.0
100
AcDbLayout
  1
Model
 70
     1
 71
     0
 10
-1260.0
 20
-891.0
 11
1260.0
 21
891.0
 12
0.0
 22
0.0
 32
0.0
 14
-1260.0
 24
-891.0
 34
0.0
 15
1260.0
 25
891.0
 35
0.0
146
0.0
 13
0.0
 23
0.0
 33
0.0
 16
1.0
 26
0.0
 36
0.0
 17
0.0
 27
1.0
 37
0.0
 76
     0
330
1F
331
29
  0
MATERIAL
  5
45
102
{ACAD_REACTORS
330
43
102
}
102
{ACAD_XDICTIONARY
360
465
102
}
330
43
100
AcDbMaterial
  1
ByBlock
  0
MATERIAL
  5
44
102
{ACAD_REACTORS
330
43
102
}
102
{ACAD_XDICTIONARY
360
463
102
}
330
43
100
AcDbMaterial
  1
ByLayer
  0
MATERIAL
  5
46
102
{ACAD_REACTORS
330
43
102
}
102
{ACAD_XDICTIONARY
360
467
102
}
330
43
100
AcDbMaterial
  1
Global
  0
MLEADERSTYLE
  5
6C
102
{ACAD_REACTORS
330
6B
102
}
102
{ACAD_XDICTIONARY
360
46D
102
}
330
6B
100
AcDbMLeaderStyle
170
     2
171
     1
172
     0
 90
        2
 40
0.0
 41
0.0
173
     1
 91
-1056964608
340
14
 92
       -2
290
     1
 42
2.0
291
     1
 43
8.0
  3
Standard
341
0
 44
4.0
300

342
11
174
     1
178
     6
175
     1
176
     0
 93
-1056964608
 45
4.0
292
     0
297
     0
 46
4.0
343
0
 94
-1056964608
 47
1.0
 49
1.0
140
1.0
293
     1
141
0.0
294
     1
177
     0
142
1.0
295
     0
296
     0
143
3.75
1001
ACAD_MLEADERVER
1070
     2
  0
MLINESTYLE
  5
18
102
{ACAD_REACTORS
330
17
102
}
330
17
100
AcDbMlineStyle
  2
Standard
 70
     0
  3

 62
   256
 51
90.0
 52
90.0
 71
     2
 49
0.5
 62
   256
  6
BYLAYER
 49
-0.5
 62
   256
  6
BYLAYER
  0
ACDBPLACEHOLDER
  5
F
102
{ACAD_REACTORS
330
E
102
}
330
E
  0
SCALE
  5
48
102
{ACAD_REACTORS
330
47
102
}
330
47
100
AcDbScale
 70
     0
300
1:1
140
1.0
141
1.0
290
     1
  0
SCALE
  5
49
102
{ACAD_REACTORS
330
47
102
}
330
47
100
AcDbScale
 70
     0
300
1:2
140
1.0
141
2.0
290
     0
  0
SCALE
  5
4A
102
{ACAD_REACTORS
330
47
102
}
330
47
100
AcDbScale
 70
     0
300
1:4
140
1.0
141
4.0
290
     0
  0
SCALE
  5
4B
102
{ACAD_REACTORS
330
47
102
}
330
47
100
AcDbScale
 70
     0
300
1:5
140
1.0
141
5.0
290
     0
  0
SCALE
  5
4C
102
{ACAD_REACTORS
330
47
102
}
330
47
100
AcDbScale
 70
     0
300
1:8
140
1.0
141
8.0
290
     0
  0
SCALE
  5
4D
102
{ACAD_REACTORS
330
47
102
}
330
47
100
AcDbScale
 70
     0
300
1:10
140
1.0
141
10.0
290
     0
  0
SCALE
  5
4E
102
{ACAD_REACTORS
330
47
102
}
330
47
100
AcDbScale
 70
     0
300
1:16
140
1.0
141
16.0
290
     0
  0
SCALE
  5
4F
102
{ACAD_REACTORS
330
47
102
}
330
47
100
AcDbScale
 70
     0
300
1:20
140
1.0
141
20.0
290
     0
  0
SCALE
  5
50
102
{ACAD_REACTORS
330
47
102
}
330
47
100
AcDbScale
 70
     0
300
1:30
140
1.0
141
30.0
290
     0
  0
SCALE
  5
51
102
{ACAD_REACTORS
330
47
102
}
330
47
100
AcDbScale
 70
     0
300
1:40
140
1.0
141
40.0
290
     0
  0
SCALE
  5
52
102
{ACAD_REACTORS
330
47
102
}
330
47
100
AcDbScale
 70
     0
300
1:50
140
1.0
141
50.0
290
     0
  0
SCALE
  5
53
102
{ACAD_REACTORS
330
47
102
}
330
47
100
AcDbScale
 70
     0
300
1:100
140
1.0
141
100.0
290
     0
  0
SCALE
  5
54
102
{ACAD_REACTORS
330
47
102
}
330
47
100
AcDbScale
 70
     0
300
2:1
140
2.0
141
1.0
290
     0
  0
SCALE
  5
55
102
{ACAD_REACTORS
330
47
102
}
330
47
100
AcDbScale
 70
     0
300
4:1
140
4.0
141
1.0
290
     0
  0
SCALE
  5
56
102
{ACAD_REACTORS
330
47
102
}
330
47
100
AcDbScale
 70
     0
300
8:1
140
8.0
141
1.0
290
     0
  0
SCALE
  5
57
102
{ACAD_REACTORS
330
47
102
}
330
47
100
AcDbScale
 70
     0
300
10:1
140
10.0
141
1.0
290
     0
  0
SCALE
  5
58
102
{ACAD_REACTORS
330
47
102
}
330
47
100
AcDbScale
 70
     0
300
100:1
140
100.0
141
1.0
290
     0
  0
SCALE
  5
59
102
{ACAD_REACTORS
330
47
102
}
330
47
100
AcDbScale
 70
     0
300
1/128" = 1'-0"
140
0.0078125
141
12.0
290
     0
  0
SCALE
  5
5A
102
{ACAD_REACTORS
330
47
102
}
330
47
100
AcDbScale
 70
     0
300
1/64" = 1'-0"
140
0.015625
141
12.0
290
     0
  0
SCALE
  5
5B
102
{ACAD_REACTORS
330
47
102
}
330
47
100
AcDbScale
 70
     0
300
1/32" = 1'-0"
140
0.03125
141
12.0
290
     0
  0
SCALE
  5
5C
102
{ACAD_REACTORS
330
47
102
}
330
47
100
AcDbScale
 70
     0
300
1/16" = 1'-0"
140
0.0625
141
12.0
290
     0
  0
SCALE
  5
5D
102
{ACAD_REACTORS
330
47
102
}
330
47
100
AcDbScale
 70
     0
300
3/32" = 1'-0"
140
0.09375
141
12.0
290
     0
  0
SCALE
  5
5E
102
{ACAD_REACTORS
330
47
102
}
330
47
100
AcDbScale
 70
     0
300
1/8" = 1'-0"
140
0.125
141
12.0
290
     0
  0
SCALE
  5
5F
102
{ACAD_REACTORS
330
47
102
}
330
47
100
AcDbScale
 70
     0
300
3/16" = 1'-0"
140
0.1875
141
12.0
290
     0
  0
SCALE
  5
60
102
{ACAD_REACTORS
330
47
102
}
330
47
100
AcDbScale
 70
     0
300
1/4" = 1'-0"
140
0.25
141
12.0
290
     0
  0
SCALE
  5
61
102
{ACAD_REACTORS
330
47
102
}
330
47
100
AcDbScale
 70
     0
300
3/8" = 1'-0"
140
0.375
141
12.0
290
     0
  0
SCALE
  5
62
102
{ACAD_REACTORS
330
47
102
}
330
47
100
AcDbScale
 70
     0
300
1/2" = 1'-0"
140
0.5
141
12.0
290
     0
  0
SCALE
  5
63
102
{ACAD_REACTORS
330
47
102
}
330
47
100
AcDbScale
 70
     0
300
3/4" = 1'-0"
140
0.75
141
12.0
290
     0
  0
SCALE
  5
64
102
{ACAD_REACTORS
330
47
102
}
330
47
100
AcDbScale
 70
     0
300
1" = 1'-0"
140
1.0
141
12.0
290
     0
  0
SCALE
  5
65
102
{ACAD_REACTORS
330
47
102
}
330
47
100
AcDbScale
 70
     0
300
1-1/2" = 1'-0"
140
1.5
141
12.0
290
     0
  0
SCALE
  5
66
102
{ACAD_REACTORS
330
47
102
}
330
47
100
AcDbScale
 70
     0
300
3" = 1'-0"
140
3.0
141
12.0
290
     0
  0
SCALE
  5
67
102
{ACAD_REACTORS
330
47
102
}
330
47
100
AcDbScale
 70
     0
300
6" = 1'-0"
140
6.0
141
12.0
290
     0
  0
SCALE
  5
68
102
{ACAD_REACTORS
330
47
102
}
330
47
100
AcDbScale
 70
     0
300
1'-0" = 1'-0"
140
12.0
141
12.0
290
     0
  0
TABLESTYLE
  5
6A
102
{ACAD_REACTORS
330
69
102
}
102
{ACAD_XDICTIONARY
360
469
102
}
330
69
100
AcDbTableStyle
  3
Standard
 70
     0
 71
     0
 40
0.06
 41
0.06
280
     0
281
     0
  7
Standard
140
4.5
170
     2
 62
     0
 63
   257
283
     0
274
    -2
284
     1
 64
     0
275
    -2
285
     1
 65
     0
276
    -2
286
     1
 66
     0
277
    -2
287
     1
 67
     0
278
    -2
288
     1
 68
     0
279
    -2
289
     1
 69
     0
  7
Standard
140
6.0
170
     5
 62
     0
 63
   257
283
     0
274
    -2
284
     1
 64
     0
275
    -2
285
     1
 65
     0
276
    -2
286
     1
 66
     0
277
    -2
287
     1
 67
     0
278
    -2
288
     1
 68
     0
279
    -2
289
     1
 69
     0
  7
Standard
140
4.5
170
     5
 62
     0
 63
   257
283
     0
274
    -2
284
     1
 64
     0
275
    -2
285
     1
 65
     0
276
    -2
286
     1
 66
     0
277
    -2
287
     1
 67
     0
278
    -2
288
     1
 68
     0
279
    -2
289
     1
 69
     0
  0
VISUALSTYLE
  5
2F
102
{ACAD_REACTORS
330
2A
102
}
102
{ACAD_XDICTIONARY
360
43B
102
}
330
2A
100
AcDbVisualStyle
  2
2dWireframe
 70
     4
 71
     0
 72
     2
 73
     0
 90
        0
 40
0.6
 41
30.0
 62
     5
 63
     7
421
 16777215
 74
     1
 91
        4
 64
     7
 65
   257
 75
     1
175
     1
 42
1.0
 92
        0
 66
   257
 43
1.0
 76
     1
 77
     6
 78
     2
 67
     7
 79
     5
170
     0
171
     0
290
     0
174
     0
 93
        1
 44
0.0
173
     0
291
     0
 45
0.0
1001
ACAD
1000
AcDbSavedByObjectVersion
1070
     0
  0
VISUALSTYLE
  5
32
102
{ACAD_REACTORS
330
2A
102
}
102
{ACAD_XDICTIONARY
360
441
102
}
330
2A
100
AcDbVisualStyle
  2
Basic
 70
     7
 71
     1
 72
     0
 73
     1
 90
        0
 40
0.6
 41
30.0
 62
     5
 63
     7
421
 16777215
 74
     0
 91
        4
 64
     7
 65
   257
 75
     1
175
     1
 42
1.0
 92
        8
 66
     7
 43
1.0
 76
     1
 77
     6
 78
     2
 67
     7
 79
     5
170
     0
171
     0
290
     0
174
     0
 93
        1
 44
0.0
173
     0
291
     1
 45
0.0
1001
ACAD
1000
AcDbSavedByObjectVersion
1070
     0
  0
VISUALSTYLE
  5
36
102
{ACAD_REACTORS
330
2A
102
}
102
{ACAD_XDICTIONARY
360
449
102
}
330
2A
100
AcDbVisualStyle
  2
Brighten
 70
    12
 71
     2
 72
     2
 73
     0
 90
        0
 40
0.6
 41
30.0
 62
     5
 63
     7
421
 16777215
 74
     1
 91
        4
 64
     7
 65
   257
 75
     1
175
     1
 42
1.0
 92
        8
 66
     7
 43
1.0
 76
     1
 77
     6
 78
     2
 67
     7
 79
     5
170
     0
171
     0
290
     0
174
     0
 93
        1
 44
50.0
173
     0
291
     1
 45
0.0
1001
ACAD
1000
AcDbSavedByObjectVersion
1070
     0
  0
VISUALSTYLE
  5
3A
102
{ACAD_REACTORS
330
2A
102
}
102
{ACAD_XDICTIONARY
360
451
102
}
330
2A
100
AcDbVisualStyle
  2
ColorChange
 70
    16
 71
     2
 72
     2
 73
     3
 90
        0
 40
0.6
 41
30.0
 62
     5
 63
     8
421
  8421504
 74
     1
 91
        4
 64
     7
 65
   257
 75
     1
175
     1
 42
1.0
 92
        8
 66
     8
424
  8421504
 43
1.0
 76
     1
 77
     6
 78
     2
 67
     7
 79
     5
170
     0
171
     0
290
     0
174
     0
 93
        1
 44
0.0
173
     0
291
     1
 45
0.0
1001
ACAD
1000
AcDbSavedByObjectVersion
1070
     0
  0
VISUALSTYLE
  5
34
102
{ACAD_REACTORS
330
2A
102
}
102
{ACAD_XDICTIONARY
360
445
102
}
330
2A
100
AcDbVisualStyle
  2
Conceptual
 70
     9
 71
     3
 72
     2
 73
     0
 90
        0
 40
0.6
 41
30.0
 62
     5
 63
     7
421
 16777215
 74
     2
 91
        2
 64
     7
 65
   257
 75
     1
175
     1
 42
179.0
 92
        8
 66
     7
 43
1.0
 76
     1
 77
     6
 78
     2
 67
     7
 79
     3
170
     0
171
     0
290
     0
174
     0
 93
        1
 44
0.0
173
     0
291
     0
 45
0.0
1001
ACAD
1000
AcDbSavedByObjectVersion
1070
     0
  0
VISUALSTYLE
  5
35
102
{ACAD_REACTORS
330
2A
102
}
102
{ACAD_XDICTIONARY
360
447
102
}
330
2A
100
AcDbVisualStyle
  2
Dim
 70
    11
 71
     2
 72
     2
 73
     0
 90
        0
 40
0.6
 41
30.0
 62
     5
 63
     7
421
 16777215
 74
     1
 91
        4
 64
     7
 65
   257
 75
     1
175
     1
 42
1.0
 92
        8
 66
     7
 43
1.0
 76
     1
 77
     6
 78
     2
 67
     7
 79
     5
170
     0
171
     0
290
     0
174
     0
 93
        1
 44
-50.0
173
     0
291
     1
 45
0.0
1001
ACAD
1000
AcDbSavedByObjectVersion
1070
     0
  0
VISUALSTYLE
  5
3D
102
{ACAD_REACTORS
330
2A
102
}
102
{ACAD_XDICTIONARY
360
457
102
}
330
2A
100
AcDbVisualStyle
  2
EdgeColorOff
 70
    22
 71
     2
 72
     2
 73
     0
 90
        0
 40
0.6
 41
30.0
 62
     5
 63
     7
421
 16777215
 74
     1
 91
        4
 64
     7
 65
   257
 75
     1
175
     1
 42
1.0
 92
        8
 66
     7
 43
1.0
 76
     1
 77
     6
 78
     2
 67
     7
 79
     5
170
     0
171
     0
290
     0
174
     0
 93
        1
 44
0.0
173
     0
291
     1
 45
0.0
1001
ACAD
1000
AcDbSavedByObjectVersion
1070
     0
  0
VISUALSTYLE
  5
39
102
{ACAD_REACTORS
330
2A
102
}
102
{ACAD_XDICTIONARY
360
44F
102
}
330
2A
100
AcDbVisualStyle
  2
Facepattern
 70
    15
 71
     2
 72
     2
 73
     0
 90
        0
 40
0.6
 41
30.0
 62
     5
 63
     7
421
 16777215
 74
     1
 91
        4
 64
     7
 65
   257
 75
     1
175
     1
 42
1.0
 92
        8
 66
     7
 43
1.0
 76
     1
 77
     6
 78
     2
 67
     7
 79
     5
170
     0
171
     0
290
     0
174
     0
 93
        1
 44
0.0
173
     0
291
     1
 45
0.0
1001
ACAD
1000
AcDbSavedByObjectVersion
1070
     0
  0
VISUALSTYLE
  5
2B
102
{ACAD_REACTORS
330
2A
102
}
102
{ACAD_XDICTIONARY
360
433
102
}
330
2A
100
AcDbVisualStyle
  2
Flat
 70
     0
 71
     2
 72
     1
 73
     1
 90
        2
 40
0.6
 41
30.0
 62
     5
 63
     7
421
 16777215
 74
     0
 91
        0
 64
     7
 65
   257
 75
     1
175
     1
 42
1.0
 92
        8
 66
     7
 43
1.0
 76
     1
 77
     6
 78
     2
 67
     7
 79
     5
170
     0
171
     0
290
     0
174
     0
 93
       13
 44
0.0
173
     0
291
     1
 45
0.0
1001
ACAD
1000
AcDbSavedByObjectVersion
1070
     0
  0
VISUALSTYLE
  5
2C
102
{ACAD_REACTORS
330
2A
102
}
102
{ACAD_XDICTIONARY
360
435
102
}
330
2A
100
AcDbVisualStyle
  2
FlatWithEdges
 70
     1
 71
     2
 72
     1
 73
     1
 90
        2
 40
0.6
 41
30.0
 62
     5
 63
     7
421
 16777215
 74
     1
 91
        0
 64
     7
 65
   257
 75
     1
175
     1
 42
1.0
 92
        0
 66
   257
 43
1.0
 76
     1
 77
     6
 78
     2
 67
     7
 79
     5
170
     0
171
     0
290
     0
174
     0
 93
       13
 44
0.0
173
     0
291
     1
 45
0.0
1001
ACAD
1000
AcDbSavedByObjectVersion
1070
     0
  0
VISUALSTYLE
  5
2D
102
{ACAD_REACTORS
330
2A
102
}
102
{ACAD_XDICTIONARY
360
437
102
}
330
2A
100
AcDbVisualStyle
  2
Gouraud
 70
     2
 71
     2
 72
     2
 73
     1
 90
        2
 40
0.6
 41
30.0
 62
     5
 63
     7
421
 16777215
 74
     0
 91
        0
 64
     7
 65
   257
 75
     1
175
     1
 42
1.0
 92
        0
 66
     7
 43
1.0
 76
     1
 77
     6
 78
     2
 67
     7
 79
     5
170
     0
171
     0
290
     0
174
     0
 93
       13
 44
0.0
173
     0
291
     1
 45
0.0
1001
ACAD
1000
AcDbSavedByObjectVersion
1070
     0
  0
VISUALSTYLE
  5
2E
102
{ACAD_REACTORS
330
2A
102
}
102
{ACAD_XDICTIONARY
360
439
102
}
330
2A
100
AcDbVisualStyle
  2
GouraudWithEdges
 70
     3
 71
     2
 72
     2
 73
     1
 90
        2
 40
0.6
 41
30.0
 62
     5
 63
     7
421
 16777215
 74
     1
 91
        0
 64
     7
 65
   257
 75
     1
175
     1
 42
1.0
 92
        0
 66
   257
 43
1.0
 76
     1
 77
     6
 78
     2
 67
     7
 79
     5
170
     0
171
     0
290
     0
174
     0
 93
       13
 44
0.0
173
     0
291
     1
 45
0.0
1001
ACAD
1000
AcDbSavedByObjectVersion
1070
     0
  0
VISUALSTYLE
  5
31
102
{ACAD_REACTORS
330
2A
102
}
102
{ACAD_XDICTIONARY
360
43F
102
}
330
2A
100
AcDbVisualStyle
  2
Hidden
 70
     6
 71
     1
 72
     2
 73
     2
 90
        0
 40
0.6
 41
30.0
 62
     5
 63
     7
421
 16777215
 74
     2
 91
        2
 64
     7
 65
   257
 75
     2
175
     1
 42
40.0
 92
        0
 66
   257
 43
1.0
 76
     1
 77
     6
 78
     2
 67
     7
 79
     3
170
     0
171
     0
290
     0
174
     0
 93
        1
 44
0.0
173
     0
291
     0
 45
0.0
1001
ACAD
1000
AcDbSavedByObjectVersion
1070
     0
  0
VISUALSTYLE
  5
3B
102
{ACAD_REACTORS
330
2A
102
}
102
{ACAD_XDICTIONARY
360
453
102
}
330
2A
100
AcDbVisualStyle
  2
JitterOff
 70
    20
 71
     2
 72
     2
 73
     0
 90
        0
 40
0.6
 41
30.0
 62
     5
 63
     7
421
 16777215
 74
     1
 91
        4
 64
     7
 65
   257
 75
     1
175
     1
 42
1.0
 92
       10
 66
     7
 43
1.0
 76
     1
 77
     6
 78
     2
 67
     7
 79
     5
170
     0
171
     0
290
     0
174
     0
 93
        1
 44
0.0
173
     0
291
     1
 45
0.0
1001
ACAD
1000
AcDbSavedByObjectVersion
1070
     0
  0
VISUALSTYLE
  5
38
102
{ACAD_REACTORS
330
2A
102
}
102
{ACAD_XDICTIONARY
360
44D
102
}
330
2A
100
AcDbVisualStyle
  2
Linepattern
 70
    14
 71
     2
 72
     2
 73
     0
 90
        0
 40
0.6
 41
30.0
 62
     5
 63
     7
421
 16777215
 74
     1
 91
        4
 64
     7
 65
   257
 75
     7
175
     7
 42
1.0
 92
        8
 66
     7
 43
1.0
 76
     1
 77
     6
 78
     2
 67
     7
 79
     5
170
     0
171
     0
290
     0
174
     0
 93
        1
 44
0.0
173
     0
291
     1
 45
0.0
1001
ACAD
1000
AcDbSavedByObjectVersion
1070
     0
  0
VISUALSTYLE
  5
3C
102
{ACAD_REACTORS
330
2A
102
}
102
{ACAD_XDICTIONARY
360
455
102
}
330
2A
100
AcDbVisualStyle
  2
OverhangOff
 70
    21
 71
     2
 72
     2
 73
     0
 90
        0
 40
0.6
 41
30.0
 62
     5
 63
     7
421
 16777215
 74
     1
 91
        4
 64
     7
 65
   257
 75
     1
175
     1
 42
1.0
 92
        9
 66
     7
 43
1.0
 76
     1
 77
     6
 78
     2
 67
     7
 79
     5
170
     0
171
     0
290
     0
174
     0
 93
        1
 44
0.0
173
     0
291
     1
 45
0.0
1001
ACAD
1000
AcDbSavedByObjectVersion
1070
     0
  0
VISUALSTYLE
  5
33
102
{ACAD_REACTORS
330
2A
102
}
102
{ACAD_XDICTIONARY
360
443
102
}
330
2A
100
AcDbVisualStyle
  2
Realistic
 70
     8
 71
     2
 72
     3
 73
     0
 90
        2
 40
0.6
 41
30.0
 62
     5
 63
     7
421
 16777215
 74
     0
 91
        0
 64
     7
 65
   257
 75
     1
175
     1
 42
1.0
 92
        8
 66
   257
 43
1.0
 76
     1
 77
     6
 78
     2
 67
     7
 79
     3
170
     0
171
     0
290
     0
174
     0
 93
       13
 44
0.0
173
     0
291
     0
 45
0.0
1001
ACAD
1000
AcDbSavedByObjectVersion
1070
     0
  0
VISUALSTYLE
  5
42
102
{ACAD_REACTORS
330
2A
102
}
102
{ACAD_XDICTIONARY
360
461
102
}
330
2A
100
AcDbVisualStyle
  2
Shaded
 70
    27
 71
     2
 72
     2
 73
     1
 90
        2
 40
0.6
 41
30.0
 62
     5
 63
     7
421
 16777215
 74
     0
 91
        4
 64
     7
 65
   257
 75
     1
175
     1
 42
1.0
 92
        8
 66
   257
 43
1.0
 76
     1
 77
     6
 78
     2
 67
     8
425
  7895160
 79
     3
170
     0
171
     0
290
     0
174
     0
 93
        5
 44
0.0
173
     0
291
     0
 45
0.0
1001
ACAD
1000
AcDbSavedByObjectVersion
1070
     0
  0
VISUALSTYLE
  5
41
102
{ACAD_REACTORS
330
2A
102
}
102
{ACAD_XDICTIONARY
360
45F
102
}
330
2A
100
AcDbVisualStyle
  2
Shaded with edges
 70
    26
 71
     2
 72
     2
 73
     1
 90
        2
 40
0.6
 41
30.0
 62
     5
 63
     7
421
 16777215
 74
     1
 91
       10
 64
     7
 65
   257
 75
     2
175
     1
 42
1.0
 92
        8
 66
   257
 43
1.0
 76
     1
 77
     6
 78
     2
 67
     7
 79
     3
170
     0
171
     0
290
     0
174
     0
 93
        5
 44
0.0
173
     0
291
     0
 45
0.0
1001
ACAD
1000
AcDbSavedByObjectVersion
1070
     0
  0
VISUALSTYLE
  5
3E
102
{ACAD_REACTORS
330
2A
102
}
102
{ACAD_XDICTIONARY
360
459
102
}
330
2A
100
AcDbVisualStyle
  2
Shades of Gray
 70
    23
 71
     2
 72
     2
 73
     3
 90
        0
 40
0.6
 41
30.0
 62
     5
 63
     7
421
 16777215
 74
     2
 91
        2
 64
     7
 65
     7
 75
     1
175
     1
 42
40.0
 92
        8
 66
     7
 43
1.0
 76
     1
 77
     6
 78
     2
 67
     7
 79
     3
170
     0
171
     0
290
     0
174
     0
 93
        1
 44
0.0
173
     0
291
     0
 45
0.0
1001
ACAD
1000
AcDbSavedByObjectVersion
1070
     0
  0
VISUALSTYLE
  5
3F
102
{ACAD_REACTORS
330
2A
102
}
102
{ACAD_XDICTIONARY
360
45B
102
}
330
2A
100
AcDbVisualStyle
  2
Sketchy
 70
    24
 71
     1
 72
     2
 73
     2
 90
        0
 40
0.6
 41
30.0
 62
     5
 63
     7
421
 16777215
 74
     2
 91
        2
 64
     7
 65
     7
 75
     1
175
     1
 42
40.0
 92
       11
 66
     7
 43
1.0
 76
     1
 77
     6
 78
     2
 67
     7
 79
     6
170
     0
171
     0
290
     0
174
     0
 93
        1
 44
0.0
173
     0
291
     0
 45
0.0
1001
ACAD
1000
AcDbSavedByObjectVersion
1070
     0
  0
VISUALSTYLE
  5
37
102
{ACAD_REACTORS
330
2A
102
}
102
{ACAD_XDICTIONARY
360
44B
102
}
330
2A
100
AcDbVisualStyle
  2
Thicken
 70
    13
 71
     2
 72
     2
 73
     0
 90
        0
 40
0.6
 41
30.0
 62
     5
 63
     7
421
 16777215
 74
     1
 91
        4
 64
     7
 65
   257
 75
     1
175
     1
 42
1.0
 92
       12
 66
     7
 43
1.0
 76
     1
 77
     6
 78
     2
 67
     7
 79
     5
170
     0
171
     0
290
     0
174
     0
 93
        1
 44
0.0
173
     0
291
     1
 45
0.0
1001
ACAD
1000
AcDbSavedByObjectVersion
1070
     0
  0
VISUALSTYLE
  5
30
102
{ACAD_REACTORS
330
2A
102
}
102
{ACAD_XDICTIONARY
360
43D
102
}
330
2A
100
AcDbVisualStyle
  2
Wireframe
 70
     5
 71
     0
 72
     2
 73
     0
 90
        0
 40
0.6
 41
30.0
 62
     5
 63
     7
421
 16777215
 74
     1
 91
        4
 64
     7
 65
   257
 75
     1
175
     1
 42
1.0
 92
        0
 66
   257
 43
1.0
 76
     1
 77
     6
 78
     2
 67
     7
 79
     3
170
     0
171
     0
290
     0
174
     0
 93
        1
 44
0.0
173
     0
291
     0
 45
0.0
1001
ACAD
1000
AcDbSavedByObjectVersion
1070
     0
  0
VISUALSTYLE
  5
40
102
{ACAD_REACTORS
330
2A
102
}
102
{ACAD_XDICTIONARY
360
45D
102
}
330
2A
100
AcDbVisualStyle
  2
X-Ray
 70
    25
 71
     2
 72
     2
 73
     1
 90
        1
 40
0.5
 41
30.0
 62
     5
 63
     7
421
 16777215
 74
     1
 91
        0
 64
     7
 65
   257
 75
     1
175
     1
 42
1.0
 92
        8
 66
     7
 43
1.0
 76
     1
 77
     6
 78
     2
 67
     7
 79
     3
170
     0
171
     0
290
     0
174
     0
 93
       13
 44
0.0
173
     0
291
     0
 45
0.0
1001
ACAD
1000
AcDbSavedByObjectVersion
1070
     0
  0
DICTIONARYVAR
  5
430
102
{ACAD_REACTORS
330
42F
102
}
330
42F
100
DictionaryVariables
280
     0
  1
1:1
  0
DICTIONARYVAR
  5
474
102
{ACAD_REACTORS
330
42F
102
}
330
42F
100
DictionaryVariables
280
     0
  1
3.500000
  0
DICTIONARYVAR
  5
475
102
{ACAD_REACTORS
330
42F
102
}
330
42F
100
DictionaryVariables
280
     0
  1
acadiso.lin
  0
DICTIONARYVAR
  5
471
102
{ACAD_REACTORS
330
42F
102
}
330
42F
100
DictionaryVariables
280
     0
  1
Standard
  0
DICTIONARYVAR
  5
470
102
{ACAD_REACTORS
330
42F
102
}
330
42F
100
DictionaryVariables
280
     0
  1
Standard
  0
DICTIONARYVAR
  5
431
102
{ACAD_REACTORS
330
42F
102
}
330
42F
100
DictionaryVariables
280
     0
  1
1
  0
DICTIONARYVAR
  5
432
102
{ACAD_REACTORS
330
42F
102
}
330
42F
100
DictionaryVariables
280
     0
  1
2
  0
DICTIONARY
  5
465
330
45
100
AcDbDictionary
280
     1
281
     1
  3
ACAD_XREC_ROUNDTRIP
360
466
  0
DICTIONARY
  5
463
330
44
100
AcDbDictionary
280
     1
281
     1
  3
ACAD_XREC_ROUNDTRIP
360
464
  0
DICTIONARY
  5
467
330
46
100
AcDbDictionary
280
     1
281
     1
  3
ACAD_XREC_ROUNDTRIP
360
468
  0
DICTIONARY
  5
46D
330
6C
100
AcDbDictionary
280
     1
281
     1
  3
ACAD_XREC_ROUNDTRIP
360
46E
  0
DICTIONARY
  5
469
330
6A
100
AcDbDictionary
280
     1
281
     1
  3
ACAD_ROUNDTRIP_2008_TABLESTYLE_CELLSTYLEMAP
360
46B
  3
ACAD_XREC_ROUNDTRIP
360
46A
  0
DICTIONARY
  5
43B
330
2F
100
AcDbDictionary
280
     1
281
     1
  3
ACAD_XREC_ROUNDTRIP
360
43C
  0
DICTIONARY
  5
441
330
32
100
AcDbDictionary
280
     1
281
     1
  3
ACAD_XREC_ROUNDTRIP
360
442
  0
DICTIONARY
  5
449
330
36
100
AcDbDictionary
280
     1
281
     1
  3
ACAD_XREC_ROUNDTRIP
360
44A
  0
DICTIONARY
  5
451
330
3A
100
AcDbDictionary
280
     1
281
     1
  3
ACAD_XREC_ROUNDTRIP
360
452
  0
DICTIONARY
  5
445
330
34
100
AcDbDictionary
280
     1
281
     1
  3
ACAD_XREC_ROUNDTRIP
360
446
  0
DICTIONARY
  5
447
330
35
100
AcDbDictionary
280
     1
281
     1
  3
ACAD_XREC_ROUNDTRIP
360
448
  0
DICTIONARY
  5
457
330
3D
100
AcDbDictionary
280
     1
281
     1
  3
ACAD_XREC_ROUNDTRIP
360
458
  0
DICTIONARY
  5
44F
330
39
100
AcDbDictionary
280
     1
281
     1
  3
ACAD_XREC_ROUNDTRIP
360
450
  0
DICTIONARY
  5
433
330
2B
100
AcDbDictionary
280
     1
281
     1
  3
ACAD_XREC_ROUNDTRIP
360
434
  0
DICTIONARY
  5
435
330
2C
100
AcDbDictionary
280
     1
281
     1
  3
ACAD_XREC_ROUNDTRIP
360
436
  0
DICTIONARY
  5
437
330
2D
100
AcDbDictionary
280
     1
281
     1
  3
ACAD_XREC_ROUNDTRIP
360
438
  0
DICTIONARY
  5
439
330
2E
100
AcDbDictionary
280
     1
281
     1
  3
ACAD_XREC_ROUNDTRIP
360
43A
  0
DICTIONARY
  5
43F
330
31
100
AcDbDictionary
280
     1
281
     1
  3
ACAD_XREC_ROUNDTRIP
360
440
  0
DICTIONARY
  5
453
330
3B
100
AcDbDictionary
280
     1
281
     1
  3
ACAD_XREC_ROUNDTRIP
360
454
  0
DICTIONARY
  5
44D
330
38
100
AcDbDictionary
280
     1
281
     1
  3
ACAD_XREC_ROUNDTRIP
360
44E
  0
DICTIONARY
  5
455
330
3C
100
AcDbDictionary
280
     1
281
     1
  3
ACAD_XREC_ROUNDTRIP
360
456
  0
DICTIONARY
  5
443
330
33
100
AcDbDictionary
280
     1
281
     1
  3
ACAD_XREC_ROUNDTRIP
360
444
  0
DICTIONARY
  5
461
330
42
100
AcDbDictionary
280
     1
281
     1
  3
ACAD_XREC_ROUNDTRIP
360
462
  0
DICTIONARY
  5
45F
330
41
100
AcDbDictionary
280
     1
281
     1
  3
ACAD_XREC_ROUNDTRIP
360
460
  0
DICTIONARY
  5
459
330
3E
100
AcDbDictionary
280
     1
281
     1
  3
ACAD_XREC_ROUNDTRIP
360
45A
  0
DICTIONARY
  5
45B
330
3F
100
AcDbDictionary
280
     1
281
     1
  3
ACAD_XREC_ROUNDTRIP
360
45C
  0
DICTIONARY
  5
44B
330
37
100
AcDbDictionary
280
     1
281
     1
  3
ACAD_XREC_ROUNDTRIP
360
44C
  0
DICTIONARY
  5
43D
330
30
100
AcDbDictionary
280
     1
281
     1
  3
ACAD_XREC_ROUNDTRIP
360
43E
  0
DICTIONARY
  5
45D
330
40
100
AcDbDictionary
280
     1
281
     1
  3
ACAD_XREC_ROUNDTRIP
360
45E
  0
XRECORD
  5
466
102
{ACAD_REACTORS
330
465
102
}
330
465
100
AcDbXrecord
280
     1
102
MATERIAL
148
0.0
149
0.0
149
0.0
 93
        0
 94
      127
282
     0
 72
     1
 77
     1
171
     1
175
     1
179
     1
273
     0
  0
XRECORD
  5
464
102
{ACAD_REACTORS
330
463
102
}
330
463
100
AcDbXrecord
280
     1
102
MATERIAL
148
0.0
149
0.0
149
0.0
 93
        0
 94
      127
282
     0
 72
     1
 77
     1
171
     1
175
     1
179
     1
273
     0
  0
XRECORD
  5
468
102
{ACAD_REACTORS
330
467
102
}
330
467
100
AcDbXrecord
280
     1
102
MATERIAL
148
0.0
149
0.0
149
0.0
 93
        0
 94
      127
282
     0
 72
     1
 77
     1
171
     1
175
     1
179
     1
273
     0
  0
XRECORD
  5
46E
102
{ACAD_REACTORS
330
46D
102
}
330
46D
100
AcDbXrecord
280
     1
102
ACAD_ROUNDTRIP_2010_MLEADER_STYLE
  0
CELLSTYLEMAP
  5
46B
102
{ACAD_REACTORS
330
469
102
}
330
469
100
AcDbCellStyleMap
 90
        3
300
CELLSTYLE
  1
TABLEFORMAT_BEGIN
 90
        5
170
     1
 91
        0
 92
    32768
 62
   257
 93
        1
300
CONTENTFORMAT
  1
CONTENTFORMAT_BEGIN
 90
        0
 91
        0
 92
        4
 93
        0
300

 40
0.0
140
1.0
 94
        5
 62
     0
340
11
144
6.0
309
CONTENTFORMAT_END
171
     1
301
MARGIN
  1
CELLMARGIN_BEGIN
 40
1.5
 40
1.5
 40
1.5
 40
1.5
 40
1.5
 40
1.5
309
CELLMARGIN_END
 94
        6
 95
        1
302
GRIDFORMAT
  1
GRIDFORMAT_BEGIN
 90
        0
 91
        1
 62
     0
 92
       -2
340
14
 93
        0
 40
0.045
309
GRIDFORMAT_END
 95
        2
302
GRIDFORMAT
  1
GRIDFORMAT_BEGIN
 90
        0
 91
        1
 62
     0
 92
       -2
340
14
 93
        0
 40
0.045
309
GRIDFORMAT_END
 95
        4
302
GRIDFORMAT
  1
GRIDFORMAT_BEGIN
 90
        0
 91
        1
 62
     0
 92
       -2
340
14
 93
        0
 40
0.045
309
GRIDFORMAT_END
 95
        8
302
GRIDFORMAT
  1
GRIDFORMAT_BEGIN
 90
        0
 91
        1
 62
     0
 92
       -2
340
14
 93
        0
 40
0.045
309
GRIDFORMAT_END
 95
       16
302
GRIDFORMAT
  1
GRIDFORMAT_BEGIN
 90
        0
 91
        1
 62
     0
 92
       -2
340
14
 93
        0
 40
0.045
309
GRIDFORMAT_END
 95
       32
302
GRIDFORMAT
  1
GRIDFORMAT_BEGIN
 90
        0
 91
        1
 62
     0
 92
       -2
340
14
 93
        0
 40
0.045
309
GRIDFORMAT_END
309
TABLEFORMAT_END
  1
CELLSTYLE_BEGIN
 90
        1
 91
        1
300
_TITLE
309
CELLSTYLE_END
300
CELLSTYLE
  1
TABLEFORMAT_BEGIN
 90
        5
170
     1
 91
        0
 92
        0
 62
   257
 93
        1
300
CONTENTFORMAT
  1
CONTENTFORMAT_BEGIN
 90
        0
 91
        0
 92
        4
 93
        0
300

 40
0.0
140
1.0
 94
        5
 62
     0
340
11
144
4.5
309
CONTENTFORMAT_END
171
     1
301
MARGIN
  1
CELLMARGIN_BEGIN
 40
1.5
 40
1.5
 40
1.5
 40
1.5
 40
1.5
 40
1.5
309
CELLMARGIN_END
 94
        6
 95
        1
302
GRIDFORMAT
  1
GRIDFORMAT_BEGIN
 90
        0
 91
        1
 62
     0
 92
       -2
340
14
 93
        0
 40
0.045
309
GRIDFORMAT_END
 95
        2
302
GRIDFORMAT
  1
GRIDFORMAT_BEGIN
 90
        0
 91
        1
 62
     0
 92
       -2
340
14
 93
        0
 40
0.045
309
GRIDFORMAT_END
 95
        4
302
GRIDFORMAT
  1
GRIDFORMAT_BEGIN
 90
        0
 91
        1
 62
     0
 92
       -2
340
14
 93
        0
 40
0.045
309
GRIDFORMAT_END
 95
        8
302
GRIDFORMAT
  1
GRIDFORMAT_BEGIN
 90
        0
 91
        1
 62
     0
 92
       -2
340
14
 93
        0
 40
0.045
309
GRIDFORMAT_END
 95
       16
302
GRIDFORMAT
  1
GRIDFORMAT_BEGIN
 90
        0
 91
        1
 62
     0
 92
       -2
340
14
 93
        0
 40
0.045
309
GRIDFORMAT_END
 95
       32
302
GRIDFORMAT
  1
GRIDFORMAT_BEGIN
 90
        0
 91
        1
 62
     0
 92
       -2
340
14
 93
        0
 40
0.045
309
GRIDFORMAT_END
309
TABLEFORMAT_END
  1
CELLSTYLE_BEGIN
 90
        2
 91
        1
300
_HEADER
309
CELLSTYLE_END
300
CELLSTYLE
  1
TABLEFORMAT_BEGIN
 90
        5
170
     1
 91
        0
 92
        0
 62
   257
 93
        1
300
CONTENTFORMAT
  1
CONTENTFORMAT_BEGIN
 90
        0
 91
        0
 92
        4
 93
        0
300

 40
0.0
140
1.0
 94
        2
 62
     0
340
11
144
4.5
309
CONTENTFORMAT_END
171
     1
301
MARGIN
  1
CELLMARGIN_BEGIN
 40
1.5
 40
1.5
 40
1.5
 40
1.5
 40
1.5
 40
1.5
309
CELLMARGIN_END
 94
        6
 95
        1
302
GRIDFORMAT
  1
GRIDFORMAT_BEGIN
 90
        0
 91
        1
 62
     0
 92
       -2
340
14
 93
        0
 40
0.045
309
GRIDFORMAT_END
 95
        2
302
GRIDFORMAT
  1
GRIDFORMAT_BEGIN
 90
        0
 91
        1
 62
     0
 92
       -2
340
14
 93
        0
 40
0.045
309
GRIDFORMAT_END
 95
        4
302
GRIDFORMAT
  1
GRIDFORMAT_BEGIN
 90
        0
 91
        1
 62
     0
 92
       -2
340
14
 93
        0
 40
0.045
309
GRIDFORMAT_END
 95
        8
302
GRIDFORMAT
  1
GRIDFORMAT_BEGIN
 90
        0
 91
        1
 62
     0
 92
       -2
340
14
 93
        0
 40
0.045
309
GRIDFORMAT_END
 95
       16
302
GRIDFORMAT
  1
GRIDFORMAT_BEGIN
 90
        0
 91
        1
 62
     0
 92
       -2
340
14
 93
        0
 40
0.045
309
GRIDFORMAT_END
 95
       32
302
GRIDFORMAT
  1
GRIDFORMAT_BEGIN
 90
        0
 91
        1
 62
     0
 92
       -2
340
14
 93
        0
 40
0.045
309
GRIDFORMAT_END
309
TABLEFORMAT_END
  1
CELLSTYLE_BEGIN
 90
        3
 91
        2
300
_DATA
309
CELLSTYLE_END
  0
XRECORD
  5
46A
102
{ACAD_REACTORS
330
469
102
}
330
469
100
AcDbXrecord
280
     1
102
ACAD_ROUNDTRIP_PRE2007_TABLESTYLE
 90
        4
 91
        0
  1

 92
        4
 93
        0
  2

 94
        4
 95
        0
  3

  0
XRECORD
  5
43C
102
{ACAD_REACTORS
330
43B
102
}
330
43B
100
AcDbXrecord
280
     1
102
RTVSPropertyOp0
 70
     1
102
RTVSPropertyOp1
 70
     1
102
RTVSPropertyOp2
 70
     1
102
RTVSPropertyOp3
 70
     1
102
RTVSPropertyOp4
 70
     1
102
RTVSPropertyOp5
 70
     1
102
RTVSPropertyOp6
 70
     1
102
RTVSPropertyOp7
 70
     1
102
RTVSPropertyOp8
 70
     1
102
RTVSPropertyOp9
 70
     1
102
RTVSPropertyOp10
 70
     1
102
RTVSPropertyOp11
 70
     1
102
RTVSPropertyOp12
 70
     1
102
RTVSPropertyOp13
 70
     1
102
RTVSPropertyOp14
 70
     1
102
RTVSPropertyOp15
 70
     1
102
RTVSPropertyOp16
 70
     1
102
RTVSPropertyOp17
 70
     1
102
RTVSPropertyOp18
 70
     1
102
RTVSPropertyOp19
 70
     1
102
RTVSPropertyOp20
 70
     1
102
RTVSPropertyOp21
 70
     1
102
RTVSPropertyOp22
 70
     1
102
RTVSPropertyOp23
 70
     1
102
RTVSPropertyOp24
 70
     1
102
RTVSPropertyOp25
 70
     1
102
RTVSPropertyOp26
 70
     1
102
RTVSPropertyOp27
 70
     1
102
RTVSPropertyOp28
 70
     1
102
RTVSPropertyOp29
 70
     1
102
RTVSPropertyOp30
 70
     1
102
RTVSPropertyOp31
 70
     1
102
RTVSPropertyOp32
 70
     1
102
RTVSPropertyOp33
 70
     1
102
RTVSPropertyOp34
 70
     1
102
RTVSPropertyOp35
 70
     1
102
RTVSPropertyOp36
 70
     1
102
RTVSPropertyOp37
 70
     1
102
RTVSPropertyOp38
 70
     1
102
RTVSPropertyOp39
 70
     1
102
RTVSPropertyOp40
 70
     1
102
RTVSPropertyOp41
 70
     1
102
RTVSPropertyOp42
 70
     1
102
RTVSPropertyOp43
 70
     1
102
RTVSPropertyOp44
 70
     1
102
RTVSPropertyOp45
 70
     1
102
RTVSPropertyOp46
 70
     1
102
RTVSPropertyOp47
 70
     1
102
RTVSPropertyOp48
 70
     1
102
RTVSPropertyOp49
 70
     1
102
RTVSPropertyOp50
 70
     1
102
RTVSPropertyOp51
 70
     0
102
RTVSPropertyOp52
 70
     0
102
RTVSPropertyOp53
 70
     1
102
RTVSPropertyOp54
 70
     1
102
RTVSPropertyOp55
 70
     1
102
RTVSPropertyOp56
 70
     1
102
RTVSPropertyOp57
 70
     1
102
RTVSPost2010Prop28
280
     1
102
RTVSPost2010PropOp28
 70
     1
102
RTVSPost2010Prop29
280
     1
102
RTVSPost2010PropOp29
 70
     1
102
RTVSPost2010Prop30
280
     0
102
RTVSPost2010PropOp30
 70
     1
102
RTVSPost2010Prop31
280
     0
102
RTVSPost2010PropOp31
 70
     1
102
RTVSPost2010Prop32
280
     0
102
RTVSPost2010PropOp32
 70
     1
102
RTVSPost2010Prop33
280
     0
102
RTVSPost2010PropOp33
 70
     1
102
RTVSPost2010Prop34
280
     0
102
RTVSPost2010PropOp34
 70
     1
102
RTVSPost2010Prop35
280
     0
102
RTVSPost2010PropOp35
 70
     1
102
RTVSPost2010Prop36
280
     0
102
RTVSPost2010PropOp36
 70
     1
102
RTVSPost2010Prop37
 90
       50
102
RTVSPost2010PropOp37
 70
     1
102
RTVSPost2010Prop38
140
0.0
102
RTVSPost2010PropOp38
 70
     1
102
RTVSPost2010Prop39
140
1.0
102
RTVSPost2010PropOp39
 70
     1
102
RTVSPost2010Prop40
 90
        0
102
RTVSPost2010PropOp40
 70
     1
102
RTVSPost2010Prop41ColorIndex
 90
       18
102
RTVSPost2010Prop41ColorRGB
 90
        0
102
RTVSPost2010PropOp41
 70
     1
102
RTVSPost2010Prop42
 90
       50
102
RTVSPost2010PropOp42
 70
     1
102
RTVSPost2010Prop43
 90
        3
102
RTVSPost2010PropOp43
 70
     1
102
RTVSPost2010Prop44ColorIndex
 90
        5
102
RTVSPost2010Prop44ColorRGB
 90
      255
102
RTVSPost2010PropOp44
 70
     1
102
RTVSPost2010Prop45
280
     0
102
RTVSPost2010PropOp45
 70
     1
102
RTVSPost2010Prop46
 90
       50
102
RTVSPost2010PropOp46
 70
     1
102
RTVSPost2010Prop47
 90
       50
102
RTVSPost2010PropOp47
 70
     1
102
RTVSPost2010Prop48
 90
       50
102
RTVSPost2010PropOp48
 70
     1
102
RTVSPost2010Prop49
280
     0
102
RTVSPost2010PropOp49
 70
     1
102
RTVSPost2010Prop50
 90
       50
102
RTVSPost2010PropOp50
 70
     1
102
RTVSPost2010Prop51ColorIndex
 90
      256
102
RTVSPost2010Prop51ColorRGB
 90
-16777216
102
RTVSPost2010PropOp51
 70
     0
102
RTVSPost2010Prop52
140
1.0
102
RTVSPost2010PropOp52
 70
     0
102
RTVSPost2010Prop53
 90
        2
102
RTVSPost2010PropOp53
 70
     1
102
RTVSPost2010Prop54
  1
strokes_ogs.tif
102
RTVSPost2010PropOp54
 70
     1
102
RTVSPost2010Prop55
280
     0
102
RTVSPost2010PropOp55
 70
     1
102
RTVSPost2010Prop56
140
1.0
102
RTVSPost2010PropOp56
 70
     1
102
RTVSPost2010Prop57
140
1.0
102
RTVSPost2010PropOp57
 70
     1
  0
XRECORD
  5
442
102
{ACAD_REACTORS
330
441
102
}
330
441
100
AcDbXrecord
280
     1
102
RTVSPropertyOp0
 70
     1
102
RTVSPropertyOp1
 70
     1
102
RTVSPropertyOp2
 70
     1
102
RTVSPropertyOp3
 70
     1
102
RTVSPropertyOp4
 70
     1
102
RTVSPropertyOp5
 70
     1
102
RTVSPropertyOp6
 70
     1
102
RTVSPropertyOp7
 70
     1
102
RTVSPropertyOp8
 70
     1
102
RTVSPropertyOp9
 70
     1
102
RTVSPropertyOp10
 70
     1
102
RTVSPropertyOp11
 70
     1
102
RTVSPropertyOp12
 70
     1
102
RTVSPropertyOp13
 70
     1
102
RTVSPropertyOp14
 70
     1
102
RTVSPropertyOp15
 70
     1
102
RTVSPropertyOp16
 70
     1
102
RTVSPropertyOp17
 70
     1
102
RTVSPropertyOp18
 70
     1
102
RTVSPropertyOp19
 70
     1
102
RTVSPropertyOp20
 70
     1
102
RTVSPropertyOp21
 70
     1
102
RTVSPropertyOp22
 70
     1
102
RTVSPropertyOp23
 70
     1
102
RTVSPropertyOp24
 70
     1
102
RTVSPropertyOp25
 70
     1
102
RTVSPropertyOp26
 70
     1
102
RTVSPropertyOp27
 70
     1
102
RTVSPropertyOp28
 70
     1
102
RTVSPropertyOp29
 70
     1
102
RTVSPropertyOp30
 70
     1
102
RTVSPropertyOp31
 70
     1
102
RTVSPropertyOp32
 70
     1
102
RTVSPropertyOp33
 70
     1
102
RTVSPropertyOp34
 70
     1
102
RTVSPropertyOp35
 70
     1
102
RTVSPropertyOp36
 70
     1
102
RTVSPropertyOp37
 70
     1
102
RTVSPropertyOp38
 70
     1
102
RTVSPropertyOp39
 70
     1
102
RTVSPropertyOp40
 70
     1
102
RTVSPropertyOp41
 70
     1
102
RTVSPropertyOp42
 70
     1
102
RTVSPropertyOp43
 70
     1
102
RTVSPropertyOp44
 70
     1
102
RTVSPropertyOp45
 70
     1
102
RTVSPropertyOp46
 70
     1
102
RTVSPropertyOp47
 70
     1
102
RTVSPropertyOp48
 70
     1
102
RTVSPropertyOp49
 70
     1
102
RTVSPropertyOp50
 70
     1
102
RTVSPropertyOp51
 70
     0
102
RTVSPropertyOp52
 70
     0
102
RTVSPropertyOp53
 70
     1
102
RTVSPropertyOp54
 70
     1
102
RTVSPropertyOp55
 70
     1
102
RTVSPropertyOp56
 70
     1
102
RTVSPropertyOp57
 70
     1
102
RTVSPost2010Prop28
280
     0
102
RTVSPost2010PropOp28
 70
     1
102
RTVSPost2010Prop29
280
     1
102
RTVSPost2010PropOp29
 70
     1
102
RTVSPost2010Prop30
280
     1
102
RTVSPost2010PropOp30
 70
     1
102
RTVSPost2010Prop31
280
     0
102
RTVSPost2010PropOp31
 70
     1
102
RTVSPost2010Prop32
280
     0
102
RTVSPost2010PropOp32
 70
     1
102
RTVSPost2010Prop33
280
     0
102
RTVSPost2010PropOp33
 70
     1
102
RTVSPost2010Prop34
280
     0
102
RTVSPost2010PropOp34
 70
     1
102
RTVSPost2010Prop35
280
     0
102
RTVSPost2010PropOp35
 70
     1
102
RTVSPost2010Prop36
280
     0
102
RTVSPost2010PropOp36
 70
     1
102
RTVSPost2010Prop37
 90
       50
102
RTVSPost2010PropOp37
 70
     1
102
RTVSPost2010Prop38
140
0.0
102
RTVSPost2010PropOp38
 70
     1
102
RTVSPost2010Prop39
140
1.0
102
RTVSPost2010PropOp39
 70
     1
102
RTVSPost2010Prop40
 90
        0
102
RTVSPost2010PropOp40
 70
     1
102
RTVSPost2010Prop41ColorIndex
 90
       18
102
RTVSPost2010Prop41ColorRGB
 90
        0
102
RTVSPost2010PropOp41
 70
     1
102
RTVSPost2010Prop42
 90
       50
102
RTVSPost2010PropOp42
 70
     1
102
RTVSPost2010Prop43
 90
        3
102
RTVSPost2010PropOp43
 70
     1
102
RTVSPost2010Prop44ColorIndex
 90
        5
102
RTVSPost2010Prop44ColorRGB
 90
      255
102
RTVSPost2010PropOp44
 70
     1
102
RTVSPost2010Prop45
280
     0
102
RTVSPost2010PropOp45
 70
     1
102
RTVSPost2010Prop46
 90
       50
102
RTVSPost2010PropOp46
 70
     1
102
RTVSPost2010Prop47
 90
       50
102
RTVSPost2010PropOp47
 70
     1
102
RTVSPost2010Prop48
 90
       50
102
RTVSPost2010PropOp48
 70
     1
102
RTVSPost2010Prop49
280
     0
102
RTVSPost2010PropOp49
 70
     1
102
RTVSPost2010Prop50
 90
       50
102
RTVSPost2010PropOp50
 70
     1
102
RTVSPost2010Prop51ColorIndex
 90
      256
102
RTVSPost2010Prop51ColorRGB
 90
-16777216
102
RTVSPost2010PropOp51
 70
     0
102
RTVSPost2010Prop52
140
1.0
102
RTVSPost2010PropOp52
 70
     0
102
RTVSPost2010Prop53
 90
        2
102
RTVSPost2010PropOp53
 70
     1
102
RTVSPost2010Prop54
  1
strokes_ogs.tif
102
RTVSPost2010PropOp54
 70
     1
102
RTVSPost2010Prop55
280
     0
102
RTVSPost2010PropOp55
 70
     1
102
RTVSPost2010Prop56
140
1.0
102
RTVSPost2010PropOp56
 70
     1
102
RTVSPost2010Prop57
140
1.0
102
RTVSPost2010PropOp57
 70
     1
  0
XRECORD
  5
44A
102
{ACAD_REACTORS
330
449
102
}
330
449
100
AcDbXrecord
280
     1
102
RTVSPropertyOp0
 70
     1
102
RTVSPropertyOp1
 70
     1
102
RTVSPropertyOp2
 70
     1
102
RTVSPropertyOp3
 70
     1
102
RTVSPropertyOp4
 70
     1
102
RTVSPropertyOp5
 70
     1
102
RTVSPropertyOp6
 70
     1
102
RTVSPropertyOp7
 70
     1
102
RTVSPropertyOp8
 70
     1
102
RTVSPropertyOp9
 70
     1
102
RTVSPropertyOp10
 70
     1
102
RTVSPropertyOp11
 70
     1
102
RTVSPropertyOp12
 70
     1
102
RTVSPropertyOp13
 70
     1
102
RTVSPropertyOp14
 70
     1
102
RTVSPropertyOp15
 70
     1
102
RTVSPropertyOp16
 70
     1
102
RTVSPropertyOp17
 70
     1
102
RTVSPropertyOp18
 70
     1
102
RTVSPropertyOp19
 70
     1
102
RTVSPropertyOp20
 70
     1
102
RTVSPropertyOp21
 70
     1
102
RTVSPropertyOp22
 70
     1
102
RTVSPropertyOp23
 70
     1
102
RTVSPropertyOp24
 70
     1
102
RTVSPropertyOp25
 70
     1
102
RTVSPropertyOp26
 70
     1
102
RTVSPropertyOp27
 70
     1
102
RTVSPropertyOp28
 70
     1
102
RTVSPropertyOp29
 70
     1
102
RTVSPropertyOp30
 70
     1
102
RTVSPropertyOp31
 70
     1
102
RTVSPropertyOp32
 70
     1
102
RTVSPropertyOp33
 70
     1
102
RTVSPropertyOp34
 70
     1
102
RTVSPropertyOp35
 70
     1
102
RTVSPropertyOp36
 70
     1
102
RTVSPropertyOp37
 70
     1
102
RTVSPropertyOp38
 70
     1
102
RTVSPropertyOp39
 70
     1
102
RTVSPropertyOp40
 70
     1
102
RTVSPropertyOp41
 70
     1
102
RTVSPropertyOp42
 70
     1
102
RTVSPropertyOp43
 70
     1
102
RTVSPropertyOp44
 70
     1
102
RTVSPropertyOp45
 70
     1
102
RTVSPropertyOp46
 70
     1
102
RTVSPropertyOp47
 70
     1
102
RTVSPropertyOp48
 70
     1
102
RTVSPropertyOp49
 70
     1
102
RTVSPropertyOp50
 70
     1
102
RTVSPropertyOp51
 70
     0
102
RTVSPropertyOp52
 70
     0
102
RTVSPropertyOp53
 70
     1
102
RTVSPropertyOp54
 70
     1
102
RTVSPropertyOp55
 70
     1
102
RTVSPropertyOp56
 70
     1
102
RTVSPropertyOp57
 70
     1
102
RTVSPost2010Prop28
280
     0
102
RTVSPost2010PropOp28
 70
     1
102
RTVSPost2010Prop29
280
     1
102
RTVSPost2010PropOp29
 70
     1
102
RTVSPost2010Prop30
280
     1
102
RTVSPost2010PropOp30
 70
     1
102
RTVSPost2010Prop31
280
     0
102
RTVSPost2010PropOp31
 70
     1
102
RTVSPost2010Prop32
280
     0
102
RTVSPost2010PropOp32
 70
     1
102
RTVSPost2010Prop33
280
     0
102
RTVSPost2010PropOp33
 70
     1
102
RTVSPost2010Prop34
280
     0
102
RTVSPost2010PropOp34
 70
     1
102
RTVSPost2010Prop35
280
     0
102
RTVSPost2010PropOp35
 70
     1
102
RTVSPost2010Prop36
280
     0
102
RTVSPost2010PropOp36
 70
     1
102
RTVSPost2010Prop37
 90
       50
102
RTVSPost2010PropOp37
 70
     1
102
RTVSPost2010Prop38
140
0.0
102
RTVSPost2010PropOp38
 70
     1
102
RTVSPost2010Prop39
140
1.0
102
RTVSPost2010PropOp39
 70
     1
102
RTVSPost2010Prop40
 90
        0
102
RTVSPost2010PropOp40
 70
     1
102
RTVSPost2010Prop41ColorIndex
 90
       18
102
RTVSPost2010Prop41ColorRGB
 90
        0
102
RTVSPost2010PropOp41
 70
     1
102
RTVSPost2010Prop42
 90
       50
102
RTVSPost2010PropOp42
 70
     1
102
RTVSPost2010Prop43
 90
        3
102
RTVSPost2010PropOp43
 70
     1
102
RTVSPost2010Prop44ColorIndex
 90
        5
102
RTVSPost2010Prop44ColorRGB
 90
      255
102
RTVSPost2010PropOp44
 70
     1
102
RTVSPost2010Prop45
280
     0
102
RTVSPost2010PropOp45
 70
     1
102
RTVSPost2010Prop46
 90
       50
102
RTVSPost2010PropOp46
 70
     1
102
RTVSPost2010Prop47
 90
       50
102
RTVSPost2010PropOp47
 70
     1
102
RTVSPost2010Prop48
 90
       50
102
RTVSPost2010PropOp48
 70
     1
102
RTVSPost2010Prop49
280
     0
102
RTVSPost2010PropOp49
 70
     1
102
RTVSPost2010Prop50
 90
       50
102
RTVSPost2010PropOp50
 70
     1
102
RTVSPost2010Prop51ColorIndex
 90
      256
102
RTVSPost2010Prop51ColorRGB
 90
-16777216
102
RTVSPost2010PropOp51
 70
     0
102
RTVSPost2010Prop52
140
1.0
102
RTVSPost2010PropOp52
 70
     0
102
RTVSPost2010Prop53
 90
        2
102
RTVSPost2010PropOp53
 70
     1
102
RTVSPost2010Prop54
  1
strokes_ogs.tif
102
RTVSPost2010PropOp54
 70
     1
102
RTVSPost2010Prop55
280
     0
102
RTVSPost2010PropOp55
 70
     1
102
RTVSPost2010Prop56
140
1.0
102
RTVSPost2010PropOp56
 70
     1
102
RTVSPost2010Prop57
140
1.0
102
RTVSPost2010PropOp57
 70
     1
  0
XRECORD
  5
452
102
{ACAD_REACTORS
330
451
102
}
330
451
100
AcDbXrecord
280
     1
102
RTVSPropertyOp0
 70
     1
102
RTVSPropertyOp1
 70
     1
102
RTVSPropertyOp2
 70
     1
102
RTVSPropertyOp3
 70
     1
102
RTVSPropertyOp4
 70
     1
102
RTVSPropertyOp5
 70
     1
102
RTVSPropertyOp6
 70
     1
102
RTVSPropertyOp7
 70
     1
102
RTVSPropertyOp8
 70
     1
102
RTVSPropertyOp9
 70
     1
102
RTVSPropertyOp10
 70
     1
102
RTVSPropertyOp11
 70
     1
102
RTVSPropertyOp12
 70
     1
102
RTVSPropertyOp13
 70
     1
102
RTVSPropertyOp14
 70
     1
102
RTVSPropertyOp15
 70
     1
102
RTVSPropertyOp16
 70
     1
102
RTVSPropertyOp17
 70
     1
102
RTVSPropertyOp18
 70
     1
102
RTVSPropertyOp19
 70
     1
102
RTVSPropertyOp20
 70
     1
102
RTVSPropertyOp21
 70
     1
102
RTVSPropertyOp22
 70
     1
102
RTVSPropertyOp23
 70
     1
102
RTVSPropertyOp24
 70
     1
102
RTVSPropertyOp25
 70
     1
102
RTVSPropertyOp26
 70
     1
102
RTVSPropertyOp27
 70
     1
102
RTVSPropertyOp28
 70
     1
102
RTVSPropertyOp29
 70
     1
102
RTVSPropertyOp30
 70
     1
102
RTVSPropertyOp31
 70
     1
102
RTVSPropertyOp32
 70
     1
102
RTVSPropertyOp33
 70
     1
102
RTVSPropertyOp34
 70
     1
102
RTVSPropertyOp35
 70
     1
102
RTVSPropertyOp36
 70
     1
102
RTVSPropertyOp37
 70
     1
102
RTVSPropertyOp38
 70
     1
102
RTVSPropertyOp39
 70
     1
102
RTVSPropertyOp40
 70
     1
102
RTVSPropertyOp41
 70
     1
102
RTVSPropertyOp42
 70
     1
102
RTVSPropertyOp43
 70
     1
102
RTVSPropertyOp44
 70
     1
102
RTVSPropertyOp45
 70
     1
102
RTVSPropertyOp46
 70
     1
102
RTVSPropertyOp47
 70
     1
102
RTVSPropertyOp48
 70
     1
102
RTVSPropertyOp49
 70
     1
102
RTVSPropertyOp50
 70
     1
102
RTVSPropertyOp51
 70
     0
102
RTVSPropertyOp52
 70
     0
102
RTVSPropertyOp53
 70
     1
102
RTVSPropertyOp54
 70
     1
102
RTVSPropertyOp55
 70
     1
102
RTVSPropertyOp56
 70
     1
102
RTVSPropertyOp57
 70
     1
102
RTVSPost2010Prop28
280
     0
102
RTVSPost2010PropOp28
 70
     1
102
RTVSPost2010Prop29
280
     1
102
RTVSPost2010PropOp29
 70
     1
102
RTVSPost2010Prop30
280
     1
102
RTVSPost2010PropOp30
 70
     1
102
RTVSPost2010Prop31
280
     0
102
RTVSPost2010PropOp31
 70
     1
102
RTVSPost2010Prop32
280
     0
102
RTVSPost2010PropOp32
 70
     1
102
RTVSPost2010Prop33
280
     0
102
RTVSPost2010PropOp33
 70
     1
102
RTVSPost2010Prop34
280
     0
102
RTVSPost2010PropOp34
 70
     1
102
RTVSPost2010Prop35
280
     0
102
RTVSPost2010PropOp35
 70
     1
102
RTVSPost2010Prop36
280
     0
102
RTVSPost2010PropOp36
 70
     1
102
RTVSPost2010Prop37
 90
       50
102
RTVSPost2010PropOp37
 70
     1
102
RTVSPost2010Prop38
140
0.0
102
RTVSPost2010PropOp38
 70
     1
102
RTVSPost2010Prop39
140
1.0
102
RTVSPost2010PropOp39
 70
     1
102
RTVSPost2010Prop40
 90
        0
102
RTVSPost2010PropOp40
 70
     1
102
RTVSPost2010Prop41ColorIndex
 90
       18
102
RTVSPost2010Prop41ColorRGB
 90
        0
102
RTVSPost2010PropOp41
 70
     1
102
RTVSPost2010Prop42
 90
       50
102
RTVSPost2010PropOp42
 70
     1
102
RTVSPost2010Prop43
 90
        3
102
RTVSPost2010PropOp43
 70
     1
102
RTVSPost2010Prop44ColorIndex
 90
        5
102
RTVSPost2010Prop44ColorRGB
 90
      255
102
RTVSPost2010PropOp44
 70
     1
102
RTVSPost2010Prop45
280
     0
102
RTVSPost2010PropOp45
 70
     1
102
RTVSPost2010Prop46
 90
       50
102
RTVSPost2010PropOp46
 70
     1
102
RTVSPost2010Prop47
 90
       50
102
RTVSPost2010PropOp47
 70
     1
102
RTVSPost2010Prop48
 90
       50
102
RTVSPost2010PropOp48
 70
     1
102
RTVSPost2010Prop49
280
     0
102
RTVSPost2010PropOp49
 70
     1
102
RTVSPost2010Prop50
 90
       50
102
RTVSPost2010PropOp50
 70
     1
102
RTVSPost2010Prop51ColorIndex
 90
      256
102
RTVSPost2010Prop51ColorRGB
 90
-16777216
102
RTVSPost2010PropOp51
 70
     0
102
RTVSPost2010Prop52
140
1.0
102
RTVSPost2010PropOp52
 70
     0
102
RTVSPost2010Prop53
 90
        2
102
RTVSPost2010PropOp53
 70
     1
102
RTVSPost2010Prop54
  1
strokes_ogs.tif
102
RTVSPost2010PropOp54
 70
     1
102
RTVSPost2010Prop55
280
     0
102
RTVSPost2010PropOp55
 70
     1
102
RTVSPost2010Prop56
140
1.0
102
RTVSPost2010PropOp56
 70
     1
102
RTVSPost2010Prop57
140
1.0
102
RTVSPost2010PropOp57
 70
     1
  0
XRECORD
  5
446
102
{ACAD_REACTORS
330
445
102
}
330
445
100
AcDbXrecord
280
     1
102
RTVSPropertyOp0
 70
     1
102
RTVSPropertyOp1
 70
     1
102
RTVSPropertyOp2
 70
     1
102
RTVSPropertyOp3
 70
     1
102
RTVSPropertyOp4
 70
     1
102
RTVSPropertyOp5
 70
     1
102
RTVSPropertyOp6
 70
     1
102
RTVSPropertyOp7
 70
     1
102
RTVSPropertyOp8
 70
     1
102
RTVSPropertyOp9
 70
     1
102
RTVSPropertyOp10
 70
     1
102
RTVSPropertyOp11
 70
     1
102
RTVSPropertyOp12
 70
     1
102
RTVSPropertyOp13
 70
     1
102
RTVSPropertyOp14
 70
     1
102
RTVSPropertyOp15
 70
     1
102
RTVSPropertyOp16
 70
     1
102
RTVSPropertyOp17
 70
     1
102
RTVSPropertyOp18
 70
     1
102
RTVSPropertyOp19
 70
     1
102
RTVSPropertyOp20
 70
     1
102
RTVSPropertyOp21
 70
     1
102
RTVSPropertyOp22
 70
     1
102
RTVSPropertyOp23
 70
     1
102
RTVSPropertyOp24
 70
     1
102
RTVSPropertyOp25
 70
     1
102
RTVSPropertyOp26
 70
     1
102
RTVSPropertyOp27
 70
     1
102
RTVSPropertyOp28
 70
     1
102
RTVSPropertyOp29
 70
     1
102
RTVSPropertyOp30
 70
     1
102
RTVSPropertyOp31
 70
     1
102
RTVSPropertyOp32
 70
     1
102
RTVSPropertyOp33
 70
     1
102
RTVSPropertyOp34
 70
     1
102
RTVSPropertyOp35
 70
     1
102
RTVSPropertyOp36
 70
     1
102
RTVSPropertyOp37
 70
     1
102
RTVSPropertyOp38
 70
     1
102
RTVSPropertyOp39
 70
     1
102
RTVSPropertyOp40
 70
     1
102
RTVSPropertyOp41
 70
     1
102
RTVSPropertyOp42
 70
     1
102
RTVSPropertyOp43
 70
     1
102
RTVSPropertyOp44
 70
     1
102
RTVSPropertyOp45
 70
     1
102
RTVSPropertyOp46
 70
     1
102
RTVSPropertyOp47
 70
     1
102
RTVSPropertyOp48
 70
     1
102
RTVSPropertyOp49
 70
     1
102
RTVSPropertyOp50
 70
     1
102
RTVSPropertyOp51
 70
     0
102
RTVSPropertyOp52
 70
     0
102
RTVSPropertyOp53
 70
     1
102
RTVSPropertyOp54
 70
     1
102
RTVSPropertyOp55
 70
     1
102
RTVSPropertyOp56
 70
     1
102
RTVSPropertyOp57
 70
     1
102
RTVSPost2010Prop28
280
     0
102
RTVSPost2010PropOp28
 70
     1
102
RTVSPost2010Prop29
280
     1
102
RTVSPost2010PropOp29
 70
     1
102
RTVSPost2010Prop30
280
     1
102
RTVSPost2010PropOp30
 70
     1
102
RTVSPost2010Prop31
280
     0
102
RTVSPost2010PropOp31
 70
     1
102
RTVSPost2010Prop32
280
     0
102
RTVSPost2010PropOp32
 70
     1
102
RTVSPost2010Prop33
280
     0
102
RTVSPost2010PropOp33
 70
     1
102
RTVSPost2010Prop34
280
     0
102
RTVSPost2010PropOp34
 70
     1
102
RTVSPost2010Prop35
280
     0
102
RTVSPost2010PropOp35
 70
     1
102
RTVSPost2010Prop36
280
     0
102
RTVSPost2010PropOp36
 70
     1
102
RTVSPost2010Prop37
 90
       50
102
RTVSPost2010PropOp37
 70
     1
102
RTVSPost2010Prop38
140
0.0
102
RTVSPost2010PropOp38
 70
     1
102
RTVSPost2010Prop39
140
1.0
102
RTVSPost2010PropOp39
 70
     1
102
RTVSPost2010Prop40
 90
        0
102
RTVSPost2010PropOp40
 70
     1
102
RTVSPost2010Prop41ColorIndex
 90
       18
102
RTVSPost2010Prop41ColorRGB
 90
        0
102
RTVSPost2010PropOp41
 70
     1
102
RTVSPost2010Prop42
 90
       50
102
RTVSPost2010PropOp42
 70
     1
102
RTVSPost2010Prop43
 90
        3
102
RTVSPost2010PropOp43
 70
     1
102
RTVSPost2010Prop44ColorIndex
 90
        5
102
RTVSPost2010Prop44ColorRGB
 90
      255
102
RTVSPost2010PropOp44
 70
     1
102
RTVSPost2010Prop45
280
     0
102
RTVSPost2010PropOp45
 70
     1
102
RTVSPost2010Prop46
 90
       50
102
RTVSPost2010PropOp46
 70
     1
102
RTVSPost2010Prop47
 90
       50
102
RTVSPost2010PropOp47
 70
     1
102
RTVSPost2010Prop48
 90
       50
102
RTVSPost2010PropOp48
 70
     1
102
RTVSPost2010Prop49
280
     0
102
RTVSPost2010PropOp49
 70
     1
102
RTVSPost2010Prop50
 90
       50
102
RTVSPost2010PropOp50
 70
     1
102
RTVSPost2010Prop51ColorIndex
 90
      256
102
RTVSPost2010Prop51ColorRGB
 90
-16777216
102
RTVSPost2010PropOp51
 70
     0
102
RTVSPost2010Prop52
140
1.0
102
RTVSPost2010PropOp52
 70
     0
102
RTVSPost2010Prop53
 90
        2
102
RTVSPost2010PropOp53
 70
     1
102
RTVSPost2010Prop54
  1
strokes_ogs.tif
102
RTVSPost2010PropOp54
 70
     1
102
RTVSPost2010Prop55
280
     0
102
RTVSPost2010PropOp55
 70
     1
102
RTVSPost2010Prop56
140
1.0
102
RTVSPost2010PropOp56
 70
     1
102
RTVSPost2010Prop57
140
1.0
102
RTVSPost2010PropOp57
 70
     1
  0
XRECORD
  5
448
102
{ACAD_REACTORS
330
447
102
}
330
447
100
AcDbXrecord
280
     1
102
RTVSPropertyOp0
 70
     1
102
RTVSPropertyOp1
 70
     1
102
RTVSPropertyOp2
 70
     1
102
RTVSPropertyOp3
 70
     1
102
RTVSPropertyOp4
 70
     1
102
RTVSPropertyOp5
 70
     1
102
RTVSPropertyOp6
 70
     1
102
RTVSPropertyOp7
 70
     1
102
RTVSPropertyOp8
 70
     1
102
RTVSPropertyOp9
 70
     1
102
RTVSPropertyOp10
 70
     1
102
RTVSPropertyOp11
 70
     1
102
RTVSPropertyOp12
 70
     1
102
RTVSPropertyOp13
 70
     1
102
RTVSPropertyOp14
 70
     1
102
RTVSPropertyOp15
 70
     1
102
RTVSPropertyOp16
 70
     1
102
RTVSPropertyOp17
 70
     1
102
RTVSPropertyOp18
 70
     1
102
RTVSPropertyOp19
 70
     1
102
RTVSPropertyOp20
 70
     1
102
RTVSPropertyOp21
 70
     1
102
RTVSPropertyOp22
 70
     1
102
RTVSPropertyOp23
 70
     1
102
RTVSPropertyOp24
 70
     1
102
RTVSPropertyOp25
 70
     1
102
RTVSPropertyOp26
 70
     1
102
RTVSPropertyOp27
 70
     1
102
RTVSPropertyOp28
 70
     1
102
RTVSPropertyOp29
 70
     1
102
RTVSPropertyOp30
 70
     1
102
RTVSPropertyOp31
 70
     1
102
RTVSPropertyOp32
 70
     1
102
RTVSPropertyOp33
 70
     1
102
RTVSPropertyOp34
 70
     1
102
RTVSPropertyOp35
 70
     1
102
RTVSPropertyOp36
 70
     1
102
RTVSPropertyOp37
 70
     1
102
RTVSPropertyOp38
 70
     1
102
RTVSPropertyOp39
 70
     1
102
RTVSPropertyOp40
 70
     1
102
RTVSPropertyOp41
 70
     1
102
RTVSPropertyOp42
 70
     1
102
RTVSPropertyOp43
 70
     1
102
RTVSPropertyOp44
 70
     1
102
RTVSPropertyOp45
 70
     1
102
RTVSPropertyOp46
 70
     1
102
RTVSPropertyOp47
 70
     1
102
RTVSPropertyOp48
 70
     1
102
RTVSPropertyOp49
 70
     1
102
RTVSPropertyOp50
 70
     1
102
RTVSPropertyOp51
 70
     0
102
RTVSPropertyOp52
 70
     0
102
RTVSPropertyOp53
 70
     1
102
RTVSPropertyOp54
 70
     1
102
RTVSPropertyOp55
 70
     1
102
RTVSPropertyOp56
 70
     1
102
RTVSPropertyOp57
 70
     1
102
RTVSPost2010Prop28
280
     0
102
RTVSPost2010PropOp28
 70
     1
102
RTVSPost2010Prop29
280
     1
102
RTVSPost2010PropOp29
 70
     1
102
RTVSPost2010Prop30
280
     1
102
RTVSPost2010PropOp30
 70
     1
102
RTVSPost2010Prop31
280
     0
102
RTVSPost2010PropOp31
 70
     1
102
RTVSPost2010Prop32
280
     0
102
RTVSPost2010PropOp32
 70
     1
102
RTVSPost2010Prop33
280
     0
102
RTVSPost2010PropOp33
 70
     1
102
RTVSPost2010Prop34
280
     0
102
RTVSPost2010PropOp34
 70
     1
102
RTVSPost2010Prop35
280
     0
102
RTVSPost2010PropOp35
 70
     1
102
RTVSPost2010Prop36
280
     0
102
RTVSPost2010PropOp36
 70
     1
102
RTVSPost2010Prop37
 90
       50
102
RTVSPost2010PropOp37
 70
     1
102
RTVSPost2010Prop38
140
0.0
102
RTVSPost2010PropOp38
 70
     1
102
RTVSPost2010Prop39
140
1.0
102
RTVSPost2010PropOp39
 70
     1
102
RTVSPost2010Prop40
 90
        0
102
RTVSPost2010PropOp40
 70
     1
102
RTVSPost2010Prop41ColorIndex
 90
       18
102
RTVSPost2010Prop41ColorRGB
 90
        0
102
RTVSPost2010PropOp41
 70
     1
102
RTVSPost2010Prop42
 90
       50
102
RTVSPost2010PropOp42
 70
     1
102
RTVSPost2010Prop43
 90
        3
102
RTVSPost2010PropOp43
 70
     1
102
RTVSPost2010Prop44ColorIndex
 90
        5
102
RTVSPost2010Prop44ColorRGB
 90
      255
102
RTVSPost2010PropOp44
 70
     1
102
RTVSPost2010Prop45
280
     0
102
RTVSPost2010PropOp45
 70
     1
102
RTVSPost2010Prop46
 90
       50
102
RTVSPost2010PropOp46
 70
     1
102
RTVSPost2010Prop47
 90
       50
102
RTVSPost2010PropOp47
 70
     1
102
RTVSPost2010Prop48
 90
       50
102
RTVSPost2010PropOp48
 70
     1
102
RTVSPost2010Prop49
280
     0
102
RTVSPost2010PropOp49
 70
     1
102
RTVSPost2010Prop50
 90
       50
102
RTVSPost2010PropOp50
 70
     1
102
RTVSPost2010Prop51ColorIndex
 90
      256
102
RTVSPost2010Prop51ColorRGB
 90
-16777216
102
RTVSPost2010PropOp51
 70
     0
102
RTVSPost2010Prop52
140
1.0
102
RTVSPost2010PropOp52
 70
     0
102
RTVSPost2010Prop53
 90
        2
102
RTVSPost2010PropOp53
 70
     1
102
RTVSPost2010Prop54
  1
strokes_ogs.tif
102
RTVSPost2010PropOp54
 70
     1
102
RTVSPost2010Prop55
280
     0
102
RTVSPost2010PropOp55
 70
     1
102
RTVSPost2010Prop56
140
1.0
102
RTVSPost2010PropOp56
 70
     1
102
RTVSPost2010Prop57
140
1.0
102
RTVSPost2010PropOp57
 70
     1
  0
XRECORD
  5
458
102
{ACAD_REACTORS
330
457
102
}
330
457
100
AcDbXrecord
280
     1
102
RTVSPropertyOp0
 70
     0
102
RTVSPropertyOp1
 70
     0
102
RTVSPropertyOp2
 70
     0
102
RTVSPropertyOp3
 70
     0
102
RTVSPropertyOp4
 70
     0
102
RTVSPropertyOp5
 70
     0
102
RTVSPropertyOp6
 70
     0
102
RTVSPropertyOp7
 70
     0
102
RTVSPropertyOp8
 70
     0
102
RTVSPropertyOp9
 70
     0
102
RTVSPropertyOp10
 70
     0
102
RTVSPropertyOp11
 70
     0
102
RTVSPropertyOp12
 70
     0
102
RTVSPropertyOp13
 70
     0
102
RTVSPropertyOp14
 70
     2
102
RTVSPropertyOp15
 70
     0
102
RTVSPropertyOp16
 70
     0
102
RTVSPropertyOp17
 70
     0
102
RTVSPropertyOp18
 70
     0
102
RTVSPropertyOp19
 70
     0
102
RTVSPropertyOp20
 70
     0
102
RTVSPropertyOp21
 70
     0
102
RTVSPropertyOp22
 70
     0
102
RTVSPropertyOp23
 70
     0
102
RTVSPropertyOp24
 70
     0
102
RTVSPropertyOp25
 70
     0
102
RTVSPropertyOp26
 70
     0
102
RTVSPropertyOp27
 70
     0
102
RTVSPropertyOp28
 70
     0
102
RTVSPropertyOp29
 70
     0
102
RTVSPropertyOp30
 70
     0
102
RTVSPropertyOp31
 70
     0
102
RTVSPropertyOp32
 70
     0
102
RTVSPropertyOp33
 70
     0
102
RTVSPropertyOp34
 70
     0
102
RTVSPropertyOp35
 70
     0
102
RTVSPropertyOp36
 70
     0
102
RTVSPropertyOp37
 70
     0
102
RTVSPropertyOp38
 70
     0
102
RTVSPropertyOp39
 70
     0
102
RTVSPropertyOp40
 70
     0
102
RTVSPropertyOp41
 70
     0
102
RTVSPropertyOp42
 70
     0
102
RTVSPropertyOp43
 70
     0
102
RTVSPropertyOp44
 70
     0
102
RTVSPropertyOp45
 70
     0
102
RTVSPropertyOp46
 70
     0
102
RTVSPropertyOp47
 70
     0
102
RTVSPropertyOp48
 70
     0
102
RTVSPropertyOp49
 70
     0
102
RTVSPropertyOp50
 70
     0
102
RTVSPropertyOp51
 70
     0
102
RTVSPropertyOp52
 70
     0
102
RTVSPropertyOp53
 70
     0
102
RTVSPropertyOp54
 70
     0
102
RTVSPropertyOp55
 70
     0
102
RTVSPropertyOp56
 70
     0
102
RTVSPropertyOp57
 70
     0
102
RTVSPost2010Prop28
280
     0
102
RTVSPost2010PropOp28
 70
     0
102
RTVSPost2010Prop29
280
     1
102
RTVSPost2010PropOp29
 70
     0
102
RTVSPost2010Prop30
280
     1
102
RTVSPost2010PropOp30
 70
     0
102
RTVSPost2010Prop31
280
     0
102
RTVSPost2010PropOp31
 70
     0
102
RTVSPost2010Prop32
280
     0
102
RTVSPost2010PropOp32
 70
     0
102
RTVSPost2010Prop33
280
     0
102
RTVSPost2010PropOp33
 70
     0
102
RTVSPost2010Prop34
280
     0
102
RTVSPost2010PropOp34
 70
     0
102
RTVSPost2010Prop35
280
     0
102
RTVSPost2010PropOp35
 70
     0
102
RTVSPost2010Prop36
280
     0
102
RTVSPost2010PropOp36
 70
     0
102
RTVSPost2010Prop37
 90
       50
102
RTVSPost2010PropOp37
 70
     0
102
RTVSPost2010Prop38
140
0.0
102
RTVSPost2010PropOp38
 70
     0
102
RTVSPost2010Prop39
140
1.0
102
RTVSPost2010PropOp39
 70
     0
102
RTVSPost2010Prop40
 90
        0
102
RTVSPost2010PropOp40
 70
     0
102
RTVSPost2010Prop41ColorIndex
 90
       18
102
RTVSPost2010Prop41ColorRGB
 90
        0
102
RTVSPost2010PropOp41
 70
     0
102
RTVSPost2010Prop42
 90
       50
102
RTVSPost2010PropOp42
 70
     0
102
RTVSPost2010Prop43
 90
        3
102
RTVSPost2010PropOp43
 70
     0
102
RTVSPost2010Prop44ColorIndex
 90
        5
102
RTVSPost2010Prop44ColorRGB
 90
      255
102
RTVSPost2010PropOp44
 70
     0
102
RTVSPost2010Prop45
280
     0
102
RTVSPost2010PropOp45
 70
     0
102
RTVSPost2010Prop46
 90
       50
102
RTVSPost2010PropOp46
 70
     0
102
RTVSPost2010Prop47
 90
       50
102
RTVSPost2010PropOp47
 70
     0
102
RTVSPost2010Prop48
 90
       50
102
RTVSPost2010PropOp48
 70
     0
102
RTVSPost2010Prop49
280
     0
102
RTVSPost2010PropOp49
 70
     0
102
RTVSPost2010Prop50
 90
       50
102
RTVSPost2010PropOp50
 70
     0
102
RTVSPost2010Prop51ColorIndex
 90
      256
102
RTVSPost2010Prop51ColorRGB
 90
-16777216
102
RTVSPost2010PropOp51
 70
     0
102
RTVSPost2010Prop52
140
1.0
102
RTVSPost2010PropOp52
 70
     0
102
RTVSPost2010Prop53
 90
        2
102
RTVSPost2010PropOp53
 70
     0
102
RTVSPost2010Prop54
  1
strokes_ogs.tif
102
RTVSPost2010PropOp54
 70
     0
102
RTVSPost2010Prop55
280
     0
102
RTVSPost2010PropOp55
 70
     0
102
RTVSPost2010Prop56
140
1.0
102
RTVSPost2010PropOp56
 70
     0
102
RTVSPost2010Prop57
140
1.0
102
RTVSPost2010PropOp57
 70
     0
  0
XRECORD
  5
450
102
{ACAD_REACTORS
330
44F
102
}
330
44F
100
AcDbXrecord
280
     1
102
RTVSPropertyOp0
 70
     1
102
RTVSPropertyOp1
 70
     1
102
RTVSPropertyOp2
 70
     1
102
RTVSPropertyOp3
 70
     1
102
RTVSPropertyOp4
 70
     1
102
RTVSPropertyOp5
 70
     1
102
RTVSPropertyOp6
 70
     1
102
RTVSPropertyOp7
 70
     1
102
RTVSPropertyOp8
 70
     1
102
RTVSPropertyOp9
 70
     1
102
RTVSPropertyOp10
 70
     1
102
RTVSPropertyOp11
 70
     1
102
RTVSPropertyOp12
 70
     1
102
RTVSPropertyOp13
 70
     1
102
RTVSPropertyOp14
 70
     1
102
RTVSPropertyOp15
 70
     1
102
RTVSPropertyOp16
 70
     1
102
RTVSPropertyOp17
 70
     1
102
RTVSPropertyOp18
 70
     1
102
RTVSPropertyOp19
 70
     1
102
RTVSPropertyOp20
 70
     1
102
RTVSPropertyOp21
 70
     1
102
RTVSPropertyOp22
 70
     1
102
RTVSPropertyOp23
 70
     1
102
RTVSPropertyOp24
 70
     1
102
RTVSPropertyOp25
 70
     1
102
RTVSPropertyOp26
 70
     1
102
RTVSPropertyOp27
 70
     1
102
RTVSPropertyOp28
 70
     1
102
RTVSPropertyOp29
 70
     1
102
RTVSPropertyOp30
 70
     1
102
RTVSPropertyOp31
 70
     1
102
RTVSPropertyOp32
 70
     1
102
RTVSPropertyOp33
 70
     1
102
RTVSPropertyOp34
 70
     1
102
RTVSPropertyOp35
 70
     1
102
RTVSPropertyOp36
 70
     1
102
RTVSPropertyOp37
 70
     1
102
RTVSPropertyOp38
 70
     1
102
RTVSPropertyOp39
 70
     1
102
RTVSPropertyOp40
 70
     1
102
RTVSPropertyOp41
 70
     1
102
RTVSPropertyOp42
 70
     1
102
RTVSPropertyOp43
 70
     1
102
RTVSPropertyOp44
 70
     1
102
RTVSPropertyOp45
 70
     1
102
RTVSPropertyOp46
 70
     1
102
RTVSPropertyOp47
 70
     1
102
RTVSPropertyOp48
 70
     1
102
RTVSPropertyOp49
 70
     1
102
RTVSPropertyOp50
 70
     1
102
RTVSPropertyOp51
 70
     0
102
RTVSPropertyOp52
 70
     0
102
RTVSPropertyOp53
 70
     1
102
RTVSPropertyOp54
 70
     1
102
RTVSPropertyOp55
 70
     1
102
RTVSPropertyOp56
 70
     1
102
RTVSPropertyOp57
 70
     1
102
RTVSPost2010Prop28
280
     0
102
RTVSPost2010PropOp28
 70
     1
102
RTVSPost2010Prop29
280
     1
102
RTVSPost2010PropOp29
 70
     1
102
RTVSPost2010Prop30
280
     1
102
RTVSPost2010PropOp30
 70
     1
102
RTVSPost2010Prop31
280
     0
102
RTVSPost2010PropOp31
 70
     1
102
RTVSPost2010Prop32
280
     0
102
RTVSPost2010PropOp32
 70
     1
102
RTVSPost2010Prop33
280
     0
102
RTVSPost2010PropOp33
 70
     1
102
RTVSPost2010Prop34
280
     0
102
RTVSPost2010PropOp34
 70
     1
102
RTVSPost2010Prop35
280
     0
102
RTVSPost2010PropOp35
 70
     1
102
RTVSPost2010Prop36
280
     0
102
RTVSPost2010PropOp36
 70
     1
102
RTVSPost2010Prop37
 90
       50
102
RTVSPost2010PropOp37
 70
     1
102
RTVSPost2010Prop38
140
0.0
102
RTVSPost2010PropOp38
 70
     1
102
RTVSPost2010Prop39
140
1.0
102
RTVSPost2010PropOp39
 70
     1
102
RTVSPost2010Prop40
 90
        0
102
RTVSPost2010PropOp40
 70
     1
102
RTVSPost2010Prop41ColorIndex
 90
       18
102
RTVSPost2010Prop41ColorRGB
 90
        0
102
RTVSPost2010PropOp41
 70
     1
102
RTVSPost2010Prop42
 90
       50
102
RTVSPost2010PropOp42
 70
     1
102
RTVSPost2010Prop43
 90
        3
102
RTVSPost2010PropOp43
 70
     1
102
RTVSPost2010Prop44ColorIndex
 90
        5
102
RTVSPost2010Prop44ColorRGB
 90
      255
102
RTVSPost2010PropOp44
 70
     1
102
RTVSPost2010Prop45
280
     0
102
RTVSPost2010PropOp45
 70
     1
102
RTVSPost2010Prop46
 90
       50
102
RTVSPost2010PropOp46
 70
     1
102
RTVSPost2010Prop47
 90
       50
102
RTVSPost2010PropOp47
 70
     1
102
RTVSPost2010Prop48
 90
       50
102
RTVSPost2010PropOp48
 70
     1
102
RTVSPost2010Prop49
280
     0
102
RTVSPost2010PropOp49
 70
     1
102
RTVSPost2010Prop50
 90
       50
102
RTVSPost2010PropOp50
 70
     1
102
RTVSPost2010Prop51ColorIndex
 90
      256
102
RTVSPost2010Prop51ColorRGB
 90
-16777216
102
RTVSPost2010PropOp51
 70
     0
102
RTVSPost2010Prop52
140
1.0
102
RTVSPost2010PropOp52
 70
     0
102
RTVSPost2010Prop53
 90
        2
102
RTVSPost2010PropOp53
 70
     1
102
RTVSPost2010Prop54
  1
strokes_ogs.tif
102
RTVSPost2010PropOp54
 70
     1
102
RTVSPost2010Prop55
280
     0
102
RTVSPost2010PropOp55
 70
     1
102
RTVSPost2010Prop56
140
1.0
102
RTVSPost2010PropOp56
 70
     1
102
RTVSPost2010Prop57
140
1.0
102
RTVSPost2010PropOp57
 70
     1
  0
XRECORD
  5
434
102
{ACAD_REACTORS
330
433
102
}
330
433
100
AcDbXrecord
280
     1
102
RTVSPropertyOp0
 70
     1
102
RTVSPropertyOp1
 70
     1
102
RTVSPropertyOp2
 70
     1
102
RTVSPropertyOp3
 70
     1
102
RTVSPropertyOp4
 70
     1
102
RTVSPropertyOp5
 70
     1
102
RTVSPropertyOp6
 70
     1
102
RTVSPropertyOp7
 70
     1
102
RTVSPropertyOp8
 70
     1
102
RTVSPropertyOp9
 70
     1
102
RTVSPropertyOp10
 70
     1
102
RTVSPropertyOp11
 70
     1
102
RTVSPropertyOp12
 70
     1
102
RTVSPropertyOp13
 70
     1
102
RTVSPropertyOp14
 70
     1
102
RTVSPropertyOp15
 70
     1
102
RTVSPropertyOp16
 70
     1
102
RTVSPropertyOp17
 70
     1
102
RTVSPropertyOp18
 70
     1
102
RTVSPropertyOp19
 70
     1
102
RTVSPropertyOp20
 70
     1
102
RTVSPropertyOp21
 70
     1
102
RTVSPropertyOp22
 70
     1
102
RTVSPropertyOp23
 70
     1
102
RTVSPropertyOp24
 70
     1
102
RTVSPropertyOp25
 70
     1
102
RTVSPropertyOp26
 70
     1
102
RTVSPropertyOp27
 70
     1
102
RTVSPropertyOp28
 70
     1
102
RTVSPropertyOp29
 70
     1
102
RTVSPropertyOp30
 70
     1
102
RTVSPropertyOp31
 70
     1
102
RTVSPropertyOp32
 70
     1
102
RTVSPropertyOp33
 70
     1
102
RTVSPropertyOp34
 70
     1
102
RTVSPropertyOp35
 70
     1
102
RTVSPropertyOp36
 70
     1
102
RTVSPropertyOp37
 70
     1
102
RTVSPropertyOp38
 70
     1
102
RTVSPropertyOp39
 70
     1
102
RTVSPropertyOp40
 70
     1
102
RTVSPropertyOp41
 70
     1
102
RTVSPropertyOp42
 70
     1
102
RTVSPropertyOp43
 70
     1
102
RTVSPropertyOp44
 70
     1
102
RTVSPropertyOp45
 70
     1
102
RTVSPropertyOp46
 70
     1
102
RTVSPropertyOp47
 70
     1
102
RTVSPropertyOp48
 70
     1
102
RTVSPropertyOp49
 70
     1
102
RTVSPropertyOp50
 70
     1
102
RTVSPropertyOp51
 70
     0
102
RTVSPropertyOp52
 70
     0
102
RTVSPropertyOp53
 70
     1
102
RTVSPropertyOp54
 70
     1
102
RTVSPropertyOp55
 70
     1
102
RTVSPropertyOp56
 70
     1
102
RTVSPropertyOp57
 70
     1
102
RTVSPost2010Prop28
280
     0
102
RTVSPost2010PropOp28
 70
     1
102
RTVSPost2010Prop29
280
     1
102
RTVSPost2010PropOp29
 70
     1
102
RTVSPost2010Prop30
280
     1
102
RTVSPost2010PropOp30
 70
     1
102
RTVSPost2010Prop31
280
     0
102
RTVSPost2010PropOp31
 70
     1
102
RTVSPost2010Prop32
280
     0
102
RTVSPost2010PropOp32
 70
     1
102
RTVSPost2010Prop33
280
     0
102
RTVSPost2010PropOp33
 70
     1
102
RTVSPost2010Prop34
280
     0
102
RTVSPost2010PropOp34
 70
     1
102
RTVSPost2010Prop35
280
     0
102
RTVSPost2010PropOp35
 70
     1
102
RTVSPost2010Prop36
280
     0
102
RTVSPost2010PropOp36
 70
     1
102
RTVSPost2010Prop37
 90
       50
102
RTVSPost2010PropOp37
 70
     1
102
RTVSPost2010Prop38
140
0.0
102
RTVSPost2010PropOp38
 70
     1
102
RTVSPost2010Prop39
140
1.0
102
RTVSPost2010PropOp39
 70
     1
102
RTVSPost2010Prop40
 90
        0
102
RTVSPost2010PropOp40
 70
     1
102
RTVSPost2010Prop41ColorIndex
 90
       18
102
RTVSPost2010Prop41ColorRGB
 90
        0
102
RTVSPost2010PropOp41
 70
     1
102
RTVSPost2010Prop42
 90
       50
102
RTVSPost2010PropOp42
 70
     1
102
RTVSPost2010Prop43
 90
        3
102
RTVSPost2010PropOp43
 70
     1
102
RTVSPost2010Prop44ColorIndex
 90
        5
102
RTVSPost2010Prop44ColorRGB
 90
      255
102
RTVSPost2010PropOp44
 70
     1
102
RTVSPost2010Prop45
280
     0
102
RTVSPost2010PropOp45
 70
     1
102
RTVSPost2010Prop46
 90
       50
102
RTVSPost2010PropOp46
 70
     1
102
RTVSPost2010Prop47
 90
       50
102
RTVSPost2010PropOp47
 70
     1
102
RTVSPost2010Prop48
 90
       50
102
RTVSPost2010PropOp48
 70
     1
102
RTVSPost2010Prop49
280
     0
102
RTVSPost2010PropOp49
 70
     1
102
RTVSPost2010Prop50
 90
       50
102
RTVSPost2010PropOp50
 70
     1
102
RTVSPost2010Prop51ColorIndex
 90
      256
102
RTVSPost2010Prop51ColorRGB
 90
-16777216
102
RTVSPost2010PropOp51
 70
     0
102
RTVSPost2010Prop52
140
1.0
102
RTVSPost2010PropOp52
 70
     0
102
RTVSPost2010Prop53
 90
        2
102
RTVSPost2010PropOp53
 70
     1
102
RTVSPost2010Prop54
  1
strokes_ogs.tif
102
RTVSPost2010PropOp54
 70
     1
102
RTVSPost2010Prop55
280
     0
102
RTVSPost2010PropOp55
 70
     1
102
RTVSPost2010Prop56
140
1.0
102
RTVSPost2010PropOp56
 70
     1
102
RTVSPost2010Prop57
140
1.0
102
RTVSPost2010PropOp57
 70
     1
  0
XRECORD
  5
436
102
{ACAD_REACTORS
330
435
102
}
330
435
100
AcDbXrecord
280
     1
102
RTVSPropertyOp0
 70
     1
102
RTVSPropertyOp1
 70
     1
102
RTVSPropertyOp2
 70
     1
102
RTVSPropertyOp3
 70
     1
102
RTVSPropertyOp4
 70
     1
102
RTVSPropertyOp5
 70
     1
102
RTVSPropertyOp6
 70
     1
102
RTVSPropertyOp7
 70
     1
102
RTVSPropertyOp8
 70
     1
102
RTVSPropertyOp9
 70
     1
102
RTVSPropertyOp10
 70
     1
102
RTVSPropertyOp11
 70
     1
102
RTVSPropertyOp12
 70
     1
102
RTVSPropertyOp13
 70
     1
102
RTVSPropertyOp14
 70
     1
102
RTVSPropertyOp15
 70
     1
102
RTVSPropertyOp16
 70
     1
102
RTVSPropertyOp17
 70
     1
102
RTVSPropertyOp18
 70
     1
102
RTVSPropertyOp19
 70
     1
102
RTVSPropertyOp20
 70
     1
102
RTVSPropertyOp21
 70
     1
102
RTVSPropertyOp22
 70
     1
102
RTVSPropertyOp23
 70
     1
102
RTVSPropertyOp24
 70
     1
102
RTVSPropertyOp25
 70
     1
102
RTVSPropertyOp26
 70
     1
102
RTVSPropertyOp27
 70
     1
102
RTVSPropertyOp28
 70
     1
102
RTVSPropertyOp29
 70
     1
102
RTVSPropertyOp30
 70
     1
102
RTVSPropertyOp31
 70
     1
102
RTVSPropertyOp32
 70
     1
102
RTVSPropertyOp33
 70
     1
102
RTVSPropertyOp34
 70
     1
102
RTVSPropertyOp35
 70
     1
102
RTVSPropertyOp36
 70
     1
102
RTVSPropertyOp37
 70
     1
102
RTVSPropertyOp38
 70
     1
102
RTVSPropertyOp39
 70
     1
102
RTVSPropertyOp40
 70
     1
102
RTVSPropertyOp41
 70
     1
102
RTVSPropertyOp42
 70
     1
102
RTVSPropertyOp43
 70
     1
102
RTVSPropertyOp44
 70
     1
102
RTVSPropertyOp45
 70
     1
102
RTVSPropertyOp46
 70
     1
102
RTVSPropertyOp47
 70
     1
102
RTVSPropertyOp48
 70
     1
102
RTVSPropertyOp49
 70
     1
102
RTVSPropertyOp50
 70
     1
102
RTVSPropertyOp51
 70
     0
102
RTVSPropertyOp52
 70
     0
102
RTVSPropertyOp53
 70
     1
102
RTVSPropertyOp54
 70
     1
102
RTVSPropertyOp55
 70
     1
102
RTVSPropertyOp56
 70
     1
102
RTVSPropertyOp57
 70
     1
102
RTVSPost2010Prop28
280
     0
102
RTVSPost2010PropOp28
 70
     1
102
RTVSPost2010Prop29
280
     1
102
RTVSPost2010PropOp29
 70
     1
102
RTVSPost2010Prop30
280
     1
102
RTVSPost2010PropOp30
 70
     1
102
RTVSPost2010Prop31
280
     0
102
RTVSPost2010PropOp31
 70
     1
102
RTVSPost2010Prop32
280
     0
102
RTVSPost2010PropOp32
 70
     1
102
RTVSPost2010Prop33
280
     0
102
RTVSPost2010PropOp33
 70
     1
102
RTVSPost2010Prop34
280
     0
102
RTVSPost2010PropOp34
 70
     1
102
RTVSPost2010Prop35
280
     0
102
RTVSPost2010PropOp35
 70
     1
102
RTVSPost2010Prop36
280
     0
102
RTVSPost2010PropOp36
 70
     1
102
RTVSPost2010Prop37
 90
       50
102
RTVSPost2010PropOp37
 70
     1
102
RTVSPost2010Prop38
140
0.0
102
RTVSPost2010PropOp38
 70
     1
102
RTVSPost2010Prop39
140
1.0
102
RTVSPost2010PropOp39
 70
     1
102
RTVSPost2010Prop40
 90
        0
102
RTVSPost2010PropOp40
 70
     1
102
RTVSPost2010Prop41ColorIndex
 90
       18
102
RTVSPost2010Prop41ColorRGB
 90
        0
102
RTVSPost2010PropOp41
 70
     1
102
RTVSPost2010Prop42
 90
       50
102
RTVSPost2010PropOp42
 70
     1
102
RTVSPost2010Prop43
 90
        3
102
RTVSPost2010PropOp43
 70
     1
102
RTVSPost2010Prop44ColorIndex
 90
        5
102
RTVSPost2010Prop44ColorRGB
 90
      255
102
RTVSPost2010PropOp44
 70
     1
102
RTVSPost2010Prop45
280
     0
102
RTVSPost2010PropOp45
 70
     1
102
RTVSPost2010Prop46
 90
       50
102
RTVSPost2010PropOp46
 70
     1
102
RTVSPost2010Prop47
 90
       50
102
RTVSPost2010PropOp47
 70
     1
102
RTVSPost2010Prop48
 90
       50
102
RTVSPost2010PropOp48
 70
     1
102
RTVSPost2010Prop49
280
     0
102
RTVSPost2010PropOp49
 70
     1
102
RTVSPost2010Prop50
 90
       50
102
RTVSPost2010PropOp50
 70
     1
102
RTVSPost2010Prop51ColorIndex
 90
      256
102
RTVSPost2010Prop51ColorRGB
 90
-16777216
102
RTVSPost2010PropOp51
 70
     0
102
RTVSPost2010Prop52
140
1.0
102
RTVSPost2010PropOp52
 70
     0
102
RTVSPost2010Prop53
 90
        2
102
RTVSPost2010PropOp53
 70
     1
102
RTVSPost2010Prop54
  1
strokes_ogs.tif
102
RTVSPost2010PropOp54
 70
     1
102
RTVSPost2010Prop55
280
     0
102
RTVSPost2010PropOp55
 70
     1
102
RTVSPost2010Prop56
140
1.0
102
RTVSPost2010PropOp56
 70
     1
102
RTVSPost2010Prop57
140
1.0
102
RTVSPost2010PropOp57
 70
     1
  0
XRECORD
  5
438
102
{ACAD_REACTORS
330
437
102
}
330
437
100
AcDbXrecord
280
     1
102
RTVSPropertyOp0
 70
     1
102
RTVSPropertyOp1
 70
     1
102
RTVSPropertyOp2
 70
     1
102
RTVSPropertyOp3
 70
     1
102
RTVSPropertyOp4
 70
     1
102
RTVSPropertyOp5
 70
     1
102
RTVSPropertyOp6
 70
     1
102
RTVSPropertyOp7
 70
     1
102
RTVSPropertyOp8
 70
     1
102
RTVSPropertyOp9
 70
     1
102
RTVSPropertyOp10
 70
     1
102
RTVSPropertyOp11
 70
     1
102
RTVSPropertyOp12
 70
     1
102
RTVSPropertyOp13
 70
     1
102
RTVSPropertyOp14
 70
     1
102
RTVSPropertyOp15
 70
     1
102
RTVSPropertyOp16
 70
     1
102
RTVSPropertyOp17
 70
     1
102
RTVSPropertyOp18
 70
     1
102
RTVSPropertyOp19
 70
     1
102
RTVSPropertyOp20
 70
     1
102
RTVSPropertyOp21
 70
     1
102
RTVSPropertyOp22
 70
     1
102
RTVSPropertyOp23
 70
     1
102
RTVSPropertyOp24
 70
     1
102
RTVSPropertyOp25
 70
     1
102
RTVSPropertyOp26
 70
     1
102
RTVSPropertyOp27
 70
     1
102
RTVSPropertyOp28
 70
     1
102
RTVSPropertyOp29
 70
     1
102
RTVSPropertyOp30
 70
     1
102
RTVSPropertyOp31
 70
     1
102
RTVSPropertyOp32
 70
     1
102
RTVSPropertyOp33
 70
     1
102
RTVSPropertyOp34
 70
     1
102
RTVSPropertyOp35
 70
     1
102
RTVSPropertyOp36
 70
     1
102
RTVSPropertyOp37
 70
     1
102
RTVSPropertyOp38
 70
     1
102
RTVSPropertyOp39
 70
     1
102
RTVSPropertyOp40
 70
     1
102
RTVSPropertyOp41
 70
     1
102
RTVSPropertyOp42
 70
     1
102
RTVSPropertyOp43
 70
     1
102
RTVSPropertyOp44
 70
     1
102
RTVSPropertyOp45
 70
     1
102
RTVSPropertyOp46
 70
     1
102
RTVSPropertyOp47
 70
     1
102
RTVSPropertyOp48
 70
     1
102
RTVSPropertyOp49
 70
     1
102
RTVSPropertyOp50
 70
     1
102
RTVSPropertyOp51
 70
     0
102
RTVSPropertyOp52
 70
     0
102
RTVSPropertyOp53
 70
     1
102
RTVSPropertyOp54
 70
     1
102
RTVSPropertyOp55
 70
     1
102
RTVSPropertyOp56
 70
     1
102
RTVSPropertyOp57
 70
     1
102
RTVSPost2010Prop28
280
     0
102
RTVSPost2010PropOp28
 70
     1
102
RTVSPost2010Prop29
280
     1
102
RTVSPost2010PropOp29
 70
     1
102
RTVSPost2010Prop30
280
     1
102
RTVSPost2010PropOp30
 70
     1
102
RTVSPost2010Prop31
280
     0
102
RTVSPost2010PropOp31
 70
     1
102
RTVSPost2010Prop32
280
     0
102
RTVSPost2010PropOp32
 70
     1
102
RTVSPost2010Prop33
280
     0
102
RTVSPost2010PropOp33
 70
     1
102
RTVSPost2010Prop34
280
     0
102
RTVSPost2010PropOp34
 70
     1
102
RTVSPost2010Prop35
280
     0
102
RTVSPost2010PropOp35
 70
     1
102
RTVSPost2010Prop36
280
     0
102
RTVSPost2010PropOp36
 70
     1
102
RTVSPost2010Prop37
 90
       50
102
RTVSPost2010PropOp37
 70
     1
102
RTVSPost2010Prop38
140
0.0
102
RTVSPost2010PropOp38
 70
     1
102
RTVSPost2010Prop39
140
1.0
102
RTVSPost2010PropOp39
 70
     1
102
RTVSPost2010Prop40
 90
        0
102
RTVSPost2010PropOp40
 70
     1
102
RTVSPost2010Prop41ColorIndex
 90
       18
102
RTVSPost2010Prop41ColorRGB
 90
        0
102
RTVSPost2010PropOp41
 70
     1
102
RTVSPost2010Prop42
 90
       50
102
RTVSPost2010PropOp42
 70
     1
102
RTVSPost2010Prop43
 90
        3
102
RTVSPost2010PropOp43
 70
     1
102
RTVSPost2010Prop44ColorIndex
 90
        5
102
RTVSPost2010Prop44ColorRGB
 90
      255
102
RTVSPost2010PropOp44
 70
     1
102
RTVSPost2010Prop45
280
     0
102
RTVSPost2010PropOp45
 70
     1
102
RTVSPost2010Prop46
 90
       50
102
RTVSPost2010PropOp46
 70
     1
102
RTVSPost2010Prop47
 90
       50
102
RTVSPost2010PropOp47
 70
     1
102
RTVSPost2010Prop48
 90
       50
102
RTVSPost2010PropOp48
 70
     1
102
RTVSPost2010Prop49
280
     0
102
RTVSPost2010PropOp49
 70
     1
102
RTVSPost2010Prop50
 90
       50
102
RTVSPost2010PropOp50
 70
     1
102
RTVSPost2010Prop51ColorIndex
 90
      256
102
RTVSPost2010Prop51ColorRGB
 90
-16777216
102
RTVSPost2010PropOp51
 70
     0
102
RTVSPost2010Prop52
140
1.0
102
RTVSPost2010PropOp52
 70
     0
102
RTVSPost2010Prop53
 90
        2
102
RTVSPost2010PropOp53
 70
     1
102
RTVSPost2010Prop54
  1
strokes_ogs.tif
102
RTVSPost2010PropOp54
 70
     1
102
RTVSPost2010Prop55
280
     0
102
RTVSPost2010PropOp55
 70
     1
102
RTVSPost2010Prop56
140
1.0
102
RTVSPost2010PropOp56
 70
     1
102
RTVSPost2010Prop57
140
1.0
102
RTVSPost2010PropOp57
 70
     1
  0
XRECORD
  5
43A
102
{ACAD_REACTORS
330
439
102
}
330
439
100
AcDbXrecord
280
     1
102
RTVSPropertyOp0
 70
     1
102
RTVSPropertyOp1
 70
     1
102
RTVSPropertyOp2
 70
     1
102
RTVSPropertyOp3
 70
     1
102
RTVSPropertyOp4
 70
     1
102
RTVSPropertyOp5
 70
     1
102
RTVSPropertyOp6
 70
     1
102
RTVSPropertyOp7
 70
     1
102
RTVSPropertyOp8
 70
     1
102
RTVSPropertyOp9
 70
     1
102
RTVSPropertyOp10
 70
     1
102
RTVSPropertyOp11
 70
     1
102
RTVSPropertyOp12
 70
     1
102
RTVSPropertyOp13
 70
     1
102
RTVSPropertyOp14
 70
     1
102
RTVSPropertyOp15
 70
     1
102
RTVSPropertyOp16
 70
     1
102
RTVSPropertyOp17
 70
     1
102
RTVSPropertyOp18
 70
     1
102
RTVSPropertyOp19
 70
     1
102
RTVSPropertyOp20
 70
     1
102
RTVSPropertyOp21
 70
     1
102
RTVSPropertyOp22
 70
     1
102
RTVSPropertyOp23
 70
     1
102
RTVSPropertyOp24
 70
     1
102
RTVSPropertyOp25
 70
     1
102
RTVSPropertyOp26
 70
     1
102
RTVSPropertyOp27
 70
     1
102
RTVSPropertyOp28
 70
     1
102
RTVSPropertyOp29
 70
     1
102
RTVSPropertyOp30
 70
     1
102
RTVSPropertyOp31
 70
     1
102
RTVSPropertyOp32
 70
     1
102
RTVSPropertyOp33
 70
     1
102
RTVSPropertyOp34
 70
     1
102
RTVSPropertyOp35
 70
     1
102
RTVSPropertyOp36
 70
     1
102
RTVSPropertyOp37
 70
     1
102
RTVSPropertyOp38
 70
     1
102
RTVSPropertyOp39
 70
     1
102
RTVSPropertyOp40
 70
     1
102
RTVSPropertyOp41
 70
     1
102
RTVSPropertyOp42
 70
     1
102
RTVSPropertyOp43
 70
     1
102
RTVSPropertyOp44
 70
     1
102
RTVSPropertyOp45
 70
     1
102
RTVSPropertyOp46
 70
     1
102
RTVSPropertyOp47
 70
     1
102
RTVSPropertyOp48
 70
     1
102
RTVSPropertyOp49
 70
     1
102
RTVSPropertyOp50
 70
     1
102
RTVSPropertyOp51
 70
     0
102
RTVSPropertyOp52
 70
     0
102
RTVSPropertyOp53
 70
     1
102
RTVSPropertyOp54
 70
     1
102
RTVSPropertyOp55
 70
     1
102
RTVSPropertyOp56
 70
     1
102
RTVSPropertyOp57
 70
     1
102
RTVSPost2010Prop28
280
     0
102
RTVSPost2010PropOp28
 70
     1
102
RTVSPost2010Prop29
280
     1
102
RTVSPost2010PropOp29
 70
     1
102
RTVSPost2010Prop30
280
     1
102
RTVSPost2010PropOp30
 70
     1
102
RTVSPost2010Prop31
280
     0
102
RTVSPost2010PropOp31
 70
     1
102
RTVSPost2010Prop32
280
     0
102
RTVSPost2010PropOp32
 70
     1
102
RTVSPost2010Prop33
280
     0
102
RTVSPost2010PropOp33
 70
     1
102
RTVSPost2010Prop34
280
     0
102
RTVSPost2010PropOp34
 70
     1
102
RTVSPost2010Prop35
280
     0
102
RTVSPost2010PropOp35
 70
     1
102
RTVSPost2010Prop36
280
     0
102
RTVSPost2010PropOp36
 70
     1
102
RTVSPost2010Prop37
 90
       50
102
RTVSPost2010PropOp37
 70
     1
102
RTVSPost2010Prop38
140
0.0
102
RTVSPost2010PropOp38
 70
     1
102
RTVSPost2010Prop39
140
1.0
102
RTVSPost2010PropOp39
 70
     1
102
RTVSPost2010Prop40
 90
        0
102
RTVSPost2010PropOp40
 70
     1
102
RTVSPost2010Prop41ColorIndex
 90
       18
102
RTVSPost2010Prop41ColorRGB
 90
        0
102
RTVSPost2010PropOp41
 70
     1
102
RTVSPost2010Prop42
 90
       50
102
RTVSPost2010PropOp42
 70
     1
102
RTVSPost2010Prop43
 90
        3
102
RTVSPost2010PropOp43
 70
     1
102
RTVSPost2010Prop44ColorIndex
 90
        5
102
RTVSPost2010Prop44ColorRGB
 90
      255
102
RTVSPost2010PropOp44
 70
     1
102
RTVSPost2010Prop45
280
     0
102
RTVSPost2010PropOp45
 70
     1
102
RTVSPost2010Prop46
 90
       50
102
RTVSPost2010PropOp46
 70
     1
102
RTVSPost2010Prop47
 90
       50
102
RTVSPost2010PropOp47
 70
     1
102
RTVSPost2010Prop48
 90
       50
102
RTVSPost2010PropOp48
 70
     1
102
RTVSPost2010Prop49
280
     0
102
RTVSPost2010PropOp49
 70
     1
102
RTVSPost2010Prop50
 90
       50
102
RTVSPost2010PropOp50
 70
     1
102
RTVSPost2010Prop51ColorIndex
 90
      256
102
RTVSPost2010Prop51ColorRGB
 90
-16777216
102
RTVSPost2010PropOp51
 70
     0
102
RTVSPost2010Prop52
140
1.0
102
RTVSPost2010PropOp52
 70
     0
102
RTVSPost2010Prop53
 90
        2
102
RTVSPost2010PropOp53
 70
     1
102
RTVSPost2010Prop54
  1
strokes_ogs.tif
102
RTVSPost2010PropOp54
 70
     1
102
RTVSPost2010Prop55
280
     0
102
RTVSPost2010PropOp55
 70
     1
102
RTVSPost2010Prop56
140
1.0
102
RTVSPost2010PropOp56
 70
     1
102
RTVSPost2010Prop57
140
1.0
102
RTVSPost2010PropOp57
 70
     1
  0
XRECORD
  5
440
102
{ACAD_REACTORS
330
43F
102
}
330
43F
100
AcDbXrecord
280
     1
102
RTVSPropertyOp0
 70
     1
102
RTVSPropertyOp1
 70
     1
102
RTVSPropertyOp2
 70
     1
102
RTVSPropertyOp3
 70
     1
102
RTVSPropertyOp4
 70
     1
102
RTVSPropertyOp5
 70
     1
102
RTVSPropertyOp6
 70
     1
102
RTVSPropertyOp7
 70
     1
102
RTVSPropertyOp8
 70
     1
102
RTVSPropertyOp9
 70
     1
102
RTVSPropertyOp10
 70
     1
102
RTVSPropertyOp11
 70
     1
102
RTVSPropertyOp12
 70
     1
102
RTVSPropertyOp13
 70
     1
102
RTVSPropertyOp14
 70
     1
102
RTVSPropertyOp15
 70
     1
102
RTVSPropertyOp16
 70
     1
102
RTVSPropertyOp17
 70
     1
102
RTVSPropertyOp18
 70
     1
102
RTVSPropertyOp19
 70
     1
102
RTVSPropertyOp20
 70
     1
102
RTVSPropertyOp21
 70
     1
102
RTVSPropertyOp22
 70
     1
102
RTVSPropertyOp23
 70
     1
102
RTVSPropertyOp24
 70
     1
102
RTVSPropertyOp25
 70
     1
102
RTVSPropertyOp26
 70
     1
102
RTVSPropertyOp27
 70
     1
102
RTVSPropertyOp28
 70
     1
102
RTVSPropertyOp29
 70
     1
102
RTVSPropertyOp30
 70
     1
102
RTVSPropertyOp31
 70
     1
102
RTVSPropertyOp32
 70
     1
102
RTVSPropertyOp33
 70
     1
102
RTVSPropertyOp34
 70
     1
102
RTVSPropertyOp35
 70
     1
102
RTVSPropertyOp36
 70
     1
102
RTVSPropertyOp37
 70
     1
102
RTVSPropertyOp38
 70
     1
102
RTVSPropertyOp39
 70
     1
102
RTVSPropertyOp40
 70
     1
102
RTVSPropertyOp41
 70
     1
102
RTVSPropertyOp42
 70
     1
102
RTVSPropertyOp43
 70
     1
102
RTVSPropertyOp44
 70
     1
102
RTVSPropertyOp45
 70
     1
102
RTVSPropertyOp46
 70
     1
102
RTVSPropertyOp47
 70
     1
102
RTVSPropertyOp48
 70
     1
102
RTVSPropertyOp49
 70
     1
102
RTVSPropertyOp50
 70
     1
102
RTVSPropertyOp51
 70
     0
102
RTVSPropertyOp52
 70
     0
102
RTVSPropertyOp53
 70
     1
102
RTVSPropertyOp54
 70
     1
102
RTVSPropertyOp55
 70
     1
102
RTVSPropertyOp56
 70
     1
102
RTVSPropertyOp57
 70
     1
102
RTVSPost2010Prop28
280
     0
102
RTVSPost2010PropOp28
 70
     1
102
RTVSPost2010Prop29
280
     1
102
RTVSPost2010PropOp29
 70
     1
102
RTVSPost2010Prop30
280
     1
102
RTVSPost2010PropOp30
 70
     1
102
RTVSPost2010Prop31
280
     0
102
RTVSPost2010PropOp31
 70
     1
102
RTVSPost2010Prop32
280
     0
102
RTVSPost2010PropOp32
 70
     1
102
RTVSPost2010Prop33
280
     0
102
RTVSPost2010PropOp33
 70
     1
102
RTVSPost2010Prop34
280
     0
102
RTVSPost2010PropOp34
 70
     1
102
RTVSPost2010Prop35
280
     0
102
RTVSPost2010PropOp35
 70
     1
102
RTVSPost2010Prop36
280
     0
102
RTVSPost2010PropOp36
 70
     1
102
RTVSPost2010Prop37
 90
       50
102
RTVSPost2010PropOp37
 70
     1
102
RTVSPost2010Prop38
140
0.0
102
RTVSPost2010PropOp38
 70
     1
102
RTVSPost2010Prop39
140
1.0
102
RTVSPost2010PropOp39
 70
     1
102
RTVSPost2010Prop40
 90
        0
102
RTVSPost2010PropOp40
 70
     1
102
RTVSPost2010Prop41ColorIndex
 90
       18
102
RTVSPost2010Prop41ColorRGB
 90
        0
102
RTVSPost2010PropOp41
 70
     1
102
RTVSPost2010Prop42
 90
       50
102
RTVSPost2010PropOp42
 70
     1
102
RTVSPost2010Prop43
 90
        3
102
RTVSPost2010PropOp43
 70
     1
102
RTVSPost2010Prop44ColorIndex
 90
        5
102
RTVSPost2010Prop44ColorRGB
 90
      255
102
RTVSPost2010PropOp44
 70
     1
102
RTVSPost2010Prop45
280
     0
102
RTVSPost2010PropOp45
 70
     1
102
RTVSPost2010Prop46
 90
       50
102
RTVSPost2010PropOp46
 70
     1
102
RTVSPost2010Prop47
 90
       50
102
RTVSPost2010PropOp47
 70
     1
102
RTVSPost2010Prop48
 90
       50
102
RTVSPost2010PropOp48
 70
     1
102
RTVSPost2010Prop49
280
     0
102
RTVSPost2010PropOp49
 70
     1
102
RTVSPost2010Prop50
 90
       50
102
RTVSPost2010PropOp50
 70
     1
102
RTVSPost2010Prop51ColorIndex
 90
      256
102
RTVSPost2010Prop51ColorRGB
 90
-16777216
102
RTVSPost2010PropOp51
 70
     0
102
RTVSPost2010Prop52
140
1.0
102
RTVSPost2010PropOp52
 70
     0
102
RTVSPost2010Prop53
 90
        2
102
RTVSPost2010PropOp53
 70
     1
102
RTVSPost2010Prop54
  1
strokes_ogs.tif
102
RTVSPost2010PropOp54
 70
     1
102
RTVSPost2010Prop55
280
     0
102
RTVSPost2010PropOp55
 70
     1
102
RTVSPost2010Prop56
140
1.0
102
RTVSPost2010PropOp56
 70
     1
102
RTVSPost2010Prop57
140
1.0
102
RTVSPost2010PropOp57
 70
     1
  0
XRECORD
  5
454
102
{ACAD_REACTORS
330
453
102
}
330
453
100
AcDbXrecord
280
     1
102
RTVSPropertyOp0
 70
     0
102
RTVSPropertyOp1
 70
     0
102
RTVSPropertyOp2
 70
     0
102
RTVSPropertyOp3
 70
     0
102
RTVSPropertyOp4
 70
     0
102
RTVSPropertyOp5
 70
     0
102
RTVSPropertyOp6
 70
     0
102
RTVSPropertyOp7
 70
     0
102
RTVSPropertyOp8
 70
     0
102
RTVSPropertyOp9
 70
     0
102
RTVSPropertyOp10
 70
     0
102
RTVSPropertyOp11
 70
     0
102
RTVSPropertyOp12
 70
     0
102
RTVSPropertyOp13
 70
     0
102
RTVSPropertyOp14
 70
     2
102
RTVSPropertyOp15
 70
     0
102
RTVSPropertyOp16
 70
     0
102
RTVSPropertyOp17
 70
     0
102
RTVSPropertyOp18
 70
     0
102
RTVSPropertyOp19
 70
     0
102
RTVSPropertyOp20
 70
     0
102
RTVSPropertyOp21
 70
     0
102
RTVSPropertyOp22
 70
     0
102
RTVSPropertyOp23
 70
     0
102
RTVSPropertyOp24
 70
     0
102
RTVSPropertyOp25
 70
     0
102
RTVSPropertyOp26
 70
     0
102
RTVSPropertyOp27
 70
     0
102
RTVSPropertyOp28
 70
     0
102
RTVSPropertyOp29
 70
     0
102
RTVSPropertyOp30
 70
     0
102
RTVSPropertyOp31
 70
     0
102
RTVSPropertyOp32
 70
     0
102
RTVSPropertyOp33
 70
     0
102
RTVSPropertyOp34
 70
     0
102
RTVSPropertyOp35
 70
     0
102
RTVSPropertyOp36
 70
     0
102
RTVSPropertyOp37
 70
     0
102
RTVSPropertyOp38
 70
     0
102
RTVSPropertyOp39
 70
     0
102
RTVSPropertyOp40
 70
     0
102
RTVSPropertyOp41
 70
     0
102
RTVSPropertyOp42
 70
     0
102
RTVSPropertyOp43
 70
     0
102
RTVSPropertyOp44
 70
     0
102
RTVSPropertyOp45
 70
     0
102
RTVSPropertyOp46
 70
     0
102
RTVSPropertyOp47
 70
     0
102
RTVSPropertyOp48
 70
     0
102
RTVSPropertyOp49
 70
     0
102
RTVSPropertyOp50
 70
     0
102
RTVSPropertyOp51
 70
     0
102
RTVSPropertyOp52
 70
     0
102
RTVSPropertyOp53
 70
     0
102
RTVSPropertyOp54
 70
     0
102
RTVSPropertyOp55
 70
     0
102
RTVSPropertyOp56
 70
     0
102
RTVSPropertyOp57
 70
     0
102
RTVSPost2010Prop28
280
     0
102
RTVSPost2010PropOp28
 70
     0
102
RTVSPost2010Prop29
280
     1
102
RTVSPost2010PropOp29
 70
     0
102
RTVSPost2010Prop30
280
     1
102
RTVSPost2010PropOp30
 70
     0
102
RTVSPost2010Prop31
280
     0
102
RTVSPost2010PropOp31
 70
     0
102
RTVSPost2010Prop32
280
     0
102
RTVSPost2010PropOp32
 70
     0
102
RTVSPost2010Prop33
280
     0
102
RTVSPost2010PropOp33
 70
     0
102
RTVSPost2010Prop34
280
     0
102
RTVSPost2010PropOp34
 70
     0
102
RTVSPost2010Prop35
280
     0
102
RTVSPost2010PropOp35
 70
     0
102
RTVSPost2010Prop36
280
     0
102
RTVSPost2010PropOp36
 70
     0
102
RTVSPost2010Prop37
 90
       50
102
RTVSPost2010PropOp37
 70
     0
102
RTVSPost2010Prop38
140
0.0
102
RTVSPost2010PropOp38
 70
     0
102
RTVSPost2010Prop39
140
1.0
102
RTVSPost2010PropOp39
 70
     0
102
RTVSPost2010Prop40
 90
        0
102
RTVSPost2010PropOp40
 70
     0
102
RTVSPost2010Prop41ColorIndex
 90
       18
102
RTVSPost2010Prop41ColorRGB
 90
        0
102
RTVSPost2010PropOp41
 70
     0
102
RTVSPost2010Prop42
 90
       50
102
RTVSPost2010PropOp42
 70
     0
102
RTVSPost2010Prop43
 90
        3
102
RTVSPost2010PropOp43
 70
     0
102
RTVSPost2010Prop44ColorIndex
 90
        5
102
RTVSPost2010Prop44ColorRGB
 90
      255
102
RTVSPost2010PropOp44
 70
     0
102
RTVSPost2010Prop45
280
     0
102
RTVSPost2010PropOp45
 70
     0
102
RTVSPost2010Prop46
 90
       50
102
RTVSPost2010PropOp46
 70
     0
102
RTVSPost2010Prop47
 90
       50
102
RTVSPost2010PropOp47
 70
     0
102
RTVSPost2010Prop48
 90
       50
102
RTVSPost2010PropOp48
 70
     0
102
RTVSPost2010Prop49
280
     0
102
RTVSPost2010PropOp49
 70
     0
102
RTVSPost2010Prop50
 90
       50
102
RTVSPost2010PropOp50
 70
     0
102
RTVSPost2010Prop51ColorIndex
 90
      256
102
RTVSPost2010Prop51ColorRGB
 90
-16777216
102
RTVSPost2010PropOp51
 70
     0
102
RTVSPost2010Prop52
140
1.0
102
RTVSPost2010PropOp52
 70
     0
102
RTVSPost2010Prop53
 90
        2
102
RTVSPost2010PropOp53
 70
     0
102
RTVSPost2010Prop54
  1
strokes_ogs.tif
102
RTVSPost2010PropOp54
 70
     0
102
RTVSPost2010Prop55
280
     0
102
RTVSPost2010PropOp55
 70
     0
102
RTVSPost2010Prop56
140
1.0
102
RTVSPost2010PropOp56
 70
     0
102
RTVSPost2010Prop57
140
1.0
102
RTVSPost2010PropOp57
 70
     0
  0
XRECORD
  5
44E
102
{ACAD_REACTORS
330
44D
102
}
330
44D
100
AcDbXrecord
280
     1
102
RTVSPropertyOp0
 70
     1
102
RTVSPropertyOp1
 70
     1
102
RTVSPropertyOp2
 70
     1
102
RTVSPropertyOp3
 70
     1
102
RTVSPropertyOp4
 70
     1
102
RTVSPropertyOp5
 70
     1
102
RTVSPropertyOp6
 70
     1
102
RTVSPropertyOp7
 70
     1
102
RTVSPropertyOp8
 70
     1
102
RTVSPropertyOp9
 70
     1
102
RTVSPropertyOp10
 70
     1
102
RTVSPropertyOp11
 70
     1
102
RTVSPropertyOp12
 70
     1
102
RTVSPropertyOp13
 70
     1
102
RTVSPropertyOp14
 70
     1
102
RTVSPropertyOp15
 70
     1
102
RTVSPropertyOp16
 70
     1
102
RTVSPropertyOp17
 70
     1
102
RTVSPropertyOp18
 70
     1
102
RTVSPropertyOp19
 70
     1
102
RTVSPropertyOp20
 70
     1
102
RTVSPropertyOp21
 70
     1
102
RTVSPropertyOp22
 70
     1
102
RTVSPropertyOp23
 70
     1
102
RTVSPropertyOp24
 70
     1
102
RTVSPropertyOp25
 70
     1
102
RTVSPropertyOp26
 70
     1
102
RTVSPropertyOp27
 70
     1
102
RTVSPropertyOp28
 70
     1
102
RTVSPropertyOp29
 70
     1
102
RTVSPropertyOp30
 70
     1
102
RTVSPropertyOp31
 70
     1
102
RTVSPropertyOp32
 70
     1
102
RTVSPropertyOp33
 70
     1
102
RTVSPropertyOp34
 70
     1
102
RTVSPropertyOp35
 70
     1
102
RTVSPropertyOp36
 70
     1
102
RTVSPropertyOp37
 70
     1
102
RTVSPropertyOp38
 70
     1
102
RTVSPropertyOp39
 70
     1
102
RTVSPropertyOp40
 70
     1
102
RTVSPropertyOp41
 70
     1
102
RTVSPropertyOp42
 70
     1
102
RTVSPropertyOp43
 70
     1
102
RTVSPropertyOp44
 70
     1
102
RTVSPropertyOp45
 70
     1
102
RTVSPropertyOp46
 70
     1
102
RTVSPropertyOp47
 70
     1
102
RTVSPropertyOp48
 70
     1
102
RTVSPropertyOp49
 70
     1
102
RTVSPropertyOp50
 70
     1
102
RTVSPropertyOp51
 70
     0
102
RTVSPropertyOp52
 70
     0
102
RTVSPropertyOp53
 70
     1
102
RTVSPropertyOp54
 70
     1
102
RTVSPropertyOp55
 70
     1
102
RTVSPropertyOp56
 70
     1
102
RTVSPropertyOp57
 70
     1
102
RTVSPost2010Prop28
280
     0
102
RTVSPost2010PropOp28
 70
     1
102
RTVSPost2010Prop29
280
     1
102
RTVSPost2010PropOp29
 70
     1
102
RTVSPost2010Prop30
280
     1
102
RTVSPost2010PropOp30
 70
     1
102
RTVSPost2010Prop31
280
     0
102
RTVSPost2010PropOp31
 70
     1
102
RTVSPost2010Prop32
280
     0
102
RTVSPost2010PropOp32
 70
     1
102
RTVSPost2010Prop33
280
     0
102
RTVSPost2010PropOp33
 70
     1
102
RTVSPost2010Prop34
280
     0
102
RTVSPost2010PropOp34
 70
     1
102
RTVSPost2010Prop35
280
     0
102
RTVSPost2010PropOp35
 70
     1
102
RTVSPost2010Prop36
280
     0
102
RTVSPost2010PropOp36
 70
     1
102
RTVSPost2010Prop37
 90
       50
102
RTVSPost2010PropOp37
 70
     1
102
RTVSPost2010Prop38
140
0.0
102
RTVSPost2010PropOp38
 70
     1
102
RTVSPost2010Prop39
140
1.0
102
RTVSPost2010PropOp39
 70
     1
102
RTVSPost2010Prop40
 90
        0
102
RTVSPost2010PropOp40
 70
     1
102
RTVSPost2010Prop41ColorIndex
 90
       18
102
RTVSPost2010Prop41ColorRGB
 90
        0
102
RTVSPost2010PropOp41
 70
     1
102
RTVSPost2010Prop42
 90
       50
102
RTVSPost2010PropOp42
 70
     1
102
RTVSPost2010Prop43
 90
        3
102
RTVSPost2010PropOp43
 70
     1
102
RTVSPost2010Prop44ColorIndex
 90
        5
102
RTVSPost2010Prop44ColorRGB
 90
      255
102
RTVSPost2010PropOp44
 70
     1
102
RTVSPost2010Prop45
280
     0
102
RTVSPost2010PropOp45
 70
     1
102
RTVSPost2010Prop46
 90
       50
102
RTVSPost2010PropOp46
 70
     1
102
RTVSPost2010Prop47
 90
       50
102
RTVSPost2010PropOp47
 70
     1
102
RTVSPost2010Prop48
 90
       50
102
RTVSPost2010PropOp48
 70
     1
102
RTVSPost2010Prop49
280
     0
102
RTVSPost2010PropOp49
 70
     1
102
RTVSPost2010Prop50
 90
       50
102
RTVSPost2010PropOp50
 70
     1
102
RTVSPost2010Prop51ColorIndex
 90
      256
102
RTVSPost2010Prop51ColorRGB
 90
-16777216
102
RTVSPost2010PropOp51
 70
     0
102
RTVSPost2010Prop52
140
1.0
102
RTVSPost2010PropOp52
 70
     0
102
RTVSPost2010Prop53
 90
        2
102
RTVSPost2010PropOp53
 70
     1
102
RTVSPost2010Prop54
  1
strokes_ogs.tif
102
RTVSPost2010PropOp54
 70
     1
102
RTVSPost2010Prop55
280
     0
102
RTVSPost2010PropOp55
 70
     1
102
RTVSPost2010Prop56
140
1.0
102
RTVSPost2010PropOp56
 70
     1
102
RTVSPost2010Prop57
140
1.0
102
RTVSPost2010PropOp57
 70
     1
  0
XRECORD
  5
456
102
{ACAD_REACTORS
330
455
102
}
330
455
100
AcDbXrecord
280
     1
102
RTVSPropertyOp0
 70
     0
102
RTVSPropertyOp1
 70
     0
102
RTVSPropertyOp2
 70
     0
102
RTVSPropertyOp3
 70
     0
102
RTVSPropertyOp4
 70
     0
102
RTVSPropertyOp5
 70
     0
102
RTVSPropertyOp6
 70
     0
102
RTVSPropertyOp7
 70
     0
102
RTVSPropertyOp8
 70
     0
102
RTVSPropertyOp9
 70
     0
102
RTVSPropertyOp10
 70
     0
102
RTVSPropertyOp11
 70
     0
102
RTVSPropertyOp12
 70
     0
102
RTVSPropertyOp13
 70
     0
102
RTVSPropertyOp14
 70
     2
102
RTVSPropertyOp15
 70
     0
102
RTVSPropertyOp16
 70
     0
102
RTVSPropertyOp17
 70
     0
102
RTVSPropertyOp18
 70
     0
102
RTVSPropertyOp19
 70
     0
102
RTVSPropertyOp20
 70
     0
102
RTVSPropertyOp21
 70
     0
102
RTVSPropertyOp22
 70
     0
102
RTVSPropertyOp23
 70
     0
102
RTVSPropertyOp24
 70
     0
102
RTVSPropertyOp25
 70
     0
102
RTVSPropertyOp26
 70
     0
102
RTVSPropertyOp27
 70
     0
102
RTVSPropertyOp28
 70
     0
102
RTVSPropertyOp29
 70
     0
102
RTVSPropertyOp30
 70
     0
102
RTVSPropertyOp31
 70
     0
102
RTVSPropertyOp32
 70
     0
102
RTVSPropertyOp33
 70
     0
102
RTVSPropertyOp34
 70
     0
102
RTVSPropertyOp35
 70
     0
102
RTVSPropertyOp36
 70
     0
102
RTVSPropertyOp37
 70
     0
102
RTVSPropertyOp38
 70
     0
102
RTVSPropertyOp39
 70
     0
102
RTVSPropertyOp40
 70
     0
102
RTVSPropertyOp41
 70
     0
102
RTVSPropertyOp42
 70
     0
102
RTVSPropertyOp43
 70
     0
102
RTVSPropertyOp44
 70
     0
102
RTVSPropertyOp45
 70
     0
102
RTVSPropertyOp46
 70
     0
102
RTVSPropertyOp47
 70
     0
102
RTVSPropertyOp48
 70
     0
102
RTVSPropertyOp49
 70
     0
102
RTVSPropertyOp50
 70
     0
102
RTVSPropertyOp51
 70
     0
102
RTVSPropertyOp52
 70
     0
102
RTVSPropertyOp53
 70
     0
102
RTVSPropertyOp54
 70
     0
102
RTVSPropertyOp55
 70
     0
102
RTVSPropertyOp56
 70
     0
102
RTVSPropertyOp57
 70
     0
102
RTVSPost2010Prop28
280
     0
102
RTVSPost2010PropOp28
 70
     0
102
RTVSPost2010Prop29
280
     1
102
RTVSPost2010PropOp29
 70
     0
102
RTVSPost2010Prop30
280
     1
102
RTVSPost2010PropOp30
 70
     0
102
RTVSPost2010Prop31
280
     0
102
RTVSPost2010PropOp31
 70
     0
102
RTVSPost2010Prop32
280
     0
102
RTVSPost2010PropOp32
 70
     0
102
RTVSPost2010Prop33
280
     0
102
RTVSPost2010PropOp33
 70
     0
102
RTVSPost2010Prop34
280
     0
102
RTVSPost2010PropOp34
 70
     0
102
RTVSPost2010Prop35
280
     0
102
RTVSPost2010PropOp35
 70
     0
102
RTVSPost2010Prop36
280
     0
102
RTVSPost2010PropOp36
 70
     0
102
RTVSPost2010Prop37
 90
       50
102
RTVSPost2010PropOp37
 70
     0
102
RTVSPost2010Prop38
140
0.0
102
RTVSPost2010PropOp38
 70
     0
102
RTVSPost2010Prop39
140
1.0
102
RTVSPost2010PropOp39
 70
     0
102
RTVSPost2010Prop40
 90
        0
102
RTVSPost2010PropOp40
 70
     0
102
RTVSPost2010Prop41ColorIndex
 90
       18
102
RTVSPost2010Prop41ColorRGB
 90
        0
102
RTVSPost2010PropOp41
 70
     0
102
RTVSPost2010Prop42
 90
       50
102
RTVSPost2010PropOp42
 70
     0
102
RTVSPost2010Prop43
 90
        3
102
RTVSPost2010PropOp43
 70
     0
102
RTVSPost2010Prop44ColorIndex
 90
        5
102
RTVSPost2010Prop44ColorRGB
 90
      255
102
RTVSPost2010PropOp44
 70
     0
102
RTVSPost2010Prop45
280
     0
102
RTVSPost2010PropOp45
 70
     0
102
RTVSPost2010Prop46
 90
       50
102
RTVSPost2010PropOp46
 70
     0
102
RTVSPost2010Prop47
 90
       50
102
RTVSPost2010PropOp47
 70
     0
102
RTVSPost2010Prop48
 90
       50
102
RTVSPost2010PropOp48
 70
     0
102
RTVSPost2010Prop49
280
     0
102
RTVSPost2010PropOp49
 70
     0
102
RTVSPost2010Prop50
 90
       50
102
RTVSPost2010PropOp50
 70
     0
102
RTVSPost2010Prop51ColorIndex
 90
      256
102
RTVSPost2010Prop51ColorRGB
 90
-16777216
102
RTVSPost2010PropOp51
 70
     0
102
RTVSPost2010Prop52
140
1.0
102
RTVSPost2010PropOp52
 70
     0
102
RTVSPost2010Prop53
 90
        2
102
RTVSPost2010PropOp53
 70
     0
102
RTVSPost2010Prop54
  1
strokes_ogs.tif
102
RTVSPost2010PropOp54
 70
     0
102
RTVSPost2010Prop55
280
     0
102
RTVSPost2010PropOp55
 70
     0
102
RTVSPost2010Prop56
140
1.0
102
RTVSPost2010PropOp56
 70
     0
102
RTVSPost2010Prop57
140
1.0
102
RTVSPost2010PropOp57
 70
     0
  0
XRECORD
  5
444
102
{ACAD_REACTORS
330
443
102
}
330
443
100
AcDbXrecord
280
     1
102
RTVSPropertyOp0
 70
     1
102
RTVSPropertyOp1
 70
     1
102
RTVSPropertyOp2
 70
     1
102
RTVSPropertyOp3
 70
     1
102
RTVSPropertyOp4
 70
     1
102
RTVSPropertyOp5
 70
     1
102
RTVSPropertyOp6
 70
     1
102
RTVSPropertyOp7
 70
     1
102
RTVSPropertyOp8
 70
     1
102
RTVSPropertyOp9
 70
     1
102
RTVSPropertyOp10
 70
     1
102
RTVSPropertyOp11
 70
     1
102
RTVSPropertyOp12
 70
     1
102
RTVSPropertyOp13
 70
     1
102
RTVSPropertyOp14
 70
     1
102
RTVSPropertyOp15
 70
     1
102
RTVSPropertyOp16
 70
     1
102
RTVSPropertyOp17
 70
     1
102
RTVSPropertyOp18
 70
     1
102
RTVSPropertyOp19
 70
     1
102
RTVSPropertyOp20
 70
     1
102
RTVSPropertyOp21
 70
     1
102
RTVSPropertyOp22
 70
     1
102
RTVSPropertyOp23
 70
     1
102
RTVSPropertyOp24
 70
     1
102
RTVSPropertyOp25
 70
     1
102
RTVSPropertyOp26
 70
     1
102
RTVSPropertyOp27
 70
     1
102
RTVSPropertyOp28
 70
     1
102
RTVSPropertyOp29
 70
     1
102
RTVSPropertyOp30
 70
     1
102
RTVSPropertyOp31
 70
     1
102
RTVSPropertyOp32
 70
     1
102
RTVSPropertyOp33
 70
     1
102
RTVSPropertyOp34
 70
     1
102
RTVSPropertyOp35
 70
     1
102
RTVSPropertyOp36
 70
     1
102
RTVSPropertyOp37
 70
     1
102
RTVSPropertyOp38
 70
     1
102
RTVSPropertyOp39
 70
     1
102
RTVSPropertyOp40
 70
     1
102
RTVSPropertyOp41
 70
     1
102
RTVSPropertyOp42
 70
     1
102
RTVSPropertyOp43
 70
     1
102
RTVSPropertyOp44
 70
     1
102
RTVSPropertyOp45
 70
     1
102
RTVSPropertyOp46
 70
     1
102
RTVSPropertyOp47
 70
     1
102
RTVSPropertyOp48
 70
     1
102
RTVSPropertyOp49
 70
     1
102
RTVSPropertyOp50
 70
     1
102
RTVSPropertyOp51
 70
     0
102
RTVSPropertyOp52
 70
     0
102
RTVSPropertyOp53
 70
     1
102
RTVSPropertyOp54
 70
     1
102
RTVSPropertyOp55
 70
     1
102
RTVSPropertyOp56
 70
     1
102
RTVSPropertyOp57
 70
     1
102
RTVSPost2010Prop28
280
     0
102
RTVSPost2010PropOp28
 70
     1
102
RTVSPost2010Prop29
280
     1
102
RTVSPost2010PropOp29
 70
     1
102
RTVSPost2010Prop30
280
     1
102
RTVSPost2010PropOp30
 70
     1
102
RTVSPost2010Prop31
280
     0
102
RTVSPost2010PropOp31
 70
     1
102
RTVSPost2010Prop32
280
     0
102
RTVSPost2010PropOp32
 70
     1
102
RTVSPost2010Prop33
280
     0
102
RTVSPost2010PropOp33
 70
     1
102
RTVSPost2010Prop34
280
     0
102
RTVSPost2010PropOp34
 70
     1
102
RTVSPost2010Prop35
280
     0
102
RTVSPost2010PropOp35
 70
     1
102
RTVSPost2010Prop36
280
     0
102
RTVSPost2010PropOp36
 70
     1
102
RTVSPost2010Prop37
 90
       50
102
RTVSPost2010PropOp37
 70
     1
102
RTVSPost2010Prop38
140
0.0
102
RTVSPost2010PropOp38
 70
     1
102
RTVSPost2010Prop39
140
1.0
102
RTVSPost2010PropOp39
 70
     1
102
RTVSPost2010Prop40
 90
        0
102
RTVSPost2010PropOp40
 70
     1
102
RTVSPost2010Prop41ColorIndex
 90
       18
102
RTVSPost2010Prop41ColorRGB
 90
        0
102
RTVSPost2010PropOp41
 70
     1
102
RTVSPost2010Prop42
 90
       50
102
RTVSPost2010PropOp42
 70
     1
102
RTVSPost2010Prop43
 90
        3
102
RTVSPost2010PropOp43
 70
     1
102
RTVSPost2010Prop44ColorIndex
 90
        5
102
RTVSPost2010Prop44ColorRGB
 90
      255
102
RTVSPost2010PropOp44
 70
     1
102
RTVSPost2010Prop45
280
     0
102
RTVSPost2010PropOp45
 70
     1
102
RTVSPost2010Prop46
 90
       50
102
RTVSPost2010PropOp46
 70
     1
102
RTVSPost2010Prop47
 90
       50
102
RTVSPost2010PropOp47
 70
     1
102
RTVSPost2010Prop48
 90
       50
102
RTVSPost2010PropOp48
 70
     1
102
RTVSPost2010Prop49
280
     0
102
RTVSPost2010PropOp49
 70
     1
102
RTVSPost2010Prop50
 90
       50
102
RTVSPost2010PropOp50
 70
     1
102
RTVSPost2010Prop51ColorIndex
 90
      256
102
RTVSPost2010Prop51ColorRGB
 90
-16777216
102
RTVSPost2010PropOp51
 70
     0
102
RTVSPost2010Prop52
140
1.0
102
RTVSPost2010PropOp52
 70
     0
102
RTVSPost2010Prop53
 90
        2
102
RTVSPost2010PropOp53
 70
     1
102
RTVSPost2010Prop54
  1
strokes_ogs.tif
102
RTVSPost2010PropOp54
 70
     1
102
RTVSPost2010Prop55
280
     0
102
RTVSPost2010PropOp55
 70
     1
102
RTVSPost2010Prop56
140
1.0
102
RTVSPost2010PropOp56
 70
     1
102
RTVSPost2010Prop57
140
1.0
102
RTVSPost2010PropOp57
 70
     1
  0
XRECORD
  5
462
102
{ACAD_REACTORS
330
461
102
}
330
461
100
AcDbXrecord
280
     1
102
RTVSPropertyOp0
 70
     1
102
RTVSPropertyOp1
 70
     1
102
RTVSPropertyOp2
 70
     1
102
RTVSPropertyOp3
 70
     1
102
RTVSPropertyOp4
 70
     1
102
RTVSPropertyOp5
 70
     1
102
RTVSPropertyOp6
 70
     1
102
RTVSPropertyOp7
 70
     1
102
RTVSPropertyOp8
 70
     1
102
RTVSPropertyOp9
 70
     1
102
RTVSPropertyOp10
 70
     1
102
RTVSPropertyOp11
 70
     1
102
RTVSPropertyOp12
 70
     1
102
RTVSPropertyOp13
 70
     1
102
RTVSPropertyOp14
 70
     1
102
RTVSPropertyOp15
 70
     1
102
RTVSPropertyOp16
 70
     1
102
RTVSPropertyOp17
 70
     1
102
RTVSPropertyOp18
 70
     1
102
RTVSPropertyOp19
 70
     1
102
RTVSPropertyOp20
 70
     1
102
RTVSPropertyOp21
 70
     1
102
RTVSPropertyOp22
 70
     1
102
RTVSPropertyOp23
 70
     1
102
RTVSPropertyOp24
 70
     1
102
RTVSPropertyOp25
 70
     1
102
RTVSPropertyOp26
 70
     1
102
RTVSPropertyOp27
 70
     1
102
RTVSPropertyOp28
 70
     1
102
RTVSPropertyOp29
 70
     1
102
RTVSPropertyOp30
 70
     1
102
RTVSPropertyOp31
 70
     1
102
RTVSPropertyOp32
 70
     1
102
RTVSPropertyOp33
 70
     1
102
RTVSPropertyOp34
 70
     1
102
RTVSPropertyOp35
 70
     1
102
RTVSPropertyOp36
 70
     1
102
RTVSPropertyOp37
 70
     1
102
RTVSPropertyOp38
 70
     1
102
RTVSPropertyOp39
 70
     1
102
RTVSPropertyOp40
 70
     1
102
RTVSPropertyOp41
 70
     1
102
RTVSPropertyOp42
 70
     1
102
RTVSPropertyOp43
 70
     1
102
RTVSPropertyOp44
 70
     1
102
RTVSPropertyOp45
 70
     1
102
RTVSPropertyOp46
 70
     1
102
RTVSPropertyOp47
 70
     1
102
RTVSPropertyOp48
 70
     1
102
RTVSPropertyOp49
 70
     1
102
RTVSPropertyOp50
 70
     1
102
RTVSPropertyOp51
 70
     0
102
RTVSPropertyOp52
 70
     0
102
RTVSPropertyOp53
 70
     1
102
RTVSPropertyOp54
 70
     1
102
RTVSPropertyOp55
 70
     1
102
RTVSPropertyOp56
 70
     1
102
RTVSPropertyOp57
 70
     1
102
RTVSPost2010Prop28
280
     0
102
RTVSPost2010PropOp28
 70
     1
102
RTVSPost2010Prop29
280
     1
102
RTVSPost2010PropOp29
 70
     1
102
RTVSPost2010Prop30
280
     1
102
RTVSPost2010PropOp30
 70
     1
102
RTVSPost2010Prop31
280
     0
102
RTVSPost2010PropOp31
 70
     1
102
RTVSPost2010Prop32
280
     0
102
RTVSPost2010PropOp32
 70
     1
102
RTVSPost2010Prop33
280
     0
102
RTVSPost2010PropOp33
 70
     1
102
RTVSPost2010Prop34
280
     0
102
RTVSPost2010PropOp34
 70
     1
102
RTVSPost2010Prop35
280
     0
102
RTVSPost2010PropOp35
 70
     1
102
RTVSPost2010Prop36
280
     0
102
RTVSPost2010PropOp36
 70
     1
102
RTVSPost2010Prop37
 90
       50
102
RTVSPost2010PropOp37
 70
     1
102
RTVSPost2010Prop38
140
0.0
102
RTVSPost2010PropOp38
 70
     1
102
RTVSPost2010Prop39
140
1.0
102
RTVSPost2010PropOp39
 70
     1
102
RTVSPost2010Prop40
 90
        0
102
RTVSPost2010PropOp40
 70
     1
102
RTVSPost2010Prop41ColorIndex
 90
       18
102
RTVSPost2010Prop41ColorRGB
 90
        0
102
RTVSPost2010PropOp41
 70
     1
102
RTVSPost2010Prop42
 90
       50
102
RTVSPost2010PropOp42
 70
     1
102
RTVSPost2010Prop43
 90
        3
102
RTVSPost2010PropOp43
 70
     1
102
RTVSPost2010Prop44ColorIndex
 90
        5
102
RTVSPost2010Prop44ColorRGB
 90
      255
102
RTVSPost2010PropOp44
 70
     1
102
RTVSPost2010Prop45
280
     0
102
RTVSPost2010PropOp45
 70
     1
102
RTVSPost2010Prop46
 90
       50
102
RTVSPost2010PropOp46
 70
     1
102
RTVSPost2010Prop47
 90
       50
102
RTVSPost2010PropOp47
 70
     1
102
RTVSPost2010Prop48
 90
       50
102
RTVSPost2010PropOp48
 70
     1
102
RTVSPost2010Prop49
280
     0
102
RTVSPost2010PropOp49
 70
     1
102
RTVSPost2010Prop50
 90
       50
102
RTVSPost2010PropOp50
 70
     1
102
RTVSPost2010Prop51ColorIndex
 90
      256
102
RTVSPost2010Prop51ColorRGB
 90
-16777216
102
RTVSPost2010PropOp51
 70
     0
102
RTVSPost2010Prop52
140
1.0
102
RTVSPost2010PropOp52
 70
     0
102
RTVSPost2010Prop53
 90
        2
102
RTVSPost2010PropOp53
 70
     1
102
RTVSPost2010Prop54
  1
strokes_ogs.tif
102
RTVSPost2010PropOp54
 70
     1
102
RTVSPost2010Prop55
280
     0
102
RTVSPost2010PropOp55
 70
     1
102
RTVSPost2010Prop56
140
1.0
102
RTVSPost2010PropOp56
 70
     1
102
RTVSPost2010Prop57
140
1.0
102
RTVSPost2010PropOp57
 70
     1
  0
XRECORD
  5
460
102
{ACAD_REACTORS
330
45F
102
}
330
45F
100
AcDbXrecord
280
     1
102
RTVSPropertyOp0
 70
     1
102
RTVSPropertyOp1
 70
     1
102
RTVSPropertyOp2
 70
     1
102
RTVSPropertyOp3
 70
     1
102
RTVSPropertyOp4
 70
     1
102
RTVSPropertyOp5
 70
     1
102
RTVSPropertyOp6
 70
     1
102
RTVSPropertyOp7
 70
     1
102
RTVSPropertyOp8
 70
     1
102
RTVSPropertyOp9
 70
     1
102
RTVSPropertyOp10
 70
     1
102
RTVSPropertyOp11
 70
     1
102
RTVSPropertyOp12
 70
     1
102
RTVSPropertyOp13
 70
     1
102
RTVSPropertyOp14
 70
     1
102
RTVSPropertyOp15
 70
     1
102
RTVSPropertyOp16
 70
     1
102
RTVSPropertyOp17
 70
     1
102
RTVSPropertyOp18
 70
     1
102
RTVSPropertyOp19
 70
     1
102
RTVSPropertyOp20
 70
     1
102
RTVSPropertyOp21
 70
     1
102
RTVSPropertyOp22
 70
     1
102
RTVSPropertyOp23
 70
     1
102
RTVSPropertyOp24
 70
     1
102
RTVSPropertyOp25
 70
     1
102
RTVSPropertyOp26
 70
     1
102
RTVSPropertyOp27
 70
     1
102
RTVSPropertyOp28
 70
     1
102
RTVSPropertyOp29
 70
     1
102
RTVSPropertyOp30
 70
     1
102
RTVSPropertyOp31
 70
     1
102
RTVSPropertyOp32
 70
     1
102
RTVSPropertyOp33
 70
     1
102
RTVSPropertyOp34
 70
     1
102
RTVSPropertyOp35
 70
     1
102
RTVSPropertyOp36
 70
     1
102
RTVSPropertyOp37
 70
     1
102
RTVSPropertyOp38
 70
     1
102
RTVSPropertyOp39
 70
     1
102
RTVSPropertyOp40
 70
     1
102
RTVSPropertyOp41
 70
     1
102
RTVSPropertyOp42
 70
     1
102
RTVSPropertyOp43
 70
     1
102
RTVSPropertyOp44
 70
     1
102
RTVSPropertyOp45
 70
     1
102
RTVSPropertyOp46
 70
     1
102
RTVSPropertyOp47
 70
     1
102
RTVSPropertyOp48
 70
     1
102
RTVSPropertyOp49
 70
     1
102
RTVSPropertyOp50
 70
     1
102
RTVSPropertyOp51
 70
     0
102
RTVSPropertyOp52
 70
     0
102
RTVSPropertyOp53
 70
     1
102
RTVSPropertyOp54
 70
     1
102
RTVSPropertyOp55
 70
     1
102
RTVSPropertyOp56
 70
     1
102
RTVSPropertyOp57
 70
     1
102
RTVSPost2010Prop28
280
     0
102
RTVSPost2010PropOp28
 70
     1
102
RTVSPost2010Prop29
280
     1
102
RTVSPost2010PropOp29
 70
     1
102
RTVSPost2010Prop30
280
     1
102
RTVSPost2010PropOp30
 70
     1
102
RTVSPost2010Prop31
280
     0
102
RTVSPost2010PropOp31
 70
     1
102
RTVSPost2010Prop32
280
     0
102
RTVSPost2010PropOp32
 70
     1
102
RTVSPost2010Prop33
280
     0
102
RTVSPost2010PropOp33
 70
     1
102
RTVSPost2010Prop34
280
     0
102
RTVSPost2010PropOp34
 70
     1
102
RTVSPost2010Prop35
280
     0
102
RTVSPost2010PropOp35
 70
     1
102
RTVSPost2010Prop36
280
     0
102
RTVSPost2010PropOp36
 70
     1
102
RTVSPost2010Prop37
 90
       50
102
RTVSPost2010PropOp37
 70
     1
102
RTVSPost2010Prop38
140
0.0
102
RTVSPost2010PropOp38
 70
     1
102
RTVSPost2010Prop39
140
1.0
102
RTVSPost2010PropOp39
 70
     1
102
RTVSPost2010Prop40
 90
        0
102
RTVSPost2010PropOp40
 70
     1
102
RTVSPost2010Prop41ColorIndex
 90
       18
102
RTVSPost2010Prop41ColorRGB
 90
        0
102
RTVSPost2010PropOp41
 70
     1
102
RTVSPost2010Prop42
 90
       50
102
RTVSPost2010PropOp42
 70
     1
102
RTVSPost2010Prop43
 90
        3
102
RTVSPost2010PropOp43
 70
     1
102
RTVSPost2010Prop44ColorIndex
 90
        5
102
RTVSPost2010Prop44ColorRGB
 90
      255
102
RTVSPost2010PropOp44
 70
     1
102
RTVSPost2010Prop45
280
     0
102
RTVSPost2010PropOp45
 70
     1
102
RTVSPost2010Prop46
 90
       50
102
RTVSPost2010PropOp46
 70
     1
102
RTVSPost2010Prop47
 90
       50
102
RTVSPost2010PropOp47
 70
     1
102
RTVSPost2010Prop48
 90
       50
102
RTVSPost2010PropOp48
 70
     1
102
RTVSPost2010Prop49
280
     0
102
RTVSPost2010PropOp49
 70
     1
102
RTVSPost2010Prop50
 90
       50
102
RTVSPost2010PropOp50
 70
     1
102
RTVSPost2010Prop51ColorIndex
 90
      256
102
RTVSPost2010Prop51ColorRGB
 90
-16777216
102
RTVSPost2010PropOp51
 70
     0
102
RTVSPost2010Prop52
140
1.0
102
RTVSPost2010PropOp52
 70
     0
102
RTVSPost2010Prop53
 90
        2
102
RTVSPost2010PropOp53
 70
     1
102
RTVSPost2010Prop54
  1
strokes_ogs.tif
102
RTVSPost2010PropOp54
 70
     1
102
RTVSPost2010Prop55
280
     0
102
RTVSPost2010PropOp55
 70
     1
102
RTVSPost2010Prop56
140
1.0
102
RTVSPost2010PropOp56
 70
     1
102
RTVSPost2010Prop57
140
1.0
102
RTVSPost2010PropOp57
 70
     1
  0
XRECORD
  5
45A
102
{ACAD_REACTORS
330
459
102
}
330
459
100
AcDbXrecord
280
     1
102
RTVSPropertyOp0
 70
     1
102
RTVSPropertyOp1
 70
     1
102
RTVSPropertyOp2
 70
     1
102
RTVSPropertyOp3
 70
     1
102
RTVSPropertyOp4
 70
     1
102
RTVSPropertyOp5
 70
     1
102
RTVSPropertyOp6
 70
     1
102
RTVSPropertyOp7
 70
     1
102
RTVSPropertyOp8
 70
     1
102
RTVSPropertyOp9
 70
     1
102
RTVSPropertyOp10
 70
     1
102
RTVSPropertyOp11
 70
     1
102
RTVSPropertyOp12
 70
     1
102
RTVSPropertyOp13
 70
     1
102
RTVSPropertyOp14
 70
     1
102
RTVSPropertyOp15
 70
     1
102
RTVSPropertyOp16
 70
     1
102
RTVSPropertyOp17
 70
     1
102
RTVSPropertyOp18
 70
     1
102
RTVSPropertyOp19
 70
     1
102
RTVSPropertyOp20
 70
     1
102
RTVSPropertyOp21
 70
     1
102
RTVSPropertyOp22
 70
     1
102
RTVSPropertyOp23
 70
     1
102
RTVSPropertyOp24
 70
     1
102
RTVSPropertyOp25
 70
     1
102
RTVSPropertyOp26
 70
     1
102
RTVSPropertyOp27
 70
     1
102
RTVSPropertyOp28
 70
     1
102
RTVSPropertyOp29
 70
     1
102
RTVSPropertyOp30
 70
     1
102
RTVSPropertyOp31
 70
     1
102
RTVSPropertyOp32
 70
     1
102
RTVSPropertyOp33
 70
     1
102
RTVSPropertyOp34
 70
     1
102
RTVSPropertyOp35
 70
     1
102
RTVSPropertyOp36
 70
     1
102
RTVSPropertyOp37
 70
     1
102
RTVSPropertyOp38
 70
     1
102
RTVSPropertyOp39
 70
     1
102
RTVSPropertyOp40
 70
     1
102
RTVSPropertyOp41
 70
     1
102
RTVSPropertyOp42
 70
     1
102
RTVSPropertyOp43
 70
     1
102
RTVSPropertyOp44
 70
     1
102
RTVSPropertyOp45
 70
     1
102
RTVSPropertyOp46
 70
     1
102
RTVSPropertyOp47
 70
     1
102
RTVSPropertyOp48
 70
     1
102
RTVSPropertyOp49
 70
     1
102
RTVSPropertyOp50
 70
     1
102
RTVSPropertyOp51
 70
     0
102
RTVSPropertyOp52
 70
     0
102
RTVSPropertyOp53
 70
     1
102
RTVSPropertyOp54
 70
     1
102
RTVSPropertyOp55
 70
     1
102
RTVSPropertyOp56
 70
     1
102
RTVSPropertyOp57
 70
     1
102
RTVSPost2010Prop28
280
     0
102
RTVSPost2010PropOp28
 70
     1
102
RTVSPost2010Prop29
280
     1
102
RTVSPost2010PropOp29
 70
     1
102
RTVSPost2010Prop30
280
     1
102
RTVSPost2010PropOp30
 70
     1
102
RTVSPost2010Prop31
280
     0
102
RTVSPost2010PropOp31
 70
     1
102
RTVSPost2010Prop32
280
     0
102
RTVSPost2010PropOp32
 70
     1
102
RTVSPost2010Prop33
280
     0
102
RTVSPost2010PropOp33
 70
     1
102
RTVSPost2010Prop34
280
     0
102
RTVSPost2010PropOp34
 70
     1
102
RTVSPost2010Prop35
280
     0
102
RTVSPost2010PropOp35
 70
     1
102
RTVSPost2010Prop36
280
     0
102
RTVSPost2010PropOp36
 70
     1
102
RTVSPost2010Prop37
 90
       50
102
RTVSPost2010PropOp37
 70
     1
102
RTVSPost2010Prop38
140
0.0
102
RTVSPost2010PropOp38
 70
     1
102
RTVSPost2010Prop39
140
1.0
102
RTVSPost2010PropOp39
 70
     1
102
RTVSPost2010Prop40
 90
        0
102
RTVSPost2010PropOp40
 70
     1
102
RTVSPost2010Prop41ColorIndex
 90
       18
102
RTVSPost2010Prop41ColorRGB
 90
        0
102
RTVSPost2010PropOp41
 70
     1
102
RTVSPost2010Prop42
 90
       50
102
RTVSPost2010PropOp42
 70
     1
102
RTVSPost2010Prop43
 90
        3
102
RTVSPost2010PropOp43
 70
     1
102
RTVSPost2010Prop44ColorIndex
 90
        5
102
RTVSPost2010Prop44ColorRGB
 90
      255
102
RTVSPost2010PropOp44
 70
     1
102
RTVSPost2010Prop45
280
     0
102
RTVSPost2010PropOp45
 70
     1
102
RTVSPost2010Prop46
 90
       50
102
RTVSPost2010PropOp46
 70
     1
102
RTVSPost2010Prop47
 90
       50
102
RTVSPost2010PropOp47
 70
     1
102
RTVSPost2010Prop48
 90
       50
102
RTVSPost2010PropOp48
 70
     1
102
RTVSPost2010Prop49
280
     0
102
RTVSPost2010PropOp49
 70
     1
102
RTVSPost2010Prop50
 90
       50
102
RTVSPost2010PropOp50
 70
     1
102
RTVSPost2010Prop51ColorIndex
 90
      256
102
RTVSPost2010Prop51ColorRGB
 90
-16777216
102
RTVSPost2010PropOp51
 70
     0
102
RTVSPost2010Prop52
140
1.0
102
RTVSPost2010PropOp52
 70
     0
102
RTVSPost2010Prop53
 90
        2
102
RTVSPost2010PropOp53
 70
     1
102
RTVSPost2010Prop54
  1
strokes_ogs.tif
102
RTVSPost2010PropOp54
 70
     1
102
RTVSPost2010Prop55
280
     0
102
RTVSPost2010PropOp55
 70
     1
102
RTVSPost2010Prop56
140
1.0
102
RTVSPost2010PropOp56
 70
     1
102
RTVSPost2010Prop57
140
1.0
102
RTVSPost2010PropOp57
 70
     1
  0
XRECORD
  5
45C
102
{ACAD_REACTORS
330
45B
102
}
330
45B
100
AcDbXrecord
280
     1
102
RTVSPropertyOp0
 70
     1
102
RTVSPropertyOp1
 70
     1
102
RTVSPropertyOp2
 70
     1
102
RTVSPropertyOp3
 70
     1
102
RTVSPropertyOp4
 70
     1
102
RTVSPropertyOp5
 70
     1
102
RTVSPropertyOp6
 70
     1
102
RTVSPropertyOp7
 70
     1
102
RTVSPropertyOp8
 70
     1
102
RTVSPropertyOp9
 70
     1
102
RTVSPropertyOp10
 70
     1
102
RTVSPropertyOp11
 70
     1
102
RTVSPropertyOp12
 70
     1
102
RTVSPropertyOp13
 70
     1
102
RTVSPropertyOp14
 70
     1
102
RTVSPropertyOp15
 70
     1
102
RTVSPropertyOp16
 70
     1
102
RTVSPropertyOp17
 70
     1
102
RTVSPropertyOp18
 70
     1
102
RTVSPropertyOp19
 70
     1
102
RTVSPropertyOp20
 70
     1
102
RTVSPropertyOp21
 70
     1
102
RTVSPropertyOp22
 70
     1
102
RTVSPropertyOp23
 70
     1
102
RTVSPropertyOp24
 70
     1
102
RTVSPropertyOp25
 70
     1
102
RTVSPropertyOp26
 70
     1
102
RTVSPropertyOp27
 70
     1
102
RTVSPropertyOp28
 70
     1
102
RTVSPropertyOp29
 70
     1
102
RTVSPropertyOp30
 70
     1
102
RTVSPropertyOp31
 70
     1
102
RTVSPropertyOp32
 70
     1
102
RTVSPropertyOp33
 70
     1
102
RTVSPropertyOp34
 70
     1
102
RTVSPropertyOp35
 70
     1
102
RTVSPropertyOp36
 70
     1
102
RTVSPropertyOp37
 70
     1
102
RTVSPropertyOp38
 70
     1
102
RTVSPropertyOp39
 70
     1
102
RTVSPropertyOp40
 70
     1
102
RTVSPropertyOp41
 70
     1
102
RTVSPropertyOp42
 70
     1
102
RTVSPropertyOp43
 70
     1
102
RTVSPropertyOp44
 70
     1
102
RTVSPropertyOp45
 70
     1
102
RTVSPropertyOp46
 70
     1
102
RTVSPropertyOp47
 70
     1
102
RTVSPropertyOp48
 70
     1
102
RTVSPropertyOp49
 70
     1
102
RTVSPropertyOp50
 70
     1
102
RTVSPropertyOp51
 70
     0
102
RTVSPropertyOp52
 70
     0
102
RTVSPropertyOp53
 70
     1
102
RTVSPropertyOp54
 70
     1
102
RTVSPropertyOp55
 70
     1
102
RTVSPropertyOp56
 70
     1
102
RTVSPropertyOp57
 70
     1
102
RTVSPost2010Prop28
280
     0
102
RTVSPost2010PropOp28
 70
     1
102
RTVSPost2010Prop29
280
     1
102
RTVSPost2010PropOp29
 70
     1
102
RTVSPost2010Prop30
280
     1
102
RTVSPost2010PropOp30
 70
     1
102
RTVSPost2010Prop31
280
     0
102
RTVSPost2010PropOp31
 70
     1
102
RTVSPost2010Prop32
280
     0
102
RTVSPost2010PropOp32
 70
     1
102
RTVSPost2010Prop33
280
     0
102
RTVSPost2010PropOp33
 70
     1
102
RTVSPost2010Prop34
280
     0
102
RTVSPost2010PropOp34
 70
     1
102
RTVSPost2010Prop35
280
     0
102
RTVSPost2010PropOp35
 70
     1
102
RTVSPost2010Prop36
280
     0
102
RTVSPost2010PropOp36
 70
     1
102
RTVSPost2010Prop37
 90
       50
102
RTVSPost2010PropOp37
 70
     1
102
RTVSPost2010Prop38
140
0.0
102
RTVSPost2010PropOp38
 70
     1
102
RTVSPost2010Prop39
140
1.0
102
RTVSPost2010PropOp39
 70
     1
102
RTVSPost2010Prop40
 90
        0
102
RTVSPost2010PropOp40
 70
     1
102
RTVSPost2010Prop41ColorIndex
 90
       18
102
RTVSPost2010Prop41ColorRGB
 90
        0
102
RTVSPost2010PropOp41
 70
     1
102
RTVSPost2010Prop42
 90
       50
102
RTVSPost2010PropOp42
 70
     1
102
RTVSPost2010Prop43
 90
        3
102
RTVSPost2010PropOp43
 70
     1
102
RTVSPost2010Prop44ColorIndex
 90
        5
102
RTVSPost2010Prop44ColorRGB
 90
      255
102
RTVSPost2010PropOp44
 70
     1
102
RTVSPost2010Prop45
280
     0
102
RTVSPost2010PropOp45
 70
     1
102
RTVSPost2010Prop46
 90
       50
102
RTVSPost2010PropOp46
 70
     1
102
RTVSPost2010Prop47
 90
       50
102
RTVSPost2010PropOp47
 70
     1
102
RTVSPost2010Prop48
 90
       50
102
RTVSPost2010PropOp48
 70
     1
102
RTVSPost2010Prop49
280
     0
102
RTVSPost2010PropOp49
 70
     1
102
RTVSPost2010Prop50
 90
       50
102
RTVSPost2010PropOp50
 70
     1
102
RTVSPost2010Prop51ColorIndex
 90
      256
102
RTVSPost2010Prop51ColorRGB
 90
-16777216
102
RTVSPost2010PropOp51
 70
     0
102
RTVSPost2010Prop52
140
1.0
102
RTVSPost2010PropOp52
 70
     0
102
RTVSPost2010Prop53
 90
        2
102
RTVSPost2010PropOp53
 70
     1
102
RTVSPost2010Prop54
  1
strokes_ogs.tif
102
RTVSPost2010PropOp54
 70
     1
102
RTVSPost2010Prop55
280
     0
102
RTVSPost2010PropOp55
 70
     1
102
RTVSPost2010Prop56
140
1.0
102
RTVSPost2010PropOp56
 70
     1
102
RTVSPost2010Prop57
140
1.0
102
RTVSPost2010PropOp57
 70
     1
  0
XRECORD
  5
44C
102
{ACAD_REACTORS
330
44B
102
}
330
44B
100
AcDbXrecord
280
     1
102
RTVSPropertyOp0
 70
     1
102
RTVSPropertyOp1
 70
     1
102
RTVSPropertyOp2
 70
     1
102
RTVSPropertyOp3
 70
     1
102
RTVSPropertyOp4
 70
     1
102
RTVSPropertyOp5
 70
     1
102
RTVSPropertyOp6
 70
     1
102
RTVSPropertyOp7
 70
     1
102
RTVSPropertyOp8
 70
     1
102
RTVSPropertyOp9
 70
     1
102
RTVSPropertyOp10
 70
     1
102
RTVSPropertyOp11
 70
     1
102
RTVSPropertyOp12
 70
     1
102
RTVSPropertyOp13
 70
     1
102
RTVSPropertyOp14
 70
     1
102
RTVSPropertyOp15
 70
     1
102
RTVSPropertyOp16
 70
     1
102
RTVSPropertyOp17
 70
     1
102
RTVSPropertyOp18
 70
     1
102
RTVSPropertyOp19
 70
     1
102
RTVSPropertyOp20
 70
     1
102
RTVSPropertyOp21
 70
     1
102
RTVSPropertyOp22
 70
     1
102
RTVSPropertyOp23
 70
     1
102
RTVSPropertyOp24
 70
     1
102
RTVSPropertyOp25
 70
     1
102
RTVSPropertyOp26
 70
     1
102
RTVSPropertyOp27
 70
     1
102
RTVSPropertyOp28
 70
     1
102
RTVSPropertyOp29
 70
     1
102
RTVSPropertyOp30
 70
     1
102
RTVSPropertyOp31
 70
     1
102
RTVSPropertyOp32
 70
     1
102
RTVSPropertyOp33
 70
     1
102
RTVSPropertyOp34
 70
     1
102
RTVSPropertyOp35
 70
     1
102
RTVSPropertyOp36
 70
     1
102
RTVSPropertyOp37
 70
     1
102
RTVSPropertyOp38
 70
     1
102
RTVSPropertyOp39
 70
     1
102
RTVSPropertyOp40
 70
     1
102
RTVSPropertyOp41
 70
     1
102
RTVSPropertyOp42
 70
     1
102
RTVSPropertyOp43
 70
     1
102
RTVSPropertyOp44
 70
     1
102
RTVSPropertyOp45
 70
     1
102
RTVSPropertyOp46
 70
     1
102
RTVSPropertyOp47
 70
     1
102
RTVSPropertyOp48
 70
     1
102
RTVSPropertyOp49
 70
     1
102
RTVSPropertyOp50
 70
     1
102
RTVSPropertyOp51
 70
     0
102
RTVSPropertyOp52
 70
     0
102
RTVSPropertyOp53
 70
     1
102
RTVSPropertyOp54
 70
     1
102
RTVSPropertyOp55
 70
     1
102
RTVSPropertyOp56
 70
     1
102
RTVSPropertyOp57
 70
     1
102
RTVSPost2010Prop28
280
     0
102
RTVSPost2010PropOp28
 70
     1
102
RTVSPost2010Prop29
280
     1
102
RTVSPost2010PropOp29
 70
     1
102
RTVSPost2010Prop30
280
     1
102
RTVSPost2010PropOp30
 70
     1
102
RTVSPost2010Prop31
280
     0
102
RTVSPost2010PropOp31
 70
     1
102
RTVSPost2010Prop32
280
     0
102
RTVSPost2010PropOp32
 70
     1
102
RTVSPost2010Prop33
280
     0
102
RTVSPost2010PropOp33
 70
     1
102
RTVSPost2010Prop34
280
     0
102
RTVSPost2010PropOp34
 70
     1
102
RTVSPost2010Prop35
280
     0
102
RTVSPost2010PropOp35
 70
     1
102
RTVSPost2010Prop36
280
     0
102
RTVSPost2010PropOp36
 70
     1
102
RTVSPost2010Prop37
 90
       50
102
RTVSPost2010PropOp37
 70
     1
102
RTVSPost2010Prop38
140
0.0
102
RTVSPost2010PropOp38
 70
     1
102
RTVSPost2010Prop39
140
1.0
102
RTVSPost2010PropOp39
 70
     1
102
RTVSPost2010Prop40
 90
        0
102
RTVSPost2010PropOp40
 70
     1
102
RTVSPost2010Prop41ColorIndex
 90
       18
102
RTVSPost2010Prop41ColorRGB
 90
        0
102
RTVSPost2010PropOp41
 70
     1
102
RTVSPost2010Prop42
 90
       50
102
RTVSPost2010PropOp42
 70
     1
102
RTVSPost2010Prop43
 90
        3
102
RTVSPost2010PropOp43
 70
     1
102
RTVSPost2010Prop44ColorIndex
 90
        5
102
RTVSPost2010Prop44ColorRGB
 90
      255
102
RTVSPost2010PropOp44
 70
     1
102
RTVSPost2010Prop45
280
     0
102
RTVSPost2010PropOp45
 70
     1
102
RTVSPost2010Prop46
 90
       50
102
RTVSPost2010PropOp46
 70
     1
102
RTVSPost2010Prop47
 90
       50
102
RTVSPost2010PropOp47
 70
     1
102
RTVSPost2010Prop48
 90
       50
102
RTVSPost2010PropOp48
 70
     1
102
RTVSPost2010Prop49
280
     0
102
RTVSPost2010PropOp49
 70
     1
102
RTVSPost2010Prop50
 90
       50
102
RTVSPost2010PropOp50
 70
     1
102
RTVSPost2010Prop51ColorIndex
 90
      256
102
RTVSPost2010Prop51ColorRGB
 90
-16777216
102
RTVSPost2010PropOp51
 70
     0
102
RTVSPost2010Prop52
140
1.0
102
RTVSPost2010PropOp52
 70
     0
102
RTVSPost2010Prop53
 90
        2
102
RTVSPost2010PropOp53
 70
     1
102
RTVSPost2010Prop54
  1
strokes_ogs.tif
102
RTVSPost2010PropOp54
 70
     1
102
RTVSPost2010Prop55
280
     0
102
RTVSPost2010PropOp55
 70
     1
102
RTVSPost2010Prop56
140
1.0
102
RTVSPost2010PropOp56
 70
     1
102
RTVSPost2010Prop57
140
1.0
102
RTVSPost2010PropOp57
 70
     1
  0
XRECORD
  5
43E
102
{ACAD_REACTORS
330
43D
102
}
330
43D
100
AcDbXrecord
280
     1
102
RTVSPropertyOp0
 70
     1
102
RTVSPropertyOp1
 70
     1
102
RTVSPropertyOp2
 70
     1
102
RTVSPropertyOp3
 70
     1
102
RTVSPropertyOp4
 70
     1
102
RTVSPropertyOp5
 70
     1
102
RTVSPropertyOp6
 70
     1
102
RTVSPropertyOp7
 70
     1
102
RTVSPropertyOp8
 70
     1
102
RTVSPropertyOp9
 70
     1
102
RTVSPropertyOp10
 70
     1
102
RTVSPropertyOp11
 70
     1
102
RTVSPropertyOp12
 70
     1
102
RTVSPropertyOp13
 70
     1
102
RTVSPropertyOp14
 70
     1
102
RTVSPropertyOp15
 70
     1
102
RTVSPropertyOp16
 70
     1
102
RTVSPropertyOp17
 70
     1
102
RTVSPropertyOp18
 70
     1
102
RTVSPropertyOp19
 70
     1
102
RTVSPropertyOp20
 70
     1
102
RTVSPropertyOp21
 70
     1
102
RTVSPropertyOp22
 70
     1
102
RTVSPropertyOp23
 70
     1
102
RTVSPropertyOp24
 70
     1
102
RTVSPropertyOp25
 70
     1
102
RTVSPropertyOp26
 70
     1
102
RTVSPropertyOp27
 70
     1
102
RTVSPropertyOp28
 70
     1
102
RTVSPropertyOp29
 70
     1
102
RTVSPropertyOp30
 70
     1
102
RTVSPropertyOp31
 70
     1
102
RTVSPropertyOp32
 70
     1
102
RTVSPropertyOp33
 70
     1
102
RTVSPropertyOp34
 70
     1
102
RTVSPropertyOp35
 70
     1
102
RTVSPropertyOp36
 70
     1
102
RTVSPropertyOp37
 70
     1
102
RTVSPropertyOp38
 70
     1
102
RTVSPropertyOp39
 70
     1
102
RTVSPropertyOp40
 70
     1
102
RTVSPropertyOp41
 70
     1
102
RTVSPropertyOp42
 70
     1
102
RTVSPropertyOp43
 70
     1
102
RTVSPropertyOp44
 70
     1
102
RTVSPropertyOp45
 70
     1
102
RTVSPropertyOp46
 70
     1
102
RTVSPropertyOp47
 70
     1
102
RTVSPropertyOp48
 70
     1
102
RTVSPropertyOp49
 70
     1
102
RTVSPropertyOp50
 70
     1
102
RTVSPropertyOp51
 70
     0
102
RTVSPropertyOp52
 70
     0
102
RTVSPropertyOp53
 70
     1
102
RTVSPropertyOp54
 70
     1
102
RTVSPropertyOp55
 70
     1
102
RTVSPropertyOp56
 70
     1
102
RTVSPropertyOp57
 70
     1
102
RTVSPost2010Prop28
280
     0
102
RTVSPost2010PropOp28
 70
     1
102
RTVSPost2010Prop29
280
     1
102
RTVSPost2010PropOp29
 70
     1
102
RTVSPost2010Prop30
280
     1
102
RTVSPost2010PropOp30
 70
     1
102
RTVSPost2010Prop31
280
     0
102
RTVSPost2010PropOp31
 70
     1
102
RTVSPost2010Prop32
280
     0
102
RTVSPost2010PropOp32
 70
     1
102
RTVSPost2010Prop33
280
     0
102
RTVSPost2010PropOp33
 70
     1
102
RTVSPost2010Prop34
280
     0
102
RTVSPost2010PropOp34
 70
     1
102
RTVSPost2010Prop35
280
     0
102
RTVSPost2010PropOp35
 70
     1
102
RTVSPost2010Prop36
280
     0
102
RTVSPost2010PropOp36
 70
     1
102
RTVSPost2010Prop37
 90
       50
102
RTVSPost2010PropOp37
 70
     1
102
RTVSPost2010Prop38
140
0.0
102
RTVSPost2010PropOp38
 70
     1
102
RTVSPost2010Prop39
140
1.0
102
RTVSPost2010PropOp39
 70
     1
102
RTVSPost2010Prop40
 90
        0
102
RTVSPost2010PropOp40
 70
     1
102
RTVSPost2010Prop41ColorIndex
 90
       18
102
RTVSPost2010Prop41ColorRGB
 90
        0
102
RTVSPost2010PropOp41
 70
     1
102
RTVSPost2010Prop42
 90
       50
102
RTVSPost2010PropOp42
 70
     1
102
RTVSPost2010Prop43
 90
        3
102
RTVSPost2010PropOp43
 70
     1
102
RTVSPost2010Prop44ColorIndex
 90
        5
102
RTVSPost2010Prop44ColorRGB
 90
      255
102
RTVSPost2010PropOp44
 70
     1
102
RTVSPost2010Prop45
280
     0
102
RTVSPost2010PropOp45
 70
     1
102
RTVSPost2010Prop46
 90
       50
102
RTVSPost2010PropOp46
 70
     1
102
RTVSPost2010Prop47
 90
       50
102
RTVSPost2010PropOp47
 70
     1
102
RTVSPost2010Prop48
 90
       50
102
RTVSPost2010PropOp48
 70
     1
102
RTVSPost2010Prop49
280
     0
102
RTVSPost2010PropOp49
 70
     1
102
RTVSPost2010Prop50
 90
       50
102
RTVSPost2010PropOp50
 70
     1
102
RTVSPost2010Prop51ColorIndex
 90
      256
102
RTVSPost2010Prop51ColorRGB
 90
-16777216
102
RTVSPost2010PropOp51
 70
     0
102
RTVSPost2010Prop52
140
1.0
102
RTVSPost2010PropOp52
 70
     0
102
RTVSPost2010Prop53
 90
        2
102
RTVSPost2010PropOp53
 70
     1
102
RTVSPost2010Prop54
  1
strokes_ogs.tif
102
RTVSPost2010PropOp54
 70
     1
102
RTVSPost2010Prop55
280
     0
102
RTVSPost2010PropOp55
 70
     1
102
RTVSPost2010Prop56
140
1.0
102
RTVSPost2010PropOp56
 70
     1
102
RTVSPost2010Prop57
140
1.0
102
RTVSPost2010PropOp57
 70
     1
  0
XRECORD
  5
45E
102
{ACAD_REACTORS
330
45D
102
}
330
45D
100
AcDbXrecord
280
     1
102
RTVSPropertyOp0
 70
     1
102
RTVSPropertyOp1
 70
     1
102
RTVSPropertyOp2
 70
     1
102
RTVSPropertyOp3
 70
     1
102
RTVSPropertyOp4
 70
     1
102
RTVSPropertyOp5
 70
     1
102
RTVSPropertyOp6
 70
     1
102
RTVSPropertyOp7
 70
     1
102
RTVSPropertyOp8
 70
     1
102
RTVSPropertyOp9
 70
     1
102
RTVSPropertyOp10
 70
     1
102
RTVSPropertyOp11
 70
     1
102
RTVSPropertyOp12
 70
     1
102
RTVSPropertyOp13
 70
     1
102
RTVSPropertyOp14
 70
     1
102
RTVSPropertyOp15
 70
     1
102
RTVSPropertyOp16
 70
     1
102
RTVSPropertyOp17
 70
     1
102
RTVSPropertyOp18
 70
     1
102
RTVSPropertyOp19
 70
     1
102
RTVSPropertyOp20
 70
     1
102
RTVSPropertyOp21
 70
     1
102
RTVSPropertyOp22
 70
     1
102
RTVSPropertyOp23
 70
     1
102
RTVSPropertyOp24
 70
     1
102
RTVSPropertyOp25
 70
     1
102
RTVSPropertyOp26
 70
     1
102
RTVSPropertyOp27
 70
     1
102
RTVSPropertyOp28
 70
     1
102
RTVSPropertyOp29
 70
     1
102
RTVSPropertyOp30
 70
     1
102
RTVSPropertyOp31
 70
     1
102
RTVSPropertyOp32
 70
     1
102
RTVSPropertyOp33
 70
     1
102
RTVSPropertyOp34
 70
     1
102
RTVSPropertyOp35
 70
     1
102
RTVSPropertyOp36
 70
     1
102
RTVSPropertyOp37
 70
     1
102
RTVSPropertyOp38
 70
     1
102
RTVSPropertyOp39
 70
     1
102
RTVSPropertyOp40
 70
     1
102
RTVSPropertyOp41
 70
     1
102
RTVSPropertyOp42
 70
     1
102
RTVSPropertyOp43
 70
     1
102
RTVSPropertyOp44
 70
     1
102
RTVSPropertyOp45
 70
     1
102
RTVSPropertyOp46
 70
     1
102
RTVSPropertyOp47
 70
     1
102
RTVSPropertyOp48
 70
     1
102
RTVSPropertyOp49
 70
     1
102
RTVSPropertyOp50
 70
     1
102
RTVSPropertyOp51
 70
     0
102
RTVSPropertyOp52
 70
     0
102
RTVSPropertyOp53
 70
     1
102
RTVSPropertyOp54
 70
     1
102
RTVSPropertyOp55
 70
     1
102
RTVSPropertyOp56
 70
     1
102
RTVSPropertyOp57
 70
     1
102
RTVSPost2010Prop28
280
     0
102
RTVSPost2010PropOp28
 70
     1
102
RTVSPost2010Prop29
280
     1
102
RTVSPost2010PropOp29
 70
     1
102
RTVSPost2010Prop30
280
     1
102
RTVSPost2010PropOp30
 70
     1
102
RTVSPost2010Prop31
280
     0
102
RTVSPost2010PropOp31
 70
     1
102
RTVSPost2010Prop32
280
     0
102
RTVSPost2010PropOp32
 70
     1
102
RTVSPost2010Prop33
280
     0
102
RTVSPost2010PropOp33
 70
     1
102
RTVSPost2010Prop34
280
     0
102
RTVSPost2010PropOp34
 70
     1
102
RTVSPost2010Prop35
280
     0
102
RTVSPost2010PropOp35
 70
     1
102
RTVSPost2010Prop36
280
     0
102
RTVSPost2010PropOp36
 70
     1
102
RTVSPost2010Prop37
 90
       50
102
RTVSPost2010PropOp37
 70
     1
102
RTVSPost2010Prop38
140
0.0
102
RTVSPost2010PropOp38
 70
     1
102
RTVSPost2010Prop39
140
1.0
102
RTVSPost2010PropOp39
 70
     1
102
RTVSPost2010Prop40
 90
        0
102
RTVSPost2010PropOp40
 70
     1
102
RTVSPost2010Prop41ColorIndex
 90
       18
102
RTVSPost2010Prop41ColorRGB
 90
        0
102
RTVSPost2010PropOp41
 70
     1
102
RTVSPost2010Prop42
 90
       50
102
RTVSPost2010PropOp42
 70
     1
102
RTVSPost2010Prop43
 90
        3
102
RTVSPost2010PropOp43
 70
     1
102
RTVSPost2010Prop44ColorIndex
 90
        5
102
RTVSPost2010Prop44ColorRGB
 90
      255
102
RTVSPost2010PropOp44
 70
     1
102
RTVSPost2010Prop45
280
     0
102
RTVSPost2010PropOp45
 70
     1
102
RTVSPost2010Prop46
 90
       50
102
RTVSPost2010PropOp46
 70
     1
102
RTVSPost2010Prop47
 90
       50
102
RTVSPost2010PropOp47
 70
     1
102
RTVSPost2010Prop48
 90
       50
102
RTVSPost2010PropOp48
 70
     1
102
RTVSPost2010Prop49
280
     0
102
RTVSPost2010PropOp49
 70
     1
102
RTVSPost2010Prop50
 90
       50
102
RTVSPost2010PropOp50
 70
     1
102
RTVSPost2010Prop51ColorIndex
 90
      256
102
RTVSPost2010Prop51ColorRGB
 90
-16777216
102
RTVSPost2010PropOp51
 70
     0
102
RTVSPost2010Prop52
140
1.0
102
RTVSPost2010PropOp52
 70
     0
102
RTVSPost2010Prop53
 90
        2
102
RTVSPost2010PropOp53
 70
     1
102
RTVSPost2010Prop54
  1
strokes_ogs.tif
102
RTVSPost2010PropOp54
 70
     1
102
RTVSPost2010Prop55
280
     0
102
RTVSPost2010PropOp55
 70
     1
102
RTVSPost2010Prop56
140
1.0
102
RTVSPost2010PropOp56
 70
     1
102
RTVSPost2010Prop57
140
1.0
102
RTVSPost2010PropOp57
 70
     1
  0
ENDSEC
  0
EOF
