  0
SECTION
  2
HEADER
  9
$ACADVER
  1
AC1018
  9
$ACADMAINTVER
 70
     0
  9
$DWGCODEPAGE
  3
ANSI_932
  9
$INSBASE
 10
0.0
 20
0.0
 30
0.0
  9
$EXTMIN
 10
-1050.0
 20
-742.5
 30
0.0
  9
$EXTMAX
 10
1050.0
 20
742.5
 30
0.0
  9
$LIMMIN
 10
-1050.0
 20
-742.5
  9
$LIMMAX
 10
1050.0
 20
742.5
  9
$ORTHOMODE
 70
     0
  9
$REGENMODE
 70
     1
  9
$FILLMODE
 70
     1
  9
$QTEXTMODE
 70
     0
  9
$MIRRTEXT
 70
     1
  9
$LTSCALE
 40
5.0
  9
$ATTMODE
 70
     1
  9
$TEXTSIZE
 40
2.5
  9
$TRACEWID
 40
1.0
  9
$TEXTSTYLE
  7
Standard
  9
$CLAYER
  8
0
  9
$CELTYPE
  6
ByLayer
  9
$CECOLOR
 62
   256
  9
$CELTSCALE
 40
1.0
  9
$DISPSILH
 70
     0
  9
$DIMSCALE
 40
1.0
  9
$DIMASZ
 40
2.5
  9
$DIMEXO
 40
0.625
  9
$DIMDLI
 40
3.75
  9
$DIMRND
 40
0.0
  9
$DIMDLE
 40
0.0
  9
$DIMEXE
 40
1.25
  9
$DIMTP
 40
0.0
  9
$DIMTM
 40
0.0
  9
$DIMTXT
 40
2.5
  9
$DIMCEN
 40
2.5
  9
$DIMTSZ
 40
0.0
  9
$DIMTOL
 70
     0
  9
$DIMLIM
 70
     0
  9
$DIMTIH
 70
     0
  9
$DIMTOH
 70
     0
  9
$DIMSE1
 70
     0
  9
$DIMSE2
 70
     0
  9
$DIMTAD
 70
     1
  9
$DIMZIN
 70
     8
  9
$DIMBLK
  1

  9
$DIMASO
 70
     1
  9
$DIMSHO
 70
     1
  9
$DIMPOST
  1

  9
$DIMAPOST
  1

  9
$DIMALT
 70
     0
  9
$DIMALTD
 70
     3
  9
$DIMALTF
 40
0.03937007874016
  9
$DIMLFAC
 40
1.0
  9
$DIMTOFL
 70
     1
  9
$DIMTVP
 40
0.0
  9
$DIMTIX
 70
     0
  9
$DIMSOXD
 70
     0
  9
$DIMSAH
 70
     0
  9
$DIMBLK1
  1

  9
$DIMBLK2
  1

  9
$DIMSTYLE
  2
ISO-25
  9
$DIMCLRD
 70
     0
  9
$DIMCLRE
 70
     0
  9
$DIMCLRT
 70
     0
  9
$DIMTFAC
 40
1.0
  9
$DIMGAP
 40
0.625
  9
$DIMJUST
 70
     0
  9
$DIMSD1
 70
     0
  9
$DIMSD2
 70
     0
  9
$DIMTOLJ
 70
     0
  9
$DIMTZIN
 70
     8
  9
$DIMALTZ
 70
     0
  9
$DIMALTTZ
 70
     0
  9
$DIMUPT
 70
     0
  9
$DIMDEC
 70
     2
  9
$DIMTDEC
 70
     2
  9
$DIMALTU
 70
     2
  9
$DIMALTTD
 70
     3
  9
$DIMTXSTY
  7
Standard
  9
$DIMAUNIT
 70
     0
  9
$DIMADEC
 70
     0
  9
$DIMALTRND
 40
0.0
  9
$DIMAZIN
 70
     0
  9
$DIMDSEP
 70
    44
  9
$DIMATFIT
 70
     3
  9
$DIMFRAC
 70
     0
  9
$DIMLDRBLK
  1

  9
$DIMLUNIT
 70
     2
  9
$DIMLWD
 70
    -2
  9
$DIMLWE
 70
    -2
  9
$DIMTMOVE
 70
     0
  9
$LUNITS
 70
     2
  9
$LUPREC
 70
     4
  9
$SKETCHINC
 40
1.0
  9
$FILLETRAD
 40
10.0
  9
$AUNITS
 70
     0
  9
$AUPREC
 70
     0
  9
$MENU
  1
.
  9
$ELEVATION
 40
0.0
  9
$PELEVATION
 40
0.0
  9
$THICKNESS
 40
0.0
  9
$LIMCHECK
 70
     0
  9
$CHAMFERA
 40
0.0
  9
$CHAMFERB
 40
0.0
  9
$CHAMFERC
 40
0.0
  9
$CHAMFERD
 40
0.0
  9
$SKPOLY
 70
     0
  9
$TDCREATE
 40
2459577.595596725
  9
$TDUCREATE
 40
2459577.220596725
  9
$TDUPDATE
 40
2459577.59559691
  9
$TDUUPDATE
 40
2459577.22059691
  9
$TDINDWG
 40
0.0000000116
  9
$TDUSRTIMER
 40
0.0000000116
  9
$USRTIMER
 70
     1
  9
$ANGBASE
 50
0.0
  9
$ANGDIR
 70
     0
  9
$PDMODE
 70
     0
  9
$PDSIZE
 40
0.0
  9
$PLINEWID
 40
0.0
  9
$SPLFRAME
 70
     0
  9
$SPLINETYPE
 70
     6
  9
$SPLINESEGS
 70
     8
  9
$HANDSEED
  5
479
  9
$SURFTAB1
 70
     6
  9
$SURFTAB2
 70
     6
  9
$SURFTYPE
 70
     6
  9
$SURFU
 70
     6
  9
$SURFV
 70
     6
  9
$UCSBASE
  2

  9
$UCSNAME
  2

  9
$UCSORG
 10
0.0
 20
0.0
 30
0.0
  9
$UCSXDIR
 10
1.0
 20
0.0
 30
0.0
  9
$UCSYDIR
 10
0.0
 20
1.0
 30
0.0
  9
$UCSORTHOREF
  2

  9
$UCSORTHOVIEW
 70
     0
  9
$UCSORGTOP
 10
0.0
 20
0.0
 30
0.0
  9
$UCSORGBOTTOM
 10
0.0
 20
0.0
 30
0.0
  9
$UCSORGLEFT
 10
0.0
 20
0.0
 30
0.0
  9
$UCSORGRIGHT
 10
0.0
 20
0.0
 30
0.0
  9
$UCSORGFRONT
 10
0.0
 20
0.0
 30
0.0
  9
$UCSORGBACK
 10
0.0
 20
0.0
 30
0.0
  9
$PUCSBASE
  2

  9
$PUCSNAME
  2

  9
$PUCSORG
 10
0.0
 20
0.0
 30
0.0
  9
$PUCSXDIR
 10
1.0
 20
0.0
 30
0.0
  9
$PUCSYDIR
 10
0.0
 20
1.0
 30
0.0
  9
$PUCSORTHOREF
  2

  9
$PUCSORTHOVIEW
 70
     0
  9
$PUCSORGTOP
 10
0.0
 20
0.0
 30
0.0
  9
$PUCSORGBOTTOM
 10
0.0
 20
0.0
 30
0.0
  9
$PUCSORGLEFT
 10
0.0
 20
0.0
 30
0.0
  9
$PUCSORGRIGHT
 10
0.0
 20
0.0
 30
0.0
  9
$PUCSORGFRONT
 10
0.0
 20
0.0
 30
0.0
  9
$PUCSORGBACK
 10
0.0
 20
0.0
 30
0.0
  9
$USERI1
 70
     0
  9
$USERI2
 70
     0
  9
$USERI3
 70
     0
  9
$USERI4
 70
     0
  9
$USERI5
 70
     0
  9
$USERR1
 40
0.0
  9
$USERR2
 40
0.0
  9
$USERR3
 40
0.0
  9
$USERR4
 40
0.0
  9
$USERR5
 40
0.0
  9
$WORLDVIEW
 70
     1
  9
$SHADEDGE
 70
     3
  9
$SHADEDIF
 70
    70
  9
$TILEMODE
 70
     1
  9
$MAXACTVP
 70
    64
  9
$PINSBASE
 10
0.0
 20
0.0
 30
0.0
  9
$PLIMCHECK
 70
     0
  9
$PEXTMIN
 10
1.000000000000000E+20
 20
1.000000000000000E+20
 30
1.000000000000000E+20
  9
$PEXTMAX
 10
-1.000000000000000E+20
 20
-1.000000000000000E+20
 30
-1.000000000000000E+20
  9
$PLIMMIN
 10
0.0
 20
0.0
  9
$PLIMMAX
 10
420.0
 20
297.0
  9
$UNITMODE
 70
     0
  9
$VISRETAIN
 70
     1
  9
$PLINEGEN
 70
     0
  9
$PSLTSCALE
 70
     1
  9
$TREEDEPTH
 70
  3020
  9
$CMLSTYLE
  2
Standard
  9
$CMLJUST
 70
     0
  9
$CMLSCALE
 40
20.0
  9
$PROXYGRAPHICS
 70
     1
  9
$MEASUREMENT
 70
     1
  9
$CELWEIGHT
370
    -1
  9
$ENDCAPS
280
     0
  9
$JOINSTYLE
280
     0
  9
$LWDISPLAY
290
     0
  9
$INSUNITS
 70
     4
  9
$HYPERLINKBASE
  1

  9
$STYLESHEET
  1

  9
$XEDIT
290
     1
  9
$CEPSNTYPE
380
     0
  9
$PSTYLEMODE
290
     1
  9
$FINGERPRINTGUID
  2
{523BFBCC-F465-4B2A-A0EC-35BAF2F49473}
  9
$VERSIONGUID
  2
{FAEB1C32-E019-11D5-929B-00C0DF256EC4}
  9
$EXTNAMES
290
     1
  9
$PSVPSCALE
 40
0.0
  9
$OLESTARTUP
290
     0
  9
$SORTENTS
280
   127
  9
$INDEXCTL
280
     0
  9
$HIDETEXT
280
     1
  9
$XCLIPFRAME
290
     0
  9
$HALOGAP
280
     0
  9
$OBSCOLOR
 70
   257
  9
$OBSLTYPE
280
     0
  9
$INTERSECTIONDISPLAY
280
     0
  9
$INTERSECTIONCOLOR
 70
   257
  9
$DIMASSOC
280
     2
  9
$PROJECTNAME
  1

  0
ENDSEC
  0
SECTION
  2
CLASSES
  0
CLASS
  1
ACDBDICTIONARYWDFLT
  2
AcDbDictionaryWithDefault
  3
ObjectDBX Classes
 90
        0
 91
        4
280
     0
281
     0
  0
CLASS
  1
VISUALSTYLE
  2
AcDbVisualStyle
  3
ObjectDBX Classes
 90
     4095
 91
        4
280
     0
281
     0
  0
CLASS
  1
MATERIAL
  2
AcDbMaterial
  3
ObjectDBX Classes
 90
     1153
 91
        4
280
     0
281
     0
  0
CLASS
  1
SCALE
  2
AcDbScale
  3
ObjectDBX Classes
 90
     1153
 91
        4
280
     0
281
     0
  0
CLASS
  1
TABLESTYLE
  2
AcDbTableStyle
  3
ObjectDBX Classes
 90
     4095
 91
        4
280
     0
281
     0
  0
CLASS
  1
MLEADERSTYLE
  2
AcDbMLeaderStyle
  3
ACDB_MLEADERSTYLE_CLASS
 90
     4095
 91
        4
280
     0
281
     0
  0
CLASS
  1
SUN
  2
AcDbSun
  3
SCENEOE
 90
     1153
 91
        4
280
     0
281
     0
  0
CLASS
  1
DICTIONARYVAR
  2
AcDbDictionaryVar
  3
ObjectDBX Classes
 90
        0
 91
        4
280
     0
281
     0
  0
CLASS
  1
CELLSTYLEMAP
  2
AcDbCellStyleMap
  3
ObjectDBX Classes
 90
     1152
 91
        4
280
     0
281
     0
  0
ENDSEC
  0
SECTION
  2
TABLES
  0
TABLE
  2
VPORT
  5
8
102
{ACAD_XDICTIONARY
360
430
102
}
330
0
100
AcDbSymbolTable
 70
     1
  0
VPORT
  5
29
330
8
100
AcDbSymbolTableRecord
100
AcDbViewportTableRecord
  2
*Active
 70
     0
 10
0.0
 20
0.0
 11
1.0
 21
1.0
 12
0.0
 22
0.0
 13
0.0
 23
0.0
 14
10.0
 24
10.0
 15
10.0
 25
10.0
 16
0.0
 26
0.0
 36
1.0
 17
0.0
 27
0.0
 37
0.0
 40
1633.5
 41
1.414141414141414
 42
50.0
 43
0.0
 44
0.0
 50
0.0
 51
0.0
 71
     0
 72
 10000
 73
     1
 74
     3
 75
     0
 76
     0
 77
     0
 78
     0
281
     0
 65
     1
110
0.0
120
0.0
130
0.0
111
1.0
121
0.0
131
0.0
112
0.0
122
1.0
132
0.0
 79
     0
146
0.0
  0
ENDTAB
  0
TABLE
  2
LTYPE
  5
5
330
0
100
AcDbSymbolTable
 70
     4
  0
LTYPE
  5
14
330
5
100
AcDbSymbolTableRecord
100
AcDbLinetypeTableRecord
  2
ByBlock
 70
     0
  3

 72
    65
 73
     0
 40
0.0
  0
LTYPE
  5
15
330
5
100
AcDbSymbolTableRecord
100
AcDbLinetypeTableRecord
  2
ByLayer
 70
     0
  3

 72
    65
 73
     0
 40
0.0
  0
LTYPE
  5
16
330
5
100
AcDbSymbolTableRecord
100
AcDbLinetypeTableRecord
  2
Continuous
 70
     0
  3
Solid line
 72
    65
 73
     0
 40
0.0
  0
LTYPE
  5
6F
330
5
100
AcDbSymbolTableRecord
100
AcDbLinetypeTableRecord
  2
JWW_DASHED3
 70
     0
  3
---  ------  ------  ------  ---
 72
    65
 73
     2
 40
3.386666666666667
 49
2.54
 74
     0
 49
-0.8466666666666667
 74
     0
  0
LTYPE
  5
70
330
5
100
AcDbSymbolTableRecord
100
AcDbLinetypeTableRecord
  2
JWW_CENTER2
 70
     0
  3
-------------  --  -------------
 72
    65
 73
     4
 40
13.54666666666667
 49
11.00666666666667
 74
     0
 49
-0.8466666666666667
 74
     0
 49
0.8466666666666667
 74
     0
 49
-0.8466666666666667
 74
     0
  0
LTYPE
  5
71
330
5
100
AcDbSymbolTableRecord
100
AcDbLinetypeTableRecord
  2
JWW_CENTER1
 70
     0
  3
-----  --  ----------  --  -----
 72
    65
 73
     4
 40
6.773333333333333
 49
4.233333333333333
 74
     0
 49
-0.8466666666666667
 74
     0
 49
0.8466666666666667
 74
     0
 49
-0.8466666666666667
 74
     0
  0
ENDTAB
  0
TABLE
  2
LAYER
  5
2
330
0
100
AcDbSymbolTable
 70
    11
  0
LAYER
  5
10
330
2
100
AcDbSymbolTableRecord
100
AcDbLayerTableRecord
  2
0
 70
     0
 62
     7
  6
Continuous
370
    -3
390
F
  0
LAYER
  5
72
330
2
100
AcDbSymbolTableRecord
100
AcDbLayerTableRecord
  2
F-4ﾚｲﾔ
 70
     0
 62
     7
  6
Continuous
370
    -3
390
F
  0
LAYER
  5
73
330
2
100
AcDbSymbolTableRecord
100
AcDbLayerTableRecord
  2
F-5ﾚｲﾔ
 70
     0
 62
     7
  6
Continuous
370
    -3
390
F
  0
LAYER
  5
74
330
2
100
AcDbSymbolTableRecord
100
AcDbLayerTableRecord
  2
B-5
 70
     0
 62
     7
  6
Continuous
370
    -3
390
F
  0
LAYER
  5
75
330
2
100
AcDbSymbolTableRecord
100
AcDbLayerTableRecord
  2
B-4
 70
     0
 62
     7
  6
Continuous
370
    -3
390
F
  0
LAYER
  5
76
330
2
100
AcDbSymbolTableRecord
100
AcDbLayerTableRecord
  2
B-1
 70
     0
 62
     7
  6
Continuous
370
    -3
390
F
  0
LAYER
  5
77
330
2
100
AcDbSymbolTableRecord
100
AcDbLayerTableRecord
  2
B-2
 70
     0
 62
     7
  6
Continuous
370
    -3
390
F
  0
LAYER
  5
78
330
2
100
AcDbSymbolTableRecord
100
AcDbLayerTableRecord
  2
B-8
 70
     0
 62
     7
  6
Continuous
370
    -3
390
F
  0
LAYER
  5
79
330
2
100
AcDbSymbolTableRecord
100
AcDbLayerTableRecord
  2
B-A
 70
     0
 62
     7
  6
Continuous
370
    -3
390
F
  0
LAYER
  5
7A
330
2
100
AcDbSymbolTableRecord
100
AcDbLayerTableRecord
  2
D-0
 70
     0
 62
     7
  6
Continuous
370
    -3
390
F
  0
LAYER
  5
7B
330
2
100
AcDbSymbolTableRecord
100
AcDbLayerTableRecord
  2
D-4
 70
     0
 62
     7
  6
Continuous
370
    -3
390
F
  0
ENDTAB
  0
TABLE
  2
STYLE
  5
3
330
0
100
AcDbSymbolTable
 70
     2
  0
STYLE
  5
11
330
3
100
AcDbSymbolTableRecord
100
AcDbTextStyleTableRecord
  2
Standard
 70
     0
 40
0.0
 41
1.0
 50
0.0
 71
     0
 42
2.5
  3
txt
  4

  0
STYLE
  5
6E
330
3
100
AcDbSymbolTableRecord
100
AcDbTextStyleTableRecord
  2
ＭＳ ゴシック
 70
     0
 40
1.0
 41
1.0
 50
0.0
 71
     0
 42
2.5
  3

  4

1001
ACAD
1000
MS Gothic
1071
    32817
  0
ENDTAB
  0
TABLE
  2
VIEW
  5
6
330
0
100
AcDbSymbolTable
 70
     0
  0
ENDTAB
  0
TABLE
  2
UCS
  5
7
330
0
100
AcDbSymbolTable
 70
     0
  0
ENDTAB
  0
TABLE
  2
APPID
  5
9
330
0
100
AcDbSymbolTable
 70
     2
  0
APPID
  5
12
330
9
100
AcDbSymbolTableRecord
100
AcDbRegAppTableRecord
  2
ACAD
 70
     0
  0
APPID
  5
46F
330
9
100
AcDbSymbolTableRecord
100
AcDbRegAppTableRecord
  2
ACAD_MLEADERVER
 70
     0
  0
ENDTAB
  0
TABLE
  2
DIMSTYLE
  5
A
330
0
100
AcDbSymbolTable
 70
     1
100
AcDbDimStyleTable
  0
DIMSTYLE
105
27
330
A
100
AcDbSymbolTableRecord
100
AcDbDimStyleTableRecord
  2
ISO-25
 70
     0
 41
2.5
 42
0.625
 43
3.75
 44
1.25
 73
     0
 74
     0
 77
     1
 78
     8
140
2.5
141
2.5
143
0.03937007874016
147
0.625
171
     3
172
     1
178
     0
271
     2
272
     2
274
     3
278
    44
283
     0
284
     8
340
11
  0
ENDTAB
  0
TABLE
  2
BLOCK_RECORD
  5
1
330
0
100
AcDbSymbolTable
 70
     1
  0
BLOCK_RECORD
  5
1F
330
1
100
AcDbSymbolTableRecord
100
AcDbBlockTableRecord
  2
*Model_Space
340
22
  0
BLOCK_RECORD
  5
1B
330
1
100
AcDbSymbolTableRecord
100
AcDbBlockTableRecord
  2
*Paper_Space
340
1E
  0
BLOCK_RECORD
  5
23
330
1
100
AcDbSymbolTableRecord
100
AcDbBlockTableRecord
  2
*Paper_Space0
340
26
  0
ENDTAB
  0
ENDSEC
  0
SECTION
  2
BLOCKS
  0
BLOCK
  5
20
330
1F
100
AcDbEntity
  8
0
100
AcDbBlockBegin
  2
*Model_Space
 70
     0
 10
0.0
 20
0.0
 30
0.0
  3
*Model_Space
  1

  0
ENDBLK
  5
21
330
1F
100
AcDbEntity
  8
0
100
AcDbBlockEnd
  0
BLOCK
  5
1C
330
1B
100
AcDbEntity
 67
     1
  8
0
100
AcDbBlockBegin
  2
*Paper_Space
 70
     0
 10
0.0
 20
0.0
 30
0.0
  3
*Paper_Space
  1

  0
ENDBLK
  5
1D
330
1B
100
AcDbEntity
 67
     1
  8
0
100
AcDbBlockEnd
  0
BLOCK
  5
24
330
23
100
AcDbEntity
  8
0
100
AcDbBlockBegin
  2
*Paper_Space0
 70
     0
 10
0.0
 20
0.0
 30
0.0
  3
*Paper_Space0
  1

  0
ENDBLK
  5
25
330
23
100
AcDbEntity
  8
0
100
AcDbBlockEnd
  0
ENDSEC
  0
SECTION
  2
ENTITIES
  0
LINE
  5
7C
330
1F
100
AcDbEntity
  8
F-4ﾚｲﾔ
  6
Continuous
 62
     2
370
     9
100
AcDbLine
 10
221.516540106185
 20
-328.7936850873291
 30
0.0
 11
221.516540106185
 21
-303.7932933076099
 31
0.0
  0
LINE
  5
7D
330
1F
100
AcDbEntity
  8
F-4ﾚｲﾔ
  6
Continuous
 62
     2
370
     9
100
AcDbLine
 10
221.516540106185
 20
-303.7932933076099
 30
0.0
 11
334.0162926663626
 21
-303.7932933076099
 31
0.0
  0
LINE
  5
7E
330
1F
100
AcDbEntity
  8
F-4ﾚｲﾔ
  6
Continuous
 62
     2
370
     9
100
AcDbLine
 10
334.0162926663626
 20
-303.7932933076099
 30
0.0
 11
334.0162926663626
 21
-328.7936850873291
 31
0.0
  0
LINE
  5
7F
330
1F
100
AcDbEntity
  8
F-4ﾚｲﾔ
  6
Continuous
 62
     2
370
     9
100
AcDbLine
 10
334.0162926663626
 20
-328.7936850873291
 30
0.0
 11
221.516540106185
 21
-328.7936850873291
 31
0.0
  0
TEXT
  5
80
330
1F
100
AcDbEntity
  8
F-4ﾚｲﾔ
  6
Continuous
 62
     2
370
     9
100
AcDbText
 10
245.2664163862738
 20
-323.4735531194237
 30
0.0
 40
15.24
  1
仕　様
 41
1.083333333333333
  7
ＭＳ ゴシック
100
AcDbText
  0
TEXT
  5
81
330
1F
100
AcDbEntity
  8
F-4ﾚｲﾔ
  6
Continuous
 62
     2
370
     9
100
AcDbText
 10
302.417221060577
 20
-409.9588812916711
 30
0.0
 40
15.24
  1
材質：ＳＳ４００
 41
1.109375000000001
  7
ＭＳ ゴシック
100
AcDbText
  0
TEXT
  5
82
330
1F
100
AcDbEntity
  8
F-4ﾚｲﾔ
  6
Continuous
 62
     2
370
     9
100
AcDbText
 10
302.4172334325682
 20
-437.4594050392956
 30
0.0
 40
15.24
  1
処理：溶融亜鉛めっき
 41
1.1125
  7
ＭＳ ゴシック
100
AcDbText
  0
TEXT
  5
83
330
1F
100
AcDbEntity
  8
F-4ﾚｲﾔ
  6
Continuous
 62
     2
370
     9
100
AcDbText
 10
302.4174685003998
 20
-524.9596937190887
 30
0.0
 40
15.24
  1
材質：ＳＳ４００
 41
1.109374999999999
  7
ＭＳ ゴシック
100
AcDbText
  0
TEXT
  5
84
330
1F
100
AcDbEntity
  8
F-4ﾚｲﾔ
  6
Continuous
 62
     2
370
     9
100
AcDbText
 10
302.4174808723909
 20
-552.4596607271124
 30
0.0
 40
15.24
  1
処理：樹脂系塗装
 41
1.109374999999999
  7
ＭＳ ゴシック
100
AcDbText
  0
TEXT
  5
85
330
1F
100
AcDbEntity
  8
F-4ﾚｲﾔ
  6
Continuous
 62
     2
370
     9
100
AcDbText
 10
272.5617754049604
 20
-497.4596648511094
 30
0.0
 40
15.24
  1
スチール製受枠　Ｌ－６５（二方受四方枠）
 41
1.11875
  7
ＭＳ ゴシック
100
AcDbText
  0
TEXT
  5
86
330
1F
100
AcDbEntity
  8
F-5ﾚｲﾔ
  6
Continuous
 62
     3
370
     9
100
AcDbText
 10
359.0162926663626
 20
-325.2686850873291
 30
0.0
 40
19.05
  1
※適用荷重：Ｔ－２５
 41
1.09
  7
ＭＳ ゴシック
100
AcDbText
  0
TEXT
  5
87
330
1F
100
AcDbEntity
  8
B-5
  6
Continuous
 62
     7
370
     9
100
AcDbText
 10
-60.61556437591943
 20
572.0388929966159
 30
0.0
 40
11.43
  1
受枠：Ｌ－６５
 41
1.142857142857143
  7
ＭＳ ゴシック
100
AcDbText
  0
LWPOLYLINE
  5
88
330
1F
100
AcDbEntity
  8
B-4
  6
Continuous
 62
     7
370
     9
100
AcDbPolyline
 90
        4
 70
     1
 43
1.0
 10
-801.1156661060666
 20
561.4447320810478
 42
0.4142135623731
 10
-801.6156661060666
 20
561.9447320810478
 42
0.4142135623731
 10
-802.1156661060666
 20
561.4447320810478
 42
0.4142135623731
 10
-801.6156661060666
 20
560.9447320810478
 42
0.4142135623731
  0
LWPOLYLINE
  5
89
330
1F
100
AcDbEntity
  8
B-4
  6
Continuous
 62
     7
370
     9
100
AcDbPolyline
 90
        4
 70
     1
 43
1.0
 10
-587.6157411628127
 20
561.4447320810478
 42
0.4142135623731
 10
-588.1157411628126
 20
561.9447320810478
 42
0.4142135623731
 10
-588.6157411628126
 20
561.4447320810478
 42
0.4142135623731
 10
-588.1157411628126
 20
560.9447320810478
 42
0.4142135623731
  0
LWPOLYLINE
  5
8A
330
1F
100
AcDbEntity
  8
B-4
  6
Continuous
 62
     7
370
     9
100
AcDbPolyline
 90
        4
 70
     1
 43
1.0
 10
-374.1156924996476
 20
561.4447320810478
 42
0.4142135623731
 10
-374.6156924996475
 20
561.9447320810478
 42
0.4142135623731
 10
-375.1156924996475
 20
561.4447320810478
 42
0.4142135623731
 10
-374.6156924996475
 20
560.9447320810478
 42
0.4142135623731
  0
LWPOLYLINE
  5
8B
330
1F
100
AcDbEntity
  8
B-4
  6
Continuous
 62
     7
370
     9
100
AcDbPolyline
 90
        4
 70
     1
 43
1.0
 10
-746.7152787802643
 20
526.3473727588349
 42
0.4142135623731
 10
-747.2152787802643
 20
526.8473727588349
 42
0.4142135623731
 10
-747.7152787802642
 20
526.3473727588349
 42
0.4142135623731
 10
-747.2152787802643
 20
525.847372758835
 42
0.4142135623731
  0
LWPOLYLINE
  5
8C
330
1F
100
AcDbEntity
  8
B-4
  6
Continuous
 62
     7
370
     9
100
AcDbPolyline
 90
        4
 70
     1
 43
1.0
 10
-711.4150806634462
 20
526.3473727588349
 42
0.4142135623731
 10
-711.9150806634462
 20
526.8473727588349
 42
0.4142135623731
 10
-712.4150806634462
 20
526.3473727588349
 42
0.4142135623731
 10
-711.9150806634462
 20
525.847372758835
 42
0.4142135623731
  0
LINE
  5
8D
330
1F
100
AcDbEntity
  8
B-5
  6
Continuous
 62
     7
370
     9
100
AcDbLine
 10
234.8780786152174
 20
548.1912365811535
 30
0.0
 11
368.0748114197992
 21
548.1912365811535
 31
0.0
  0
LINE
  5
8E
330
1F
100
AcDbEntity
  8
B-5
  6
Continuous
 62
     7
370
     9
100
AcDbLine
 10
234.8780786152174
 20
548.1912365811535
 30
0.0
 11
214.0442641488956
 21
522.7556600133746
 31
0.0
  0
LINE
  5
8F
330
1F
100
AcDbEntity
  8
B-5
  6
Continuous
 62
     7
370
     9
100
AcDbLine
 10
214.0442641488956
 20
522.7556600133746
 30
0.0
 11
220.6349475446937
 21
533.3770143999878
 31
0.0
  0
LINE
  5
90
330
1F
100
AcDbEntity
  8
B-5
  6
Continuous
 62
     7
370
     9
100
AcDbLine
 10
214.0442641488956
 20
522.7556600133746
 30
0.0
 11
223.1594523351286
 21
531.3092835221373
 31
0.0
  0
LINE
  5
91
330
1F
100
AcDbEntity
  8
B-1
  6
JWW_DASHED3
 62
     2
370
     9
100
AcDbLine
 10
-795.6156215668984
 20
438.2908393577582
 30
0.0
 11
-380.6157370388156
 21
438.2908393577582
 31
0.0
  0
LINE
  5
92
330
1F
100
AcDbEntity
  8
B-1
  6
JWW_DASHED3
 62
     2
370
     9
100
AcDbLine
 10
-380.6157370388156
 20
-61.70920188221228
 30
0.0
 11
-795.6156215668984
 21
-61.70920188221228
 31
0.0
  0
LINE
  5
93
330
1F
100
AcDbEntity
  8
B-4
  6
Continuous
 62
     7
370
     9
100
AcDbLine
 10
-801.6156661060666
 20
561.4447320810478
 30
0.0
 11
-529.6157089956358
 21
561.4447320810478
 31
0.0
  0
LINE
  5
94
330
1F
100
AcDbEntity
  8
B-4
  6
Continuous
 62
     7
370
     9
100
AcDbLine
 10
-801.6156661060666
 20
505.7909383336872
 30
0.0
 11
-801.6156661060666
 21
562.944712285862
 31
0.0
  0
LINE
  5
95
330
1F
100
AcDbEntity
  8
B-4
  6
Continuous
 62
     7
370
     9
100
AcDbLine
 10
-588.1157411628126
 20
526.3912933273526
 30
0.0
 11
-588.1157411628126
 21
562.944712285862
 31
0.0
  0
LINE
  5
96
330
1F
100
AcDbEntity
  8
B-4
  6
Continuous
 62
     7
370
     9
100
AcDbLine
 10
-529.6157089956358
 20
561.4447320810478
 30
0.0
 11
-374.6156924996475
 21
561.4447320810478
 31
0.0
  0
LINE
  5
97
330
1F
100
AcDbEntity
  8
B-4
  6
Continuous
 62
     7
370
     9
100
AcDbLine
 10
-374.6156924996475
 20
505.7909383336872
 30
0.0
 11
-374.6156924996475
 21
562.944712285862
 31
0.0
  0
LINE
  5
98
330
1F
100
AcDbEntity
  8
B-2
  6
Continuous
 62
     3
370
     9
100
AcDbLine
 10
-778.6151448328403
 20
291.7908756489321
 30
0.0
 11
-778.6151448328403
 21
380.7918868530072
 31
0.0
  0
LINE
  5
99
330
1F
100
AcDbEntity
  8
B-2
  6
Continuous
 62
     3
370
     9
100
AcDbLine
 10
-778.6151448328403
 20
391.791329288607
 30
0.0
 11
-778.6151448328403
 21
476.7909911208494
 31
0.0
  0
LINE
  5
9A
330
1F
100
AcDbEntity
  8
B-2
  6
Continuous
 62
     3
370
     9
100
AcDbLine
 10
-397.6165849326078
 20
476.7909911208494
 30
0.0
 11
-397.6165849326078
 21
391.791329288607
 31
0.0
  0
LINE
  5
9B
330
1F
100
AcDbEntity
  8
B-2
  6
Continuous
 62
     3
370
     9
100
AcDbLine
 10
-397.6165849326078
 20
380.7918868530072
 30
0.0
 11
-397.6165849326078
 21
291.7908756489321
 31
0.0
  0
LINE
  5
9C
330
1F
100
AcDbEntity
  8
B-2
  6
Continuous
 62
     3
370
     9
100
AcDbLine
 10
-574.214881226949
 20
476.7909911208494
 30
0.0
 11
-574.214881226949
 21
391.791329288607
 31
0.0
  0
LINE
  5
9D
330
1F
100
AcDbEntity
  8
B-2
  6
Continuous
 62
     3
370
     9
100
AcDbLine
 10
-567.2148705045568
 20
476.7909911208494
 30
0.0
 11
-567.2148705045568
 21
391.791329288607
 31
0.0
  0
LINE
  5
9E
330
1F
100
AcDbEntity
  8
B-2
  6
Continuous
 62
     3
370
     9
100
AcDbLine
 10
-574.214881226949
 20
380.7918868530072
 30
0.0
 11
-574.214881226949
 21
291.7908756489321
 31
0.0
  0
LINE
  5
9F
330
1F
100
AcDbEntity
  8
B-2
  6
Continuous
 62
     3
370
     9
100
AcDbLine
 10
-567.2148705045568
 20
380.7918868530072
 30
0.0
 11
-567.2148705045568
 21
291.7908756489321
 31
0.0
  0
LINE
  5
A0
330
1F
100
AcDbEntity
  8
B-2
  6
Continuous
 62
     3
370
     9
100
AcDbLine
 10
-609.5150174838114
 20
476.7909911208494
 30
0.0
 11
-609.5150174838114
 21
391.791329288607
 31
0.0
  0
LINE
  5
A1
330
1F
100
AcDbEntity
  8
B-2
  6
Continuous
 62
     3
370
     9
100
AcDbLine
 10
-602.5150686213748
 20
476.7909911208494
 30
0.0
 11
-602.5150686213748
 21
391.791329288607
 31
0.0
  0
LINE
  5
A2
330
1F
100
AcDbEntity
  8
B-2
  6
Continuous
 62
     3
370
     9
100
AcDbLine
 10
-609.5150174838114
 20
380.7918868530072
 30
0.0
 11
-609.5150174838114
 21
291.7908756489321
 31
0.0
  0
LINE
  5
A3
330
1F
100
AcDbEntity
  8
B-2
  6
Continuous
 62
     3
370
     9
100
AcDbLine
 10
-602.5150686213748
 20
380.7918868530072
 30
0.0
 11
-602.5150686213748
 21
291.7908756489321
 31
0.0
  0
LINE
  5
A4
330
1F
100
AcDbEntity
  8
B-2
  6
Continuous
 62
     3
370
     9
100
AcDbLine
 10
-644.8152156006295
 20
476.7909911208494
 30
0.0
 11
-644.8152156006295
 21
391.791329288607
 31
0.0
  0
LINE
  5
A5
330
1F
100
AcDbEntity
  8
B-2
  6
Continuous
 62
     3
370
     9
100
AcDbLine
 10
-637.8152048782372
 20
476.7909911208494
 30
0.0
 11
-637.8152048782372
 21
391.791329288607
 31
0.0
  0
LINE
  5
A6
330
1F
100
AcDbEntity
  8
B-2
  6
Continuous
 62
     3
370
     9
100
AcDbLine
 10
-644.8152156006295
 20
380.7918868530072
 30
0.0
 11
-644.8152156006295
 21
291.7908756489321
 31
0.0
  0
LINE
  5
A7
330
1F
100
AcDbEntity
  8
B-2
  6
Continuous
 62
     3
370
     9
100
AcDbLine
 10
-637.8152048782372
 20
380.7918868530072
 30
0.0
 11
-637.8152048782372
 21
291.7908756489321
 31
0.0
  0
LINE
  5
A8
330
1F
100
AcDbEntity
  8
B-2
  6
Continuous
 62
     3
370
     9
100
AcDbLine
 10
-680.1148569778466
 20
476.7909911208494
 30
0.0
 11
-680.1148569778466
 21
391.791329288607
 31
0.0
  0
LINE
  5
A9
330
1F
100
AcDbEntity
  8
B-2
  6
Continuous
 62
     3
370
     9
100
AcDbLine
 10
-673.1149081154098
 20
476.7909911208494
 30
0.0
 11
-673.1149081154098
 21
391.791329288607
 31
0.0
  0
LINE
  5
AA
330
1F
100
AcDbEntity
  8
B-2
  6
Continuous
 62
     3
370
     9
100
AcDbLine
 10
-680.1148569778466
 20
380.7918868530072
 30
0.0
 11
-680.1148569778466
 21
291.7908756489321
 31
0.0
  0
LINE
  5
AB
330
1F
100
AcDbEntity
  8
B-2
  6
Continuous
 62
     3
370
     9
100
AcDbLine
 10
-673.1149081154098
 20
380.7918868530072
 30
0.0
 11
-673.1149081154098
 21
291.7908756489321
 31
0.0
  0
LINE
  5
AC
330
1F
100
AcDbEntity
  8
B-2
  6
Continuous
 62
     3
370
     9
100
AcDbLine
 10
-715.4150550946645
 20
476.7909911208494
 30
0.0
 11
-715.4150550946645
 21
391.791329288607
 31
0.0
  0
LINE
  5
AD
330
1F
100
AcDbEntity
  8
B-2
  6
Continuous
 62
     3
370
     9
100
AcDbLine
 10
-708.4151062322278
 20
476.7909911208494
 30
0.0
 11
-708.4151062322278
 21
391.791329288607
 31
0.0
  0
LINE
  5
AE
330
1F
100
AcDbEntity
  8
B-2
  6
Continuous
 62
     3
370
     9
100
AcDbLine
 10
-715.4150550946645
 20
380.7918868530072
 30
0.0
 11
-715.4150550946645
 21
291.7908756489321
 31
0.0
  0
LINE
  5
AF
330
1F
100
AcDbEntity
  8
B-2
  6
Continuous
 62
     3
370
     9
100
AcDbLine
 10
-708.4151062322278
 20
380.7918868530072
 30
0.0
 11
-708.4151062322278
 21
291.7908756489321
 31
0.0
  0
LINE
  5
B0
330
1F
100
AcDbEntity
  8
B-2
  6
Continuous
 62
     3
370
     9
100
AcDbLine
 10
-750.7153150714382
 20
476.7909911208494
 30
0.0
 11
-750.7153150714382
 21
391.791329288607
 31
0.0
  0
LINE
  5
B1
330
1F
100
AcDbEntity
  8
B-2
  6
Continuous
 62
     3
370
     9
100
AcDbLine
 10
-743.7152424890903
 20
476.7909911208494
 30
0.0
 11
-743.7152424890903
 21
391.791329288607
 31
0.0
  0
LINE
  5
B2
330
1F
100
AcDbEntity
  8
B-2
  6
Continuous
 62
     3
370
     9
100
AcDbLine
 10
-750.7153150714382
 20
380.7918868530072
 30
0.0
 11
-750.7153150714382
 21
291.7908756489321
 31
0.0
  0
LINE
  5
B3
330
1F
100
AcDbEntity
  8
B-2
  6
Continuous
 62
     3
370
     9
100
AcDbLine
 10
-743.7152424890903
 20
380.7918868530072
 30
0.0
 11
-743.7152424890903
 21
291.7908756489321
 31
0.0
  0
LINE
  5
B4
330
1F
100
AcDbEntity
  8
B-2
  6
Continuous
 62
     3
370
     9
100
AcDbLine
 10
-778.6151448328403
 20
380.7918868530072
 30
0.0
 11
-743.7152424890903
 21
391.791329288607
 31
0.0
  0
LINE
  5
B5
330
1F
100
AcDbEntity
  8
B-2
  6
Continuous
 62
     3
370
     9
100
AcDbLine
 10
-743.3148848560666
 20
380.7918868530072
 30
0.0
 11
-708.4155392519175
 21
391.791329288607
 31
0.0
  0
LINE
  5
B6
330
1F
100
AcDbEntity
  8
B-2
  6
Continuous
 62
     3
370
     9
100
AcDbLine
 10
-708.0152434788494
 20
380.7918868530072
 30
0.0
 11
-673.1153411350994
 21
391.791329288607
 31
0.0
  0
LINE
  5
B7
330
1F
100
AcDbEntity
  8
B-2
  6
Continuous
 62
     3
370
     9
100
AcDbLine
 10
-672.7150453620313
 20
380.7918868530072
 30
0.0
 11
-637.8152048782372
 21
391.791329288607
 31
0.0
  0
LINE
  5
B8
330
1F
100
AcDbEntity
  8
B-2
  6
Continuous
 62
     3
370
     9
100
AcDbLine
 10
-637.4153421248587
 20
380.7918868530072
 30
0.0
 11
-602.5155635010201
 21
391.791329288607
 31
0.0
  0
LINE
  5
B9
330
1F
100
AcDbEntity
  8
B-2
  6
Continuous
 62
     3
370
     9
100
AcDbLine
 10
-602.1152058679963
 20
380.7918868530072
 30
0.0
 11
-567.2154272441577
 21
391.791329288607
 31
0.0
  0
LINE
  5
BA
330
1F
100
AcDbEntity
  8
B-2
  6
Continuous
 62
     3
370
     9
100
AcDbLine
 10
-566.8150696111342
 20
380.7918868530072
 30
0.0
 11
-531.9152291273397
 21
391.791329288607
 31
0.0
  0
LINE
  5
BB
330
1F
100
AcDbEntity
  8
B-2
  6
Continuous
 62
     3
370
     9
100
AcDbLine
 10
-785.615588574922
 20
389.7103603802455
 30
0.0
 11
-779.0153787459525
 21
391.791329288607
 31
0.0
  0
LINE
  5
BC
330
1F
100
AcDbEntity
  8
B-2
  6
Continuous
 62
     3
370
     9
100
AcDbLine
 10
-778.6151448328403
 20
-19.20899980635721
 30
0.0
 11
-743.7152424890903
 21
-8.208567611466968
 31
0.0
  0
LINE
  5
BD
330
1F
100
AcDbEntity
  8
B-2
  6
Continuous
 62
     3
370
     9
100
AcDbLine
 10
-743.3148848560666
 20
-19.20899980635721
 30
0.0
 11
-708.4155392519175
 21
-8.208567611466968
 31
0.0
  0
LINE
  5
BE
330
1F
100
AcDbEntity
  8
B-2
  6
Continuous
 62
     3
370
     9
100
AcDbLine
 10
-708.0152434788494
 20
-19.20899980635721
 30
0.0
 11
-673.1153411350994
 21
-8.208567611466968
 31
0.0
  0
LINE
  5
BF
330
1F
100
AcDbEntity
  8
B-2
  6
Continuous
 62
     3
370
     9
100
AcDbLine
 10
-672.7150453620313
 20
-19.20899980635721
 30
0.0
 11
-637.8152048782372
 21
-8.208567611466968
 31
0.0
  0
LINE
  5
C0
330
1F
100
AcDbEntity
  8
B-2
  6
Continuous
 62
     3
370
     9
100
AcDbLine
 10
-637.4153421248587
 20
-19.20899980635721
 30
0.0
 11
-602.5155635010201
 21
-8.208567611466968
 31
0.0
  0
LINE
  5
C1
330
1F
100
AcDbEntity
  8
B-2
  6
Continuous
 62
     3
370
     9
100
AcDbLine
 10
-602.1152058679963
 20
-19.20899980635721
 30
0.0
 11
-567.2154272441577
 21
-8.208567611466968
 31
0.0
  0
LINE
  5
C2
330
1F
100
AcDbEntity
  8
B-2
  6
Continuous
 62
     3
370
     9
100
AcDbLine
 10
-566.8150696111342
 20
-19.20899980635721
 30
0.0
 11
-531.9152291273397
 21
-8.208567611466968
 31
0.0
  0
LINE
  5
C3
330
1F
100
AcDbEntity
  8
B-2
  6
Continuous
 62
     3
370
     9
100
AcDbLine
 10
-785.615588574922
 20
-10.28966023973975
 30
0.0
 11
-779.0153787459525
 21
-8.208567611466968
 31
0.0
  0
LINE
  5
C4
330
1F
100
AcDbEntity
  8
B-2
  6
Continuous
 62
     3
370
     9
100
AcDbLine
 10
-390.6156463108807
 20
-108.7094682924213
 30
0.0
 11
-785.615588574922
 21
-108.7094682924213
 31
0.0
  0
LINE
  5
C5
330
1F
100
AcDbEntity
  8
B-2
  6
Continuous
 62
     3
370
     9
100
AcDbLine
 10
-390.6156463108807
 20
-104.2096513978901
 30
0.0
 11
-785.615588574922
 21
-104.2096513978901
 31
0.0
  0
LINE
  5
C6
330
1F
100
AcDbEntity
  8
B-2
  6
Continuous
 62
     3
370
     9
100
AcDbLine
 10
-785.615588574922
 20
476.7909911208494
 30
0.0
 11
-390.6156463108807
 21
476.7909911208494
 31
0.0
  0
LINE
  5
C7
330
1F
100
AcDbEntity
  8
B-2
  6
Continuous
 62
     3
370
     9
100
AcDbLine
 10
-785.615588574922
 20
481.2908080153807
 30
0.0
 11
-390.6156463108807
 21
481.2908080153807
 31
0.0
  0
LINE
  5
C8
330
1F
100
AcDbEntity
  8
B-2
  6
Continuous
 62
     3
370
     9
100
AcDbLine
 10
-785.615588574922
 20
-19.20899980635721
 30
0.0
 11
-390.6156463108807
 21
-19.20899980635721
 31
0.0
  0
LINE
  5
C9
330
1F
100
AcDbEntity
  8
B-2
  6
Continuous
 62
     3
370
     9
100
AcDbLine
 10
-785.615588574922
 20
391.791329288607
 30
0.0
 11
-390.6156463108807
 21
391.791329288607
 31
0.0
  0
LINE
  5
CA
330
1F
100
AcDbEntity
  8
B-2
  6
Continuous
 62
     3
370
     9
100
AcDbLine
 10
-785.615588574922
 20
-108.7094682924213
 30
0.0
 11
-785.615588574922
 21
481.2908080153807
 31
0.0
  0
LINE
  5
CB
330
1F
100
AcDbEntity
  8
B-2
  6
Continuous
 62
     3
370
     9
100
AcDbLine
 10
-778.6151448328403
 20
-104.2096513978901
 30
0.0
 11
-778.6151448328403
 21
-19.20899980635721
 31
0.0
  0
LINE
  5
CC
330
1F
100
AcDbEntity
  8
B-2
  6
Continuous
 62
     3
370
     9
100
AcDbLine
 10
-574.214881226949
 20
-19.20899980635721
 30
0.0
 11
-574.214881226949
 21
-104.2096513978901
 31
0.0
  0
LINE
  5
CD
330
1F
100
AcDbEntity
  8
B-2
  6
Continuous
 62
     3
370
     9
100
AcDbLine
 10
-567.2148705045568
 20
-19.20899980635721
 30
0.0
 11
-567.2148705045568
 21
-104.2096513978901
 31
0.0
  0
LINE
  5
CE
330
1F
100
AcDbEntity
  8
B-2
  6
Continuous
 62
     3
370
     9
100
AcDbLine
 10
-609.5150174838114
 20
-19.20899980635721
 30
0.0
 11
-609.5150174838114
 21
-104.2096513978901
 31
0.0
  0
LINE
  5
CF
330
1F
100
AcDbEntity
  8
B-2
  6
Continuous
 62
     3
370
     9
100
AcDbLine
 10
-602.5150686213748
 20
-19.20899980635721
 30
0.0
 11
-602.5150686213748
 21
-104.2096513978901
 31
0.0
  0
LINE
  5
D0
330
1F
100
AcDbEntity
  8
B-2
  6
Continuous
 62
     3
370
     9
100
AcDbLine
 10
-644.8152156006295
 20
-19.20899980635721
 30
0.0
 11
-644.8152156006295
 21
-104.2096513978901
 31
0.0
  0
LINE
  5
D1
330
1F
100
AcDbEntity
  8
B-2
  6
Continuous
 62
     3
370
     9
100
AcDbLine
 10
-637.8152048782372
 20
-19.20899980635721
 30
0.0
 11
-637.8152048782372
 21
-104.2096513978901
 31
0.0
  0
LINE
  5
D2
330
1F
100
AcDbEntity
  8
B-2
  6
Continuous
 62
     3
370
     9
100
AcDbLine
 10
-680.1148569778466
 20
-19.20899980635721
 30
0.0
 11
-680.1148569778466
 21
-104.2096513978901
 31
0.0
  0
LINE
  5
D3
330
1F
100
AcDbEntity
  8
B-2
  6
Continuous
 62
     3
370
     9
100
AcDbLine
 10
-673.1149081154098
 20
-19.20899980635721
 30
0.0
 11
-673.1149081154098
 21
-104.2096513978901
 31
0.0
  0
LINE
  5
D4
330
1F
100
AcDbEntity
  8
B-2
  6
Continuous
 62
     3
370
     9
100
AcDbLine
 10
-715.4150550946645
 20
-19.20899980635721
 30
0.0
 11
-715.4150550946645
 21
-104.2096513978901
 31
0.0
  0
LINE
  5
D5
330
1F
100
AcDbEntity
  8
B-2
  6
Continuous
 62
     3
370
     9
100
AcDbLine
 10
-708.4151062322278
 20
-19.20899980635721
 30
0.0
 11
-708.4151062322278
 21
-104.2096513978901
 31
0.0
  0
LINE
  5
D6
330
1F
100
AcDbEntity
  8
B-2
  6
Continuous
 62
     3
370
     9
100
AcDbLine
 10
-750.7153150714382
 20
-19.20899980635721
 30
0.0
 11
-750.7153150714382
 21
-104.2096513978901
 31
0.0
  0
LINE
  5
D7
330
1F
100
AcDbEntity
  8
B-2
  6
Continuous
 62
     3
370
     9
100
AcDbLine
 10
-743.7152424890903
 20
-19.20899980635721
 30
0.0
 11
-743.7152424890903
 21
-104.2096513978901
 31
0.0
  0
LINE
  5
D8
330
1F
100
AcDbEntity
  8
B-2
  6
Continuous
 62
     3
370
     9
100
AcDbLine
 10
-390.6156463108807
 20
481.2908080153807
 30
0.0
 11
-390.6156463108807
 21
-108.7094682924213
 31
0.0
  0
LINE
  5
D9
330
1F
100
AcDbEntity
  8
B-2
  6
Continuous
 62
     3
370
     9
100
AcDbLine
 10
-397.6165849326078
 20
-19.20899980635721
 30
0.0
 11
-397.6165849326078
 21
-104.2096513978901
 31
0.0
  0
LINE
  5
DA
330
1F
100
AcDbEntity
  8
B-2
  6
Continuous
 62
     3
370
     9
100
AcDbLine
 10
-778.6151448328403
 20
191.7909168889026
 30
0.0
 11
-778.6151448328403
 21
280.7919280929777
 31
0.0
  0
LINE
  5
DB
330
1F
100
AcDbEntity
  8
B-2
  6
Continuous
 62
     3
370
     9
100
AcDbLine
 10
-397.6165849326078
 20
280.7919280929777
 30
0.0
 11
-397.6165849326078
 21
191.7909168889026
 31
0.0
  0
LINE
  5
DC
330
1F
100
AcDbEntity
  8
B-2
  6
Continuous
 62
     3
370
     9
100
AcDbLine
 10
-574.214881226949
 20
280.7919280929777
 30
0.0
 11
-574.214881226949
 21
191.7909168889026
 31
0.0
  0
LINE
  5
DD
330
1F
100
AcDbEntity
  8
B-2
  6
Continuous
 62
     3
370
     9
100
AcDbLine
 10
-567.2148705045568
 20
280.7919280929777
 30
0.0
 11
-567.2148705045568
 21
191.7909168889026
 31
0.0
  0
LINE
  5
DE
330
1F
100
AcDbEntity
  8
B-2
  6
Continuous
 62
     3
370
     9
100
AcDbLine
 10
-609.5150174838114
 20
280.7919280929777
 30
0.0
 11
-609.5150174838114
 21
191.7909168889026
 31
0.0
  0
LINE
  5
DF
330
1F
100
AcDbEntity
  8
B-2
  6
Continuous
 62
     3
370
     9
100
AcDbLine
 10
-602.5150686213748
 20
280.7919280929777
 30
0.0
 11
-602.5150686213748
 21
191.7909168889026
 31
0.0
  0
LINE
  5
E0
330
1F
100
AcDbEntity
  8
B-2
  6
Continuous
 62
     3
370
     9
100
AcDbLine
 10
-644.8152156006295
 20
280.7919280929777
 30
0.0
 11
-644.8152156006295
 21
191.7909168889026
 31
0.0
  0
LINE
  5
E1
330
1F
100
AcDbEntity
  8
B-2
  6
Continuous
 62
     3
370
     9
100
AcDbLine
 10
-637.8152048782372
 20
280.7919280929777
 30
0.0
 11
-637.8152048782372
 21
191.7909168889026
 31
0.0
  0
LINE
  5
E2
330
1F
100
AcDbEntity
  8
B-2
  6
Continuous
 62
     3
370
     9
100
AcDbLine
 10
-680.1148569778466
 20
280.7919280929777
 30
0.0
 11
-680.1148569778466
 21
191.7909168889026
 31
0.0
  0
LINE
  5
E3
330
1F
100
AcDbEntity
  8
B-2
  6
Continuous
 62
     3
370
     9
100
AcDbLine
 10
-673.1149081154098
 20
280.7919280929777
 30
0.0
 11
-673.1149081154098
 21
191.7909168889026
 31
0.0
  0
LINE
  5
E4
330
1F
100
AcDbEntity
  8
B-2
  6
Continuous
 62
     3
370
     9
100
AcDbLine
 10
-715.4150550946645
 20
280.7919280929777
 30
0.0
 11
-715.4150550946645
 21
191.7909168889026
 31
0.0
  0
LINE
  5
E5
330
1F
100
AcDbEntity
  8
B-2
  6
Continuous
 62
     3
370
     9
100
AcDbLine
 10
-708.4151062322278
 20
280.7919280929777
 30
0.0
 11
-708.4151062322278
 21
191.7909168889026
 31
0.0
  0
LINE
  5
E6
330
1F
100
AcDbEntity
  8
B-2
  6
Continuous
 62
     3
370
     9
100
AcDbLine
 10
-750.7153150714382
 20
280.7919280929777
 30
0.0
 11
-750.7153150714382
 21
191.7909168889026
 31
0.0
  0
LINE
  5
E7
330
1F
100
AcDbEntity
  8
B-2
  6
Continuous
 62
     3
370
     9
100
AcDbLine
 10
-743.7152424890903
 20
280.7919280929777
 30
0.0
 11
-743.7152424890903
 21
191.7909168889026
 31
0.0
  0
LINE
  5
E8
330
1F
100
AcDbEntity
  8
B-2
  6
Continuous
 62
     3
370
     9
100
AcDbLine
 10
-778.6151448328403
 20
280.7919280929777
 30
0.0
 11
-743.7152424890903
 21
291.7912468086661
 31
0.0
  0
LINE
  5
E9
330
1F
100
AcDbEntity
  8
B-2
  6
Continuous
 62
     3
370
     9
100
AcDbLine
 10
-743.3148848560666
 20
280.7919280929777
 30
0.0
 11
-708.4155392519175
 21
291.7912468086661
 31
0.0
  0
LINE
  5
EA
330
1F
100
AcDbEntity
  8
B-2
  6
Continuous
 62
     3
370
     9
100
AcDbLine
 10
-708.0152434788494
 20
280.7919280929777
 30
0.0
 11
-673.1153411350994
 21
291.7912468086661
 31
0.0
  0
LINE
  5
EB
330
1F
100
AcDbEntity
  8
B-2
  6
Continuous
 62
     3
370
     9
100
AcDbLine
 10
-672.7150453620313
 20
280.7919280929777
 30
0.0
 11
-637.8152048782372
 21
291.7912468086661
 31
0.0
  0
LINE
  5
EC
330
1F
100
AcDbEntity
  8
B-2
  6
Continuous
 62
     3
370
     9
100
AcDbLine
 10
-637.4153421248587
 20
280.7919280929777
 30
0.0
 11
-602.5155635010201
 21
291.7912468086661
 31
0.0
  0
LINE
  5
ED
330
1F
100
AcDbEntity
  8
B-2
  6
Continuous
 62
     3
370
     9
100
AcDbLine
 10
-602.1152058679963
 20
280.7919280929777
 30
0.0
 11
-567.2154272441577
 21
291.7912468086661
 31
0.0
  0
LINE
  5
EE
330
1F
100
AcDbEntity
  8
B-2
  6
Continuous
 62
     3
370
     9
100
AcDbLine
 10
-566.8150696111342
 20
280.7919280929777
 30
0.0
 11
-531.9152291273397
 21
291.7912468086661
 31
0.0
  0
LINE
  5
EF
330
1F
100
AcDbEntity
  8
B-2
  6
Continuous
 62
     3
370
     9
100
AcDbLine
 10
-785.615588574922
 20
289.7102779003047
 30
0.0
 11
-779.0153787459525
 21
291.7912468086661
 31
0.0
  0
LINE
  5
F0
330
1F
100
AcDbEntity
  8
B-2
  6
Continuous
 62
     3
370
     9
100
AcDbLine
 10
-778.6151448328403
 20
180.7919693329481
 30
0.0
 11
-743.7152424890903
 21
191.7914117685479
 31
0.0
  0
LINE
  5
F1
330
1F
100
AcDbEntity
  8
B-2
  6
Continuous
 62
     3
370
     9
100
AcDbLine
 10
-743.3148848560666
 20
180.7919693329481
 30
0.0
 11
-708.4155392519175
 21
191.7914117685479
 31
0.0
  0
LINE
  5
F2
330
1F
100
AcDbEntity
  8
B-2
  6
Continuous
 62
     3
370
     9
100
AcDbLine
 10
-708.0152434788494
 20
180.7919693329481
 30
0.0
 11
-673.1153411350994
 21
191.7914117685479
 31
0.0
  0
LINE
  5
F3
330
1F
100
AcDbEntity
  8
B-2
  6
Continuous
 62
     3
370
     9
100
AcDbLine
 10
-672.7150453620313
 20
180.7919693329481
 30
0.0
 11
-637.8152048782372
 21
191.7914117685479
 31
0.0
  0
LINE
  5
F4
330
1F
100
AcDbEntity
  8
B-2
  6
Continuous
 62
     3
370
     9
100
AcDbLine
 10
-637.4153421248587
 20
180.7919693329481
 30
0.0
 11
-602.5155635010201
 21
191.7914117685479
 31
0.0
  0
LINE
  5
F5
330
1F
100
AcDbEntity
  8
B-2
  6
Continuous
 62
     3
370
     9
100
AcDbLine
 10
-602.1152058679963
 20
180.7919693329481
 30
0.0
 11
-567.2154272441577
 21
191.7914117685479
 31
0.0
  0
LINE
  5
F6
330
1F
100
AcDbEntity
  8
B-2
  6
Continuous
 62
     3
370
     9
100
AcDbLine
 10
-566.8150696111342
 20
180.7919693329481
 30
0.0
 11
-531.9152291273397
 21
191.7914117685479
 31
0.0
  0
LINE
  5
F7
330
1F
100
AcDbEntity
  8
B-2
  6
Continuous
 62
     3
370
     9
100
AcDbLine
 10
-785.615588574922
 20
189.7104428601864
 30
0.0
 11
-779.0153787459525
 21
191.7914117685479
 31
0.0
  0
LINE
  5
F8
330
1F
100
AcDbEntity
  8
B-2
  6
Continuous
 62
     3
370
     9
100
AcDbLine
 10
-538.9146831101311
 20
476.7909911208494
 30
0.0
 11
-538.9146831101311
 21
391.791329288607
 31
0.0
  0
LINE
  5
F9
330
1F
100
AcDbEntity
  8
B-2
  6
Continuous
 62
     3
370
     9
100
AcDbLine
 10
-531.9146723877388
 20
476.7909911208494
 30
0.0
 11
-531.9146723877388
 21
391.791329288607
 31
0.0
  0
LINE
  5
FA
330
1F
100
AcDbEntity
  8
B-2
  6
Continuous
 62
     3
370
     9
100
AcDbLine
 10
-538.9146831101311
 20
380.7918868530072
 30
0.0
 11
-538.9146831101311
 21
291.7908756489321
 31
0.0
  0
LINE
  5
FB
330
1F
100
AcDbEntity
  8
B-2
  6
Continuous
 62
     3
370
     9
100
AcDbLine
 10
-531.9146723877388
 20
380.7918868530072
 30
0.0
 11
-531.9146723877388
 21
291.7908756489321
 31
0.0
  0
LINE
  5
FC
330
1F
100
AcDbEntity
  8
B-2
  6
Continuous
 62
     3
370
     9
100
AcDbLine
 10
-531.514871494316
 20
380.7918868530072
 30
0.0
 11
-496.6150310105218
 21
391.791329288607
 31
0.0
  0
LINE
  5
FD
330
1F
100
AcDbEntity
  8
B-2
  6
Continuous
 62
     3
370
     9
100
AcDbLine
 10
-531.514871494316
 20
-19.20899980635721
 30
0.0
 11
-496.6150310105218
 21
-8.208567611466968
 31
0.0
  0
LINE
  5
FE
330
1F
100
AcDbEntity
  8
B-2
  6
Continuous
 62
     3
370
     9
100
AcDbLine
 10
-538.9146831101311
 20
-19.20899980635721
 30
0.0
 11
-538.9146831101311
 21
-104.2096513978901
 31
0.0
  0
LINE
  5
FF
330
1F
100
AcDbEntity
  8
B-2
  6
Continuous
 62
     3
370
     9
100
AcDbLine
 10
-531.9146723877388
 20
-19.20899980635721
 30
0.0
 11
-531.9146723877388
 21
-104.2096513978901
 31
0.0
  0
LINE
  5
100
330
1F
100
AcDbEntity
  8
B-2
  6
Continuous
 62
     3
370
     9
100
AcDbLine
 10
-538.9146831101311
 20
280.7919280929777
 30
0.0
 11
-538.9146831101311
 21
191.7909168889026
 31
0.0
  0
LINE
  5
101
330
1F
100
AcDbEntity
  8
B-2
  6
Continuous
 62
     3
370
     9
100
AcDbLine
 10
-531.9146723877388
 20
280.7919280929777
 30
0.0
 11
-531.9146723877388
 21
191.7909168889026
 31
0.0
  0
LINE
  5
102
330
1F
100
AcDbEntity
  8
B-2
  6
Continuous
 62
     3
370
     9
100
AcDbLine
 10
-531.514871494316
 20
280.7919280929777
 30
0.0
 11
-496.6150310105218
 21
291.7912468086661
 31
0.0
  0
LINE
  5
103
330
1F
100
AcDbEntity
  8
B-2
  6
Continuous
 62
     3
370
     9
100
AcDbLine
 10
-531.514871494316
 20
180.7919693329481
 30
0.0
 11
-496.6150310105218
 21
191.7914117685479
 31
0.0
  0
LINE
  5
104
330
1F
100
AcDbEntity
  8
B-2
  6
Continuous
 62
     3
370
     9
100
AcDbLine
 10
-503.6144849933132
 20
476.7909911208494
 30
0.0
 11
-503.6144849933132
 21
391.791329288607
 31
0.0
  0
LINE
  5
105
330
1F
100
AcDbEntity
  8
B-2
  6
Continuous
 62
     3
370
     9
100
AcDbLine
 10
-496.6144742709208
 20
476.7909911208494
 30
0.0
 11
-496.6144742709208
 21
391.791329288607
 31
0.0
  0
LINE
  5
106
330
1F
100
AcDbEntity
  8
B-2
  6
Continuous
 62
     3
370
     9
100
AcDbLine
 10
-503.6144849933132
 20
380.7918868530072
 30
0.0
 11
-503.6144849933132
 21
291.7908756489321
 31
0.0
  0
LINE
  5
107
330
1F
100
AcDbEntity
  8
B-2
  6
Continuous
 62
     3
370
     9
100
AcDbLine
 10
-496.6144742709208
 20
380.7918868530072
 30
0.0
 11
-496.6144742709208
 21
291.7908756489321
 31
0.0
  0
LINE
  5
108
330
1F
100
AcDbEntity
  8
B-2
  6
Continuous
 62
     3
370
     9
100
AcDbLine
 10
-496.2146733774981
 20
380.7918868530072
 30
0.0
 11
-461.3148328937038
 21
391.791329288607
 31
0.0
  0
LINE
  5
109
330
1F
100
AcDbEntity
  8
B-2
  6
Continuous
 62
     3
370
     9
100
AcDbLine
 10
-496.2146733774981
 20
-19.20899980635721
 30
0.0
 11
-461.3148328937038
 21
-8.208567611466968
 31
0.0
  0
LINE
  5
10A
330
1F
100
AcDbEntity
  8
B-2
  6
Continuous
 62
     3
370
     9
100
AcDbLine
 10
-503.6144849933132
 20
-19.20899980635721
 30
0.0
 11
-503.6144849933132
 21
-104.2096513978901
 31
0.0
  0
LINE
  5
10B
330
1F
100
AcDbEntity
  8
B-2
  6
Continuous
 62
     3
370
     9
100
AcDbLine
 10
-496.6144742709208
 20
-19.20899980635721
 30
0.0
 11
-496.6144742709208
 21
-104.2096513978901
 31
0.0
  0
LINE
  5
10C
330
1F
100
AcDbEntity
  8
B-2
  6
Continuous
 62
     3
370
     9
100
AcDbLine
 10
-503.6144849933132
 20
280.7919280929777
 30
0.0
 11
-503.6144849933132
 21
191.7909168889026
 31
0.0
  0
LINE
  5
10D
330
1F
100
AcDbEntity
  8
B-2
  6
Continuous
 62
     3
370
     9
100
AcDbLine
 10
-496.6144742709208
 20
280.7919280929777
 30
0.0
 11
-496.6144742709208
 21
191.7909168889026
 31
0.0
  0
LINE
  5
10E
330
1F
100
AcDbEntity
  8
B-2
  6
Continuous
 62
     3
370
     9
100
AcDbLine
 10
-496.2146733774981
 20
280.7919280929777
 30
0.0
 11
-461.3148328937038
 21
291.7912468086661
 31
0.0
  0
LINE
  5
10F
330
1F
100
AcDbEntity
  8
B-2
  6
Continuous
 62
     3
370
     9
100
AcDbLine
 10
-496.2146733774981
 20
180.7919693329481
 30
0.0
 11
-461.3148328937038
 21
191.7914117685479
 31
0.0
  0
LINE
  5
110
330
1F
100
AcDbEntity
  8
B-2
  6
Continuous
 62
     3
370
     9
100
AcDbLine
 10
-468.3142868764951
 20
476.7909911208494
 30
0.0
 11
-468.3142868764951
 21
391.791329288607
 31
0.0
  0
LINE
  5
111
330
1F
100
AcDbEntity
  8
B-2
  6
Continuous
 62
     3
370
     9
100
AcDbLine
 10
-461.3142761541029
 20
476.7909911208494
 30
0.0
 11
-461.3142761541029
 21
391.791329288607
 31
0.0
  0
LINE
  5
112
330
1F
100
AcDbEntity
  8
B-2
  6
Continuous
 62
     3
370
     9
100
AcDbLine
 10
-468.3142868764951
 20
380.7918868530072
 30
0.0
 11
-468.3142868764951
 21
291.7908756489321
 31
0.0
  0
LINE
  5
113
330
1F
100
AcDbEntity
  8
B-2
  6
Continuous
 62
     3
370
     9
100
AcDbLine
 10
-461.3142761541029
 20
380.7918868530072
 30
0.0
 11
-461.3142761541029
 21
291.7908756489321
 31
0.0
  0
LINE
  5
114
330
1F
100
AcDbEntity
  8
B-2
  6
Continuous
 62
     3
370
     9
100
AcDbLine
 10
-460.9144752606801
 20
380.7918868530072
 30
0.0
 11
-426.0146347768857
 21
391.791329288607
 31
0.0
  0
LINE
  5
115
330
1F
100
AcDbEntity
  8
B-2
  6
Continuous
 62
     3
370
     9
100
AcDbLine
 10
-460.9144752606801
 20
-19.20899980635721
 30
0.0
 11
-426.0146347768857
 21
-8.208567611466968
 31
0.0
  0
LINE
  5
116
330
1F
100
AcDbEntity
  8
B-2
  6
Continuous
 62
     3
370
     9
100
AcDbLine
 10
-468.3142868764951
 20
-19.20899980635721
 30
0.0
 11
-468.3142868764951
 21
-104.2096513978901
 31
0.0
  0
LINE
  5
117
330
1F
100
AcDbEntity
  8
B-2
  6
Continuous
 62
     3
370
     9
100
AcDbLine
 10
-461.3142761541029
 20
-19.20899980635721
 30
0.0
 11
-461.3142761541029
 21
-104.2096513978901
 31
0.0
  0
LINE
  5
118
330
1F
100
AcDbEntity
  8
B-2
  6
Continuous
 62
     3
370
     9
100
AcDbLine
 10
-468.3142868764951
 20
280.7919280929777
 30
0.0
 11
-468.3142868764951
 21
191.7909168889026
 31
0.0
  0
LINE
  5
119
330
1F
100
AcDbEntity
  8
B-2
  6
Continuous
 62
     3
370
     9
100
AcDbLine
 10
-461.3142761541029
 20
280.7919280929777
 30
0.0
 11
-461.3142761541029
 21
191.7909168889026
 31
0.0
  0
LINE
  5
11A
330
1F
100
AcDbEntity
  8
B-2
  6
Continuous
 62
     3
370
     9
100
AcDbLine
 10
-460.9144752606801
 20
280.7919280929777
 30
0.0
 11
-426.0146347768857
 21
291.7912468086661
 31
0.0
  0
LINE
  5
11B
330
1F
100
AcDbEntity
  8
B-2
  6
Continuous
 62
     3
370
     9
100
AcDbLine
 10
-460.9144752606801
 20
180.7919693329481
 30
0.0
 11
-426.0146347768857
 21
191.7914117685479
 31
0.0
  0
LINE
  5
11C
330
1F
100
AcDbEntity
  8
B-2
  6
Continuous
 62
     3
370
     9
100
AcDbLine
 10
-433.0140887596771
 20
476.7909911208494
 30
0.0
 11
-433.0140887596771
 21
391.791329288607
 31
0.0
  0
LINE
  5
11D
330
1F
100
AcDbEntity
  8
B-2
  6
Continuous
 62
     3
370
     9
100
AcDbLine
 10
-426.0140780372848
 20
476.7909911208494
 30
0.0
 11
-426.0140780372848
 21
391.791329288607
 31
0.0
  0
LINE
  5
11E
330
1F
100
AcDbEntity
  8
B-2
  6
Continuous
 62
     3
370
     9
100
AcDbLine
 10
-433.0140887596771
 20
380.7918868530072
 30
0.0
 11
-433.0140887596771
 21
291.7908756489321
 31
0.0
  0
LINE
  5
11F
330
1F
100
AcDbEntity
  8
B-2
  6
Continuous
 62
     3
370
     9
100
AcDbLine
 10
-426.0140780372848
 20
380.7918868530072
 30
0.0
 11
-426.0140780372848
 21
291.7908756489321
 31
0.0
  0
LINE
  5
120
330
1F
100
AcDbEntity
  8
B-2
  6
Continuous
 62
     3
370
     9
100
AcDbLine
 10
-433.0140887596771
 20
-19.20899980635721
 30
0.0
 11
-433.0140887596771
 21
-104.2096513978901
 31
0.0
  0
LINE
  5
121
330
1F
100
AcDbEntity
  8
B-2
  6
Continuous
 62
     3
370
     9
100
AcDbLine
 10
-426.0140780372848
 20
-19.20899980635721
 30
0.0
 11
-426.0140780372848
 21
-104.2096513978901
 31
0.0
  0
LINE
  5
122
330
1F
100
AcDbEntity
  8
B-2
  6
Continuous
 62
     3
370
     9
100
AcDbLine
 10
-433.0140887596771
 20
280.7919280929777
 30
0.0
 11
-433.0140887596771
 21
191.7909168889026
 31
0.0
  0
LINE
  5
123
330
1F
100
AcDbEntity
  8
B-2
  6
Continuous
 62
     3
370
     9
100
AcDbLine
 10
-426.0140780372848
 20
280.7919280929777
 30
0.0
 11
-426.0140780372848
 21
191.7909168889026
 31
0.0
  0
LINE
  5
124
330
1F
100
AcDbEntity
  8
B-2
  6
Continuous
 62
     3
370
     9
100
AcDbLine
 10
-785.615588574922
 20
380.7918868530072
 30
0.0
 11
-390.6156463108807
 21
380.7918868530072
 31
0.0
  0
LINE
  5
125
330
1F
100
AcDbEntity
  8
B-2
  6
Continuous
 62
     3
370
     9
100
AcDbLine
 10
-785.615588574922
 20
-8.209681090668788
 30
0.0
 11
-390.6156463108807
 21
-8.209681090668788
 31
0.0
  0
LINE
  5
126
330
1F
100
AcDbEntity
  8
B-2
  6
Continuous
 62
     3
370
     9
100
AcDbLine
 10
-785.615588574922
 20
280.7919280929777
 30
0.0
 11
-390.6156463108807
 21
280.7919280929777
 31
0.0
  0
LINE
  5
127
330
1F
100
AcDbEntity
  8
B-2
  6
Continuous
 62
     3
370
     9
100
AcDbLine
 10
-785.615588574922
 20
291.7912468086661
 30
0.0
 11
-390.6156463108807
 21
291.7912468086661
 31
0.0
  0
LINE
  5
128
330
1F
100
AcDbEntity
  8
B-2
  6
Continuous
 62
     3
370
     9
100
AcDbLine
 10
-785.615588574922
 20
180.7919693329481
 30
0.0
 11
-390.6156463108807
 21
180.7919693329481
 31
0.0
  0
LINE
  5
129
330
1F
100
AcDbEntity
  8
B-2
  6
Continuous
 62
     3
370
     9
100
AcDbLine
 10
-785.615588574922
 20
191.7914117685479
 30
0.0
 11
-390.6156463108807
 21
191.7914117685479
 31
0.0
  0
LINE
  5
12A
330
1F
100
AcDbEntity
  8
B-2
  6
Continuous
 62
     3
370
     9
100
AcDbLine
 10
-425.6142771438621
 20
380.7918868530072
 30
0.0
 11
-390.6156463108807
 21
391.6648875392405
 31
0.0
  0
LINE
  5
12B
330
1F
100
AcDbEntity
  8
B-2
  6
Continuous
 62
     3
370
     9
100
AcDbLine
 10
-425.6142771438621
 20
-19.20899980635721
 30
0.0
 11
-390.6156463108807
 21
-8.335009360833503
 31
0.0
  0
LINE
  5
12C
330
1F
100
AcDbEntity
  8
B-2
  6
Continuous
 62
     3
370
     9
100
AcDbLine
 10
-425.6142771438621
 20
280.7919280929777
 30
0.0
 11
-390.6156463108807
 21
291.6648050592996
 31
0.0
  0
LINE
  5
12D
330
1F
100
AcDbEntity
  8
B-2
  6
Continuous
 62
     3
370
     9
100
AcDbLine
 10
-425.6142771438621
 20
180.7919693329481
 30
0.0
 11
-390.6156463108807
 21
191.6649700191813
 31
0.0
  0
LINE
  5
12E
330
1F
100
AcDbEntity
  8
B-2
  6
Continuous
 62
     3
370
     9
100
AcDbLine
 10
-778.6151448328403
 20
80.79194871296298
 30
0.0
 11
-743.7152424890903
 21
91.79139114856258
 31
0.0
  0
LINE
  5
12F
330
1F
100
AcDbEntity
  8
B-2
  6
Continuous
 62
     3
370
     9
100
AcDbLine
 10
-743.3148848560666
 20
80.79194871296298
 30
0.0
 11
-708.4155392519175
 21
91.79139114856258
 31
0.0
  0
LINE
  5
130
330
1F
100
AcDbEntity
  8
B-2
  6
Continuous
 62
     3
370
     9
100
AcDbLine
 10
-708.0152434788494
 20
80.79194871296298
 30
0.0
 11
-673.1153411350994
 21
91.79139114856258
 31
0.0
  0
LINE
  5
131
330
1F
100
AcDbEntity
  8
B-2
  6
Continuous
 62
     3
370
     9
100
AcDbLine
 10
-672.7150453620313
 20
80.79194871296298
 30
0.0
 11
-637.8152048782372
 21
91.79139114856258
 31
0.0
  0
LINE
  5
132
330
1F
100
AcDbEntity
  8
B-2
  6
Continuous
 62
     3
370
     9
100
AcDbLine
 10
-637.4153421248587
 20
80.79194871296298
 30
0.0
 11
-602.5155635010201
 21
91.79139114856258
 31
0.0
  0
LINE
  5
133
330
1F
100
AcDbEntity
  8
B-2
  6
Continuous
 62
     3
370
     9
100
AcDbLine
 10
-602.1152058679963
 20
80.79194871296298
 30
0.0
 11
-567.2154272441577
 21
91.79139114856258
 31
0.0
  0
LINE
  5
134
330
1F
100
AcDbEntity
  8
B-2
  6
Continuous
 62
     3
370
     9
100
AcDbLine
 10
-566.8150696111342
 20
80.79194871296298
 30
0.0
 11
-531.9152291273397
 21
91.79139114856258
 31
0.0
  0
LINE
  5
135
330
1F
100
AcDbEntity
  8
B-2
  6
Continuous
 62
     3
370
     9
100
AcDbLine
 10
-785.615588574922
 20
89.71042224020113
 30
0.0
 11
-779.0153787459525
 21
91.79139114856258
 31
0.0
  0
LINE
  5
136
330
1F
100
AcDbEntity
  8
B-2
  6
Continuous
 62
     3
370
     9
100
AcDbLine
 10
-531.514871494316
 20
80.79194871296298
 30
0.0
 11
-496.6150310105218
 21
91.79139114856258
 31
0.0
  0
LINE
  5
137
330
1F
100
AcDbEntity
  8
B-2
  6
Continuous
 62
     3
370
     9
100
AcDbLine
 10
-496.2146733774981
 20
80.79194871296298
 30
0.0
 11
-461.3148328937038
 21
91.79139114856258
 31
0.0
  0
LINE
  5
138
330
1F
100
AcDbEntity
  8
B-2
  6
Continuous
 62
     3
370
     9
100
AcDbLine
 10
-460.9144752606801
 20
80.79194871296298
 30
0.0
 11
-426.0146347768857
 21
91.79139114856258
 31
0.0
  0
LINE
  5
139
330
1F
100
AcDbEntity
  8
B-2
  6
Continuous
 62
     3
370
     9
100
AcDbLine
 10
-785.615588574922
 20
80.79194871296298
 30
0.0
 11
-390.6156463108807
 21
80.79194871296298
 31
0.0
  0
LINE
  5
13A
330
1F
100
AcDbEntity
  8
B-2
  6
Continuous
 62
     3
370
     9
100
AcDbLine
 10
-785.615588574922
 20
91.79139114856258
 30
0.0
 11
-390.6156463108807
 21
91.79139114856258
 31
0.0
  0
LINE
  5
13B
330
1F
100
AcDbEntity
  8
B-2
  6
Continuous
 62
     3
370
     9
100
AcDbLine
 10
-425.6142771438621
 20
80.79194871296298
 30
0.0
 11
-390.6156463108807
 21
91.66494939919605
 31
0.0
  0
LINE
  5
13C
330
1F
100
AcDbEntity
  8
B-2
  6
Continuous
 62
     3
370
     9
100
AcDbLine
 10
-778.6151448328403
 20
-8.209186211023471
 30
0.0
 11
-778.6151448328403
 21
80.79194871296298
 31
0.0
  0
LINE
  5
13D
330
1F
100
AcDbEntity
  8
B-2
  6
Continuous
 62
     3
370
     9
100
AcDbLine
 10
-778.6151448328403
 20
91.79139114856258
 30
0.0
 11
-778.6151448328403
 21
180.7919693329481
 31
0.0
  0
LINE
  5
13E
330
1F
100
AcDbEntity
  8
B-2
  6
Continuous
 62
     3
370
     9
100
AcDbLine
 10
-397.6165849326078
 20
180.7919693329481
 30
0.0
 11
-397.6165849326078
 21
91.79139114856258
 31
0.0
  0
LINE
  5
13F
330
1F
100
AcDbEntity
  8
B-2
  6
Continuous
 62
     3
370
     9
100
AcDbLine
 10
-397.6165849326078
 20
80.79194871296298
 30
0.0
 11
-397.6165849326078
 21
-8.209186211023471
 31
0.0
  0
LINE
  5
140
330
1F
100
AcDbEntity
  8
B-2
  6
Continuous
 62
     3
370
     9
100
AcDbLine
 10
-574.214881226949
 20
180.7919693329481
 30
0.0
 11
-574.214881226949
 21
91.79139114856258
 31
0.0
  0
LINE
  5
141
330
1F
100
AcDbEntity
  8
B-2
  6
Continuous
 62
     3
370
     9
100
AcDbLine
 10
-574.214881226949
 20
80.79194871296298
 30
0.0
 11
-574.214881226949
 21
-8.209186211023471
 31
0.0
  0
LINE
  5
142
330
1F
100
AcDbEntity
  8
B-2
  6
Continuous
 62
     3
370
     9
100
AcDbLine
 10
-567.2148705045568
 20
180.7919693329481
 30
0.0
 11
-567.2148705045568
 21
91.79139114856258
 31
0.0
  0
LINE
  5
143
330
1F
100
AcDbEntity
  8
B-2
  6
Continuous
 62
     3
370
     9
100
AcDbLine
 10
-567.2148705045568
 20
80.79194871296298
 30
0.0
 11
-567.2148705045568
 21
-8.209186211023471
 31
0.0
  0
LINE
  5
144
330
1F
100
AcDbEntity
  8
B-2
  6
Continuous
 62
     3
370
     9
100
AcDbLine
 10
-609.5150174838114
 20
180.7919693329481
 30
0.0
 11
-609.5150174838114
 21
91.79139114856258
 31
0.0
  0
LINE
  5
145
330
1F
100
AcDbEntity
  8
B-2
  6
Continuous
 62
     3
370
     9
100
AcDbLine
 10
-609.5150174838114
 20
80.79194871296298
 30
0.0
 11
-609.5150174838114
 21
-8.209186211023471
 31
0.0
  0
LINE
  5
146
330
1F
100
AcDbEntity
  8
B-2
  6
Continuous
 62
     3
370
     9
100
AcDbLine
 10
-602.5150686213748
 20
180.7919693329481
 30
0.0
 11
-602.5150686213748
 21
91.79139114856258
 31
0.0
  0
LINE
  5
147
330
1F
100
AcDbEntity
  8
B-2
  6
Continuous
 62
     3
370
     9
100
AcDbLine
 10
-602.5150686213748
 20
80.79194871296298
 30
0.0
 11
-602.5150686213748
 21
-8.209186211023471
 31
0.0
  0
LINE
  5
148
330
1F
100
AcDbEntity
  8
B-2
  6
Continuous
 62
     3
370
     9
100
AcDbLine
 10
-644.8152156006295
 20
180.7919693329481
 30
0.0
 11
-644.8152156006295
 21
91.79139114856258
 31
0.0
  0
LINE
  5
149
330
1F
100
AcDbEntity
  8
B-2
  6
Continuous
 62
     3
370
     9
100
AcDbLine
 10
-644.8152156006295
 20
80.79194871296298
 30
0.0
 11
-644.8152156006295
 21
-8.209186211023471
 31
0.0
  0
LINE
  5
14A
330
1F
100
AcDbEntity
  8
B-2
  6
Continuous
 62
     3
370
     9
100
AcDbLine
 10
-637.8152048782372
 20
180.7919693329481
 30
0.0
 11
-637.8152048782372
 21
91.79139114856258
 31
0.0
  0
LINE
  5
14B
330
1F
100
AcDbEntity
  8
B-2
  6
Continuous
 62
     3
370
     9
100
AcDbLine
 10
-637.8152048782372
 20
80.79194871296298
 30
0.0
 11
-637.8152048782372
 21
-8.209186211023471
 31
0.0
  0
LINE
  5
14C
330
1F
100
AcDbEntity
  8
B-2
  6
Continuous
 62
     3
370
     9
100
AcDbLine
 10
-680.1148569778466
 20
180.7919693329481
 30
0.0
 11
-680.1148569778466
 21
91.79139114856258
 31
0.0
  0
LINE
  5
14D
330
1F
100
AcDbEntity
  8
B-2
  6
Continuous
 62
     3
370
     9
100
AcDbLine
 10
-680.1148569778466
 20
80.79194871296298
 30
0.0
 11
-680.1148569778466
 21
-8.209186211023471
 31
0.0
  0
LINE
  5
14E
330
1F
100
AcDbEntity
  8
B-2
  6
Continuous
 62
     3
370
     9
100
AcDbLine
 10
-673.1149081154098
 20
180.7919693329481
 30
0.0
 11
-673.1149081154098
 21
91.79139114856258
 31
0.0
  0
LINE
  5
14F
330
1F
100
AcDbEntity
  8
B-2
  6
Continuous
 62
     3
370
     9
100
AcDbLine
 10
-673.1149081154098
 20
80.79194871296298
 30
0.0
 11
-673.1149081154098
 21
-8.209186211023471
 31
0.0
  0
LINE
  5
150
330
1F
100
AcDbEntity
  8
B-2
  6
Continuous
 62
     3
370
     9
100
AcDbLine
 10
-715.4150550946645
 20
180.7919693329481
 30
0.0
 11
-715.4150550946645
 21
91.79139114856258
 31
0.0
  0
LINE
  5
151
330
1F
100
AcDbEntity
  8
B-2
  6
Continuous
 62
     3
370
     9
100
AcDbLine
 10
-715.4150550946645
 20
80.79194871296298
 30
0.0
 11
-715.4150550946645
 21
-8.209186211023471
 31
0.0
  0
LINE
  5
152
330
1F
100
AcDbEntity
  8
B-2
  6
Continuous
 62
     3
370
     9
100
AcDbLine
 10
-708.4151062322278
 20
180.7919693329481
 30
0.0
 11
-708.4151062322278
 21
91.79139114856258
 31
0.0
  0
LINE
  5
153
330
1F
100
AcDbEntity
  8
B-2
  6
Continuous
 62
     3
370
     9
100
AcDbLine
 10
-708.4151062322278
 20
80.79194871296298
 30
0.0
 11
-708.4151062322278
 21
-8.209186211023471
 31
0.0
  0
LINE
  5
154
330
1F
100
AcDbEntity
  8
B-2
  6
Continuous
 62
     3
370
     9
100
AcDbLine
 10
-750.7153150714382
 20
180.7919693329481
 30
0.0
 11
-750.7153150714382
 21
91.79139114856258
 31
0.0
  0
LINE
  5
155
330
1F
100
AcDbEntity
  8
B-2
  6
Continuous
 62
     3
370
     9
100
AcDbLine
 10
-750.7153150714382
 20
80.79194871296298
 30
0.0
 11
-750.7153150714382
 21
-8.209186211023471
 31
0.0
  0
LINE
  5
156
330
1F
100
AcDbEntity
  8
B-2
  6
Continuous
 62
     3
370
     9
100
AcDbLine
 10
-743.7152424890903
 20
180.7919693329481
 30
0.0
 11
-743.7152424890903
 21
91.79139114856258
 31
0.0
  0
LINE
  5
157
330
1F
100
AcDbEntity
  8
B-2
  6
Continuous
 62
     3
370
     9
100
AcDbLine
 10
-743.7152424890903
 20
80.79194871296298
 30
0.0
 11
-743.7152424890903
 21
-8.209186211023471
 31
0.0
  0
LINE
  5
158
330
1F
100
AcDbEntity
  8
B-2
  6
Continuous
 62
     3
370
     9
100
AcDbLine
 10
-538.9146831101311
 20
180.7919693329481
 30
0.0
 11
-538.9146831101311
 21
91.79139114856258
 31
0.0
  0
LINE
  5
159
330
1F
100
AcDbEntity
  8
B-2
  6
Continuous
 62
     3
370
     9
100
AcDbLine
 10
-538.9146831101311
 20
80.79194871296298
 30
0.0
 11
-538.9146831101311
 21
-8.209186211023471
 31
0.0
  0
LINE
  5
15A
330
1F
100
AcDbEntity
  8
B-2
  6
Continuous
 62
     3
370
     9
100
AcDbLine
 10
-531.9146723877388
 20
180.7919693329481
 30
0.0
 11
-531.9146723877388
 21
91.79139114856258
 31
0.0
  0
LINE
  5
15B
330
1F
100
AcDbEntity
  8
B-2
  6
Continuous
 62
     3
370
     9
100
AcDbLine
 10
-531.9146723877388
 20
80.79194871296298
 30
0.0
 11
-531.9146723877388
 21
-8.209186211023471
 31
0.0
  0
LINE
  5
15C
330
1F
100
AcDbEntity
  8
B-2
  6
Continuous
 62
     3
370
     9
100
AcDbLine
 10
-503.6144849933132
 20
180.7919693329481
 30
0.0
 11
-503.6144849933132
 21
91.79139114856258
 31
0.0
  0
LINE
  5
15D
330
1F
100
AcDbEntity
  8
B-2
  6
Continuous
 62
     3
370
     9
100
AcDbLine
 10
-503.6144849933132
 20
80.79194871296298
 30
0.0
 11
-503.6144849933132
 21
-8.209186211023471
 31
0.0
  0
LINE
  5
15E
330
1F
100
AcDbEntity
  8
B-2
  6
Continuous
 62
     3
370
     9
100
AcDbLine
 10
-496.6144742709208
 20
180.7919693329481
 30
0.0
 11
-496.6144742709208
 21
91.79139114856258
 31
0.0
  0
LINE
  5
15F
330
1F
100
AcDbEntity
  8
B-2
  6
Continuous
 62
     3
370
     9
100
AcDbLine
 10
-496.6144742709208
 20
80.79194871296298
 30
0.0
 11
-496.6144742709208
 21
-8.209186211023471
 31
0.0
  0
LINE
  5
160
330
1F
100
AcDbEntity
  8
B-2
  6
Continuous
 62
     3
370
     9
100
AcDbLine
 10
-468.3142868764951
 20
180.7919693329481
 30
0.0
 11
-468.3142868764951
 21
91.79139114856258
 31
0.0
  0
LINE
  5
161
330
1F
100
AcDbEntity
  8
B-2
  6
Continuous
 62
     3
370
     9
100
AcDbLine
 10
-468.3142868764951
 20
80.79194871296298
 30
0.0
 11
-468.3142868764951
 21
-8.209186211023471
 31
0.0
  0
LINE
  5
162
330
1F
100
AcDbEntity
  8
B-2
  6
Continuous
 62
     3
370
     9
100
AcDbLine
 10
-461.3142761541029
 20
180.7919693329481
 30
0.0
 11
-461.3142761541029
 21
91.79139114856258
 31
0.0
  0
LINE
  5
163
330
1F
100
AcDbEntity
  8
B-2
  6
Continuous
 62
     3
370
     9
100
AcDbLine
 10
-461.3142761541029
 20
80.79194871296298
 30
0.0
 11
-461.3142761541029
 21
-8.209186211023471
 31
0.0
  0
LINE
  5
164
330
1F
100
AcDbEntity
  8
B-2
  6
Continuous
 62
     3
370
     9
100
AcDbLine
 10
-433.0140887596771
 20
180.7919693329481
 30
0.0
 11
-433.0140887596771
 21
91.79139114856258
 31
0.0
  0
LINE
  5
165
330
1F
100
AcDbEntity
  8
B-2
  6
Continuous
 62
     3
370
     9
100
AcDbLine
 10
-433.0140887596771
 20
80.79194871296298
 30
0.0
 11
-433.0140887596771
 21
-8.209186211023471
 31
0.0
  0
LINE
  5
166
330
1F
100
AcDbEntity
  8
B-2
  6
Continuous
 62
     3
370
     9
100
AcDbLine
 10
-426.0140780372848
 20
180.7919693329481
 30
0.0
 11
-426.0140780372848
 21
91.79139114856258
 31
0.0
  0
LINE
  5
167
330
1F
100
AcDbEntity
  8
B-2
  6
Continuous
 62
     3
370
     9
100
AcDbLine
 10
-426.0140780372848
 20
80.79194871296298
 30
0.0
 11
-426.0140780372848
 21
-8.209186211023471
 31
0.0
  0
LINE
  5
168
330
1F
100
AcDbEntity
  8
B-4
  6
Continuous
 62
     7
370
     9
100
AcDbLine
 10
-747.2152787802643
 20
526.3473727588349
 30
0.0
 11
-711.9150806634462
 21
526.3473727588349
 31
0.0
  0
LINE
  5
169
330
1F
100
AcDbEntity
  8
B-4
  6
Continuous
 62
     7
370
     9
100
AcDbLine
 10
-747.2152787802643
 20
462.257365698552
 30
0.0
 11
-747.2152787802643
 21
527.8473529636492
 31
0.0
  0
LINE
  5
16A
330
1F
100
AcDbEntity
  8
B-4
  6
Continuous
 62
     7
370
     9
100
AcDbLine
 10
-711.9150806634462
 20
462.257365698552
 30
0.0
 11
-711.9150806634462
 21
527.8473529636492
 31
0.0
  0
LINE
  5
16B
330
1F
100
AcDbEntity
  8
B-1
  6
Continuous
 62
     2
370
     9
100
AcDbLine
 10
166.0736006142672
 20
498.2909135897049
 30
0.0
 11
95.07358906707552
 21
498.2909135897049
 31
0.0
  0
LINE
  5
16C
330
1F
100
AcDbEntity
  8
B-1
  6
Continuous
 62
     2
370
     9
100
AcDbLine
 10
136.0736253582495
 20
498.2909135897049
 30
0.0
 11
136.0736253582495
 21
507.291165978324
 31
0.0
  0
LINE
  5
16D
330
1F
100
AcDbEntity
  8
B-1
  6
Continuous
 62
     2
370
     9
100
AcDbLine
 10
149.8886855356143
 20
507.291165978324
 30
0.0
 11
136.0736253582495
 21
507.291165978324
 31
0.0
  0
LINE
  5
16E
330
1F
100
AcDbEntity
  8
B-1
  6
Continuous
 62
     2
370
     9
100
AcDbLine
 10
154.5474825161885
 20
498.9041931901061
 30
0.0
 11
212.7382767650273
 21
514.4964898935478
 31
0.0
  0
LINE
  5
16F
330
1F
100
AcDbEntity
  8
B-1
  6
Continuous
 62
     2
370
     9
100
AcDbLine
 10
152.2182077458127
 20
507.5974964787463
 30
0.0
 11
210.4087545548289
 21
523.189793182188
 31
0.0
  0
LINE
  5
170
330
1F
100
AcDbEntity
  8
B-1
  6
JWW_CENTER2
 62
     2
370
     9
100
AcDbLine
 10
149.8886855356143
 20
502.7912253638814
 30
0.0
 11
132.2686194856776
 21
502.7912253638814
 31
0.0
  0
LINE
  5
171
330
1F
100
AcDbEntity
  8
B-1
  6
JWW_CENTER2
 62
     2
370
     9
100
AcDbLine
 10
153.382783271045
 20
503.2509685543375
 30
0.0
 11
218.5494009996135
 21
520.7123019580537
 31
0.0
  0
LINE
  5
172
330
1F
100
AcDbEntity
  8
B-1
  6
Continuous
 62
     2
370
     9
100
AcDbLine
 10
166.0736006142672
 20
498.2909135897049
 30
0.0
 11
166.0736006142672
 21
438.2910867975808
 31
0.0
  0
LINE
  5
173
330
1F
100
AcDbEntity
  8
B-1
  6
Continuous
 62
     2
370
     9
100
AcDbLine
 10
95.07358906707552
 20
495.2909531800765
 30
0.0
 11
95.07358906707552
 21
498.2909135897049
 31
0.0
  0
LINE
  5
174
330
1F
100
AcDbEntity
  8
B-1
  6
Continuous
 62
     2
370
     9
100
AcDbLine
 10
98.0735494767039
 20
492.2908690505369
 30
0.0
 11
155.0735395791109
 21
492.2908690505369
 31
0.0
  0
LINE
  5
175
330
1F
100
AcDbEntity
  8
B-1
  6
Continuous
 62
     2
370
     9
100
AcDbLine
 10
163.0735164847273
 20
438.2910867975808
 30
0.0
 11
166.0736006142672
 21
438.2910867975808
 31
0.0
  0
LINE
  5
176
330
1F
100
AcDbEntity
  8
B-1
  6
Continuous
 62
     2
370
     9
100
AcDbLine
 10
160.0735560750992
 20
441.2910472072092
 30
0.0
 11
160.0735560750992
 21
487.2909762744599
 31
0.0
  0
LINE
  5
177
330
1F
100
AcDbEntity
  8
B-1
  6
Continuous
 62
     2
370
     9
100
AcDbLine
 10
166.0736006142672
 20
-121.7090286743364
 30
0.0
 11
95.07358906707552
 21
-121.7090286743364
 31
0.0
  0
LINE
  5
178
330
1F
100
AcDbEntity
  8
B-1
  6
Continuous
 62
     2
370
     9
100
AcDbLine
 10
136.0736253582495
 20
-121.7090286743364
 30
0.0
 11
136.0736253582495
 21
-130.7092810629556
 31
0.0
  0
LINE
  5
179
330
1F
100
AcDbEntity
  8
B-1
  6
Continuous
 62
     2
370
     9
100
AcDbLine
 10
149.8886855356143
 20
-130.7092810629556
 30
0.0
 11
136.0736253582495
 21
-130.7092810629556
 31
0.0
  0
LINE
  5
17A
330
1F
100
AcDbEntity
  8
B-1
  6
Continuous
 62
     2
370
     9
100
AcDbLine
 10
154.5474825161885
 20
-122.3223082747377
 30
0.0
 11
212.7382767650273
 21
-137.9146049781794
 31
0.0
  0
LINE
  5
17B
330
1F
100
AcDbEntity
  8
B-1
  6
Continuous
 62
     2
370
     9
100
AcDbLine
 10
152.2182077458127
 20
-131.0156115633778
 30
0.0
 11
210.4087545548289
 21
-146.6079082668196
 31
0.0
  0
LINE
  5
17C
330
1F
100
AcDbEntity
  8
B-1
  6
JWW_CENTER2
 62
     2
370
     9
100
AcDbLine
 10
149.8886855356143
 20
-126.209340448513
 30
0.0
 11
132.2686194856776
 21
-126.209340448513
 31
0.0
  0
LINE
  5
17D
330
1F
100
AcDbEntity
  8
B-1
  6
JWW_CENTER2
 62
     2
370
     9
100
AcDbLine
 10
153.382783271045
 20
-126.6690836389691
 30
0.0
 11
218.5494009996135
 21
-144.1304170426853
 31
0.0
  0
LINE
  5
17E
330
1F
100
AcDbEntity
  8
B-1
  6
Continuous
 62
     2
370
     9
100
AcDbLine
 10
166.0736006142672
 20
-121.7090286743364
 30
0.0
 11
166.0736006142672
 21
-61.70920188221228
 31
0.0
  0
LINE
  5
17F
330
1F
100
AcDbEntity
  8
B-1
  6
Continuous
 62
     2
370
     9
100
AcDbLine
 10
95.07358906707552
 20
-118.7090682647081
 30
0.0
 11
95.07358906707552
 21
-121.7090286743364
 31
0.0
  0
LINE
  5
180
330
1F
100
AcDbEntity
  8
B-1
  6
Continuous
 62
     2
370
     9
100
AcDbLine
 10
98.0735494767039
 20
-115.7089841351684
 30
0.0
 11
155.0735395791109
 21
-115.7089841351684
 31
0.0
  0
LINE
  5
181
330
1F
100
AcDbEntity
  8
B-1
  6
Continuous
 62
     2
370
     9
100
AcDbLine
 10
163.0735164847273
 20
-61.70920188221228
 30
0.0
 11
166.0736006142672
 21
-61.70920188221228
 31
0.0
  0
LINE
  5
182
330
1F
100
AcDbEntity
  8
B-1
  6
Continuous
 62
     2
370
     9
100
AcDbLine
 10
160.0735560750992
 20
-64.70916229184067
 30
0.0
 11
160.0735560750992
 21
-110.7090913590915
 31
0.0
  0
ARC
  5
183
330
1F
100
AcDbEntity
  8
B-1
  6
Continuous
 62
     2
370
     9
100
AcDbCircle
 10
149.8886855356143
 20
516.2907997673865
 30
0.0
 40
17.99999829885122
100
AcDbArc
 50
270.0
 51
285.0
  0
ARC
  5
184
330
1F
100
AcDbEntity
  8
B-1
  6
Continuous
 62
     2
370
     9
100
AcDbCircle
 10
211.5735775198836
 20
518.843141537868
 30
0.0
 40
4.499999574712805
100
AcDbArc
 50
285.0001373291016
 51
104.9999084472656
  0
ARC
  5
185
330
1F
100
AcDbEntity
  8
B-1
  6
JWW_CENTER2
 62
     2
370
     9
100
AcDbCircle
 10
149.8886855356143
 20
516.2907997673865
 30
0.0
 40
13.50000065726203
100
AcDbArc
 50
270.0
 51
284.9999542236328
  0
ARC
  5
186
330
1F
100
AcDbEntity
  8
B-1
  6
Continuous
 62
     2
370
     9
100
AcDbCircle
 10
149.8886855356143
 20
516.2907997673865
 30
0.0
 40
8.99999914942561
100
AcDbArc
 50
270.0
 51
285.0000152587891
  0
ARC
  5
187
330
1F
100
AcDbEntity
  8
B-1
  6
Continuous
 62
     2
370
     9
100
AcDbCircle
 10
155.0735395791109
 20
487.2909762744599
 30
0.0
 40
4.99999958115655
100
AcDbArc
 50
0.0
 51
90.0
  0
ARC
  5
188
330
1F
100
AcDbEntity
  8
B-1
  6
Continuous
 62
     2
370
     9
100
AcDbCircle
 10
98.0735494767039
 20
495.2909531800765
 30
0.0
 40
2.999999797022021
100
AcDbArc
 50
180.0
 51
270.0
  0
ARC
  5
189
330
1F
100
AcDbEntity
  8
B-1
  6
Continuous
 62
     2
370
     9
100
AcDbCircle
 10
163.0735164847273
 20
441.2910472072092
 30
0.0
 40
2.999999797022021
100
AcDbArc
 50
180.0
 51
270.0
  0
ARC
  5
18A
330
1F
100
AcDbEntity
  8
B-1
  6
Continuous
 62
     2
370
     9
100
AcDbCircle
 10
149.8886855356143
 20
-139.7089148520181
 30
0.0
 40
17.99999829885122
100
AcDbArc
 50
75.0
 51
89.99999999999999
  0
ARC
  5
18B
330
1F
100
AcDbEntity
  8
B-1
  6
Continuous
 62
     2
370
     9
100
AcDbCircle
 10
211.5735775198836
 20
-142.2612566224994
 30
0.0
 40
4.499999574712805
100
AcDbArc
 50
255.0000915527344
 51
74.99986267089845
  0
ARC
  5
18C
330
1F
100
AcDbEntity
  8
B-1
  6
JWW_CENTER2
 62
     2
370
     9
100
AcDbCircle
 10
149.8886855356143
 20
-139.7089148520181
 30
0.0
 40
13.50000065726203
100
AcDbArc
 50
75.00004577636717
 51
90.0
  0
ARC
  5
18D
330
1F
100
AcDbEntity
  8
B-1
  6
Continuous
 62
     2
370
     9
100
AcDbCircle
 10
149.8886855356143
 20
-139.7089148520181
 30
0.0
 40
8.99999914942561
100
AcDbArc
 50
74.99998474121094
 51
90.00000000000001
  0
ARC
  5
18E
330
1F
100
AcDbEntity
  8
B-1
  6
Continuous
 62
     2
370
     9
100
AcDbCircle
 10
155.0735395791109
 20
-110.7090913590915
 30
0.0
 40
4.99999958115655
100
AcDbArc
 50
270.0
 51
0.0
  0
ARC
  5
18F
330
1F
100
AcDbEntity
  8
B-1
  6
Continuous
 62
     2
370
     9
100
AcDbCircle
 10
98.0735494767039
 20
-118.7090682647081
 30
0.0
 40
2.999999797022021
100
AcDbArc
 50
90.0
 51
180.0
  0
ARC
  5
190
330
1F
100
AcDbEntity
  8
B-1
  6
Continuous
 62
     2
370
     9
100
AcDbCircle
 10
163.0735164847273
 20
-64.70916229184067
 30
0.0
 40
2.999999797022021
100
AcDbArc
 50
90.0
 51
180.0
  0
TEXT
  5
191
330
1F
100
AcDbEntity
  8
B-5
  6
Continuous
 62
     7
370
     9
100
AcDbText
 10
242.8930256301034
 20
554.4357597811111
 30
0.0
 40
11.43
  1
アンカー　φ９
 41
1.142857142857143
  7
ＭＳ ゴシック
100
AcDbText
  0
TEXT
  5
192
330
1F
100
AcDbEntity
  8
B-4
  6
Continuous
 62
     2
370
     9
100
AcDbText
 10
-508.8657147692317
 20
567.2646924906763
 30
0.0
 40
15.24
  1
213.5
 41
1.09999991752006
  7
ＭＳ ゴシック
100
AcDbText
  0
TEXT
  5
193
330
1F
100
AcDbEntity
  8
B-4
  6
Continuous
 62
     2
370
     9
100
AcDbText
 10
-722.3657634323968
 20
567.2646924906763
 30
0.0
 40
15.24
  1
213.5
 41
1.09999991752006
  7
ＭＳ ゴシック
100
AcDbText
  0
TEXT
  5
194
330
1F
100
AcDbEntity
  8
B-4
  6
Continuous
 62
     2
370
     9
100
AcDbText
 10
-751.4401900318478
 20
532.1673331684634
 30
0.0
 40
15.24
  1
35.3
 41
1.09375
  7
ＭＳ ゴシック
100
AcDbText
  0
LINE
  5
195
330
1F
100
AcDbEntity
  8
B-1
  6
Continuous
 62
     2
370
     9
100
AcDbLine
 10
-643.1157370388156
 20
-132.3094743959369
 30
0.0
 11
-643.1157370388156
 21
-126.2092167286017
 31
0.0
  0
LINE
  5
196
330
1F
100
AcDbEntity
  8
B-1
  6
Continuous
 62
     2
370
     9
100
AcDbLine
 10
-543.1157782787861
 20
-142.3095073879133
 30
0.0
 11
-633.1157040468394
 21
-142.3095073879133
 31
0.0
  0
LINE
  5
197
330
1F
100
AcDbEntity
  8
B-1
  6
Continuous
 62
     2
370
     9
100
AcDbLine
 10
-533.1157452868098
 20
-132.3094743959369
 30
0.0
 11
-533.1157452868098
 21
-126.2092167286017
 31
0.0
  0
LINE
  5
198
330
1F
100
AcDbEntity
  8
B-1
  6
Continuous
 62
     2
370
     9
100
AcDbLine
 10
-542.1157502356061
 20
-132.3094743959369
 30
0.0
 11
-542.1157502356061
 21
-126.2092167286017
 31
0.0
  0
LINE
  5
199
330
1F
100
AcDbEntity
  8
B-1
  6
Continuous
 62
     2
370
     9
100
AcDbLine
 10
-633.1157040468394
 20
-133.3093168592499
 30
0.0
 11
-543.1155308389634
 21
-133.3093168592499
 31
0.0
  0
LINE
  5
19A
330
1F
100
AcDbEntity
  8
B-1
  6
Continuous
 62
     2
370
     9
100
AcDbLine
 10
-634.1158558099305
 20
-132.3094743959369
 30
0.0
 11
-634.1158558099305
 21
-126.2092167286017
 31
0.0
  0
LINE
  5
19B
330
1F
100
AcDbEntity
  8
B-1
  6
JWW_CENTER1
 62
     2
370
     9
100
AcDbLine
 10
-638.6156727044618
 20
-118.1018509399614
 30
0.0
 11
-638.6156727044618
 21
-133.6992201597672
 31
0.0
  0
LINE
  5
19C
330
1F
100
AcDbEntity
  8
B-1
  6
JWW_CENTER1
 62
     2
370
     9
100
AcDbLine
 10
-630.4528803955513
 20
-126.2092167286017
 30
0.0
 11
-646.8598727150192
 21
-126.2092167286017
 31
0.0
  0
LINE
  5
19D
330
1F
100
AcDbEntity
  8
B-1
  6
JWW_CENTER1
 62
     2
370
     9
100
AcDbLine
 10
-537.6156859012524
 20
-118.1018509399614
 30
0.0
 11
-537.6156859012524
 21
-133.6992201597672
 31
0.0
  0
LINE
  5
19E
330
1F
100
AcDbEntity
  8
B-1
  6
JWW_CENTER1
 62
     2
370
     9
100
AcDbLine
 10
-529.4527698724305
 20
-126.2092167286017
 30
0.0
 11
-545.8597621918984
 21
-126.2092167286017
 31
0.0
  0
LINE
  5
19F
330
1F
100
AcDbEntity
  8
B-1
  6
Continuous
 62
     2
370
     9
100
AcDbLine
 10
-643.1157370388156
 20
508.8912355913941
 30
0.0
 11
-643.1157370388156
 21
502.7908542041474
 31
0.0
  0
LINE
  5
1A0
330
1F
100
AcDbEntity
  8
B-1
  6
Continuous
 62
     2
370
     9
100
AcDbLine
 10
-543.1157782787861
 20
518.8912685833704
 30
0.0
 11
-633.1157040468394
 21
518.8912685833704
 31
0.0
  0
LINE
  5
1A1
330
1F
100
AcDbEntity
  8
B-1
  6
Continuous
 62
     2
370
     9
100
AcDbLine
 10
-533.1157452868098
 20
508.8912355913941
 30
0.0
 11
-533.1157452868098
 21
502.7908542041474
 31
0.0
  0
LINE
  5
1A2
330
1F
100
AcDbEntity
  8
B-1
  6
Continuous
 62
     2
370
     9
100
AcDbLine
 10
-542.1157502356061
 20
508.8912355913941
 30
0.0
 11
-542.1157502356061
 21
502.7908542041474
 31
0.0
  0
LINE
  5
1A3
330
1F
100
AcDbEntity
  8
B-1
  6
Continuous
 62
     2
370
     9
100
AcDbLine
 10
-633.1157040468394
 20
509.89089247484
 30
0.0
 11
-543.1155308389634
 21
509.89089247484
 31
0.0
  0
LINE
  5
1A4
330
1F
100
AcDbEntity
  8
B-1
  6
Continuous
 62
     2
370
     9
100
AcDbLine
 10
-634.1158558099305
 20
508.8912355913941
 30
0.0
 11
-634.1158558099305
 21
502.7908542041474
 31
0.0
  0
LINE
  5
1A5
330
1F
100
AcDbEntity
  8
B-1
  6
JWW_CENTER1
 62
     2
370
     9
100
AcDbLine
 10
-638.6156727044618
 20
494.6834884155072
 30
0.0
 11
-638.6156727044618
 21
510.2808576353131
 31
0.0
  0
LINE
  5
1A6
330
1F
100
AcDbEntity
  8
B-1
  6
JWW_CENTER1
 62
     2
370
     9
100
AcDbLine
 10
-630.4528803955513
 20
502.7908542041474
 30
0.0
 11
-646.8598727150192
 21
502.7908542041474
 31
0.0
  0
LINE
  5
1A7
330
1F
100
AcDbEntity
  8
B-1
  6
JWW_CENTER1
 62
     2
370
     9
100
AcDbLine
 10
-537.6156859012524
 20
494.6834884155072
 30
0.0
 11
-537.6156859012524
 21
510.2808576353131
 31
0.0
  0
LINE
  5
1A8
330
1F
100
AcDbEntity
  8
B-1
  6
JWW_CENTER1
 62
     2
370
     9
100
AcDbLine
 10
-529.4527698724305
 20
502.7908542041474
 30
0.0
 11
-545.8597621918984
 21
502.7908542041474
 31
0.0
  0
CIRCLE
  5
1A9
330
1F
100
AcDbEntity
  8
B-1
  6
Continuous
 62
     2
370
     9
100
AcDbCircle
 10
-638.6156727044618
 20
-126.2092167286017
 30
0.0
 40
4.499999574712805
  0
CIRCLE
  5
1AA
330
1F
100
AcDbEntity
  8
B-1
  6
Continuous
 62
     2
370
     9
100
AcDbCircle
 10
-537.6159333410749
 20
-126.2092167286017
 30
0.0
 40
4.499999574712805
  0
ARC
  5
1AB
330
1F
100
AcDbEntity
  8
B-1
  6
Continuous
 62
     2
370
     9
100
AcDbCircle
 10
-633.1157040468394
 20
-132.3094743959369
 30
0.0
 40
9.9999991623131
100
AcDbArc
 50
180.0
 51
270.0
  0
ARC
  5
1AC
330
1F
100
AcDbEntity
  8
B-1
  6
Continuous
 62
     2
370
     9
100
AcDbCircle
 10
-543.1157782787861
 20
-132.3094743959369
 30
0.0
 40
9.9999991623131
100
AcDbArc
 50
270.0
 51
0.0
  0
ARC
  5
1AD
330
1F
100
AcDbEntity
  8
B-1
  6
Continuous
 62
     2
370
     9
100
AcDbCircle
 10
-543.1155308389634
 20
-132.3094743959369
 30
0.0
 40
0.9999999524773778
100
AcDbArc
 50
270.0
 51
0.0
  0
ARC
  5
1AE
330
1F
100
AcDbEntity
  8
B-1
  6
Continuous
 62
     2
370
     9
100
AcDbCircle
 10
-633.1157040468394
 20
-132.3094743959369
 30
0.0
 40
0.9999999524773778
100
AcDbArc
 50
180.0
 51
270.0
  0
CIRCLE
  5
1AF
330
1F
100
AcDbEntity
  8
B-1
  6
Continuous
 62
     2
370
     9
100
AcDbCircle
 10
-638.6156727044618
 20
502.7908542041474
 30
0.0
 40
4.499999574712805
  0
CIRCLE
  5
1B0
330
1F
100
AcDbEntity
  8
B-1
  6
Continuous
 62
     2
370
     9
100
AcDbCircle
 10
-537.6159333410749
 20
502.7908542041474
 30
0.0
 40
4.499999574712805
  0
ARC
  5
1B1
330
1F
100
AcDbEntity
  8
B-1
  6
Continuous
 62
     2
370
     9
100
AcDbCircle
 10
-633.1157040468394
 20
508.8912355913941
 30
0.0
 40
9.9999991623131
100
AcDbArc
 50
90.0
 51
180.0
  0
ARC
  5
1B2
330
1F
100
AcDbEntity
  8
B-1
  6
Continuous
 62
     2
370
     9
100
AcDbCircle
 10
-543.1157782787861
 20
508.8912355913941
 30
0.0
 40
9.9999991623131
100
AcDbArc
 50
0.0
 51
90.0
  0
ARC
  5
1B3
330
1F
100
AcDbEntity
  8
B-1
  6
Continuous
 62
     2
370
     9
100
AcDbCircle
 10
-543.1155308389634
 20
508.8912355913941
 30
0.0
 40
0.9999999524773778
100
AcDbArc
 50
0.0
 51
90.0
  0
ARC
  5
1B4
330
1F
100
AcDbEntity
  8
B-1
  6
Continuous
 62
     2
370
     9
100
AcDbCircle
 10
-633.1157040468394
 20
508.8912355913941
 30
0.0
 40
0.9999999524773778
100
AcDbArc
 50
90.0
 51
180.0
  0
LINE
  5
1B5
330
1F
100
AcDbEntity
  8
B-8
  6
JWW_DASHED3
 62
     3
370
     9
100
AcDbLine
 10
-390.1156322892908
 20
482.2909597784718
 30
0.0
 11
-381.1156273404943
 21
482.2909597784718
 31
0.0
  0
LINE
  5
1B6
330
1F
100
AcDbEntity
  8
B-8
  6
JWW_DASHED3
 62
     3
370
     9
100
AcDbLine
 10
-390.1156322892908
 20
450.7908805977286
 30
0.0
 11
-381.1156273404943
 21
450.7908805977286
 31
0.0
  0
LINE
  5
1B7
330
1F
100
AcDbEntity
  8
B-8
  6
JWW_DASHED3
 62
     3
370
     9
100
AcDbLine
 10
-390.1156322892908
 20
437.7907634762125
 30
0.0
 11
-381.1156273404943
 21
437.7907634762125
 31
0.0
  0
LINE
  5
1B8
330
1F
100
AcDbEntity
  8
B-8
  6
JWW_DASHED3
 62
     3
370
     9
100
AcDbLine
 10
-390.1156322892908
 20
482.7909119401061
 30
0.0
 11
-381.1156273404943
 21
482.7909119401061
 31
0.0
  0
LINE
  5
1B9
330
1F
100
AcDbEntity
  8
B-8
  6
JWW_DASHED3
 62
     3
370
     9
100
AcDbLine
 10
-390.1156322892908
 20
470.2908707001356
 30
0.0
 11
-381.1156273404943
 21
470.2908707001356
 31
0.0
  0
LINE
  5
1BA
330
1F
100
AcDbEntity
  8
B-8
  6
JWW_DASHED3
 62
     3
370
     9
100
AcDbLine
 10
-390.1156322892908
 20
469.7909185385014
 30
0.0
 11
-381.1156273404943
 21
469.7909185385014
 31
0.0
  0
LINE
  5
1BB
330
1F
100
AcDbEntity
  8
B-8
  6
Continuous
 62
     3
370
     9
100
AcDbLine
 10
-381.1156273404943
 20
482.2909597784718
 30
0.0
 11
-380.61567517886
 21
482.2909597784718
 31
0.0
  0
LINE
  5
1BC
330
1F
100
AcDbEntity
  8
B-8
  6
Continuous
 62
     3
370
     9
100
AcDbLine
 10
-381.1156273404943
 20
470.2908707001356
 30
0.0
 11
-380.61567517886
 21
470.2908707001356
 31
0.0
  0
LINE
  5
1BD
330
1F
100
AcDbEntity
  8
B-8
  6
JWW_DASHED3
 62
     3
370
     9
100
AcDbLine
 10
-786.1156644564677
 20
482.2909597784718
 30
0.0
 11
-795.1156694052643
 21
482.2909597784718
 31
0.0
  0
LINE
  5
1BE
330
1F
100
AcDbEntity
  8
B-8
  6
JWW_DASHED3
 62
     3
370
     9
100
AcDbLine
 10
-786.1156644564677
 20
450.7908805977286
 30
0.0
 11
-795.1156694052643
 21
450.7908805977286
 31
0.0
  0
LINE
  5
1BF
330
1F
100
AcDbEntity
  8
B-8
  6
JWW_DASHED3
 62
     3
370
     9
100
AcDbLine
 10
-786.1156644564677
 20
437.7907634762125
 30
0.0
 11
-795.1156694052643
 21
437.7907634762125
 31
0.0
  0
LINE
  5
1C0
330
1F
100
AcDbEntity
  8
B-8
  6
JWW_DASHED3
 62
     3
370
     9
100
AcDbLine
 10
-786.1156644564677
 20
482.7909119401061
 30
0.0
 11
-795.1156694052643
 21
482.7909119401061
 31
0.0
  0
LINE
  5
1C1
330
1F
100
AcDbEntity
  8
B-8
  6
JWW_DASHED3
 62
     3
370
     9
100
AcDbLine
 10
-786.1156644564677
 20
470.2908707001356
 30
0.0
 11
-795.1156694052643
 21
470.2908707001356
 31
0.0
  0
LINE
  5
1C2
330
1F
100
AcDbEntity
  8
B-8
  6
JWW_DASHED3
 62
     3
370
     9
100
AcDbLine
 10
-786.1156644564677
 20
469.7909185385014
 30
0.0
 11
-795.1156694052643
 21
469.7909185385014
 31
0.0
  0
LINE
  5
1C3
330
1F
100
AcDbEntity
  8
B-8
  6
Continuous
 62
     3
370
     9
100
AcDbLine
 10
-795.1156694052643
 20
482.2909597784718
 30
0.0
 11
-795.6156215668984
 21
482.2909597784718
 31
0.0
  0
LINE
  5
1C4
330
1F
100
AcDbEntity
  8
B-8
  6
Continuous
 62
     3
370
     9
100
AcDbLine
 10
-795.1156694052643
 20
470.2908707001356
 30
0.0
 11
-795.6156215668984
 21
470.2908707001356
 31
0.0
  0
LINE
  5
1C5
330
1F
100
AcDbEntity
  8
B-1
  6
Continuous
 62
     2
370
     9
100
AcDbLine
 10
-801.6156661060666
 20
498.2909135897049
 30
0.0
 11
-374.6156924996475
 21
498.2909135897049
 31
0.0
  0
LINE
  5
1C6
330
1F
100
AcDbEntity
  8
B-1
  6
Continuous
 62
     2
370
     9
100
AcDbLine
 10
-795.6156215668984
 20
-115.7091697150354
 30
0.0
 11
-795.6156215668984
 21
492.2908690505369
 31
0.0
  0
LINE
  5
1C7
330
1F
100
AcDbEntity
  8
B-1
  6
Continuous
 62
     2
370
     9
100
AcDbLine
 10
-801.6156661060666
 20
-121.7092142542034
 30
0.0
 11
-801.6156661060666
 21
498.2909135897049
 31
0.0
  0
LINE
  5
1C8
330
1F
100
AcDbEntity
  8
B-1
  6
Continuous
 62
     2
370
     9
100
AcDbLine
 10
-374.6156924996475
 20
498.2909135897049
 30
0.0
 11
-374.6156924996475
 21
-121.7092142542034
 31
0.0
  0
LINE
  5
1C9
330
1F
100
AcDbEntity
  8
B-1
  6
Continuous
 62
     2
370
     9
100
AcDbLine
 10
-380.6157370388156
 20
492.2908690505369
 30
0.0
 11
-380.6157370388156
 21
-115.7091697150354
 31
0.0
  0
LINE
  5
1CA
330
1F
100
AcDbEntity
  8
B-1
  6
Continuous
 62
     2
370
     9
100
AcDbLine
 10
-374.6156924996475
 20
-121.7092142542034
 30
0.0
 11
-801.6156661060666
 21
-121.7092142542034
 31
0.0
  0
LINE
  5
1CB
330
1F
100
AcDbEntity
  8
B-1
  6
Continuous
 62
     2
370
     9
100
AcDbLine
 10
-374.6156924996475
 20
-115.7091697150354
 30
0.0
 11
-801.6156661060666
 21
-115.7091697150354
 31
0.0
  0
LINE
  5
1CC
330
1F
100
AcDbEntity
  8
B-1
  6
Continuous
 62
     2
370
     9
100
AcDbLine
 10
-801.6156661060666
 20
492.2908690505369
 30
0.0
 11
-374.6156924996475
 21
492.2908690505369
 31
0.0
  0
LINE
  5
1CD
330
1F
100
AcDbEntity
  8
B-2
  6
Continuous
 62
     3
370
     9
100
AcDbLine
 10
155.0735395791109
 20
481.2909317352918
 30
0.0
 11
155.0735395791109
 21
476.7909911208494
 31
0.0
  0
LINE
  5
1CE
330
1F
100
AcDbEntity
  8
B-2
  6
Continuous
 62
     3
370
     9
100
AcDbLine
 10
100.7304345722487
 20
380.6340202461661
 30
0.0
 11
95.07358906707552
 21
386.2908657513393
 31
0.0
  0
LINE
  5
1CF
330
1F
100
AcDbEntity
  8
B-2
  6
Continuous
 62
     3
370
     9
100
AcDbLine
 10
95.07358906707552
 20
386.2908657513393
 30
0.0
 11
100.7304345722487
 21
391.9477112565123
 31
0.0
  0
LINE
  5
1D0
330
1F
100
AcDbEntity
  8
B-2
  6
Continuous
 62
     3
370
     9
100
AcDbLine
 10
100.7304345722487
 20
391.9477112565123
 30
0.0
 11
106.3872800774216
 21
386.2908657513393
 31
0.0
  0
LINE
  5
1D1
330
1F
100
AcDbEntity
  8
B-2
  6
Continuous
 62
     3
370
     9
100
AcDbLine
 10
95.07358906707552
 20
476.7909911208494
 30
0.0
 11
160.0735560750992
 21
476.7909911208494
 31
0.0
  0
LINE
  5
1D2
330
1F
100
AcDbEntity
  8
B-2
  6
Continuous
 62
     3
370
     9
100
AcDbLine
 10
102.0736616494234
 20
476.7909911208494
 30
0.0
 11
102.0736616494234
 21
390.6044841793375
 31
0.0
  0
LINE
  5
1D3
330
1F
100
AcDbEntity
  8
B-2
  6
Continuous
 62
     3
370
     9
100
AcDbLine
 10
103.5735181343263
 20
476.7909911208494
 30
0.0
 11
103.5735181343263
 21
389.1046276944347
 31
0.0
  0
LINE
  5
1D4
330
1F
100
AcDbEntity
  8
B-2
  6
Continuous
 62
     3
370
     9
100
AcDbLine
 10
106.3872800774216
 20
386.2908657513393
 30
0.0
 11
102.7558532404284
 21
382.6593151944347
 31
0.0
  0
LINE
  5
1D5
330
1F
100
AcDbEntity
  8
B-2
  6
Continuous
 62
     3
370
     9
100
AcDbLine
 10
102.7558532404284
 20
382.6593151944347
 30
0.0
 11
100.7304345722487
 21
380.6340202461661
 31
0.0
  0
LINE
  5
1D6
330
1F
100
AcDbEntity
  8
B-2
  6
Continuous
 62
     3
370
     9
100
AcDbLine
 10
155.0735395791109
 20
-108.7090352727317
 30
0.0
 11
155.0735395791109
 21
-104.2090946582892
 31
0.0
  0
LINE
  5
1D7
330
1F
100
AcDbEntity
  8
B-2
  6
Continuous
 62
     3
370
     9
100
AcDbLine
 10
95.07358906707552
 20
-104.2090946582892
 30
0.0
 11
160.0735560750992
 21
-104.2090946582892
 31
0.0
  0
LINE
  5
1D8
330
1F
100
AcDbEntity
  8
B-2
  6
Continuous
 62
     3
370
     9
100
AcDbLine
 10
95.07358906707552
 20
-108.7090352727317
 30
0.0
 11
155.0735395791109
 21
-108.7090352727317
 31
0.0
  0
LINE
  5
1D9
330
1F
100
AcDbEntity
  8
B-2
  6
Continuous
 62
     3
370
     9
100
AcDbLine
 10
151.5736270078482
 20
476.7909911208494
 30
0.0
 11
151.5736270078482
 21
-104.2090946582892
 31
0.0
  0
LINE
  5
1DA
330
1F
100
AcDbEntity
  8
B-2
  6
Continuous
 62
     3
370
     9
100
AcDbLine
 10
153.0736072126625
 20
476.7909911208494
 30
0.0
 11
153.0736072126625
 21
-104.2090946582892
 31
0.0
  0
LINE
  5
1DB
330
1F
100
AcDbEntity
  8
B-2
  6
Continuous
 62
     3
370
     9
100
AcDbLine
 10
160.0735560750992
 20
476.7909911208494
 30
0.0
 11
160.0735560750992
 21
-104.2090946582892
 31
0.0
  0
LINE
  5
1DC
330
1F
100
AcDbEntity
  8
B-2
  6
Continuous
 62
     3
370
     9
100
AcDbLine
 10
95.07358906707552
 20
481.2909317352918
 30
0.0
 11
155.0735395791109
 21
481.2909317352918
 31
0.0
  0
LINE
  5
1DD
330
1F
100
AcDbEntity
  8
B-2
  6
Continuous
 62
     3
370
     9
100
AcDbLine
 10
100.7304345722487
 20
-8.0521237836059
 30
0.0
 11
95.07358906707552
 21
-13.70896928877908
 31
0.0
  0
LINE
  5
1DE
330
1F
100
AcDbEntity
  8
B-2
  6
Continuous
 62
     3
370
     9
100
AcDbLine
 10
95.07358906707552
 20
-13.70896928877908
 30
0.0
 11
100.7304345722487
 21
-19.36575293399653
 31
0.0
  0
LINE
  5
1DF
330
1F
100
AcDbEntity
  8
B-2
  6
Continuous
 62
     3
370
     9
100
AcDbLine
 10
100.7304345722487
 20
-19.36575293399653
 30
0.0
 11
106.3872800774216
 21
-13.70896928877908
 31
0.0
  0
LINE
  5
1E0
330
1F
100
AcDbEntity
  8
B-2
  6
Continuous
 62
     3
370
     9
100
AcDbLine
 10
106.3872800774216
 20
-13.70896928877908
 30
0.0
 11
102.7558532404284
 21
-10.07748059183012
 31
0.0
  0
LINE
  5
1E1
330
1F
100
AcDbEntity
  8
B-2
  6
Continuous
 62
     3
370
     9
100
AcDbLine
 10
102.7558532404284
 20
-10.07748059183012
 30
0.0
 11
100.7304345722487
 21
-8.0521237836059
 31
0.0
  0
LINE
  5
1E2
330
1F
100
AcDbEntity
  8
B-2
  6
Continuous
 62
     3
370
     9
100
AcDbLine
 10
100.7304345722487
 20
91.94795869633498
 30
0.0
 11
95.07358906707552
 21
86.29092761129488
 31
0.0
  0
LINE
  5
1E3
330
1F
100
AcDbEntity
  8
B-2
  6
Continuous
 62
     3
370
     9
100
AcDbLine
 10
95.07358906707552
 20
86.29092761129488
 30
0.0
 11
100.7304345722487
 21
80.63426768598876
 31
0.0
  0
LINE
  5
1E4
330
1F
100
AcDbEntity
  8
B-2
  6
Continuous
 62
     3
370
     9
100
AcDbLine
 10
100.7304345722487
 20
80.63426768598876
 30
0.0
 11
106.3872800774216
 21
86.29092761129488
 31
0.0
  0
LINE
  5
1E5
330
1F
100
AcDbEntity
  8
B-2
  6
Continuous
 62
     3
370
     9
100
AcDbLine
 10
106.3872800774216
 20
86.29092761129488
 30
0.0
 11
102.7558532404284
 21
89.92254002815503
 31
0.0
  0
LINE
  5
1E6
330
1F
100
AcDbEntity
  8
B-2
  6
Continuous
 62
     3
370
     9
100
AcDbLine
 10
102.7558532404284
 20
89.92254002815503
 30
0.0
 11
100.7304345722487
 21
91.94795869633498
 31
0.0
  0
LINE
  5
1E7
330
1F
100
AcDbEntity
  8
B-2
  6
Continuous
 62
     3
370
     9
100
AcDbLine
 10
100.7304345722487
 20
191.9477937364532
 30
0.0
 11
95.07358906707552
 21
186.2910100912358
 31
0.0
  0
LINE
  5
1E8
330
1F
100
AcDbEntity
  8
B-2
  6
Continuous
 62
     3
370
     9
100
AcDbLine
 10
95.07358906707552
 20
186.2910100912358
 30
0.0
 11
100.7304345722487
 21
180.6343501659296
 31
0.0
  0
LINE
  5
1E9
330
1F
100
AcDbEntity
  8
B-2
  6
Continuous
 62
     3
370
     9
100
AcDbLine
 10
100.7304345722487
 20
180.6343501659296
 30
0.0
 11
106.3872800774216
 21
186.2910100912358
 31
0.0
  0
LINE
  5
1EA
330
1F
100
AcDbEntity
  8
B-2
  6
Continuous
 62
     3
370
     9
100
AcDbLine
 10
106.3872800774216
 20
186.2910100912358
 30
0.0
 11
102.7558532404284
 21
189.922436928229
 31
0.0
  0
LINE
  5
1EB
330
1F
100
AcDbEntity
  8
B-2
  6
Continuous
 62
     3
370
     9
100
AcDbLine
 10
102.7558532404284
 20
189.922436928229
 30
0.0
 11
100.7304345722487
 21
191.9477937364532
 31
0.0
  0
LINE
  5
1EC
330
1F
100
AcDbEntity
  8
B-2
  6
Continuous
 62
     3
370
     9
100
AcDbLine
 10
100.7304345722487
 20
291.9478762163941
 30
0.0
 11
95.07358906707552
 21
286.2910307112209
 31
0.0
  0
LINE
  5
1ED
330
1F
100
AcDbEntity
  8
B-2
  6
Continuous
 62
     3
370
     9
100
AcDbLine
 10
95.07358906707552
 20
286.2910307112209
 30
0.0
 11
100.7304345722487
 21
280.6341852060479
 31
0.0
  0
LINE
  5
1EE
330
1F
100
AcDbEntity
  8
B-2
  6
Continuous
 62
     3
370
     9
100
AcDbLine
 10
100.7304345722487
 20
280.6341852060479
 30
0.0
 11
106.3872800774216
 21
286.2910307112209
 31
0.0
  0
LINE
  5
1EF
330
1F
100
AcDbEntity
  8
B-2
  6
Continuous
 62
     3
370
     9
100
AcDbLine
 10
106.3872800774216
 20
286.2910307112209
 30
0.0
 11
102.7558532404284
 21
289.9225812681256
 31
0.0
  0
LINE
  5
1F0
330
1F
100
AcDbEntity
  8
B-2
  6
Continuous
 62
     3
370
     9
100
AcDbLine
 10
102.7558532404284
 20
289.9225812681256
 30
0.0
 11
100.7304345722487
 21
291.9478762163941
 31
0.0
  0
LINE
  5
1F1
330
1F
100
AcDbEntity
  8
B-2
  6
Continuous
 62
     3
370
     9
100
AcDbLine
 10
102.0736616494234
 20
181.9773298032817
 30
0.0
 11
102.0736616494234
 21
90.60479347911584
 31
0.0
  0
LINE
  5
1F2
330
1F
100
AcDbEntity
  8
B-2
  6
Continuous
 62
     3
370
     9
100
AcDbLine
 10
103.5735181343263
 20
183.4774337280072
 30
0.0
 11
103.5735181343263
 21
89.10487513425724
 31
0.0
  0
LINE
  5
1F3
330
1F
100
AcDbEntity
  8
B-2
  6
Continuous
 62
     3
370
     9
100
AcDbLine
 10
102.0736616494234
 20
381.9771236034296
 30
0.0
 11
102.0736616494234
 21
290.6047728591305
 31
0.0
  0
LINE
  5
1F4
330
1F
100
AcDbEntity
  8
B-2
  6
Continuous
 62
     3
370
     9
100
AcDbLine
 10
102.0736616494234
 20
281.9772885633114
 30
0.0
 11
102.0736616494234
 21
190.604814099101
 31
0.0
  0
LINE
  5
1F5
330
1F
100
AcDbEntity
  8
B-2
  6
Continuous
 62
     3
370
     9
100
AcDbLine
 10
103.5735181343263
 20
383.4771038082438
 30
0.0
 11
103.5735181343263
 21
289.1047926543164
 31
0.0
  0
LINE
  5
1F6
330
1F
100
AcDbEntity
  8
B-2
  6
Continuous
 62
     3
370
     9
100
AcDbLine
 10
103.5735181343263
 20
283.4772687681256
 30
0.0
 11
103.5735181343263
 21
189.1047101743755
 31
0.0
  0
LINE
  5
1F7
330
1F
100
AcDbEntity
  8
B-2
  6
Continuous
 62
     3
370
     9
100
AcDbLine
 10
102.0736616494234
 20
81.97724732334083
 30
0.0
 11
102.0736616494234
 21
-9.395227140869444
 31
0.0
  0
LINE
  5
1F8
330
1F
100
AcDbEntity
  8
B-2
  6
Continuous
 62
     3
370
     9
100
AcDbLine
 10
103.5735181343263
 20
83.47735124806636
 30
0.0
 11
103.5735181343263
 21
-10.89520734568364
 31
0.0
  0
LINE
  5
1F9
330
1F
100
AcDbEntity
  8
B-2
  6
Continuous
 62
     3
370
     9
100
AcDbLine
 10
103.5735181343263
 20
-16.52266937191879
 30
0.0
 11
103.5735181343263
 21
-104.2090946582892
 31
0.0
  0
LINE
  5
1FA
330
1F
100
AcDbEntity
  8
B-2
  6
Continuous
 62
     3
370
     9
100
AcDbLine
 10
102.0736616494234
 20
-18.02264957673298
 30
0.0
 11
102.0736616494234
 21
-104.2090946582892
 31
0.0
  0
LINE
  5
1FB
330
1F
100
AcDbEntity
  8
B-8
  6
Continuous
 62
     3
370
     9
100
AcDbLine
 10
-390.1156941492463
 20
432.29079481859
 30
0.0
 11
-381.1156892004499
 21
432.29079481859
 31
0.0
  0
LINE
  5
1FC
330
1F
100
AcDbEntity
  8
B-8
  6
Continuous
 62
     3
370
     9
100
AcDbLine
 10
-390.1156941492463
 20
487.2908525545486
 30
0.0
 11
-390.1156941492463
 21
432.29079481859
 31
0.0
  0
LINE
  5
1FD
330
1F
100
AcDbEntity
  8
B-8
  6
Continuous
 62
     3
370
     9
100
AcDbLine
 10
-390.1156941492463
 20
487.2908525545486
 30
0.0
 11
-381.1156892004499
 21
487.2908525545486
 31
0.0
  0
LINE
  5
1FE
330
1F
100
AcDbEntity
  8
B-8
  6
Continuous
 62
     3
370
     9
100
AcDbLine
 10
-381.1156892004499
 20
487.2908525545486
 30
0.0
 11
-381.1156892004499
 21
432.29079481859
 31
0.0
  0
LINE
  5
1FF
330
1F
100
AcDbEntity
  8
B-8
  6
JWW_CENTER1
 62
     3
370
     9
100
AcDbLine
 10
-394.7754808891112
 20
476.2909152393037
 30
0.0
 11
-360.5228811213748
 21
476.2909152393037
 31
0.0
  0
LINE
  5
200
330
1F
100
AcDbEntity
  8
B-8
  6
JWW_CENTER1
 62
     3
370
     9
100
AcDbLine
 10
-385.6156298148925
 20
448.3002750629946
 30
0.0
 11
-385.6156298148925
 21
440.1191722072092
 31
0.0
  0
LINE
  5
201
330
1F
100
AcDbEntity
  8
B-8
  6
Continuous
 62
     3
370
     9
100
AcDbLine
 10
-398.1156091949073
 20
454.2907931689912
 30
0.0
 11
-398.1156091949073
 21
434.2909746248611
 31
0.0
  0
LINE
  5
202
330
1F
100
AcDbEntity
  8
B-8
  6
JWW_DASHED3
 62
     3
370
     9
100
AcDbLine
 10
-398.1156091949073
 20
450.2909284360943
 30
0.0
 11
-381.1156892004499
 21
450.2909284360943
 31
0.0
  0
LINE
  5
203
330
1F
100
AcDbEntity
  8
B-8
  6
JWW_DASHED3
 62
     3
370
     9
100
AcDbLine
 10
-398.1156091949073
 20
438.2908393577582
 30
0.0
 11
-381.1156892004499
 21
438.2908393577582
 31
0.0
  0
LINE
  5
204
330
1F
100
AcDbEntity
  8
B-8
  6
Continuous
 62
     3
370
     9
100
AcDbLine
 10
-786.1156644564677
 20
432.29079481859
 30
0.0
 11
-795.1156694052643
 21
432.29079481859
 31
0.0
  0
LINE
  5
205
330
1F
100
AcDbEntity
  8
B-8
  6
Continuous
 62
     3
370
     9
100
AcDbLine
 10
-786.1156644564677
 20
487.2908525545486
 30
0.0
 11
-786.1156644564677
 21
432.29079481859
 31
0.0
  0
LINE
  5
206
330
1F
100
AcDbEntity
  8
B-8
  6
Continuous
 62
     3
370
     9
100
AcDbLine
 10
-786.1156644564677
 20
487.2908525545486
 30
0.0
 11
-795.1156694052643
 21
487.2908525545486
 31
0.0
  0
LINE
  5
207
330
1F
100
AcDbEntity
  8
B-8
  6
Continuous
 62
     3
370
     9
100
AcDbLine
 10
-795.1156694052643
 20
487.2908525545486
 30
0.0
 11
-795.1156694052643
 21
432.29079481859
 31
0.0
  0
LINE
  5
208
330
1F
100
AcDbEntity
  8
B-8
  6
JWW_CENTER1
 62
     3
370
     9
100
AcDbLine
 10
-781.4558777166028
 20
476.2909152393037
 30
0.0
 11
-815.7084774843394
 21
476.2909152393037
 31
0.0
  0
LINE
  5
209
330
1F
100
AcDbEntity
  8
B-8
  6
JWW_CENTER1
 62
     3
370
     9
100
AcDbLine
 10
-790.6157597207994
 20
448.3002750629946
 30
0.0
 11
-790.6157597207994
 21
440.1191722072092
 31
0.0
  0
LINE
  5
20A
330
1F
100
AcDbEntity
  8
B-8
  6
Continuous
 62
     3
370
     9
100
AcDbLine
 10
-778.1156875508511
 20
454.2907931689912
 30
0.0
 11
-778.1156875508511
 21
434.2909746248611
 31
0.0
  0
LINE
  5
20B
330
1F
100
AcDbEntity
  8
B-8
  6
JWW_DASHED3
 62
     3
370
     9
100
AcDbLine
 10
-778.1156875508511
 20
450.2909284360943
 30
0.0
 11
-795.1156694052643
 21
450.2909284360943
 31
0.0
  0
LINE
  5
20C
330
1F
100
AcDbEntity
  8
B-8
  6
JWW_DASHED3
 62
     3
370
     9
100
AcDbLine
 10
-778.1156875508511
 20
438.2908393577582
 30
0.0
 11
-795.1156694052643
 21
438.2908393577582
 31
0.0
  0
LINE
  5
20D
330
1F
100
AcDbEntity
  8
B-8
  6
JWW_CENTER1
 62
     3
370
     9
100
AcDbLine
 10
-764.0470015552853
 20
444.2908838969262
 30
0.0
 11
-806.855822949922
 21
444.2908838969262
 31
0.0
  0
LINE
  5
20E
330
1F
100
AcDbEntity
  8
B-8
  6
JWW_CENTER1
 62
     3
370
     9
100
AcDbLine
 10
-410.1844246839804
 20
444.2908838969262
 30
0.0
 11
-380.6157370388156
 21
444.2908838969262
 31
0.0
  0
ARC
  5
20F
330
1F
100
AcDbEntity
  8
B-8
  6
Continuous
 62
     3
370
     9
100
AcDbCircle
 10
-374.6156924996475
 20
476.2909152393037
 30
0.0
 40
10.00000012887491
100
AcDbArc
 50
270.0
 51
90.0
  0
CIRCLE
  5
210
330
1F
100
AcDbEntity
  8
B-8
  6
Continuous
 62
     3
370
     9
100
AcDbCircle
 10
-385.6156298148925
 20
444.2908838969262
 30
0.0
 40
2.000000388235659
  0
ARC
  5
211
330
1F
100
AcDbEntity
  8
B-8
  6
Continuous
 62
     3
370
     9
100
AcDbCircle
 10
-398.1156091949073
 20
444.2908838969262
 30
0.0
 40
10.00000012887491
100
AcDbArc
 50
90.0
 51
270.0
  0
ARC
  5
212
330
1F
100
AcDbEntity
  8
B-8
  6
Continuous
 62
     3
370
     9
100
AcDbCircle
 10
-801.6156661060666
 20
476.2909152393037
 30
0.0
 40
10.00000012887491
100
AcDbArc
 50
90.0
 51
270.0
  0
CIRCLE
  5
213
330
1F
100
AcDbEntity
  8
B-8
  6
Continuous
 62
     3
370
     9
100
AcDbCircle
 10
-790.6157597207994
 20
444.2908838969262
 30
0.0
 40
2.000000388235659
  0
ARC
  5
214
330
1F
100
AcDbEntity
  8
B-8
  6
Continuous
 62
     3
370
     9
100
AcDbCircle
 10
-778.1156875508511
 20
444.2908838969262
 30
0.0
 40
10.00000012887491
100
AcDbArc
 50
270.0
 51
90.0
  0
LINE
  5
215
330
1F
100
AcDbEntity
  8
B-2
  6
Continuous
 62
     3
370
     9
100
AcDbLine
 10
95.07358906707552
 20
482.2909597784718
 30
0.0
 11
100.0734818431523
 21
487.2908525545486
 31
0.0
  0
LINE
  5
216
330
1F
100
AcDbEntity
  8
B-2
  6
Continuous
 62
     3
370
     9
100
AcDbLine
 10
95.07358906707552
 20
482.2909597784718
 30
0.0
 11
95.07358906707552
 21
481.2909317352918
 31
0.0
  0
LINE
  5
217
330
1F
100
AcDbEntity
  8
B-2
  6
Continuous
 62
     3
370
     9
100
AcDbLine
 10
100.0734818431523
 20
487.2908525545486
 30
0.0
 11
120.0735478271049
 21
487.2908525545486
 31
0.0
  0
LINE
  5
218
330
1F
100
AcDbEntity
  8
B-2
  6
Continuous
 62
     3
370
     9
100
AcDbLine
 10
120.0735478271049
 20
481.2909317352918
 30
0.0
 11
120.0735478271049
 21
487.2908525545486
 31
0.0
  0
LWPOLYLINE
  5
219
330
1F
100
AcDbEntity
  8
B-4
  6
Continuous
 62
     7
370
     9
100
AcDbPolyline
 90
        4
 70
     1
 43
1.0
 10
28.25869879838879
 20
498.2909135897049
 42
0.4142135623731
 10
27.75869879838879
 20
498.7909135897048
 42
0.4142135623731
 10
27.25869879838879
 20
498.2909135897049
 42
0.4142135623731
 10
27.75869879838879
 20
497.7909135897049
 42
0.4142135623731
  0
LWPOLYLINE
  5
21A
330
1F
100
AcDbEntity
  8
B-4
  6
Continuous
 62
     7
370
     9
100
AcDbPolyline
 90
        4
 70
     1
 43
1.0
 10
28.25869879838879
 20
492.2909927704481
 42
0.4142135623731
 10
27.75869879838879
 20
492.790992770448
 42
0.4142135623731
 10
27.25869879838879
 20
492.2909927704481
 42
0.4142135623731
 10
27.75869879838879
 20
491.7909927704482
 42
0.4142135623731
  0
LWPOLYLINE
  5
21B
330
1F
100
AcDbEntity
  8
B-4
  6
Continuous
 62
     7
370
     9
100
AcDbPolyline
 90
        4
 70
     1
 43
1.0
 10
28.25869879838879
 20
481.2909317352918
 42
0.4142135623731
 10
27.75869879838879
 20
481.7909317352918
 42
0.4142135623731
 10
27.25869879838879
 20
481.2909317352918
 42
0.4142135623731
 10
27.75869879838879
 20
480.7909317352919
 42
0.4142135623731
  0
LWPOLYLINE
  5
21C
330
1F
100
AcDbEntity
  8
B-4
  6
Continuous
 62
     7
370
     9
100
AcDbPolyline
 90
        4
 70
     1
 43
1.0
 10
28.25869879838879
 20
-108.7090352727317
 42
0.4142135623731
 10
27.75869879838879
 20
-108.2090352727317
 42
0.4142135623731
 10
27.25869879838879
 20
-108.7090352727317
 42
0.4142135623731
 10
27.75869879838879
 20
-109.2090352727318
 42
0.4142135623731
  0
LWPOLYLINE
  5
21D
330
1F
100
AcDbEntity
  8
B-4
  6
Continuous
 62
     7
370
     9
100
AcDbPolyline
 90
        4
 70
     1
 43
1.0
 10
28.25869879838879
 20
-115.7090459951241
 42
0.4142135623731
 10
27.75869879838879
 20
-115.2090459951241
 42
0.4142135623731
 10
27.25869879838879
 20
-115.7090459951241
 42
0.4142135623731
 10
27.75869879838879
 20
-116.2090459951241
 42
0.4142135623731
  0
LWPOLYLINE
  5
21E
330
1F
100
AcDbEntity
  8
B-4
  6
Continuous
 62
     7
370
     9
100
AcDbPolyline
 90
        4
 70
     1
 43
1.0
 10
28.25869879838879
 20
-121.7089049544252
 42
0.4142135623731
 10
27.75869879838879
 20
-121.2089049544252
 42
0.4142135623731
 10
27.25869879838879
 20
-121.7089049544252
 42
0.4142135623731
 10
27.75869879838879
 20
-122.2089049544252
 42
0.4142135623731
  0
LWPOLYLINE
  5
21F
330
1F
100
AcDbEntity
  8
B-4
  6
Continuous
 62
     7
370
     9
100
AcDbPolyline
 90
        4
 70
     1
 43
1.0
 10
-20.63244087644233
 20
498.2909135897049
 42
0.4142135623731
 10
-21.13244087644233
 20
498.7909135897048
 42
0.4142135623731
 10
-21.63244087644233
 20
498.2909135897049
 42
0.4142135623731
 10
-21.13244087644233
 20
497.7909135897049
 42
0.4142135623731
  0
LWPOLYLINE
  5
220
330
1F
100
AcDbEntity
  8
B-4
  6
Continuous
 62
     7
370
     9
100
AcDbPolyline
 90
        4
 70
     1
 43
1.0
 10
-20.63244087644233
 20
-121.7089049544252
 42
0.4142135623731
 10
-21.13244087644233
 20
-121.2089049544252
 42
0.4142135623731
 10
-21.63244087644233
 20
-121.7089049544252
 42
0.4142135623731
 10
-21.13244087644233
 20
-122.2089049544252
 42
0.4142135623731
  0
LWPOLYLINE
  5
221
330
1F
100
AcDbEntity
  8
B-4
  6
Continuous
 62
     7
370
     9
100
AcDbPolyline
 90
        4
 70
     1
 43
1.0
 10
244.2221964757536
 20
-121.7089049544252
 42
0.4142135623731
 10
243.7221964757536
 20
-121.2089049544252
 42
0.4142135623731
 10
243.2221964757536
 20
-121.7089049544252
 42
0.4142135623731
 10
243.7221964757536
 20
-122.2089049544252
 42
0.4142135623731
  0
LWPOLYLINE
  5
222
330
1F
100
AcDbEntity
  8
B-4
  6
Continuous
 62
     7
370
     9
100
AcDbPolyline
 90
        4
 70
     1
 43
1.0
 10
244.2221964757536
 20
-61.70907816230102
 42
0.4142135623731
 10
243.7221964757536
 20
-61.20907816230102
 42
0.4142135623731
 10
243.2221964757536
 20
-61.70907816230102
 42
0.4142135623731
 10
243.7221964757536
 20
-62.20907816230102
 42
0.4142135623731
  0
LWPOLYLINE
  5
223
330
1F
100
AcDbEntity
  8
B-4
  6
Continuous
 62
     7
370
     9
100
AcDbPolyline
 90
        4
 70
     1
 43
1.0
 10
244.2221964757536
 20
438.2909630776695
 42
0.4142135623731
 10
243.7221964757536
 20
438.7909630776694
 42
0.4142135623731
 10
243.2221964757536
 20
438.2909630776695
 42
0.4142135623731
 10
243.7221964757536
 20
437.7909630776695
 42
0.4142135623731
  0
LWPOLYLINE
  5
224
330
1F
100
AcDbEntity
  8
B-4
  6
Continuous
 62
     7
370
     9
100
AcDbPolyline
 90
        4
 70
     1
 43
1.0
 10
244.2221964757536
 20
498.2909135897049
 42
0.4142135623731
 10
243.7221964757536
 20
498.7909135897048
 42
0.4142135623731
 10
243.2221964757536
 20
498.2909135897049
 42
0.4142135623731
 10
243.7221964757536
 20
497.7909135897049
 42
0.4142135623731
  0
LWPOLYLINE
  5
225
330
1F
100
AcDbEntity
  8
B-4
  6
Continuous
 62
     7
370
     9
100
AcDbPolyline
 90
        4
 70
     1
 43
1.0
 10
95.57358906707552
 20
-189.3599422221616
 42
0.4142135623731
 10
95.07358906707552
 20
-188.8599422221616
 42
0.4142135623731
 10
94.57358906707552
 20
-189.3599422221616
 42
0.4142135623731
 10
95.07358906707552
 20
-189.8599422221616
 42
0.4142135623731
  0
LWPOLYLINE
  5
226
330
1F
100
AcDbEntity
  8
B-4
  6
Continuous
 62
     7
370
     9
100
AcDbPolyline
 90
        4
 70
     1
 43
1.0
 10
160.5735560750992
 20
-189.3599422221616
 42
0.4142135623731
 10
160.0735560750992
 20
-188.8599422221616
 42
0.4142135623731
 10
159.5735560750992
 20
-189.3599422221616
 42
0.4142135623731
 10
160.0735560750992
 20
-189.8599422221616
 42
0.4142135623731
  0
LWPOLYLINE
  5
227
330
1F
100
AcDbEntity
  8
B-4
  6
Continuous
 62
     7
370
     9
100
AcDbPolyline
 90
        4
 70
     1
 43
1.0
 10
95.57358906707552
 20
-220.4935011656266
 42
0.4142135623731
 10
95.07358906707552
 20
-219.9935011656266
 42
0.4142135623731
 10
94.57358906707552
 20
-220.4935011656266
 42
0.4142135623731
 10
95.07358906707552
 20
-220.9935011656266
 42
0.4142135623731
  0
LWPOLYLINE
  5
228
330
1F
100
AcDbEntity
  8
B-4
  6
Continuous
 62
     7
370
     9
100
AcDbPolyline
 90
        4
 70
     1
 43
1.0
 10
166.5736006142672
 20
-220.4935011656266
 42
0.4142135623731
 10
166.0736006142672
 20
-219.9935011656266
 42
0.4142135623731
 10
165.5736006142672
 20
-220.4935011656266
 42
0.4142135623731
 10
166.0736006142672
 20
-220.9935011656266
 42
0.4142135623731
  0
LWPOLYLINE
  5
229
330
1F
100
AcDbEntity
  8
B-4
  6
Continuous
 62
     7
370
     9
100
AcDbPolyline
 90
        4
 70
     1
 43
1.0
 10
-785.1157122948335
 20
-183.9909929506244
 42
0.4142135623731
 10
-785.6157122948334
 20
-183.4909929506244
 42
0.4142135623731
 10
-786.1157122948334
 20
-183.9909929506244
 42
0.4142135623731
 10
-785.6157122948334
 20
-184.4909929506244
 42
0.4142135623731
  0
LWPOLYLINE
  5
22A
330
1F
100
AcDbEntity
  8
B-4
  6
Continuous
 62
     7
370
     9
100
AcDbPolyline
 90
        4
 70
     1
 43
1.0
 10
-390.115770030792
 20
-183.9909929506244
 42
0.4142135623731
 10
-390.615770030792
 20
-183.4909929506244
 42
0.4142135623731
 10
-391.1157700307919
 20
-183.9909929506244
 42
0.4142135623731
 10
-390.615770030792
 20
-184.4909929506244
 42
0.4142135623731
  0
LWPOLYLINE
  5
22B
330
1F
100
AcDbEntity
  8
B-4
  6
Continuous
 62
     7
370
     9
100
AcDbPolyline
 90
        4
 70
     1
 43
1.0
 10
-380.1157370388157
 20
-183.9909929506244
 42
0.4142135623731
 10
-380.6157370388156
 20
-183.4909929506244
 42
0.4142135623731
 10
-381.1157370388156
 20
-183.9909929506244
 42
0.4142135623731
 10
-380.6157370388156
 20
-184.4909929506244
 42
0.4142135623731
  0
LWPOLYLINE
  5
22C
330
1F
100
AcDbEntity
  8
B-4
  6
Continuous
 62
     7
370
     9
100
AcDbPolyline
 90
        4
 70
     1
 43
1.0
 10
-795.1156215668984
 20
-183.9909929506244
 42
0.4142135623731
 10
-795.6156215668984
 20
-183.4909929506244
 42
0.4142135623731
 10
-796.1156215668984
 20
-183.9909929506244
 42
0.4142135623731
 10
-795.6156215668984
 20
-184.4909929506244
 42
0.4142135623731
  0
LWPOLYLINE
  5
22D
330
1F
100
AcDbEntity
  8
B-4
  6
Continuous
 62
     7
370
     9
100
AcDbPolyline
 90
        4
 70
     1
 43
1.0
 10
-801.1156661060666
 20
-227.3570797558135
 42
0.4142135623731
 10
-801.6156661060666
 20
-226.8570797558135
 42
0.4142135623731
 10
-802.1156661060666
 20
-227.3570797558135
 42
0.4142135623731
 10
-801.6156661060666
 20
-227.8570797558135
 42
0.4142135623731
  0
LWPOLYLINE
  5
22E
330
1F
100
AcDbEntity
  8
B-4
  6
Continuous
 62
     7
370
     9
100
AcDbPolyline
 90
        4
 70
     1
 43
1.0
 10
-795.1156215668984
 20
-227.3570797558135
 42
0.4142135623731
 10
-795.6156215668984
 20
-226.8570797558135
 42
0.4142135623731
 10
-796.1156215668984
 20
-227.3570797558135
 42
0.4142135623731
 10
-795.6156215668984
 20
-227.8570797558135
 42
0.4142135623731
  0
LWPOLYLINE
  5
22F
330
1F
100
AcDbEntity
  8
B-4
  6
Continuous
 62
     7
370
     9
100
AcDbPolyline
 90
        4
 70
     1
 43
1.0
 10
-380.1157370388157
 20
-227.3570797558135
 42
0.4142135623731
 10
-380.6157370388156
 20
-226.8570797558135
 42
0.4142135623731
 10
-381.1157370388156
 20
-227.3570797558135
 42
0.4142135623731
 10
-380.6157370388156
 20
-227.8570797558135
 42
0.4142135623731
  0
LWPOLYLINE
  5
230
330
1F
100
AcDbEntity
  8
B-4
  6
Continuous
 62
     7
370
     9
100
AcDbPolyline
 90
        4
 70
     1
 43
1.0
 10
-374.1156924996476
 20
-227.3570797558135
 42
0.4142135623731
 10
-374.6156924996475
 20
-226.8570797558135
 42
0.4142135623731
 10
-375.1156924996475
 20
-227.3570797558135
 42
0.4142135623731
 10
-374.6156924996475
 20
-227.8570797558135
 42
0.4142135623731
  0
LWPOLYLINE
  5
231
330
1F
100
AcDbEntity
  8
B-4
  6
Continuous
 62
     7
370
     9
100
AcDbPolyline
 90
        4
 70
     1
 43
1.0
 10
-801.1156661060666
 20
-268.6723543810246
 42
0.4142135623731
 10
-801.6156661060666
 20
-268.1723543810245
 42
0.4142135623731
 10
-802.1156661060666
 20
-268.6723543810246
 42
0.4142135623731
 10
-801.6156661060666
 20
-269.1723543810246
 42
0.4142135623731
  0
LWPOLYLINE
  5
232
330
1F
100
AcDbEntity
  8
B-4
  6
Continuous
 62
     7
370
     9
100
AcDbPolyline
 90
        4
 70
     1
 43
1.0
 10
-374.1156924996476
 20
-268.6723543810246
 42
0.4142135623731
 10
-374.6156924996475
 20
-268.1723543810245
 42
0.4142135623731
 10
-375.1156924996475
 20
-268.6723543810246
 42
0.4142135623731
 10
-374.6156924996475
 20
-269.1723543810246
 42
0.4142135623731
  0
LINE
  5
233
330
1F
100
AcDbEntity
  8
B-4
  6
Continuous
 62
     7
370
     9
100
AcDbLine
 10
76.98017063643775
 20
498.2909135897049
 30
0.0
 11
-22.63242108125652
 21
498.2909135897049
 31
0.0
  0
LINE
  5
234
330
1F
100
AcDbEntity
  8
B-4
  6
Continuous
 62
     7
370
     9
100
AcDbLine
 10
76.98017063643775
 20
492.2909927704481
 30
0.0
 11
26.25871859357446
 21
492.2909927704481
 31
0.0
  0
LINE
  5
235
330
1F
100
AcDbEntity
  8
B-4
  6
Continuous
 62
     7
370
     9
100
AcDbLine
 10
27.75869879838879
 20
492.2909927704481
 30
0.0
 11
27.75869879838879
 21
481.2909317352918
 31
0.0
  0
LINE
  5
236
330
1F
100
AcDbEntity
  8
B-4
  6
Continuous
 62
     7
370
     9
100
AcDbLine
 10
76.98017063643775
 20
481.2909317352918
 30
0.0
 11
26.25871859357446
 21
481.2909317352918
 31
0.0
  0
LINE
  5
237
330
1F
100
AcDbEntity
  8
B-4
  6
Continuous
 62
     7
370
     9
100
AcDbLine
 10
27.75869879838879
 20
481.2909317352918
 30
0.0
 11
27.75869879838879
 21
-108.7090352727317
 31
0.0
  0
LINE
  5
238
330
1F
100
AcDbEntity
  8
B-4
  6
Continuous
 62
     7
370
     9
100
AcDbLine
 10
76.98017063643775
 20
-108.7090352727317
 30
0.0
 11
26.25871859357446
 21
-108.7090352727317
 31
0.0
  0
LINE
  5
239
330
1F
100
AcDbEntity
  8
B-4
  6
Continuous
 62
     7
370
     9
100
AcDbLine
 10
27.75869879838879
 20
-108.7090352727317
 30
0.0
 11
27.75869879838879
 21
-115.7090459951241
 31
0.0
  0
LINE
  5
23A
330
1F
100
AcDbEntity
  8
B-4
  6
Continuous
 62
     7
370
     9
100
AcDbLine
 10
76.98017063643775
 20
-115.7090459951241
 30
0.0
 11
26.25871859357446
 21
-115.7090459951241
 31
0.0
  0
LINE
  5
23B
330
1F
100
AcDbEntity
  8
B-4
  6
Continuous
 62
     7
370
     9
100
AcDbLine
 10
76.98017063643775
 20
-121.7089049544252
 30
0.0
 11
-22.63242108125652
 21
-121.7089049544252
 31
0.0
  0
LINE
  5
23C
330
1F
100
AcDbEntity
  8
B-4
  6
Continuous
 62
     7
370
     9
100
AcDbLine
 10
-21.13244087644233
 20
498.2909135897049
 30
0.0
 11
-21.13244087644233
 21
-121.7089049544252
 31
0.0
  0
LINE
  5
23D
330
1F
100
AcDbEntity
  8
B-4
  6
Continuous
 62
     7
370
     9
100
AcDbLine
 10
27.75869879838879
 20
-115.7090459951241
 30
0.0
 11
27.75869879838879
 21
-140.392405502092
 31
0.0
  0
LINE
  5
23E
330
1F
100
AcDbEntity
  8
B-4
  6
Continuous
 62
     7
370
     9
100
AcDbLine
 10
27.75869879838879
 20
516.7462127609464
 30
0.0
 11
27.75869879838879
 21
492.2909927704481
 31
0.0
  0
LINE
  5
23F
330
1F
100
AcDbEntity
  8
B-4
  6
Continuous
 62
     7
370
     9
100
AcDbLine
 10
243.7221964757536
 20
-121.7089049544252
 30
0.0
 11
243.7221964757536
 21
-61.70907816230102
 31
0.0
  0
LINE
  5
240
330
1F
100
AcDbEntity
  8
B-4
  6
Continuous
 62
     7
370
     9
100
AcDbLine
 10
176.4558044123034
 20
-61.70907816230102
 30
0.0
 11
245.222176680568
 21
-61.70907816230102
 31
0.0
  0
LINE
  5
241
330
1F
100
AcDbEntity
  8
B-4
  6
Continuous
 62
     7
370
     9
100
AcDbLine
 10
243.7221964757536
 20
-61.70907816230102
 30
0.0
 11
243.7221964757536
 21
438.2909630776695
 31
0.0
  0
LINE
  5
242
330
1F
100
AcDbEntity
  8
B-4
  6
Continuous
 62
     7
370
     9
100
AcDbLine
 10
176.4558044123034
 20
438.2909630776695
 30
0.0
 11
245.222176680568
 21
438.2909630776695
 31
0.0
  0
LINE
  5
243
330
1F
100
AcDbEntity
  8
B-4
  6
Continuous
 62
     7
370
     9
100
AcDbLine
 10
243.7221964757536
 20
438.2909630776695
 30
0.0
 11
243.7221964757536
 21
498.2909135897049
 31
0.0
  0
LINE
  5
244
330
1F
100
AcDbEntity
  8
B-4
  6
Continuous
 62
     7
370
     9
100
AcDbLine
 10
179.7166901149005
 20
-121.7089049544252
 30
0.0
 11
245.222176680568
 21
-121.7089049544252
 31
0.0
  0
LINE
  5
245
330
1F
100
AcDbEntity
  8
B-4
  6
Continuous
 62
     7
370
     9
100
AcDbLine
 10
178.5488978719742
 20
498.2909135897049
 30
0.0
 11
245.222176680568
 21
498.2909135897049
 31
0.0
  0
LINE
  5
246
330
1F
100
AcDbEntity
  8
B-4
  6
Continuous
 62
     7
370
     9
100
AcDbLine
 10
95.07358906707552
 20
-189.3599422221616
 30
0.0
 11
160.0735560750992
 21
-189.3599422221616
 31
0.0
  0
LINE
  5
247
330
1F
100
AcDbEntity
  8
B-4
  6
Continuous
 62
     7
370
     9
100
AcDbLine
 10
95.07358906707552
 20
-137.7005076716443
 30
0.0
 11
95.07358906707552
 21
-221.9935432303965
 31
0.0
  0
LINE
  5
248
330
1F
100
AcDbEntity
  8
B-4
  6
Continuous
 62
     7
370
     9
100
AcDbLine
 10
160.0735560750992
 20
-137.7005076716443
 30
0.0
 11
160.0735560750992
 21
-190.8599224269758
 31
0.0
  0
LINE
  5
249
330
1F
100
AcDbEntity
  8
B-4
  6
Continuous
 62
     7
370
     9
100
AcDbLine
 10
95.07358906707552
 20
-220.4935011656266
 30
0.0
 11
166.0736006142672
 21
-220.4935011656266
 31
0.0
  0
LINE
  5
24A
330
1F
100
AcDbEntity
  8
B-4
  6
Continuous
 62
     7
370
     9
100
AcDbLine
 10
166.0736006142672
 20
-141.0267174874171
 30
0.0
 11
166.0736006142672
 21
-221.9935432303965
 31
0.0
  0
LINE
  5
24B
330
1F
100
AcDbEntity
  8
B-4
  6
Continuous
 62
     7
370
     9
100
AcDbLine
 10
-783.1157040468394
 20
-183.9909929506244
 30
0.0
 11
-393.1157782787861
 21
-183.9909929506244
 31
0.0
  0
LINE
  5
24C
330
1F
100
AcDbEntity
  8
B-4
  6
Continuous
 62
     7
370
     9
100
AcDbLine
 10
-785.6157122948334
 20
-135.9997300507617
 30
0.0
 11
-785.6157122948334
 21
-185.4909731554386
 31
0.0
  0
LINE
  5
24D
330
1F
100
AcDbEntity
  8
B-4
  6
Continuous
 62
     7
370
     9
100
AcDbLine
 10
-390.615770030792
 20
-135.9997300507617
 30
0.0
 11
-390.615770030792
 21
-185.4909731554386
 31
0.0
  0
LINE
  5
24E
330
1F
100
AcDbEntity
  8
B-4
  6
Continuous
 62
     7
370
     9
100
AcDbLine
 10
-393.1157782787861
 20
-183.9909929506244
 30
0.0
 11
-380.6157370388156
 21
-183.9909929506244
 31
0.0
  0
LINE
  5
24F
330
1F
100
AcDbEntity
  8
B-4
  6
Continuous
 62
     7
370
     9
100
AcDbLine
 10
-380.6157370388156
 20
-135.9997300507617
 30
0.0
 11
-380.6157370388156
 21
-228.8570599606277
 31
0.0
  0
LINE
  5
250
330
1F
100
AcDbEntity
  8
B-4
  6
Continuous
 62
     7
370
     9
100
AcDbLine
 10
-795.6156215668984
 20
-183.9909929506244
 30
0.0
 11
-783.1157040468394
 21
-183.9909929506244
 31
0.0
  0
LINE
  5
251
330
1F
100
AcDbEntity
  8
B-4
  6
Continuous
 62
     7
370
     9
100
AcDbLine
 10
-795.6156215668984
 20
-135.9997300507617
 30
0.0
 11
-795.6156215668984
 21
-228.8570599606277
 31
0.0
  0
LINE
  5
252
330
1F
100
AcDbEntity
  8
B-4
  6
Continuous
 62
     7
370
     9
100
AcDbLine
 10
-801.6156661060666
 20
-227.3570797558135
 30
0.0
 11
-795.6156215668984
 21
-227.3570797558135
 31
0.0
  0
LINE
  5
253
330
1F
100
AcDbEntity
  8
B-4
  6
Continuous
 62
     7
370
     9
100
AcDbLine
 10
-795.6156215668984
 20
-227.3570797558135
 30
0.0
 11
-380.6157370388156
 21
-227.3570797558135
 31
0.0
  0
LINE
  5
254
330
1F
100
AcDbEntity
  8
B-4
  6
Continuous
 62
     7
370
     9
100
AcDbLine
 10
-380.6157370388156
 20
-227.3570797558135
 30
0.0
 11
-374.6156924996475
 21
-227.3570797558135
 31
0.0
  0
LINE
  5
255
330
1F
100
AcDbEntity
  8
B-4
  6
Continuous
 62
     7
370
     9
100
AcDbLine
 10
-801.6156661060666
 20
-135.9997300507617
 30
0.0
 11
-801.6156661060666
 21
-270.1723345858388
 31
0.0
  0
LINE
  5
256
330
1F
100
AcDbEntity
  8
B-4
  6
Continuous
 62
     7
370
     9
100
AcDbLine
 10
-374.6156924996475
 20
-135.9997300507617
 30
0.0
 11
-374.6156924996475
 21
-270.1723345858388
 31
0.0
  0
LINE
  5
257
330
1F
100
AcDbEntity
  8
B-4
  6
Continuous
 62
     7
370
     9
100
AcDbLine
 10
-801.6156661060666
 20
-268.6723543810246
 30
0.0
 11
-374.6156924996475
 21
-268.6723543810246
 31
0.0
  0
TEXT
  5
258
330
1F
100
AcDbEntity
  8
B-4
  6
Continuous
 62
     2
370
     9
100
AcDbText
 10
20.38654838137031
 20
506.0559463837293
 30
0.0
 40
15.24
  1
6
 50
90.0
 41
0.9999999999999998
  7
ＭＳ ゴシック
100
AcDbText
  0
TEXT
  5
259
330
1F
100
AcDbEntity
  8
B-4
  6
Continuous
 62
     2
370
     9
100
AcDbText
 10
20.83824977759061
 20
452.3462873228131
 30
0.0
 40
15.24
  1
11
 50
90.0
 41
1.0625
  7
ＭＳ ゴシック
100
AcDbText
  0
TEXT
  5
25A
330
1F
100
AcDbEntity
  8
B-4
  6
Continuous
 62
     2
370
     9
100
AcDbText
 10
21.01727248926718
 20
-101.4294175507617
 30
0.0
 40
15.24
  1
7
 50
90.0
 41
0.9999999999999998
  7
ＭＳ ゴシック
100
AcDbText
  0
TEXT
  5
25B
330
1F
100
AcDbEntity
  8
B-4
  6
Continuous
 62
     2
370
     9
100
AcDbText
 10
20.63374076418281
 20
-135.9616243180759
 30
0.0
 40
15.24
  1
6
 50
90.0
 41
0.9999999999999998
  7
ＭＳ ゴシック
100
AcDbText
  0
TEXT
  5
25C
330
1F
100
AcDbEntity
  8
B-4
  6
Continuous
 62
     2
370
     9
100
AcDbText
 10
238.4021882277596
 20
-99.83398743436607
 30
0.0
 40
15.24
  1
60
 50
90.0
 41
1.0625
  7
ＭＳ ゴシック
100
AcDbText
  0
TEXT
  5
25D
330
1F
100
AcDbEntity
  8
B-4
  6
Continuous
 62
     2
370
     9
100
AcDbText
 10
238.4021882277596
 20
460.1658805977286
 30
0.0
 40
15.24
  1
60
 50
90.0
 41
1.0625
  7
ＭＳ ゴシック
100
AcDbText
  0
TEXT
  5
25E
330
1F
100
AcDbEntity
  8
B-4
  6
Continuous
 62
     2
370
     9
100
AcDbText
 10
119.4485148351286
 20
-184.0399339741676
 30
0.0
 40
15.24
  1
65
 41
1.0625
  7
ＭＳ ゴシック
100
AcDbText
  0
TEXT
  5
25F
330
1F
100
AcDbEntity
  8
B-4
  6
Continuous
 62
     2
370
     9
100
AcDbText
 10
122.4485989646682
 20
-215.1734929176325
 30
0.0
 40
15.24
  1
71
 41
1.0625
  7
ＭＳ ゴシック
100
AcDbText
  0
TEXT
  5
260
330
1F
100
AcDbEntity
  8
B-4
  6
Continuous
 62
     2
370
     9
100
AcDbText
 10
-26.95240128607072
 20
172.0410125656339
 30
0.0
 40
15.24
  1
620
 50
90.0
 41
1.083333333333333
  7
ＭＳ ゴシック
100
AcDbText
  0
TEXT
  5
261
330
1F
100
AcDbEntity
  8
B-4
  6
Continuous
 62
     2
370
     9
100
AcDbText
 10
21.93873838876041
 20
170.0409564792742
 30
0.0
 40
15.24
  1
590
 50
90.0
 41
1.083333333333333
  7
ＭＳ ゴシック
100
AcDbText
  0
TEXT
  5
262
330
1F
100
AcDbEntity
  8
B-4
  6
Continuous
 62
     2
370
     9
100
AcDbText
 10
237.9022360661253
 20
172.0409507056783
 30
0.0
 40
15.24
  1
500
 50
90.0
 41
1.083333333333333
  7
ＭＳ ゴシック
100
AcDbText
  0
TEXT
  5
263
330
1F
100
AcDbEntity
  8
B-4
  6
Continuous
 62
     2
370
     9
100
AcDbText
 10
-791.731311231172
 20
-221.5099009656952
 30
0.0
 40
15.24
  1
6
 41
1.000000206199843
  7
ＭＳ ゴシック
100
AcDbText
  0
TEXT
  5
264
330
1F
100
AcDbEntity
  8
B-4
  6
Continuous
 62
     2
370
     9
100
AcDbText
 10
-392.7203694422151
 20
-220.5315239069959
 30
0.0
 40
15.24
  1
6
 41
0.9999999999999998
  7
ＭＳ ゴシック
100
AcDbText
  0
TEXT
  5
265
330
1F
100
AcDbEntity
  8
B-4
  6
Continuous
 62
     2
370
     9
100
AcDbText
 10
-775.0297418028571
 20
-178.1709706810405
 30
0.0
 40
15.24
  1
10
 41
1.0625
  7
ＭＳ ゴシック
100
AcDbText
  0
TEXT
  5
266
330
1F
100
AcDbEntity
  8
B-4
  6
Continuous
 62
     2
370
     9
100
AcDbText
 10
-418.0162662301163
 20
-178.1709706810405
 30
0.0
 40
15.24
  1
10
 41
1.0625
  7
ＭＳ ゴシック
100
AcDbText
  0
TEXT
  5
267
330
1F
100
AcDbEntity
  8
B-4
  6
Continuous
 62
     2
370
     9
100
AcDbText
 10
-604.3657329148186
 20
-178.1709706810405
 30
0.0
 40
15.24
  1
395
 41
1.083333333333333
  7
ＭＳ ゴシック
100
AcDbText
  0
TEXT
  5
268
330
1F
100
AcDbEntity
  8
B-4
  6
Continuous
 62
     2
370
     9
100
AcDbText
 10
-604.3656710548629
 20
-221.5370574862294
 30
0.0
 40
15.24
  1
415
 41
1.083333333333333
  7
ＭＳ ゴシック
100
AcDbText
  0
TEXT
  5
269
330
1F
100
AcDbEntity
  8
B-4
  6
Continuous
 62
     2
370
     9
100
AcDbText
 10
-604.3656710548629
 20
-262.8523939713962
 30
0.0
 40
15.24
  1
427
 41
1.083333333333333
  7
ＭＳ ゴシック
100
AcDbText
  0
LINE
  5
26A
330
1F
100
AcDbEntity
  8
B-5
  6
Continuous
 62
     7
370
     9
100
AcDbLine
 10
-336.9384018667295
 20
302.8990678865799
 30
0.0
 11
-234.7205162565099
 21
302.8990678865799
 31
0.0
  0
LINE
  5
26B
330
1F
100
AcDbEntity
  8
B-5
  6
Continuous
 62
     7
370
     9
100
AcDbLine
 10
-336.9384018667295
 20
302.8990678865799
 30
0.0
 11
-374.392439919675
 21
246.2802588309423
 31
0.0
  0
LINE
  5
26C
330
1F
100
AcDbEntity
  8
B-5
  6
Continuous
 62
     7
370
     9
100
AcDbLine
 10
-374.392439919675
 20
246.2802588309423
 30
0.0
 11
-368.8350033632456
 21
257.4769108051821
 31
0.0
  0
LINE
  5
26D
330
1F
100
AcDbEntity
  8
B-5
  6
Continuous
 62
     7
370
     9
100
AcDbLine
 10
-374.392439919675
 20
246.2802588309423
 30
0.0
 11
-366.1264652047257
 21
255.6569909097007
 31
0.0
  0
TEXT
  5
26E
330
1F
100
AcDbEntity
  8
B-5
  6
Continuous
 62
     7
370
     9
100
AcDbText
 10
-346.2288273778303
 20
668.8466311795729
 30
0.0
 40
11.43
  1
エンドプレート　ＦＢ4.5×55
 41
1.160493827160494
  7
ＭＳ ゴシック
100
AcDbText
  0
TEXT
  5
26F
330
1F
100
AcDbEntity
  8
B-5
  6
Continuous
 62
     7
370
     9
100
AcDbText
 10
-347.5532374344099
 20
621.7671945503607
 30
0.0
 40
11.43
  1
クロスバー □８ ＠100
 41
1.158730158730159
  7
ＭＳ ゴシック
100
AcDbText
  0
LINE
  5
270
330
1F
100
AcDbEntity
  8
B-5
  6
Continuous
 62
     7
370
     9
100
AcDbLine
 10
-342.7668024499723
 20
517.1435741928503
 30
0.0
 11
-186.178374167574
 21
517.1435741928503
 31
0.0
  0
TEXT
  5
271
330
1F
100
AcDbEntity
  8
B-5
  6
Continuous
 62
     7
370
     9
100
AcDbText
 10
-339.3732094113096
 20
522.8766247040969
 30
0.0
 40
11.43
  1
アーム式ピンヒンジ
 41
1.148148148148148
  7
ＭＳ ゴシック
100
AcDbText
  0
LINE
  5
272
330
1F
100
AcDbEntity
  8
B-5
  6
Continuous
 62
     7
370
     9
100
AcDbLine
 10
-345.8832659696569
 20
663.5933107254116
 30
0.0
 11
-109.4973285096432
 21
663.5933107254116
 31
0.0
  0
LINE
  5
273
330
1F
100
AcDbEntity
  8
B-5
  6
Continuous
 62
     7
370
     9
100
AcDbLine
 10
-349.506960023342
 20
615.1212580155367
 30
0.0
 11
-161.5462520036054
 21
615.1212580155367
 31
0.0
  0
LINE
  5
274
330
1F
100
AcDbEntity
  8
B-5
  6
Continuous
 62
     7
370
     9
100
AcDbLine
 10
-353.2980150181283
 20
568.3690161444015
 30
0.0
 11
-129.1670809677062
 21
568.3690161444015
 31
0.0
  0
LINE
  5
275
330
1F
100
AcDbEntity
  8
B-5
  6
Continuous
 62
     7
370
     9
100
AcDbLine
 10
-67.16628624036187
 20
565.2720243310756
 30
0.0
 11
66.63314350834085
 21
565.2720243310756
 31
0.0
  0
TEXT
  5
276
330
1F
100
AcDbEntity
  8
B-5
  6
Continuous
 62
     7
370
     9
100
AcDbText
 10
-66.37845874455209
 20
548.3875881822179
 30
0.0
 40
11.43
  1
（二方受四方枠）
 41
1.145833333333333
  7
ＭＳ ゴシック
100
AcDbText
  0
LINE
  5
277
330
1F
100
AcDbEntity
  8
B-5
  6
Continuous
 62
     7
370
     9
100
AcDbLine
 10
66.63314350834085
 20
565.2720243310756
 30
0.0
 11
105.3047058254914
 21
498.2909135897049
 31
0.0
  0
LINE
  5
278
330
1F
100
AcDbEntity
  8
B-5
  6
Continuous
 62
     7
370
     9
100
AcDbLine
 10
105.3047058254914
 20
498.2909135897049
 30
0.0
 11
97.69518796288231
 21
508.2078303433454
 31
0.0
  0
LINE
  5
279
330
1F
100
AcDbEntity
  8
B-5
  6
Continuous
 62
     7
370
     9
100
AcDbLine
 10
105.3047058254914
 20
498.2909135897049
 30
0.0
 11
100.5211629209278
 21
509.8394077460961
 31
0.0
  0
LINE
  5
27A
330
1F
100
AcDbEntity
  8
B-5
  6
Continuous
 62
     7
370
     9
100
AcDbLine
 10
-342.7668024499723
 20
517.1435741928503
 30
0.0
 11
-364.9259981369968
 21
478.7627214080626
 31
0.0
  0
LINE
  5
27B
330
1F
100
AcDbEntity
  8
B-5
  6
Continuous
 62
     7
370
     9
100
AcDbLine
 10
-364.9259981369968
 20
478.7627214080626
 30
0.0
 11
-360.1424552324332
 21
490.3112155644537
 31
0.0
  0
LINE
  5
27C
330
1F
100
AcDbEntity
  8
B-5
  6
Continuous
 62
     7
370
     9
100
AcDbLine
 10
-364.9259981369968
 20
478.7627214080626
 30
0.0
 11
-357.3164802743878
 21
488.679638161703
 31
0.0
  0
LINE
  5
27D
330
1F
100
AcDbEntity
  8
B-5
  6
Continuous
 62
     7
370
     9
100
AcDbLine
 10
-353.2980150181283
 20
568.3690161444015
 30
0.0
 11
-426.0140780372848
 21
442.4211004688422
 31
0.0
  0
LINE
  5
27E
330
1F
100
AcDbEntity
  8
B-5
  6
Continuous
 62
     7
370
     9
100
AcDbLine
 10
-426.0140780372848
 20
442.4211004688422
 30
0.0
 11
-421.2305351327211
 21
453.9695946252333
 31
0.0
  0
LINE
  5
27F
330
1F
100
AcDbEntity
  8
B-5
  6
Continuous
 62
     7
370
     9
100
AcDbLine
 10
-426.0140780372848
 20
442.4211004688422
 30
0.0
 11
-418.4045601746757
 21
452.3380172224826
 31
0.0
  0
LINE
  5
280
330
1F
100
AcDbEntity
  8
B-5
  6
Continuous
 62
     7
370
     9
100
AcDbLine
 10
-349.506960023342
 20
615.1212580155367
 30
0.0
 11
-478.4465544919348
 21
391.791329288607
 31
0.0
  0
LINE
  5
281
330
1F
100
AcDbEntity
  8
B-5
  6
Continuous
 62
     7
370
     9
100
AcDbLine
 10
-478.4465544919348
 20
391.791329288607
 30
0.0
 11
-473.6630115873712
 21
403.3398234449982
 31
0.0
  0
LINE
  5
282
330
1F
100
AcDbEntity
  8
B-5
  6
Continuous
 62
     7
370
     9
100
AcDbLine
 10
-478.4465544919348
 20
391.791329288607
 30
0.0
 11
-470.8370366293257
 21
401.7082460422475
 31
0.0
  0
LINE
  5
283
330
1F
100
AcDbEntity
  8
B-5
  6
Continuous
 62
     7
370
     9
100
AcDbLine
 10
-345.8832659696569
 20
663.5933107254116
 30
0.0
 11
-451.1356649832357
 21
481.2908080153807
 31
0.0
  0
LINE
  5
284
330
1F
100
AcDbEntity
  8
B-5
  6
Continuous
 62
     7
370
     9
100
AcDbLine
 10
-451.1356649832357
 20
481.2908080153807
 30
0.0
 11
-446.3521220786721
 21
492.8393021717719
 31
0.0
  0
LINE
  5
285
330
1F
100
AcDbEntity
  8
B-5
  6
Continuous
 62
     7
370
     9
100
AcDbLine
 10
-451.1356649832357
 20
481.2908080153807
 30
0.0
 11
-443.5261471206266
 21
491.2077247690212
 31
0.0
  0
TEXT
  5
286
330
1F
100
AcDbEntity
  8
B-5
  6
Continuous
 62
     7
370
     9
100
AcDbText
 10
-335.524035840547
 20
308.647350522243
 30
0.0
 40
11.43
  1
ＦＢ６×６５
 41
1.138888888888889
  7
ＭＳ ゴシック
100
AcDbText
  0
TEXT
  5
287
330
1F
100
AcDbEntity
  8
B-5
  6
Continuous
 62
     7
370
     9
100
AcDbText
 10
-354.4037807680199
 20
574.4100122128178
 30
0.0
 40
11.43
  1
メインバー ＤⅠ－６５ ＠35.3
 41
1.160714285714286
  7
ＭＳ ゴシック
100
AcDbText
  0
TEXT
  5
288
330
1F
100
AcDbEntity
  8
F-4ﾚｲﾔ
  6
Continuous
 62
     2
370
     9
100
AcDbText
 10
272.5612681533241
 20
-354.9338563486783
 30
0.0
 40
15.24
  1
スチール製グレーチング　１８０度開閉式　滑り止め模様付
 41
1.12037037037037
  7
ＭＳ ゴシック
100
AcDbText
  0
TEXT
  5
289
330
1F
100
AcDbEntity
  8
F-4ﾚｲﾔ
  6
Continuous
 62
     2
370
     9
100
AcDbText
 10
272.5612681533241
 20
-379.3070726955621
 30
0.0
 40
15.24
  1
集水桝用　ＨＸＰ　５４６５
 41
1.115384615384615
  7
ＭＳ ゴシック
100
AcDbText
  0
TEXT
  5
28A
330
1F
100
AcDbEntity
  8
F-5ﾚｲﾔ
  6
Continuous
 62
     2
370
     9
100
AcDbText
 10
-39.90464966007337
 20
-687.4397846515358
 30
0.0
 40
15.24
  1
集水桝用　ＨＸＰ　５４６５
 41
0.8980769230769229
  7
ＭＳ ゴシック
100
AcDbText
  0
TEXT
  5
28B
330
1F
100
AcDbEntity
  8
F-5ﾚｲﾔ
  6
Continuous
 62
     2
370
     9
100
AcDbText
 10
-426.1880709347506
 20
-661.4726690346383
 30
0.0
 40
15.24
  1
スチール製グレーチング　１８０度開閉式　滑り止め模様付
 41
0.899074074074074
  7
ＭＳ ゴシック
100
AcDbText
  0
LINE
  5
28C
330
1F
100
AcDbEntity
  8
B-2
  6
Continuous
 62
     3
370
     9
100
AcDbLine
 10
95.07358906707552
 20
481.2909317352918
 30
0.0
 11
95.07358906707552
 21
476.7909911208494
 31
0.0
  0
LINE
  5
28D
330
1F
100
AcDbEntity
  8
B-2
  6
Continuous
 62
     3
370
     9
100
AcDbLine
 10
95.07358906707552
 20
-104.2090946582891
 30
0.0
 11
95.07358906707552
 21
-108.7090352727317
 31
0.0
  0
LINE
  5
28E
330
1F
100
AcDbEntity
  8
B-A
  6
Continuous
 62
     3
370
     9
100
AcDbLine
 10
93.57336142243852
 20
475.9474687654863
 30
0.0
 11
93.57336142243852
 21
471.5400706447093
 31
0.0
  0
LINE
  5
28F
330
1F
100
AcDbEntity
  8
B-A
  6
Continuous
 62
     3
370
     9
100
AcDbLine
 10
93.57336142243852
 20
471.5400706447093
 30
0.0
 11
95.07358906707552
 21
471.0283650914998
 31
0.0
  0
LINE
  5
290
330
1F
100
AcDbEntity
  8
B-A
  6
Continuous
 62
     3
370
     9
100
AcDbLine
 10
95.07358906707552
 20
471.0283650914998
 30
0.0
 11
95.07358906707552
 21
465.9157634762125
 31
0.0
  0
LINE
  5
291
330
1F
100
AcDbEntity
  8
B-A
  6
Continuous
 62
     3
370
     9
100
AcDbLine
 10
93.57336142243852
 20
465.4040579230032
 30
0.0
 11
95.07358906707552
 21
465.9157634762125
 31
0.0
  0
LINE
  5
292
330
1F
100
AcDbEntity
  8
B-A
  6
Continuous
 62
     3
370
     9
100
AcDbLine
 10
93.57336142243852
 20
465.4040579230032
 30
0.0
 11
93.57336142243852
 21
458.8568002160775
 31
0.0
  0
LINE
  5
293
330
1F
100
AcDbEntity
  8
B-A
  6
Continuous
 62
     3
370
     9
100
AcDbLine
 10
93.57336142243852
 20
458.8568002160775
 30
0.0
 11
95.07358906707552
 21
458.3455895425134
 31
0.0
  0
LINE
  5
294
330
1F
100
AcDbEntity
  8
B-A
  6
Continuous
 62
     3
370
     9
100
AcDbLine
 10
93.57336142243852
 20
452.7210349341941
 30
0.0
 11
93.57336142243852
 21
448.3133893735943
 31
0.0
  0
LINE
  5
295
330
1F
100
AcDbEntity
  8
B-A
  6
Continuous
 62
     3
370
     9
100
AcDbLine
 10
93.57336142243852
 20
448.3133893735943
 30
0.0
 11
95.07358906707552
 21
447.8021787000301
 31
0.0
  0
LINE
  5
296
330
1F
100
AcDbEntity
  8
B-A
  6
Continuous
 62
     3
370
     9
100
AcDbLine
 10
95.07358906707552
 20
447.8021787000301
 30
0.0
 11
95.07358906707552
 21
442.6890822050977
 31
0.0
  0
LINE
  5
297
330
1F
100
AcDbEntity
  8
B-A
  6
Continuous
 62
     3
370
     9
100
AcDbLine
 10
93.57336142243852
 20
442.1778715315335
 30
0.0
 11
95.07358906707552
 21
442.6890822050977
 31
0.0
  0
LINE
  5
298
330
1F
100
AcDbEntity
  8
B-A
  6
Continuous
 62
     3
370
     9
100
AcDbLine
 10
93.57336142243852
 20
442.1778715315335
 30
0.0
 11
93.57336142243852
 21
435.6301189449625
 31
0.0
  0
LINE
  5
299
330
1F
100
AcDbEntity
  8
B-A
  6
Continuous
 62
     3
370
     9
100
AcDbLine
 10
93.57336142243852
 20
435.6301189449625
 30
0.0
 11
95.07358906707552
 21
435.1194031510437
 31
0.0
  0
LINE
  5
29A
330
1F
100
AcDbEntity
  8
B-A
  6
Continuous
 62
     3
370
     9
100
AcDbLine
 10
93.57336142243852
 20
452.7210349341941
 30
0.0
 11
95.07358906707552
 21
453.2324930475809
 31
0.0
  0
LINE
  5
29B
330
1F
100
AcDbEntity
  8
B-A
  6
Continuous
 62
     3
370
     9
100
AcDbLine
 10
95.07358906707552
 20
458.3455895425134
 30
0.0
 11
95.07358906707552
 21
453.2324930475809
 31
0.0
  0
LINE
  5
29C
330
1F
100
AcDbEntity
  8
B-A
  6
Continuous
 62
     3
370
     9
100
AcDbLine
 10
93.57336142243852
 20
429.4946011029018
 30
0.0
 11
93.57336142243852
 21
425.0869555423021
 31
0.0
  0
LINE
  5
29D
330
1F
100
AcDbEntity
  8
B-A
  6
Continuous
 62
     3
370
     9
100
AcDbLine
 10
93.57336142243852
 20
425.0869555423021
 30
0.0
 11
95.07358906707552
 21
424.5759923085606
 31
0.0
  0
LINE
  5
29E
330
1F
100
AcDbEntity
  8
B-A
  6
Continuous
 62
     3
370
     9
100
AcDbLine
 10
95.07358906707552
 20
424.5759923085606
 30
0.0
 11
95.07358906707552
 21
419.4624009339828
 31
0.0
  0
LINE
  5
29F
330
1F
100
AcDbEntity
  8
B-A
  6
Continuous
 62
     3
370
     9
100
AcDbLine
 10
93.57336142243852
 20
418.951685140064
 30
0.0
 11
95.07358906707552
 21
419.4624009339828
 31
0.0
  0
LINE
  5
2A0
330
1F
100
AcDbEntity
  8
B-A
  6
Continuous
 62
     3
370
     9
100
AcDbLine
 10
93.57336142243852
 20
418.951685140064
 30
0.0
 11
93.57336142243852
 21
412.4039325534931
 31
0.0
  0
LINE
  5
2A1
330
1F
100
AcDbEntity
  8
B-A
  6
Continuous
 62
     3
370
     9
100
AcDbLine
 10
93.57336142243852
 20
412.4039325534931
 30
0.0
 11
95.07358906707552
 21
411.8927218799288
 31
0.0
  0
LINE
  5
2A2
330
1F
100
AcDbEntity
  8
B-A
  6
Continuous
 62
     3
370
     9
100
AcDbLine
 10
93.57336142243852
 20
429.4946011029018
 30
0.0
 11
95.07358906707552
 21
430.005811776466
 31
0.0
  0
LINE
  5
2A3
330
1F
100
AcDbEntity
  8
B-A
  6
Continuous
 62
     3
370
     9
100
AcDbLine
 10
95.07358906707552
 20
435.1194031510437
 30
0.0
 11
95.07358906707552
 21
430.005811776466
 31
0.0
  0
LINE
  5
2A4
330
1F
100
AcDbEntity
  8
B-A
  6
Continuous
 62
     3
370
     9
100
AcDbLine
 10
93.57336142243852
 20
406.2679198317869
 30
0.0
 11
93.57336142243852
 21
401.8607691508327
 31
0.0
  0
LINE
  5
2A5
330
1F
100
AcDbEntity
  8
B-A
  6
Continuous
 62
     3
370
     9
100
AcDbLine
 10
93.57336142243852
 20
401.8607691508327
 30
0.0
 11
95.07358906707552
 21
401.3493110374458
 31
0.0
  0
LINE
  5
2A6
330
1F
100
AcDbEntity
  8
B-A
  6
Continuous
 62
     3
370
     9
100
AcDbLine
 10
93.57336142243852
 20
406.2679198317869
 30
0.0
 11
95.07358906707552
 21
406.7796253849964
 31
0.0
  0
LINE
  5
2A7
330
1F
100
AcDbEntity
  8
B-A
  6
Continuous
 62
     3
370
     9
100
AcDbLine
 10
95.07358906707552
 20
411.8927218799288
 30
0.0
 11
95.07358906707552
 21
406.7796253849964
 31
0.0
  0
LINE
  5
2A8
330
1F
100
AcDbEntity
  8
B-A
  6
Continuous
 62
     3
370
     9
100
AcDbLine
 10
95.07358906707552
 20
401.3493110374458
 30
0.0
 11
95.07358906707552
 21
396.2362145425134
 31
0.0
  0
LINE
  5
2A9
330
1F
100
AcDbEntity
  8
B-A
  6
Continuous
 62
     3
370
     9
100
AcDbLine
 10
93.57336142243852
 20
395.7250038689492
 30
0.0
 11
95.07358906707552
 21
396.2362145425134
 31
0.0
  0
LINE
  5
2AA
330
1F
100
AcDbEntity
  8
B-A
  6
Continuous
 62
     3
370
     9
100
AcDbLine
 10
93.57336142243852
 20
395.7250038689492
 30
0.0
 11
93.57336142243852
 21
389.1777461620234
 31
0.0
  0
LINE
  5
2AB
330
1F
100
AcDbEntity
  8
B-A
  6
Continuous
 62
     3
370
     9
100
AcDbLine
 10
93.57336142243852
 20
389.1777461620234
 30
0.0
 11
95.07358906707552
 21
388.666040608814
 31
0.0
  0
LINE
  5
2AC
330
1F
100
AcDbEntity
  8
B-A
  6
Continuous
 62
     3
370
     9
100
AcDbLine
 10
93.57336142243852
 20
383.0417334403174
 30
0.0
 11
93.57336142243852
 21
378.6343353195403
 31
0.0
  0
LINE
  5
2AD
330
1F
100
AcDbEntity
  8
B-A
  6
Continuous
 62
     3
370
     9
100
AcDbLine
 10
93.57336142243852
 20
378.6343353195403
 30
0.0
 11
95.07358906707552
 21
378.1231246459761
 31
0.0
  0
LINE
  5
2AE
330
1F
100
AcDbEntity
  8
B-A
  6
Continuous
 62
     3
370
     9
100
AcDbLine
 10
93.57336142243852
 20
383.0417334403174
 30
0.0
 11
95.07358906707552
 21
383.5529441138816
 31
0.0
  0
LINE
  5
2AF
330
1F
100
AcDbEntity
  8
B-A
  6
Continuous
 62
     3
370
     9
100
AcDbLine
 10
95.07358906707552
 20
388.666040608814
 30
0.0
 11
95.07358906707552
 21
383.5529441138816
 31
0.0
  0
LINE
  5
2B0
330
1F
100
AcDbEntity
  8
B-A
  6
Continuous
 62
     3
370
     9
100
AcDbLine
 10
95.07358906707552
 20
378.1231246459761
 30
0.0
 11
95.07358906707552
 21
373.0100281510437
 31
0.0
  0
LINE
  5
2B1
330
1F
100
AcDbEntity
  8
B-A
  6
Continuous
 62
     3
370
     9
100
AcDbLine
 10
93.57336142243852
 20
372.4983225978342
 30
0.0
 11
95.07358906707552
 21
373.0100281510437
 31
0.0
  0
LINE
  5
2B2
330
1F
100
AcDbEntity
  8
B-A
  6
Continuous
 62
     3
370
     9
100
AcDbLine
 10
93.57336142243852
 20
372.4983225978342
 30
0.0
 11
93.57336142243852
 21
365.9513123307312
 31
0.0
  0
LINE
  5
2B3
330
1F
100
AcDbEntity
  8
B-A
  6
Continuous
 62
     3
370
     9
100
AcDbLine
 10
93.57336142243852
 20
365.9513123307312
 30
0.0
 11
95.07358906707552
 21
365.4398542173443
 31
0.0
  0
LINE
  5
2B4
330
1F
100
AcDbEntity
  8
B-A
  6
Continuous
 62
     3
370
     9
100
AcDbLine
 10
93.57336142243852
 20
359.8155470488477
 30
0.0
 11
93.57336142243852
 21
355.4081489280708
 31
0.0
  0
LINE
  5
2B5
330
1F
100
AcDbEntity
  8
B-A
  6
Continuous
 62
     3
370
     9
100
AcDbLine
 10
93.57336142243852
 20
355.4081489280708
 30
0.0
 11
95.07358906707552
 21
354.8966908146839
 31
0.0
  0
LINE
  5
2B6
330
1F
100
AcDbEntity
  8
B-A
  6
Continuous
 62
     3
370
     9
100
AcDbLine
 10
93.57336142243852
 20
359.8155470488477
 30
0.0
 11
95.07358906707552
 21
360.3267577224119
 31
0.0
  0
LINE
  5
2B7
330
1F
100
AcDbEntity
  8
B-A
  6
Continuous
 62
     3
370
     9
100
AcDbLine
 10
95.07358906707552
 20
365.4398542173443
 30
0.0
 11
95.07358906707552
 21
360.3267577224119
 31
0.0
  0
LINE
  5
2B8
330
1F
100
AcDbEntity
  8
B-A
  6
Continuous
 62
     3
370
     9
100
AcDbLine
 10
95.07358906707552
 20
354.8966908146839
 30
0.0
 11
95.07358906707552
 21
349.7835943197515
 31
0.0
  0
LINE
  5
2B9
330
1F
100
AcDbEntity
  8
B-A
  6
Continuous
 62
     3
370
     9
100
AcDbLine
 10
93.57336142243852
 20
349.271888766542
 30
0.0
 11
95.07358906707552
 21
349.7835943197515
 31
0.0
  0
LINE
  5
2BA
330
1F
100
AcDbEntity
  8
B-A
  6
Continuous
 62
     3
370
     9
100
AcDbLine
 10
93.57336142243852
 20
349.271888766542
 30
0.0
 11
93.57336142243852
 21
342.7246310596163
 31
0.0
  0
LINE
  5
2BB
330
1F
100
AcDbEntity
  8
B-A
  6
Continuous
 62
     3
370
     9
100
AcDbLine
 10
93.57336142243852
 20
342.7246310596163
 30
0.0
 11
95.07358906707552
 21
342.2134203860521
 31
0.0
  0
LINE
  5
2BC
330
1F
100
AcDbEntity
  8
B-A
  6
Continuous
 62
     3
370
     9
100
AcDbLine
 10
93.57336142243852
 20
336.5886183379102
 30
0.0
 11
93.57336142243852
 21
332.1814676569559
 31
0.0
  0
LINE
  5
2BD
330
1F
100
AcDbEntity
  8
B-A
  6
Continuous
 62
     3
370
     9
100
AcDbLine
 10
93.57336142243852
 20
332.1814676569559
 30
0.0
 11
95.07358906707552
 21
331.6702569833917
 31
0.0
  0
LINE
  5
2BE
330
1F
100
AcDbEntity
  8
B-A
  6
Continuous
 62
     3
370
     9
100
AcDbLine
 10
93.57336142243852
 20
336.5886183379102
 30
0.0
 11
95.07358906707552
 21
337.1000764512971
 31
0.0
  0
LINE
  5
2BF
330
1F
100
AcDbEntity
  8
B-A
  6
Continuous
 62
     3
370
     9
100
AcDbLine
 10
95.07358906707552
 20
342.2134203860521
 30
0.0
 11
95.07358906707552
 21
337.1000764512971
 31
0.0
  0
LINE
  5
2C0
330
1F
100
AcDbEntity
  8
B-A
  6
Continuous
 62
     3
370
     9
100
AcDbLine
 10
95.07358906707552
 20
331.6702569833917
 30
0.0
 11
95.07358906707552
 21
326.5569130486367
 31
0.0
  0
LINE
  5
2C1
330
1F
100
AcDbEntity
  8
B-A
  6
Continuous
 62
     3
370
     9
100
AcDbLine
 10
93.57336142243852
 20
326.0452074954271
 30
0.0
 11
95.07358906707552
 21
326.5569130486367
 31
0.0
  0
LINE
  5
2C2
330
1F
100
AcDbEntity
  8
B-A
  6
Continuous
 62
     3
370
     9
100
AcDbLine
 10
93.57336142243852
 20
326.0452074954271
 30
0.0
 11
93.57336142243852
 21
319.4981972283241
 31
0.0
  0
LINE
  5
2C3
330
1F
100
AcDbEntity
  8
B-A
  6
Continuous
 62
     3
370
     9
100
AcDbLine
 10
93.57336142243852
 20
319.4981972283241
 30
0.0
 11
95.07358906707552
 21
318.9867391149373
 31
0.0
  0
LINE
  5
2C4
330
1F
100
AcDbEntity
  8
B-A
  6
Continuous
 62
     3
370
     9
100
AcDbLine
 10
93.57336142243852
 20
313.3624319464407
 30
0.0
 11
93.57336142243852
 21
308.9552812654863
 31
0.0
  0
LINE
  5
2C5
330
1F
100
AcDbEntity
  8
B-A
  6
Continuous
 62
     3
370
     9
100
AcDbLine
 10
93.57336142243852
 20
308.9552812654863
 30
0.0
 11
95.07358906707552
 21
308.4435757122767
 31
0.0
  0
LINE
  5
2C6
330
1F
100
AcDbEntity
  8
B-A
  6
Continuous
 62
     3
370
     9
100
AcDbLine
 10
93.57336142243852
 20
313.3624319464407
 30
0.0
 11
95.07358906707552
 21
313.8736426200048
 31
0.0
  0
LINE
  5
2C7
330
1F
100
AcDbEntity
  8
B-A
  6
Continuous
 62
     3
370
     9
100
AcDbLine
 10
95.07358906707552
 20
318.9867391149373
 30
0.0
 11
95.07358906707552
 21
313.8736426200048
 31
0.0
  0
LINE
  5
2C8
330
1F
100
AcDbEntity
  8
B-A
  6
Continuous
 62
     3
370
     9
100
AcDbLine
 10
95.07358906707552
 20
308.4435757122767
 30
0.0
 11
95.07358906707552
 21
303.3304792173443
 31
0.0
  0
LINE
  5
2C9
330
1F
100
AcDbEntity
  8
B-A
  6
Continuous
 62
     3
370
     9
100
AcDbLine
 10
93.57336142243852
 20
302.8187736641349
 30
0.0
 11
95.07358906707552
 21
303.3304792173443
 31
0.0
  0
LINE
  5
2CA
330
1F
100
AcDbEntity
  8
B-A
  6
Continuous
 62
     3
370
     9
100
AcDbLine
 10
93.57336142243852
 20
302.8187736641349
 30
0.0
 11
93.57336142243852
 21
296.2715159572092
 31
0.0
  0
LINE
  5
2CB
330
1F
100
AcDbEntity
  8
B-A
  6
Continuous
 62
     3
370
     9
100
AcDbLine
 10
93.57336142243852
 20
296.2715159572092
 30
0.0
 11
95.07358906707552
 21
295.7603052836449
 31
0.0
  0
LINE
  5
2CC
330
1F
100
AcDbEntity
  8
B-A
  6
Continuous
 62
     3
370
     9
100
AcDbLine
 10
93.57336142243852
 20
290.1355032355032
 30
0.0
 11
93.57336142243852
 21
285.7281051147261
 31
0.0
  0
LINE
  5
2CD
330
1F
100
AcDbEntity
  8
B-A
  6
Continuous
 62
     3
370
     9
100
AcDbLine
 10
93.57336142243852
 20
285.7281051147261
 30
0.0
 11
95.07358906707552
 21
285.2173893208072
 31
0.0
  0
LINE
  5
2CE
330
1F
100
AcDbEntity
  8
B-A
  6
Continuous
 62
     3
370
     9
100
AcDbLine
 10
93.57336142243852
 20
290.1355032355032
 30
0.0
 11
95.07358906707552
 21
290.6472087887125
 31
0.0
  0
LINE
  5
2CF
330
1F
100
AcDbEntity
  8
B-A
  6
Continuous
 62
     3
370
     9
100
AcDbLine
 10
95.07358906707552
 20
295.7603052836449
 30
0.0
 11
95.07358906707552
 21
290.6472087887125
 31
0.0
  0
LINE
  5
2D0
330
1F
100
AcDbEntity
  8
B-A
  6
Continuous
 62
     3
370
     9
100
AcDbLine
 10
95.07358906707552
 20
285.2173893208072
 30
0.0
 11
95.07358906707552
 21
280.1037979462295
 31
0.0
  0
LINE
  5
2D1
330
1F
100
AcDbEntity
  8
B-A
  6
Continuous
 62
     3
370
     9
100
AcDbLine
 10
93.57336142243852
 20
279.5920923930199
 30
0.0
 11
95.07358906707552
 21
280.1037979462295
 31
0.0
  0
LINE
  5
2D2
330
1F
100
AcDbEntity
  8
B-A
  6
Continuous
 62
     3
370
     9
100
AcDbLine
 10
93.57336142243852
 20
279.5920923930199
 30
0.0
 11
93.57336142243852
 21
273.0448346860943
 31
0.0
  0
LINE
  5
2D3
330
1F
100
AcDbEntity
  8
B-A
  6
Continuous
 62
     3
370
     9
100
AcDbLine
 10
93.57336142243852
 20
273.0448346860943
 30
0.0
 11
95.07358906707552
 21
272.5336240125301
 31
0.0
  0
LINE
  5
2D4
330
1F
100
AcDbEntity
  8
B-A
  6
Continuous
 62
     3
370
     9
100
AcDbLine
 10
93.57336142243852
 20
266.9093168440335
 30
0.0
 11
93.57336142243852
 21
262.5019187232566
 31
0.0
  0
LINE
  5
2D5
330
1F
100
AcDbEntity
  8
B-A
  6
Continuous
 62
     3
370
     9
100
AcDbLine
 10
93.57336142243852
 20
262.5019187232566
 30
0.0
 11
95.07358906707552
 21
261.990213170047
 31
0.0
  0
LINE
  5
2D6
330
1F
100
AcDbEntity
  8
B-A
  6
Continuous
 62
     3
370
     9
100
AcDbLine
 10
93.57336142243852
 20
266.9093168440335
 30
0.0
 11
95.07358906707552
 21
267.4205275175977
 31
0.0
  0
LINE
  5
2D7
330
1F
100
AcDbEntity
  8
B-A
  6
Continuous
 62
     3
370
     9
100
AcDbLine
 10
95.07358906707552
 20
272.5336240125301
 30
0.0
 11
95.07358906707552
 21
267.4205275175977
 31
0.0
  0
LINE
  5
2D8
330
1F
100
AcDbEntity
  8
B-A
  6
Continuous
 62
     3
370
     9
100
AcDbLine
 10
95.07358906707552
 20
261.990213170047
 30
0.0
 11
95.07358906707552
 21
256.8771166751146
 31
0.0
  0
LINE
  5
2D9
330
1F
100
AcDbEntity
  8
B-A
  6
Continuous
 62
     3
370
     9
100
AcDbLine
 10
93.57336142243852
 20
256.3656585617277
 30
0.0
 11
95.07358906707552
 21
256.8771166751146
 31
0.0
  0
LINE
  5
2DA
330
1F
100
AcDbEntity
  8
B-A
  6
Continuous
 62
     3
370
     9
100
AcDbLine
 10
93.57336142243852
 20
256.3656585617277
 30
0.0
 11
93.57336142243852
 21
249.8184008548021
 31
0.0
  0
LINE
  5
2DB
330
1F
100
AcDbEntity
  8
B-A
  6
Continuous
 62
     3
370
     9
100
AcDbLine
 10
93.57336142243852
 20
249.8184008548021
 30
0.0
 11
95.07358906707552
 21
249.3069427414153
 31
0.0
  0
LINE
  5
2DC
330
1F
100
AcDbEntity
  8
B-A
  6
Continuous
 62
     3
370
     9
100
AcDbLine
 10
93.57336142243852
 20
243.682388133096
 30
0.0
 11
93.57336142243852
 21
239.2749900123191
 31
0.0
  0
LINE
  5
2DD
330
1F
100
AcDbEntity
  8
B-A
  6
Continuous
 62
     3
370
     9
100
AcDbLine
 10
93.57336142243852
 20
239.2749900123191
 30
0.0
 11
95.07358906707552
 21
238.7640267785775
 31
0.0
  0
LINE
  5
2DE
330
1F
100
AcDbEntity
  8
B-A
  6
Continuous
 62
     3
370
     9
100
AcDbLine
 10
93.57336142243852
 20
243.682388133096
 30
0.0
 11
95.07358906707552
 21
244.1938462464828
 31
0.0
  0
LINE
  5
2DF
330
1F
100
AcDbEntity
  8
B-A
  6
Continuous
 62
     3
370
     9
100
AcDbLine
 10
95.07358906707552
 20
249.3069427414153
 30
0.0
 11
95.07358906707552
 21
244.1938462464828
 31
0.0
  0
LINE
  5
2E0
330
1F
100
AcDbEntity
  8
B-A
  6
Continuous
 62
     3
370
     9
100
AcDbLine
 10
95.07358906707552
 20
238.7640267785775
 30
0.0
 11
95.07358906707552
 21
233.6506828438224
 31
0.0
  0
LINE
  5
2E1
330
1F
100
AcDbEntity
  8
B-A
  6
Continuous
 62
     3
370
     9
100
AcDbLine
 10
93.57336142243852
 20
233.1389772906129
 30
0.0
 11
95.07358906707552
 21
233.6506828438224
 31
0.0
  0
LINE
  5
2E2
330
1F
100
AcDbEntity
  8
B-A
  6
Continuous
 62
     3
370
     9
100
AcDbLine
 10
93.57336142243852
 20
233.1389772906129
 30
0.0
 11
93.57336142243852
 21
226.5917195836873
 31
0.0
  0
LINE
  5
2E3
330
1F
100
AcDbEntity
  8
B-A
  6
Continuous
 62
     3
370
     9
100
AcDbLine
 10
93.57336142243852
 20
226.5917195836873
 30
0.0
 11
95.07358906707552
 21
226.0805089101231
 31
0.0
  0
LINE
  5
2E4
330
1F
100
AcDbEntity
  8
B-A
  6
Continuous
 62
     3
370
     9
100
AcDbLine
 10
93.57336142243852
 20
220.4562017416265
 30
0.0
 11
93.57336142243852
 21
216.0488036208494
 31
0.0
  0
LINE
  5
2E5
330
1F
100
AcDbEntity
  8
B-A
  6
Continuous
 62
     3
370
     9
100
AcDbLine
 10
93.57336142243852
 20
216.0488036208494
 30
0.0
 11
95.07358906707552
 21
215.5373455074625
 31
0.0
  0
LINE
  5
2E6
330
1F
100
AcDbEntity
  8
B-A
  6
Continuous
 62
     3
370
     9
100
AcDbLine
 10
93.57336142243852
 20
220.4562017416265
 30
0.0
 11
95.07358906707552
 21
220.9674124151907
 31
0.0
  0
LINE
  5
2E7
330
1F
100
AcDbEntity
  8
B-A
  6
Continuous
 62
     3
370
     9
100
AcDbLine
 10
95.07358906707552
 20
226.0805089101231
 30
0.0
 11
95.07358906707552
 21
220.9674124151907
 31
0.0
  0
LINE
  5
2E8
330
1F
100
AcDbEntity
  8
B-A
  6
Continuous
 62
     3
370
     9
100
AcDbLine
 10
95.07358906707552
 20
215.5373455074625
 30
0.0
 11
95.07358906707552
 21
210.4240015727075
 31
0.0
  0
LINE
  5
2E9
330
1F
100
AcDbEntity
  8
B-A
  6
Continuous
 62
     3
370
     9
100
AcDbLine
 10
93.57336142243852
 20
209.9125434593207
 30
0.0
 11
95.07358906707552
 21
210.4240015727075
 31
0.0
  0
LINE
  5
2EA
330
1F
100
AcDbEntity
  8
B-A
  6
Continuous
 62
     3
370
     9
100
AcDbLine
 10
93.57336142243852
 20
209.9125434593207
 30
0.0
 11
93.57336142243852
 21
203.365285752395
 31
0.0
  0
LINE
  5
2EB
330
1F
100
AcDbEntity
  8
B-A
  6
Continuous
 62
     3
370
     9
100
AcDbLine
 10
93.57336142243852
 20
203.365285752395
 30
0.0
 11
95.07358906707552
 21
202.8540750788308
 31
0.0
  0
LINE
  5
2EC
330
1F
100
AcDbEntity
  8
B-A
  6
Continuous
 62
     3
370
     9
100
AcDbLine
 10
93.57336142243852
 20
197.229273030689
 30
0.0
 11
93.57336142243852
 21
192.8218749099119
 31
0.0
  0
LINE
  5
2ED
330
1F
100
AcDbEntity
  8
B-A
  6
Continuous
 62
     3
370
     9
100
AcDbLine
 10
93.57336142243852
 20
197.229273030689
 30
0.0
 11
95.07358906707552
 21
197.7409785838983
 31
0.0
  0
LINE
  5
2EE
330
1F
100
AcDbEntity
  8
B-A
  6
Continuous
 62
     3
370
     9
100
AcDbLine
 10
95.07358906707552
 20
202.8540750788308
 30
0.0
 11
95.07358906707552
 21
197.7409785838983
 31
0.0
  0
LINE
  5
2EF
330
1F
100
AcDbEntity
  8
B-A
  6
Continuous
 62
     3
370
     9
100
AcDbLine
 10
93.57336142243852
 20
475.9474687654863
 30
0.0
 11
95.07358906707552
 21
476.4586794390505
 31
0.0
  0
LINE
  5
2F0
330
1F
100
AcDbEntity
  8
B-A
  6
Continuous
 62
     3
370
     9
100
AcDbLine
 10
93.57336142243852
 20
192.8218749099119
 30
0.0
 11
95.07358906707552
 21
192.310416796525
 31
0.0
  0
LINE
  5
2F1
330
1F
100
AcDbEntity
  8
B-A
  6
Continuous
 62
     3
370
     9
100
AcDbLine
 10
95.07358906707552
 20
192.310416796525
 30
0.0
 11
95.07358906707552
 21
187.19707286177
 31
0.0
  0
LINE
  5
2F2
330
1F
100
AcDbEntity
  8
B-A
  6
Continuous
 62
     3
370
     9
100
AcDbLine
 10
93.57336142243852
 20
186.6856147483832
 30
0.0
 11
95.07358906707552
 21
187.19707286177
 31
0.0
  0
LINE
  5
2F3
330
1F
100
AcDbEntity
  8
B-A
  6
Continuous
 62
     3
370
     9
100
AcDbLine
 10
93.57336142243852
 20
186.6856147483832
 30
0.0
 11
93.57336142243852
 21
180.1383570414575
 31
0.0
  0
LINE
  5
2F4
330
1F
100
AcDbEntity
  8
B-A
  6
Continuous
 62
     3
370
     9
100
AcDbLine
 10
93.57336142243852
 20
180.1383570414575
 30
0.0
 11
95.07358906707552
 21
179.6271463678933
 31
0.0
  0
LINE
  5
2F5
330
1F
100
AcDbEntity
  8
B-A
  6
Continuous
 62
     3
370
     9
100
AcDbLine
 10
93.57336142243852
 20
174.0023443197515
 30
0.0
 11
93.57336142243852
 21
169.5949461989744
 31
0.0
  0
LINE
  5
2F6
330
1F
100
AcDbEntity
  8
B-A
  6
Continuous
 62
     3
370
     9
100
AcDbLine
 10
93.57336142243852
 20
174.0023443197515
 30
0.0
 11
95.07358906707552
 21
174.5140498729608
 31
0.0
  0
LINE
  5
2F7
330
1F
100
AcDbEntity
  8
B-A
  6
Continuous
 62
     3
370
     9
100
AcDbLine
 10
95.07358906707552
 20
179.6271463678933
 30
0.0
 11
95.07358906707552
 21
174.5140498729608
 31
0.0
  0
LINE
  5
2F8
330
1F
100
AcDbEntity
  8
B-A
  6
Continuous
 62
     3
370
     9
100
AcDbLine
 10
93.57336142243852
 20
169.5949461989744
 30
0.0
 11
95.07358906707552
 21
169.0834880855875
 31
0.0
  0
LINE
  5
2F9
330
1F
100
AcDbEntity
  8
B-A
  6
Continuous
 62
     3
370
     9
100
AcDbLine
 10
95.07358906707552
 20
169.0834880855875
 30
0.0
 11
95.07358906707552
 21
163.9701441508325
 31
0.0
  0
LINE
  5
2FA
330
1F
100
AcDbEntity
  8
B-A
  6
Continuous
 62
     3
370
     9
100
AcDbLine
 10
93.57336142243852
 20
163.4586860374457
 30
0.0
 11
95.07358906707552
 21
163.9701441508325
 31
0.0
  0
LINE
  5
2FB
330
1F
100
AcDbEntity
  8
B-A
  6
Continuous
 62
     3
370
     9
100
AcDbLine
 10
93.57336142243852
 20
163.4586860374457
 30
0.0
 11
93.57336142243852
 21
156.91142833052
 31
0.0
  0
LINE
  5
2FC
330
1F
100
AcDbEntity
  8
B-A
  6
Continuous
 62
     3
370
     9
100
AcDbLine
 10
93.57336142243852
 20
156.91142833052
 30
0.0
 11
95.07358906707552
 21
156.4002176569557
 31
0.0
  0
LINE
  5
2FD
330
1F
100
AcDbEntity
  8
B-A
  6
Continuous
 62
     3
370
     9
100
AcDbLine
 10
93.57336142243852
 20
150.775415608814
 30
0.0
 11
93.57336142243852
 21
146.3680174880369
 31
0.0
  0
LINE
  5
2FE
330
1F
100
AcDbEntity
  8
B-A
  6
Continuous
 62
     3
370
     9
100
AcDbLine
 10
93.57336142243852
 20
150.775415608814
 30
0.0
 11
95.07358906707552
 21
151.2871211620233
 31
0.0
  0
LINE
  5
2FF
330
1F
100
AcDbEntity
  8
B-A
  6
Continuous
 62
     3
370
     9
100
AcDbLine
 10
95.07358906707552
 20
156.4002176569557
 30
0.0
 11
95.07358906707552
 21
151.2871211620233
 31
0.0
  0
LINE
  5
300
330
1F
100
AcDbEntity
  8
B-A
  6
Continuous
 62
     3
370
     9
100
AcDbLine
 10
93.57336142243852
 20
146.3680174880369
 30
0.0
 11
95.07358906707552
 21
145.8565593746499
 31
0.0
  0
LINE
  5
301
330
1F
100
AcDbEntity
  8
B-A
  6
Continuous
 62
     3
370
     9
100
AcDbLine
 10
95.07358906707552
 20
145.8565593746499
 30
0.0
 11
95.07358906707552
 21
140.743215439895
 31
0.0
  0
LINE
  5
302
330
1F
100
AcDbEntity
  8
B-A
  6
Continuous
 62
     3
370
     9
100
AcDbLine
 10
93.57336142243852
 20
140.2317573265082
 30
0.0
 11
95.07358906707552
 21
140.743215439895
 31
0.0
  0
LINE
  5
303
330
1F
100
AcDbEntity
  8
B-A
  6
Continuous
 62
     3
370
     9
100
AcDbLine
 10
93.57336142243852
 20
140.2317573265082
 30
0.0
 11
93.57336142243852
 21
133.6844996195825
 31
0.0
  0
LINE
  5
304
330
1F
100
AcDbEntity
  8
B-A
  6
Continuous
 62
     3
370
     9
100
AcDbLine
 10
93.57336142243852
 20
133.6844996195825
 30
0.0
 11
95.07358906707552
 21
133.1732889460182
 31
0.0
  0
LINE
  5
305
330
1F
100
AcDbEntity
  8
B-A
  6
Continuous
 62
     3
370
     9
100
AcDbLine
 10
93.57336142243852
 20
127.5484868978765
 30
0.0
 11
93.57336142243852
 21
123.1410887770994
 31
0.0
  0
LINE
  5
306
330
1F
100
AcDbEntity
  8
B-A
  6
Continuous
 62
     3
370
     9
100
AcDbLine
 10
93.57336142243852
 20
127.5484868978765
 30
0.0
 11
95.07358906707552
 21
128.0601924510858
 31
0.0
  0
LINE
  5
307
330
1F
100
AcDbEntity
  8
B-A
  6
Continuous
 62
     3
370
     9
100
AcDbLine
 10
95.07358906707552
 20
133.1732889460182
 30
0.0
 11
95.07358906707552
 21
128.0601924510858
 31
0.0
  0
LINE
  5
308
330
1F
100
AcDbEntity
  8
B-A
  6
Continuous
 62
     3
370
     9
100
AcDbLine
 10
93.57336142243852
 20
123.1410887770994
 30
0.0
 11
95.07358906707552
 21
122.6296306637124
 31
0.0
  0
LINE
  5
309
330
1F
100
AcDbEntity
  8
B-A
  6
Continuous
 62
     3
370
     9
100
AcDbLine
 10
95.07358906707552
 20
122.6296306637124
 30
0.0
 11
95.07358906707552
 21
117.5162867289575
 31
0.0
  0
LINE
  5
30A
330
1F
100
AcDbEntity
  8
B-A
  6
Continuous
 62
     3
370
     9
100
AcDbLine
 10
93.57336142243852
 20
117.0048286155707
 30
0.0
 11
95.07358906707552
 21
117.5162867289575
 31
0.0
  0
LINE
  5
30B
330
1F
100
AcDbEntity
  8
B-A
  6
Continuous
 62
     3
370
     9
100
AcDbLine
 10
93.57336142243852
 20
117.0048286155707
 30
0.0
 11
93.57336142243852
 21
110.457570908645
 31
0.0
  0
LINE
  5
30C
330
1F
100
AcDbEntity
  8
B-A
  6
Continuous
 62
     3
370
     9
100
AcDbLine
 10
93.57336142243852
 20
110.457570908645
 30
0.0
 11
95.07358906707552
 21
109.9463602350807
 31
0.0
  0
LINE
  5
30D
330
1F
100
AcDbEntity
  8
B-A
  6
Continuous
 62
     3
370
     9
100
AcDbLine
 10
93.57336142243852
 20
104.321558186939
 30
0.0
 11
93.57336142243852
 21
99.91416006616188
 31
0.0
  0
LINE
  5
30E
330
1F
100
AcDbEntity
  8
B-A
  6
Continuous
 62
     3
370
     9
100
AcDbLine
 10
93.57336142243852
 20
104.321558186939
 30
0.0
 11
95.07358906707552
 21
104.8332637401483
 31
0.0
  0
LINE
  5
30F
330
1F
100
AcDbEntity
  8
B-A
  6
Continuous
 62
     3
370
     9
100
AcDbLine
 10
95.07358906707552
 20
109.9463602350807
 30
0.0
 11
95.07358906707552
 21
104.8332637401483
 31
0.0
  0
LINE
  5
310
330
1F
100
AcDbEntity
  8
B-A
  6
Continuous
 62
     3
370
     9
100
AcDbLine
 10
93.57336142243852
 20
99.91416006616188
 30
0.0
 11
95.07358906707552
 21
99.40270195277495
 31
0.0
  0
LINE
  5
311
330
1F
100
AcDbEntity
  8
B-A
  6
Continuous
 62
     3
370
     9
100
AcDbLine
 10
95.07358906707552
 20
99.40270195277495
 30
0.0
 11
95.07358906707552
 21
94.28935801801995
 31
0.0
  0
LINE
  5
312
330
1F
100
AcDbEntity
  8
B-A
  6
Continuous
 62
     3
370
     9
100
AcDbLine
 10
93.57336142243852
 20
93.77789990463324
 30
0.0
 11
95.07358906707552
 21
94.28935801801995
 31
0.0
  0
LINE
  5
313
330
1F
100
AcDbEntity
  8
B-A
  6
Continuous
 62
     3
370
     9
100
AcDbLine
 10
93.57336142243852
 20
93.77789990463324
 30
0.0
 11
93.57336142243852
 21
87.23064219770745
 31
0.0
  0
LINE
  5
314
330
1F
100
AcDbEntity
  8
B-A
  6
Continuous
 62
     3
370
     9
100
AcDbLine
 10
93.57336142243852
 20
87.23064219770745
 30
0.0
 11
95.07358906707552
 21
86.71943152414318
 31
0.0
  0
LINE
  5
315
330
1F
100
AcDbEntity
  8
B-A
  6
Continuous
 62
     3
370
     9
100
AcDbLine
 10
93.57336142243852
 20
81.09462947600147
 30
0.0
 11
93.57336142243852
 21
76.68723135522438
 31
0.0
  0
LINE
  5
316
330
1F
100
AcDbEntity
  8
B-A
  6
Continuous
 62
     3
370
     9
100
AcDbLine
 10
93.57336142243852
 20
81.09462947600147
 30
0.0
 11
95.07358906707552
 21
81.60633502921084
 31
0.0
  0
LINE
  5
317
330
1F
100
AcDbEntity
  8
B-A
  6
Continuous
 62
     3
370
     9
100
AcDbLine
 10
95.07358906707552
 20
86.71943152414318
 30
0.0
 11
95.07358906707552
 21
81.60633502921084
 31
0.0
  0
LINE
  5
318
330
1F
100
AcDbEntity
  8
B-A
  6
Continuous
 62
     3
370
     9
100
AcDbLine
 10
93.57336142243852
 20
76.68723135522438
 30
0.0
 11
95.07358906707552
 21
76.17577324183745
 31
0.0
  0
LINE
  5
319
330
1F
100
AcDbEntity
  8
B-A
  6
Continuous
 62
     3
370
     9
100
AcDbLine
 10
95.07358906707552
 20
76.17577324183745
 30
0.0
 11
95.07358906707552
 21
71.06242930708245
 31
0.0
  0
LINE
  5
31A
330
1F
100
AcDbEntity
  8
B-A
  6
Continuous
 62
     3
370
     9
100
AcDbLine
 10
93.57336142243852
 20
70.55097119369574
 30
0.0
 11
95.07358906707552
 21
71.06242930708245
 31
0.0
  0
LINE
  5
31B
330
1F
100
AcDbEntity
  8
B-A
  6
Continuous
 62
     3
370
     9
100
AcDbLine
 10
93.57336142243852
 20
70.55097119369574
 30
0.0
 11
93.57336142243852
 21
64.00371348676995
 31
0.0
  0
LINE
  5
31C
330
1F
100
AcDbEntity
  8
B-A
  6
Continuous
 62
     3
370
     9
100
AcDbLine
 10
93.57336142243852
 20
64.00371348676995
 30
0.0
 11
95.07358906707552
 21
63.49250281320568
 31
0.0
  0
LINE
  5
31D
330
1F
100
AcDbEntity
  8
B-A
  6
Continuous
 62
     3
370
     9
100
AcDbLine
 10
93.57336142243852
 20
57.86770076506397
 30
0.0
 11
93.57336142243852
 21
53.46030264428688
 31
0.0
  0
LINE
  5
31E
330
1F
100
AcDbEntity
  8
B-A
  6
Continuous
 62
     3
370
     9
100
AcDbLine
 10
93.57336142243852
 20
57.86770076506397
 30
0.0
 11
95.07358906707552
 21
58.37940631827333
 31
0.0
  0
LINE
  5
31F
330
1F
100
AcDbEntity
  8
B-A
  6
Continuous
 62
     3
370
     9
100
AcDbLine
 10
95.07358906707552
 20
63.49250281320568
 30
0.0
 11
95.07358906707552
 21
58.37940631827333
 31
0.0
  0
LINE
  5
320
330
1F
100
AcDbEntity
  8
B-A
  6
Continuous
 62
     3
370
     9
100
AcDbLine
 10
93.57336142243852
 20
53.46030264428688
 30
0.0
 11
95.07358906707552
 21
52.94884453089995
 31
0.0
  0
LINE
  5
321
330
1F
100
AcDbEntity
  8
B-A
  6
Continuous
 62
     3
370
     9
100
AcDbLine
 10
95.07358906707552
 20
52.94884453089995
 30
0.0
 11
95.07358906707552
 21
47.83550059614495
 31
0.0
  0
LINE
  5
322
330
1F
100
AcDbEntity
  8
B-A
  6
Continuous
 62
     3
370
     9
100
AcDbLine
 10
93.57336142243852
 20
47.32404248275824
 30
0.0
 11
95.07358906707552
 21
47.83550059614495
 31
0.0
  0
LINE
  5
323
330
1F
100
AcDbEntity
  8
B-A
  6
Continuous
 62
     3
370
     9
100
AcDbLine
 10
93.57336142243852
 20
47.32404248275824
 30
0.0
 11
93.57336142243852
 21
40.77678477583245
 31
0.0
  0
LINE
  5
324
330
1F
100
AcDbEntity
  8
B-A
  6
Continuous
 62
     3
370
     9
100
AcDbLine
 10
93.57336142243852
 20
40.77678477583245
 30
0.0
 11
95.07358906707552
 21
40.26557410226818
 31
0.0
  0
LINE
  5
325
330
1F
100
AcDbEntity
  8
B-A
  6
Continuous
 62
     3
370
     9
100
AcDbLine
 10
93.57336142243852
 20
34.64077205412647
 30
0.0
 11
93.57336142243852
 21
30.23337393334938
 31
0.0
  0
LINE
  5
326
330
1F
100
AcDbEntity
  8
B-A
  6
Continuous
 62
     3
370
     9
100
AcDbLine
 10
93.57336142243852
 20
34.64077205412647
 30
0.0
 11
95.07358906707552
 21
35.15247760733583
 31
0.0
  0
LINE
  5
327
330
1F
100
AcDbEntity
  8
B-A
  6
Continuous
 62
     3
370
     9
100
AcDbLine
 10
95.07358906707552
 20
40.26557410226818
 30
0.0
 11
95.07358906707552
 21
35.15247760733583
 31
0.0
  0
LINE
  5
328
330
1F
100
AcDbEntity
  8
B-A
  6
Continuous
 62
     3
370
     9
100
AcDbLine
 10
93.57336142243852
 20
30.23337393334938
 30
0.0
 11
95.07358906707552
 21
29.72191581996245
 31
0.0
  0
LINE
  5
329
330
1F
100
AcDbEntity
  8
B-A
  6
Continuous
 62
     3
370
     9
100
AcDbLine
 10
95.07358906707552
 20
29.72191581996245
 30
0.0
 11
95.07358906707552
 21
24.60857188520745
 31
0.0
  0
LINE
  5
32A
330
1F
100
AcDbEntity
  8
B-A
  6
Continuous
 62
     3
370
     9
100
AcDbLine
 10
93.57336142243852
 20
24.09711377182074
 30
0.0
 11
95.07358906707552
 21
24.60857188520745
 31
0.0
  0
LINE
  5
32B
330
1F
100
AcDbEntity
  8
B-A
  6
Continuous
 62
     3
370
     9
100
AcDbLine
 10
93.57336142243852
 20
24.09711377182074
 30
0.0
 11
93.57336142243852
 21
17.54985606489495
 31
0.0
  0
LINE
  5
32C
330
1F
100
AcDbEntity
  8
B-A
  6
Continuous
 62
     3
370
     9
100
AcDbLine
 10
93.57336142243852
 20
17.54985606489495
 30
0.0
 11
95.07358906707552
 21
17.03864539133068
 31
0.0
  0
LINE
  5
32D
330
1F
100
AcDbEntity
  8
B-A
  6
Continuous
 62
     3
370
     9
100
AcDbLine
 10
93.57336142243852
 20
11.41384334318897
 30
0.0
 11
93.57336142243852
 21
7.006445222411877
 31
0.0
  0
LINE
  5
32E
330
1F
100
AcDbEntity
  8
B-A
  6
Continuous
 62
     3
370
     9
100
AcDbLine
 10
93.57336142243852
 20
11.41384334318897
 30
0.0
 11
95.07358906707552
 21
11.92554889639833
 31
0.0
  0
LINE
  5
32F
330
1F
100
AcDbEntity
  8
B-A
  6
Continuous
 62
     3
370
     9
100
AcDbLine
 10
95.07358906707552
 20
17.03864539133068
 30
0.0
 11
95.07358906707552
 21
11.92554889639833
 31
0.0
  0
LINE
  5
330
330
1F
100
AcDbEntity
  8
B-A
  6
Continuous
 62
     3
370
     9
100
AcDbLine
 10
93.57336142243852
 20
7.006445222411877
 30
0.0
 11
95.07358906707552
 21
6.494987109024954
 31
0.0
  0
LINE
  5
331
330
1F
100
AcDbEntity
  8
B-A
  6
Continuous
 62
     3
370
     9
100
AcDbLine
 10
95.07358906707552
 20
6.494987109024954
 30
0.0
 11
95.07358906707552
 21
1.381643174269946
 31
0.0
  0
LINE
  5
332
330
1F
100
AcDbEntity
  8
B-A
  6
Continuous
 62
     3
370
     9
100
AcDbLine
 10
93.57336142243852
 20
0.8701850608832373
 30
0.0
 11
95.07358906707552
 21
1.381643174269946
 31
0.0
  0
LINE
  5
333
330
1F
100
AcDbEntity
  8
B-A
  6
Continuous
 62
     3
370
     9
100
AcDbLine
 10
93.57336142243852
 20
0.8701850608832373
 30
0.0
 11
93.57336142243852
 21
-5.677072646042554
 31
0.0
  0
LINE
  5
334
330
1F
100
AcDbEntity
  8
B-A
  6
Continuous
 62
     3
370
     9
100
AcDbLine
 10
93.57336142243852
 20
-5.677072646042554
 30
0.0
 11
95.07358906707552
 21
-6.188283319606818
 31
0.0
  0
LINE
  5
335
330
1F
100
AcDbEntity
  8
B-A
  6
Continuous
 62
     3
370
     9
100
AcDbLine
 10
93.57336142243852
 20
-11.81308536774853
 30
0.0
 11
93.57336142243852
 21
-16.22048348852562
 31
0.0
  0
LINE
  5
336
330
1F
100
AcDbEntity
  8
B-A
  6
Continuous
 62
     3
370
     9
100
AcDbLine
 10
93.57336142243852
 20
-11.81308536774853
 30
0.0
 11
95.07358906707552
 21
-11.30137981453917
 31
0.0
  0
LINE
  5
337
330
1F
100
AcDbEntity
  8
B-A
  6
Continuous
 62
     3
370
     9
100
AcDbLine
 10
95.07358906707552
 20
-6.188283319606818
 30
0.0
 11
95.07358906707552
 21
-11.30137981453917
 31
0.0
  0
LINE
  5
338
330
1F
100
AcDbEntity
  8
B-A
  6
Continuous
 62
     3
370
     9
100
AcDbLine
 10
93.57336142243852
 20
-16.22048348852562
 30
0.0
 11
95.07358906707552
 21
-16.73194160191255
 31
0.0
  0
LINE
  5
339
330
1F
100
AcDbEntity
  8
B-A
  6
Continuous
 62
     3
370
     9
100
AcDbLine
 10
95.07358906707552
 20
-16.73194160191255
 30
0.0
 11
95.07358906707552
 21
-21.84528553666755
 31
0.0
  0
LINE
  5
33A
330
1F
100
AcDbEntity
  8
B-A
  6
Continuous
 62
     3
370
     9
100
AcDbLine
 10
93.57336142243852
 20
-22.35674365005426
 30
0.0
 11
95.07358906707552
 21
-21.84528553666755
 31
0.0
  0
LINE
  5
33B
330
1F
100
AcDbEntity
  8
B-A
  6
Continuous
 62
     3
370
     9
100
AcDbLine
 10
93.57336142243852
 20
-22.35674365005426
 30
0.0
 11
93.57336142243852
 21
-28.90400135698005
 31
0.0
  0
LINE
  5
33C
330
1F
100
AcDbEntity
  8
B-A
  6
Continuous
 62
     3
370
     9
100
AcDbLine
 10
93.57336142243852
 20
-28.90400135698005
 30
0.0
 11
95.07358906707552
 21
-29.41521203054432
 31
0.0
  0
LINE
  5
33D
330
1F
100
AcDbEntity
  8
B-A
  6
Continuous
 62
     3
370
     9
100
AcDbLine
 10
93.57336142243852
 20
-35.04001407868603
 30
0.0
 11
93.57336142243852
 21
-39.44741219946312
 31
0.0
  0
LINE
  5
33E
330
1F
100
AcDbEntity
  8
B-A
  6
Continuous
 62
     3
370
     9
100
AcDbLine
 10
93.57336142243852
 20
-35.04001407868603
 30
0.0
 11
95.07358906707552
 21
-34.52830852547667
 31
0.0
  0
LINE
  5
33F
330
1F
100
AcDbEntity
  8
B-A
  6
Continuous
 62
     3
370
     9
100
AcDbLine
 10
95.07358906707552
 20
-29.41521203054432
 30
0.0
 11
95.07358906707552
 21
-34.52830852547667
 31
0.0
  0
LINE
  5
340
330
1F
100
AcDbEntity
  8
B-A
  6
Continuous
 62
     3
370
     9
100
AcDbLine
 10
93.57336142243852
 20
-39.44741219946312
 30
0.0
 11
95.07358906707552
 21
-39.95887031285005
 31
0.0
  0
LINE
  5
341
330
1F
100
AcDbEntity
  8
B-A
  6
Continuous
 62
     3
370
     9
100
AcDbLine
 10
95.07358906707552
 20
-39.95887031285005
 30
0.0
 11
95.07358906707552
 21
-45.07221424760505
 31
0.0
  0
LINE
  5
342
330
1F
100
AcDbEntity
  8
B-A
  6
Continuous
 62
     3
370
     9
100
AcDbLine
 10
93.57336142243852
 20
-45.58367236099176
 30
0.0
 11
95.07358906707552
 21
-45.07221424760505
 31
0.0
  0
LINE
  5
343
330
1F
100
AcDbEntity
  8
B-A
  6
Continuous
 62
     3
370
     9
100
AcDbLine
 10
93.57336142243852
 20
-45.58367236099176
 30
0.0
 11
93.57336142243852
 21
-52.13093006791755
 31
0.0
  0
LINE
  5
344
330
1F
100
AcDbEntity
  8
B-A
  6
Continuous
 62
     3
370
     9
100
AcDbLine
 10
93.57336142243852
 20
-52.13093006791755
 30
0.0
 11
95.07358906707552
 21
-52.64214074148182
 31
0.0
  0
LINE
  5
345
330
1F
100
AcDbEntity
  8
B-A
  6
Continuous
 62
     3
370
     9
100
AcDbLine
 10
93.57336142243852
 20
-58.26694278962353
 30
0.0
 11
93.57336142243852
 21
-62.67434091040062
 31
0.0
  0
LINE
  5
346
330
1F
100
AcDbEntity
  8
B-A
  6
Continuous
 62
     3
370
     9
100
AcDbLine
 10
93.57336142243852
 20
-58.26694278962353
 30
0.0
 11
95.07358906707552
 21
-57.75523723641417
 31
0.0
  0
LINE
  5
347
330
1F
100
AcDbEntity
  8
B-A
  6
Continuous
 62
     3
370
     9
100
AcDbLine
 10
95.07358906707552
 20
-52.64214074148182
 30
0.0
 11
95.07358906707552
 21
-57.75523723641417
 31
0.0
  0
LINE
  5
348
330
1F
100
AcDbEntity
  8
B-A
  6
Continuous
 62
     3
370
     9
100
AcDbLine
 10
93.57336142243852
 20
-62.67434091040062
 30
0.0
 11
95.07358906707552
 21
-63.18579902378755
 31
0.0
  0
LINE
  5
349
330
1F
100
AcDbEntity
  8
B-A
  6
Continuous
 62
     3
370
     9
100
AcDbLine
 10
95.07358906707552
 20
-63.18579902378755
 30
0.0
 11
95.07358906707552
 21
-68.29914295854255
 31
0.0
  0
LINE
  5
34A
330
1F
100
AcDbEntity
  8
B-A
  6
Continuous
 62
     3
370
     9
100
AcDbLine
 10
93.57336142243852
 20
-68.81060107192926
 30
0.0
 11
95.07358906707552
 21
-68.29914295854255
 31
0.0
  0
LINE
  5
34B
330
1F
100
AcDbEntity
  8
B-A
  6
Continuous
 62
     3
370
     9
100
AcDbLine
 10
93.57336142243852
 20
-68.81060107192926
 30
0.0
 11
93.57336142243852
 21
-75.35785877885505
 31
0.0
  0
LINE
  5
34C
330
1F
100
AcDbEntity
  8
B-A
  6
Continuous
 62
     3
370
     9
100
AcDbLine
 10
93.57336142243852
 20
-75.35785877885505
 30
0.0
 11
95.07358906707552
 21
-75.86906945241932
 31
0.0
  0
LINE
  5
34D
330
1F
100
AcDbEntity
  8
B-A
  6
Continuous
 62
     3
370
     9
100
AcDbLine
 10
93.57336142243852
 20
-81.49387150056103
 30
0.0
 11
93.57336142243852
 21
-85.90126962133812
 31
0.0
  0
LINE
  5
34E
330
1F
100
AcDbEntity
  8
B-A
  6
Continuous
 62
     3
370
     9
100
AcDbLine
 10
93.57336142243852
 20
-81.49387150056103
 30
0.0
 11
95.07358906707552
 21
-80.98216594735166
 31
0.0
  0
LINE
  5
34F
330
1F
100
AcDbEntity
  8
B-A
  6
Continuous
 62
     3
370
     9
100
AcDbLine
 10
95.07358906707552
 20
-75.86906945241932
 30
0.0
 11
95.07358906707552
 21
-80.98216594735166
 31
0.0
  0
LINE
  5
350
330
1F
100
AcDbEntity
  8
B-A
  6
Continuous
 62
     3
370
     9
100
AcDbLine
 10
93.57336142243852
 20
-85.90126962133812
 30
0.0
 11
95.07358906707552
 21
-86.41272773472505
 31
0.0
  0
LINE
  5
351
330
1F
100
AcDbEntity
  8
B-A
  6
Continuous
 62
     3
370
     9
100
AcDbLine
 10
95.07358906707552
 20
-86.41272773472505
 30
0.0
 11
95.07358906707552
 21
-91.52607166948005
 31
0.0
  0
LINE
  5
352
330
1F
100
AcDbEntity
  8
B-A
  6
Continuous
 62
     3
370
     9
100
AcDbLine
 10
93.57336142243852
 20
-92.03752978286676
 30
0.0
 11
95.07358906707552
 21
-91.52607166948005
 31
0.0
  0
LINE
  5
353
330
1F
100
AcDbEntity
  8
B-A
  6
Continuous
 62
     3
370
     9
100
AcDbLine
 10
93.57336142243852
 20
-92.03752978286676
 30
0.0
 11
93.57336142243852
 21
-98.58478748979255
 31
0.0
  0
LINE
  5
354
330
1F
100
AcDbEntity
  8
B-A
  6
Continuous
 62
     3
370
     9
100
AcDbLine
 10
93.57336142243852
 20
-98.58478748979255
 30
0.0
 11
95.07358906707552
 21
-99.09599816335682
 31
0.0
  0
LINE
  5
355
330
1F
100
AcDbEntity
  8
B-A
  6
Continuous
 62
     3
370
     9
100
AcDbLine
 10
95.07358906707552
 20
-99.09599816335682
 30
0.0
 11
95.07358906707552
 21
-104.2090946582892
 31
0.0
  0
LINE
  5
356
330
1F
100
AcDbEntity
  8
B-A
  6
Continuous
 62
     3
370
     9
100
AcDbLine
 10
95.07358906707552
 20
476.4586794390505
 30
0.0
 11
95.07358906707552
 21
476.7911148407609
 31
0.0
  0
LINE
  5
357
330
1F
100
AcDbEntity
  8
D-0
  6
Continuous
 62
     3
370
     9
100
AcDbLine
 10
688.8159857752271
 20
-67.45288100394176
 30
0.0
 11
488.8159905435986
 21
-67.45288100394176
 31
0.0
  0
LINE
  5
358
330
1F
100
AcDbEntity
  8
D-0
  6
Continuous
 62
     7
370
     9
100
AcDbLine
 10
422.9889975550122
 20
-117.4528833881275
 30
0.0
 11
422.9889975550122
 21
-150.6784841075794
 31
0.0
  0
LINE
  5
359
330
1F
100
AcDbEntity
  8
D-0
  6
Continuous
 62
     7
370
     9
100
AcDbLine
 10
422.9889975550122
 20
-150.6784841075794
 30
0.0
 11
842.1428977014966
 21
-150.6784841075794
 31
0.0
  0
LINE
  5
35A
330
1F
100
AcDbEntity
  8
D-0
  6
Continuous
 62
     7
370
     9
100
AcDbLine
 10
842.1428977014966
 20
-150.6784841075794
 30
0.0
 11
842.1428977014966
 21
-117.4528833881275
 31
0.0
  0
LINE
  5
35B
330
1F
100
AcDbEntity
  8
D-0
  6
Continuous
 62
     7
370
     9
100
AcDbLine
 10
842.1428977014966
 20
-117.4528833881275
 30
0.0
 11
422.9889975550122
 21
-117.4528833881275
 31
0.0
  0
LINE
  5
35C
330
1F
100
AcDbEntity
  8
D-0
  6
Continuous
 62
     3
370
     9
100
AcDbLine
 10
756.3159094812818
 20
-67.45288100394176
 30
0.0
 11
738.8159857752271
 21
-67.45288100394176
 31
0.0
  0
LINE
  5
35D
330
1F
100
AcDbEntity
  8
D-4
  6
Continuous
 62
     7
370
     9
100
AcDbLine
 10
803.8159094812818
 20
-67.45288100394176
 30
0.0
 11
802.1843253138013
 21
-55.05982604178355
 31
0.0
  0
LINE
  5
35E
330
1F
100
AcDbEntity
  8
D-4
  6
Continuous
 62
     7
370
     9
100
AcDbLine
 10
803.8159094812818
 20
-67.45288100394176
 30
0.0
 11
805.4474936487622
 21
-55.05982604178355
 31
0.0
  0
LINE
  5
35F
330
1F
100
AcDbEntity
  8
D-4
  6
Continuous
 62
     7
370
     9
100
AcDbLine
 10
805.3159247400708
 20
-67.45288100394176
 30
0.0
 11
766.3159094812818
 21
-67.45288100394176
 31
0.0
  0
LINE
  5
360
330
1F
100
AcDbEntity
  8
D-0
  6
Continuous
 62
     3
370
     9
100
AcDbLine
 10
738.8159857752271
 20
98.79703316536977
 30
0.0
 11
738.8159857752271
 21
95.04731926766469
 31
0.0
  0
LINE
  5
361
330
1F
100
AcDbEntity
  8
D-0
  6
Continuous
 62
     3
370
     9
100
AcDbLine
 10
688.8159857752271
 20
148.7970331653698
 30
0.0
 11
488.8159905435986
 21
148.7970331653698
 31
0.0
  0
LINE
  5
362
330
1F
100
AcDbEntity
  8
D-4
  6
Continuous
 62
     7
370
     9
100
AcDbLine
 10
738.8159857752271
 20
121.2970331653698
 30
0.0
 11
726.4229308130689
 21
122.9285982593639
 31
0.0
  0
LINE
  5
363
330
1F
100
AcDbEntity
  8
D-4
  6
Continuous
 62
     7
370
     9
100
AcDbLine
 10
738.8159857752271
 20
121.2970331653698
 30
0.0
 11
726.4229308130689
 21
119.6654489978893
 31
0.0
  0
LINE
  5
364
330
1F
100
AcDbEntity
  8
D-4
  6
Continuous
 62
     7
370
     9
100
AcDbLine
 10
738.8159857752271
 20
122.7970293506725
 30
0.0
 11
738.8159857752271
 21
108.7970331653698
 31
0.0
  0
LINE
  5
365
330
1F
100
AcDbEntity
  8
D-4
  6
Continuous
 62
     7
370
     9
100
AcDbLine
 10
738.8159857752271
 20
121.2970331653698
 30
0.0
 11
723.8159857752271
 21
121.2970331653698
 31
0.0
  0
LINE
  5
366
330
1F
100
AcDbEntity
  8
D-4
  6
Continuous
 62
     7
370
     9
100
AcDbLine
 10
646.3722907068677
 20
119.4612291797741
 30
0.0
 11
634.1490469934887
 21
116.8454721912487
 31
0.0
  0
LINE
  5
367
330
1F
100
AcDbEntity
  8
D-4
  6
Continuous
 62
     7
370
     9
100
AcDbLine
 10
646.3722907068677
 20
119.4612291797741
 30
0.0
 11
658.1495581629224
 21
123.6500338062389
 31
0.0
  0
LINE
  5
368
330
1F
100
AcDbEntity
  8
D-4
  6
Continuous
 62
     7
370
     9
100
AcDbLine
 10
646.3722907068677
 20
119.4612291797741
 30
0.0
 11
658.8324080469556
 21
120.4591349109752
 31
0.0
  0
LINE
  5
369
330
1F
100
AcDbEntity
  8
D-4
  6
Continuous
 62
     7
370
     9
100
AcDbLine
 10
634.1490469934887
 20
116.8454721912487
 30
0.0
 11
621.6889487268871
 21
115.8475664600475
 31
0.0
  0
LINE
  5
36A
330
1F
100
AcDbEntity
  8
D-4
  6
Continuous
 62
     7
370
     9
100
AcDbLine
 10
634.1490469934887
 20
116.8454721912487
 30
0.0
 11
622.371779537434
 21
112.6566675647838
 31
0.0
  0
LINE
  5
36B
330
1F
100
AcDbEntity
  8
D-4
  6
Continuous
 62
     7
370
     9
100
AcDbLine
 10
646.6861830713697
 20
117.9944208606823
 30
0.0
 11
642.1871100428052
 21
139.0184191211803
 31
0.0
  0
LINE
  5
36C
330
1F
100
AcDbEntity
  8
D-4
  6
Continuous
 62
     7
370
     9
100
AcDbLine
 10
634.4629393579906
 20
115.3786829456432
 30
0.0
 11
629.4040976526684
 21
139.0184191211803
 31
0.0
  0
LINE
  5
36D
330
1F
100
AcDbEntity
  8
D-4
  6
Continuous
 62
     7
370
     9
100
AcDbLine
 10
646.3722907068677
 20
119.4612291797741
 30
0.0
 11
661.0402022364087
 21
122.6001146778209
 31
0.0
  0
LINE
  5
36E
330
1F
100
AcDbEntity
  8
D-4
  6
Continuous
 62
     7
370
     9
100
AcDbLine
 10
634.1490469934887
 20
116.8454721912487
 30
0.0
 11
619.4811354639477
 21
113.7065866932018
 31
0.0
  0
LINE
  5
36F
330
1F
100
AcDbEntity
  8
D-4
  6
Continuous
 62
     7
370
     9
100
AcDbLine
 10
466.3159905435986
 20
148.7970331653698
 30
0.0
 11
464.6844111444897
 21
136.4039591297253
 31
0.0
  0
LINE
  5
370
330
1F
100
AcDbEntity
  8
D-4
  6
Continuous
 62
     7
370
     9
100
AcDbLine
 10
466.3159905435986
 20
148.7970331653698
 30
0.0
 11
467.9475699427075
 21
136.4039591297253
 31
0.0
  0
LINE
  5
371
330
1F
100
AcDbEntity
  8
D-4
  6
Continuous
 62
     7
370
     9
100
AcDbLine
 10
464.8159895899243
 20
148.7970331653698
 30
0.0
 11
478.8159905435986
 21
148.7970331653698
 31
0.0
  0
LINE
  5
372
330
1F
100
AcDbEntity
  8
D-4
  6
Continuous
 62
     7
370
     9
100
AcDbLine
 10
466.3159905435986
 20
148.7970331653698
 30
0.0
 11
466.3159905435986
 21
133.7970331653698
 31
0.0
  0
LINE
  5
373
330
1F
100
AcDbEntity
  8
D-0
  6
Continuous
 62
     3
370
     9
100
AcDbLine
 10
738.8159857752271
 20
95.04731926766469
 30
0.0
 11
756.3159094812818
 21
95.04731926766469
 31
0.0
  0
LINE
  5
374
330
1F
100
AcDbEntity
  8
D-0
  6
Continuous
 62
     3
370
     9
100
AcDbLine
 10
738.8159857752271
 20
98.79703316536977
 30
0.0
 11
756.3159094812818
 21
98.79703316536977
 31
0.0
  0
LINE
  5
375
330
1F
100
AcDbEntity
  8
D-0
  6
Continuous
 62
     3
370
     9
100
AcDbLine
 10
756.3159094812818
 20
98.79703316536977
 30
0.0
 11
756.3159094812818
 21
95.04731926766469
 31
0.0
  0
LINE
  5
376
330
1F
100
AcDbEntity
  8
D-4
  6
Continuous
 62
     7
370
     9
100
AcDbLine
 10
756.3159094812818
 20
121.2970331653698
 30
0.0
 11
768.7089835169263
 21
122.9285982593639
 31
0.0
  0
LINE
  5
377
330
1F
100
AcDbEntity
  8
D-4
  6
Continuous
 62
     7
370
     9
100
AcDbLine
 10
756.3159094812818
 20
121.2970331653698
 30
0.0
 11
768.7089835169263
 21
119.6654489978893
 31
0.0
  0
LINE
  5
378
330
1F
100
AcDbEntity
  8
D-4
  6
Continuous
 62
     7
370
     9
100
AcDbLine
 10
756.3159094812818
 20
122.7970293506725
 30
0.0
 11
756.3159094812818
 21
108.7970331653698
 31
0.0
  0
LINE
  5
379
330
1F
100
AcDbEntity
  8
D-4
  6
Continuous
 62
     7
370
     9
100
AcDbLine
 10
756.3159094812818
 20
121.2970331653698
 30
0.0
 11
771.3159094812818
 21
121.2970331653698
 31
0.0
  0
LINE
  5
37A
330
1F
100
AcDbEntity
  8
D-4
  6
Continuous
 62
     7
370
     9
100
AcDbLine
 10
803.8159094812818
 20
95.04731926766469
 30
0.0
 11
802.1843253138013
 21
82.65426430550649
 31
0.0
  0
LINE
  5
37B
330
1F
100
AcDbEntity
  8
D-4
  6
Continuous
 62
     7
370
     9
100
AcDbLine
 10
803.8159094812818
 20
95.04731926766469
 30
0.0
 11
805.4474936487622
 21
82.65426430550649
 31
0.0
  0
LINE
  5
37C
330
1F
100
AcDbEntity
  8
D-4
  6
Continuous
 62
     7
370
     9
100
AcDbLine
 10
805.3159247400708
 20
95.04731926766469
 30
0.0
 11
766.3159094812818
 21
95.04731926766469
 31
0.0
  0
LINE
  5
37D
330
1F
100
AcDbEntity
  8
D-4
  6
Continuous
 62
     7
370
     9
100
AcDbLine
 10
756.3159094812818
 20
121.2970331653698
 30
0.0
 11
738.8159857752271
 21
121.2970331653698
 31
0.0
  0
LINE
  5
37E
330
1F
100
AcDbEntity
  8
D-0
  6
Continuous
 62
     3
370
     9
100
AcDbLine
 10
688.8159857752271
 20
166.2971857532604
 30
0.0
 11
488.8159905435986
 21
166.2971857532604
 31
0.0
  0
LINE
  5
37F
330
1F
100
AcDbEntity
  8
D-4
  6
Continuous
 62
     7
370
     9
100
AcDbLine
 10
466.3159905435986
 20
166.2971857532604
 30
0.0
 11
464.6844111444897
 21
178.6902597889049
 31
0.0
  0
LINE
  5
380
330
1F
100
AcDbEntity
  8
D-4
  6
Continuous
 62
     7
370
     9
100
AcDbLine
 10
466.3159905435986
 20
166.2971857532604
 30
0.0
 11
467.9475699427075
 21
178.6902597889049
 31
0.0
  0
LINE
  5
381
330
1F
100
AcDbEntity
  8
D-4
  6
Continuous
 62
     7
370
     9
100
AcDbLine
 10
464.8159895899243
 20
166.2971857532604
 30
0.0
 11
478.8159905435986
 21
166.2971857532604
 31
0.0
  0
LINE
  5
382
330
1F
100
AcDbEntity
  8
D-4
  6
Continuous
 62
     7
370
     9
100
AcDbLine
 10
466.3159905435986
 20
166.2971857532604
 30
0.0
 11
466.3159905435986
 21
181.2971857532604
 31
0.0
  0
LINE
  5
383
330
1F
100
AcDbEntity
  8
D-4
  6
Continuous
 62
     7
370
     9
100
AcDbLine
 10
466.3159905435986
 20
166.2971857532604
 30
0.0
 11
466.3159905435986
 21
148.7970331653698
 31
0.0
  0
LINE
  5
384
330
1F
100
AcDbEntity
  8
D-4
  6
Continuous
 62
     7
370
     9
100
AcDbLine
 10
554.0654669763989
 20
188.7971857532604
 30
0.0
 11
541.6724024774975
 21
190.4287699207408
 31
0.0
  0
LINE
  5
385
330
1F
100
AcDbEntity
  8
D-4
  6
Continuous
 62
     7
370
     9
100
AcDbLine
 10
554.0654669763989
 20
188.7971857532604
 30
0.0
 11
541.6724024774975
 21
187.1656015857799
 31
0.0
  0
LINE
  5
386
330
1F
100
AcDbEntity
  8
D-4
  6
Continuous
 62
     7
370
     9
100
AcDbLine
 10
554.0654669763989
 20
190.2972010120494
 30
0.0
 11
554.0654669763989
 21
176.2971857532604
 31
0.0
  0
LINE
  5
387
330
1F
100
AcDbEntity
  8
D-4
  6
Continuous
 62
     7
370
     9
100
AcDbLine
 10
554.0654669763989
 20
188.7971857532604
 30
0.0
 11
539.0654669763989
 21
188.7971857532604
 31
0.0
  0
LINE
  5
388
330
1F
100
AcDbEntity
  8
D-4
  6
Continuous
 62
     7
370
     9
100
AcDbLine
 10
566.5654669763989
 20
188.7971857532604
 30
0.0
 11
578.958521938557
 21
190.4287699207408
 31
0.0
  0
LINE
  5
389
330
1F
100
AcDbEntity
  8
D-4
  6
Continuous
 62
     7
370
     9
100
AcDbLine
 10
566.5654669763989
 20
188.7971857532604
 30
0.0
 11
578.958521938557
 21
187.1656015857799
 31
0.0
  0
LINE
  5
38A
330
1F
100
AcDbEntity
  8
D-4
  6
Continuous
 62
     7
370
     9
100
AcDbLine
 10
566.5654669763989
 20
190.2972010120494
 30
0.0
 11
566.5654669763989
 21
176.2971857532604
 31
0.0
  0
LINE
  5
38B
330
1F
100
AcDbEntity
  8
D-4
  6
Continuous
 62
     7
370
     9
100
AcDbLine
 10
566.5654669763989
 20
188.7971857532604
 30
0.0
 11
581.5654669763989
 21
188.7971857532604
 31
0.0
  0
LINE
  5
38C
330
1F
100
AcDbEntity
  8
D-4
  6
Continuous
 62
     7
370
     9
100
AcDbLine
 10
566.5654669763989
 20
188.7971857532604
 30
0.0
 11
554.0654669763989
 21
188.7971857532604
 31
0.0
  0
LINE
  5
38D
330
1F
100
AcDbEntity
  8
D-4
  6
Continuous
 62
     7
370
     9
100
AcDbLine
 10
637.414504146809
 20
188.7971857532604
 30
0.0
 11
625.0214491846508
 21
190.4287699207408
 31
0.0
  0
LINE
  5
38E
330
1F
100
AcDbEntity
  8
D-4
  6
Continuous
 62
     7
370
     9
100
AcDbLine
 10
637.414504146809
 20
190.2972010120494
 30
0.0
 11
637.414504146809
 21
176.2971857532604
 31
0.0
  0
LINE
  5
38F
330
1F
100
AcDbEntity
  8
D-4
  6
Continuous
 62
     7
370
     9
100
AcDbLine
 10
637.414504146809
 20
188.7971857532604
 30
0.0
 11
625.0214491846508
 21
187.1656015857799
 31
0.0
  0
LINE
  5
390
330
1F
100
AcDbEntity
  8
D-4
  6
Continuous
 62
     7
370
     9
100
AcDbLine
 10
637.414504146809
 20
188.7971857532604
 30
0.0
 11
622.414504146809
 21
188.7971857532604
 31
0.0
  0
LINE
  5
391
330
1F
100
AcDbEntity
  8
D-4
  6
Continuous
 62
     7
370
     9
100
AcDbLine
 10
657.4145041468091
 20
188.7971857532604
 30
0.0
 11
669.8075591089673
 21
190.4287699207408
 31
0.0
  0
LINE
  5
392
330
1F
100
AcDbEntity
  8
D-4
  6
Continuous
 62
     7
370
     9
100
AcDbLine
 10
657.4145041468091
 20
190.2972010120494
 30
0.0
 11
657.4145041468091
 21
176.2971857532604
 31
0.0
  0
LINE
  5
393
330
1F
100
AcDbEntity
  8
D-4
  6
Continuous
 62
     7
370
     9
100
AcDbLine
 10
657.4145041468091
 20
188.7971857532604
 30
0.0
 11
669.8075591089673
 21
187.1656015857799
 31
0.0
  0
LINE
  5
394
330
1F
100
AcDbEntity
  8
D-4
  6
Continuous
 62
     7
370
     9
100
AcDbLine
 10
657.4145041468091
 20
188.7971857532604
 30
0.0
 11
672.4145041468091
 21
188.7971857532604
 31
0.0
  0
LINE
  5
395
330
1F
100
AcDbEntity
  8
D-4
  6
Continuous
 62
     7
370
     9
100
AcDbLine
 10
657.4145041468091
 20
188.7971857532604
 30
0.0
 11
637.414504146809
 21
188.7971857532604
 31
0.0
  0
LINE
  5
396
330
1F
100
AcDbEntity
  8
D-0
  6
Continuous
 62
     3
370
     9
100
AcDbLine
 10
491.7269764902539
 20
95.04731926766469
 30
0.0
 11
488.8159905435986
 21
95.04731926766469
 31
0.0
  0
LINE
  5
397
330
1F
100
AcDbEntity
  8
D-0
  6
Continuous
 62
     3
370
     9
100
AcDbLine
 10
549.7930060388989
 20
95.04731926766469
 30
0.0
 11
537.0099936487621
 21
95.04731926766469
 31
0.0
  0
LINE
  5
398
330
1F
100
AcDbEntity
  8
D-0
  6
Continuous
 62
     3
370
     9
100
AcDbLine
 10
509.2169486048169
 20
98.79703316536977
 30
0.0
 11
511.7169486048169
 21
95.04731926766469
 31
0.0
  0
LINE
  5
399
330
1F
100
AcDbEntity
  8
D-0
  6
Continuous
 62
     3
370
     9
100
AcDbLine
 10
491.7269764902539
 20
95.04731926766469
 30
0.0
 11
494.2269764902539
 21
98.79703316536977
 31
0.0
  0
LINE
  5
39A
330
1F
100
AcDbEntity
  8
D-0
  6
Continuous
 62
     3
370
     9
100
AcDbLine
 10
509.2169486048169
 20
98.79703316536977
 30
0.0
 11
494.2269764902539
 21
98.79703316536977
 31
0.0
  0
LINE
  5
39B
330
1F
100
AcDbEntity
  8
D-0
  6
Continuous
 62
     3
370
     9
100
AcDbLine
 10
524.4999609949535
 20
95.04731926766469
 30
0.0
 11
511.7169486048169
 21
95.04731926766469
 31
0.0
  0
LINE
  5
39C
330
1F
100
AcDbEntity
  8
D-0
  6
Continuous
 62
     3
370
     9
100
AcDbLine
 10
524.4999609949535
 20
95.04731926766469
 30
0.0
 11
526.9999609949535
 21
98.79703316536977
 31
0.0
  0
LINE
  5
39D
330
1F
100
AcDbEntity
  8
D-0
  6
Continuous
 62
     3
370
     9
100
AcDbLine
 10
534.4999609949535
 20
98.79703316536977
 30
0.0
 11
537.0099936487621
 21
95.04731926766469
 31
0.0
  0
LINE
  5
39E
330
1F
100
AcDbEntity
  8
D-0
  6
Continuous
 62
     3
370
     9
100
AcDbLine
 10
534.4999609949535
 20
98.79703316536977
 30
0.0
 11
526.9999609949535
 21
98.79703316536977
 31
0.0
  0
LINE
  5
39F
330
1F
100
AcDbEntity
  8
D-0
  6
Continuous
 62
     3
370
     9
100
AcDbLine
 10
607.8590308191723
 20
95.04731926766469
 30
0.0
 11
595.0760184290356
 21
95.04731926766469
 31
0.0
  0
LINE
  5
3A0
330
1F
100
AcDbEntity
  8
D-0
  6
Continuous
 62
     3
370
     9
100
AcDbLine
 10
567.2829733850903
 20
98.79703316536977
 30
0.0
 11
569.7829733850903
 21
95.04731926766469
 31
0.0
  0
LINE
  5
3A1
330
1F
100
AcDbEntity
  8
D-0
  6
Continuous
 62
     3
370
     9
100
AcDbLine
 10
549.7930060388989
 20
95.04731926766469
 30
0.0
 11
552.2930060388989
 21
98.79703316536977
 31
0.0
  0
LINE
  5
3A2
330
1F
100
AcDbEntity
  8
D-0
  6
Continuous
 62
     3
370
     9
100
AcDbLine
 10
567.2829733850903
 20
98.79703316536977
 30
0.0
 11
552.2930060388989
 21
98.79703316536977
 31
0.0
  0
LINE
  5
3A3
330
1F
100
AcDbEntity
  8
D-0
  6
Continuous
 62
     3
370
     9
100
AcDbLine
 10
582.5659953119701
 20
95.04731926766469
 30
0.0
 11
569.7829733850903
 21
95.04731926766469
 31
0.0
  0
LINE
  5
3A4
330
1F
100
AcDbEntity
  8
D-0
  6
Continuous
 62
     3
370
     9
100
AcDbLine
 10
582.5659953119701
 20
95.04731926766469
 30
0.0
 11
585.065985775227
 21
98.79703316536977
 31
0.0
  0
LINE
  5
3A5
330
1F
100
AcDbEntity
  8
D-0
  6
Continuous
 62
     3
370
     9
100
AcDbLine
 10
592.565985775227
 20
98.79703316536977
 30
0.0
 11
595.0760184290356
 21
95.04731926766469
 31
0.0
  0
LINE
  5
3A6
330
1F
100
AcDbEntity
  8
D-0
  6
Continuous
 62
     3
370
     9
100
AcDbLine
 10
592.565985775227
 20
98.79703316536977
 30
0.0
 11
585.065985775227
 21
98.79703316536977
 31
0.0
  0
LINE
  5
3A7
330
1F
100
AcDbEntity
  8
D-0
  6
Continuous
 62
     3
370
     9
100
AcDbLine
 10
665.9250555994458
 20
95.04731926766469
 30
0.0
 11
653.1420432093091
 21
95.04731926766469
 31
0.0
  0
LINE
  5
3A8
330
1F
100
AcDbEntity
  8
D-0
  6
Continuous
 62
     3
370
     9
100
AcDbLine
 10
625.3489981653637
 20
98.79703316536977
 30
0.0
 11
627.8489981653637
 21
95.04731926766469
 31
0.0
  0
LINE
  5
3A9
330
1F
100
AcDbEntity
  8
D-0
  6
Continuous
 62
     3
370
     9
100
AcDbLine
 10
607.8590308191723
 20
95.04731926766469
 30
0.0
 11
610.3590308191723
 21
98.79703316536977
 31
0.0
  0
LINE
  5
3AA
330
1F
100
AcDbEntity
  8
D-0
  6
Continuous
 62
     3
370
     9
100
AcDbLine
 10
625.3489981653637
 20
98.79703316536977
 30
0.0
 11
610.3590308191723
 21
98.79703316536977
 31
0.0
  0
LINE
  5
3AB
330
1F
100
AcDbEntity
  8
D-0
  6
Continuous
 62
     3
370
     9
100
AcDbLine
 10
640.6320105555005
 20
95.04731926766469
 30
0.0
 11
627.8489981653637
 21
95.04731926766469
 31
0.0
  0
LINE
  5
3AC
330
1F
100
AcDbEntity
  8
D-0
  6
Continuous
 62
     3
370
     9
100
AcDbLine
 10
640.6320105555005
 20
95.04731926766469
 30
0.0
 11
643.1320105555005
 21
98.79703316536977
 31
0.0
  0
LINE
  5
3AD
330
1F
100
AcDbEntity
  8
D-0
  6
Continuous
 62
     3
370
     9
100
AcDbLine
 10
650.6320105555005
 20
98.79703316536977
 30
0.0
 11
653.1420432093091
 21
95.04731926766469
 31
0.0
  0
LINE
  5
3AE
330
1F
100
AcDbEntity
  8
D-0
  6
Continuous
 62
     3
370
     9
100
AcDbLine
 10
650.6320105555005
 20
98.79703316536977
 30
0.0
 11
643.1320105555005
 21
98.79703316536977
 31
0.0
  0
LINE
  5
3AF
330
1F
100
AcDbEntity
  8
D-0
  6
Continuous
 62
     3
370
     9
100
AcDbLine
 10
683.4150229456372
 20
98.79703316536977
 30
0.0
 11
685.9150229456372
 21
95.04731926766469
 31
0.0
  0
LINE
  5
3B0
330
1F
100
AcDbEntity
  8
D-0
  6
Continuous
 62
     3
370
     9
100
AcDbLine
 10
665.9250555994458
 20
95.04731926766469
 30
0.0
 11
668.4250555994458
 21
98.79703316536977
 31
0.0
  0
LINE
  5
3B1
330
1F
100
AcDbEntity
  8
D-0
  6
Continuous
 62
     3
370
     9
100
AcDbLine
 10
683.4150229456372
 20
98.79703316536977
 30
0.0
 11
668.4250555994458
 21
98.79703316536977
 31
0.0
  0
LINE
  5
3B2
330
1F
100
AcDbEntity
  8
D-0
  6
Continuous
 62
     3
370
     9
100
AcDbLine
 10
688.8159857752271
 20
95.04731926766469
 30
0.0
 11
685.9150229456372
 21
95.04731926766469
 31
0.0
  0
LINE
  5
3B3
330
1F
100
AcDbEntity
  8
D-0
  6
Continuous
 62
     3
370
     9
100
AcDbLine
 10
549.7495757105297
 20
148.7970331653698
 30
0.0
 11
553.4945593836254
 21
166.2971857532604
 31
0.0
  0
LINE
  5
3B4
330
1F
100
AcDbEntity
  8
D-0
  6
Continuous
 62
     3
370
     9
100
AcDbLine
 10
491.6835461618847
 20
148.7970331653698
 30
0.0
 11
495.4285298349805
 21
166.2971857532604
 31
0.0
  0
LINE
  5
3B5
330
1F
100
AcDbEntity
  8
D-0
  6
Continuous
 62
     3
370
     9
100
AcDbLine
 10
507.928534603352
 20
166.2971857532604
 30
0.0
 11
511.6735182764477
 21
148.7970331653698
 31
0.0
  0
LINE
  5
3B6
330
1F
100
AcDbEntity
  8
D-0
  6
Continuous
 62
     3
370
     9
100
AcDbLine
 10
524.4565306665844
 20
148.7970331653698
 30
0.0
 11
520.7115469934887
 21
166.2971857532604
 31
0.0
  0
LINE
  5
3B7
330
1F
100
AcDbEntity
  8
D-0
  6
Continuous
 62
     3
370
     9
100
AcDbLine
 10
540.7115469934887
 20
166.2971857532604
 30
0.0
 11
536.9665537836498
 21
148.7970331653698
 31
0.0
  0
LINE
  5
3B8
330
1F
100
AcDbEntity
  8
D-0
  6
Continuous
 62
     3
370
     9
100
AcDbLine
 10
494.1835461618847
 20
148.7970331653698
 30
0.0
 11
497.9285298349805
 21
166.2971857532604
 31
0.0
  0
LINE
  5
3B9
330
1F
100
AcDbEntity
  8
D-0
  6
Continuous
 62
     3
370
     9
100
AcDbLine
 10
505.428534603352
 20
166.2971857532604
 30
0.0
 11
509.1735182764477
 21
148.7970331653698
 31
0.0
  0
LINE
  5
3BA
330
1F
100
AcDbEntity
  8
D-0
  6
Continuous
 62
     3
370
     9
100
AcDbLine
 10
538.2015143396801
 20
166.2971857532604
 30
0.0
 11
534.4565306665844
 21
148.7970331653698
 31
0.0
  0
LINE
  5
3BB
330
1F
100
AcDbEntity
  8
D-0
  6
Continuous
 62
     3
370
     9
100
AcDbLine
 10
526.9565306665844
 20
148.7970331653698
 30
0.0
 11
523.2115469934887
 21
166.2971857532604
 31
0.0
  0
LINE
  5
3BC
330
1F
100
AcDbEntity
  8
D-0
  6
Continuous
 62
     3
370
     9
100
AcDbLine
 10
552.2495757105297
 20
148.7970331653698
 30
0.0
 11
555.9945593836254
 21
166.2971857532604
 31
0.0
  0
LINE
  5
3BD
330
1F
100
AcDbEntity
  8
D-0
  6
Continuous
 62
     3
370
     9
100
AcDbLine
 10
607.8156004908031
 20
148.7970331653698
 30
0.0
 11
611.5605841638989
 21
166.2971857532604
 31
0.0
  0
LINE
  5
3BE
330
1F
100
AcDbEntity
  8
D-0
  6
Continuous
 62
     3
370
     9
100
AcDbLine
 10
565.9945593836254
 20
166.2971857532604
 30
0.0
 11
569.7395430567211
 21
148.7970331653698
 31
0.0
  0
LINE
  5
3BF
330
1F
100
AcDbEntity
  8
D-0
  6
Continuous
 62
     3
370
     9
100
AcDbLine
 10
582.5225554468578
 20
148.7970331653698
 30
0.0
 11
578.7775717737621
 21
166.2971857532604
 31
0.0
  0
LINE
  5
3C0
330
1F
100
AcDbEntity
  8
D-0
  6
Continuous
 62
     3
370
     9
100
AcDbLine
 10
598.7775717737621
 20
166.2971857532604
 30
0.0
 11
595.0325881006664
 21
148.7970331653698
 31
0.0
  0
LINE
  5
3C1
330
1F
100
AcDbEntity
  8
D-0
  6
Continuous
 62
     3
370
     9
100
AcDbLine
 10
563.4945593836254
 20
166.2971857532604
 30
0.0
 11
567.2395430567211
 21
148.7970331653698
 31
0.0
  0
LINE
  5
3C2
330
1F
100
AcDbEntity
  8
D-0
  6
Continuous
 62
     3
370
     9
100
AcDbLine
 10
596.2675391199535
 20
166.2971857532604
 30
0.0
 11
592.5225554468578
 21
148.7970331653698
 31
0.0
  0
LINE
  5
3C3
330
1F
100
AcDbEntity
  8
D-0
  6
Continuous
 62
     3
370
     9
100
AcDbLine
 10
585.0225554468578
 20
148.7970331653698
 30
0.0
 11
581.2775717737621
 21
166.2971857532604
 31
0.0
  0
LINE
  5
3C4
330
1F
100
AcDbEntity
  8
D-0
  6
Continuous
 62
     3
370
     9
100
AcDbLine
 10
610.3156004908031
 20
148.7970331653698
 30
0.0
 11
614.0605841638989
 21
166.2971857532604
 31
0.0
  0
LINE
  5
3C5
330
1F
100
AcDbEntity
  8
D-0
  6
Continuous
 62
     3
370
     9
100
AcDbLine
 10
665.8816252710767
 20
148.7970331653698
 30
0.0
 11
669.6266089441724
 21
166.2971857532604
 31
0.0
  0
LINE
  5
3C6
330
1F
100
AcDbEntity
  8
D-0
  6
Continuous
 62
     3
370
     9
100
AcDbLine
 10
624.0605841638989
 20
166.2971857532604
 30
0.0
 11
627.8055678369946
 21
148.7970331653698
 31
0.0
  0
LINE
  5
3C7
330
1F
100
AcDbEntity
  8
D-0
  6
Continuous
 62
     3
370
     9
100
AcDbLine
 10
640.5885802271314
 20
148.7970331653698
 30
0.0
 11
636.8435965540356
 21
166.2971857532604
 31
0.0
  0
LINE
  5
3C8
330
1F
100
AcDbEntity
  8
D-0
  6
Continuous
 62
     3
370
     9
100
AcDbLine
 10
656.8435965540357
 20
166.2971857532604
 30
0.0
 11
653.09861288094
 21
148.7970331653698
 31
0.0
  0
LINE
  5
3C9
330
1F
100
AcDbEntity
  8
D-0
  6
Continuous
 62
     3
370
     9
100
AcDbLine
 10
621.5605841638989
 20
166.2971857532604
 30
0.0
 11
625.3055678369946
 21
148.7970331653698
 31
0.0
  0
LINE
  5
3CA
330
1F
100
AcDbEntity
  8
D-0
  6
Continuous
 62
     3
370
     9
100
AcDbLine
 10
654.3335639002271
 20
166.2971857532604
 30
0.0
 11
650.5885802271314
 21
148.7970331653698
 31
0.0
  0
LINE
  5
3CB
330
1F
100
AcDbEntity
  8
D-0
  6
Continuous
 62
     3
370
     9
100
AcDbLine
 10
643.0885802271314
 20
148.7970331653698
 30
0.0
 11
639.3435965540356
 21
166.2971857532604
 31
0.0
  0
LINE
  5
3CC
330
1F
100
AcDbEntity
  8
D-0
  6
Continuous
 62
     3
370
     9
100
AcDbLine
 10
668.3816252710767
 20
148.7970331653698
 30
0.0
 11
672.1266089441724
 21
166.2971857532604
 31
0.0
  0
LINE
  5
3CD
330
1F
100
AcDbEntity
  8
D-0
  6
Continuous
 62
     3
370
     9
100
AcDbLine
 10
682.1266089441724
 20
166.2971857532604
 30
0.0
 11
685.8715926172681
 21
148.7970331653698
 31
0.0
  0
LINE
  5
3CE
330
1F
100
AcDbEntity
  8
D-0
  6
Continuous
 62
     3
370
     9
100
AcDbLine
 10
679.6266089441724
 20
166.2971857532604
 30
0.0
 11
683.3715926172681
 21
148.7970331653698
 31
0.0
  0
LINE
  5
3CF
330
1F
100
AcDbEntity
  8
D-0
  6
Continuous
 62
     3
370
     9
100
AcDbLine
 10
548.379908657307
 20
148.7970331653698
 30
0.0
 11
550.1224719049877
 21
150.5395868763073
 31
0.0
  0
LINE
  5
3D0
330
1F
100
AcDbEntity
  8
D-0
  6
Continuous
 62
     3
370
     9
100
AcDbLine
 10
544.8443804743237
 20
148.7970331653698
 30
0.0
 11
551.0850630762524
 21
155.0377062305553
 31
0.0
  0
LINE
  5
3D1
330
1F
100
AcDbEntity
  8
D-0
  6
Continuous
 62
     3
370
     9
100
AcDbLine
 10
541.3088427545971
 20
148.7970331653698
 30
0.0
 11
552.0476447107739
 21
159.5358255848034
 31
0.0
  0
LINE
  5
3D2
330
1F
100
AcDbEntity
  8
D-0
  6
Continuous
 62
     3
370
     9
100
AcDbLine
 10
537.7733050348705
 20
148.7970331653698
 30
0.0
 11
553.0102263452953
 21
164.0339449390514
 31
0.0
  0
LINE
  5
3D3
330
1F
100
AcDbEntity
  8
D-0
  6
Continuous
 62
     3
370
     9
100
AcDbLine
 10
537.7094946863598
 20
152.2687509998424
 30
0.0
 11
551.7379389765209
 21
166.2971857532604
 31
0.0
  0
LINE
  5
3D4
330
1F
100
AcDbEntity
  8
D-0
  6
Continuous
 62
     3
370
     9
100
AcDbLine
 10
538.6720763208813
 20
156.7668703540905
 30
0.0
 11
548.2024107935375
 21
166.2971857532604
 31
0.0
  0
LINE
  5
3D5
330
1F
100
AcDbEntity
  8
D-0
  6
Continuous
 62
     3
370
     9
100
AcDbLine
 10
539.6346674921459
 20
161.2649897083385
 30
0.0
 11
544.666873073811
 21
166.2971857532604
 31
0.0
  0
LINE
  5
3D6
330
1F
100
AcDbEntity
  8
D-0
  6
Continuous
 62
     3
370
     9
100
AcDbLine
 10
523.6311732294506
 20
148.7970331653698
 30
0.0
 11
524.3110381128735
 21
149.4768885120495
 31
0.0
  0
LINE
  5
3D7
330
1F
100
AcDbEntity
  8
D-0
  6
Continuous
 62
     3
370
     9
100
AcDbLine
 10
540.5972491266674
 20
165.7631090625866
 30
0.0
 11
541.1313353540844
 21
166.2971857532604
 31
0.0
  0
LINE
  5
3D8
330
1F
100
AcDbEntity
  8
D-0
  6
Continuous
 62
     3
370
     9
100
AcDbLine
 10
520.095635509724
 20
148.7970331653698
 30
0.0
 11
523.687811947102
 21
152.3892000660045
 31
0.0
  0
LINE
  5
3D9
330
1F
100
AcDbEntity
  8
D-0
  6
Continuous
 62
     3
370
     9
100
AcDbLine
 10
516.5601073267406
 20
148.7970331653698
 30
0.0
 11
523.0645857813305
 21
155.3015116199596
 31
0.0
  0
LINE
  5
3DA
330
1F
100
AcDbEntity
  8
D-0
  6
Continuous
 62
     3
370
     9
100
AcDbLine
 10
513.0245696070141
 20
148.7970331653698
 30
0.0
 11
522.441359615559
 21
158.2138231739147
 31
0.0
  0
LINE
  5
3DB
330
1F
100
AcDbEntity
  8
D-0
  6
Continuous
 62
     3
370
     9
100
AcDbLine
 10
511.2884436609692
 20
150.5964258655651
 30
0.0
 11
521.8181334497875
 21
161.1261156543834
 31
0.0
  0
LINE
  5
3DC
330
1F
100
AcDbEntity
  8
D-0
  6
Continuous
 62
     3
370
     9
100
AcDbLine
 10
510.6652174951977
 20
153.5087374195202
 30
0.0
 11
521.194907284016
 21
164.0384272083385
 31
0.0
  0
LINE
  5
3DD
330
1F
100
AcDbEntity
  8
D-0
  6
Continuous
 62
     3
370
     9
100
AcDbLine
 10
510.0419913294263
 20
156.4210489734753
 30
0.0
 11
519.9181376459545
 21
166.2971857532604
 31
0.0
  0
LINE
  5
3DE
330
1F
100
AcDbEntity
  8
D-0
  6
Continuous
 62
     3
370
     9
100
AcDbLine
 10
509.4187747003979
 20
159.3333605274303
 30
0.0
 11
516.382599926228
 21
166.2971857532604
 31
0.0
  0
LINE
  5
3DF
330
1F
100
AcDbEntity
  8
D-0
  6
Continuous
 62
     3
370
     9
100
AcDbLine
 10
508.7955485346264
 20
162.2456720813854
 30
0.0
 11
512.8470717432446
 21
166.2971857532604
 31
0.0
  0
LINE
  5
3E0
330
1F
100
AcDbEntity
  8
D-0
  6
Continuous
 62
     3
370
     9
100
AcDbLine
 10
508.172322368855
 20
165.1579836353405
 30
0.0
 11
509.311534023518
 21
166.2971857532604
 31
0.0
  0
LINE
  5
3E1
330
1F
100
AcDbEntity
  8
D-0
  6
Continuous
 62
     3
370
     9
100
AcDbLine
 10
602.9103957178539
 20
148.7970331653698
 30
0.0
 11
609.1510878565258
 21
155.0377062305553
 31
0.0
  0
LINE
  5
3E2
330
1F
100
AcDbEntity
  8
D-0
  6
Continuous
 62
     3
370
     9
100
AcDbLine
 10
599.3748770716137
 20
148.7970331653698
 30
0.0
 11
610.1136694910473
 21
159.5358255848034
 31
0.0
  0
LINE
  5
3E3
330
1F
100
AcDbEntity
  8
D-0
  6
Continuous
 62
     3
370
     9
100
AcDbLine
 10
595.8393393518871
 20
148.7970331653698
 30
0.0
 11
611.0762511255688
 21
164.0339449390514
 31
0.0
  0
LINE
  5
3E4
330
1F
100
AcDbEntity
  8
D-0
  6
Continuous
 62
     3
370
     9
100
AcDbLine
 10
595.7755194666332
 20
152.2687509998424
 30
0.0
 11
609.8039732935375
 21
166.2971857532604
 31
0.0
  0
LINE
  5
3E5
330
1F
100
AcDbEntity
  8
D-0
  6
Continuous
 62
     3
370
     9
100
AcDbLine
 10
596.7381011011547
 20
156.7668703540905
 30
0.0
 11
606.268435573811
 21
166.2971857532604
 31
0.0
  0
LINE
  5
3E6
330
1F
100
AcDbEntity
  8
D-0
  6
Continuous
 62
     3
370
     9
100
AcDbLine
 10
597.7007018091625
 20
161.2649897083385
 30
0.0
 11
602.7328978540844
 21
166.2971857532604
 31
0.0
  0
LINE
  5
3E7
330
1F
100
AcDbEntity
  8
D-0
  6
Continuous
 62
     3
370
     9
100
AcDbLine
 10
581.697198009724
 20
148.7970331653698
 30
0.0
 11
582.3770628931469
 21
149.4768885120495
 31
0.0
  0
LINE
  5
3E8
330
1F
100
AcDbEntity
  8
D-0
  6
Continuous
 62
     3
370
     9
100
AcDbLine
 10
598.663283443684
 20
165.7631090625866
 30
0.0
 11
599.1973601343578
 21
166.2971857532604
 31
0.0
  0
LINE
  5
3E9
330
1F
100
AcDbEntity
  8
D-0
  6
Continuous
 62
     3
370
     9
100
AcDbLine
 10
578.1616698267406
 20
148.7970331653698
 30
0.0
 11
581.7538367273754
 21
152.3892000660045
 31
0.0
  0
LINE
  5
3EA
330
1F
100
AcDbEntity
  8
D-0
  6
Continuous
 62
     3
370
     9
100
AcDbLine
 10
574.6261321070141
 20
148.7970331653698
 30
0.0
 11
581.1306200983471
 21
155.3015116199596
 31
0.0
  0
LINE
  5
3EB
330
1F
100
AcDbEntity
  8
D-0
  6
Continuous
 62
     3
370
     9
100
AcDbLine
 10
571.0906039240307
 20
148.7970331653698
 30
0.0
 11
580.5073939325756
 21
158.2138231739147
 31
0.0
  0
LINE
  5
3EC
330
1F
100
AcDbEntity
  8
D-0
  6
Continuous
 62
     3
370
     9
100
AcDbLine
 10
569.3544779779858
 20
150.5964258655651
 30
0.0
 11
579.8841677668041
 21
161.1261156543834
 31
0.0
  0
LINE
  5
3ED
330
1F
100
AcDbEntity
  8
D-0
  6
Continuous
 62
     3
370
     9
100
AcDbLine
 10
568.7312518122143
 20
153.5087374195202
 30
0.0
 11
579.2609416010326
 21
164.0384272083385
 31
0.0
  0
LINE
  5
3EE
330
1F
100
AcDbEntity
  8
D-0
  6
Continuous
 62
     3
370
     9
100
AcDbLine
 10
568.1080256464428
 20
156.4210489734753
 30
0.0
 11
577.984162426228
 21
166.2971857532604
 31
0.0
  0
LINE
  5
3EF
330
1F
100
AcDbEntity
  8
D-0
  6
Continuous
 62
     3
370
     9
100
AcDbLine
 10
567.4847994806713
 20
159.3333605274303
 30
0.0
 11
574.4486247065014
 21
166.2971857532604
 31
0.0
  0
LINE
  5
3F0
330
1F
100
AcDbEntity
  8
D-0
  6
Continuous
 62
     3
370
     9
100
AcDbLine
 10
566.8615733148998
 20
162.2456720813854
 30
0.0
 11
570.913096523518
 21
166.2971857532604
 31
0.0
  0
LINE
  5
3F1
330
1F
100
AcDbEntity
  8
D-0
  6
Continuous
 62
     3
370
     9
100
AcDbLine
 10
566.2383471491283
 20
165.1579836353405
 30
0.0
 11
567.3775588037914
 21
166.2971857532604
 31
0.0
  0
LINE
  5
3F2
330
1F
100
AcDbEntity
  8
D-0
  6
Continuous
 62
     3
370
     9
100
AcDbLine
 10
660.9764395716138
 20
148.7970331653698
 30
0.0
 11
667.2171126367994
 21
155.0377062305553
 31
0.0
  0
LINE
  5
3F3
330
1F
100
AcDbEntity
  8
D-0
  6
Continuous
 62
     3
370
     9
100
AcDbLine
 10
657.4409018518872
 20
148.7970331653698
 30
0.0
 11
668.1796942713208
 21
159.5358255848034
 31
0.0
  0
LINE
  5
3F4
330
1F
100
AcDbEntity
  8
D-0
  6
Continuous
 62
     3
370
     9
100
AcDbLine
 10
653.9053641321607
 20
148.7970331653698
 30
0.0
 11
669.1422759058423
 21
164.0339449390514
 31
0.0
  0
LINE
  5
3F5
330
1F
100
AcDbEntity
  8
D-0
  6
Continuous
 62
     3
370
     9
100
AcDbLine
 10
653.8415442469068
 20
152.2687509998424
 30
0.0
 11
667.8699980738111
 21
166.2971857532604
 31
0.0
  0
LINE
  5
3F6
330
1F
100
AcDbEntity
  8
D-0
  6
Continuous
 62
     3
370
     9
100
AcDbLine
 10
654.8041258814283
 20
156.7668703540905
 30
0.0
 11
664.3344603540845
 21
166.2971857532604
 31
0.0
  0
LINE
  5
3F7
330
1F
100
AcDbEntity
  8
D-0
  6
Continuous
 62
     3
370
     9
100
AcDbLine
 10
655.7667265894361
 20
161.2649897083385
 30
0.0
 11
660.798922634358
 21
166.2971857532604
 31
0.0
  0
LINE
  5
3F8
330
1F
100
AcDbEntity
  8
D-0
  6
Continuous
 62
     3
370
     9
100
AcDbLine
 10
639.7632323267406
 20
148.7970331653698
 30
0.0
 11
640.4430876734205
 21
149.4768885120495
 31
0.0
  0
LINE
  5
3F9
330
1F
100
AcDbEntity
  8
D-0
  6
Continuous
 62
     3
370
     9
100
AcDbLine
 10
656.7293082239576
 20
165.7631090625866
 30
0.0
 11
657.2633849146314
 21
166.2971857532604
 31
0.0
  0
LINE
  5
3FA
330
1F
100
AcDbEntity
  8
D-0
  6
Continuous
 62
     3
370
     9
100
AcDbLine
 10
636.2276946070141
 20
148.7970331653698
 30
0.0
 11
639.8198615076489
 21
152.3892000660045
 31
0.0
  0
LINE
  5
3FB
330
1F
100
AcDbEntity
  8
D-0
  6
Continuous
 62
     3
370
     9
100
AcDbLine
 10
632.6921568872875
 20
148.7970331653698
 30
0.0
 11
639.1966353418774
 21
155.3015116199596
 31
0.0
  0
LINE
  5
3FC
330
1F
100
AcDbEntity
  8
D-0
  6
Continuous
 62
     3
370
     9
100
AcDbLine
 10
629.156619167561
 20
148.7970331653698
 30
0.0
 11
638.5734091761059
 21
158.2138231739147
 31
0.0
  0
LINE
  5
3FD
330
1F
100
AcDbEntity
  8
D-0
  6
Continuous
 62
     3
370
     9
100
AcDbLine
 10
627.420493221516
 20
150.5964258655651
 30
0.0
 11
637.9501830103344
 21
161.1261156543834
 31
0.0
  0
LINE
  5
3FE
330
1F
100
AcDbEntity
  8
D-0
  6
Continuous
 62
     3
370
     9
100
AcDbLine
 10
626.7972670557446
 20
153.5087374195202
 30
0.0
 11
637.3269568445629
 21
164.0384272083385
 31
0.0
  0
LINE
  5
3FF
330
1F
100
AcDbEntity
  8
D-0
  6
Continuous
 62
     3
370
     9
100
AcDbLine
 10
626.1740408899731
 20
156.4210489734753
 30
0.0
 11
636.0501967432446
 21
166.2971857532604
 31
0.0
  0
LINE
  5
400
330
1F
100
AcDbEntity
  8
D-0
  6
Continuous
 62
     3
370
     9
100
AcDbLine
 10
625.5508337976879
 20
159.3333605274303
 30
0.0
 11
632.514659023518
 21
166.2971857532604
 31
0.0
  0
LINE
  5
401
330
1F
100
AcDbEntity
  8
D-0
  6
Continuous
 62
     3
370
     9
100
AcDbLine
 10
624.9276076319164
 20
162.2456720813854
 30
0.0
 11
628.9791213037914
 21
166.2971857532604
 31
0.0
  0
LINE
  5
402
330
1F
100
AcDbEntity
  8
D-0
  6
Continuous
 62
     3
370
     9
100
AcDbLine
 10
624.304381466145
 20
165.1579836353405
 30
0.0
 11
625.4435835840649
 21
166.2971857532604
 31
0.0
  0
LINE
  5
403
330
1F
100
AcDbEntity
  8
D-0
  6
Continuous
 62
     3
370
     9
100
AcDbLine
 10
682.99363241219
 20
162.2456720813854
 30
0.0
 11
687.045146084065
 21
166.2971857532604
 31
0.0
  0
LINE
  5
404
330
1F
100
AcDbEntity
  8
D-0
  6
Continuous
 62
     3
370
     9
100
AcDbLine
 10
682.3704062464185
 20
165.1579836353405
 30
0.0
 11
683.5096083643384
 21
166.2971857532604
 31
0.0
  0
LINE
  5
405
330
1F
100
AcDbEntity
  8
D-0
  6
Continuous
 62
     3
370
     9
100
AcDbLine
 10
606.4459334375805
 20
148.7970331653698
 30
0.0
 11
608.1885062220043
 21
150.5395868763073
 31
0.0
  0
LINE
  5
406
330
1F
100
AcDbEntity
  8
D-0
  6
Continuous
 62
     3
370
     9
100
AcDbLine
 10
664.511958217854
 20
148.7970331653698
 30
0.0
 11
666.2545310022779
 21
150.5395868763073
 31
0.0
  0
LINE
  5
407
330
1F
100
AcDbEntity
  8
D-0
  6
Continuous
 62
     3
370
     9
100
AcDbLine
 10
490.3138838770337
 20
148.7970331653698
 30
0.0
 11
492.0564471247143
 21
150.5395868763073
 31
0.0
  0
LINE
  5
408
330
1F
100
AcDbEntity
  8
D-0
  6
Continuous
 62
     3
370
     9
100
AcDbLine
 10
488.8159905435986
 20
164.9768045887096
 30
0.0
 11
490.1363812448926
 21
166.2971857532604
 31
0.0
  0
LINE
  5
409
330
1F
100
AcDbEntity
  8
D-0
  6
Continuous
 62
     3
370
     9
100
AcDbLine
 10
488.8159905435986
 20
150.8346727832897
 30
0.0
 11
493.0190335276074
 21
155.0377062305553
 31
0.0
  0
LINE
  5
40A
330
1F
100
AcDbEntity
  8
D-0
  6
Continuous
 62
     3
370
     9
100
AcDbLine
 10
488.8159905435986
 20
154.3701914295299
 30
0.0
 11
493.9816151621289
 21
159.5358255848034
 31
0.0
  0
LINE
  5
40B
330
1F
100
AcDbEntity
  8
D-0
  6
Continuous
 62
     3
370
     9
100
AcDbLine
 10
488.8159905435986
 20
157.9057291492565
 30
0.0
 11
494.944201565022
 21
164.0339449390514
 31
0.0
  0
LINE
  5
40C
330
1F
100
AcDbEntity
  8
D-0
  6
Continuous
 62
     3
370
     9
100
AcDbLine
 10
488.8159905435986
 20
161.441266868983
 30
0.0
 11
493.6719141962475
 21
166.2971857532604
 31
0.0
  0
LINE
  5
40D
330
1F
100
AcDbEntity
  8
D-0
  6
Continuous
 62
     3
370
     9
100
AcDbLine
 10
683.6168585779615
 20
159.3333605274303
 30
0.0
 11
688.8159857752271
 21
164.5325067981823
 31
0.0
  0
LINE
  5
40E
330
1F
100
AcDbEntity
  8
D-0
  6
Continuous
 62
     3
370
     9
100
AcDbLine
 10
687.2226630213208
 20
148.7970331653698
 30
0.0
 11
688.8159857752271
 21
150.390355919276
 31
0.0
  0
LINE
  5
40F
330
1F
100
AcDbEntity
  8
D-0
  6
Continuous
 62
     3
370
     9
100
AcDbLine
 10
685.4865370752759
 20
150.5964258655651
 30
0.0
 11
688.8159857752271
 21
153.9258936390026
 31
0.0
  0
LINE
  5
410
330
1F
100
AcDbEntity
  8
D-0
  6
Continuous
 62
     3
370
     9
100
AcDbLine
 10
684.8633109095044
 20
153.5087374195202
 30
0.0
 11
688.8159857752271
 21
157.4614313587292
 31
0.0
  0
LINE
  5
411
330
1F
100
AcDbEntity
  8
D-0
  6
Continuous
 62
     3
370
     9
100
AcDbLine
 10
684.240084743733
 20
156.4210489734753
 30
0.0
 11
688.8159857752271
 21
160.9969690784557
 31
0.0
  0
LINE
  5
412
330
1F
100
AcDbEntity
  8
D-0
  6
Continuous
 62
     3
370
     9
100
AcDbLine
 10
688.8159857752271
 20
70.04731926766469
 30
0.0
 11
488.8159905435986
 21
70.04731926766469
 31
0.0
  0
LINE
  5
413
330
1F
100
AcDbEntity
  8
D-0
  6
Continuous
 62
     3
370
     9
100
AcDbLine
 10
738.8159857752271
 20
70.04731926766469
 30
0.0
 11
738.8159857752271
 21
95.04731926766469
 31
0.0
  0
LINE
  5
414
330
1F
100
AcDbEntity
  8
D-0
  6
Continuous
 62
     3
370
     9
100
AcDbLine
 10
756.3159094812818
 20
95.04731926766469
 30
0.0
 11
756.3159094812818
 21
70.04731926766469
 31
0.0
  0
LINE
  5
415
330
1F
100
AcDbEntity
  8
D-0
  6
Continuous
 62
     3
370
     9
100
AcDbLine
 10
688.8159857752271
 20
66.29731926766469
 30
0.0
 11
488.8159905435986
 21
66.29731926766469
 31
0.0
  0
LINE
  5
416
330
1F
100
AcDbEntity
  8
D-0
  6
Continuous
 62
     3
370
     9
100
AcDbLine
 10
738.8159857752271
 20
70.04731926766469
 30
0.0
 11
742.5658713343091
 21
66.29731926766469
 31
0.0
  0
LINE
  5
417
330
1F
100
AcDbEntity
  8
D-0
  6
Continuous
 62
     3
370
     9
100
AcDbLine
 10
752.5657950403638
 20
66.29731926766469
 30
0.0
 11
756.3159094812818
 21
70.04731926766469
 31
0.0
  0
LINE
  5
418
330
1F
100
AcDbEntity
  8
D-0
  6
Continuous
 62
     3
370
     9
100
AcDbLine
 10
688.8159857752271
 20
-42.45288100394176
 30
0.0
 11
488.8159905435986
 21
-42.45288100394176
 31
0.0
  0
LINE
  5
419
330
1F
100
AcDbEntity
  8
D-0
  6
Continuous
 62
     3
370
     9
100
AcDbLine
 10
738.8159857752271
 20
-67.45288100394176
 30
0.0
 11
738.8159857752271
 21
-42.45288100394176
 31
0.0
  0
LINE
  5
41A
330
1F
100
AcDbEntity
  8
D-0
  6
Continuous
 62
     3
370
     9
100
AcDbLine
 10
756.3159094812818
 20
-42.45288100394176
 30
0.0
 11
756.3159094812818
 21
-67.45288100394176
 31
0.0
  0
LINE
  5
41B
330
1F
100
AcDbEntity
  8
D-0
  6
Continuous
 62
     3
370
     9
100
AcDbLine
 10
688.8159857752271
 20
-38.70288100394176
 30
0.0
 11
488.8159905435986
 21
-38.70288100394176
 31
0.0
  0
LINE
  5
41C
330
1F
100
AcDbEntity
  8
D-0
  6
Continuous
 62
     3
370
     9
100
AcDbLine
 10
738.8159857752271
 20
-42.45288100394176
 30
0.0
 11
742.5658713343091
 21
-38.70288100394176
 31
0.0
  0
LINE
  5
41D
330
1F
100
AcDbEntity
  8
D-0
  6
Continuous
 62
     3
370
     9
100
AcDbLine
 10
752.5657950403638
 20
-38.70288100394176
 30
0.0
 11
756.3159094812818
 21
-42.45288100394176
 31
0.0
  0
LINE
  5
41E
330
1F
100
AcDbEntity
  8
D-0
  6
Continuous
 62
     3
370
     9
100
AcDbLine
 10
742.5658713343091
 20
-38.70288100394176
 30
0.0
 11
742.5658713343091
 21
66.29731926766469
 31
0.0
  0
LINE
  5
41F
330
1F
100
AcDbEntity
  8
D-0
  6
Continuous
 62
     3
370
     9
100
AcDbLine
 10
752.5657950403638
 20
66.29731926766469
 30
0.0
 11
752.5657950403638
 21
-38.70288100394176
 31
0.0
  0
LINE
  5
420
330
1F
100
AcDbEntity
  8
D-4
  6
Continuous
 62
     7
370
     9
100
AcDbLine
 10
742.5658713343091
 20
1.297223900233053
 30
0.0
 11
728.9228163721509
 21
2.928798530970358
 31
0.0
  0
LINE
  5
421
330
1F
100
AcDbEntity
  8
D-4
  6
Continuous
 62
     7
370
     9
100
AcDbLine
 10
742.5658713343091
 20
1.297223900233053
 30
0.0
 11
728.9228163721509
 21
-0.3343602672474155
 31
0.0
  0
LINE
  5
422
330
1F
100
AcDbEntity
  8
D-4
  6
Continuous
 62
     7
370
     9
100
AcDbLine
 10
742.5658713343091
 20
1.297223900233053
 30
0.0
 11
726.3158713343091
 21
1.297223900233053
 31
0.0
  0
LINE
  5
423
330
1F
100
AcDbEntity
  8
D-4
  6
Continuous
 62
     7
370
     9
100
AcDbLine
 10
752.5657950403638
 20
1.297223900233053
 30
0.0
 11
766.2088309290357
 21
2.928798530970358
 31
0.0
  0
LINE
  5
424
330
1F
100
AcDbEntity
  8
D-4
  6
Continuous
 62
     7
370
     9
100
AcDbLine
 10
752.5657950403638
 20
1.297223900233053
 30
0.0
 11
766.2088309290357
 21
-0.3343602672474155
 31
0.0
  0
LINE
  5
425
330
1F
100
AcDbEntity
  8
D-4
  6
Continuous
 62
     7
370
     9
100
AcDbLine
 10
752.5657950403638
 20
1.297223900233053
 30
0.0
 11
773.8157950403638
 21
1.297223900233053
 31
0.0
  0
LINE
  5
426
330
1F
100
AcDbEntity
  8
D-4
  6
Continuous
 62
     7
370
     9
100
AcDbLine
 10
752.5657950403638
 20
1.297223900233053
 30
0.0
 11
742.5658713343091
 21
1.297223900233053
 31
0.0
  0
LINE
  5
427
330
1F
100
AcDbEntity
  8
D-4
  6
Continuous
 62
     7
370
     9
100
AcDbLine
 10
803.8159094812818
 20
-67.45288100394176
 30
0.0
 11
803.8159094812818
 21
95.04731926766469
 31
0.0
  0
TEXT
  5
428
330
1F
100
AcDbEntity
  8
D-0
  6
Continuous
 62
     2
370
     9
100
AcDbText
 10
431.3159494163937
 20
-141.2456837478535
 30
0.0
 40
15.24
  1
ＤＩ－６５　バー形状詳細　Ｓ＝１：２
 41
1.118055555555556
  7
ＭＳ ゴシック
100
AcDbText
  0
TEXT
  5
429
330
1F
100
AcDbEntity
  8
D-4
  6
Continuous
 62
     2
370
     9
100
AcDbText
 10
634.1534716749366
 20
122.7981894021091
 30
0.0
 40
15.24
  1
5
 50
12.079026476401
 41
0.9999999999999988
  7
ＭＳ ゴシック
100
AcDbText
  0
TEXT
  5
42A
330
1F
100
AcDbEntity
  8
D-4
  6
Continuous
 62
     2
370
     9
100
AcDbText
 10
742.5659476282544
 20
127.1170255359752
 30
0.0
 40
15.24
  1
7
 41
0.9999999999999998
  7
ＭＳ ゴシック
100
AcDbText
  0
TEXT
  5
42B
330
1F
100
AcDbEntity
  8
D-4
  6
Continuous
 62
     2
370
     9
100
AcDbText
 10
460.49598863625
 20
152.547109336049
 30
0.0
 40
15.24
  1
7
 50
90.00000250447816
 41
0.9999999999999989
  7
ＭＳ ゴシック
100
AcDbText
  0
TEXT
  5
42C
330
1F
100
AcDbEntity
  8
D-4
  6
Continuous
 62
     2
370
     9
100
AcDbText
 10
555.3154669763989
 20
194.6171781238658
 30
0.0
 40
15.24
  1
5
 41
0.9999999999999998
  7
ＭＳ ゴシック
100
AcDbText
  0
TEXT
  5
42D
330
1F
100
AcDbEntity
  8
D-4
  6
Continuous
 62
     2
370
     9
100
AcDbText
 10
642.4145041468091
 20
194.6171781238658
 30
0.0
 40
15.24
  1
8
 41
0.9999999999999998
  7
ＭＳ ゴシック
100
AcDbText
  0
TEXT
  5
42E
330
1F
100
AcDbEntity
  8
D-4
  6
Continuous
 62
     2
370
     9
100
AcDbText
 10
756.3158331873365
 20
7.117216270838522
 30
0.0
 40
15.24
  1
4
 41
0.9999999999999998
  7
ＭＳ ゴシック
100
AcDbText
  0
TEXT
  5
42F
330
1F
100
AcDbEntity
  8
D-4
  6
Continuous
 62
     2
370
     9
100
AcDbText
 10
797.9959171106763
 20
3.172223776966928
 30
0.0
 40
15.24
  1
65
 50
90.00000250447829
 41
1.062500000000001
  7
ＭＳ ゴシック
100
AcDbText
  0
ENDSEC
  0
SECTION
  2
OBJECTS
  0
DICTIONARY
  5
C
330
0
100
AcDbDictionary
281
     1
  3
ACAD_DETAILVIEWSTYLE
350
475
  3
ACAD_GROUP
350
D
  3
ACAD_LAYOUT
350
1A
  3
ACAD_MATERIAL
350
43
  3
ACAD_MLEADERSTYLE
350
6B
  3
ACAD_MLINESTYLE
350
17
  3
ACAD_PLOTSETTINGS
350
19
  3
ACAD_PLOTSTYLENAME
350
E
  3
ACAD_SCALELIST
350
47
  3
ACAD_SECTIONVIEWSTYLE
350
476
  3
ACAD_TABLESTYLE
350
69
  3
ACAD_VISUALSTYLE
350
2A
  3
ACDB_RECOMPOSE_DATA
350
472
  3
AcDbVariableDictionary
350
432
  0
DICTIONARY
  5
430
330
8
100
AcDbDictionary
280
     1
281
     1
  3
ACAD_XREC_ROUNDTRIP
360
431
  0
DICTIONARY
  5
475
102
{ACAD_REACTORS
330
C
102
}
330
C
100
AcDbDictionary
281
     1
  0
DICTIONARY
  5
D
102
{ACAD_REACTORS
330
C
102
}
330
C
100
AcDbDictionary
281
     1
  0
DICTIONARY
  5
1A
102
{ACAD_REACTORS
330
C
102
}
330
C
100
AcDbDictionary
281
     1
  3
Layout1
350
1E
  3
Layout2
350
26
  3
Model
350
22
  0
DICTIONARY
  5
43
102
{ACAD_REACTORS
330
C
102
}
330
C
100
AcDbDictionary
281
     1
  3
ByBlock
350
45
  3
ByLayer
350
44
  3
Global
350
46
  0
DICTIONARY
  5
6B
102
{ACAD_REACTORS
330
C
102
}
330
C
100
AcDbDictionary
281
     1
  3
Standard
350
6C
  0
DICTIONARY
  5
17
102
{ACAD_REACTORS
330
C
102
}
330
C
100
AcDbDictionary
281
     1
  3
Standard
350
18
  0
DICTIONARY
  5
19
102
{ACAD_REACTORS
330
C
102
}
330
C
100
AcDbDictionary
281
     1
  0
ACDBDICTIONARYWDFLT
  5
E
102
{ACAD_REACTORS
330
C
102
}
330
C
100
AcDbDictionary
281
     1
  3
Normal
350
F
100
AcDbDictionaryWithDefault
340
F
  0
DICTIONARY
  5
47
102
{ACAD_REACTORS
330
C
102
}
330
C
100
AcDbDictionary
281
     1
  3
A0
350
48
  3
A1
350
49
  3
A2
350
4A
  3
A3
350
4B
  3
A4
350
4C
  3
A5
350
4D
  3
A6
350
4E
  3
A7
350
4F
  3
A8
350
50
  3
A9
350
51
  3
B0
350
52
  3
B1
350
53
  3
B2
350
54
  3
B3
350
55
  3
B4
350
56
  3
B5
350
57
  3
B6
350
58
  3
B7
350
59
  3
B8
350
5A
  3
B9
350
5B
  3
C0
350
5C
  3
C1
350
5D
  3
C2
350
5E
  3
C3
350
5F
  3
C4
350
60
  3
C5
350
61
  3
C6
350
62
  3
C7
350
63
  3
C8
350
64
  3
C9
350
65
  3
D0
350
66
  3
D1
350
67
  3
D2
350
68
  0
DICTIONARY
  5
476
102
{ACAD_REACTORS
330
C
102
}
330
C
100
AcDbDictionary
281
     1
  0
DICTIONARY
  5
69
102
{ACAD_REACTORS
330
C
102
}
330
C
100
AcDbDictionary
281
     1
  3
Standard
350
6A
  0
DICTIONARY
  5
2A
102
{ACAD_REACTORS
330
C
102
}
330
C
100
AcDbDictionary
281
     1
  3
2dWireframe
350
2F
  3
Basic
350
32
  3
Brighten
350
36
  3
ColorChange
350
3A
  3
Conceptual
350
34
  3
Dim
350
35
  3
EdgeColorOff
350
3D
  3
Facepattern
350
39
  3
Flat
350
2B
  3
FlatWithEdges
350
2C
  3
Gouraud
350
2D
  3
GouraudWithEdges
350
2E
  3
Hidden
350
31
  3
JitterOff
350
3B
  3
Linepattern
350
38
  3
OverhangOff
350
3C
  3
Realistic
350
33
  3
Shaded
350
42
  3
Shaded with edges
350
41
  3
Shades of Gray
350
3E
  3
Sketchy
350
3F
  3
Thicken
350
37
  3
Wireframe
350
30
  3
X-Ray
350
40
  0
XRECORD
  5
472
102
{ACAD_REACTORS
330
C
102
}
330
C
100
AcDbXrecord
280
     1
 90
        1
330
6A
  0
DICTIONARY
  5
432
102
{ACAD_REACTORS
330
C
102
}
330
C
100
AcDbDictionary
281
     1
  3
CANNOSCALE
350
433
  3
CENTEREXE
350
477
  3
CENTERLTYPEFILE
350
478
  3
CMLEADERSTYLE
350
474
  3
CTABLESTYLE
350
473
  3
MSLTSCALE
350
434
  3
XCLIPFRAME
350
435
  0
XRECORD
  5
431
102
{ACAD_REACTORS
330
430
102
}
330
430
100
AcDbXrecord
280
     1
102
VTR_0.000_0.000_1.000_1.000_VISUALSTYLE
340
2F
102
VTR_0.000_0.000_1.000_1.000_GRIDDISPLAY
 70
     3
102
VTR_0.000_0.000_1.000_1.000_GRIDMAJOR
 70
     5
102
VTR_0.000_0.000_1.000_1.000_DEFAULTLIGHTING
280
     1
102
VTR_0.000_0.000_1.000_1.000_DEFAULTLIGHTINGTYPE
 70
     1
102
VTR_0.000_0.000_1.000_1.000_BRIGHTNESS
141
0.0
102
VTR_0.000_0.000_1.000_1.000_CONTRAST
142
0.0
  0
LAYOUT
  5
1E
102
{ACAD_REACTORS
330
1A
102
}
330
1A
100
AcDbPlotSettings
  1

  2
none_device
  4

  6

 40
0.0
 41
0.0
 42
0.0
 43
0.0
 44
0.0
 45
0.0
 46
0.0
 47
0.0
 48
0.0
 49
0.0
140
0.0
141
0.0
142
1.0
143
1.0
 70
   688
 72
     1
 73
     0
 74
     5
  7

 75
    16
 76
     0
 77
     5
 78
   300
147
1.0
148
0.0
149
0.0
100
AcDbLayout
  1
Layout1
 70
     1
 71
     1
 10
0.0
 20
0.0
 11
420.0
 21
297.0
 12
0.0
 22
0.0
 32
0.0
 14
1.000000000000000E+20
 24
1.000000000000000E+20
 34
1.000000000000000E+20
 15
-1.000000000000000E+20
 25
-1.000000000000000E+20
 35
-1.000000000000000E+20
146
0.0
 13
0.0
 23
0.0
 33
0.0
 16
1.0
 26
0.0
 36
0.0
 17
0.0
 27
1.0
 37
0.0
 76
     0
330
1B
  0
LAYOUT
  5
26
102
{ACAD_REACTORS
330
1A
102
}
330
1A
100
AcDbPlotSettings
  1

  2
none_device
  4

  6

 40
0.0
 41
0.0
 42
0.0
 43
0.0
 44
0.0
 45
0.0
 46
0.0
 47
0.0
 48
0.0
 49
0.0
140
0.0
141
0.0
142
1.0
143
1.0
 70
   688
 72
     1
 73
     0
 74
     5
  7

 75
    16
 76
     0
 77
     5
 78
   300
147
1.0
148
0.0
149
0.0
100
AcDbLayout
  1
Layout2
 70
     1
 71
     2
 10
0.0
 20
0.0
 11
0.0
 21
0.0
 12
0.0
 22
0.0
 32
0.0
 14
0.0
 24
0.0
 34
0.0
 15
0.0
 25
0.0
 35
0.0
146
0.0
 13
0.0
 23
0.0
 33
0.0
 16
1.0
 26
0.0
 36
0.0
 17
0.0
 27
1.0
 37
0.0
 76
     0
330
23
  0
LAYOUT
  5
22
102
{ACAD_REACTORS
330
1A
102
}
330
1A
100
AcDbPlotSettings
  1

  2
none_device
  4
Letter_(8.50_x_11.00_Inches)
  6

 40
6.35
 41
6.35
 42
6.35000508
 43
6.35000508
 44
215.9
 45
279.4
 46
0.0
 47
0.0
 48
0.0
 49
0.0
140
0.0
141
0.0
142
1.0
143
1.0
 70
  1712
 72
     1
 73
     0
 74
     0
  7

 75
     0
 76
     0
 77
     5
 78
   300
147
1.0
148
0.0
149
0.0
100
AcDbLayout
  1
Model
 70
     1
 71
     0
 10
-1050.0
 20
-742.5
 11
1050.0
 21
742.5
 12
0.0
 22
0.0
 32
0.0
 14
-1050.0
 24
-742.5
 34
0.0
 15
1050.0
 25
742.5
 35
0.0
146
0.0
 13
0.0
 23
0.0
 33
0.0
 16
1.0
 26
0.0
 36
0.0
 17
0.0
 27
1.0
 37
0.0
 76
     0
330
1F
331
29
  0
MATERIAL
  5
45
102
{ACAD_REACTORS
330
43
102
}
102
{ACAD_XDICTIONARY
360
468
102
}
330
43
100
AcDbMaterial
  1
ByBlock
  0
MATERIAL
  5
44
102
{ACAD_REACTORS
330
43
102
}
102
{ACAD_XDICTIONARY
360
466
102
}
330
43
100
AcDbMaterial
  1
ByLayer
  0
MATERIAL
  5
46
102
{ACAD_REACTORS
330
43
102
}
102
{ACAD_XDICTIONARY
360
46A
102
}
330
43
100
AcDbMaterial
  1
Global
  0
MLEADERSTYLE
  5
6C
102
{ACAD_REACTORS
330
6B
102
}
102
{ACAD_XDICTIONARY
360
470
102
}
330
6B
100
AcDbMLeaderStyle
170
     2
171
     1
172
     0
 90
        2
 40
0.0
 41
0.0
173
     1
 91
-1056964608
340
14
 92
       -2
290
     1
 42
2.0
291
     1
 43
8.0
  3
Standard
341
0
 44
4.0
300

342
11
174
     1
178
     6
175
     1
176
     0
 93
-1056964608
 45
4.0
292
     0
297
     0
 46
4.0
343
0
 94
-1056964608
 47
1.0
 49
1.0
140
1.0
293
     1
141
0.0
294
     1
177
     0
142
1.0
295
     0
296
     0
143
3.75
1001
ACAD_MLEADERVER
1070
     2
  0
MLINESTYLE
  5
18
102
{ACAD_REACTORS
330
17
102
}
330
17
100
AcDbMlineStyle
  2
Standard
 70
     0
  3

 62
   256
 51
90.0
 52
90.0
 71
     2
 49
0.5
 62
   256
  6
BYLAYER
 49
-0.5
 62
   256
  6
BYLAYER
  0
ACDBPLACEHOLDER
  5
F
102
{ACAD_REACTORS
330
E
102
}
330
E
  0
SCALE
  5
48
102
{ACAD_REACTORS
330
47
102
}
330
47
100
AcDbScale
 70
     0
300
1:1
140
1.0
141
1.0
290
     1
  0
SCALE
  5
49
102
{ACAD_REACTORS
330
47
102
}
330
47
100
AcDbScale
 70
     0
300
1:2
140
1.0
141
2.0
290
     0
  0
SCALE
  5
4A
102
{ACAD_REACTORS
330
47
102
}
330
47
100
AcDbScale
 70
     0
300
1:4
140
1.0
141
4.0
290
     0
  0
SCALE
  5
4B
102
{ACAD_REACTORS
330
47
102
}
330
47
100
AcDbScale
 70
     0
300
1:5
140
1.0
141
5.0
290
     0
  0
SCALE
  5
4C
102
{ACAD_REACTORS
330
47
102
}
330
47
100
AcDbScale
 70
     0
300
1:8
140
1.0
141
8.0
290
     0
  0
SCALE
  5
4D
102
{ACAD_REACTORS
330
47
102
}
330
47
100
AcDbScale
 70
     0
300
1:10
140
1.0
141
10.0
290
     0
  0
SCALE
  5
4E
102
{ACAD_REACTORS
330
47
102
}
330
47
100
AcDbScale
 70
     0
300
1:16
140
1.0
141
16.0
290
     0
  0
SCALE
  5
4F
102
{ACAD_REACTORS
330
47
102
}
330
47
100
AcDbScale
 70
     0
300
1:20
140
1.0
141
20.0
290
     0
  0
SCALE
  5
50
102
{ACAD_REACTORS
330
47
102
}
330
47
100
AcDbScale
 70
     0
300
1:30
140
1.0
141
30.0
290
     0
  0
SCALE
  5
51
102
{ACAD_REACTORS
330
47
102
}
330
47
100
AcDbScale
 70
     0
300
1:40
140
1.0
141
40.0
290
     0
  0
SCALE
  5
52
102
{ACAD_REACTORS
330
47
102
}
330
47
100
AcDbScale
 70
     0
300
1:50
140
1.0
141
50.0
290
     0
  0
SCALE
  5
53
102
{ACAD_REACTORS
330
47
102
}
330
47
100
AcDbScale
 70
     0
300
1:100
140
1.0
141
100.0
290
     0
  0
SCALE
  5
54
102
{ACAD_REACTORS
330
47
102
}
330
47
100
AcDbScale
 70
     0
300
2:1
140
2.0
141
1.0
290
     0
  0
SCALE
  5
55
102
{ACAD_REACTORS
330
47
102
}
330
47
100
AcDbScale
 70
     0
300
4:1
140
4.0
141
1.0
290
     0
  0
SCALE
  5
56
102
{ACAD_REACTORS
330
47
102
}
330
47
100
AcDbScale
 70
     0
300
8:1
140
8.0
141
1.0
290
     0
  0
SCALE
  5
57
102
{ACAD_REACTORS
330
47
102
}
330
47
100
AcDbScale
 70
     0
300
10:1
140
10.0
141
1.0
290
     0
  0
SCALE
  5
58
102
{ACAD_REACTORS
330
47
102
}
330
47
100
AcDbScale
 70
     0
300
100:1
140
100.0
141
1.0
290
     0
  0
SCALE
  5
59
102
{ACAD_REACTORS
330
47
102
}
330
47
100
AcDbScale
 70
     0
300
1/128" = 1'-0"
140
0.0078125
141
12.0
290
     0
  0
SCALE
  5
5A
102
{ACAD_REACTORS
330
47
102
}
330
47
100
AcDbScale
 70
     0
300
1/64" = 1'-0"
140
0.015625
141
12.0
290
     0
  0
SCALE
  5
5B
102
{ACAD_REACTORS
330
47
102
}
330
47
100
AcDbScale
 70
     0
300
1/32" = 1'-0"
140
0.03125
141
12.0
290
     0
  0
SCALE
  5
5C
102
{ACAD_REACTORS
330
47
102
}
330
47
100
AcDbScale
 70
     0
300
1/16" = 1'-0"
140
0.0625
141
12.0
290
     0
  0
SCALE
  5
5D
102
{ACAD_REACTORS
330
47
102
}
330
47
100
AcDbScale
 70
     0
300
3/32" = 1'-0"
140
0.09375
141
12.0
290
     0
  0
SCALE
  5
5E
102
{ACAD_REACTORS
330
47
102
}
330
47
100
AcDbScale
 70
     0
300
1/8" = 1'-0"
140
0.125
141
12.0
290
     0
  0
SCALE
  5
5F
102
{ACAD_REACTORS
330
47
102
}
330
47
100
AcDbScale
 70
     0
300
3/16" = 1'-0"
140
0.1875
141
12.0
290
     0
  0
SCALE
  5
60
102
{ACAD_REACTORS
330
47
102
}
330
47
100
AcDbScale
 70
     0
300
1/4" = 1'-0"
140
0.25
141
12.0
290
     0
  0
SCALE
  5
61
102
{ACAD_REACTORS
330
47
102
}
330
47
100
AcDbScale
 70
     0
300
3/8" = 1'-0"
140
0.375
141
12.0
290
     0
  0
SCALE
  5
62
102
{ACAD_REACTORS
330
47
102
}
330
47
100
AcDbScale
 70
     0
300
1/2" = 1'-0"
140
0.5
141
12.0
290
     0
  0
SCALE
  5
63
102
{ACAD_REACTORS
330
47
102
}
330
47
100
AcDbScale
 70
     0
300
3/4" = 1'-0"
140
0.75
141
12.0
290
     0
  0
SCALE
  5
64
102
{ACAD_REACTORS
330
47
102
}
330
47
100
AcDbScale
 70
     0
300
1" = 1'-0"
140
1.0
141
12.0
290
     0
  0
SCALE
  5
65
102
{ACAD_REACTORS
330
47
102
}
330
47
100
AcDbScale
 70
     0
300
1-1/2" = 1'-0"
140
1.5
141
12.0
290
     0
  0
SCALE
  5
66
102
{ACAD_REACTORS
330
47
102
}
330
47
100
AcDbScale
 70
     0
300
3" = 1'-0"
140
3.0
141
12.0
290
     0
  0
SCALE
  5
67
102
{ACAD_REACTORS
330
47
102
}
330
47
100
AcDbScale
 70
     0
300
6" = 1'-0"
140
6.0
141
12.0
290
     0
  0
SCALE
  5
68
102
{ACAD_REACTORS
330
47
102
}
330
47
100
AcDbScale
 70
     0
300
1'-0" = 1'-0"
140
12.0
141
12.0
290
     0
  0
TABLESTYLE
  5
6A
102
{ACAD_REACTORS
330
69
102
}
102
{ACAD_XDICTIONARY
360
46C
102
}
330
69
100
AcDbTableStyle
  3
Standard
 70
     0
 71
     0
 40
0.06
 41
0.06
280
     0
281
     0
  7
Standard
140
4.5
170
     2
 62
     0
 63
   257
283
     0
274
    -2
284
     1
 64
     0
275
    -2
285
     1
 65
     0
276
    -2
286
     1
 66
     0
277
    -2
287
     1
 67
     0
278
    -2
288
     1
 68
     0
279
    -2
289
     1
 69
     0
  7
Standard
140
6.0
170
     5
 62
     0
 63
   257
283
     0
274
    -2
284
     1
 64
     0
275
    -2
285
     1
 65
     0
276
    -2
286
     1
 66
     0
277
    -2
287
     1
 67
     0
278
    -2
288
     1
 68
     0
279
    -2
289
     1
 69
     0
  7
Standard
140
4.5
170
     5
 62
     0
 63
   257
283
     0
274
    -2
284
     1
 64
     0
275
    -2
285
     1
 65
     0
276
    -2
286
     1
 66
     0
277
    -2
287
     1
 67
     0
278
    -2
288
     1
 68
     0
279
    -2
289
     1
 69
     0
  0
VISUALSTYLE
  5
2F
102
{ACAD_REACTORS
330
2A
102
}
102
{ACAD_XDICTIONARY
360
43E
102
}
330
2A
100
AcDbVisualStyle
  2
2dWireframe
 70
     4
 71
     0
 72
     2
 73
     0
 90
        0
 40
0.6
 41
30.0
 62
     5
 63
     7
421
 16777215
 74
     1
 91
        4
 64
     7
 65
   257
 75
     1
175
     1
 42
1.0
 92
        0
 66
   257
 43
1.0
 76
     1
 77
     6
 78
     2
 67
     7
 79
     5
170
     0
171
     0
290
     0
174
     0
 93
        1
 44
0.0
173
     0
291
     0
 45
0.0
1001
ACAD
1000
AcDbSavedByObjectVersion
1070
     0
  0
VISUALSTYLE
  5
32
102
{ACAD_REACTORS
330
2A
102
}
102
{ACAD_XDICTIONARY
360
444
102
}
330
2A
100
AcDbVisualStyle
  2
Basic
 70
     7
 71
     1
 72
     0
 73
     1
 90
        0
 40
0.6
 41
30.0
 62
     5
 63
     7
421
 16777215
 74
     0
 91
        4
 64
     7
 65
   257
 75
     1
175
     1
 42
1.0
 92
        8
 66
     7
 43
1.0
 76
     1
 77
     6
 78
     2
 67
     7
 79
     5
170
     0
171
     0
290
     0
174
     0
 93
        1
 44
0.0
173
     0
291
     1
 45
0.0
1001
ACAD
1000
AcDbSavedByObjectVersion
1070
     0
  0
VISUALSTYLE
  5
36
102
{ACAD_REACTORS
330
2A
102
}
102
{ACAD_XDICTIONARY
360
44C
102
}
330
2A
100
AcDbVisualStyle
  2
Brighten
 70
    12
 71
     2
 72
     2
 73
     0
 90
        0
 40
0.6
 41
30.0
 62
     5
 63
     7
421
 16777215
 74
     1
 91
        4
 64
     7
 65
   257
 75
     1
175
     1
 42
1.0
 92
        8
 66
     7
 43
1.0
 76
     1
 77
     6
 78
     2
 67
     7
 79
     5
170
     0
171
     0
290
     0
174
     0
 93
        1
 44
50.0
173
     0
291
     1
 45
0.0
1001
ACAD
1000
AcDbSavedByObjectVersion
1070
     0
  0
VISUALSTYLE
  5
3A
102
{ACAD_REACTORS
330
2A
102
}
102
{ACAD_XDICTIONARY
360
454
102
}
330
2A
100
AcDbVisualStyle
  2
ColorChange
 70
    16
 71
     2
 72
     2
 73
     3
 90
        0
 40
0.6
 41
30.0
 62
     5
 63
     8
421
  8421504
 74
     1
 91
        4
 64
     7
 65
   257
 75
     1
175
     1
 42
1.0
 92
        8
 66
     8
424
  8421504
 43
1.0
 76
     1
 77
     6
 78
     2
 67
     7
 79
     5
170
     0
171
     0
290
     0
174
     0
 93
        1
 44
0.0
173
     0
291
     1
 45
0.0
1001
ACAD
1000
AcDbSavedByObjectVersion
1070
     0
  0
VISUALSTYLE
  5
34
102
{ACAD_REACTORS
330
2A
102
}
102
{ACAD_XDICTIONARY
360
448
102
}
330
2A
100
AcDbVisualStyle
  2
Conceptual
 70
     9
 71
     3
 72
     2
 73
     0
 90
        0
 40
0.6
 41
30.0
 62
     5
 63
     7
421
 16777215
 74
     2
 91
        2
 64
     7
 65
   257
 75
     1
175
     1
 42
179.0
 92
        8
 66
     7
 43
1.0
 76
     1
 77
     6
 78
     2
 67
     7
 79
     3
170
     0
171
     0
290
     0
174
     0
 93
        1
 44
0.0
173
     0
291
     0
 45
0.0
1001
ACAD
1000
AcDbSavedByObjectVersion
1070
     0
  0
VISUALSTYLE
  5
35
102
{ACAD_REACTORS
330
2A
102
}
102
{ACAD_XDICTIONARY
360
44A
102
}
330
2A
100
AcDbVisualStyle
  2
Dim
 70
    11
 71
     2
 72
     2
 73
     0
 90
        0
 40
0.6
 41
30.0
 62
     5
 63
     7
421
 16777215
 74
     1
 91
        4
 64
     7
 65
   257
 75
     1
175
     1
 42
1.0
 92
        8
 66
     7
 43
1.0
 76
     1
 77
     6
 78
     2
 67
     7
 79
     5
170
     0
171
     0
290
     0
174
     0
 93
        1
 44
-50.0
173
     0
291
     1
 45
0.0
1001
ACAD
1000
AcDbSavedByObjectVersion
1070
     0
  0
VISUALSTYLE
  5
3D
102
{ACAD_REACTORS
330
2A
102
}
102
{ACAD_XDICTIONARY
360
45A
102
}
330
2A
100
AcDbVisualStyle
  2
EdgeColorOff
 70
    22
 71
     2
 72
     2
 73
     0
 90
        0
 40
0.6
 41
30.0
 62
     5
 63
     7
421
 16777215
 74
     1
 91
        4
 64
     7
 65
   257
 75
     1
175
     1
 42
1.0
 92
        8
 66
     7
 43
1.0
 76
     1
 77
     6
 78
     2
 67
     7
 79
     5
170
     0
171
     0
290
     0
174
     0
 93
        1
 44
0.0
173
     0
291
     1
 45
0.0
1001
ACAD
1000
AcDbSavedByObjectVersion
1070
     0
  0
VISUALSTYLE
  5
39
102
{ACAD_REACTORS
330
2A
102
}
102
{ACAD_XDICTIONARY
360
452
102
}
330
2A
100
AcDbVisualStyle
  2
Facepattern
 70
    15
 71
     2
 72
     2
 73
     0
 90
        0
 40
0.6
 41
30.0
 62
     5
 63
     7
421
 16777215
 74
     1
 91
        4
 64
     7
 65
   257
 75
     1
175
     1
 42
1.0
 92
        8
 66
     7
 43
1.0
 76
     1
 77
     6
 78
     2
 67
     7
 79
     5
170
     0
171
     0
290
     0
174
     0
 93
        1
 44
0.0
173
     0
291
     1
 45
0.0
1001
ACAD
1000
AcDbSavedByObjectVersion
1070
     0
  0
VISUALSTYLE
  5
2B
102
{ACAD_REACTORS
330
2A
102
}
102
{ACAD_XDICTIONARY
360
436
102
}
330
2A
100
AcDbVisualStyle
  2
Flat
 70
     0
 71
     2
 72
     1
 73
     1
 90
        2
 40
0.6
 41
30.0
 62
     5
 63
     7
421
 16777215
 74
     0
 91
        0
 64
     7
 65
   257
 75
     1
175
     1
 42
1.0
 92
        8
 66
     7
 43
1.0
 76
     1
 77
     6
 78
     2
 67
     7
 79
     5
170
     0
171
     0
290
     0
174
     0
 93
       13
 44
0.0
173
     0
291
     1
 45
0.0
1001
ACAD
1000
AcDbSavedByObjectVersion
1070
     0
  0
VISUALSTYLE
  5
2C
102
{ACAD_REACTORS
330
2A
102
}
102
{ACAD_XDICTIONARY
360
438
102
}
330
2A
100
AcDbVisualStyle
  2
FlatWithEdges
 70
     1
 71
     2
 72
     1
 73
     1
 90
        2
 40
0.6
 41
30.0
 62
     5
 63
     7
421
 16777215
 74
     1
 91
        0
 64
     7
 65
   257
 75
     1
175
     1
 42
1.0
 92
        0
 66
   257
 43
1.0
 76
     1
 77
     6
 78
     2
 67
     7
 79
     5
170
     0
171
     0
290
     0
174
     0
 93
       13
 44
0.0
173
     0
291
     1
 45
0.0
1001
ACAD
1000
AcDbSavedByObjectVersion
1070
     0
  0
VISUALSTYLE
  5
2D
102
{ACAD_REACTORS
330
2A
102
}
102
{ACAD_XDICTIONARY
360
43A
102
}
330
2A
100
AcDbVisualStyle
  2
Gouraud
 70
     2
 71
     2
 72
     2
 73
     1
 90
        2
 40
0.6
 41
30.0
 62
     5
 63
     7
421
 16777215
 74
     0
 91
        0
 64
     7
 65
   257
 75
     1
175
     1
 42
1.0
 92
        0
 66
     7
 43
1.0
 76
     1
 77
     6
 78
     2
 67
     7
 79
     5
170
     0
171
     0
290
     0
174
     0
 93
       13
 44
0.0
173
     0
291
     1
 45
0.0
1001
ACAD
1000
AcDbSavedByObjectVersion
1070
     0
  0
VISUALSTYLE
  5
2E
102
{ACAD_REACTORS
330
2A
102
}
102
{ACAD_XDICTIONARY
360
43C
102
}
330
2A
100
AcDbVisualStyle
  2
GouraudWithEdges
 70
     3
 71
     2
 72
     2
 73
     1
 90
        2
 40
0.6
 41
30.0
 62
     5
 63
     7
421
 16777215
 74
     1
 91
        0
 64
     7
 65
   257
 75
     1
175
     1
 42
1.0
 92
        0
 66
   257
 43
1.0
 76
     1
 77
     6
 78
     2
 67
     7
 79
     5
170
     0
171
     0
290
     0
174
     0
 93
       13
 44
0.0
173
     0
291
     1
 45
0.0
1001
ACAD
1000
AcDbSavedByObjectVersion
1070
     0
  0
VISUALSTYLE
  5
31
102
{ACAD_REACTORS
330
2A
102
}
102
{ACAD_XDICTIONARY
360
442
102
}
330
2A
100
AcDbVisualStyle
  2
Hidden
 70
     6
 71
     1
 72
     2
 73
     2
 90
        0
 40
0.6
 41
30.0
 62
     5
 63
     7
421
 16777215
 74
     2
 91
        2
 64
     7
 65
   257
 75
     2
175
     1
 42
40.0
 92
        0
 66
   257
 43
1.0
 76
     1
 77
     6
 78
     2
 67
     7
 79
     3
170
     0
171
     0
290
     0
174
     0
 93
        1
 44
0.0
173
     0
291
     0
 45
0.0
1001
ACAD
1000
AcDbSavedByObjectVersion
1070
     0
  0
VISUALSTYLE
  5
3B
102
{ACAD_REACTORS
330
2A
102
}
102
{ACAD_XDICTIONARY
360
456
102
}
330
2A
100
AcDbVisualStyle
  2
JitterOff
 70
    20
 71
     2
 72
     2
 73
     0
 90
        0
 40
0.6
 41
30.0
 62
     5
 63
     7
421
 16777215
 74
     1
 91
        4
 64
     7
 65
   257
 75
     1
175
     1
 42
1.0
 92
       10
 66
     7
 43
1.0
 76
     1
 77
     6
 78
     2
 67
     7
 79
     5
170
     0
171
     0
290
     0
174
     0
 93
        1
 44
0.0
173
     0
291
     1
 45
0.0
1001
ACAD
1000
AcDbSavedByObjectVersion
1070
     0
  0
VISUALSTYLE
  5
38
102
{ACAD_REACTORS
330
2A
102
}
102
{ACAD_XDICTIONARY
360
450
102
}
330
2A
100
AcDbVisualStyle
  2
Linepattern
 70
    14
 71
     2
 72
     2
 73
     0
 90
        0
 40
0.6
 41
30.0
 62
     5
 63
     7
421
 16777215
 74
     1
 91
        4
 64
     7
 65
   257
 75
     7
175
     7
 42
1.0
 92
        8
 66
     7
 43
1.0
 76
     1
 77
     6
 78
     2
 67
     7
 79
     5
170
     0
171
     0
290
     0
174
     0
 93
        1
 44
0.0
173
     0
291
     1
 45
0.0
1001
ACAD
1000
AcDbSavedByObjectVersion
1070
     0
  0
VISUALSTYLE
  5
3C
102
{ACAD_REACTORS
330
2A
102
}
102
{ACAD_XDICTIONARY
360
458
102
}
330
2A
100
AcDbVisualStyle
  2
OverhangOff
 70
    21
 71
     2
 72
     2
 73
     0
 90
        0
 40
0.6
 41
30.0
 62
     5
 63
     7
421
 16777215
 74
     1
 91
        4
 64
     7
 65
   257
 75
     1
175
     1
 42
1.0
 92
        9
 66
     7
 43
1.0
 76
     1
 77
     6
 78
     2
 67
     7
 79
     5
170
     0
171
     0
290
     0
174
     0
 93
        1
 44
0.0
173
     0
291
     1
 45
0.0
1001
ACAD
1000
AcDbSavedByObjectVersion
1070
     0
  0
VISUALSTYLE
  5
33
102
{ACAD_REACTORS
330
2A
102
}
102
{ACAD_XDICTIONARY
360
446
102
}
330
2A
100
AcDbVisualStyle
  2
Realistic
 70
     8
 71
     2
 72
     3
 73
     0
 90
        2
 40
0.6
 41
30.0
 62
     5
 63
     7
421
 16777215
 74
     0
 91
        0
 64
     7
 65
   257
 75
     1
175
     1
 42
1.0
 92
        8
 66
   257
 43
1.0
 76
     1
 77
     6
 78
     2
 67
     7
 79
     3
170
     0
171
     0
290
     0
174
     0
 93
       13
 44
0.0
173
     0
291
     0
 45
0.0
1001
ACAD
1000
AcDbSavedByObjectVersion
1070
     0
  0
VISUALSTYLE
  5
42
102
{ACAD_REACTORS
330
2A
102
}
102
{ACAD_XDICTIONARY
360
464
102
}
330
2A
100
AcDbVisualStyle
  2
Shaded
 70
    27
 71
     2
 72
     2
 73
     1
 90
        2
 40
0.6
 41
30.0
 62
     5
 63
     7
421
 16777215
 74
     0
 91
        4
 64
     7
 65
   257
 75
     1
175
     1
 42
1.0
 92
        8
 66
   257
 43
1.0
 76
     1
 77
     6
 78
     2
 67
     8
425
  7895160
 79
     3
170
     0
171
     0
290
     0
174
     0
 93
        5
 44
0.0
173
     0
291
     0
 45
0.0
1001
ACAD
1000
AcDbSavedByObjectVersion
1070
     0
  0
VISUALSTYLE
  5
41
102
{ACAD_REACTORS
330
2A
102
}
102
{ACAD_XDICTIONARY
360
462
102
}
330
2A
100
AcDbVisualStyle
  2
Shaded with edges
 70
    26
 71
     2
 72
     2
 73
     1
 90
        2
 40
0.6
 41
30.0
 62
     5
 63
     7
421
 16777215
 74
     1
 91
       10
 64
     7
 65
   257
 75
     2
175
     1
 42
1.0
 92
        8
 66
   257
 43
1.0
 76
     1
 77
     6
 78
     2
 67
     7
 79
     3
170
     0
171
     0
290
     0
174
     0
 93
        5
 44
0.0
173
     0
291
     0
 45
0.0
1001
ACAD
1000
AcDbSavedByObjectVersion
1070
     0
  0
VISUALSTYLE
  5
3E
102
{ACAD_REACTORS
330
2A
102
}
102
{ACAD_XDICTIONARY
360
45C
102
}
330
2A
100
AcDbVisualStyle
  2
Shades of Gray
 70
    23
 71
     2
 72
     2
 73
     3
 90
        0
 40
0.6
 41
30.0
 62
     5
 63
     7
421
 16777215
 74
     2
 91
        2
 64
     7
 65
     7
 75
     1
175
     1
 42
40.0
 92
        8
 66
     7
 43
1.0
 76
     1
 77
     6
 78
     2
 67
     7
 79
     3
170
     0
171
     0
290
     0
174
     0
 93
        1
 44
0.0
173
     0
291
     0
 45
0.0
1001
ACAD
1000
AcDbSavedByObjectVersion
1070
     0
  0
VISUALSTYLE
  5
3F
102
{ACAD_REACTORS
330
2A
102
}
102
{ACAD_XDICTIONARY
360
45E
102
}
330
2A
100
AcDbVisualStyle
  2
Sketchy
 70
    24
 71
     1
 72
     2
 73
     2
 90
        0
 40
0.6
 41
30.0
 62
     5
 63
     7
421
 16777215
 74
     2
 91
        2
 64
     7
 65
     7
 75
     1
175
     1
 42
40.0
 92
       11
 66
     7
 43
1.0
 76
     1
 77
     6
 78
     2
 67
     7
 79
     6
170
     0
171
     0
290
     0
174
     0
 93
        1
 44
0.0
173
     0
291
     0
 45
0.0
1001
ACAD
1000
AcDbSavedByObjectVersion
1070
     0
  0
VISUALSTYLE
  5
37
102
{ACAD_REACTORS
330
2A
102
}
102
{ACAD_XDICTIONARY
360
44E
102
}
330
2A
100
AcDbVisualStyle
  2
Thicken
 70
    13
 71
     2
 72
     2
 73
     0
 90
        0
 40
0.6
 41
30.0
 62
     5
 63
     7
421
 16777215
 74
     1
 91
        4
 64
     7
 65
   257
 75
     1
175
     1
 42
1.0
 92
       12
 66
     7
 43
1.0
 76
     1
 77
     6
 78
     2
 67
     7
 79
     5
170
     0
171
     0
290
     0
174
     0
 93
        1
 44
0.0
173
     0
291
     1
 45
0.0
1001
ACAD
1000
AcDbSavedByObjectVersion
1070
     0
  0
VISUALSTYLE
  5
30
102
{ACAD_REACTORS
330
2A
102
}
102
{ACAD_XDICTIONARY
360
440
102
}
330
2A
100
AcDbVisualStyle
  2
Wireframe
 70
     5
 71
     0
 72
     2
 73
     0
 90
        0
 40
0.6
 41
30.0
 62
     5
 63
     7
421
 16777215
 74
     1
 91
        4
 64
     7
 65
   257
 75
     1
175
     1
 42
1.0
 92
        0
 66
   257
 43
1.0
 76
     1
 77
     6
 78
     2
 67
     7
 79
     3
170
     0
171
     0
290
     0
174
     0
 93
        1
 44
0.0
173
     0
291
     0
 45
0.0
1001
ACAD
1000
AcDbSavedByObjectVersion
1070
     0
  0
VISUALSTYLE
  5
40
102
{ACAD_REACTORS
330
2A
102
}
102
{ACAD_XDICTIONARY
360
460
102
}
330
2A
100
AcDbVisualStyle
  2
X-Ray
 70
    25
 71
     2
 72
     2
 73
     1
 90
        1
 40
0.5
 41
30.0
 62
     5
 63
     7
421
 16777215
 74
     1
 91
        0
 64
     7
 65
   257
 75
     1
175
     1
 42
1.0
 92
        8
 66
     7
 43
1.0
 76
     1
 77
     6
 78
     2
 67
     7
 79
     3
170
     0
171
     0
290
     0
174
     0
 93
       13
 44
0.0
173
     0
291
     0
 45
0.0
1001
ACAD
1000
AcDbSavedByObjectVersion
1070
     0
  0
DICTIONARYVAR
  5
433
102
{ACAD_REACTORS
330
432
102
}
330
432
100
DictionaryVariables
280
     0
  1
1:1
  0
DICTIONARYVAR
  5
477
102
{ACAD_REACTORS
330
432
102
}
330
432
100
DictionaryVariables
280
     0
  1
3.500000
  0
DICTIONARYVAR
  5
478
102
{ACAD_REACTORS
330
432
102
}
330
432
100
DictionaryVariables
280
     0
  1
acadiso.lin
  0
DICTIONARYVAR
  5
474
102
{ACAD_REACTORS
330
432
102
}
330
432
100
DictionaryVariables
280
     0
  1
Standard
  0
DICTIONARYVAR
  5
473
102
{ACAD_REACTORS
330
432
102
}
330
432
100
DictionaryVariables
280
     0
  1
Standard
  0
DICTIONARYVAR
  5
434
102
{ACAD_REACTORS
330
432
102
}
330
432
100
DictionaryVariables
280
     0
  1
1
  0
DICTIONARYVAR
  5
435
102
{ACAD_REACTORS
330
432
102
}
330
432
100
DictionaryVariables
280
     0
  1
2
  0
DICTIONARY
  5
468
330
45
100
AcDbDictionary
280
     1
281
     1
  3
ACAD_XREC_ROUNDTRIP
360
469
  0
DICTIONARY
  5
466
330
44
100
AcDbDictionary
280
     1
281
     1
  3
ACAD_XREC_ROUNDTRIP
360
467
  0
DICTIONARY
  5
46A
330
46
100
AcDbDictionary
280
     1
281
     1
  3
ACAD_XREC_ROUNDTRIP
360
46B
  0
DICTIONARY
  5
470
330
6C
100
AcDbDictionary
280
     1
281
     1
  3
ACAD_XREC_ROUNDTRIP
360
471
  0
DICTIONARY
  5
46C
330
6A
100
AcDbDictionary
280
     1
281
     1
  3
ACAD_ROUNDTRIP_2008_TABLESTYLE_CELLSTYLEMAP
360
46E
  3
ACAD_XREC_ROUNDTRIP
360
46D
  0
DICTIONARY
  5
43E
330
2F
100
AcDbDictionary
280
     1
281
     1
  3
ACAD_XREC_ROUNDTRIP
360
43F
  0
DICTIONARY
  5
444
330
32
100
AcDbDictionary
280
     1
281
     1
  3
ACAD_XREC_ROUNDTRIP
360
445
  0
DICTIONARY
  5
44C
330
36
100
AcDbDictionary
280
     1
281
     1
  3
ACAD_XREC_ROUNDTRIP
360
44D
  0
DICTIONARY
  5
454
330
3A
100
AcDbDictionary
280
     1
281
     1
  3
ACAD_XREC_ROUNDTRIP
360
455
  0
DICTIONARY
  5
448
330
34
100
AcDbDictionary
280
     1
281
     1
  3
ACAD_XREC_ROUNDTRIP
360
449
  0
DICTIONARY
  5
44A
330
35
100
AcDbDictionary
280
     1
281
     1
  3
ACAD_XREC_ROUNDTRIP
360
44B
  0
DICTIONARY
  5
45A
330
3D
100
AcDbDictionary
280
     1
281
     1
  3
ACAD_XREC_ROUNDTRIP
360
45B
  0
DICTIONARY
  5
452
330
39
100
AcDbDictionary
280
     1
281
     1
  3
ACAD_XREC_ROUNDTRIP
360
453
  0
DICTIONARY
  5
436
330
2B
100
AcDbDictionary
280
     1
281
     1
  3
ACAD_XREC_ROUNDTRIP
360
437
  0
DICTIONARY
  5
438
330
2C
100
AcDbDictionary
280
     1
281
     1
  3
ACAD_XREC_ROUNDTRIP
360
439
  0
DICTIONARY
  5
43A
330
2D
100
AcDbDictionary
280
     1
281
     1
  3
ACAD_XREC_ROUNDTRIP
360
43B
  0
DICTIONARY
  5
43C
330
2E
100
AcDbDictionary
280
     1
281
     1
  3
ACAD_XREC_ROUNDTRIP
360
43D
  0
DICTIONARY
  5
442
330
31
100
AcDbDictionary
280
     1
281
     1
  3
ACAD_XREC_ROUNDTRIP
360
443
  0
DICTIONARY
  5
456
330
3B
100
AcDbDictionary
280
     1
281
     1
  3
ACAD_XREC_ROUNDTRIP
360
457
  0
DICTIONARY
  5
450
330
38
100
AcDbDictionary
280
     1
281
     1
  3
ACAD_XREC_ROUNDTRIP
360
451
  0
DICTIONARY
  5
458
330
3C
100
AcDbDictionary
280
     1
281
     1
  3
ACAD_XREC_ROUNDTRIP
360
459
  0
DICTIONARY
  5
446
330
33
100
AcDbDictionary
280
     1
281
     1
  3
ACAD_XREC_ROUNDTRIP
360
447
  0
DICTIONARY
  5
464
330
42
100
AcDbDictionary
280
     1
281
     1
  3
ACAD_XREC_ROUNDTRIP
360
465
  0
DICTIONARY
  5
462
330
41
100
AcDbDictionary
280
     1
281
     1
  3
ACAD_XREC_ROUNDTRIP
360
463
  0
DICTIONARY
  5
45C
330
3E
100
AcDbDictionary
280
     1
281
     1
  3
ACAD_XREC_ROUNDTRIP
360
45D
  0
DICTIONARY
  5
45E
330
3F
100
AcDbDictionary
280
     1
281
     1
  3
ACAD_XREC_ROUNDTRIP
360
45F
  0
DICTIONARY
  5
44E
330
37
100
AcDbDictionary
280
     1
281
     1
  3
ACAD_XREC_ROUNDTRIP
360
44F
  0
DICTIONARY
  5
440
330
30
100
AcDbDictionary
280
     1
281
     1
  3
ACAD_XREC_ROUNDTRIP
360
441
  0
DICTIONARY
  5
460
330
40
100
AcDbDictionary
280
     1
281
     1
  3
ACAD_XREC_ROUNDTRIP
360
461
  0
XRECORD
  5
469
102
{ACAD_REACTORS
330
468
102
}
330
468
100
AcDbXrecord
280
     1
102
MATERIAL
148
0.0
149
0.0
149
0.0
 93
        0
 94
      127
282
     0
 72
     1
 77
     1
171
     1
175
     1
179
     1
273
     0
  0
XRECORD
  5
467
102
{ACAD_REACTORS
330
466
102
}
330
466
100
AcDbXrecord
280
     1
102
MATERIAL
148
0.0
149
0.0
149
0.0
 93
        0
 94
      127
282
     0
 72
     1
 77
     1
171
     1
175
     1
179
     1
273
     0
  0
XRECORD
  5
46B
102
{ACAD_REACTORS
330
46A
102
}
330
46A
100
AcDbXrecord
280
     1
102
MATERIAL
148
0.0
149
0.0
149
0.0
 93
        0
 94
      127
282
     0
 72
     1
 77
     1
171
     1
175
     1
179
     1
273
     0
  0
XRECORD
  5
471
102
{ACAD_REACTORS
330
470
102
}
330
470
100
AcDbXrecord
280
     1
102
ACAD_ROUNDTRIP_2010_MLEADER_STYLE
  0
CELLSTYLEMAP
  5
46E
102
{ACAD_REACTORS
330
46C
102
}
330
46C
100
AcDbCellStyleMap
 90
        3
300
CELLSTYLE
  1
TABLEFORMAT_BEGIN
 90
        5
170
     1
 91
        0
 92
    32768
 62
   257
 93
        1
300
CONTENTFORMAT
  1
CONTENTFORMAT_BEGIN
 90
        0
 91
        0
 92
        4
 93
        0
300

 40
0.0
140
1.0
 94
        5
 62
     0
340
11
144
6.0
309
CONTENTFORMAT_END
171
     1
301
MARGIN
  1
CELLMARGIN_BEGIN
 40
1.5
 40
1.5
 40
1.5
 40
1.5
 40
1.5
 40
1.5
309
CELLMARGIN_END
 94
        6
 95
        1
302
GRIDFORMAT
  1
GRIDFORMAT_BEGIN
 90
        0
 91
        1
 62
     0
 92
       -2
340
14
 93
        0
 40
0.045
309
GRIDFORMAT_END
 95
        2
302
GRIDFORMAT
  1
GRIDFORMAT_BEGIN
 90
        0
 91
        1
 62
     0
 92
       -2
340
14
 93
        0
 40
0.045
309
GRIDFORMAT_END
 95
        4
302
GRIDFORMAT
  1
GRIDFORMAT_BEGIN
 90
        0
 91
        1
 62
     0
 92
       -2
340
14
 93
        0
 40
0.045
309
GRIDFORMAT_END
 95
        8
302
GRIDFORMAT
  1
GRIDFORMAT_BEGIN
 90
        0
 91
        1
 62
     0
 92
       -2
340
14
 93
        0
 40
0.045
309
GRIDFORMAT_END
 95
       16
302
GRIDFORMAT
  1
GRIDFORMAT_BEGIN
 90
        0
 91
        1
 62
     0
 92
       -2
340
14
 93
        0
 40
0.045
309
GRIDFORMAT_END
 95
       32
302
GRIDFORMAT
  1
GRIDFORMAT_BEGIN
 90
        0
 91
        1
 62
     0
 92
       -2
340
14
 93
        0
 40
0.045
309
GRIDFORMAT_END
309
TABLEFORMAT_END
  1
CELLSTYLE_BEGIN
 90
        1
 91
        1
300
_TITLE
309
CELLSTYLE_END
300
CELLSTYLE
  1
TABLEFORMAT_BEGIN
 90
        5
170
     1
 91
        0
 92
        0
 62
   257
 93
        1
300
CONTENTFORMAT
  1
CONTENTFORMAT_BEGIN
 90
        0
 91
        0
 92
        4
 93
        0
300

 40
0.0
140
1.0
 94
        5
 62
     0
340
11
144
4.5
309
CONTENTFORMAT_END
171
     1
301
MARGIN
  1
CELLMARGIN_BEGIN
 40
1.5
 40
1.5
 40
1.5
 40
1.5
 40
1.5
 40
1.5
309
CELLMARGIN_END
 94
        6
 95
        1
302
GRIDFORMAT
  1
GRIDFORMAT_BEGIN
 90
        0
 91
        1
 62
     0
 92
       -2
340
14
 93
        0
 40
0.045
309
GRIDFORMAT_END
 95
        2
302
GRIDFORMAT
  1
GRIDFORMAT_BEGIN
 90
        0
 91
        1
 62
     0
 92
       -2
340
14
 93
        0
 40
0.045
309
GRIDFORMAT_END
 95
        4
302
GRIDFORMAT
  1
GRIDFORMAT_BEGIN
 90
        0
 91
        1
 62
     0
 92
       -2
340
14
 93
        0
 40
0.045
309
GRIDFORMAT_END
 95
        8
302
GRIDFORMAT
  1
GRIDFORMAT_BEGIN
 90
        0
 91
        1
 62
     0
 92
       -2
340
14
 93
        0
 40
0.045
309
GRIDFORMAT_END
 95
       16
302
GRIDFORMAT
  1
GRIDFORMAT_BEGIN
 90
        0
 91
        1
 62
     0
 92
       -2
340
14
 93
        0
 40
0.045
309
GRIDFORMAT_END
 95
       32
302
GRIDFORMAT
  1
GRIDFORMAT_BEGIN
 90
        0
 91
        1
 62
     0
 92
       -2
340
14
 93
        0
 40
0.045
309
GRIDFORMAT_END
309
TABLEFORMAT_END
  1
CELLSTYLE_BEGIN
 90
        2
 91
        1
300
_HEADER
309
CELLSTYLE_END
300
CELLSTYLE
  1
TABLEFORMAT_BEGIN
 90
        5
170
     1
 91
        0
 92
        0
 62
   257
 93
        1
300
CONTENTFORMAT
  1
CONTENTFORMAT_BEGIN
 90
        0
 91
        0
 92
        4
 93
        0
300

 40
0.0
140
1.0
 94
        2
 62
     0
340
11
144
4.5
309
CONTENTFORMAT_END
171
     1
301
MARGIN
  1
CELLMARGIN_BEGIN
 40
1.5
 40
1.5
 40
1.5
 40
1.5
 40
1.5
 40
1.5
309
CELLMARGIN_END
 94
        6
 95
        1
302
GRIDFORMAT
  1
GRIDFORMAT_BEGIN
 90
        0
 91
        1
 62
     0
 92
       -2
340
14
 93
        0
 40
0.045
309
GRIDFORMAT_END
 95
        2
302
GRIDFORMAT
  1
GRIDFORMAT_BEGIN
 90
        0
 91
        1
 62
     0
 92
       -2
340
14
 93
        0
 40
0.045
309
GRIDFORMAT_END
 95
        4
302
GRIDFORMAT
  1
GRIDFORMAT_BEGIN
 90
        0
 91
        1
 62
     0
 92
       -2
340
14
 93
        0
 40
0.045
309
GRIDFORMAT_END
 95
        8
302
GRIDFORMAT
  1
GRIDFORMAT_BEGIN
 90
        0
 91
        1
 62
     0
 92
       -2
340
14
 93
        0
 40
0.045
309
GRIDFORMAT_END
 95
       16
302
GRIDFORMAT
  1
GRIDFORMAT_BEGIN
 90
        0
 91
        1
 62
     0
 92
       -2
340
14
 93
        0
 40
0.045
309
GRIDFORMAT_END
 95
       32
302
GRIDFORMAT
  1
GRIDFORMAT_BEGIN
 90
        0
 91
        1
 62
     0
 92
       -2
340
14
 93
        0
 40
0.045
309
GRIDFORMAT_END
309
TABLEFORMAT_END
  1
CELLSTYLE_BEGIN
 90
        3
 91
        2
300
_DATA
309
CELLSTYLE_END
  0
XRECORD
  5
46D
102
{ACAD_REACTORS
330
46C
102
}
330
46C
100
AcDbXrecord
280
     1
102
ACAD_ROUNDTRIP_PRE2007_TABLESTYLE
 90
        4
 91
        0
  1

 92
        4
 93
        0
  2

 94
        4
 95
        0
  3

  0
XRECORD
  5
43F
102
{ACAD_REACTORS
330
43E
102
}
330
43E
100
AcDbXrecord
280
     1
102
RTVSPropertyOp0
 70
     1
102
RTVSPropertyOp1
 70
     1
102
RTVSPropertyOp2
 70
     1
102
RTVSPropertyOp3
 70
     1
102
RTVSPropertyOp4
 70
     1
102
RTVSPropertyOp5
 70
     1
102
RTVSPropertyOp6
 70
     1
102
RTVSPropertyOp7
 70
     1
102
RTVSPropertyOp8
 70
     1
102
RTVSPropertyOp9
 70
     1
102
RTVSPropertyOp10
 70
     1
102
RTVSPropertyOp11
 70
     1
102
RTVSPropertyOp12
 70
     1
102
RTVSPropertyOp13
 70
     1
102
RTVSPropertyOp14
 70
     1
102
RTVSPropertyOp15
 70
     1
102
RTVSPropertyOp16
 70
     1
102
RTVSPropertyOp17
 70
     1
102
RTVSPropertyOp18
 70
     1
102
RTVSPropertyOp19
 70
     1
102
RTVSPropertyOp20
 70
     1
102
RTVSPropertyOp21
 70
     1
102
RTVSPropertyOp22
 70
     1
102
RTVSPropertyOp23
 70
     1
102
RTVSPropertyOp24
 70
     1
102
RTVSPropertyOp25
 70
     1
102
RTVSPropertyOp26
 70
     1
102
RTVSPropertyOp27
 70
     1
102
RTVSPropertyOp28
 70
     1
102
RTVSPropertyOp29
 70
     1
102
RTVSPropertyOp30
 70
     1
102
RTVSPropertyOp31
 70
     1
102
RTVSPropertyOp32
 70
     1
102
RTVSPropertyOp33
 70
     1
102
RTVSPropertyOp34
 70
     1
102
RTVSPropertyOp35
 70
     1
102
RTVSPropertyOp36
 70
     1
102
RTVSPropertyOp37
 70
     1
102
RTVSPropertyOp38
 70
     1
102
RTVSPropertyOp39
 70
     1
102
RTVSPropertyOp40
 70
     1
102
RTVSPropertyOp41
 70
     1
102
RTVSPropertyOp42
 70
     1
102
RTVSPropertyOp43
 70
     1
102
RTVSPropertyOp44
 70
     1
102
RTVSPropertyOp45
 70
     1
102
RTVSPropertyOp46
 70
     1
102
RTVSPropertyOp47
 70
     1
102
RTVSPropertyOp48
 70
     1
102
RTVSPropertyOp49
 70
     1
102
RTVSPropertyOp50
 70
     1
102
RTVSPropertyOp51
 70
     0
102
RTVSPropertyOp52
 70
     0
102
RTVSPropertyOp53
 70
     1
102
RTVSPropertyOp54
 70
     1
102
RTVSPropertyOp55
 70
     1
102
RTVSPropertyOp56
 70
     1
102
RTVSPropertyOp57
 70
     1
102
RTVSPost2010Prop28
280
     1
102
RTVSPost2010PropOp28
 70
     1
102
RTVSPost2010Prop29
280
     1
102
RTVSPost2010PropOp29
 70
     1
102
RTVSPost2010Prop30
280
     0
102
RTVSPost2010PropOp30
 70
     1
102
RTVSPost2010Prop31
280
     0
102
RTVSPost2010PropOp31
 70
     1
102
RTVSPost2010Prop32
280
     0
102
RTVSPost2010PropOp32
 70
     1
102
RTVSPost2010Prop33
280
     0
102
RTVSPost2010PropOp33
 70
     1
102
RTVSPost2010Prop34
280
     0
102
RTVSPost2010PropOp34
 70
     1
102
RTVSPost2010Prop35
280
     0
102
RTVSPost2010PropOp35
 70
     1
102
RTVSPost2010Prop36
280
     0
102
RTVSPost2010PropOp36
 70
     1
102
RTVSPost2010Prop37
 90
       50
102
RTVSPost2010PropOp37
 70
     1
102
RTVSPost2010Prop38
140
0.0
102
RTVSPost2010PropOp38
 70
     1
102
RTVSPost2010Prop39
140
1.0
102
RTVSPost2010PropOp39
 70
     1
102
RTVSPost2010Prop40
 90
        0
102
RTVSPost2010PropOp40
 70
     1
102
RTVSPost2010Prop41ColorIndex
 90
       18
102
RTVSPost2010Prop41ColorRGB
 90
        0
102
RTVSPost2010PropOp41
 70
     1
102
RTVSPost2010Prop42
 90
       50
102
RTVSPost2010PropOp42
 70
     1
102
RTVSPost2010Prop43
 90
        3
102
RTVSPost2010PropOp43
 70
     1
102
RTVSPost2010Prop44ColorIndex
 90
        5
102
RTVSPost2010Prop44ColorRGB
 90
      255
102
RTVSPost2010PropOp44
 70
     1
102
RTVSPost2010Prop45
280
     0
102
RTVSPost2010PropOp45
 70
     1
102
RTVSPost2010Prop46
 90
       50
102
RTVSPost2010PropOp46
 70
     1
102
RTVSPost2010Prop47
 90
       50
102
RTVSPost2010PropOp47
 70
     1
102
RTVSPost2010Prop48
 90
       50
102
RTVSPost2010PropOp48
 70
     1
102
RTVSPost2010Prop49
280
     0
102
RTVSPost2010PropOp49
 70
     1
102
RTVSPost2010Prop50
 90
       50
102
RTVSPost2010PropOp50
 70
     1
102
RTVSPost2010Prop51ColorIndex
 90
      256
102
RTVSPost2010Prop51ColorRGB
 90
-16777216
102
RTVSPost2010PropOp51
 70
     0
102
RTVSPost2010Prop52
140
1.0
102
RTVSPost2010PropOp52
 70
     0
102
RTVSPost2010Prop53
 90
        2
102
RTVSPost2010PropOp53
 70
     1
102
RTVSPost2010Prop54
  1
strokes_ogs.tif
102
RTVSPost2010PropOp54
 70
     1
102
RTVSPost2010Prop55
280
     0
102
RTVSPost2010PropOp55
 70
     1
102
RTVSPost2010Prop56
140
1.0
102
RTVSPost2010PropOp56
 70
     1
102
RTVSPost2010Prop57
140
1.0
102
RTVSPost2010PropOp57
 70
     1
  0
XRECORD
  5
445
102
{ACAD_REACTORS
330
444
102
}
330
444
100
AcDbXrecord
280
     1
102
RTVSPropertyOp0
 70
     1
102
RTVSPropertyOp1
 70
     1
102
RTVSPropertyOp2
 70
     1
102
RTVSPropertyOp3
 70
     1
102
RTVSPropertyOp4
 70
     1
102
RTVSPropertyOp5
 70
     1
102
RTVSPropertyOp6
 70
     1
102
RTVSPropertyOp7
 70
     1
102
RTVSPropertyOp8
 70
     1
102
RTVSPropertyOp9
 70
     1
102
RTVSPropertyOp10
 70
     1
102
RTVSPropertyOp11
 70
     1
102
RTVSPropertyOp12
 70
     1
102
RTVSPropertyOp13
 70
     1
102
RTVSPropertyOp14
 70
     1
102
RTVSPropertyOp15
 70
     1
102
RTVSPropertyOp16
 70
     1
102
RTVSPropertyOp17
 70
     1
102
RTVSPropertyOp18
 70
     1
102
RTVSPropertyOp19
 70
     1
102
RTVSPropertyOp20
 70
     1
102
RTVSPropertyOp21
 70
     1
102
RTVSPropertyOp22
 70
     1
102
RTVSPropertyOp23
 70
     1
102
RTVSPropertyOp24
 70
     1
102
RTVSPropertyOp25
 70
     1
102
RTVSPropertyOp26
 70
     1
102
RTVSPropertyOp27
 70
     1
102
RTVSPropertyOp28
 70
     1
102
RTVSPropertyOp29
 70
     1
102
RTVSPropertyOp30
 70
     1
102
RTVSPropertyOp31
 70
     1
102
RTVSPropertyOp32
 70
     1
102
RTVSPropertyOp33
 70
     1
102
RTVSPropertyOp34
 70
     1
102
RTVSPropertyOp35
 70
     1
102
RTVSPropertyOp36
 70
     1
102
RTVSPropertyOp37
 70
     1
102
RTVSPropertyOp38
 70
     1
102
RTVSPropertyOp39
 70
     1
102
RTVSPropertyOp40
 70
     1
102
RTVSPropertyOp41
 70
     1
102
RTVSPropertyOp42
 70
     1
102
RTVSPropertyOp43
 70
     1
102
RTVSPropertyOp44
 70
     1
102
RTVSPropertyOp45
 70
     1
102
RTVSPropertyOp46
 70
     1
102
RTVSPropertyOp47
 70
     1
102
RTVSPropertyOp48
 70
     1
102
RTVSPropertyOp49
 70
     1
102
RTVSPropertyOp50
 70
     1
102
RTVSPropertyOp51
 70
     0
102
RTVSPropertyOp52
 70
     0
102
RTVSPropertyOp53
 70
     1
102
RTVSPropertyOp54
 70
     1
102
RTVSPropertyOp55
 70
     1
102
RTVSPropertyOp56
 70
     1
102
RTVSPropertyOp57
 70
     1
102
RTVSPost2010Prop28
280
     0
102
RTVSPost2010PropOp28
 70
     1
102
RTVSPost2010Prop29
280
     1
102
RTVSPost2010PropOp29
 70
     1
102
RTVSPost2010Prop30
280
     1
102
RTVSPost2010PropOp30
 70
     1
102
RTVSPost2010Prop31
280
     0
102
RTVSPost2010PropOp31
 70
     1
102
RTVSPost2010Prop32
280
     0
102
RTVSPost2010PropOp32
 70
     1
102
RTVSPost2010Prop33
280
     0
102
RTVSPost2010PropOp33
 70
     1
102
RTVSPost2010Prop34
280
     0
102
RTVSPost2010PropOp34
 70
     1
102
RTVSPost2010Prop35
280
     0
102
RTVSPost2010PropOp35
 70
     1
102
RTVSPost2010Prop36
280
     0
102
RTVSPost2010PropOp36
 70
     1
102
RTVSPost2010Prop37
 90
       50
102
RTVSPost2010PropOp37
 70
     1
102
RTVSPost2010Prop38
140
0.0
102
RTVSPost2010PropOp38
 70
     1
102
RTVSPost2010Prop39
140
1.0
102
RTVSPost2010PropOp39
 70
     1
102
RTVSPost2010Prop40
 90
        0
102
RTVSPost2010PropOp40
 70
     1
102
RTVSPost2010Prop41ColorIndex
 90
       18
102
RTVSPost2010Prop41ColorRGB
 90
        0
102
RTVSPost2010PropOp41
 70
     1
102
RTVSPost2010Prop42
 90
       50
102
RTVSPost2010PropOp42
 70
     1
102
RTVSPost2010Prop43
 90
        3
102
RTVSPost2010PropOp43
 70
     1
102
RTVSPost2010Prop44ColorIndex
 90
        5
102
RTVSPost2010Prop44ColorRGB
 90
      255
102
RTVSPost2010PropOp44
 70
     1
102
RTVSPost2010Prop45
280
     0
102
RTVSPost2010PropOp45
 70
     1
102
RTVSPost2010Prop46
 90
       50
102
RTVSPost2010PropOp46
 70
     1
102
RTVSPost2010Prop47
 90
       50
102
RTVSPost2010PropOp47
 70
     1
102
RTVSPost2010Prop48
 90
       50
102
RTVSPost2010PropOp48
 70
     1
102
RTVSPost2010Prop49
280
     0
102
RTVSPost2010PropOp49
 70
     1
102
RTVSPost2010Prop50
 90
       50
102
RTVSPost2010PropOp50
 70
     1
102
RTVSPost2010Prop51ColorIndex
 90
      256
102
RTVSPost2010Prop51ColorRGB
 90
-16777216
102
RTVSPost2010PropOp51
 70
     0
102
RTVSPost2010Prop52
140
1.0
102
RTVSPost2010PropOp52
 70
     0
102
RTVSPost2010Prop53
 90
        2
102
RTVSPost2010PropOp53
 70
     1
102
RTVSPost2010Prop54
  1
strokes_ogs.tif
102
RTVSPost2010PropOp54
 70
     1
102
RTVSPost2010Prop55
280
     0
102
RTVSPost2010PropOp55
 70
     1
102
RTVSPost2010Prop56
140
1.0
102
RTVSPost2010PropOp56
 70
     1
102
RTVSPost2010Prop57
140
1.0
102
RTVSPost2010PropOp57
 70
     1
  0
XRECORD
  5
44D
102
{ACAD_REACTORS
330
44C
102
}
330
44C
100
AcDbXrecord
280
     1
102
RTVSPropertyOp0
 70
     1
102
RTVSPropertyOp1
 70
     1
102
RTVSPropertyOp2
 70
     1
102
RTVSPropertyOp3
 70
     1
102
RTVSPropertyOp4
 70
     1
102
RTVSPropertyOp5
 70
     1
102
RTVSPropertyOp6
 70
     1
102
RTVSPropertyOp7
 70
     1
102
RTVSPropertyOp8
 70
     1
102
RTVSPropertyOp9
 70
     1
102
RTVSPropertyOp10
 70
     1
102
RTVSPropertyOp11
 70
     1
102
RTVSPropertyOp12
 70
     1
102
RTVSPropertyOp13
 70
     1
102
RTVSPropertyOp14
 70
     1
102
RTVSPropertyOp15
 70
     1
102
RTVSPropertyOp16
 70
     1
102
RTVSPropertyOp17
 70
     1
102
RTVSPropertyOp18
 70
     1
102
RTVSPropertyOp19
 70
     1
102
RTVSPropertyOp20
 70
     1
102
RTVSPropertyOp21
 70
     1
102
RTVSPropertyOp22
 70
     1
102
RTVSPropertyOp23
 70
     1
102
RTVSPropertyOp24
 70
     1
102
RTVSPropertyOp25
 70
     1
102
RTVSPropertyOp26
 70
     1
102
RTVSPropertyOp27
 70
     1
102
RTVSPropertyOp28
 70
     1
102
RTVSPropertyOp29
 70
     1
102
RTVSPropertyOp30
 70
     1
102
RTVSPropertyOp31
 70
     1
102
RTVSPropertyOp32
 70
     1
102
RTVSPropertyOp33
 70
     1
102
RTVSPropertyOp34
 70
     1
102
RTVSPropertyOp35
 70
     1
102
RTVSPropertyOp36
 70
     1
102
RTVSPropertyOp37
 70
     1
102
RTVSPropertyOp38
 70
     1
102
RTVSPropertyOp39
 70
     1
102
RTVSPropertyOp40
 70
     1
102
RTVSPropertyOp41
 70
     1
102
RTVSPropertyOp42
 70
     1
102
RTVSPropertyOp43
 70
     1
102
RTVSPropertyOp44
 70
     1
102
RTVSPropertyOp45
 70
     1
102
RTVSPropertyOp46
 70
     1
102
RTVSPropertyOp47
 70
     1
102
RTVSPropertyOp48
 70
     1
102
RTVSPropertyOp49
 70
     1
102
RTVSPropertyOp50
 70
     1
102
RTVSPropertyOp51
 70
     0
102
RTVSPropertyOp52
 70
     0
102
RTVSPropertyOp53
 70
     1
102
RTVSPropertyOp54
 70
     1
102
RTVSPropertyOp55
 70
     1
102
RTVSPropertyOp56
 70
     1
102
RTVSPropertyOp57
 70
     1
102
RTVSPost2010Prop28
280
     0
102
RTVSPost2010PropOp28
 70
     1
102
RTVSPost2010Prop29
280
     1
102
RTVSPost2010PropOp29
 70
     1
102
RTVSPost2010Prop30
280
     1
102
RTVSPost2010PropOp30
 70
     1
102
RTVSPost2010Prop31
280
     0
102
RTVSPost2010PropOp31
 70
     1
102
RTVSPost2010Prop32
280
     0
102
RTVSPost2010PropOp32
 70
     1
102
RTVSPost2010Prop33
280
     0
102
RTVSPost2010PropOp33
 70
     1
102
RTVSPost2010Prop34
280
     0
102
RTVSPost2010PropOp34
 70
     1
102
RTVSPost2010Prop35
280
     0
102
RTVSPost2010PropOp35
 70
     1
102
RTVSPost2010Prop36
280
     0
102
RTVSPost2010PropOp36
 70
     1
102
RTVSPost2010Prop37
 90
       50
102
RTVSPost2010PropOp37
 70
     1
102
RTVSPost2010Prop38
140
0.0
102
RTVSPost2010PropOp38
 70
     1
102
RTVSPost2010Prop39
140
1.0
102
RTVSPost2010PropOp39
 70
     1
102
RTVSPost2010Prop40
 90
        0
102
RTVSPost2010PropOp40
 70
     1
102
RTVSPost2010Prop41ColorIndex
 90
       18
102
RTVSPost2010Prop41ColorRGB
 90
        0
102
RTVSPost2010PropOp41
 70
     1
102
RTVSPost2010Prop42
 90
       50
102
RTVSPost2010PropOp42
 70
     1
102
RTVSPost2010Prop43
 90
        3
102
RTVSPost2010PropOp43
 70
     1
102
RTVSPost2010Prop44ColorIndex
 90
        5
102
RTVSPost2010Prop44ColorRGB
 90
      255
102
RTVSPost2010PropOp44
 70
     1
102
RTVSPost2010Prop45
280
     0
102
RTVSPost2010PropOp45
 70
     1
102
RTVSPost2010Prop46
 90
       50
102
RTVSPost2010PropOp46
 70
     1
102
RTVSPost2010Prop47
 90
       50
102
RTVSPost2010PropOp47
 70
     1
102
RTVSPost2010Prop48
 90
       50
102
RTVSPost2010PropOp48
 70
     1
102
RTVSPost2010Prop49
280
     0
102
RTVSPost2010PropOp49
 70
     1
102
RTVSPost2010Prop50
 90
       50
102
RTVSPost2010PropOp50
 70
     1
102
RTVSPost2010Prop51ColorIndex
 90
      256
102
RTVSPost2010Prop51ColorRGB
 90
-16777216
102
RTVSPost2010PropOp51
 70
     0
102
RTVSPost2010Prop52
140
1.0
102
RTVSPost2010PropOp52
 70
     0
102
RTVSPost2010Prop53
 90
        2
102
RTVSPost2010PropOp53
 70
     1
102
RTVSPost2010Prop54
  1
strokes_ogs.tif
102
RTVSPost2010PropOp54
 70
     1
102
RTVSPost2010Prop55
280
     0
102
RTVSPost2010PropOp55
 70
     1
102
RTVSPost2010Prop56
140
1.0
102
RTVSPost2010PropOp56
 70
     1
102
RTVSPost2010Prop57
140
1.0
102
RTVSPost2010PropOp57
 70
     1
  0
XRECORD
  5
455
102
{ACAD_REACTORS
330
454
102
}
330
454
100
AcDbXrecord
280
     1
102
RTVSPropertyOp0
 70
     1
102
RTVSPropertyOp1
 70
     1
102
RTVSPropertyOp2
 70
     1
102
RTVSPropertyOp3
 70
     1
102
RTVSPropertyOp4
 70
     1
102
RTVSPropertyOp5
 70
     1
102
RTVSPropertyOp6
 70
     1
102
RTVSPropertyOp7
 70
     1
102
RTVSPropertyOp8
 70
     1
102
RTVSPropertyOp9
 70
     1
102
RTVSPropertyOp10
 70
     1
102
RTVSPropertyOp11
 70
     1
102
RTVSPropertyOp12
 70
     1
102
RTVSPropertyOp13
 70
     1
102
RTVSPropertyOp14
 70
     1
102
RTVSPropertyOp15
 70
     1
102
RTVSPropertyOp16
 70
     1
102
RTVSPropertyOp17
 70
     1
102
RTVSPropertyOp18
 70
     1
102
RTVSPropertyOp19
 70
     1
102
RTVSPropertyOp20
 70
     1
102
RTVSPropertyOp21
 70
     1
102
RTVSPropertyOp22
 70
     1
102
RTVSPropertyOp23
 70
     1
102
RTVSPropertyOp24
 70
     1
102
RTVSPropertyOp25
 70
     1
102
RTVSPropertyOp26
 70
     1
102
RTVSPropertyOp27
 70
     1
102
RTVSPropertyOp28
 70
     1
102
RTVSPropertyOp29
 70
     1
102
RTVSPropertyOp30
 70
     1
102
RTVSPropertyOp31
 70
     1
102
RTVSPropertyOp32
 70
     1
102
RTVSPropertyOp33
 70
     1
102
RTVSPropertyOp34
 70
     1
102
RTVSPropertyOp35
 70
     1
102
RTVSPropertyOp36
 70
     1
102
RTVSPropertyOp37
 70
     1
102
RTVSPropertyOp38
 70
     1
102
RTVSPropertyOp39
 70
     1
102
RTVSPropertyOp40
 70
     1
102
RTVSPropertyOp41
 70
     1
102
RTVSPropertyOp42
 70
     1
102
RTVSPropertyOp43
 70
     1
102
RTVSPropertyOp44
 70
     1
102
RTVSPropertyOp45
 70
     1
102
RTVSPropertyOp46
 70
     1
102
RTVSPropertyOp47
 70
     1
102
RTVSPropertyOp48
 70
     1
102
RTVSPropertyOp49
 70
     1
102
RTVSPropertyOp50
 70
     1
102
RTVSPropertyOp51
 70
     0
102
RTVSPropertyOp52
 70
     0
102
RTVSPropertyOp53
 70
     1
102
RTVSPropertyOp54
 70
     1
102
RTVSPropertyOp55
 70
     1
102
RTVSPropertyOp56
 70
     1
102
RTVSPropertyOp57
 70
     1
102
RTVSPost2010Prop28
280
     0
102
RTVSPost2010PropOp28
 70
     1
102
RTVSPost2010Prop29
280
     1
102
RTVSPost2010PropOp29
 70
     1
102
RTVSPost2010Prop30
280
     1
102
RTVSPost2010PropOp30
 70
     1
102
RTVSPost2010Prop31
280
     0
102
RTVSPost2010PropOp31
 70
     1
102
RTVSPost2010Prop32
280
     0
102
RTVSPost2010PropOp32
 70
     1
102
RTVSPost2010Prop33
280
     0
102
RTVSPost2010PropOp33
 70
     1
102
RTVSPost2010Prop34
280
     0
102
RTVSPost2010PropOp34
 70
     1
102
RTVSPost2010Prop35
280
     0
102
RTVSPost2010PropOp35
 70
     1
102
RTVSPost2010Prop36
280
     0
102
RTVSPost2010PropOp36
 70
     1
102
RTVSPost2010Prop37
 90
       50
102
RTVSPost2010PropOp37
 70
     1
102
RTVSPost2010Prop38
140
0.0
102
RTVSPost2010PropOp38
 70
     1
102
RTVSPost2010Prop39
140
1.0
102
RTVSPost2010PropOp39
 70
     1
102
RTVSPost2010Prop40
 90
        0
102
RTVSPost2010PropOp40
 70
     1
102
RTVSPost2010Prop41ColorIndex
 90
       18
102
RTVSPost2010Prop41ColorRGB
 90
        0
102
RTVSPost2010PropOp41
 70
     1
102
RTVSPost2010Prop42
 90
       50
102
RTVSPost2010PropOp42
 70
     1
102
RTVSPost2010Prop43
 90
        3
102
RTVSPost2010PropOp43
 70
     1
102
RTVSPost2010Prop44ColorIndex
 90
        5
102
RTVSPost2010Prop44ColorRGB
 90
      255
102
RTVSPost2010PropOp44
 70
     1
102
RTVSPost2010Prop45
280
     0
102
RTVSPost2010PropOp45
 70
     1
102
RTVSPost2010Prop46
 90
       50
102
RTVSPost2010PropOp46
 70
     1
102
RTVSPost2010Prop47
 90
       50
102
RTVSPost2010PropOp47
 70
     1
102
RTVSPost2010Prop48
 90
       50
102
RTVSPost2010PropOp48
 70
     1
102
RTVSPost2010Prop49
280
     0
102
RTVSPost2010PropOp49
 70
     1
102
RTVSPost2010Prop50
 90
       50
102
RTVSPost2010PropOp50
 70
     1
102
RTVSPost2010Prop51ColorIndex
 90
      256
102
RTVSPost2010Prop51ColorRGB
 90
-16777216
102
RTVSPost2010PropOp51
 70
     0
102
RTVSPost2010Prop52
140
1.0
102
RTVSPost2010PropOp52
 70
     0
102
RTVSPost2010Prop53
 90
        2
102
RTVSPost2010PropOp53
 70
     1
102
RTVSPost2010Prop54
  1
strokes_ogs.tif
102
RTVSPost2010PropOp54
 70
     1
102
RTVSPost2010Prop55
280
     0
102
RTVSPost2010PropOp55
 70
     1
102
RTVSPost2010Prop56
140
1.0
102
RTVSPost2010PropOp56
 70
     1
102
RTVSPost2010Prop57
140
1.0
102
RTVSPost2010PropOp57
 70
     1
  0
XRECORD
  5
449
102
{ACAD_REACTORS
330
448
102
}
330
448
100
AcDbXrecord
280
     1
102
RTVSPropertyOp0
 70
     1
102
RTVSPropertyOp1
 70
     1
102
RTVSPropertyOp2
 70
     1
102
RTVSPropertyOp3
 70
     1
102
RTVSPropertyOp4
 70
     1
102
RTVSPropertyOp5
 70
     1
102
RTVSPropertyOp6
 70
     1
102
RTVSPropertyOp7
 70
     1
102
RTVSPropertyOp8
 70
     1
102
RTVSPropertyOp9
 70
     1
102
RTVSPropertyOp10
 70
     1
102
RTVSPropertyOp11
 70
     1
102
RTVSPropertyOp12
 70
     1
102
RTVSPropertyOp13
 70
     1
102
RTVSPropertyOp14
 70
     1
102
RTVSPropertyOp15
 70
     1
102
RTVSPropertyOp16
 70
     1
102
RTVSPropertyOp17
 70
     1
102
RTVSPropertyOp18
 70
     1
102
RTVSPropertyOp19
 70
     1
102
RTVSPropertyOp20
 70
     1
102
RTVSPropertyOp21
 70
     1
102
RTVSPropertyOp22
 70
     1
102
RTVSPropertyOp23
 70
     1
102
RTVSPropertyOp24
 70
     1
102
RTVSPropertyOp25
 70
     1
102
RTVSPropertyOp26
 70
     1
102
RTVSPropertyOp27
 70
     1
102
RTVSPropertyOp28
 70
     1
102
RTVSPropertyOp29
 70
     1
102
RTVSPropertyOp30
 70
     1
102
RTVSPropertyOp31
 70
     1
102
RTVSPropertyOp32
 70
     1
102
RTVSPropertyOp33
 70
     1
102
RTVSPropertyOp34
 70
     1
102
RTVSPropertyOp35
 70
     1
102
RTVSPropertyOp36
 70
     1
102
RTVSPropertyOp37
 70
     1
102
RTVSPropertyOp38
 70
     1
102
RTVSPropertyOp39
 70
     1
102
RTVSPropertyOp40
 70
     1
102
RTVSPropertyOp41
 70
     1
102
RTVSPropertyOp42
 70
     1
102
RTVSPropertyOp43
 70
     1
102
RTVSPropertyOp44
 70
     1
102
RTVSPropertyOp45
 70
     1
102
RTVSPropertyOp46
 70
     1
102
RTVSPropertyOp47
 70
     1
102
RTVSPropertyOp48
 70
     1
102
RTVSPropertyOp49
 70
     1
102
RTVSPropertyOp50
 70
     1
102
RTVSPropertyOp51
 70
     0
102
RTVSPropertyOp52
 70
     0
102
RTVSPropertyOp53
 70
     1
102
RTVSPropertyOp54
 70
     1
102
RTVSPropertyOp55
 70
     1
102
RTVSPropertyOp56
 70
     1
102
RTVSPropertyOp57
 70
     1
102
RTVSPost2010Prop28
280
     0
102
RTVSPost2010PropOp28
 70
     1
102
RTVSPost2010Prop29
280
     1
102
RTVSPost2010PropOp29
 70
     1
102
RTVSPost2010Prop30
280
     1
102
RTVSPost2010PropOp30
 70
     1
102
RTVSPost2010Prop31
280
     0
102
RTVSPost2010PropOp31
 70
     1
102
RTVSPost2010Prop32
280
     0
102
RTVSPost2010PropOp32
 70
     1
102
RTVSPost2010Prop33
280
     0
102
RTVSPost2010PropOp33
 70
     1
102
RTVSPost2010Prop34
280
     0
102
RTVSPost2010PropOp34
 70
     1
102
RTVSPost2010Prop35
280
     0
102
RTVSPost2010PropOp35
 70
     1
102
RTVSPost2010Prop36
280
     0
102
RTVSPost2010PropOp36
 70
     1
102
RTVSPost2010Prop37
 90
       50
102
RTVSPost2010PropOp37
 70
     1
102
RTVSPost2010Prop38
140
0.0
102
RTVSPost2010PropOp38
 70
     1
102
RTVSPost2010Prop39
140
1.0
102
RTVSPost2010PropOp39
 70
     1
102
RTVSPost2010Prop40
 90
        0
102
RTVSPost2010PropOp40
 70
     1
102
RTVSPost2010Prop41ColorIndex
 90
       18
102
RTVSPost2010Prop41ColorRGB
 90
        0
102
RTVSPost2010PropOp41
 70
     1
102
RTVSPost2010Prop42
 90
       50
102
RTVSPost2010PropOp42
 70
     1
102
RTVSPost2010Prop43
 90
        3
102
RTVSPost2010PropOp43
 70
     1
102
RTVSPost2010Prop44ColorIndex
 90
        5
102
RTVSPost2010Prop44ColorRGB
 90
      255
102
RTVSPost2010PropOp44
 70
     1
102
RTVSPost2010Prop45
280
     0
102
RTVSPost2010PropOp45
 70
     1
102
RTVSPost2010Prop46
 90
       50
102
RTVSPost2010PropOp46
 70
     1
102
RTVSPost2010Prop47
 90
       50
102
RTVSPost2010PropOp47
 70
     1
102
RTVSPost2010Prop48
 90
       50
102
RTVSPost2010PropOp48
 70
     1
102
RTVSPost2010Prop49
280
     0
102
RTVSPost2010PropOp49
 70
     1
102
RTVSPost2010Prop50
 90
       50
102
RTVSPost2010PropOp50
 70
     1
102
RTVSPost2010Prop51ColorIndex
 90
      256
102
RTVSPost2010Prop51ColorRGB
 90
-16777216
102
RTVSPost2010PropOp51
 70
     0
102
RTVSPost2010Prop52
140
1.0
102
RTVSPost2010PropOp52
 70
     0
102
RTVSPost2010Prop53
 90
        2
102
RTVSPost2010PropOp53
 70
     1
102
RTVSPost2010Prop54
  1
strokes_ogs.tif
102
RTVSPost2010PropOp54
 70
     1
102
RTVSPost2010Prop55
280
     0
102
RTVSPost2010PropOp55
 70
     1
102
RTVSPost2010Prop56
140
1.0
102
RTVSPost2010PropOp56
 70
     1
102
RTVSPost2010Prop57
140
1.0
102
RTVSPost2010PropOp57
 70
     1
  0
XRECORD
  5
44B
102
{ACAD_REACTORS
330
44A
102
}
330
44A
100
AcDbXrecord
280
     1
102
RTVSPropertyOp0
 70
     1
102
RTVSPropertyOp1
 70
     1
102
RTVSPropertyOp2
 70
     1
102
RTVSPropertyOp3
 70
     1
102
RTVSPropertyOp4
 70
     1
102
RTVSPropertyOp5
 70
     1
102
RTVSPropertyOp6
 70
     1
102
RTVSPropertyOp7
 70
     1
102
RTVSPropertyOp8
 70
     1
102
RTVSPropertyOp9
 70
     1
102
RTVSPropertyOp10
 70
     1
102
RTVSPropertyOp11
 70
     1
102
RTVSPropertyOp12
 70
     1
102
RTVSPropertyOp13
 70
     1
102
RTVSPropertyOp14
 70
     1
102
RTVSPropertyOp15
 70
     1
102
RTVSPropertyOp16
 70
     1
102
RTVSPropertyOp17
 70
     1
102
RTVSPropertyOp18
 70
     1
102
RTVSPropertyOp19
 70
     1
102
RTVSPropertyOp20
 70
     1
102
RTVSPropertyOp21
 70
     1
102
RTVSPropertyOp22
 70
     1
102
RTVSPropertyOp23
 70
     1
102
RTVSPropertyOp24
 70
     1
102
RTVSPropertyOp25
 70
     1
102
RTVSPropertyOp26
 70
     1
102
RTVSPropertyOp27
 70
     1
102
RTVSPropertyOp28
 70
     1
102
RTVSPropertyOp29
 70
     1
102
RTVSPropertyOp30
 70
     1
102
RTVSPropertyOp31
 70
     1
102
RTVSPropertyOp32
 70
     1
102
RTVSPropertyOp33
 70
     1
102
RTVSPropertyOp34
 70
     1
102
RTVSPropertyOp35
 70
     1
102
RTVSPropertyOp36
 70
     1
102
RTVSPropertyOp37
 70
     1
102
RTVSPropertyOp38
 70
     1
102
RTVSPropertyOp39
 70
     1
102
RTVSPropertyOp40
 70
     1
102
RTVSPropertyOp41
 70
     1
102
RTVSPropertyOp42
 70
     1
102
RTVSPropertyOp43
 70
     1
102
RTVSPropertyOp44
 70
     1
102
RTVSPropertyOp45
 70
     1
102
RTVSPropertyOp46
 70
     1
102
RTVSPropertyOp47
 70
     1
102
RTVSPropertyOp48
 70
     1
102
RTVSPropertyOp49
 70
     1
102
RTVSPropertyOp50
 70
     1
102
RTVSPropertyOp51
 70
     0
102
RTVSPropertyOp52
 70
     0
102
RTVSPropertyOp53
 70
     1
102
RTVSPropertyOp54
 70
     1
102
RTVSPropertyOp55
 70
     1
102
RTVSPropertyOp56
 70
     1
102
RTVSPropertyOp57
 70
     1
102
RTVSPost2010Prop28
280
     0
102
RTVSPost2010PropOp28
 70
     1
102
RTVSPost2010Prop29
280
     1
102
RTVSPost2010PropOp29
 70
     1
102
RTVSPost2010Prop30
280
     1
102
RTVSPost2010PropOp30
 70
     1
102
RTVSPost2010Prop31
280
     0
102
RTVSPost2010PropOp31
 70
     1
102
RTVSPost2010Prop32
280
     0
102
RTVSPost2010PropOp32
 70
     1
102
RTVSPost2010Prop33
280
     0
102
RTVSPost2010PropOp33
 70
     1
102
RTVSPost2010Prop34
280
     0
102
RTVSPost2010PropOp34
 70
     1
102
RTVSPost2010Prop35
280
     0
102
RTVSPost2010PropOp35
 70
     1
102
RTVSPost2010Prop36
280
     0
102
RTVSPost2010PropOp36
 70
     1
102
RTVSPost2010Prop37
 90
       50
102
RTVSPost2010PropOp37
 70
     1
102
RTVSPost2010Prop38
140
0.0
102
RTVSPost2010PropOp38
 70
     1
102
RTVSPost2010Prop39
140
1.0
102
RTVSPost2010PropOp39
 70
     1
102
RTVSPost2010Prop40
 90
        0
102
RTVSPost2010PropOp40
 70
     1
102
RTVSPost2010Prop41ColorIndex
 90
       18
102
RTVSPost2010Prop41ColorRGB
 90
        0
102
RTVSPost2010PropOp41
 70
     1
102
RTVSPost2010Prop42
 90
       50
102
RTVSPost2010PropOp42
 70
     1
102
RTVSPost2010Prop43
 90
        3
102
RTVSPost2010PropOp43
 70
     1
102
RTVSPost2010Prop44ColorIndex
 90
        5
102
RTVSPost2010Prop44ColorRGB
 90
      255
102
RTVSPost2010PropOp44
 70
     1
102
RTVSPost2010Prop45
280
     0
102
RTVSPost2010PropOp45
 70
     1
102
RTVSPost2010Prop46
 90
       50
102
RTVSPost2010PropOp46
 70
     1
102
RTVSPost2010Prop47
 90
       50
102
RTVSPost2010PropOp47
 70
     1
102
RTVSPost2010Prop48
 90
       50
102
RTVSPost2010PropOp48
 70
     1
102
RTVSPost2010Prop49
280
     0
102
RTVSPost2010PropOp49
 70
     1
102
RTVSPost2010Prop50
 90
       50
102
RTVSPost2010PropOp50
 70
     1
102
RTVSPost2010Prop51ColorIndex
 90
      256
102
RTVSPost2010Prop51ColorRGB
 90
-16777216
102
RTVSPost2010PropOp51
 70
     0
102
RTVSPost2010Prop52
140
1.0
102
RTVSPost2010PropOp52
 70
     0
102
RTVSPost2010Prop53
 90
        2
102
RTVSPost2010PropOp53
 70
     1
102
RTVSPost2010Prop54
  1
strokes_ogs.tif
102
RTVSPost2010PropOp54
 70
     1
102
RTVSPost2010Prop55
280
     0
102
RTVSPost2010PropOp55
 70
     1
102
RTVSPost2010Prop56
140
1.0
102
RTVSPost2010PropOp56
 70
     1
102
RTVSPost2010Prop57
140
1.0
102
RTVSPost2010PropOp57
 70
     1
  0
XRECORD
  5
45B
102
{ACAD_REACTORS
330
45A
102
}
330
45A
100
AcDbXrecord
280
     1
102
RTVSPropertyOp0
 70
     0
102
RTVSPropertyOp1
 70
     0
102
RTVSPropertyOp2
 70
     0
102
RTVSPropertyOp3
 70
     0
102
RTVSPropertyOp4
 70
     0
102
RTVSPropertyOp5
 70
     0
102
RTVSPropertyOp6
 70
     0
102
RTVSPropertyOp7
 70
     0
102
RTVSPropertyOp8
 70
     0
102
RTVSPropertyOp9
 70
     0
102
RTVSPropertyOp10
 70
     0
102
RTVSPropertyOp11
 70
     0
102
RTVSPropertyOp12
 70
     0
102
RTVSPropertyOp13
 70
     0
102
RTVSPropertyOp14
 70
     2
102
RTVSPropertyOp15
 70
     0
102
RTVSPropertyOp16
 70
     0
102
RTVSPropertyOp17
 70
     0
102
RTVSPropertyOp18
 70
     0
102
RTVSPropertyOp19
 70
     0
102
RTVSPropertyOp20
 70
     0
102
RTVSPropertyOp21
 70
     0
102
RTVSPropertyOp22
 70
     0
102
RTVSPropertyOp23
 70
     0
102
RTVSPropertyOp24
 70
     0
102
RTVSPropertyOp25
 70
     0
102
RTVSPropertyOp26
 70
     0
102
RTVSPropertyOp27
 70
     0
102
RTVSPropertyOp28
 70
     0
102
RTVSPropertyOp29
 70
     0
102
RTVSPropertyOp30
 70
     0
102
RTVSPropertyOp31
 70
     0
102
RTVSPropertyOp32
 70
     0
102
RTVSPropertyOp33
 70
     0
102
RTVSPropertyOp34
 70
     0
102
RTVSPropertyOp35
 70
     0
102
RTVSPropertyOp36
 70
     0
102
RTVSPropertyOp37
 70
     0
102
RTVSPropertyOp38
 70
     0
102
RTVSPropertyOp39
 70
     0
102
RTVSPropertyOp40
 70
     0
102
RTVSPropertyOp41
 70
     0
102
RTVSPropertyOp42
 70
     0
102
RTVSPropertyOp43
 70
     0
102
RTVSPropertyOp44
 70
     0
102
RTVSPropertyOp45
 70
     0
102
RTVSPropertyOp46
 70
     0
102
RTVSPropertyOp47
 70
     0
102
RTVSPropertyOp48
 70
     0
102
RTVSPropertyOp49
 70
     0
102
RTVSPropertyOp50
 70
     0
102
RTVSPropertyOp51
 70
     0
102
RTVSPropertyOp52
 70
     0
102
RTVSPropertyOp53
 70
     0
102
RTVSPropertyOp54
 70
     0
102
RTVSPropertyOp55
 70
     0
102
RTVSPropertyOp56
 70
     0
102
RTVSPropertyOp57
 70
     0
102
RTVSPost2010Prop28
280
     0
102
RTVSPost2010PropOp28
 70
     0
102
RTVSPost2010Prop29
280
     1
102
RTVSPost2010PropOp29
 70
     0
102
RTVSPost2010Prop30
280
     1
102
RTVSPost2010PropOp30
 70
     0
102
RTVSPost2010Prop31
280
     0
102
RTVSPost2010PropOp31
 70
     0
102
RTVSPost2010Prop32
280
     0
102
RTVSPost2010PropOp32
 70
     0
102
RTVSPost2010Prop33
280
     0
102
RTVSPost2010PropOp33
 70
     0
102
RTVSPost2010Prop34
280
     0
102
RTVSPost2010PropOp34
 70
     0
102
RTVSPost2010Prop35
280
     0
102
RTVSPost2010PropOp35
 70
     0
102
RTVSPost2010Prop36
280
     0
102
RTVSPost2010PropOp36
 70
     0
102
RTVSPost2010Prop37
 90
       50
102
RTVSPost2010PropOp37
 70
     0
102
RTVSPost2010Prop38
140
0.0
102
RTVSPost2010PropOp38
 70
     0
102
RTVSPost2010Prop39
140
1.0
102
RTVSPost2010PropOp39
 70
     0
102
RTVSPost2010Prop40
 90
        0
102
RTVSPost2010PropOp40
 70
     0
102
RTVSPost2010Prop41ColorIndex
 90
       18
102
RTVSPost2010Prop41ColorRGB
 90
        0
102
RTVSPost2010PropOp41
 70
     0
102
RTVSPost2010Prop42
 90
       50
102
RTVSPost2010PropOp42
 70
     0
102
RTVSPost2010Prop43
 90
        3
102
RTVSPost2010PropOp43
 70
     0
102
RTVSPost2010Prop44ColorIndex
 90
        5
102
RTVSPost2010Prop44ColorRGB
 90
      255
102
RTVSPost2010PropOp44
 70
     0
102
RTVSPost2010Prop45
280
     0
102
RTVSPost2010PropOp45
 70
     0
102
RTVSPost2010Prop46
 90
       50
102
RTVSPost2010PropOp46
 70
     0
102
RTVSPost2010Prop47
 90
       50
102
RTVSPost2010PropOp47
 70
     0
102
RTVSPost2010Prop48
 90
       50
102
RTVSPost2010PropOp48
 70
     0
102
RTVSPost2010Prop49
280
     0
102
RTVSPost2010PropOp49
 70
     0
102
RTVSPost2010Prop50
 90
       50
102
RTVSPost2010PropOp50
 70
     0
102
RTVSPost2010Prop51ColorIndex
 90
      256
102
RTVSPost2010Prop51ColorRGB
 90
-16777216
102
RTVSPost2010PropOp51
 70
     0
102
RTVSPost2010Prop52
140
1.0
102
RTVSPost2010PropOp52
 70
     0
102
RTVSPost2010Prop53
 90
        2
102
RTVSPost2010PropOp53
 70
     0
102
RTVSPost2010Prop54
  1
strokes_ogs.tif
102
RTVSPost2010PropOp54
 70
     0
102
RTVSPost2010Prop55
280
     0
102
RTVSPost2010PropOp55
 70
     0
102
RTVSPost2010Prop56
140
1.0
102
RTVSPost2010PropOp56
 70
     0
102
RTVSPost2010Prop57
140
1.0
102
RTVSPost2010PropOp57
 70
     0
  0
XRECORD
  5
453
102
{ACAD_REACTORS
330
452
102
}
330
452
100
AcDbXrecord
280
     1
102
RTVSPropertyOp0
 70
     1
102
RTVSPropertyOp1
 70
     1
102
RTVSPropertyOp2
 70
     1
102
RTVSPropertyOp3
 70
     1
102
RTVSPropertyOp4
 70
     1
102
RTVSPropertyOp5
 70
     1
102
RTVSPropertyOp6
 70
     1
102
RTVSPropertyOp7
 70
     1
102
RTVSPropertyOp8
 70
     1
102
RTVSPropertyOp9
 70
     1
102
RTVSPropertyOp10
 70
     1
102
RTVSPropertyOp11
 70
     1
102
RTVSPropertyOp12
 70
     1
102
RTVSPropertyOp13
 70
     1
102
RTVSPropertyOp14
 70
     1
102
RTVSPropertyOp15
 70
     1
102
RTVSPropertyOp16
 70
     1
102
RTVSPropertyOp17
 70
     1
102
RTVSPropertyOp18
 70
     1
102
RTVSPropertyOp19
 70
     1
102
RTVSPropertyOp20
 70
     1
102
RTVSPropertyOp21
 70
     1
102
RTVSPropertyOp22
 70
     1
102
RTVSPropertyOp23
 70
     1
102
RTVSPropertyOp24
 70
     1
102
RTVSPropertyOp25
 70
     1
102
RTVSPropertyOp26
 70
     1
102
RTVSPropertyOp27
 70
     1
102
RTVSPropertyOp28
 70
     1
102
RTVSPropertyOp29
 70
     1
102
RTVSPropertyOp30
 70
     1
102
RTVSPropertyOp31
 70
     1
102
RTVSPropertyOp32
 70
     1
102
RTVSPropertyOp33
 70
     1
102
RTVSPropertyOp34
 70
     1
102
RTVSPropertyOp35
 70
     1
102
RTVSPropertyOp36
 70
     1
102
RTVSPropertyOp37
 70
     1
102
RTVSPropertyOp38
 70
     1
102
RTVSPropertyOp39
 70
     1
102
RTVSPropertyOp40
 70
     1
102
RTVSPropertyOp41
 70
     1
102
RTVSPropertyOp42
 70
     1
102
RTVSPropertyOp43
 70
     1
102
RTVSPropertyOp44
 70
     1
102
RTVSPropertyOp45
 70
     1
102
RTVSPropertyOp46
 70
     1
102
RTVSPropertyOp47
 70
     1
102
RTVSPropertyOp48
 70
     1
102
RTVSPropertyOp49
 70
     1
102
RTVSPropertyOp50
 70
     1
102
RTVSPropertyOp51
 70
     0
102
RTVSPropertyOp52
 70
     0
102
RTVSPropertyOp53
 70
     1
102
RTVSPropertyOp54
 70
     1
102
RTVSPropertyOp55
 70
     1
102
RTVSPropertyOp56
 70
     1
102
RTVSPropertyOp57
 70
     1
102
RTVSPost2010Prop28
280
     0
102
RTVSPost2010PropOp28
 70
     1
102
RTVSPost2010Prop29
280
     1
102
RTVSPost2010PropOp29
 70
     1
102
RTVSPost2010Prop30
280
     1
102
RTVSPost2010PropOp30
 70
     1
102
RTVSPost2010Prop31
280
     0
102
RTVSPost2010PropOp31
 70
     1
102
RTVSPost2010Prop32
280
     0
102
RTVSPost2010PropOp32
 70
     1
102
RTVSPost2010Prop33
280
     0
102
RTVSPost2010PropOp33
 70
     1
102
RTVSPost2010Prop34
280
     0
102
RTVSPost2010PropOp34
 70
     1
102
RTVSPost2010Prop35
280
     0
102
RTVSPost2010PropOp35
 70
     1
102
RTVSPost2010Prop36
280
     0
102
RTVSPost2010PropOp36
 70
     1
102
RTVSPost2010Prop37
 90
       50
102
RTVSPost2010PropOp37
 70
     1
102
RTVSPost2010Prop38
140
0.0
102
RTVSPost2010PropOp38
 70
     1
102
RTVSPost2010Prop39
140
1.0
102
RTVSPost2010PropOp39
 70
     1
102
RTVSPost2010Prop40
 90
        0
102
RTVSPost2010PropOp40
 70
     1
102
RTVSPost2010Prop41ColorIndex
 90
       18
102
RTVSPost2010Prop41ColorRGB
 90
        0
102
RTVSPost2010PropOp41
 70
     1
102
RTVSPost2010Prop42
 90
       50
102
RTVSPost2010PropOp42
 70
     1
102
RTVSPost2010Prop43
 90
        3
102
RTVSPost2010PropOp43
 70
     1
102
RTVSPost2010Prop44ColorIndex
 90
        5
102
RTVSPost2010Prop44ColorRGB
 90
      255
102
RTVSPost2010PropOp44
 70
     1
102
RTVSPost2010Prop45
280
     0
102
RTVSPost2010PropOp45
 70
     1
102
RTVSPost2010Prop46
 90
       50
102
RTVSPost2010PropOp46
 70
     1
102
RTVSPost2010Prop47
 90
       50
102
RTVSPost2010PropOp47
 70
     1
102
RTVSPost2010Prop48
 90
       50
102
RTVSPost2010PropOp48
 70
     1
102
RTVSPost2010Prop49
280
     0
102
RTVSPost2010PropOp49
 70
     1
102
RTVSPost2010Prop50
 90
       50
102
RTVSPost2010PropOp50
 70
     1
102
RTVSPost2010Prop51ColorIndex
 90
      256
102
RTVSPost2010Prop51ColorRGB
 90
-16777216
102
RTVSPost2010PropOp51
 70
     0
102
RTVSPost2010Prop52
140
1.0
102
RTVSPost2010PropOp52
 70
     0
102
RTVSPost2010Prop53
 90
        2
102
RTVSPost2010PropOp53
 70
     1
102
RTVSPost2010Prop54
  1
strokes_ogs.tif
102
RTVSPost2010PropOp54
 70
     1
102
RTVSPost2010Prop55
280
     0
102
RTVSPost2010PropOp55
 70
     1
102
RTVSPost2010Prop56
140
1.0
102
RTVSPost2010PropOp56
 70
     1
102
RTVSPost2010Prop57
140
1.0
102
RTVSPost2010PropOp57
 70
     1
  0
XRECORD
  5
437
102
{ACAD_REACTORS
330
436
102
}
330
436
100
AcDbXrecord
280
     1
102
RTVSPropertyOp0
 70
     1
102
RTVSPropertyOp1
 70
     1
102
RTVSPropertyOp2
 70
     1
102
RTVSPropertyOp3
 70
     1
102
RTVSPropertyOp4
 70
     1
102
RTVSPropertyOp5
 70
     1
102
RTVSPropertyOp6
 70
     1
102
RTVSPropertyOp7
 70
     1
102
RTVSPropertyOp8
 70
     1
102
RTVSPropertyOp9
 70
     1
102
RTVSPropertyOp10
 70
     1
102
RTVSPropertyOp11
 70
     1
102
RTVSPropertyOp12
 70
     1
102
RTVSPropertyOp13
 70
     1
102
RTVSPropertyOp14
 70
     1
102
RTVSPropertyOp15
 70
     1
102
RTVSPropertyOp16
 70
     1
102
RTVSPropertyOp17
 70
     1
102
RTVSPropertyOp18
 70
     1
102
RTVSPropertyOp19
 70
     1
102
RTVSPropertyOp20
 70
     1
102
RTVSPropertyOp21
 70
     1
102
RTVSPropertyOp22
 70
     1
102
RTVSPropertyOp23
 70
     1
102
RTVSPropertyOp24
 70
     1
102
RTVSPropertyOp25
 70
     1
102
RTVSPropertyOp26
 70
     1
102
RTVSPropertyOp27
 70
     1
102
RTVSPropertyOp28
 70
     1
102
RTVSPropertyOp29
 70
     1
102
RTVSPropertyOp30
 70
     1
102
RTVSPropertyOp31
 70
     1
102
RTVSPropertyOp32
 70
     1
102
RTVSPropertyOp33
 70
     1
102
RTVSPropertyOp34
 70
     1
102
RTVSPropertyOp35
 70
     1
102
RTVSPropertyOp36
 70
     1
102
RTVSPropertyOp37
 70
     1
102
RTVSPropertyOp38
 70
     1
102
RTVSPropertyOp39
 70
     1
102
RTVSPropertyOp40
 70
     1
102
RTVSPropertyOp41
 70
     1
102
RTVSPropertyOp42
 70
     1
102
RTVSPropertyOp43
 70
     1
102
RTVSPropertyOp44
 70
     1
102
RTVSPropertyOp45
 70
     1
102
RTVSPropertyOp46
 70
     1
102
RTVSPropertyOp47
 70
     1
102
RTVSPropertyOp48
 70
     1
102
RTVSPropertyOp49
 70
     1
102
RTVSPropertyOp50
 70
     1
102
RTVSPropertyOp51
 70
     0
102
RTVSPropertyOp52
 70
     0
102
RTVSPropertyOp53
 70
     1
102
RTVSPropertyOp54
 70
     1
102
RTVSPropertyOp55
 70
     1
102
RTVSPropertyOp56
 70
     1
102
RTVSPropertyOp57
 70
     1
102
RTVSPost2010Prop28
280
     0
102
RTVSPost2010PropOp28
 70
     1
102
RTVSPost2010Prop29
280
     1
102
RTVSPost2010PropOp29
 70
     1
102
RTVSPost2010Prop30
280
     1
102
RTVSPost2010PropOp30
 70
     1
102
RTVSPost2010Prop31
280
     0
102
RTVSPost2010PropOp31
 70
     1
102
RTVSPost2010Prop32
280
     0
102
RTVSPost2010PropOp32
 70
     1
102
RTVSPost2010Prop33
280
     0
102
RTVSPost2010PropOp33
 70
     1
102
RTVSPost2010Prop34
280
     0
102
RTVSPost2010PropOp34
 70
     1
102
RTVSPost2010Prop35
280
     0
102
RTVSPost2010PropOp35
 70
     1
102
RTVSPost2010Prop36
280
     0
102
RTVSPost2010PropOp36
 70
     1
102
RTVSPost2010Prop37
 90
       50
102
RTVSPost2010PropOp37
 70
     1
102
RTVSPost2010Prop38
140
0.0
102
RTVSPost2010PropOp38
 70
     1
102
RTVSPost2010Prop39
140
1.0
102
RTVSPost2010PropOp39
 70
     1
102
RTVSPost2010Prop40
 90
        0
102
RTVSPost2010PropOp40
 70
     1
102
RTVSPost2010Prop41ColorIndex
 90
       18
102
RTVSPost2010Prop41ColorRGB
 90
        0
102
RTVSPost2010PropOp41
 70
     1
102
RTVSPost2010Prop42
 90
       50
102
RTVSPost2010PropOp42
 70
     1
102
RTVSPost2010Prop43
 90
        3
102
RTVSPost2010PropOp43
 70
     1
102
RTVSPost2010Prop44ColorIndex
 90
        5
102
RTVSPost2010Prop44ColorRGB
 90
      255
102
RTVSPost2010PropOp44
 70
     1
102
RTVSPost2010Prop45
280
     0
102
RTVSPost2010PropOp45
 70
     1
102
RTVSPost2010Prop46
 90
       50
102
RTVSPost2010PropOp46
 70
     1
102
RTVSPost2010Prop47
 90
       50
102
RTVSPost2010PropOp47
 70
     1
102
RTVSPost2010Prop48
 90
       50
102
RTVSPost2010PropOp48
 70
     1
102
RTVSPost2010Prop49
280
     0
102
RTVSPost2010PropOp49
 70
     1
102
RTVSPost2010Prop50
 90
       50
102
RTVSPost2010PropOp50
 70
     1
102
RTVSPost2010Prop51ColorIndex
 90
      256
102
RTVSPost2010Prop51ColorRGB
 90
-16777216
102
RTVSPost2010PropOp51
 70
     0
102
RTVSPost2010Prop52
140
1.0
102
RTVSPost2010PropOp52
 70
     0
102
RTVSPost2010Prop53
 90
        2
102
RTVSPost2010PropOp53
 70
     1
102
RTVSPost2010Prop54
  1
strokes_ogs.tif
102
RTVSPost2010PropOp54
 70
     1
102
RTVSPost2010Prop55
280
     0
102
RTVSPost2010PropOp55
 70
     1
102
RTVSPost2010Prop56
140
1.0
102
RTVSPost2010PropOp56
 70
     1
102
RTVSPost2010Prop57
140
1.0
102
RTVSPost2010PropOp57
 70
     1
  0
XRECORD
  5
439
102
{ACAD_REACTORS
330
438
102
}
330
438
100
AcDbXrecord
280
     1
102
RTVSPropertyOp0
 70
     1
102
RTVSPropertyOp1
 70
     1
102
RTVSPropertyOp2
 70
     1
102
RTVSPropertyOp3
 70
     1
102
RTVSPropertyOp4
 70
     1
102
RTVSPropertyOp5
 70
     1
102
RTVSPropertyOp6
 70
     1
102
RTVSPropertyOp7
 70
     1
102
RTVSPropertyOp8
 70
     1
102
RTVSPropertyOp9
 70
     1
102
RTVSPropertyOp10
 70
     1
102
RTVSPropertyOp11
 70
     1
102
RTVSPropertyOp12
 70
     1
102
RTVSPropertyOp13
 70
     1
102
RTVSPropertyOp14
 70
     1
102
RTVSPropertyOp15
 70
     1
102
RTVSPropertyOp16
 70
     1
102
RTVSPropertyOp17
 70
     1
102
RTVSPropertyOp18
 70
     1
102
RTVSPropertyOp19
 70
     1
102
RTVSPropertyOp20
 70
     1
102
RTVSPropertyOp21
 70
     1
102
RTVSPropertyOp22
 70
     1
102
RTVSPropertyOp23
 70
     1
102
RTVSPropertyOp24
 70
     1
102
RTVSPropertyOp25
 70
     1
102
RTVSPropertyOp26
 70
     1
102
RTVSPropertyOp27
 70
     1
102
RTVSPropertyOp28
 70
     1
102
RTVSPropertyOp29
 70
     1
102
RTVSPropertyOp30
 70
     1
102
RTVSPropertyOp31
 70
     1
102
RTVSPropertyOp32
 70
     1
102
RTVSPropertyOp33
 70
     1
102
RTVSPropertyOp34
 70
     1
102
RTVSPropertyOp35
 70
     1
102
RTVSPropertyOp36
 70
     1
102
RTVSPropertyOp37
 70
     1
102
RTVSPropertyOp38
 70
     1
102
RTVSPropertyOp39
 70
     1
102
RTVSPropertyOp40
 70
     1
102
RTVSPropertyOp41
 70
     1
102
RTVSPropertyOp42
 70
     1
102
RTVSPropertyOp43
 70
     1
102
RTVSPropertyOp44
 70
     1
102
RTVSPropertyOp45
 70
     1
102
RTVSPropertyOp46
 70
     1
102
RTVSPropertyOp47
 70
     1
102
RTVSPropertyOp48
 70
     1
102
RTVSPropertyOp49
 70
     1
102
RTVSPropertyOp50
 70
     1
102
RTVSPropertyOp51
 70
     0
102
RTVSPropertyOp52
 70
     0
102
RTVSPropertyOp53
 70
     1
102
RTVSPropertyOp54
 70
     1
102
RTVSPropertyOp55
 70
     1
102
RTVSPropertyOp56
 70
     1
102
RTVSPropertyOp57
 70
     1
102
RTVSPost2010Prop28
280
     0
102
RTVSPost2010PropOp28
 70
     1
102
RTVSPost2010Prop29
280
     1
102
RTVSPost2010PropOp29
 70
     1
102
RTVSPost2010Prop30
280
     1
102
RTVSPost2010PropOp30
 70
     1
102
RTVSPost2010Prop31
280
     0
102
RTVSPost2010PropOp31
 70
     1
102
RTVSPost2010Prop32
280
     0
102
RTVSPost2010PropOp32
 70
     1
102
RTVSPost2010Prop33
280
     0
102
RTVSPost2010PropOp33
 70
     1
102
RTVSPost2010Prop34
280
     0
102
RTVSPost2010PropOp34
 70
     1
102
RTVSPost2010Prop35
280
     0
102
RTVSPost2010PropOp35
 70
     1
102
RTVSPost2010Prop36
280
     0
102
RTVSPost2010PropOp36
 70
     1
102
RTVSPost2010Prop37
 90
       50
102
RTVSPost2010PropOp37
 70
     1
102
RTVSPost2010Prop38
140
0.0
102
RTVSPost2010PropOp38
 70
     1
102
RTVSPost2010Prop39
140
1.0
102
RTVSPost2010PropOp39
 70
     1
102
RTVSPost2010Prop40
 90
        0
102
RTVSPost2010PropOp40
 70
     1
102
RTVSPost2010Prop41ColorIndex
 90
       18
102
RTVSPost2010Prop41ColorRGB
 90
        0
102
RTVSPost2010PropOp41
 70
     1
102
RTVSPost2010Prop42
 90
       50
102
RTVSPost2010PropOp42
 70
     1
102
RTVSPost2010Prop43
 90
        3
102
RTVSPost2010PropOp43
 70
     1
102
RTVSPost2010Prop44ColorIndex
 90
        5
102
RTVSPost2010Prop44ColorRGB
 90
      255
102
RTVSPost2010PropOp44
 70
     1
102
RTVSPost2010Prop45
280
     0
102
RTVSPost2010PropOp45
 70
     1
102
RTVSPost2010Prop46
 90
       50
102
RTVSPost2010PropOp46
 70
     1
102
RTVSPost2010Prop47
 90
       50
102
RTVSPost2010PropOp47
 70
     1
102
RTVSPost2010Prop48
 90
       50
102
RTVSPost2010PropOp48
 70
     1
102
RTVSPost2010Prop49
280
     0
102
RTVSPost2010PropOp49
 70
     1
102
RTVSPost2010Prop50
 90
       50
102
RTVSPost2010PropOp50
 70
     1
102
RTVSPost2010Prop51ColorIndex
 90
      256
102
RTVSPost2010Prop51ColorRGB
 90
-16777216
102
RTVSPost2010PropOp51
 70
     0
102
RTVSPost2010Prop52
140
1.0
102
RTVSPost2010PropOp52
 70
     0
102
RTVSPost2010Prop53
 90
        2
102
RTVSPost2010PropOp53
 70
     1
102
RTVSPost2010Prop54
  1
strokes_ogs.tif
102
RTVSPost2010PropOp54
 70
     1
102
RTVSPost2010Prop55
280
     0
102
RTVSPost2010PropOp55
 70
     1
102
RTVSPost2010Prop56
140
1.0
102
RTVSPost2010PropOp56
 70
     1
102
RTVSPost2010Prop57
140
1.0
102
RTVSPost2010PropOp57
 70
     1
  0
XRECORD
  5
43B
102
{ACAD_REACTORS
330
43A
102
}
330
43A
100
AcDbXrecord
280
     1
102
RTVSPropertyOp0
 70
     1
102
RTVSPropertyOp1
 70
     1
102
RTVSPropertyOp2
 70
     1
102
RTVSPropertyOp3
 70
     1
102
RTVSPropertyOp4
 70
     1
102
RTVSPropertyOp5
 70
     1
102
RTVSPropertyOp6
 70
     1
102
RTVSPropertyOp7
 70
     1
102
RTVSPropertyOp8
 70
     1
102
RTVSPropertyOp9
 70
     1
102
RTVSPropertyOp10
 70
     1
102
RTVSPropertyOp11
 70
     1
102
RTVSPropertyOp12
 70
     1
102
RTVSPropertyOp13
 70
     1
102
RTVSPropertyOp14
 70
     1
102
RTVSPropertyOp15
 70
     1
102
RTVSPropertyOp16
 70
     1
102
RTVSPropertyOp17
 70
     1
102
RTVSPropertyOp18
 70
     1
102
RTVSPropertyOp19
 70
     1
102
RTVSPropertyOp20
 70
     1
102
RTVSPropertyOp21
 70
     1
102
RTVSPropertyOp22
 70
     1
102
RTVSPropertyOp23
 70
     1
102
RTVSPropertyOp24
 70
     1
102
RTVSPropertyOp25
 70
     1
102
RTVSPropertyOp26
 70
     1
102
RTVSPropertyOp27
 70
     1
102
RTVSPropertyOp28
 70
     1
102
RTVSPropertyOp29
 70
     1
102
RTVSPropertyOp30
 70
     1
102
RTVSPropertyOp31
 70
     1
102
RTVSPropertyOp32
 70
     1
102
RTVSPropertyOp33
 70
     1
102
RTVSPropertyOp34
 70
     1
102
RTVSPropertyOp35
 70
     1
102
RTVSPropertyOp36
 70
     1
102
RTVSPropertyOp37
 70
     1
102
RTVSPropertyOp38
 70
     1
102
RTVSPropertyOp39
 70
     1
102
RTVSPropertyOp40
 70
     1
102
RTVSPropertyOp41
 70
     1
102
RTVSPropertyOp42
 70
     1
102
RTVSPropertyOp43
 70
     1
102
RTVSPropertyOp44
 70
     1
102
RTVSPropertyOp45
 70
     1
102
RTVSPropertyOp46
 70
     1
102
RTVSPropertyOp47
 70
     1
102
RTVSPropertyOp48
 70
     1
102
RTVSPropertyOp49
 70
     1
102
RTVSPropertyOp50
 70
     1
102
RTVSPropertyOp51
 70
     0
102
RTVSPropertyOp52
 70
     0
102
RTVSPropertyOp53
 70
     1
102
RTVSPropertyOp54
 70
     1
102
RTVSPropertyOp55
 70
     1
102
RTVSPropertyOp56
 70
     1
102
RTVSPropertyOp57
 70
     1
102
RTVSPost2010Prop28
280
     0
102
RTVSPost2010PropOp28
 70
     1
102
RTVSPost2010Prop29
280
     1
102
RTVSPost2010PropOp29
 70
     1
102
RTVSPost2010Prop30
280
     1
102
RTVSPost2010PropOp30
 70
     1
102
RTVSPost2010Prop31
280
     0
102
RTVSPost2010PropOp31
 70
     1
102
RTVSPost2010Prop32
280
     0
102
RTVSPost2010PropOp32
 70
     1
102
RTVSPost2010Prop33
280
     0
102
RTVSPost2010PropOp33
 70
     1
102
RTVSPost2010Prop34
280
     0
102
RTVSPost2010PropOp34
 70
     1
102
RTVSPost2010Prop35
280
     0
102
RTVSPost2010PropOp35
 70
     1
102
RTVSPost2010Prop36
280
     0
102
RTVSPost2010PropOp36
 70
     1
102
RTVSPost2010Prop37
 90
       50
102
RTVSPost2010PropOp37
 70
     1
102
RTVSPost2010Prop38
140
0.0
102
RTVSPost2010PropOp38
 70
     1
102
RTVSPost2010Prop39
140
1.0
102
RTVSPost2010PropOp39
 70
     1
102
RTVSPost2010Prop40
 90
        0
102
RTVSPost2010PropOp40
 70
     1
102
RTVSPost2010Prop41ColorIndex
 90
       18
102
RTVSPost2010Prop41ColorRGB
 90
        0
102
RTVSPost2010PropOp41
 70
     1
102
RTVSPost2010Prop42
 90
       50
102
RTVSPost2010PropOp42
 70
     1
102
RTVSPost2010Prop43
 90
        3
102
RTVSPost2010PropOp43
 70
     1
102
RTVSPost2010Prop44ColorIndex
 90
        5
102
RTVSPost2010Prop44ColorRGB
 90
      255
102
RTVSPost2010PropOp44
 70
     1
102
RTVSPost2010Prop45
280
     0
102
RTVSPost2010PropOp45
 70
     1
102
RTVSPost2010Prop46
 90
       50
102
RTVSPost2010PropOp46
 70
     1
102
RTVSPost2010Prop47
 90
       50
102
RTVSPost2010PropOp47
 70
     1
102
RTVSPost2010Prop48
 90
       50
102
RTVSPost2010PropOp48
 70
     1
102
RTVSPost2010Prop49
280
     0
102
RTVSPost2010PropOp49
 70
     1
102
RTVSPost2010Prop50
 90
       50
102
RTVSPost2010PropOp50
 70
     1
102
RTVSPost2010Prop51ColorIndex
 90
      256
102
RTVSPost2010Prop51ColorRGB
 90
-16777216
102
RTVSPost2010PropOp51
 70
     0
102
RTVSPost2010Prop52
140
1.0
102
RTVSPost2010PropOp52
 70
     0
102
RTVSPost2010Prop53
 90
        2
102
RTVSPost2010PropOp53
 70
     1
102
RTVSPost2010Prop54
  1
strokes_ogs.tif
102
RTVSPost2010PropOp54
 70
     1
102
RTVSPost2010Prop55
280
     0
102
RTVSPost2010PropOp55
 70
     1
102
RTVSPost2010Prop56
140
1.0
102
RTVSPost2010PropOp56
 70
     1
102
RTVSPost2010Prop57
140
1.0
102
RTVSPost2010PropOp57
 70
     1
  0
XRECORD
  5
43D
102
{ACAD_REACTORS
330
43C
102
}
330
43C
100
AcDbXrecord
280
     1
102
RTVSPropertyOp0
 70
     1
102
RTVSPropertyOp1
 70
     1
102
RTVSPropertyOp2
 70
     1
102
RTVSPropertyOp3
 70
     1
102
RTVSPropertyOp4
 70
     1
102
RTVSPropertyOp5
 70
     1
102
RTVSPropertyOp6
 70
     1
102
RTVSPropertyOp7
 70
     1
102
RTVSPropertyOp8
 70
     1
102
RTVSPropertyOp9
 70
     1
102
RTVSPropertyOp10
 70
     1
102
RTVSPropertyOp11
 70
     1
102
RTVSPropertyOp12
 70
     1
102
RTVSPropertyOp13
 70
     1
102
RTVSPropertyOp14
 70
     1
102
RTVSPropertyOp15
 70
     1
102
RTVSPropertyOp16
 70
     1
102
RTVSPropertyOp17
 70
     1
102
RTVSPropertyOp18
 70
     1
102
RTVSPropertyOp19
 70
     1
102
RTVSPropertyOp20
 70
     1
102
RTVSPropertyOp21
 70
     1
102
RTVSPropertyOp22
 70
     1
102
RTVSPropertyOp23
 70
     1
102
RTVSPropertyOp24
 70
     1
102
RTVSPropertyOp25
 70
     1
102
RTVSPropertyOp26
 70
     1
102
RTVSPropertyOp27
 70
     1
102
RTVSPropertyOp28
 70
     1
102
RTVSPropertyOp29
 70
     1
102
RTVSPropertyOp30
 70
     1
102
RTVSPropertyOp31
 70
     1
102
RTVSPropertyOp32
 70
     1
102
RTVSPropertyOp33
 70
     1
102
RTVSPropertyOp34
 70
     1
102
RTVSPropertyOp35
 70
     1
102
RTVSPropertyOp36
 70
     1
102
RTVSPropertyOp37
 70
     1
102
RTVSPropertyOp38
 70
     1
102
RTVSPropertyOp39
 70
     1
102
RTVSPropertyOp40
 70
     1
102
RTVSPropertyOp41
 70
     1
102
RTVSPropertyOp42
 70
     1
102
RTVSPropertyOp43
 70
     1
102
RTVSPropertyOp44
 70
     1
102
RTVSPropertyOp45
 70
     1
102
RTVSPropertyOp46
 70
     1
102
RTVSPropertyOp47
 70
     1
102
RTVSPropertyOp48
 70
     1
102
RTVSPropertyOp49
 70
     1
102
RTVSPropertyOp50
 70
     1
102
RTVSPropertyOp51
 70
     0
102
RTVSPropertyOp52
 70
     0
102
RTVSPropertyOp53
 70
     1
102
RTVSPropertyOp54
 70
     1
102
RTVSPropertyOp55
 70
     1
102
RTVSPropertyOp56
 70
     1
102
RTVSPropertyOp57
 70
     1
102
RTVSPost2010Prop28
280
     0
102
RTVSPost2010PropOp28
 70
     1
102
RTVSPost2010Prop29
280
     1
102
RTVSPost2010PropOp29
 70
     1
102
RTVSPost2010Prop30
280
     1
102
RTVSPost2010PropOp30
 70
     1
102
RTVSPost2010Prop31
280
     0
102
RTVSPost2010PropOp31
 70
     1
102
RTVSPost2010Prop32
280
     0
102
RTVSPost2010PropOp32
 70
     1
102
RTVSPost2010Prop33
280
     0
102
RTVSPost2010PropOp33
 70
     1
102
RTVSPost2010Prop34
280
     0
102
RTVSPost2010PropOp34
 70
     1
102
RTVSPost2010Prop35
280
     0
102
RTVSPost2010PropOp35
 70
     1
102
RTVSPost2010Prop36
280
     0
102
RTVSPost2010PropOp36
 70
     1
102
RTVSPost2010Prop37
 90
       50
102
RTVSPost2010PropOp37
 70
     1
102
RTVSPost2010Prop38
140
0.0
102
RTVSPost2010PropOp38
 70
     1
102
RTVSPost2010Prop39
140
1.0
102
RTVSPost2010PropOp39
 70
     1
102
RTVSPost2010Prop40
 90
        0
102
RTVSPost2010PropOp40
 70
     1
102
RTVSPost2010Prop41ColorIndex
 90
       18
102
RTVSPost2010Prop41ColorRGB
 90
        0
102
RTVSPost2010PropOp41
 70
     1
102
RTVSPost2010Prop42
 90
       50
102
RTVSPost2010PropOp42
 70
     1
102
RTVSPost2010Prop43
 90
        3
102
RTVSPost2010PropOp43
 70
     1
102
RTVSPost2010Prop44ColorIndex
 90
        5
102
RTVSPost2010Prop44ColorRGB
 90
      255
102
RTVSPost2010PropOp44
 70
     1
102
RTVSPost2010Prop45
280
     0
102
RTVSPost2010PropOp45
 70
     1
102
RTVSPost2010Prop46
 90
       50
102
RTVSPost2010PropOp46
 70
     1
102
RTVSPost2010Prop47
 90
       50
102
RTVSPost2010PropOp47
 70
     1
102
RTVSPost2010Prop48
 90
       50
102
RTVSPost2010PropOp48
 70
     1
102
RTVSPost2010Prop49
280
     0
102
RTVSPost2010PropOp49
 70
     1
102
RTVSPost2010Prop50
 90
       50
102
RTVSPost2010PropOp50
 70
     1
102
RTVSPost2010Prop51ColorIndex
 90
      256
102
RTVSPost2010Prop51ColorRGB
 90
-16777216
102
RTVSPost2010PropOp51
 70
     0
102
RTVSPost2010Prop52
140
1.0
102
RTVSPost2010PropOp52
 70
     0
102
RTVSPost2010Prop53
 90
        2
102
RTVSPost2010PropOp53
 70
     1
102
RTVSPost2010Prop54
  1
strokes_ogs.tif
102
RTVSPost2010PropOp54
 70
     1
102
RTVSPost2010Prop55
280
     0
102
RTVSPost2010PropOp55
 70
     1
102
RTVSPost2010Prop56
140
1.0
102
RTVSPost2010PropOp56
 70
     1
102
RTVSPost2010Prop57
140
1.0
102
RTVSPost2010PropOp57
 70
     1
  0
XRECORD
  5
443
102
{ACAD_REACTORS
330
442
102
}
330
442
100
AcDbXrecord
280
     1
102
RTVSPropertyOp0
 70
     1
102
RTVSPropertyOp1
 70
     1
102
RTVSPropertyOp2
 70
     1
102
RTVSPropertyOp3
 70
     1
102
RTVSPropertyOp4
 70
     1
102
RTVSPropertyOp5
 70
     1
102
RTVSPropertyOp6
 70
     1
102
RTVSPropertyOp7
 70
     1
102
RTVSPropertyOp8
 70
     1
102
RTVSPropertyOp9
 70
     1
102
RTVSPropertyOp10
 70
     1
102
RTVSPropertyOp11
 70
     1
102
RTVSPropertyOp12
 70
     1
102
RTVSPropertyOp13
 70
     1
102
RTVSPropertyOp14
 70
     1
102
RTVSPropertyOp15
 70
     1
102
RTVSPropertyOp16
 70
     1
102
RTVSPropertyOp17
 70
     1
102
RTVSPropertyOp18
 70
     1
102
RTVSPropertyOp19
 70
     1
102
RTVSPropertyOp20
 70
     1
102
RTVSPropertyOp21
 70
     1
102
RTVSPropertyOp22
 70
     1
102
RTVSPropertyOp23
 70
     1
102
RTVSPropertyOp24
 70
     1
102
RTVSPropertyOp25
 70
     1
102
RTVSPropertyOp26
 70
     1
102
RTVSPropertyOp27
 70
     1
102
RTVSPropertyOp28
 70
     1
102
RTVSPropertyOp29
 70
     1
102
RTVSPropertyOp30
 70
     1
102
RTVSPropertyOp31
 70
     1
102
RTVSPropertyOp32
 70
     1
102
RTVSPropertyOp33
 70
     1
102
RTVSPropertyOp34
 70
     1
102
RTVSPropertyOp35
 70
     1
102
RTVSPropertyOp36
 70
     1
102
RTVSPropertyOp37
 70
     1
102
RTVSPropertyOp38
 70
     1
102
RTVSPropertyOp39
 70
     1
102
RTVSPropertyOp40
 70
     1
102
RTVSPropertyOp41
 70
     1
102
RTVSPropertyOp42
 70
     1
102
RTVSPropertyOp43
 70
     1
102
RTVSPropertyOp44
 70
     1
102
RTVSPropertyOp45
 70
     1
102
RTVSPropertyOp46
 70
     1
102
RTVSPropertyOp47
 70
     1
102
RTVSPropertyOp48
 70
     1
102
RTVSPropertyOp49
 70
     1
102
RTVSPropertyOp50
 70
     1
102
RTVSPropertyOp51
 70
     0
102
RTVSPropertyOp52
 70
     0
102
RTVSPropertyOp53
 70
     1
102
RTVSPropertyOp54
 70
     1
102
RTVSPropertyOp55
 70
     1
102
RTVSPropertyOp56
 70
     1
102
RTVSPropertyOp57
 70
     1
102
RTVSPost2010Prop28
280
     0
102
RTVSPost2010PropOp28
 70
     1
102
RTVSPost2010Prop29
280
     1
102
RTVSPost2010PropOp29
 70
     1
102
RTVSPost2010Prop30
280
     1
102
RTVSPost2010PropOp30
 70
     1
102
RTVSPost2010Prop31
280
     0
102
RTVSPost2010PropOp31
 70
     1
102
RTVSPost2010Prop32
280
     0
102
RTVSPost2010PropOp32
 70
     1
102
RTVSPost2010Prop33
280
     0
102
RTVSPost2010PropOp33
 70
     1
102
RTVSPost2010Prop34
280
     0
102
RTVSPost2010PropOp34
 70
     1
102
RTVSPost2010Prop35
280
     0
102
RTVSPost2010PropOp35
 70
     1
102
RTVSPost2010Prop36
280
     0
102
RTVSPost2010PropOp36
 70
     1
102
RTVSPost2010Prop37
 90
       50
102
RTVSPost2010PropOp37
 70
     1
102
RTVSPost2010Prop38
140
0.0
102
RTVSPost2010PropOp38
 70
     1
102
RTVSPost2010Prop39
140
1.0
102
RTVSPost2010PropOp39
 70
     1
102
RTVSPost2010Prop40
 90
        0
102
RTVSPost2010PropOp40
 70
     1
102
RTVSPost2010Prop41ColorIndex
 90
       18
102
RTVSPost2010Prop41ColorRGB
 90
        0
102
RTVSPost2010PropOp41
 70
     1
102
RTVSPost2010Prop42
 90
       50
102
RTVSPost2010PropOp42
 70
     1
102
RTVSPost2010Prop43
 90
        3
102
RTVSPost2010PropOp43
 70
     1
102
RTVSPost2010Prop44ColorIndex
 90
        5
102
RTVSPost2010Prop44ColorRGB
 90
      255
102
RTVSPost2010PropOp44
 70
     1
102
RTVSPost2010Prop45
280
     0
102
RTVSPost2010PropOp45
 70
     1
102
RTVSPost2010Prop46
 90
       50
102
RTVSPost2010PropOp46
 70
     1
102
RTVSPost2010Prop47
 90
       50
102
RTVSPost2010PropOp47
 70
     1
102
RTVSPost2010Prop48
 90
       50
102
RTVSPost2010PropOp48
 70
     1
102
RTVSPost2010Prop49
280
     0
102
RTVSPost2010PropOp49
 70
     1
102
RTVSPost2010Prop50
 90
       50
102
RTVSPost2010PropOp50
 70
     1
102
RTVSPost2010Prop51ColorIndex
 90
      256
102
RTVSPost2010Prop51ColorRGB
 90
-16777216
102
RTVSPost2010PropOp51
 70
     0
102
RTVSPost2010Prop52
140
1.0
102
RTVSPost2010PropOp52
 70
     0
102
RTVSPost2010Prop53
 90
        2
102
RTVSPost2010PropOp53
 70
     1
102
RTVSPost2010Prop54
  1
strokes_ogs.tif
102
RTVSPost2010PropOp54
 70
     1
102
RTVSPost2010Prop55
280
     0
102
RTVSPost2010PropOp55
 70
     1
102
RTVSPost2010Prop56
140
1.0
102
RTVSPost2010PropOp56
 70
     1
102
RTVSPost2010Prop57
140
1.0
102
RTVSPost2010PropOp57
 70
     1
  0
XRECORD
  5
457
102
{ACAD_REACTORS
330
456
102
}
330
456
100
AcDbXrecord
280
     1
102
RTVSPropertyOp0
 70
     0
102
RTVSPropertyOp1
 70
     0
102
RTVSPropertyOp2
 70
     0
102
RTVSPropertyOp3
 70
     0
102
RTVSPropertyOp4
 70
     0
102
RTVSPropertyOp5
 70
     0
102
RTVSPropertyOp6
 70
     0
102
RTVSPropertyOp7
 70
     0
102
RTVSPropertyOp8
 70
     0
102
RTVSPropertyOp9
 70
     0
102
RTVSPropertyOp10
 70
     0
102
RTVSPropertyOp11
 70
     0
102
RTVSPropertyOp12
 70
     0
102
RTVSPropertyOp13
 70
     0
102
RTVSPropertyOp14
 70
     2
102
RTVSPropertyOp15
 70
     0
102
RTVSPropertyOp16
 70
     0
102
RTVSPropertyOp17
 70
     0
102
RTVSPropertyOp18
 70
     0
102
RTVSPropertyOp19
 70
     0
102
RTVSPropertyOp20
 70
     0
102
RTVSPropertyOp21
 70
     0
102
RTVSPropertyOp22
 70
     0
102
RTVSPropertyOp23
 70
     0
102
RTVSPropertyOp24
 70
     0
102
RTVSPropertyOp25
 70
     0
102
RTVSPropertyOp26
 70
     0
102
RTVSPropertyOp27
 70
     0
102
RTVSPropertyOp28
 70
     0
102
RTVSPropertyOp29
 70
     0
102
RTVSPropertyOp30
 70
     0
102
RTVSPropertyOp31
 70
     0
102
RTVSPropertyOp32
 70
     0
102
RTVSPropertyOp33
 70
     0
102
RTVSPropertyOp34
 70
     0
102
RTVSPropertyOp35
 70
     0
102
RTVSPropertyOp36
 70
     0
102
RTVSPropertyOp37
 70
     0
102
RTVSPropertyOp38
 70
     0
102
RTVSPropertyOp39
 70
     0
102
RTVSPropertyOp40
 70
     0
102
RTVSPropertyOp41
 70
     0
102
RTVSPropertyOp42
 70
     0
102
RTVSPropertyOp43
 70
     0
102
RTVSPropertyOp44
 70
     0
102
RTVSPropertyOp45
 70
     0
102
RTVSPropertyOp46
 70
     0
102
RTVSPropertyOp47
 70
     0
102
RTVSPropertyOp48
 70
     0
102
RTVSPropertyOp49
 70
     0
102
RTVSPropertyOp50
 70
     0
102
RTVSPropertyOp51
 70
     0
102
RTVSPropertyOp52
 70
     0
102
RTVSPropertyOp53
 70
     0
102
RTVSPropertyOp54
 70
     0
102
RTVSPropertyOp55
 70
     0
102
RTVSPropertyOp56
 70
     0
102
RTVSPropertyOp57
 70
     0
102
RTVSPost2010Prop28
280
     0
102
RTVSPost2010PropOp28
 70
     0
102
RTVSPost2010Prop29
280
     1
102
RTVSPost2010PropOp29
 70
     0
102
RTVSPost2010Prop30
280
     1
102
RTVSPost2010PropOp30
 70
     0
102
RTVSPost2010Prop31
280
     0
102
RTVSPost2010PropOp31
 70
     0
102
RTVSPost2010Prop32
280
     0
102
RTVSPost2010PropOp32
 70
     0
102
RTVSPost2010Prop33
280
     0
102
RTVSPost2010PropOp33
 70
     0
102
RTVSPost2010Prop34
280
     0
102
RTVSPost2010PropOp34
 70
     0
102
RTVSPost2010Prop35
280
     0
102
RTVSPost2010PropOp35
 70
     0
102
RTVSPost2010Prop36
280
     0
102
RTVSPost2010PropOp36
 70
     0
102
RTVSPost2010Prop37
 90
       50
102
RTVSPost2010PropOp37
 70
     0
102
RTVSPost2010Prop38
140
0.0
102
RTVSPost2010PropOp38
 70
     0
102
RTVSPost2010Prop39
140
1.0
102
RTVSPost2010PropOp39
 70
     0
102
RTVSPost2010Prop40
 90
        0
102
RTVSPost2010PropOp40
 70
     0
102
RTVSPost2010Prop41ColorIndex
 90
       18
102
RTVSPost2010Prop41ColorRGB
 90
        0
102
RTVSPost2010PropOp41
 70
     0
102
RTVSPost2010Prop42
 90
       50
102
RTVSPost2010PropOp42
 70
     0
102
RTVSPost2010Prop43
 90
        3
102
RTVSPost2010PropOp43
 70
     0
102
RTVSPost2010Prop44ColorIndex
 90
        5
102
RTVSPost2010Prop44ColorRGB
 90
      255
102
RTVSPost2010PropOp44
 70
     0
102
RTVSPost2010Prop45
280
     0
102
RTVSPost2010PropOp45
 70
     0
102
RTVSPost2010Prop46
 90
       50
102
RTVSPost2010PropOp46
 70
     0
102
RTVSPost2010Prop47
 90
       50
102
RTVSPost2010PropOp47
 70
     0
102
RTVSPost2010Prop48
 90
       50
102
RTVSPost2010PropOp48
 70
     0
102
RTVSPost2010Prop49
280
     0
102
RTVSPost2010PropOp49
 70
     0
102
RTVSPost2010Prop50
 90
       50
102
RTVSPost2010PropOp50
 70
     0
102
RTVSPost2010Prop51ColorIndex
 90
      256
102
RTVSPost2010Prop51ColorRGB
 90
-16777216
102
RTVSPost2010PropOp51
 70
     0
102
RTVSPost2010Prop52
140
1.0
102
RTVSPost2010PropOp52
 70
     0
102
RTVSPost2010Prop53
 90
        2
102
RTVSPost2010PropOp53
 70
     0
102
RTVSPost2010Prop54
  1
strokes_ogs.tif
102
RTVSPost2010PropOp54
 70
     0
102
RTVSPost2010Prop55
280
     0
102
RTVSPost2010PropOp55
 70
     0
102
RTVSPost2010Prop56
140
1.0
102
RTVSPost2010PropOp56
 70
     0
102
RTVSPost2010Prop57
140
1.0
102
RTVSPost2010PropOp57
 70
     0
  0
XRECORD
  5
451
102
{ACAD_REACTORS
330
450
102
}
330
450
100
AcDbXrecord
280
     1
102
RTVSPropertyOp0
 70
     1
102
RTVSPropertyOp1
 70
     1
102
RTVSPropertyOp2
 70
     1
102
RTVSPropertyOp3
 70
     1
102
RTVSPropertyOp4
 70
     1
102
RTVSPropertyOp5
 70
     1
102
RTVSPropertyOp6
 70
     1
102
RTVSPropertyOp7
 70
     1
102
RTVSPropertyOp8
 70
     1
102
RTVSPropertyOp9
 70
     1
102
RTVSPropertyOp10
 70
     1
102
RTVSPropertyOp11
 70
     1
102
RTVSPropertyOp12
 70
     1
102
RTVSPropertyOp13
 70
     1
102
RTVSPropertyOp14
 70
     1
102
RTVSPropertyOp15
 70
     1
102
RTVSPropertyOp16
 70
     1
102
RTVSPropertyOp17
 70
     1
102
RTVSPropertyOp18
 70
     1
102
RTVSPropertyOp19
 70
     1
102
RTVSPropertyOp20
 70
     1
102
RTVSPropertyOp21
 70
     1
102
RTVSPropertyOp22
 70
     1
102
RTVSPropertyOp23
 70
     1
102
RTVSPropertyOp24
 70
     1
102
RTVSPropertyOp25
 70
     1
102
RTVSPropertyOp26
 70
     1
102
RTVSPropertyOp27
 70
     1
102
RTVSPropertyOp28
 70
     1
102
RTVSPropertyOp29
 70
     1
102
RTVSPropertyOp30
 70
     1
102
RTVSPropertyOp31
 70
     1
102
RTVSPropertyOp32
 70
     1
102
RTVSPropertyOp33
 70
     1
102
RTVSPropertyOp34
 70
     1
102
RTVSPropertyOp35
 70
     1
102
RTVSPropertyOp36
 70
     1
102
RTVSPropertyOp37
 70
     1
102
RTVSPropertyOp38
 70
     1
102
RTVSPropertyOp39
 70
     1
102
RTVSPropertyOp40
 70
     1
102
RTVSPropertyOp41
 70
     1
102
RTVSPropertyOp42
 70
     1
102
RTVSPropertyOp43
 70
     1
102
RTVSPropertyOp44
 70
     1
102
RTVSPropertyOp45
 70
     1
102
RTVSPropertyOp46
 70
     1
102
RTVSPropertyOp47
 70
     1
102
RTVSPropertyOp48
 70
     1
102
RTVSPropertyOp49
 70
     1
102
RTVSPropertyOp50
 70
     1
102
RTVSPropertyOp51
 70
     0
102
RTVSPropertyOp52
 70
     0
102
RTVSPropertyOp53
 70
     1
102
RTVSPropertyOp54
 70
     1
102
RTVSPropertyOp55
 70
     1
102
RTVSPropertyOp56
 70
     1
102
RTVSPropertyOp57
 70
     1
102
RTVSPost2010Prop28
280
     0
102
RTVSPost2010PropOp28
 70
     1
102
RTVSPost2010Prop29
280
     1
102
RTVSPost2010PropOp29
 70
     1
102
RTVSPost2010Prop30
280
     1
102
RTVSPost2010PropOp30
 70
     1
102
RTVSPost2010Prop31
280
     0
102
RTVSPost2010PropOp31
 70
     1
102
RTVSPost2010Prop32
280
     0
102
RTVSPost2010PropOp32
 70
     1
102
RTVSPost2010Prop33
280
     0
102
RTVSPost2010PropOp33
 70
     1
102
RTVSPost2010Prop34
280
     0
102
RTVSPost2010PropOp34
 70
     1
102
RTVSPost2010Prop35
280
     0
102
RTVSPost2010PropOp35
 70
     1
102
RTVSPost2010Prop36
280
     0
102
RTVSPost2010PropOp36
 70
     1
102
RTVSPost2010Prop37
 90
       50
102
RTVSPost2010PropOp37
 70
     1
102
RTVSPost2010Prop38
140
0.0
102
RTVSPost2010PropOp38
 70
     1
102
RTVSPost2010Prop39
140
1.0
102
RTVSPost2010PropOp39
 70
     1
102
RTVSPost2010Prop40
 90
        0
102
RTVSPost2010PropOp40
 70
     1
102
RTVSPost2010Prop41ColorIndex
 90
       18
102
RTVSPost2010Prop41ColorRGB
 90
        0
102
RTVSPost2010PropOp41
 70
     1
102
RTVSPost2010Prop42
 90
       50
102
RTVSPost2010PropOp42
 70
     1
102
RTVSPost2010Prop43
 90
        3
102
RTVSPost2010PropOp43
 70
     1
102
RTVSPost2010Prop44ColorIndex
 90
        5
102
RTVSPost2010Prop44ColorRGB
 90
      255
102
RTVSPost2010PropOp44
 70
     1
102
RTVSPost2010Prop45
280
     0
102
RTVSPost2010PropOp45
 70
     1
102
RTVSPost2010Prop46
 90
       50
102
RTVSPost2010PropOp46
 70
     1
102
RTVSPost2010Prop47
 90
       50
102
RTVSPost2010PropOp47
 70
     1
102
RTVSPost2010Prop48
 90
       50
102
RTVSPost2010PropOp48
 70
     1
102
RTVSPost2010Prop49
280
     0
102
RTVSPost2010PropOp49
 70
     1
102
RTVSPost2010Prop50
 90
       50
102
RTVSPost2010PropOp50
 70
     1
102
RTVSPost2010Prop51ColorIndex
 90
      256
102
RTVSPost2010Prop51ColorRGB
 90
-16777216
102
RTVSPost2010PropOp51
 70
     0
102
RTVSPost2010Prop52
140
1.0
102
RTVSPost2010PropOp52
 70
     0
102
RTVSPost2010Prop53
 90
        2
102
RTVSPost2010PropOp53
 70
     1
102
RTVSPost2010Prop54
  1
strokes_ogs.tif
102
RTVSPost2010PropOp54
 70
     1
102
RTVSPost2010Prop55
280
     0
102
RTVSPost2010PropOp55
 70
     1
102
RTVSPost2010Prop56
140
1.0
102
RTVSPost2010PropOp56
 70
     1
102
RTVSPost2010Prop57
140
1.0
102
RTVSPost2010PropOp57
 70
     1
  0
XRECORD
  5
459
102
{ACAD_REACTORS
330
458
102
}
330
458
100
AcDbXrecord
280
     1
102
RTVSPropertyOp0
 70
     0
102
RTVSPropertyOp1
 70
     0
102
RTVSPropertyOp2
 70
     0
102
RTVSPropertyOp3
 70
     0
102
RTVSPropertyOp4
 70
     0
102
RTVSPropertyOp5
 70
     0
102
RTVSPropertyOp6
 70
     0
102
RTVSPropertyOp7
 70
     0
102
RTVSPropertyOp8
 70
     0
102
RTVSPropertyOp9
 70
     0
102
RTVSPropertyOp10
 70
     0
102
RTVSPropertyOp11
 70
     0
102
RTVSPropertyOp12
 70
     0
102
RTVSPropertyOp13
 70
     0
102
RTVSPropertyOp14
 70
     2
102
RTVSPropertyOp15
 70
     0
102
RTVSPropertyOp16
 70
     0
102
RTVSPropertyOp17
 70
     0
102
RTVSPropertyOp18
 70
     0
102
RTVSPropertyOp19
 70
     0
102
RTVSPropertyOp20
 70
     0
102
RTVSPropertyOp21
 70
     0
102
RTVSPropertyOp22
 70
     0
102
RTVSPropertyOp23
 70
     0
102
RTVSPropertyOp24
 70
     0
102
RTVSPropertyOp25
 70
     0
102
RTVSPropertyOp26
 70
     0
102
RTVSPropertyOp27
 70
     0
102
RTVSPropertyOp28
 70
     0
102
RTVSPropertyOp29
 70
     0
102
RTVSPropertyOp30
 70
     0
102
RTVSPropertyOp31
 70
     0
102
RTVSPropertyOp32
 70
     0
102
RTVSPropertyOp33
 70
     0
102
RTVSPropertyOp34
 70
     0
102
RTVSPropertyOp35
 70
     0
102
RTVSPropertyOp36
 70
     0
102
RTVSPropertyOp37
 70
     0
102
RTVSPropertyOp38
 70
     0
102
RTVSPropertyOp39
 70
     0
102
RTVSPropertyOp40
 70
     0
102
RTVSPropertyOp41
 70
     0
102
RTVSPropertyOp42
 70
     0
102
RTVSPropertyOp43
 70
     0
102
RTVSPropertyOp44
 70
     0
102
RTVSPropertyOp45
 70
     0
102
RTVSPropertyOp46
 70
     0
102
RTVSPropertyOp47
 70
     0
102
RTVSPropertyOp48
 70
     0
102
RTVSPropertyOp49
 70
     0
102
RTVSPropertyOp50
 70
     0
102
RTVSPropertyOp51
 70
     0
102
RTVSPropertyOp52
 70
     0
102
RTVSPropertyOp53
 70
     0
102
RTVSPropertyOp54
 70
     0
102
RTVSPropertyOp55
 70
     0
102
RTVSPropertyOp56
 70
     0
102
RTVSPropertyOp57
 70
     0
102
RTVSPost2010Prop28
280
     0
102
RTVSPost2010PropOp28
 70
     0
102
RTVSPost2010Prop29
280
     1
102
RTVSPost2010PropOp29
 70
     0
102
RTVSPost2010Prop30
280
     1
102
RTVSPost2010PropOp30
 70
     0
102
RTVSPost2010Prop31
280
     0
102
RTVSPost2010PropOp31
 70
     0
102
RTVSPost2010Prop32
280
     0
102
RTVSPost2010PropOp32
 70
     0
102
RTVSPost2010Prop33
280
     0
102
RTVSPost2010PropOp33
 70
     0
102
RTVSPost2010Prop34
280
     0
102
RTVSPost2010PropOp34
 70
     0
102
RTVSPost2010Prop35
280
     0
102
RTVSPost2010PropOp35
 70
     0
102
RTVSPost2010Prop36
280
     0
102
RTVSPost2010PropOp36
 70
     0
102
RTVSPost2010Prop37
 90
       50
102
RTVSPost2010PropOp37
 70
     0
102
RTVSPost2010Prop38
140
0.0
102
RTVSPost2010PropOp38
 70
     0
102
RTVSPost2010Prop39
140
1.0
102
RTVSPost2010PropOp39
 70
     0
102
RTVSPost2010Prop40
 90
        0
102
RTVSPost2010PropOp40
 70
     0
102
RTVSPost2010Prop41ColorIndex
 90
       18
102
RTVSPost2010Prop41ColorRGB
 90
        0
102
RTVSPost2010PropOp41
 70
     0
102
RTVSPost2010Prop42
 90
       50
102
RTVSPost2010PropOp42
 70
     0
102
RTVSPost2010Prop43
 90
        3
102
RTVSPost2010PropOp43
 70
     0
102
RTVSPost2010Prop44ColorIndex
 90
        5
102
RTVSPost2010Prop44ColorRGB
 90
      255
102
RTVSPost2010PropOp44
 70
     0
102
RTVSPost2010Prop45
280
     0
102
RTVSPost2010PropOp45
 70
     0
102
RTVSPost2010Prop46
 90
       50
102
RTVSPost2010PropOp46
 70
     0
102
RTVSPost2010Prop47
 90
       50
102
RTVSPost2010PropOp47
 70
     0
102
RTVSPost2010Prop48
 90
       50
102
RTVSPost2010PropOp48
 70
     0
102
RTVSPost2010Prop49
280
     0
102
RTVSPost2010PropOp49
 70
     0
102
RTVSPost2010Prop50
 90
       50
102
RTVSPost2010PropOp50
 70
     0
102
RTVSPost2010Prop51ColorIndex
 90
      256
102
RTVSPost2010Prop51ColorRGB
 90
-16777216
102
RTVSPost2010PropOp51
 70
     0
102
RTVSPost2010Prop52
140
1.0
102
RTVSPost2010PropOp52
 70
     0
102
RTVSPost2010Prop53
 90
        2
102
RTVSPost2010PropOp53
 70
     0
102
RTVSPost2010Prop54
  1
strokes_ogs.tif
102
RTVSPost2010PropOp54
 70
     0
102
RTVSPost2010Prop55
280
     0
102
RTVSPost2010PropOp55
 70
     0
102
RTVSPost2010Prop56
140
1.0
102
RTVSPost2010PropOp56
 70
     0
102
RTVSPost2010Prop57
140
1.0
102
RTVSPost2010PropOp57
 70
     0
  0
XRECORD
  5
447
102
{ACAD_REACTORS
330
446
102
}
330
446
100
AcDbXrecord
280
     1
102
RTVSPropertyOp0
 70
     1
102
RTVSPropertyOp1
 70
     1
102
RTVSPropertyOp2
 70
     1
102
RTVSPropertyOp3
 70
     1
102
RTVSPropertyOp4
 70
     1
102
RTVSPropertyOp5
 70
     1
102
RTVSPropertyOp6
 70
     1
102
RTVSPropertyOp7
 70
     1
102
RTVSPropertyOp8
 70
     1
102
RTVSPropertyOp9
 70
     1
102
RTVSPropertyOp10
 70
     1
102
RTVSPropertyOp11
 70
     1
102
RTVSPropertyOp12
 70
     1
102
RTVSPropertyOp13
 70
     1
102
RTVSPropertyOp14
 70
     1
102
RTVSPropertyOp15
 70
     1
102
RTVSPropertyOp16
 70
     1
102
RTVSPropertyOp17
 70
     1
102
RTVSPropertyOp18
 70
     1
102
RTVSPropertyOp19
 70
     1
102
RTVSPropertyOp20
 70
     1
102
RTVSPropertyOp21
 70
     1
102
RTVSPropertyOp22
 70
     1
102
RTVSPropertyOp23
 70
     1
102
RTVSPropertyOp24
 70
     1
102
RTVSPropertyOp25
 70
     1
102
RTVSPropertyOp26
 70
     1
102
RTVSPropertyOp27
 70
     1
102
RTVSPropertyOp28
 70
     1
102
RTVSPropertyOp29
 70
     1
102
RTVSPropertyOp30
 70
     1
102
RTVSPropertyOp31
 70
     1
102
RTVSPropertyOp32
 70
     1
102
RTVSPropertyOp33
 70
     1
102
RTVSPropertyOp34
 70
     1
102
RTVSPropertyOp35
 70
     1
102
RTVSPropertyOp36
 70
     1
102
RTVSPropertyOp37
 70
     1
102
RTVSPropertyOp38
 70
     1
102
RTVSPropertyOp39
 70
     1
102
RTVSPropertyOp40
 70
     1
102
RTVSPropertyOp41
 70
     1
102
RTVSPropertyOp42
 70
     1
102
RTVSPropertyOp43
 70
     1
102
RTVSPropertyOp44
 70
     1
102
RTVSPropertyOp45
 70
     1
102
RTVSPropertyOp46
 70
     1
102
RTVSPropertyOp47
 70
     1
102
RTVSPropertyOp48
 70
     1
102
RTVSPropertyOp49
 70
     1
102
RTVSPropertyOp50
 70
     1
102
RTVSPropertyOp51
 70
     0
102
RTVSPropertyOp52
 70
     0
102
RTVSPropertyOp53
 70
     1
102
RTVSPropertyOp54
 70
     1
102
RTVSPropertyOp55
 70
     1
102
RTVSPropertyOp56
 70
     1
102
RTVSPropertyOp57
 70
     1
102
RTVSPost2010Prop28
280
     0
102
RTVSPost2010PropOp28
 70
     1
102
RTVSPost2010Prop29
280
     1
102
RTVSPost2010PropOp29
 70
     1
102
RTVSPost2010Prop30
280
     1
102
RTVSPost2010PropOp30
 70
     1
102
RTVSPost2010Prop31
280
     0
102
RTVSPost2010PropOp31
 70
     1
102
RTVSPost2010Prop32
280
     0
102
RTVSPost2010PropOp32
 70
     1
102
RTVSPost2010Prop33
280
     0
102
RTVSPost2010PropOp33
 70
     1
102
RTVSPost2010Prop34
280
     0
102
RTVSPost2010PropOp34
 70
     1
102
RTVSPost2010Prop35
280
     0
102
RTVSPost2010PropOp35
 70
     1
102
RTVSPost2010Prop36
280
     0
102
RTVSPost2010PropOp36
 70
     1
102
RTVSPost2010Prop37
 90
       50
102
RTVSPost2010PropOp37
 70
     1
102
RTVSPost2010Prop38
140
0.0
102
RTVSPost2010PropOp38
 70
     1
102
RTVSPost2010Prop39
140
1.0
102
RTVSPost2010PropOp39
 70
     1
102
RTVSPost2010Prop40
 90
        0
102
RTVSPost2010PropOp40
 70
     1
102
RTVSPost2010Prop41ColorIndex
 90
       18
102
RTVSPost2010Prop41ColorRGB
 90
        0
102
RTVSPost2010PropOp41
 70
     1
102
RTVSPost2010Prop42
 90
       50
102
RTVSPost2010PropOp42
 70
     1
102
RTVSPost2010Prop43
 90
        3
102
RTVSPost2010PropOp43
 70
     1
102
RTVSPost2010Prop44ColorIndex
 90
        5
102
RTVSPost2010Prop44ColorRGB
 90
      255
102
RTVSPost2010PropOp44
 70
     1
102
RTVSPost2010Prop45
280
     0
102
RTVSPost2010PropOp45
 70
     1
102
RTVSPost2010Prop46
 90
       50
102
RTVSPost2010PropOp46
 70
     1
102
RTVSPost2010Prop47
 90
       50
102
RTVSPost2010PropOp47
 70
     1
102
RTVSPost2010Prop48
 90
       50
102
RTVSPost2010PropOp48
 70
     1
102
RTVSPost2010Prop49
280
     0
102
RTVSPost2010PropOp49
 70
     1
102
RTVSPost2010Prop50
 90
       50
102
RTVSPost2010PropOp50
 70
     1
102
RTVSPost2010Prop51ColorIndex
 90
      256
102
RTVSPost2010Prop51ColorRGB
 90
-16777216
102
RTVSPost2010PropOp51
 70
     0
102
RTVSPost2010Prop52
140
1.0
102
RTVSPost2010PropOp52
 70
     0
102
RTVSPost2010Prop53
 90
        2
102
RTVSPost2010PropOp53
 70
     1
102
RTVSPost2010Prop54
  1
strokes_ogs.tif
102
RTVSPost2010PropOp54
 70
     1
102
RTVSPost2010Prop55
280
     0
102
RTVSPost2010PropOp55
 70
     1
102
RTVSPost2010Prop56
140
1.0
102
RTVSPost2010PropOp56
 70
     1
102
RTVSPost2010Prop57
140
1.0
102
RTVSPost2010PropOp57
 70
     1
  0
XRECORD
  5
465
102
{ACAD_REACTORS
330
464
102
}
330
464
100
AcDbXrecord
280
     1
102
RTVSPropertyOp0
 70
     1
102
RTVSPropertyOp1
 70
     1
102
RTVSPropertyOp2
 70
     1
102
RTVSPropertyOp3
 70
     1
102
RTVSPropertyOp4
 70
     1
102
RTVSPropertyOp5
 70
     1
102
RTVSPropertyOp6
 70
     1
102
RTVSPropertyOp7
 70
     1
102
RTVSPropertyOp8
 70
     1
102
RTVSPropertyOp9
 70
     1
102
RTVSPropertyOp10
 70
     1
102
RTVSPropertyOp11
 70
     1
102
RTVSPropertyOp12
 70
     1
102
RTVSPropertyOp13
 70
     1
102
RTVSPropertyOp14
 70
     1
102
RTVSPropertyOp15
 70
     1
102
RTVSPropertyOp16
 70
     1
102
RTVSPropertyOp17
 70
     1
102
RTVSPropertyOp18
 70
     1
102
RTVSPropertyOp19
 70
     1
102
RTVSPropertyOp20
 70
     1
102
RTVSPropertyOp21
 70
     1
102
RTVSPropertyOp22
 70
     1
102
RTVSPropertyOp23
 70
     1
102
RTVSPropertyOp24
 70
     1
102
RTVSPropertyOp25
 70
     1
102
RTVSPropertyOp26
 70
     1
102
RTVSPropertyOp27
 70
     1
102
RTVSPropertyOp28
 70
     1
102
RTVSPropertyOp29
 70
     1
102
RTVSPropertyOp30
 70
     1
102
RTVSPropertyOp31
 70
     1
102
RTVSPropertyOp32
 70
     1
102
RTVSPropertyOp33
 70
     1
102
RTVSPropertyOp34
 70
     1
102
RTVSPropertyOp35
 70
     1
102
RTVSPropertyOp36
 70
     1
102
RTVSPropertyOp37
 70
     1
102
RTVSPropertyOp38
 70
     1
102
RTVSPropertyOp39
 70
     1
102
RTVSPropertyOp40
 70
     1
102
RTVSPropertyOp41
 70
     1
102
RTVSPropertyOp42
 70
     1
102
RTVSPropertyOp43
 70
     1
102
RTVSPropertyOp44
 70
     1
102
RTVSPropertyOp45
 70
     1
102
RTVSPropertyOp46
 70
     1
102
RTVSPropertyOp47
 70
     1
102
RTVSPropertyOp48
 70
     1
102
RTVSPropertyOp49
 70
     1
102
RTVSPropertyOp50
 70
     1
102
RTVSPropertyOp51
 70
     0
102
RTVSPropertyOp52
 70
     0
102
RTVSPropertyOp53
 70
     1
102
RTVSPropertyOp54
 70
     1
102
RTVSPropertyOp55
 70
     1
102
RTVSPropertyOp56
 70
     1
102
RTVSPropertyOp57
 70
     1
102
RTVSPost2010Prop28
280
     0
102
RTVSPost2010PropOp28
 70
     1
102
RTVSPost2010Prop29
280
     1
102
RTVSPost2010PropOp29
 70
     1
102
RTVSPost2010Prop30
280
     1
102
RTVSPost2010PropOp30
 70
     1
102
RTVSPost2010Prop31
280
     0
102
RTVSPost2010PropOp31
 70
     1
102
RTVSPost2010Prop32
280
     0
102
RTVSPost2010PropOp32
 70
     1
102
RTVSPost2010Prop33
280
     0
102
RTVSPost2010PropOp33
 70
     1
102
RTVSPost2010Prop34
280
     0
102
RTVSPost2010PropOp34
 70
     1
102
RTVSPost2010Prop35
280
     0
102
RTVSPost2010PropOp35
 70
     1
102
RTVSPost2010Prop36
280
     0
102
RTVSPost2010PropOp36
 70
     1
102
RTVSPost2010Prop37
 90
       50
102
RTVSPost2010PropOp37
 70
     1
102
RTVSPost2010Prop38
140
0.0
102
RTVSPost2010PropOp38
 70
     1
102
RTVSPost2010Prop39
140
1.0
102
RTVSPost2010PropOp39
 70
     1
102
RTVSPost2010Prop40
 90
        0
102
RTVSPost2010PropOp40
 70
     1
102
RTVSPost2010Prop41ColorIndex
 90
       18
102
RTVSPost2010Prop41ColorRGB
 90
        0
102
RTVSPost2010PropOp41
 70
     1
102
RTVSPost2010Prop42
 90
       50
102
RTVSPost2010PropOp42
 70
     1
102
RTVSPost2010Prop43
 90
        3
102
RTVSPost2010PropOp43
 70
     1
102
RTVSPost2010Prop44ColorIndex
 90
        5
102
RTVSPost2010Prop44ColorRGB
 90
      255
102
RTVSPost2010PropOp44
 70
     1
102
RTVSPost2010Prop45
280
     0
102
RTVSPost2010PropOp45
 70
     1
102
RTVSPost2010Prop46
 90
       50
102
RTVSPost2010PropOp46
 70
     1
102
RTVSPost2010Prop47
 90
       50
102
RTVSPost2010PropOp47
 70
     1
102
RTVSPost2010Prop48
 90
       50
102
RTVSPost2010PropOp48
 70
     1
102
RTVSPost2010Prop49
280
     0
102
RTVSPost2010PropOp49
 70
     1
102
RTVSPost2010Prop50
 90
       50
102
RTVSPost2010PropOp50
 70
     1
102
RTVSPost2010Prop51ColorIndex
 90
      256
102
RTVSPost2010Prop51ColorRGB
 90
-16777216
102
RTVSPost2010PropOp51
 70
     0
102
RTVSPost2010Prop52
140
1.0
102
RTVSPost2010PropOp52
 70
     0
102
RTVSPost2010Prop53
 90
        2
102
RTVSPost2010PropOp53
 70
     1
102
RTVSPost2010Prop54
  1
strokes_ogs.tif
102
RTVSPost2010PropOp54
 70
     1
102
RTVSPost2010Prop55
280
     0
102
RTVSPost2010PropOp55
 70
     1
102
RTVSPost2010Prop56
140
1.0
102
RTVSPost2010PropOp56
 70
     1
102
RTVSPost2010Prop57
140
1.0
102
RTVSPost2010PropOp57
 70
     1
  0
XRECORD
  5
463
102
{ACAD_REACTORS
330
462
102
}
330
462
100
AcDbXrecord
280
     1
102
RTVSPropertyOp0
 70
     1
102
RTVSPropertyOp1
 70
     1
102
RTVSPropertyOp2
 70
     1
102
RTVSPropertyOp3
 70
     1
102
RTVSPropertyOp4
 70
     1
102
RTVSPropertyOp5
 70
     1
102
RTVSPropertyOp6
 70
     1
102
RTVSPropertyOp7
 70
     1
102
RTVSPropertyOp8
 70
     1
102
RTVSPropertyOp9
 70
     1
102
RTVSPropertyOp10
 70
     1
102
RTVSPropertyOp11
 70
     1
102
RTVSPropertyOp12
 70
     1
102
RTVSPropertyOp13
 70
     1
102
RTVSPropertyOp14
 70
     1
102
RTVSPropertyOp15
 70
     1
102
RTVSPropertyOp16
 70
     1
102
RTVSPropertyOp17
 70
     1
102
RTVSPropertyOp18
 70
     1
102
RTVSPropertyOp19
 70
     1
102
RTVSPropertyOp20
 70
     1
102
RTVSPropertyOp21
 70
     1
102
RTVSPropertyOp22
 70
     1
102
RTVSPropertyOp23
 70
     1
102
RTVSPropertyOp24
 70
     1
102
RTVSPropertyOp25
 70
     1
102
RTVSPropertyOp26
 70
     1
102
RTVSPropertyOp27
 70
     1
102
RTVSPropertyOp28
 70
     1
102
RTVSPropertyOp29
 70
     1
102
RTVSPropertyOp30
 70
     1
102
RTVSPropertyOp31
 70
     1
102
RTVSPropertyOp32
 70
     1
102
RTVSPropertyOp33
 70
     1
102
RTVSPropertyOp34
 70
     1
102
RTVSPropertyOp35
 70
     1
102
RTVSPropertyOp36
 70
     1
102
RTVSPropertyOp37
 70
     1
102
RTVSPropertyOp38
 70
     1
102
RTVSPropertyOp39
 70
     1
102
RTVSPropertyOp40
 70
     1
102
RTVSPropertyOp41
 70
     1
102
RTVSPropertyOp42
 70
     1
102
RTVSPropertyOp43
 70
     1
102
RTVSPropertyOp44
 70
     1
102
RTVSPropertyOp45
 70
     1
102
RTVSPropertyOp46
 70
     1
102
RTVSPropertyOp47
 70
     1
102
RTVSPropertyOp48
 70
     1
102
RTVSPropertyOp49
 70
     1
102
RTVSPropertyOp50
 70
     1
102
RTVSPropertyOp51
 70
     0
102
RTVSPropertyOp52
 70
     0
102
RTVSPropertyOp53
 70
     1
102
RTVSPropertyOp54
 70
     1
102
RTVSPropertyOp55
 70
     1
102
RTVSPropertyOp56
 70
     1
102
RTVSPropertyOp57
 70
     1
102
RTVSPost2010Prop28
280
     0
102
RTVSPost2010PropOp28
 70
     1
102
RTVSPost2010Prop29
280
     1
102
RTVSPost2010PropOp29
 70
     1
102
RTVSPost2010Prop30
280
     1
102
RTVSPost2010PropOp30
 70
     1
102
RTVSPost2010Prop31
280
     0
102
RTVSPost2010PropOp31
 70
     1
102
RTVSPost2010Prop32
280
     0
102
RTVSPost2010PropOp32
 70
     1
102
RTVSPost2010Prop33
280
     0
102
RTVSPost2010PropOp33
 70
     1
102
RTVSPost2010Prop34
280
     0
102
RTVSPost2010PropOp34
 70
     1
102
RTVSPost2010Prop35
280
     0
102
RTVSPost2010PropOp35
 70
     1
102
RTVSPost2010Prop36
280
     0
102
RTVSPost2010PropOp36
 70
     1
102
RTVSPost2010Prop37
 90
       50
102
RTVSPost2010PropOp37
 70
     1
102
RTVSPost2010Prop38
140
0.0
102
RTVSPost2010PropOp38
 70
     1
102
RTVSPost2010Prop39
140
1.0
102
RTVSPost2010PropOp39
 70
     1
102
RTVSPost2010Prop40
 90
        0
102
RTVSPost2010PropOp40
 70
     1
102
RTVSPost2010Prop41ColorIndex
 90
       18
102
RTVSPost2010Prop41ColorRGB
 90
        0
102
RTVSPost2010PropOp41
 70
     1
102
RTVSPost2010Prop42
 90
       50
102
RTVSPost2010PropOp42
 70
     1
102
RTVSPost2010Prop43
 90
        3
102
RTVSPost2010PropOp43
 70
     1
102
RTVSPost2010Prop44ColorIndex
 90
        5
102
RTVSPost2010Prop44ColorRGB
 90
      255
102
RTVSPost2010PropOp44
 70
     1
102
RTVSPost2010Prop45
280
     0
102
RTVSPost2010PropOp45
 70
     1
102
RTVSPost2010Prop46
 90
       50
102
RTVSPost2010PropOp46
 70
     1
102
RTVSPost2010Prop47
 90
       50
102
RTVSPost2010PropOp47
 70
     1
102
RTVSPost2010Prop48
 90
       50
102
RTVSPost2010PropOp48
 70
     1
102
RTVSPost2010Prop49
280
     0
102
RTVSPost2010PropOp49
 70
     1
102
RTVSPost2010Prop50
 90
       50
102
RTVSPost2010PropOp50
 70
     1
102
RTVSPost2010Prop51ColorIndex
 90
      256
102
RTVSPost2010Prop51ColorRGB
 90
-16777216
102
RTVSPost2010PropOp51
 70
     0
102
RTVSPost2010Prop52
140
1.0
102
RTVSPost2010PropOp52
 70
     0
102
RTVSPost2010Prop53
 90
        2
102
RTVSPost2010PropOp53
 70
     1
102
RTVSPost2010Prop54
  1
strokes_ogs.tif
102
RTVSPost2010PropOp54
 70
     1
102
RTVSPost2010Prop55
280
     0
102
RTVSPost2010PropOp55
 70
     1
102
RTVSPost2010Prop56
140
1.0
102
RTVSPost2010PropOp56
 70
     1
102
RTVSPost2010Prop57
140
1.0
102
RTVSPost2010PropOp57
 70
     1
  0
XRECORD
  5
45D
102
{ACAD_REACTORS
330
45C
102
}
330
45C
100
AcDbXrecord
280
     1
102
RTVSPropertyOp0
 70
     1
102
RTVSPropertyOp1
 70
     1
102
RTVSPropertyOp2
 70
     1
102
RTVSPropertyOp3
 70
     1
102
RTVSPropertyOp4
 70
     1
102
RTVSPropertyOp5
 70
     1
102
RTVSPropertyOp6
 70
     1
102
RTVSPropertyOp7
 70
     1
102
RTVSPropertyOp8
 70
     1
102
RTVSPropertyOp9
 70
     1
102
RTVSPropertyOp10
 70
     1
102
RTVSPropertyOp11
 70
     1
102
RTVSPropertyOp12
 70
     1
102
RTVSPropertyOp13
 70
     1
102
RTVSPropertyOp14
 70
     1
102
RTVSPropertyOp15
 70
     1
102
RTVSPropertyOp16
 70
     1
102
RTVSPropertyOp17
 70
     1
102
RTVSPropertyOp18
 70
     1
102
RTVSPropertyOp19
 70
     1
102
RTVSPropertyOp20
 70
     1
102
RTVSPropertyOp21
 70
     1
102
RTVSPropertyOp22
 70
     1
102
RTVSPropertyOp23
 70
     1
102
RTVSPropertyOp24
 70
     1
102
RTVSPropertyOp25
 70
     1
102
RTVSPropertyOp26
 70
     1
102
RTVSPropertyOp27
 70
     1
102
RTVSPropertyOp28
 70
     1
102
RTVSPropertyOp29
 70
     1
102
RTVSPropertyOp30
 70
     1
102
RTVSPropertyOp31
 70
     1
102
RTVSPropertyOp32
 70
     1
102
RTVSPropertyOp33
 70
     1
102
RTVSPropertyOp34
 70
     1
102
RTVSPropertyOp35
 70
     1
102
RTVSPropertyOp36
 70
     1
102
RTVSPropertyOp37
 70
     1
102
RTVSPropertyOp38
 70
     1
102
RTVSPropertyOp39
 70
     1
102
RTVSPropertyOp40
 70
     1
102
RTVSPropertyOp41
 70
     1
102
RTVSPropertyOp42
 70
     1
102
RTVSPropertyOp43
 70
     1
102
RTVSPropertyOp44
 70
     1
102
RTVSPropertyOp45
 70
     1
102
RTVSPropertyOp46
 70
     1
102
RTVSPropertyOp47
 70
     1
102
RTVSPropertyOp48
 70
     1
102
RTVSPropertyOp49
 70
     1
102
RTVSPropertyOp50
 70
     1
102
RTVSPropertyOp51
 70
     0
102
RTVSPropertyOp52
 70
     0
102
RTVSPropertyOp53
 70
     1
102
RTVSPropertyOp54
 70
     1
102
RTVSPropertyOp55
 70
     1
102
RTVSPropertyOp56
 70
     1
102
RTVSPropertyOp57
 70
     1
102
RTVSPost2010Prop28
280
     0
102
RTVSPost2010PropOp28
 70
     1
102
RTVSPost2010Prop29
280
     1
102
RTVSPost2010PropOp29
 70
     1
102
RTVSPost2010Prop30
280
     1
102
RTVSPost2010PropOp30
 70
     1
102
RTVSPost2010Prop31
280
     0
102
RTVSPost2010PropOp31
 70
     1
102
RTVSPost2010Prop32
280
     0
102
RTVSPost2010PropOp32
 70
     1
102
RTVSPost2010Prop33
280
     0
102
RTVSPost2010PropOp33
 70
     1
102
RTVSPost2010Prop34
280
     0
102
RTVSPost2010PropOp34
 70
     1
102
RTVSPost2010Prop35
280
     0
102
RTVSPost2010PropOp35
 70
     1
102
RTVSPost2010Prop36
280
     0
102
RTVSPost2010PropOp36
 70
     1
102
RTVSPost2010Prop37
 90
       50
102
RTVSPost2010PropOp37
 70
     1
102
RTVSPost2010Prop38
140
0.0
102
RTVSPost2010PropOp38
 70
     1
102
RTVSPost2010Prop39
140
1.0
102
RTVSPost2010PropOp39
 70
     1
102
RTVSPost2010Prop40
 90
        0
102
RTVSPost2010PropOp40
 70
     1
102
RTVSPost2010Prop41ColorIndex
 90
       18
102
RTVSPost2010Prop41ColorRGB
 90
        0
102
RTVSPost2010PropOp41
 70
     1
102
RTVSPost2010Prop42
 90
       50
102
RTVSPost2010PropOp42
 70
     1
102
RTVSPost2010Prop43
 90
        3
102
RTVSPost2010PropOp43
 70
     1
102
RTVSPost2010Prop44ColorIndex
 90
        5
102
RTVSPost2010Prop44ColorRGB
 90
      255
102
RTVSPost2010PropOp44
 70
     1
102
RTVSPost2010Prop45
280
     0
102
RTVSPost2010PropOp45
 70
     1
102
RTVSPost2010Prop46
 90
       50
102
RTVSPost2010PropOp46
 70
     1
102
RTVSPost2010Prop47
 90
       50
102
RTVSPost2010PropOp47
 70
     1
102
RTVSPost2010Prop48
 90
       50
102
RTVSPost2010PropOp48
 70
     1
102
RTVSPost2010Prop49
280
     0
102
RTVSPost2010PropOp49
 70
     1
102
RTVSPost2010Prop50
 90
       50
102
RTVSPost2010PropOp50
 70
     1
102
RTVSPost2010Prop51ColorIndex
 90
      256
102
RTVSPost2010Prop51ColorRGB
 90
-16777216
102
RTVSPost2010PropOp51
 70
     0
102
RTVSPost2010Prop52
140
1.0
102
RTVSPost2010PropOp52
 70
     0
102
RTVSPost2010Prop53
 90
        2
102
RTVSPost2010PropOp53
 70
     1
102
RTVSPost2010Prop54
  1
strokes_ogs.tif
102
RTVSPost2010PropOp54
 70
     1
102
RTVSPost2010Prop55
280
     0
102
RTVSPost2010PropOp55
 70
     1
102
RTVSPost2010Prop56
140
1.0
102
RTVSPost2010PropOp56
 70
     1
102
RTVSPost2010Prop57
140
1.0
102
RTVSPost2010PropOp57
 70
     1
  0
XRECORD
  5
45F
102
{ACAD_REACTORS
330
45E
102
}
330
45E
100
AcDbXrecord
280
     1
102
RTVSPropertyOp0
 70
     1
102
RTVSPropertyOp1
 70
     1
102
RTVSPropertyOp2
 70
     1
102
RTVSPropertyOp3
 70
     1
102
RTVSPropertyOp4
 70
     1
102
RTVSPropertyOp5
 70
     1
102
RTVSPropertyOp6
 70
     1
102
RTVSPropertyOp7
 70
     1
102
RTVSPropertyOp8
 70
     1
102
RTVSPropertyOp9
 70
     1
102
RTVSPropertyOp10
 70
     1
102
RTVSPropertyOp11
 70
     1
102
RTVSPropertyOp12
 70
     1
102
RTVSPropertyOp13
 70
     1
102
RTVSPropertyOp14
 70
     1
102
RTVSPropertyOp15
 70
     1
102
RTVSPropertyOp16
 70
     1
102
RTVSPropertyOp17
 70
     1
102
RTVSPropertyOp18
 70
     1
102
RTVSPropertyOp19
 70
     1
102
RTVSPropertyOp20
 70
     1
102
RTVSPropertyOp21
 70
     1
102
RTVSPropertyOp22
 70
     1
102
RTVSPropertyOp23
 70
     1
102
RTVSPropertyOp24
 70
     1
102
RTVSPropertyOp25
 70
     1
102
RTVSPropertyOp26
 70
     1
102
RTVSPropertyOp27
 70
     1
102
RTVSPropertyOp28
 70
     1
102
RTVSPropertyOp29
 70
     1
102
RTVSPropertyOp30
 70
     1
102
RTVSPropertyOp31
 70
     1
102
RTVSPropertyOp32
 70
     1
102
RTVSPropertyOp33
 70
     1
102
RTVSPropertyOp34
 70
     1
102
RTVSPropertyOp35
 70
     1
102
RTVSPropertyOp36
 70
     1
102
RTVSPropertyOp37
 70
     1
102
RTVSPropertyOp38
 70
     1
102
RTVSPropertyOp39
 70
     1
102
RTVSPropertyOp40
 70
     1
102
RTVSPropertyOp41
 70
     1
102
RTVSPropertyOp42
 70
     1
102
RTVSPropertyOp43
 70
     1
102
RTVSPropertyOp44
 70
     1
102
RTVSPropertyOp45
 70
     1
102
RTVSPropertyOp46
 70
     1
102
RTVSPropertyOp47
 70
     1
102
RTVSPropertyOp48
 70
     1
102
RTVSPropertyOp49
 70
     1
102
RTVSPropertyOp50
 70
     1
102
RTVSPropertyOp51
 70
     0
102
RTVSPropertyOp52
 70
     0
102
RTVSPropertyOp53
 70
     1
102
RTVSPropertyOp54
 70
     1
102
RTVSPropertyOp55
 70
     1
102
RTVSPropertyOp56
 70
     1
102
RTVSPropertyOp57
 70
     1
102
RTVSPost2010Prop28
280
     0
102
RTVSPost2010PropOp28
 70
     1
102
RTVSPost2010Prop29
280
     1
102
RTVSPost2010PropOp29
 70
     1
102
RTVSPost2010Prop30
280
     1
102
RTVSPost2010PropOp30
 70
     1
102
RTVSPost2010Prop31
280
     0
102
RTVSPost2010PropOp31
 70
     1
102
RTVSPost2010Prop32
280
     0
102
RTVSPost2010PropOp32
 70
     1
102
RTVSPost2010Prop33
280
     0
102
RTVSPost2010PropOp33
 70
     1
102
RTVSPost2010Prop34
280
     0
102
RTVSPost2010PropOp34
 70
     1
102
RTVSPost2010Prop35
280
     0
102
RTVSPost2010PropOp35
 70
     1
102
RTVSPost2010Prop36
280
     0
102
RTVSPost2010PropOp36
 70
     1
102
RTVSPost2010Prop37
 90
       50
102
RTVSPost2010PropOp37
 70
     1
102
RTVSPost2010Prop38
140
0.0
102
RTVSPost2010PropOp38
 70
     1
102
RTVSPost2010Prop39
140
1.0
102
RTVSPost2010PropOp39
 70
     1
102
RTVSPost2010Prop40
 90
        0
102
RTVSPost2010PropOp40
 70
     1
102
RTVSPost2010Prop41ColorIndex
 90
       18
102
RTVSPost2010Prop41ColorRGB
 90
        0
102
RTVSPost2010PropOp41
 70
     1
102
RTVSPost2010Prop42
 90
       50
102
RTVSPost2010PropOp42
 70
     1
102
RTVSPost2010Prop43
 90
        3
102
RTVSPost2010PropOp43
 70
     1
102
RTVSPost2010Prop44ColorIndex
 90
        5
102
RTVSPost2010Prop44ColorRGB
 90
      255
102
RTVSPost2010PropOp44
 70
     1
102
RTVSPost2010Prop45
280
     0
102
RTVSPost2010PropOp45
 70
     1
102
RTVSPost2010Prop46
 90
       50
102
RTVSPost2010PropOp46
 70
     1
102
RTVSPost2010Prop47
 90
       50
102
RTVSPost2010PropOp47
 70
     1
102
RTVSPost2010Prop48
 90
       50
102
RTVSPost2010PropOp48
 70
     1
102
RTVSPost2010Prop49
280
     0
102
RTVSPost2010PropOp49
 70
     1
102
RTVSPost2010Prop50
 90
       50
102
RTVSPost2010PropOp50
 70
     1
102
RTVSPost2010Prop51ColorIndex
 90
      256
102
RTVSPost2010Prop51ColorRGB
 90
-16777216
102
RTVSPost2010PropOp51
 70
     0
102
RTVSPost2010Prop52
140
1.0
102
RTVSPost2010PropOp52
 70
     0
102
RTVSPost2010Prop53
 90
        2
102
RTVSPost2010PropOp53
 70
     1
102
RTVSPost2010Prop54
  1
strokes_ogs.tif
102
RTVSPost2010PropOp54
 70
     1
102
RTVSPost2010Prop55
280
     0
102
RTVSPost2010PropOp55
 70
     1
102
RTVSPost2010Prop56
140
1.0
102
RTVSPost2010PropOp56
 70
     1
102
RTVSPost2010Prop57
140
1.0
102
RTVSPost2010PropOp57
 70
     1
  0
XRECORD
  5
44F
102
{ACAD_REACTORS
330
44E
102
}
330
44E
100
AcDbXrecord
280
     1
102
RTVSPropertyOp0
 70
     1
102
RTVSPropertyOp1
 70
     1
102
RTVSPropertyOp2
 70
     1
102
RTVSPropertyOp3
 70
     1
102
RTVSPropertyOp4
 70
     1
102
RTVSPropertyOp5
 70
     1
102
RTVSPropertyOp6
 70
     1
102
RTVSPropertyOp7
 70
     1
102
RTVSPropertyOp8
 70
     1
102
RTVSPropertyOp9
 70
     1
102
RTVSPropertyOp10
 70
     1
102
RTVSPropertyOp11
 70
     1
102
RTVSPropertyOp12
 70
     1
102
RTVSPropertyOp13
 70
     1
102
RTVSPropertyOp14
 70
     1
102
RTVSPropertyOp15
 70
     1
102
RTVSPropertyOp16
 70
     1
102
RTVSPropertyOp17
 70
     1
102
RTVSPropertyOp18
 70
     1
102
RTVSPropertyOp19
 70
     1
102
RTVSPropertyOp20
 70
     1
102
RTVSPropertyOp21
 70
     1
102
RTVSPropertyOp22
 70
     1
102
RTVSPropertyOp23
 70
     1
102
RTVSPropertyOp24
 70
     1
102
RTVSPropertyOp25
 70
     1
102
RTVSPropertyOp26
 70
     1
102
RTVSPropertyOp27
 70
     1
102
RTVSPropertyOp28
 70
     1
102
RTVSPropertyOp29
 70
     1
102
RTVSPropertyOp30
 70
     1
102
RTVSPropertyOp31
 70
     1
102
RTVSPropertyOp32
 70
     1
102
RTVSPropertyOp33
 70
     1
102
RTVSPropertyOp34
 70
     1
102
RTVSPropertyOp35
 70
     1
102
RTVSPropertyOp36
 70
     1
102
RTVSPropertyOp37
 70
     1
102
RTVSPropertyOp38
 70
     1
102
RTVSPropertyOp39
 70
     1
102
RTVSPropertyOp40
 70
     1
102
RTVSPropertyOp41
 70
     1
102
RTVSPropertyOp42
 70
     1
102
RTVSPropertyOp43
 70
     1
102
RTVSPropertyOp44
 70
     1
102
RTVSPropertyOp45
 70
     1
102
RTVSPropertyOp46
 70
     1
102
RTVSPropertyOp47
 70
     1
102
RTVSPropertyOp48
 70
     1
102
RTVSPropertyOp49
 70
     1
102
RTVSPropertyOp50
 70
     1
102
RTVSPropertyOp51
 70
     0
102
RTVSPropertyOp52
 70
     0
102
RTVSPropertyOp53
 70
     1
102
RTVSPropertyOp54
 70
     1
102
RTVSPropertyOp55
 70
     1
102
RTVSPropertyOp56
 70
     1
102
RTVSPropertyOp57
 70
     1
102
RTVSPost2010Prop28
280
     0
102
RTVSPost2010PropOp28
 70
     1
102
RTVSPost2010Prop29
280
     1
102
RTVSPost2010PropOp29
 70
     1
102
RTVSPost2010Prop30
280
     1
102
RTVSPost2010PropOp30
 70
     1
102
RTVSPost2010Prop31
280
     0
102
RTVSPost2010PropOp31
 70
     1
102
RTVSPost2010Prop32
280
     0
102
RTVSPost2010PropOp32
 70
     1
102
RTVSPost2010Prop33
280
     0
102
RTVSPost2010PropOp33
 70
     1
102
RTVSPost2010Prop34
280
     0
102
RTVSPost2010PropOp34
 70
     1
102
RTVSPost2010Prop35
280
     0
102
RTVSPost2010PropOp35
 70
     1
102
RTVSPost2010Prop36
280
     0
102
RTVSPost2010PropOp36
 70
     1
102
RTVSPost2010Prop37
 90
       50
102
RTVSPost2010PropOp37
 70
     1
102
RTVSPost2010Prop38
140
0.0
102
RTVSPost2010PropOp38
 70
     1
102
RTVSPost2010Prop39
140
1.0
102
RTVSPost2010PropOp39
 70
     1
102
RTVSPost2010Prop40
 90
        0
102
RTVSPost2010PropOp40
 70
     1
102
RTVSPost2010Prop41ColorIndex
 90
       18
102
RTVSPost2010Prop41ColorRGB
 90
        0
102
RTVSPost2010PropOp41
 70
     1
102
RTVSPost2010Prop42
 90
       50
102
RTVSPost2010PropOp42
 70
     1
102
RTVSPost2010Prop43
 90
        3
102
RTVSPost2010PropOp43
 70
     1
102
RTVSPost2010Prop44ColorIndex
 90
        5
102
RTVSPost2010Prop44ColorRGB
 90
      255
102
RTVSPost2010PropOp44
 70
     1
102
RTVSPost2010Prop45
280
     0
102
RTVSPost2010PropOp45
 70
     1
102
RTVSPost2010Prop46
 90
       50
102
RTVSPost2010PropOp46
 70
     1
102
RTVSPost2010Prop47
 90
       50
102
RTVSPost2010PropOp47
 70
     1
102
RTVSPost2010Prop48
 90
       50
102
RTVSPost2010PropOp48
 70
     1
102
RTVSPost2010Prop49
280
     0
102
RTVSPost2010PropOp49
 70
     1
102
RTVSPost2010Prop50
 90
       50
102
RTVSPost2010PropOp50
 70
     1
102
RTVSPost2010Prop51ColorIndex
 90
      256
102
RTVSPost2010Prop51ColorRGB
 90
-16777216
102
RTVSPost2010PropOp51
 70
     0
102
RTVSPost2010Prop52
140
1.0
102
RTVSPost2010PropOp52
 70
     0
102
RTVSPost2010Prop53
 90
        2
102
RTVSPost2010PropOp53
 70
     1
102
RTVSPost2010Prop54
  1
strokes_ogs.tif
102
RTVSPost2010PropOp54
 70
     1
102
RTVSPost2010Prop55
280
     0
102
RTVSPost2010PropOp55
 70
     1
102
RTVSPost2010Prop56
140
1.0
102
RTVSPost2010PropOp56
 70
     1
102
RTVSPost2010Prop57
140
1.0
102
RTVSPost2010PropOp57
 70
     1
  0
XRECORD
  5
441
102
{ACAD_REACTORS
330
440
102
}
330
440
100
AcDbXrecord
280
     1
102
RTVSPropertyOp0
 70
     1
102
RTVSPropertyOp1
 70
     1
102
RTVSPropertyOp2
 70
     1
102
RTVSPropertyOp3
 70
     1
102
RTVSPropertyOp4
 70
     1
102
RTVSPropertyOp5
 70
     1
102
RTVSPropertyOp6
 70
     1
102
RTVSPropertyOp7
 70
     1
102
RTVSPropertyOp8
 70
     1
102
RTVSPropertyOp9
 70
     1
102
RTVSPropertyOp10
 70
     1
102
RTVSPropertyOp11
 70
     1
102
RTVSPropertyOp12
 70
     1
102
RTVSPropertyOp13
 70
     1
102
RTVSPropertyOp14
 70
     1
102
RTVSPropertyOp15
 70
     1
102
RTVSPropertyOp16
 70
     1
102
RTVSPropertyOp17
 70
     1
102
RTVSPropertyOp18
 70
     1
102
RTVSPropertyOp19
 70
     1
102
RTVSPropertyOp20
 70
     1
102
RTVSPropertyOp21
 70
     1
102
RTVSPropertyOp22
 70
     1
102
RTVSPropertyOp23
 70
     1
102
RTVSPropertyOp24
 70
     1
102
RTVSPropertyOp25
 70
     1
102
RTVSPropertyOp26
 70
     1
102
RTVSPropertyOp27
 70
     1
102
RTVSPropertyOp28
 70
     1
102
RTVSPropertyOp29
 70
     1
102
RTVSPropertyOp30
 70
     1
102
RTVSPropertyOp31
 70
     1
102
RTVSPropertyOp32
 70
     1
102
RTVSPropertyOp33
 70
     1
102
RTVSPropertyOp34
 70
     1
102
RTVSPropertyOp35
 70
     1
102
RTVSPropertyOp36
 70
     1
102
RTVSPropertyOp37
 70
     1
102
RTVSPropertyOp38
 70
     1
102
RTVSPropertyOp39
 70
     1
102
RTVSPropertyOp40
 70
     1
102
RTVSPropertyOp41
 70
     1
102
RTVSPropertyOp42
 70
     1
102
RTVSPropertyOp43
 70
     1
102
RTVSPropertyOp44
 70
     1
102
RTVSPropertyOp45
 70
     1
102
RTVSPropertyOp46
 70
     1
102
RTVSPropertyOp47
 70
     1
102
RTVSPropertyOp48
 70
     1
102
RTVSPropertyOp49
 70
     1
102
RTVSPropertyOp50
 70
     1
102
RTVSPropertyOp51
 70
     0
102
RTVSPropertyOp52
 70
     0
102
RTVSPropertyOp53
 70
     1
102
RTVSPropertyOp54
 70
     1
102
RTVSPropertyOp55
 70
     1
102
RTVSPropertyOp56
 70
     1
102
RTVSPropertyOp57
 70
     1
102
RTVSPost2010Prop28
280
     0
102
RTVSPost2010PropOp28
 70
     1
102
RTVSPost2010Prop29
280
     1
102
RTVSPost2010PropOp29
 70
     1
102
RTVSPost2010Prop30
280
     1
102
RTVSPost2010PropOp30
 70
     1
102
RTVSPost2010Prop31
280
     0
102
RTVSPost2010PropOp31
 70
     1
102
RTVSPost2010Prop32
280
     0
102
RTVSPost2010PropOp32
 70
     1
102
RTVSPost2010Prop33
280
     0
102
RTVSPost2010PropOp33
 70
     1
102
RTVSPost2010Prop34
280
     0
102
RTVSPost2010PropOp34
 70
     1
102
RTVSPost2010Prop35
280
     0
102
RTVSPost2010PropOp35
 70
     1
102
RTVSPost2010Prop36
280
     0
102
RTVSPost2010PropOp36
 70
     1
102
RTVSPost2010Prop37
 90
       50
102
RTVSPost2010PropOp37
 70
     1
102
RTVSPost2010Prop38
140
0.0
102
RTVSPost2010PropOp38
 70
     1
102
RTVSPost2010Prop39
140
1.0
102
RTVSPost2010PropOp39
 70
     1
102
RTVSPost2010Prop40
 90
        0
102
RTVSPost2010PropOp40
 70
     1
102
RTVSPost2010Prop41ColorIndex
 90
       18
102
RTVSPost2010Prop41ColorRGB
 90
        0
102
RTVSPost2010PropOp41
 70
     1
102
RTVSPost2010Prop42
 90
       50
102
RTVSPost2010PropOp42
 70
     1
102
RTVSPost2010Prop43
 90
        3
102
RTVSPost2010PropOp43
 70
     1
102
RTVSPost2010Prop44ColorIndex
 90
        5
102
RTVSPost2010Prop44ColorRGB
 90
      255
102
RTVSPost2010PropOp44
 70
     1
102
RTVSPost2010Prop45
280
     0
102
RTVSPost2010PropOp45
 70
     1
102
RTVSPost2010Prop46
 90
       50
102
RTVSPost2010PropOp46
 70
     1
102
RTVSPost2010Prop47
 90
       50
102
RTVSPost2010PropOp47
 70
     1
102
RTVSPost2010Prop48
 90
       50
102
RTVSPost2010PropOp48
 70
     1
102
RTVSPost2010Prop49
280
     0
102
RTVSPost2010PropOp49
 70
     1
102
RTVSPost2010Prop50
 90
       50
102
RTVSPost2010PropOp50
 70
     1
102
RTVSPost2010Prop51ColorIndex
 90
      256
102
RTVSPost2010Prop51ColorRGB
 90
-16777216
102
RTVSPost2010PropOp51
 70
     0
102
RTVSPost2010Prop52
140
1.0
102
RTVSPost2010PropOp52
 70
     0
102
RTVSPost2010Prop53
 90
        2
102
RTVSPost2010PropOp53
 70
     1
102
RTVSPost2010Prop54
  1
strokes_ogs.tif
102
RTVSPost2010PropOp54
 70
     1
102
RTVSPost2010Prop55
280
     0
102
RTVSPost2010PropOp55
 70
     1
102
RTVSPost2010Prop56
140
1.0
102
RTVSPost2010PropOp56
 70
     1
102
RTVSPost2010Prop57
140
1.0
102
RTVSPost2010PropOp57
 70
     1
  0
XRECORD
  5
461
102
{ACAD_REACTORS
330
460
102
}
330
460
100
AcDbXrecord
280
     1
102
RTVSPropertyOp0
 70
     1
102
RTVSPropertyOp1
 70
     1
102
RTVSPropertyOp2
 70
     1
102
RTVSPropertyOp3
 70
     1
102
RTVSPropertyOp4
 70
     1
102
RTVSPropertyOp5
 70
     1
102
RTVSPropertyOp6
 70
     1
102
RTVSPropertyOp7
 70
     1
102
RTVSPropertyOp8
 70
     1
102
RTVSPropertyOp9
 70
     1
102
RTVSPropertyOp10
 70
     1
102
RTVSPropertyOp11
 70
     1
102
RTVSPropertyOp12
 70
     1
102
RTVSPropertyOp13
 70
     1
102
RTVSPropertyOp14
 70
     1
102
RTVSPropertyOp15
 70
     1
102
RTVSPropertyOp16
 70
     1
102
RTVSPropertyOp17
 70
     1
102
RTVSPropertyOp18
 70
     1
102
RTVSPropertyOp19
 70
     1
102
RTVSPropertyOp20
 70
     1
102
RTVSPropertyOp21
 70
     1
102
RTVSPropertyOp22
 70
     1
102
RTVSPropertyOp23
 70
     1
102
RTVSPropertyOp24
 70
     1
102
RTVSPropertyOp25
 70
     1
102
RTVSPropertyOp26
 70
     1
102
RTVSPropertyOp27
 70
     1
102
RTVSPropertyOp28
 70
     1
102
RTVSPropertyOp29
 70
     1
102
RTVSPropertyOp30
 70
     1
102
RTVSPropertyOp31
 70
     1
102
RTVSPropertyOp32
 70
     1
102
RTVSPropertyOp33
 70
     1
102
RTVSPropertyOp34
 70
     1
102
RTVSPropertyOp35
 70
     1
102
RTVSPropertyOp36
 70
     1
102
RTVSPropertyOp37
 70
     1
102
RTVSPropertyOp38
 70
     1
102
RTVSPropertyOp39
 70
     1
102
RTVSPropertyOp40
 70
     1
102
RTVSPropertyOp41
 70
     1
102
RTVSPropertyOp42
 70
     1
102
RTVSPropertyOp43
 70
     1
102
RTVSPropertyOp44
 70
     1
102
RTVSPropertyOp45
 70
     1
102
RTVSPropertyOp46
 70
     1
102
RTVSPropertyOp47
 70
     1
102
RTVSPropertyOp48
 70
     1
102
RTVSPropertyOp49
 70
     1
102
RTVSPropertyOp50
 70
     1
102
RTVSPropertyOp51
 70
     0
102
RTVSPropertyOp52
 70
     0
102
RTVSPropertyOp53
 70
     1
102
RTVSPropertyOp54
 70
     1
102
RTVSPropertyOp55
 70
     1
102
RTVSPropertyOp56
 70
     1
102
RTVSPropertyOp57
 70
     1
102
RTVSPost2010Prop28
280
     0
102
RTVSPost2010PropOp28
 70
     1
102
RTVSPost2010Prop29
280
     1
102
RTVSPost2010PropOp29
 70
     1
102
RTVSPost2010Prop30
280
     1
102
RTVSPost2010PropOp30
 70
     1
102
RTVSPost2010Prop31
280
     0
102
RTVSPost2010PropOp31
 70
     1
102
RTVSPost2010Prop32
280
     0
102
RTVSPost2010PropOp32
 70
     1
102
RTVSPost2010Prop33
280
     0
102
RTVSPost2010PropOp33
 70
     1
102
RTVSPost2010Prop34
280
     0
102
RTVSPost2010PropOp34
 70
     1
102
RTVSPost2010Prop35
280
     0
102
RTVSPost2010PropOp35
 70
     1
102
RTVSPost2010Prop36
280
     0
102
RTVSPost2010PropOp36
 70
     1
102
RTVSPost2010Prop37
 90
       50
102
RTVSPost2010PropOp37
 70
     1
102
RTVSPost2010Prop38
140
0.0
102
RTVSPost2010PropOp38
 70
     1
102
RTVSPost2010Prop39
140
1.0
102
RTVSPost2010PropOp39
 70
     1
102
RTVSPost2010Prop40
 90
        0
102
RTVSPost2010PropOp40
 70
     1
102
RTVSPost2010Prop41ColorIndex
 90
       18
102
RTVSPost2010Prop41ColorRGB
 90
        0
102
RTVSPost2010PropOp41
 70
     1
102
RTVSPost2010Prop42
 90
       50
102
RTVSPost2010PropOp42
 70
     1
102
RTVSPost2010Prop43
 90
        3
102
RTVSPost2010PropOp43
 70
     1
102
RTVSPost2010Prop44ColorIndex
 90
        5
102
RTVSPost2010Prop44ColorRGB
 90
      255
102
RTVSPost2010PropOp44
 70
     1
102
RTVSPost2010Prop45
280
     0
102
RTVSPost2010PropOp45
 70
     1
102
RTVSPost2010Prop46
 90
       50
102
RTVSPost2010PropOp46
 70
     1
102
RTVSPost2010Prop47
 90
       50
102
RTVSPost2010PropOp47
 70
     1
102
RTVSPost2010Prop48
 90
       50
102
RTVSPost2010PropOp48
 70
     1
102
RTVSPost2010Prop49
280
     0
102
RTVSPost2010PropOp49
 70
     1
102
RTVSPost2010Prop50
 90
       50
102
RTVSPost2010PropOp50
 70
     1
102
RTVSPost2010Prop51ColorIndex
 90
      256
102
RTVSPost2010Prop51ColorRGB
 90
-16777216
102
RTVSPost2010PropOp51
 70
     0
102
RTVSPost2010Prop52
140
1.0
102
RTVSPost2010PropOp52
 70
     0
102
RTVSPost2010Prop53
 90
        2
102
RTVSPost2010PropOp53
 70
     1
102
RTVSPost2010Prop54
  1
strokes_ogs.tif
102
RTVSPost2010PropOp54
 70
     1
102
RTVSPost2010Prop55
280
     0
102
RTVSPost2010PropOp55
 70
     1
102
RTVSPost2010Prop56
140
1.0
102
RTVSPost2010PropOp56
 70
     1
102
RTVSPost2010Prop57
140
1.0
102
RTVSPost2010PropOp57
 70
     1
  0
ENDSEC
  0
EOF
