  0
SECTION
  2
HEADER
  9
$ACADVER
  1
AC1018
  9
$ACADMAINTVER
 70
     0
  9
$DWGCODEPAGE
  3
ANSI_932
  9
$INSBASE
 10
0.0
 20
0.0
 30
0.0
  9
$EXTMIN
 10
-1260.0
 20
-891.0
 30
0.0
  9
$EXTMAX
 10
1260.0
 20
891.0
 30
0.0
  9
$LIMMIN
 10
-1260.0
 20
-891.0
  9
$LIMMAX
 10
1260.0
 20
891.0
  9
$ORTHOMODE
 70
     0
  9
$REGENMODE
 70
     1
  9
$FILLMODE
 70
     1
  9
$QTEXTMODE
 70
     0
  9
$MIRRTEXT
 70
     1
  9
$LTSCALE
 40
6.0
  9
$ATTMODE
 70
     1
  9
$TEXTSIZE
 40
2.5
  9
$TRACEWID
 40
1.0
  9
$TEXTSTYLE
  7
Standard
  9
$CLAYER
  8
0
  9
$CELTYPE
  6
ByLayer
  9
$CECOLOR
 62
   256
  9
$CELTSCALE
 40
1.0
  9
$DISPSILH
 70
     0
  9
$DIMSCALE
 40
1.0
  9
$DIMASZ
 40
2.5
  9
$DIMEXO
 40
0.625
  9
$DIMDLI
 40
3.75
  9
$DIMRND
 40
0.0
  9
$DIMDLE
 40
0.0
  9
$DIMEXE
 40
1.25
  9
$DIMTP
 40
0.0
  9
$DIMTM
 40
0.0
  9
$DIMTXT
 40
2.5
  9
$DIMCEN
 40
2.5
  9
$DIMTSZ
 40
0.0
  9
$DIMTOL
 70
     0
  9
$DIMLIM
 70
     0
  9
$DIMTIH
 70
     0
  9
$DIMTOH
 70
     0
  9
$DIMSE1
 70
     0
  9
$DIMSE2
 70
     0
  9
$DIMTAD
 70
     1
  9
$DIMZIN
 70
     8
  9
$DIMBLK
  1

  9
$DIMASO
 70
     1
  9
$DIMSHO
 70
     1
  9
$DIMPOST
  1

  9
$DIMAPOST
  1

  9
$DIMALT
 70
     0
  9
$DIMALTD
 70
     3
  9
$DIMALTF
 40
0.03937007874016
  9
$DIMLFAC
 40
1.0
  9
$DIMTOFL
 70
     1
  9
$DIMTVP
 40
0.0
  9
$DIMTIX
 70
     0
  9
$DIMSOXD
 70
     0
  9
$DIMSAH
 70
     0
  9
$DIMBLK1
  1

  9
$DIMBLK2
  1

  9
$DIMSTYLE
  2
ISO-25
  9
$DIMCLRD
 70
     0
  9
$DIMCLRE
 70
     0
  9
$DIMCLRT
 70
     0
  9
$DIMTFAC
 40
1.0
  9
$DIMGAP
 40
0.625
  9
$DIMJUST
 70
     0
  9
$DIMSD1
 70
     0
  9
$DIMSD2
 70
     0
  9
$DIMTOLJ
 70
     0
  9
$DIMTZIN
 70
     8
  9
$DIMALTZ
 70
     0
  9
$DIMALTTZ
 70
     0
  9
$DIMUPT
 70
     0
  9
$DIMDEC
 70
     2
  9
$DIMTDEC
 70
     2
  9
$DIMALTU
 70
     2
  9
$DIMALTTD
 70
     3
  9
$DIMTXSTY
  7
Standard
  9
$DIMAUNIT
 70
     0
  9
$DIMADEC
 70
     0
  9
$DIMALTRND
 40
0.0
  9
$DIMAZIN
 70
     0
  9
$DIMDSEP
 70
    44
  9
$DIMATFIT
 70
     3
  9
$DIMFRAC
 70
     0
  9
$DIMLDRBLK
  1

  9
$DIMLUNIT
 70
     2
  9
$DIMLWD
 70
    -2
  9
$DIMLWE
 70
    -2
  9
$DIMTMOVE
 70
     0
  9
$LUNITS
 70
     2
  9
$LUPREC
 70
     4
  9
$SKETCHINC
 40
1.0
  9
$FILLETRAD
 40
10.0
  9
$AUNITS
 70
     0
  9
$AUPREC
 70
     0
  9
$MENU
  1
.
  9
$ELEVATION
 40
0.0
  9
$PELEVATION
 40
0.0
  9
$THICKNESS
 40
0.0
  9
$LIMCHECK
 70
     0
  9
$CHAMFERA
 40
0.0
  9
$CHAMFERB
 40
0.0
  9
$CHAMFERC
 40
0.0
  9
$CHAMFERD
 40
0.0
  9
$SKPOLY
 70
     0
  9
$TDCREATE
 40
2459417.360551065
  9
$TDUCREATE
 40
2459416.985551065
  9
$TDUPDATE
 40
2459417.360551215
  9
$TDUUPDATE
 40
2459416.985551215
  9
$TDINDWG
 40
0.0000000116
  9
$TDUSRTIMER
 40
0.0000000116
  9
$USRTIMER
 70
     1
  9
$ANGBASE
 50
0.0
  9
$ANGDIR
 70
     0
  9
$PDMODE
 70
     0
  9
$PDSIZE
 40
0.0
  9
$PLINEWID
 40
0.0
  9
$SPLFRAME
 70
     0
  9
$SPLINETYPE
 70
     6
  9
$SPLINESEGS
 70
     8
  9
$HANDSEED
  5
390
  9
$SURFTAB1
 70
     6
  9
$SURFTAB2
 70
     6
  9
$SURFTYPE
 70
     6
  9
$SURFU
 70
     6
  9
$SURFV
 70
     6
  9
$UCSBASE
  2

  9
$UCSNAME
  2

  9
$UCSORG
 10
0.0
 20
0.0
 30
0.0
  9
$UCSXDIR
 10
1.0
 20
0.0
 30
0.0
  9
$UCSYDIR
 10
0.0
 20
1.0
 30
0.0
  9
$UCSORTHOREF
  2

  9
$UCSORTHOVIEW
 70
     0
  9
$UCSORGTOP
 10
0.0
 20
0.0
 30
0.0
  9
$UCSORGBOTTOM
 10
0.0
 20
0.0
 30
0.0
  9
$UCSORGLEFT
 10
0.0
 20
0.0
 30
0.0
  9
$UCSORGRIGHT
 10
0.0
 20
0.0
 30
0.0
  9
$UCSORGFRONT
 10
0.0
 20
0.0
 30
0.0
  9
$UCSORGBACK
 10
0.0
 20
0.0
 30
0.0
  9
$PUCSBASE
  2

  9
$PUCSNAME
  2

  9
$PUCSORG
 10
0.0
 20
0.0
 30
0.0
  9
$PUCSXDIR
 10
1.0
 20
0.0
 30
0.0
  9
$PUCSYDIR
 10
0.0
 20
1.0
 30
0.0
  9
$PUCSORTHOREF
  2

  9
$PUCSORTHOVIEW
 70
     0
  9
$PUCSORGTOP
 10
0.0
 20
0.0
 30
0.0
  9
$PUCSORGBOTTOM
 10
0.0
 20
0.0
 30
0.0
  9
$PUCSORGLEFT
 10
0.0
 20
0.0
 30
0.0
  9
$PUCSORGRIGHT
 10
0.0
 20
0.0
 30
0.0
  9
$PUCSORGFRONT
 10
0.0
 20
0.0
 30
0.0
  9
$PUCSORGBACK
 10
0.0
 20
0.0
 30
0.0
  9
$USERI1
 70
     0
  9
$USERI2
 70
     0
  9
$USERI3
 70
     0
  9
$USERI4
 70
     0
  9
$USERI5
 70
     0
  9
$USERR1
 40
0.0
  9
$USERR2
 40
0.0
  9
$USERR3
 40
0.0
  9
$USERR4
 40
0.0
  9
$USERR5
 40
0.0
  9
$WORLDVIEW
 70
     1
  9
$SHADEDGE
 70
     3
  9
$SHADEDIF
 70
    70
  9
$TILEMODE
 70
     1
  9
$MAXACTVP
 70
    64
  9
$PINSBASE
 10
0.0
 20
0.0
 30
0.0
  9
$PLIMCHECK
 70
     0
  9
$PEXTMIN
 10
1.000000000000000E+20
 20
1.000000000000000E+20
 30
1.000000000000000E+20
  9
$PEXTMAX
 10
-1.000000000000000E+20
 20
-1.000000000000000E+20
 30
-1.000000000000000E+20
  9
$PLIMMIN
 10
0.0
 20
0.0
  9
$PLIMMAX
 10
420.0
 20
297.0
  9
$UNITMODE
 70
     0
  9
$VISRETAIN
 70
     1
  9
$PLINEGEN
 70
     0
  9
$PSLTSCALE
 70
     1
  9
$TREEDEPTH
 70
  3020
  9
$CMLSTYLE
  2
Standard
  9
$CMLJUST
 70
     0
  9
$CMLSCALE
 40
20.0
  9
$PROXYGRAPHICS
 70
     1
  9
$MEASUREMENT
 70
     1
  9
$CELWEIGHT
370
    -1
  9
$ENDCAPS
280
     0
  9
$JOINSTYLE
280
     0
  9
$LWDISPLAY
290
     0
  9
$INSUNITS
 70
     4
  9
$HYPERLINKBASE
  1

  9
$STYLESHEET
  1

  9
$XEDIT
290
     1
  9
$CEPSNTYPE
380
     0
  9
$PSTYLEMODE
290
     1
  9
$FINGERPRINTGUID
  2
{C556F46E-140C-40B4-B593-DC2473B7B89F}
  9
$VERSIONGUID
  2
{FAEB1C32-E019-11D5-929B-00C0DF256EC4}
  9
$EXTNAMES
290
     1
  9
$PSVPSCALE
 40
0.0
  9
$OLESTARTUP
290
     0
  9
$SORTENTS
280
   127
  9
$INDEXCTL
280
     0
  9
$HIDETEXT
280
     1
  9
$XCLIPFRAME
290
     0
  9
$HALOGAP
280
     0
  9
$OBSCOLOR
 70
   257
  9
$OBSLTYPE
280
     0
  9
$INTERSECTIONDISPLAY
280
     0
  9
$INTERSECTIONCOLOR
 70
   257
  9
$DIMASSOC
280
     2
  9
$PROJECTNAME
  1

  0
ENDSEC
  0
SECTION
  2
CLASSES
  0
CLASS
  1
ACDBDICTIONARYWDFLT
  2
AcDbDictionaryWithDefault
  3
ObjectDBX Classes
 90
        0
 91
        4
280
     0
281
     0
  0
CLASS
  1
VISUALSTYLE
  2
AcDbVisualStyle
  3
ObjectDBX Classes
 90
     4095
 91
        4
280
     0
281
     0
  0
CLASS
  1
MATERIAL
  2
AcDbMaterial
  3
ObjectDBX Classes
 90
     1153
 91
        4
280
     0
281
     0
  0
CLASS
  1
SCALE
  2
AcDbScale
  3
ObjectDBX Classes
 90
     1153
 91
        4
280
     0
281
     0
  0
CLASS
  1
TABLESTYLE
  2
AcDbTableStyle
  3
ObjectDBX Classes
 90
     4095
 91
        4
280
     0
281
     0
  0
CLASS
  1
MLEADERSTYLE
  2
AcDbMLeaderStyle
  3
ACDB_MLEADERSTYLE_CLASS
 90
     4095
 91
        4
280
     0
281
     0
  0
CLASS
  1
SUN
  2
AcDbSun
  3
SCENEOE
 90
     1153
 91
        4
280
     0
281
     0
  0
CLASS
  1
DICTIONARYVAR
  2
AcDbDictionaryVar
  3
ObjectDBX Classes
 90
        0
 91
        4
280
     0
281
     0
  0
CLASS
  1
CELLSTYLEMAP
  2
AcDbCellStyleMap
  3
ObjectDBX Classes
 90
     1152
 91
        4
280
     0
281
     0
  0
ENDSEC
  0
SECTION
  2
TABLES
  0
TABLE
  2
VPORT
  5
8
102
{ACAD_XDICTIONARY
360
347
102
}
330
0
100
AcDbSymbolTable
 70
     1
  0
VPORT
  5
29
330
8
100
AcDbSymbolTableRecord
100
AcDbViewportTableRecord
  2
*Active
 70
     0
 10
0.0
 20
0.0
 11
1.0
 21
1.0
 12
0.0
 22
0.0
 13
0.0
 23
0.0
 14
10.0
 24
10.0
 15
10.0
 25
10.0
 16
0.0
 26
0.0
 36
1.0
 17
0.0
 27
0.0
 37
0.0
 40
1960.2
 41
1.414141414141414
 42
50.0
 43
0.0
 44
0.0
 50
0.0
 51
0.0
 71
     0
 72
 10000
 73
     1
 74
     3
 75
     0
 76
     0
 77
     0
 78
     0
281
     0
 65
     1
110
0.0
120
0.0
130
0.0
111
1.0
121
0.0
131
0.0
112
0.0
122
1.0
132
0.0
 79
     0
146
0.0
  0
ENDTAB
  0
TABLE
  2
LTYPE
  5
5
330
0
100
AcDbSymbolTable
 70
     3
  0
LTYPE
  5
14
330
5
100
AcDbSymbolTableRecord
100
AcDbLinetypeTableRecord
  2
ByBlock
 70
     0
  3

 72
    65
 73
     0
 40
0.0
  0
LTYPE
  5
15
330
5
100
AcDbSymbolTableRecord
100
AcDbLinetypeTableRecord
  2
ByLayer
 70
     0
  3

 72
    65
 73
     0
 40
0.0
  0
LTYPE
  5
16
330
5
100
AcDbSymbolTableRecord
100
AcDbLinetypeTableRecord
  2
Continuous
 70
     0
  3
Solid line
 72
    65
 73
     0
 40
0.0
  0
LTYPE
  5
6F
330
5
100
AcDbSymbolTableRecord
100
AcDbLinetypeTableRecord
  2
JWW_CENTER1
 70
     0
  3
-----  --  ----------  --  -----
 72
    65
 73
     4
 40
6.773333333333333
 49
4.233333333333333
 74
     0
 49
-0.8466666666666667
 74
     0
 49
0.8466666666666667
 74
     0
 49
-0.8466666666666667
 74
     0
  0
LTYPE
  5
70
330
5
100
AcDbSymbolTableRecord
100
AcDbLinetypeTableRecord
  2
JWW_DASHED1
 70
     0
  3
-  --  --  --  --  --  --  --  -
 72
    65
 73
     2
 40
1.693333333333333
 49
0.8466666666666667
 74
     0
 49
-0.8466666666666667
 74
     0
  0
ENDTAB
  0
TABLE
  2
LAYER
  5
2
330
0
100
AcDbSymbolTable
 70
    12
  0
LAYER
  5
10
330
2
100
AcDbSymbolTableRecord
100
AcDbLayerTableRecord
  2
0
 70
     0
 62
     7
  6
Continuous
370
    -3
390
F
  0
LAYER
  5
71
330
2
100
AcDbSymbolTableRecord
100
AcDbLayerTableRecord
  2
1-F
 70
     0
 62
     7
  6
Continuous
370
    -3
390
F
  0
LAYER
  5
72
330
2
100
AcDbSymbolTableRecord
100
AcDbLayerTableRecord
  2
2-Fﾚｲﾔ
 70
     0
 62
     7
  6
Continuous
370
    -3
390
F
  0
LAYER
  5
73
330
2
100
AcDbSymbolTableRecord
100
AcDbLayerTableRecord
  2
2-1
 70
     0
 62
     7
  6
Continuous
370
    -3
390
F
  0
LAYER
  5
74
330
2
100
AcDbSymbolTableRecord
100
AcDbLayerTableRecord
  2
F-5ﾚｲﾔ
 70
     0
 62
     7
  6
Continuous
370
    -3
390
F
  0
LAYER
  5
75
330
2
100
AcDbSymbolTableRecord
100
AcDbLayerTableRecord
  2
1-0ﾚｲﾔ
 70
     0
 62
     7
  6
Continuous
370
    -3
390
F
  0
LAYER
  5
76
330
2
100
AcDbSymbolTableRecord
100
AcDbLayerTableRecord
  2
1-5ﾚｲﾔ
 70
     0
 62
     7
  6
Continuous
370
    -3
390
F
  0
LAYER
  5
77
330
2
100
AcDbSymbolTableRecord
100
AcDbLayerTableRecord
  2
1-A
 70
     0
 62
     7
  6
Continuous
370
    -3
390
F
  0
LAYER
  5
78
330
2
100
AcDbSymbolTableRecord
100
AcDbLayerTableRecord
  2
1-1ﾚｲﾔ
 70
     0
 62
     7
  6
Continuous
370
    -3
390
F
  0
LAYER
  5
79
330
2
100
AcDbSymbolTableRecord
100
AcDbLayerTableRecord
  2
1-4ﾚｲﾔ
 70
     0
 62
     7
  6
Continuous
370
    -3
390
F
  0
LAYER
  5
7A
330
2
100
AcDbSymbolTableRecord
100
AcDbLayerTableRecord
  2
1-2ﾚｲﾔ
 70
     0
 62
     7
  6
Continuous
370
    -3
390
F
  0
LAYER
  5
7B
330
2
100
AcDbSymbolTableRecord
100
AcDbLayerTableRecord
  2
1-E
 70
     0
 62
     7
  6
Continuous
370
    -3
390
F
  0
ENDTAB
  0
TABLE
  2
STYLE
  5
3
330
0
100
AcDbSymbolTable
 70
     2
  0
STYLE
  5
11
330
3
100
AcDbSymbolTableRecord
100
AcDbTextStyleTableRecord
  2
Standard
 70
     0
 40
0.0
 41
1.0
 50
0.0
 71
     0
 42
2.5
  3
txt
  4

  0
STYLE
  5
6E
330
3
100
AcDbSymbolTableRecord
100
AcDbTextStyleTableRecord
  2
ＭＳ ゴシック
 70
     0
 40
1.0
 41
1.0
 50
0.0
 71
     0
 42
2.5
  3

  4

1001
ACAD
1000
MS Gothic
1071
    32817
  0
ENDTAB
  0
TABLE
  2
VIEW
  5
6
330
0
100
AcDbSymbolTable
 70
     0
  0
ENDTAB
  0
TABLE
  2
UCS
  5
7
330
0
100
AcDbSymbolTable
 70
     0
  0
ENDTAB
  0
TABLE
  2
APPID
  5
9
330
0
100
AcDbSymbolTable
 70
     2
  0
APPID
  5
12
330
9
100
AcDbSymbolTableRecord
100
AcDbRegAppTableRecord
  2
ACAD
 70
     0
  0
APPID
  5
386
330
9
100
AcDbSymbolTableRecord
100
AcDbRegAppTableRecord
  2
ACAD_MLEADERVER
 70
     0
  0
ENDTAB
  0
TABLE
  2
DIMSTYLE
  5
A
330
0
100
AcDbSymbolTable
 70
     1
100
AcDbDimStyleTable
  0
DIMSTYLE
105
27
330
A
100
AcDbSymbolTableRecord
100
AcDbDimStyleTableRecord
  2
ISO-25
 70
     0
 41
2.5
 42
0.625
 43
3.75
 44
1.25
 73
     0
 74
     0
 77
     1
 78
     8
140
2.5
141
2.5
143
0.03937007874016
147
0.625
171
     3
172
     1
178
     0
271
     2
272
     2
274
     3
278
    44
283
     0
284
     8
340
11
  0
ENDTAB
  0
TABLE
  2
BLOCK_RECORD
  5
1
330
0
100
AcDbSymbolTable
 70
     1
  0
BLOCK_RECORD
  5
1F
330
1
100
AcDbSymbolTableRecord
100
AcDbBlockTableRecord
  2
*Model_Space
340
22
  0
BLOCK_RECORD
  5
1B
330
1
100
AcDbSymbolTableRecord
100
AcDbBlockTableRecord
  2
*Paper_Space
340
1E
  0
BLOCK_RECORD
  5
23
330
1
100
AcDbSymbolTableRecord
100
AcDbBlockTableRecord
  2
*Paper_Space0
340
26
  0
ENDTAB
  0
ENDSEC
  0
SECTION
  2
BLOCKS
  0
BLOCK
  5
20
330
1F
100
AcDbEntity
  8
0
100
AcDbBlockBegin
  2
*Model_Space
 70
     0
 10
0.0
 20
0.0
 30
0.0
  3
*Model_Space
  1

  0
ENDBLK
  5
21
330
1F
100
AcDbEntity
  8
0
100
AcDbBlockEnd
  0
BLOCK
  5
1C
330
1B
100
AcDbEntity
 67
     1
  8
0
100
AcDbBlockBegin
  2
*Paper_Space
 70
     0
 10
0.0
 20
0.0
 30
0.0
  3
*Paper_Space
  1

  0
ENDBLK
  5
1D
330
1B
100
AcDbEntity
 67
     1
  8
0
100
AcDbBlockEnd
  0
BLOCK
  5
24
330
23
100
AcDbEntity
  8
0
100
AcDbBlockBegin
  2
*Paper_Space0
 70
     0
 10
0.0
 20
0.0
 30
0.0
  3
*Paper_Space0
  1

  0
ENDBLK
  5
25
330
23
100
AcDbEntity
  8
0
100
AcDbBlockEnd
  0
ENDSEC
  0
SECTION
  2
ENTITIES
  0
TEXT
  5
7C
330
1F
100
AcDbEntity
  8
1-F
  6
Continuous
 62
     2
370
     9
100
AcDbText
 10
-862.3203045888681
 20
-526.6548019357211
 30
0.0
 40
18.288
  1
φ９．５×２００
 41
1.109375
  7
ＭＳ ゴシック
100
AcDbText
  0
LINE
  5
7D
330
1F
100
AcDbEntity
  8
1-F
  6
Continuous
 62
     7
370
     9
100
AcDbLine
 10
-766.8843016176945
 20
-439.3887041746873
 30
0.0
 11
-766.8843016176945
 21
-469.2460551169379
 31
0.0
  0
LINE
  5
7E
330
1F
100
AcDbEntity
  8
1-F
  6
Continuous
 62
     7
370
     9
100
AcDbLine
 10
-766.8843016176945
 20
-469.2460551169379
 30
0.0
 11
-868.3139429289276
 21
-469.2460551169379
 31
0.0
  0
LINE
  5
7F
330
1F
100
AcDbEntity
  8
1-F
  6
Continuous
 62
     7
370
     9
100
AcDbLine
 10
-868.3139429289276
 20
-469.2460551169379
 30
0.0
 11
-868.3139429289276
 21
-439.3887041746873
 31
0.0
  0
LINE
  5
80
330
1F
100
AcDbEntity
  8
1-F
  6
Continuous
 62
     7
370
     9
100
AcDbLine
 10
-868.3139429289276
 20
-439.3887041746873
 30
0.0
 11
-766.8843016176945
 21
-439.3887041746873
 31
0.0
  0
TEXT
  5
81
330
1F
100
AcDbEntity
  8
1-F
  6
Continuous
 62
     7
370
     9
100
AcDbText
 10
-847.5991593892845
 20
-460.7793722226179
 30
0.0
 40
13.716
  1
別　売
 41
1.111111111111111
  7
ＭＳ ゴシック
100
AcDbText
  0
TEXT
  5
82
330
1F
100
AcDbEntity
  8
1-F
  6
Continuous
 62
     2
370
     9
100
AcDbText
 10
-862.3203045888681
 20
-497.985903413699
 30
0.0
 40
18.288
  1
スチール製固定用釘
 41
1.111111111111111
  7
ＭＳ ゴシック
100
AcDbText
  0
LINE
  5
83
330
1F
100
AcDbEntity
  8
1-F
  6
Continuous
 62
     7
370
     9
100
AcDbLine
 10
36.76827095650344
 20
-20.13425754856422
 30
0.0
 11
36.76827095650344
 21
-269.7999374802048
 31
0.0
  0
LINE
  5
84
330
1F
100
AcDbEntity
  8
1-F
  6
Continuous
 62
     7
370
     9
100
AcDbLine
 10
36.76827095650344
 20
-269.7999374802048
 30
0.0
 11
1116.768270956503
 21
-269.7999374802048
 31
0.0
  0
LINE
  5
85
330
1F
100
AcDbEntity
  8
1-F
  6
Continuous
 62
     7
370
     9
100
AcDbLine
 10
36.76827095650344
 20
-20.13425754856422
 30
0.0
 11
1116.768270956503
 21
-20.13425754856422
 31
0.0
  0
LINE
  5
86
330
1F
100
AcDbEntity
  8
1-F
  6
Continuous
 62
     7
370
     9
100
AcDbLine
 10
59.65561325485658
 20
-295.877843083562
 30
0.0
 11
59.65561325485658
 21
-338.0488264754011
 31
0.0
  0
LINE
  5
87
330
1F
100
AcDbEntity
  8
1-F
  6
Continuous
 62
     7
370
     9
100
AcDbLine
 10
59.65561325485658
 20
-338.0488264754011
 30
0.0
 11
508.93853264886
 21
-338.0488264754011
 31
0.0
  0
LINE
  5
88
330
1F
100
AcDbEntity
  8
1-F
  6
Continuous
 62
     7
370
     9
100
AcDbLine
 10
508.93853264886
 20
-338.0488264754011
 30
0.0
 11
508.93853264886
 21
-295.877843083562
 31
0.0
  0
LINE
  5
89
330
1F
100
AcDbEntity
  8
1-F
  6
Continuous
 62
     7
370
     9
100
AcDbLine
 10
508.93853264886
 20
-295.877843083562
 30
0.0
 11
59.65561325485658
 21
-295.877843083562
 31
0.0
  0
LINE
  5
8A
330
1F
100
AcDbEntity
  8
1-F
  6
Continuous
 62
     7
370
     9
100
AcDbLine
 10
36.76827095650344
 20
-316.9633162214949
 30
0.0
 11
36.76827095650344
 21
-626.2592963141365
 31
0.0
  0
LINE
  5
8B
330
1F
100
AcDbEntity
  8
1-F
  6
Continuous
 62
     7
370
     9
100
AcDbLine
 10
36.76827095650344
 20
-626.2592963141365
 30
0.0
 11
1116.768270956503
 21
-626.2592963141365
 31
0.0
  0
LINE
  5
8C
330
1F
100
AcDbEntity
  8
1-F
  6
Continuous
 62
     7
370
     9
100
AcDbLine
 10
1116.768270956503
 20
-316.9633162214949
 30
0.0
 11
508.93853264886
 21
-316.9633162214949
 31
0.0
  0
LINE
  5
8D
330
1F
100
AcDbEntity
  8
1-F
  6
Continuous
 62
     7
370
     9
100
AcDbLine
 10
59.65561325485658
 20
-316.9633162214949
 30
0.0
 11
36.76827095650344
 21
-316.9633162214949
 31
0.0
  0
LINE
  5
8E
330
1F
100
AcDbEntity
  8
1-F
  6
Continuous
 62
     7
370
     9
100
AcDbLine
 10
59.65561325485658
 20
258.9827616923564
 30
0.0
 11
59.65561325485658
 21
216.8115927206505
 31
0.0
  0
LINE
  5
8F
330
1F
100
AcDbEntity
  8
1-F
  6
Continuous
 62
     7
370
     9
100
AcDbLine
 10
59.65561325485658
 20
216.8115927206505
 30
0.0
 11
388.9385821368244
 21
216.8115927206505
 31
0.0
  0
LINE
  5
90
330
1F
100
AcDbEntity
  8
1-F
  6
Continuous
 62
     7
370
     9
100
AcDbLine
 10
388.9385821368244
 20
216.8115927206505
 30
0.0
 11
388.9385821368244
 21
258.9827616923564
 31
0.0
  0
LINE
  5
91
330
1F
100
AcDbEntity
  8
1-F
  6
Continuous
 62
     7
370
     9
100
AcDbLine
 10
388.9385821368244
 20
258.9827616923564
 30
0.0
 11
59.65561325485658
 21
258.9827616923564
 31
0.0
  0
LINE
  5
92
330
1F
100
AcDbEntity
  8
1-F
  6
Continuous
 62
     7
370
     9
100
AcDbLine
 10
36.76827095650344
 20
237.8970287426098
 30
0.0
 11
36.76827095650344
 21
33.82197529560813
 31
0.0
  0
LINE
  5
93
330
1F
100
AcDbEntity
  8
1-F
  6
Continuous
 62
     7
370
     9
100
AcDbLine
 10
36.76827095650344
 20
33.82197529560813
 30
0.0
 11
1116.768270956503
 21
33.82197529560813
 31
0.0
  0
LINE
  5
94
330
1F
100
AcDbEntity
  8
1-F
  6
Continuous
 62
     7
370
     9
100
AcDbLine
 10
1116.768270956503
 20
33.82197529560813
 30
0.0
 11
1116.768270956503
 21
237.8970287426098
 31
0.0
  0
LINE
  5
95
330
1F
100
AcDbEntity
  8
1-F
  6
Continuous
 62
     7
370
     9
100
AcDbLine
 10
1116.768270956503
 20
237.8970287426098
 30
0.0
 11
388.9385821368244
 21
237.8970287426098
 31
0.0
  0
LINE
  5
96
330
1F
100
AcDbEntity
  8
1-F
  6
Continuous
 62
     7
370
     9
100
AcDbLine
 10
59.65561325485658
 20
237.8970287426098
 30
0.0
 11
36.76827095650344
 21
237.8970287426098
 31
0.0
  0
TEXT
  5
97
330
1F
100
AcDbEntity
  8
1-F
  6
Continuous
 62
     2
370
     9
100
AcDbText
 10
38.81055017419774
 20
-3.730864864864841
 30
0.0
 40
18.288
  1
固定用釘ピッチ
 41
1.107142857142857
  7
ＭＳ ゴシック
100
AcDbText
  0
TEXT
  5
98
330
1F
100
AcDbEntity
  8
1-F
  6
Continuous
 62
     2
370
     9
100
AcDbText
 10
69.79714718380492
 20
-325.5793558118665
 30
0.0
 40
18.288
  1
アスファルト舗装の場合の注意事項
 41
1.1171875
  7
ＭＳ ゴシック
100
AcDbText
  0
TEXT
  5
99
330
1F
100
AcDbEntity
  8
1-F
  6
Continuous
 62
     2
370
     9
100
AcDbText
 10
58.37837342958204
 20
176.6790439453125
 30
0.0
 40
18.288
  1
現場にて本体にベースをたたきこみ組立ててください。
 41
1.12
  7
ＭＳ ゴシック
100
AcDbText
  0
TEXT
  5
9A
330
1F
100
AcDbEntity
  8
1-F
  6
Continuous
 62
     2
370
     9
100
AcDbText
 10
58.37838827597142
 20
140.6790736380913
 30
0.0
 40
18.288
  1
・定尺（２０２５ｍｍ）当たり１０ヶ
 41
1.117647058823529
  7
ＭＳ ゴシック
100
AcDbText
  0
TEXT
  5
9B
330
1F
100
AcDbEntity
  8
1-F
  6
Continuous
 62
     2
370
     9
100
AcDbText
 10
58.37840312236079
 20
104.67910333087
 30
0.0
 40
18.288
  1
・ベース取付位置：両端、ピッチ２２０ｍｍ（２１７．５ｍｍ）
 41
1.120689655172414
  7
ＭＳ ゴシック
100
AcDbText
  0
TEXT
  5
9C
330
1F
100
AcDbEntity
  8
1-F
  6
Continuous
 62
     2
370
     9
100
AcDbText
 10
68.23267921241555
 20
-101.8996452174831
 30
0.0
 40
18.288
  1
定尺（２０２５ｍｍ）に１０本必要となります。
 41
1.119318181818182
  7
ＭＳ ゴシック
100
AcDbText
  0
TEXT
  5
9D
330
1F
100
AcDbEntity
  8
1-F
  6
Continuous
 62
     2
370
     9
100
AcDbText
 10
131.2971719277872
 20
229.2811376161319
 30
0.0
 40
18.288
  1
組立てについて
 41
1.107142857142857
  7
ＭＳ ゴシック
100
AcDbText
  0
TEXT
  5
9E
330
1F
100
AcDbEntity
  8
1-F
  6
Continuous
 62
     2
370
     9
100
AcDbText
 10
68.23263467324759
 20
-65.89967491026171
 30
0.0
 40
18.288
  1
固定用釘は、ベースに全て打込んでください。
 41
1.119047619047619
  7
ＭＳ ゴシック
100
AcDbText
  0
TEXT
  5
9F
330
1F
100
AcDbEntity
  8
1-F
  6
Continuous
 62
     2
370
     9
100
AcDbText
 10
58.37835858319266
 20
-405.1325454761401
 30
0.0
 40
18.288
  1
アスファルト舗装は、見切材の熱膨張を
 41
1.118055555555556
  7
ＭＳ ゴシック
100
AcDbText
  0
TEXT
  5
A0
330
1F
100
AcDbEntity
  8
1-F
  6
Continuous
 62
     2
370
     9
100
AcDbText
 10
58.37835858319266
 20
-441.1325900153083
 30
0.0
 40
18.288
  1
考慮してジョイント部に１０mmの隙間を
 41
1.118055555555556
  7
ＭＳ ゴシック
100
AcDbText
  0
TEXT
  5
A1
330
1F
100
AcDbEntity
  8
1-F
  6
Continuous
 62
     2
370
     9
100
AcDbText
 10
58.37838827597142
 20
-477.1325603225295
 30
0.0
 40
18.288
  1
設けて施工してください。
 41
1.114583333333333
  7
ＭＳ ゴシック
100
AcDbText
  0
LINE
  5
A2
330
1F
100
AcDbEntity
  8
2-Fﾚｲﾔ
  6
Continuous
 62
     7
370
     9
100
AcDbLine
 10
-1067.559171109586
 20
776.7427340076192
 30
0.0
 11
-324.0833921690244
 21
776.7427340076192
 31
0.0
  0
LINE
  5
A3
330
1F
100
AcDbEntity
  8
2-Fﾚｲﾔ
  6
Continuous
 62
     7
370
     9
100
AcDbLine
 10
-1067.559171109586
 20
728.7427241100261
 30
0.0
 11
-324.0833921690244
 21
728.7427241100261
 31
0.0
  0
LINE
  5
A4
330
1F
100
AcDbEntity
  8
2-Fﾚｲﾔ
  6
Continuous
 62
     7
370
     9
100
AcDbLine
 10
-1067.559171109586
 20
776.7427340076192
 30
0.0
 11
-1067.559171109586
 21
728.7427241100261
 31
0.0
  0
LINE
  5
A5
330
1F
100
AcDbEntity
  8
2-Fﾚｲﾔ
  6
Continuous
 62
     7
370
     9
100
AcDbLine
 10
-324.0833921690244
 20
776.7427340076192
 30
0.0
 11
-324.0833921690244
 21
728.7427241100261
 31
0.0
  0
LINE
  5
A6
330
1F
100
AcDbEntity
  8
2-1
  6
Continuous
 62
     4
370
     9
100
AcDbLine
 10
-471.2065825591216
 20
484.3291399936833
 30
0.0
 11
-521.2065495671452
 21
484.3291399936833
 31
0.0
  0
LINE
  5
A7
330
1F
100
AcDbEntity
  8
2-1
  6
Continuous
 62
     4
370
     9
100
AcDbLine
 10
-471.2065825591216
 20
550.846160554283
 30
0.0
 11
-521.2065495671452
 21
550.846160554283
 31
0.0
  0
LINE
  5
A8
330
1F
100
AcDbEntity
  8
2-1
  6
Continuous
 62
     4
370
     9
100
AcDbLine
 10
-471.2065825591216
 20
552.3352534069013
 30
0.0
 11
-521.2065495671452
 21
552.3352534069013
 31
0.0
  0
LINE
  5
A9
330
1F
100
AcDbEntity
  8
2-1
  6
Continuous
 62
     4
370
     9
100
AcDbLine
 10
-521.2065495671452
 20
484.3291399936833
 30
0.0
 11
-521.2065495671452
 21
554.3292719615888
 31
0.0
  0
LINE
  5
AA
330
1F
100
AcDbEntity
  8
2-1
  6
Continuous
 62
     4
370
     9
100
AcDbLine
 10
-471.2065825591216
 20
484.3291399936833
 30
0.0
 11
-471.2065825591216
 21
554.3292719615888
 31
0.0
  0
LINE
  5
AB
330
1F
100
AcDbEntity
  8
2-1
  6
Continuous
 62
     4
370
     9
100
AcDbLine
 10
-471.2065825591216
 20
561.320733638109
 30
0.0
 11
-521.2065495671452
 21
561.320733638109
 31
0.0
  0
LINE
  5
AC
330
1F
100
AcDbEntity
  8
2-1
  6
Continuous
 62
     4
370
     9
100
AcDbLine
 10
-471.2065825591216
 20
563.3293016543673
 30
0.0
 11
-521.2065495671452
 21
563.3293016543673
 31
0.0
  0
LINE
  5
AD
330
1F
100
AcDbEntity
  8
2-1
  6
Continuous
 62
     4
370
     9
100
AcDbLine
 10
-521.2065495671452
 20
559.3290905057188
 30
0.0
 11
-521.2065495671452
 21
563.3293016543673
 31
0.0
  0
LINE
  5
AE
330
1F
100
AcDbEntity
  8
2-1
  6
Continuous
 62
     4
370
     9
100
AcDbLine
 10
-471.2065825591216
 20
559.3290905057188
 30
0.0
 11
-471.2065825591216
 21
563.3293016543673
 31
0.0
  0
LINE
  5
AF
330
1F
100
AcDbEntity
  8
2-1
  6
Continuous
 62
     4
370
     9
100
AcDbLine
 10
-691.2066155510979
 20
484.3291399936833
 30
0.0
 11
-741.2065825591216
 21
484.3291399936833
 31
0.0
  0
LINE
  5
B0
330
1F
100
AcDbEntity
  8
2-1
  6
Continuous
 62
     4
370
     9
100
AcDbLine
 10
-691.2066155510979
 20
550.846160554283
 30
0.0
 11
-741.2065825591216
 21
550.846160554283
 31
0.0
  0
LINE
  5
B1
330
1F
100
AcDbEntity
  8
2-1
  6
Continuous
 62
     4
370
     9
100
AcDbLine
 10
-691.2066155510979
 20
552.3352534069013
 30
0.0
 11
-741.2065825591216
 21
552.3352534069013
 31
0.0
  0
LINE
  5
B2
330
1F
100
AcDbEntity
  8
2-1
  6
Continuous
 62
     4
370
     9
100
AcDbLine
 10
-741.2065825591216
 20
484.3291399936833
 30
0.0
 11
-741.2065825591216
 21
554.3292719615888
 31
0.0
  0
LINE
  5
B3
330
1F
100
AcDbEntity
  8
2-1
  6
Continuous
 62
     4
370
     9
100
AcDbLine
 10
-691.2066155510979
 20
484.3291399936833
 30
0.0
 11
-691.2066155510979
 21
554.3292719615888
 31
0.0
  0
LINE
  5
B4
330
1F
100
AcDbEntity
  8
2-1
  6
Continuous
 62
     4
370
     9
100
AcDbLine
 10
-691.2066155510979
 20
561.320733638109
 30
0.0
 11
-741.2065825591216
 21
561.320733638109
 31
0.0
  0
LINE
  5
B5
330
1F
100
AcDbEntity
  8
2-1
  6
Continuous
 62
     4
370
     9
100
AcDbLine
 10
-691.2066155510979
 20
563.3293016543673
 30
0.0
 11
-741.2065825591216
 21
563.3293016543673
 31
0.0
  0
LINE
  5
B6
330
1F
100
AcDbEntity
  8
2-1
  6
Continuous
 62
     4
370
     9
100
AcDbLine
 10
-741.2065825591216
 20
559.3290905057188
 30
0.0
 11
-741.2065825591216
 21
563.3293016543673
 31
0.0
  0
LINE
  5
B7
330
1F
100
AcDbEntity
  8
2-1
  6
Continuous
 62
     4
370
     9
100
AcDbLine
 10
-691.2066155510979
 20
559.3290905057188
 30
0.0
 11
-691.2066155510979
 21
563.3293016543673
 31
0.0
  0
LINE
  5
B8
330
1F
100
AcDbEntity
  8
2-1
  6
Continuous
 62
     4
370
     9
100
AcDbLine
 10
-908.7063681112753
 20
484.3291399936833
 30
0.0
 11
-958.7064835831925
 21
484.3291399936833
 31
0.0
  0
LINE
  5
B9
330
1F
100
AcDbEntity
  8
2-1
  6
Continuous
 62
     4
370
     9
100
AcDbLine
 10
-908.7063681112753
 20
550.846160554283
 30
0.0
 11
-958.7064835831925
 21
550.846160554283
 31
0.0
  0
LINE
  5
BA
330
1F
100
AcDbEntity
  8
2-1
  6
Continuous
 62
     4
370
     9
100
AcDbLine
 10
-908.7063681112753
 20
552.3352534069013
 30
0.0
 11
-958.7064835831925
 21
552.3352534069013
 31
0.0
  0
LINE
  5
BB
330
1F
100
AcDbEntity
  8
2-1
  6
Continuous
 62
     4
370
     9
100
AcDbLine
 10
-958.7064835831925
 20
484.3291399936833
 30
0.0
 11
-958.7064835831925
 21
554.3292719615888
 31
0.0
  0
LINE
  5
BC
330
1F
100
AcDbEntity
  8
2-1
  6
Continuous
 62
     4
370
     9
100
AcDbLine
 10
-908.7063681112753
 20
484.3291399936833
 30
0.0
 11
-908.7063681112753
 21
554.3292719615888
 31
0.0
  0
LINE
  5
BD
330
1F
100
AcDbEntity
  8
2-1
  6
Continuous
 62
     4
370
     9
100
AcDbLine
 10
-908.7063681112753
 20
561.320733638109
 30
0.0
 11
-958.7064835831925
 21
561.320733638109
 31
0.0
  0
LINE
  5
BE
330
1F
100
AcDbEntity
  8
2-1
  6
Continuous
 62
     4
370
     9
100
AcDbLine
 10
-908.7063681112753
 20
563.3293016543673
 30
0.0
 11
-958.7064835831925
 21
563.3293016543673
 31
0.0
  0
LINE
  5
BF
330
1F
100
AcDbEntity
  8
2-1
  6
Continuous
 62
     4
370
     9
100
AcDbLine
 10
-958.7064835831925
 20
559.3290905057188
 30
0.0
 11
-958.7064835831925
 21
563.3293016543673
 31
0.0
  0
LINE
  5
C0
330
1F
100
AcDbEntity
  8
2-1
  6
Continuous
 62
     4
370
     9
100
AcDbLine
 10
-908.7063681112753
 20
559.3290905057188
 30
0.0
 11
-908.7063681112753
 21
563.3293016543673
 31
0.0
  0
LINE
  5
C1
330
1F
100
AcDbEntity
  8
2-1
  6
Continuous
 62
     2
370
     9
100
AcDbLine
 10
-958.7064835831925
 20
559.3290905057188
 30
0.0
 11
-958.7064835831925
 21
554.3292719615888
 31
0.0
  0
LINE
  5
C2
330
1F
100
AcDbEntity
  8
2-1
  6
JWW_CENTER1
 62
     4
370
     9
100
AcDbLine
 10
-716.2065990551098
 20
507.9798836328304
 30
0.0
 11
-716.2065990551098
 21
530.6785283224417
 31
0.0
  0
LINE
  5
C3
330
1F
100
AcDbEntity
  8
2-1
  6
JWW_CENTER1
 62
     4
370
     9
100
AcDbLine
 10
-704.8572767103041
 20
519.329205977636
 30
0.0
 11
-727.5559213999155
 21
519.329205977636
 31
0.0
  0
LINE
  5
C4
330
1F
100
AcDbEntity
  8
2-1
  6
JWW_CENTER1
 62
     4
370
     9
100
AcDbLine
 10
-933.7066485430744
 20
507.9798836328304
 30
0.0
 11
-933.7066485430744
 21
530.6785283224417
 31
0.0
  0
LINE
  5
C5
330
1F
100
AcDbEntity
  8
2-1
  6
JWW_CENTER1
 62
     4
370
     9
100
AcDbLine
 10
-922.357177734375
 20
519.329205977636
 30
0.0
 11
-945.05597088788
 21
519.329205977636
 31
0.0
  0
LINE
  5
C6
330
1F
100
AcDbEntity
  8
2-1
  6
Continuous
 62
     4
370
     9
100
AcDbLine
 10
-251.206623799092
 20
484.3291399936833
 30
0.0
 11
-301.2065908071156
 21
484.3291399936833
 31
0.0
  0
LINE
  5
C7
330
1F
100
AcDbEntity
  8
2-1
  6
Continuous
 62
     4
370
     9
100
AcDbLine
 10
-251.206623799092
 20
550.846160554283
 30
0.0
 11
-301.2065908071156
 21
550.846160554283
 31
0.0
  0
LINE
  5
C8
330
1F
100
AcDbEntity
  8
2-1
  6
Continuous
 62
     4
370
     9
100
AcDbLine
 10
-251.206623799092
 20
552.3352534069013
 30
0.0
 11
-301.2065908071156
 21
552.3352534069013
 31
0.0
  0
LINE
  5
C9
330
1F
100
AcDbEntity
  8
2-1
  6
Continuous
 62
     4
370
     9
100
AcDbLine
 10
-301.2065908071156
 20
484.3291399936833
 30
0.0
 11
-301.2065908071156
 21
554.3292719615888
 31
0.0
  0
LINE
  5
CA
330
1F
100
AcDbEntity
  8
2-1
  6
Continuous
 62
     4
370
     9
100
AcDbLine
 10
-251.206623799092
 20
484.3291399936833
 30
0.0
 11
-251.206623799092
 21
554.3292719615888
 31
0.0
  0
LINE
  5
CB
330
1F
100
AcDbEntity
  8
2-1
  6
Continuous
 62
     4
370
     9
100
AcDbLine
 10
-251.206623799092
 20
561.320733638109
 30
0.0
 11
-301.2065908071156
 21
561.320733638109
 31
0.0
  0
LINE
  5
CC
330
1F
100
AcDbEntity
  8
2-1
  6
Continuous
 62
     4
370
     9
100
AcDbLine
 10
-251.206623799092
 20
563.3293016543673
 30
0.0
 11
-301.2065908071156
 21
563.3293016543673
 31
0.0
  0
LINE
  5
CD
330
1F
100
AcDbEntity
  8
2-1
  6
Continuous
 62
     4
370
     9
100
AcDbLine
 10
-301.2065908071156
 20
559.3290905057188
 30
0.0
 11
-301.2065908071156
 21
563.3293016543673
 31
0.0
  0
LINE
  5
CE
330
1F
100
AcDbEntity
  8
2-1
  6
Continuous
 62
     4
370
     9
100
AcDbLine
 10
-251.206623799092
 20
559.3290905057188
 30
0.0
 11
-251.206623799092
 21
563.3293016543673
 31
0.0
  0
LINE
  5
CF
330
1F
100
AcDbEntity
  8
2-1
  6
Continuous
 62
     4
370
     9
100
AcDbLine
 10
-31.2066650390625
 20
484.3291399936833
 30
0.0
 11
-81.20663204708609
 21
484.3291399936833
 31
0.0
  0
LINE
  5
D0
330
1F
100
AcDbEntity
  8
2-1
  6
Continuous
 62
     4
370
     9
100
AcDbLine
 10
-31.2066650390625
 20
550.846160554283
 30
0.0
 11
-81.20663204708609
 21
550.846160554283
 31
0.0
  0
LINE
  5
D1
330
1F
100
AcDbEntity
  8
2-1
  6
Continuous
 62
     4
370
     9
100
AcDbLine
 10
-31.2066650390625
 20
552.3352534069013
 30
0.0
 11
-81.20663204708609
 21
552.3352534069013
 31
0.0
  0
LINE
  5
D2
330
1F
100
AcDbEntity
  8
2-1
  6
Continuous
 62
     4
370
     9
100
AcDbLine
 10
-81.20663204708609
 20
484.3291399936833
 30
0.0
 11
-81.20663204708609
 21
554.3292719615888
 31
0.0
  0
LINE
  5
D3
330
1F
100
AcDbEntity
  8
2-1
  6
Continuous
 62
     4
370
     9
100
AcDbLine
 10
-31.2066650390625
 20
484.3291399936833
 30
0.0
 11
-31.2066650390625
 21
554.3292719615888
 31
0.0
  0
LINE
  5
D4
330
1F
100
AcDbEntity
  8
2-1
  6
Continuous
 62
     4
370
     9
100
AcDbLine
 10
-31.2066650390625
 20
561.320733638109
 30
0.0
 11
-81.20663204708609
 21
561.320733638109
 31
0.0
  0
LINE
  5
D5
330
1F
100
AcDbEntity
  8
2-1
  6
Continuous
 62
     4
370
     9
100
AcDbLine
 10
-31.2066650390625
 20
563.3293016543673
 30
0.0
 11
-81.20663204708609
 21
563.3293016543673
 31
0.0
  0
LINE
  5
D6
330
1F
100
AcDbEntity
  8
2-1
  6
Continuous
 62
     4
370
     9
100
AcDbLine
 10
-81.20663204708609
 20
559.3290905057188
 30
0.0
 11
-81.20663204708609
 21
563.3293016543673
 31
0.0
  0
LINE
  5
D7
330
1F
100
AcDbEntity
  8
2-1
  6
Continuous
 62
     4
370
     9
100
AcDbLine
 10
-31.2066650390625
 20
559.3290905057188
 30
0.0
 11
-31.2066650390625
 21
563.3293016543673
 31
0.0
  0
LINE
  5
D8
330
1F
100
AcDbEntity
  8
2-1
  6
Continuous
 62
     4
370
     9
100
AcDbLine
 10
188.7933679529139
 20
484.3291399936833
 30
0.0
 11
138.7934009448903
 21
484.3291399936833
 31
0.0
  0
LINE
  5
D9
330
1F
100
AcDbEntity
  8
2-1
  6
Continuous
 62
     4
370
     9
100
AcDbLine
 10
188.7933679529139
 20
550.846160554283
 30
0.0
 11
138.7934009448903
 21
550.846160554283
 31
0.0
  0
LINE
  5
DA
330
1F
100
AcDbEntity
  8
2-1
  6
Continuous
 62
     4
370
     9
100
AcDbLine
 10
188.7933679529139
 20
552.3352534069013
 30
0.0
 11
138.7934009448903
 21
552.3352534069013
 31
0.0
  0
LINE
  5
DB
330
1F
100
AcDbEntity
  8
2-1
  6
Continuous
 62
     4
370
     9
100
AcDbLine
 10
138.7934009448903
 20
484.3291399936833
 30
0.0
 11
138.7934009448903
 21
554.3292719615888
 31
0.0
  0
LINE
  5
DC
330
1F
100
AcDbEntity
  8
2-1
  6
Continuous
 62
     4
370
     9
100
AcDbLine
 10
188.7933679529139
 20
484.3291399936833
 30
0.0
 11
188.7933679529139
 21
554.3292719615888
 31
0.0
  0
LINE
  5
DD
330
1F
100
AcDbEntity
  8
2-1
  6
Continuous
 62
     4
370
     9
100
AcDbLine
 10
188.7933679529139
 20
561.320733638109
 30
0.0
 11
138.7934009448903
 21
561.320733638109
 31
0.0
  0
LINE
  5
DE
330
1F
100
AcDbEntity
  8
2-1
  6
Continuous
 62
     4
370
     9
100
AcDbLine
 10
188.7933679529139
 20
563.3293016543673
 30
0.0
 11
138.7934009448903
 21
563.3293016543673
 31
0.0
  0
LINE
  5
DF
330
1F
100
AcDbEntity
  8
2-1
  6
Continuous
 62
     4
370
     9
100
AcDbLine
 10
138.7934009448903
 20
559.3290905057188
 30
0.0
 11
138.7934009448903
 21
563.3293016543673
 31
0.0
  0
LINE
  5
E0
330
1F
100
AcDbEntity
  8
2-1
  6
Continuous
 62
     4
370
     9
100
AcDbLine
 10
188.7933679529139
 20
559.3290905057188
 30
0.0
 11
188.7933679529139
 21
563.3293016543673
 31
0.0
  0
LINE
  5
E1
330
1F
100
AcDbEntity
  8
2-1
  6
Continuous
 62
     4
370
     9
100
AcDbLine
 10
408.7932524809966
 20
484.3291399936833
 30
0.0
 11
358.7932854729731
 21
484.3291399936833
 31
0.0
  0
LINE
  5
E2
330
1F
100
AcDbEntity
  8
2-1
  6
Continuous
 62
     4
370
     9
100
AcDbLine
 10
408.7932524809966
 20
550.846160554283
 30
0.0
 11
358.7932854729731
 21
550.846160554283
 31
0.0
  0
LINE
  5
E3
330
1F
100
AcDbEntity
  8
2-1
  6
Continuous
 62
     4
370
     9
100
AcDbLine
 10
408.7932524809966
 20
552.3352534069013
 30
0.0
 11
358.7932854729731
 21
552.3352534069013
 31
0.0
  0
LINE
  5
E4
330
1F
100
AcDbEntity
  8
2-1
  6
Continuous
 62
     4
370
     9
100
AcDbLine
 10
358.7932854729731
 20
484.3291399936833
 30
0.0
 11
358.7932854729731
 21
554.3292719615888
 31
0.0
  0
LINE
  5
E5
330
1F
100
AcDbEntity
  8
2-1
  6
Continuous
 62
     4
370
     9
100
AcDbLine
 10
408.7932524809966
 20
484.3291399936833
 30
0.0
 11
408.7932524809966
 21
554.3292719615888
 31
0.0
  0
LINE
  5
E6
330
1F
100
AcDbEntity
  8
2-1
  6
Continuous
 62
     4
370
     9
100
AcDbLine
 10
408.7932524809966
 20
561.320733638109
 30
0.0
 11
358.7932854729731
 21
561.320733638109
 31
0.0
  0
LINE
  5
E7
330
1F
100
AcDbEntity
  8
2-1
  6
Continuous
 62
     4
370
     9
100
AcDbLine
 10
408.7932524809966
 20
563.3293016543673
 30
0.0
 11
358.7932854729731
 21
563.3293016543673
 31
0.0
  0
LINE
  5
E8
330
1F
100
AcDbEntity
  8
2-1
  6
Continuous
 62
     4
370
     9
100
AcDbLine
 10
358.7932854729731
 20
559.3290905057188
 30
0.0
 11
358.7932854729731
 21
563.3293016543673
 31
0.0
  0
LINE
  5
E9
330
1F
100
AcDbEntity
  8
2-1
  6
Continuous
 62
     4
370
     9
100
AcDbLine
 10
408.7932524809966
 20
559.3290905057188
 30
0.0
 11
408.7932524809966
 21
563.3293016543673
 31
0.0
  0
LINE
  5
EA
330
1F
100
AcDbEntity
  8
2-1
  6
Continuous
 62
     4
370
     9
100
AcDbLine
 10
628.7931370090794
 20
484.3291399936833
 30
0.0
 11
578.793170001056
 21
484.3291399936833
 31
0.0
  0
LINE
  5
EB
330
1F
100
AcDbEntity
  8
2-1
  6
Continuous
 62
     4
370
     9
100
AcDbLine
 10
628.7931370090794
 20
550.846160554283
 30
0.0
 11
578.793170001056
 21
550.846160554283
 31
0.0
  0
LINE
  5
EC
330
1F
100
AcDbEntity
  8
2-1
  6
Continuous
 62
     4
370
     9
100
AcDbLine
 10
628.7931370090794
 20
552.3352534069013
 30
0.0
 11
578.793170001056
 21
552.3352534069013
 31
0.0
  0
LINE
  5
ED
330
1F
100
AcDbEntity
  8
2-1
  6
Continuous
 62
     4
370
     9
100
AcDbLine
 10
578.793170001056
 20
484.3291399936833
 30
0.0
 11
578.793170001056
 21
554.3292719615888
 31
0.0
  0
LINE
  5
EE
330
1F
100
AcDbEntity
  8
2-1
  6
Continuous
 62
     4
370
     9
100
AcDbLine
 10
628.7931370090794
 20
484.3291399936833
 30
0.0
 11
628.7931370090794
 21
554.3292719615888
 31
0.0
  0
LINE
  5
EF
330
1F
100
AcDbEntity
  8
2-1
  6
Continuous
 62
     4
370
     9
100
AcDbLine
 10
628.7931370090794
 20
561.320733638109
 30
0.0
 11
578.793170001056
 21
561.320733638109
 31
0.0
  0
LINE
  5
F0
330
1F
100
AcDbEntity
  8
2-1
  6
Continuous
 62
     4
370
     9
100
AcDbLine
 10
628.7931370090794
 20
563.3293016543673
 30
0.0
 11
578.793170001056
 21
563.3293016543673
 31
0.0
  0
LINE
  5
F1
330
1F
100
AcDbEntity
  8
2-1
  6
Continuous
 62
     4
370
     9
100
AcDbLine
 10
578.793170001056
 20
559.3290905057188
 30
0.0
 11
578.793170001056
 21
563.3293016543673
 31
0.0
  0
LINE
  5
F2
330
1F
100
AcDbEntity
  8
2-1
  6
Continuous
 62
     4
370
     9
100
AcDbLine
 10
628.7931370090794
 20
559.3290905057188
 30
0.0
 11
628.7931370090794
 21
563.3293016543673
 31
0.0
  0
LINE
  5
F3
330
1F
100
AcDbEntity
  8
2-1
  6
Continuous
 62
     4
370
     9
100
AcDbLine
 10
1066.293516416808
 20
484.3291399936833
 30
0.0
 11
1016.293549408784
 21
484.3291399936833
 31
0.0
  0
LINE
  5
F4
330
1F
100
AcDbEntity
  8
2-1
  6
Continuous
 62
     4
370
     9
100
AcDbLine
 10
1066.293516416808
 20
550.846160554283
 30
0.0
 11
1016.293549408784
 21
550.846160554283
 31
0.0
  0
LINE
  5
F5
330
1F
100
AcDbEntity
  8
2-1
  6
Continuous
 62
     4
370
     9
100
AcDbLine
 10
1066.293516416808
 20
552.3352534069013
 30
0.0
 11
1016.293549408784
 21
552.3352534069013
 31
0.0
  0
LINE
  5
F6
330
1F
100
AcDbEntity
  8
2-1
  6
Continuous
 62
     4
370
     9
100
AcDbLine
 10
1016.293549408784
 20
484.3291399936833
 30
0.0
 11
1016.293549408784
 21
554.3292719615888
 31
0.0
  0
LINE
  5
F7
330
1F
100
AcDbEntity
  8
2-1
  6
Continuous
 62
     4
370
     9
100
AcDbLine
 10
1066.293516416808
 20
484.3291399936833
 30
0.0
 11
1066.293516416808
 21
554.3292719615888
 31
0.0
  0
LINE
  5
F8
330
1F
100
AcDbEntity
  8
2-1
  6
Continuous
 62
     4
370
     9
100
AcDbLine
 10
1066.293516416808
 20
561.320733638109
 30
0.0
 11
1016.293549408784
 21
561.320733638109
 31
0.0
  0
LINE
  5
F9
330
1F
100
AcDbEntity
  8
2-1
  6
Continuous
 62
     4
370
     9
100
AcDbLine
 10
1066.293516416808
 20
563.3293016543673
 30
0.0
 11
1016.293549408784
 21
563.3293016543673
 31
0.0
  0
LINE
  5
FA
330
1F
100
AcDbEntity
  8
2-1
  6
Continuous
 62
     4
370
     9
100
AcDbLine
 10
1016.293549408784
 20
559.3290905057188
 30
0.0
 11
1016.293549408784
 21
563.3293016543673
 31
0.0
  0
LINE
  5
FB
330
1F
100
AcDbEntity
  8
2-1
  6
Continuous
 62
     4
370
     9
100
AcDbLine
 10
1066.293516416808
 20
559.3290905057188
 30
0.0
 11
1066.293516416808
 21
563.3293016543673
 31
0.0
  0
LINE
  5
FC
330
1F
100
AcDbEntity
  8
2-1
  6
Continuous
 62
     2
370
     9
100
AcDbLine
 10
1066.293516416808
 20
559.3290905057188
 30
0.0
 11
-958.7064835831925
 21
559.3290905057188
 31
0.0
  0
LINE
  5
FD
330
1F
100
AcDbEntity
  8
2-1
  6
Continuous
 62
     2
370
     9
100
AcDbLine
 10
1066.293516416808
 20
554.3292719615888
 30
0.0
 11
-958.7064835831925
 21
554.3292719615888
 31
0.0
  0
LINE
  5
FE
330
1F
100
AcDbEntity
  8
2-1
  6
Continuous
 62
     2
370
     9
100
AcDbLine
 10
1066.293516416808
 20
559.3290905057188
 30
0.0
 11
1066.293516416808
 21
554.3292719615888
 31
0.0
  0
LINE
  5
FF
330
1F
100
AcDbEntity
  8
2-1
  6
JWW_CENTER1
 62
     4
370
     9
100
AcDbLine
 10
-496.206714527027
 20
507.9798836328304
 30
0.0
 11
-496.206714527027
 21
530.6785283224417
 31
0.0
  0
LINE
  5
100
330
1F
100
AcDbEntity
  8
2-1
  6
JWW_CENTER1
 62
     4
370
     9
100
AcDbLine
 10
-484.8572437183277
 20
519.329205977636
 30
0.0
 11
-507.5558884079392
 21
519.329205977636
 31
0.0
  0
LINE
  5
101
330
1F
100
AcDbEntity
  8
2-1
  6
JWW_CENTER1
 62
     4
370
     9
100
AcDbLine
 10
-276.2066073031039
 20
507.9798836328304
 30
0.0
 11
-276.2066073031039
 21
530.6785283224417
 31
0.0
  0
LINE
  5
102
330
1F
100
AcDbEntity
  8
2-1
  6
JWW_CENTER1
 62
     4
370
     9
100
AcDbLine
 10
-264.8572849582981
 20
519.329205977636
 30
0.0
 11
-287.5558554159628
 21
519.329205977636
 31
0.0
  0
LINE
  5
103
330
1F
100
AcDbEntity
  8
2-1
  6
JWW_CENTER1
 62
     4
370
     9
100
AcDbLine
 10
-56.2065743111275
 20
507.9798836328304
 30
0.0
 11
-56.2065743111275
 21
530.6785283224417
 31
0.0
  0
LINE
  5
104
330
1F
100
AcDbEntity
  8
2-1
  6
JWW_CENTER1
 62
     4
370
     9
100
AcDbLine
 10
-44.85725196632171
 20
519.329205977636
 30
0.0
 11
-67.5558224239864
 21
519.329205977636
 31
0.0
  0
LINE
  5
105
330
1F
100
AcDbEntity
  8
2-1
  6
JWW_CENTER1
 62
     4
370
     9
100
AcDbLine
 10
163.7935329127956
 20
507.9798836328304
 30
0.0
 11
163.7935329127956
 21
530.6785283224417
 31
0.0
  0
LINE
  5
106
330
1F
100
AcDbEntity
  8
2-1
  6
JWW_CENTER1
 62
     4
370
     9
100
AcDbLine
 10
175.1427067937078
 20
519.329205977636
 30
0.0
 11
152.44421056799
 21
519.329205977636
 31
0.0
  0
LINE
  5
107
330
1F
100
AcDbEntity
  8
2-1
  6
JWW_CENTER1
 62
     4
370
     9
100
AcDbLine
 10
383.7935659047722
 20
507.9798836328304
 30
0.0
 11
383.7935659047722
 21
530.6785283224417
 31
0.0
  0
LINE
  5
108
330
1F
100
AcDbEntity
  8
2-1
  6
JWW_CENTER1
 62
     4
370
     9
100
AcDbLine
 10
395.1427397856841
 20
519.329205977636
 30
0.0
 11
372.4442435599663
 21
519.329205977636
 31
0.0
  0
LINE
  5
109
330
1F
100
AcDbEntity
  8
2-1
  6
JWW_CENTER1
 62
     4
370
     9
100
AcDbLine
 10
603.7935988967484
 20
507.9798836328304
 30
0.0
 11
603.7935988967484
 21
530.6785283224417
 31
0.0
  0
LINE
  5
10A
330
1F
100
AcDbEntity
  8
2-1
  6
JWW_CENTER1
 62
     4
370
     9
100
AcDbLine
 10
615.1427727776606
 20
519.329205977636
 30
0.0
 11
592.4442765519428
 21
519.329205977636
 31
0.0
  0
LINE
  5
10B
330
1F
100
AcDbEntity
  8
2-1
  6
JWW_CENTER1
 62
     4
370
     9
100
AcDbLine
 10
1041.293978304477
 20
507.9798836328304
 30
0.0
 11
1041.293978304477
 21
530.6785283224417
 31
0.0
  0
LINE
  5
10C
330
1F
100
AcDbEntity
  8
2-1
  6
JWW_CENTER1
 62
     4
370
     9
100
AcDbLine
 10
1052.643152185389
 20
519.329205977636
 30
0.0
 11
1029.944655959671
 21
519.329205977636
 31
0.0
  0
LINE
  5
10D
330
1F
100
AcDbEntity
  8
2-1
  6
Continuous
 62
     4
370
     9
100
AcDbLine
 10
848.793170001056
 20
484.3291399936833
 30
0.0
 11
798.7932029930322
 21
484.3291399936833
 31
0.0
  0
LINE
  5
10E
330
1F
100
AcDbEntity
  8
2-1
  6
Continuous
 62
     4
370
     9
100
AcDbLine
 10
848.793170001056
 20
550.846160554283
 30
0.0
 11
798.7932029930322
 21
550.846160554283
 31
0.0
  0
LINE
  5
10F
330
1F
100
AcDbEntity
  8
2-1
  6
Continuous
 62
     4
370
     9
100
AcDbLine
 10
848.793170001056
 20
552.3352534069013
 30
0.0
 11
798.7932029930322
 21
552.3352534069013
 31
0.0
  0
LINE
  5
110
330
1F
100
AcDbEntity
  8
2-1
  6
Continuous
 62
     4
370
     9
100
AcDbLine
 10
798.7932029930322
 20
484.3291399936833
 30
0.0
 11
798.7932029930322
 21
554.3292719615888
 31
0.0
  0
LINE
  5
111
330
1F
100
AcDbEntity
  8
2-1
  6
Continuous
 62
     4
370
     9
100
AcDbLine
 10
848.793170001056
 20
484.3291399936833
 30
0.0
 11
848.793170001056
 21
554.3292719615888
 31
0.0
  0
LINE
  5
112
330
1F
100
AcDbEntity
  8
2-1
  6
Continuous
 62
     4
370
     9
100
AcDbLine
 10
848.793170001056
 20
561.320733638109
 30
0.0
 11
798.7932029930322
 21
561.320733638109
 31
0.0
  0
LINE
  5
113
330
1F
100
AcDbEntity
  8
2-1
  6
Continuous
 62
     4
370
     9
100
AcDbLine
 10
848.793170001056
 20
563.3293016543673
 30
0.0
 11
798.7932029930322
 21
563.3293016543673
 31
0.0
  0
LINE
  5
114
330
1F
100
AcDbEntity
  8
2-1
  6
Continuous
 62
     4
370
     9
100
AcDbLine
 10
798.7932029930322
 20
559.3290905057188
 30
0.0
 11
798.7932029930322
 21
563.3293016543673
 31
0.0
  0
LINE
  5
115
330
1F
100
AcDbEntity
  8
2-1
  6
Continuous
 62
     4
370
     9
100
AcDbLine
 10
848.793170001056
 20
559.3290905057188
 30
0.0
 11
848.793170001056
 21
563.3293016543673
 31
0.0
  0
LINE
  5
116
330
1F
100
AcDbEntity
  8
2-1
  6
JWW_CENTER1
 62
     4
370
     9
100
AcDbLine
 10
823.7936318887247
 20
507.9798836328304
 30
0.0
 11
823.7936318887247
 21
530.6785283224417
 31
0.0
  0
LINE
  5
117
330
1F
100
AcDbEntity
  8
2-1
  6
JWW_CENTER1
 62
     4
370
     9
100
AcDbLine
 10
835.1428057696369
 20
519.329205977636
 30
0.0
 11
812.4443095439191
 21
519.329205977636
 31
0.0
  0
LINE
  5
118
330
1F
100
AcDbEntity
  8
2-Fﾚｲﾔ
  6
Continuous
 62
     7
370
     9
100
AcDbLine
 10
-958.7064835831925
 20
581.3293610399248
 30
0.0
 11
-958.7064835831925
 21
691.3085925908117
 31
0.0
  0
LINE
  5
119
330
1F
100
AcDbEntity
  8
2-Fﾚｲﾔ
  6
Continuous
 62
     7
370
     9
100
AcDbLine
 10
-958.7064835831925
 20
622.2099333847307
 30
0.0
 11
-976.5524374472128
 21
624.5593745006513
 31
0.0
  0
LINE
  5
11A
330
1F
100
AcDbEntity
  8
2-Fﾚｲﾔ
  6
Continuous
 62
     7
370
     9
100
AcDbLine
 10
-958.7064835831925
 20
622.2099333847307
 30
0.0
 11
-976.5524374472128
 21
619.86049226881
 31
0.0
  0
LINE
  5
11B
330
1F
100
AcDbEntity
  8
2-Fﾚｲﾔ
  6
Continuous
 62
     7
370
     9
100
AcDbLine
 10
-1009.025499498522
 20
622.2099333847307
 30
0.0
 11
1130.574967667863
 21
622.2099333847307
 31
0.0
  0
LINE
  5
11C
330
1F
100
AcDbEntity
  8
2-Fﾚｲﾔ
  6
Continuous
 62
     7
370
     9
100
AcDbLine
 10
-933.7066485430744
 20
622.2099333847307
 30
0.0
 11
-915.8603977512669
 21
624.5593745006513
 31
0.0
  0
LINE
  5
11D
330
1F
100
AcDbEntity
  8
2-Fﾚｲﾔ
  6
Continuous
 62
     7
370
     9
100
AcDbLine
 10
-933.7066485430744
 20
622.2099333847307
 30
0.0
 11
-915.8603977512669
 21
619.86049226881
 31
0.0
  0
LINE
  5
11E
330
1F
100
AcDbEntity
  8
2-Fﾚｲﾔ
  6
Continuous
 62
     7
370
     9
100
AcDbLine
 10
-698.3606451910896
 20
619.86049226881
 30
0.0
 11
-734.0525529191301
 21
624.5593745006513
 31
0.0
  0
LINE
  5
11F
330
1F
100
AcDbEntity
  8
2-Fﾚｲﾔ
  6
Continuous
 62
     7
370
     9
100
AcDbLine
 10
-698.3606451910896
 20
624.5593745006513
 30
0.0
 11
-734.0525529191301
 21
619.86049226881
 31
0.0
  0
LINE
  5
120
330
1F
100
AcDbEntity
  8
2-Fﾚｲﾔ
  6
Continuous
 62
     7
370
     9
100
AcDbLine
 10
-478.3606121991131
 20
619.86049226881
 30
0.0
 11
-514.0526683910473
 21
624.5593745006513
 31
0.0
  0
LINE
  5
121
330
1F
100
AcDbEntity
  8
2-Fﾚｲﾔ
  6
Continuous
 62
     7
370
     9
100
AcDbLine
 10
-478.3606121991131
 20
624.5593745006513
 30
0.0
 11
-514.0526683910473
 21
619.86049226881
 31
0.0
  0
LINE
  5
122
330
1F
100
AcDbEntity
  8
2-Fﾚｲﾔ
  6
Continuous
 62
     7
370
     9
100
AcDbLine
 10
-258.3607276710303
 20
619.86049226881
 30
0.0
 11
-294.0526353990709
 21
624.5593745006513
 31
0.0
  0
LINE
  5
123
330
1F
100
AcDbEntity
  8
2-Fﾚｲﾔ
  6
Continuous
 62
     7
370
     9
100
AcDbLine
 10
-258.3607276710303
 20
624.5593745006513
 30
0.0
 11
-294.0526353990709
 21
619.86049226881
 31
0.0
  0
LINE
  5
124
330
1F
100
AcDbEntity
  8
2-Fﾚｲﾔ
  6
Continuous
 62
     7
370
     9
100
AcDbLine
 10
-38.36069467905406
 20
619.86049226881
 30
0.0
 11
-74.05275087098812
 21
624.5593745006513
 31
0.0
  0
LINE
  5
125
330
1F
100
AcDbEntity
  8
2-Fﾚｲﾔ
  6
Continuous
 62
     7
370
     9
100
AcDbLine
 10
-38.36069467905406
 20
624.5593745006513
 30
0.0
 11
-74.05275087098812
 21
619.86049226881
 31
0.0
  0
LINE
  5
126
330
1F
100
AcDbEntity
  8
2-Fﾚｲﾔ
  6
Continuous
 62
     7
370
     9
100
AcDbLine
 10
181.6391898490288
 20
619.86049226881
 30
0.0
 11
145.9472821209883
 21
624.5593745006513
 31
0.0
  0
LINE
  5
127
330
1F
100
AcDbEntity
  8
2-Fﾚｲﾔ
  6
Continuous
 62
     7
370
     9
100
AcDbLine
 10
181.6391898490288
 20
624.5593745006513
 30
0.0
 11
145.9472821209883
 21
619.86049226881
 31
0.0
  0
LINE
  5
128
330
1F
100
AcDbEntity
  8
2-Fﾚｲﾔ
  6
Continuous
 62
     7
370
     9
100
AcDbLine
 10
401.639222841005
 20
619.86049226881
 30
0.0
 11
365.9473151129647
 21
624.5593745006513
 31
0.0
  0
LINE
  5
129
330
1F
100
AcDbEntity
  8
2-Fﾚｲﾔ
  6
Continuous
 62
     7
370
     9
100
AcDbLine
 10
401.639222841005
 20
624.5593745006513
 30
0.0
 11
365.9473151129647
 21
619.86049226881
 31
0.0
  0
LINE
  5
12A
330
1F
100
AcDbEntity
  8
2-Fﾚｲﾔ
  6
Continuous
 62
     7
370
     9
100
AcDbLine
 10
621.6392558329816
 20
619.86049226881
 30
0.0
 11
585.9473481049409
 21
624.5593745006513
 31
0.0
  0
LINE
  5
12B
330
1F
100
AcDbEntity
  8
2-Fﾚｲﾔ
  6
Continuous
 62
     7
370
     9
100
AcDbLine
 10
621.6392558329816
 20
624.5593745006513
 30
0.0
 11
585.9473481049409
 21
619.86049226881
 31
0.0
  0
LINE
  5
12C
330
1F
100
AcDbEntity
  8
2-Fﾚｲﾔ
  6
Continuous
 62
     7
370
     9
100
AcDbLine
 10
841.6392888249578
 20
619.86049226881
 30
0.0
 11
805.9473810969172
 21
624.5593745006513
 31
0.0
  0
LINE
  5
12D
330
1F
100
AcDbEntity
  8
2-Fﾚｲﾔ
  6
Continuous
 62
     7
370
     9
100
AcDbLine
 10
841.6392888249578
 20
624.5593745006513
 30
0.0
 11
805.9473810969172
 21
619.86049226881
 31
0.0
  0
LINE
  5
12E
330
1F
100
AcDbEntity
  8
2-Fﾚｲﾔ
  6
Continuous
 62
     7
370
     9
100
AcDbLine
 10
1041.293978304477
 20
622.2099333847307
 30
0.0
 11
1023.448024440456
 21
624.5593745006513
 31
0.0
  0
LINE
  5
12F
330
1F
100
AcDbEntity
  8
2-Fﾚｲﾔ
  6
Continuous
 62
     7
370
     9
100
AcDbLine
 10
1041.293978304477
 20
622.2099333847307
 30
0.0
 11
1023.448024440456
 21
619.86049226881
 31
0.0
  0
LINE
  5
130
330
1F
100
AcDbEntity
  8
2-Fﾚｲﾔ
  6
Continuous
 62
     7
370
     9
100
AcDbLine
 10
1066.293516416808
 20
581.3293610399248
 30
0.0
 11
1066.293516416808
 21
691.3085925908117
 31
0.0
  0
LINE
  5
131
330
1F
100
AcDbEntity
  8
2-Fﾚｲﾔ
  6
Continuous
 62
     7
370
     9
100
AcDbLine
 10
1066.293516416808
 20
622.2099333847307
 30
0.0
 11
1084.139470280828
 21
624.5593745006513
 31
0.0
  0
LINE
  5
132
330
1F
100
AcDbEntity
  8
2-Fﾚｲﾔ
  6
Continuous
 62
     7
370
     9
100
AcDbLine
 10
1066.293516416808
 20
622.2099333847307
 30
0.0
 11
1084.139470280828
 21
619.86049226881
 31
0.0
  0
LINE
  5
133
330
1F
100
AcDbEntity
  8
2-Fﾚｲﾔ
  6
Continuous
 62
     7
370
     9
100
AcDbLine
 10
1041.293978304477
 20
581.3293610399248
 30
0.0
 11
1041.293978304477
 21
624.0099096305078
 31
0.0
  0
LINE
  5
134
330
1F
100
AcDbEntity
  8
2-Fﾚｲﾔ
  6
Continuous
 62
     7
370
     9
100
AcDbLine
 10
823.7933349609375
 20
581.3293610399248
 30
0.0
 11
823.7933349609375
 21
624.0099096305078
 31
0.0
  0
LINE
  5
135
330
1F
100
AcDbEntity
  8
2-Fﾚｲﾔ
  6
Continuous
 62
     7
370
     9
100
AcDbLine
 10
-933.7066485430744
 20
581.3293610399248
 30
0.0
 11
-933.7066485430744
 21
624.0099096305078
 31
0.0
  0
LINE
  5
136
330
1F
100
AcDbEntity
  8
2-Fﾚｲﾔ
  6
Continuous
 62
     7
370
     9
100
AcDbLine
 10
-716.2065990551098
 20
581.3293610399248
 30
0.0
 11
-716.2065990551098
 21
624.0099096305078
 31
0.0
  0
LINE
  5
137
330
1F
100
AcDbEntity
  8
2-Fﾚｲﾔ
  6
Continuous
 62
     7
370
     9
100
AcDbLine
 10
-496.206714527027
 20
581.3293610399248
 30
0.0
 11
-496.206714527027
 21
624.0099096305078
 31
0.0
  0
LINE
  5
138
330
1F
100
AcDbEntity
  8
2-Fﾚｲﾔ
  6
Continuous
 62
     7
370
     9
100
AcDbLine
 10
-276.2066815350506
 20
581.3293610399248
 30
0.0
 11
-276.2066815350506
 21
624.0099096305078
 31
0.0
  0
LINE
  5
139
330
1F
100
AcDbEntity
  8
2-Fﾚｲﾔ
  6
Continuous
 62
     7
370
     9
100
AcDbLine
 10
-56.20672277502109
 20
581.3293610399248
 30
0.0
 11
-56.20672277502109
 21
624.0099096305078
 31
0.0
  0
LINE
  5
13A
330
1F
100
AcDbEntity
  8
2-Fﾚｲﾔ
  6
Continuous
 62
     7
370
     9
100
AcDbLine
 10
163.7932359850086
 20
581.3293610399248
 30
0.0
 11
163.7932359850086
 21
624.0099096305078
 31
0.0
  0
LINE
  5
13B
330
1F
100
AcDbEntity
  8
2-Fﾚｲﾔ
  6
Continuous
 62
     7
370
     9
100
AcDbLine
 10
383.793268976985
 20
581.3293610399248
 30
0.0
 11
383.793268976985
 21
624.0099096305078
 31
0.0
  0
LINE
  5
13C
330
1F
100
AcDbEntity
  8
2-Fﾚｲﾔ
  6
Continuous
 62
     7
370
     9
100
AcDbLine
 10
603.7933019689613
 20
581.3293610399248
 30
0.0
 11
603.7933019689613
 21
624.0099096305078
 31
0.0
  0
LINE
  5
13D
330
1F
100
AcDbEntity
  8
2-Fﾚｲﾔ
  6
Continuous
 62
     7
370
     9
100
AcDbLine
 10
-958.7064835831925
 20
689.5086163450347
 30
0.0
 11
1066.293516416808
 21
689.5086163450347
 31
0.0
  0
LINE
  5
13E
330
1F
100
AcDbEntity
  8
2-Fﾚｲﾔ
  6
Continuous
 62
     7
370
     9
100
AcDbLine
 10
-958.7064835831925
 20
689.5086163450347
 30
0.0
 11
-940.8605297191722
 21
691.8580574609554
 31
0.0
  0
LINE
  5
13F
330
1F
100
AcDbEntity
  8
2-Fﾚｲﾔ
  6
Continuous
 62
     7
370
     9
100
AcDbLine
 10
-958.7064835831925
 20
689.5086163450347
 30
0.0
 11
-940.8605297191722
 21
687.1591752291141
 31
0.0
  0
LINE
  5
140
330
1F
100
AcDbEntity
  8
2-Fﾚｲﾔ
  6
Continuous
 62
     7
370
     9
100
AcDbLine
 10
1066.293516416808
 20
689.5086163450347
 30
0.0
 11
1048.447562552787
 21
691.8580574609554
 31
0.0
  0
LINE
  5
141
330
1F
100
AcDbEntity
  8
2-Fﾚｲﾔ
  6
Continuous
 62
     7
370
     9
100
AcDbLine
 10
1066.293516416808
 20
689.5086163450347
 30
0.0
 11
1048.447562552787
 21
687.1591752291141
 31
0.0
  0
LINE
  5
142
330
1F
100
AcDbEntity
  8
2-Fﾚｲﾔ
  6
Continuous
 62
     7
370
     9
100
AcDbLine
 10
-907.2100005278716
 20
420.4430480912339
 30
0.0
 11
-729.4394828177786
 21
420.4430480912339
 31
0.0
  0
LINE
  5
143
330
1F
100
AcDbEntity
  8
2-Fﾚｲﾔ
  6
Continuous
 62
     7
370
     9
100
AcDbLine
 10
-1012.708591770481
 20
484.3291399936833
 30
0.0
 11
-1012.708591770481
 21
563.3293016543673
 31
0.0
  0
LINE
  5
144
330
1F
100
AcDbEntity
  8
2-Fﾚｲﾔ
  6
Continuous
 62
     7
370
     9
100
AcDbLine
 10
-976.70654296875
 20
484.3291399936833
 30
0.0
 11
-1014.508568016258
 21
484.3291399936833
 31
0.0
  0
LINE
  5
145
330
1F
100
AcDbEntity
  8
2-Fﾚｲﾔ
  6
Continuous
 62
     7
370
     9
100
AcDbLine
 10
-976.70654296875
 20
563.3293016543673
 30
0.0
 11
-1014.508568016258
 21
563.3293016543673
 31
0.0
  0
LINE
  5
146
330
1F
100
AcDbEntity
  8
2-Fﾚｲﾔ
  6
Continuous
 62
     7
370
     9
100
AcDbLine
 10
-1012.708591770481
 20
484.3291399936833
 30
0.0
 11
-1015.058032886402
 21
502.1750938577036
 31
0.0
  0
LINE
  5
147
330
1F
100
AcDbEntity
  8
2-Fﾚｲﾔ
  6
Continuous
 62
     7
370
     9
100
AcDbLine
 10
-1012.708591770481
 20
484.3291399936833
 30
0.0
 11
-1010.359002190667
 21
502.1750938577036
 31
0.0
  0
LINE
  5
148
330
1F
100
AcDbEntity
  8
2-Fﾚｲﾔ
  6
Continuous
 62
     7
370
     9
100
AcDbLine
 10
-1012.708591770481
 20
563.3293016543673
 30
0.0
 11
-1015.058032886402
 21
545.4833477903472
 31
0.0
  0
LINE
  5
149
330
1F
100
AcDbEntity
  8
2-Fﾚｲﾔ
  6
Continuous
 62
     7
370
     9
100
AcDbLine
 10
-1012.708591770481
 20
563.3293016543673
 30
0.0
 11
-1010.359002190667
 21
545.4833477903472
 31
0.0
  0
LINE
  5
14A
330
1F
100
AcDbEntity
  8
2-Fﾚｲﾔ
  6
Continuous
 62
     7
370
     9
100
AcDbLine
 10
-691.2066155510979
 20
484.3291399936833
 30
0.0
 11
-674.0884316934121
 21
420.4430480912339
 31
0.0
  0
LINE
  5
14B
330
1F
100
AcDbEntity
  8
2-Fﾚｲﾔ
  6
Continuous
 62
     7
370
     9
100
AcDbLine
 10
-691.2066155510979
 20
484.3291399936833
 30
0.0
 11
-684.3183362806166
 21
467.6992538819857
 31
0.0
  0
LINE
  5
14C
330
1F
100
AcDbEntity
  8
2-Fﾚｲﾔ
  6
Continuous
 62
     7
370
     9
100
AcDbLine
 10
-691.2066155510979
 20
484.3291399936833
 30
0.0
 11
-688.8571744351773
 21
466.483186129663
 31
0.0
  0
LINE
  5
14D
330
1F
100
AcDbEntity
  8
2-Fﾚｲﾔ
  6
Continuous
 62
     7
370
     9
100
AcDbLine
 10
-378.4411456133867
 20
554.3292719615888
 30
0.0
 11
-342.5664046004011
 21
420.4430480912339
 31
0.0
  0
LINE
  5
14E
330
1F
100
AcDbEntity
  8
2-Fﾚｲﾔ
  6
Continuous
 62
     7
370
     9
100
AcDbLine
 10
-378.4411456133867
 20
554.3292719615888
 30
0.0
 11
-371.5528663429053
 21
537.6993858498911
 31
0.0
  0
LINE
  5
14F
330
1F
100
AcDbEntity
  8
2-Fﾚｲﾔ
  6
Continuous
 62
     7
370
     9
100
AcDbLine
 10
-378.4411456133867
 20
554.3292719615888
 30
0.0
 11
-376.0917044974661
 21
536.4833180975685
 31
0.0
  0
LINE
  5
150
330
1F
100
AcDbEntity
  8
2-Fﾚｲﾔ
  6
Continuous
 62
     7
370
     9
100
AcDbLine
 10
-342.5664046004011
 20
420.4430480912339
 30
0.0
 11
-250.4720244536528
 21
420.4430480912339
 31
0.0
  0
LINE
  5
151
330
1F
100
AcDbEntity
  8
2-Fﾚｲﾔ
  6
Continuous
 62
     7
370
     9
100
AcDbLine
 10
-674.0884316934121
 20
420.4430480912339
 30
0.0
 11
-567.6085683461782
 21
420.4430480912339
 31
0.0
  0
CIRCLE
  5
152
330
1F
100
AcDbEntity
  8
2-1
  6
Continuous
 62
     4
370
     9
100
AcDbCircle
 10
-716.2065990551098
 20
519.329205977636
 30
0.0
 40
6.000000077324945
  0
CIRCLE
  5
153
330
1F
100
AcDbEntity
  8
2-1
  6
Continuous
 62
     4
370
     9
100
AcDbCircle
 10
-933.7066485430744
 20
519.329205977636
 30
0.0
 40
6.000000077324945
  0
CIRCLE
  5
154
330
1F
100
AcDbEntity
  8
2-1
  6
Continuous
 62
     4
370
     9
100
AcDbCircle
 10
-496.206714527027
 20
519.329205977636
 30
0.0
 40
6.000000077324945
  0
CIRCLE
  5
155
330
1F
100
AcDbEntity
  8
2-1
  6
Continuous
 62
     4
370
     9
100
AcDbCircle
 10
-276.2066073031039
 20
519.329205977636
 30
0.0
 40
6.000000077324945
  0
CIRCLE
  5
156
330
1F
100
AcDbEntity
  8
2-1
  6
Continuous
 62
     4
370
     9
100
AcDbCircle
 10
-56.2065743111275
 20
519.329205977636
 30
0.0
 40
6.000000077324945
  0
CIRCLE
  5
157
330
1F
100
AcDbEntity
  8
2-1
  6
Continuous
 62
     4
370
     9
100
AcDbCircle
 10
163.7935329127956
 20
519.329205977636
 30
0.0
 40
6.000000077324945
  0
CIRCLE
  5
158
330
1F
100
AcDbEntity
  8
2-1
  6
Continuous
 62
     4
370
     9
100
AcDbCircle
 10
383.7935659047722
 20
519.329205977636
 30
0.0
 40
6.000000077324945
  0
CIRCLE
  5
159
330
1F
100
AcDbEntity
  8
2-1
  6
Continuous
 62
     4
370
     9
100
AcDbCircle
 10
603.7935988967484
 20
519.329205977636
 30
0.0
 40
6.000000077324945
  0
CIRCLE
  5
15A
330
1F
100
AcDbEntity
  8
2-1
  6
Continuous
 62
     4
370
     9
100
AcDbCircle
 10
1041.293978304477
 20
519.329205977636
 30
0.0
 40
6.000000077324945
  0
CIRCLE
  5
15B
330
1F
100
AcDbEntity
  8
2-1
  6
Continuous
 62
     4
370
     9
100
AcDbCircle
 10
823.7936318887247
 20
519.329205977636
 30
0.0
 40
6.000000077324945
  0
TEXT
  5
15C
330
1F
100
AcDbEntity
  8
2-Fﾚｲﾔ
  6
Continuous
 62
     2
370
     9
100
AcDbText
 10
1078.816307274071
 20
628.5939432823235
 30
0.0
 40
18.288
  1
２５
 41
1.0625
  7
ＭＳ ゴシック
100
AcDbText
  0
TEXT
  5
15D
330
1F
100
AcDbEntity
  8
2-Fﾚｲﾔ
  6
Continuous
 62
     2
370
     9
100
AcDbText
 10
866.5438050966006
 20
628.5939432823235
 30
0.0
 40
18.288
  1
２１７．５
 41
1.1
  7
ＭＳ ゴシック
100
AcDbText
  0
TEXT
  5
15E
330
1F
100
AcDbEntity
  8
2-Fﾚｲﾔ
  6
Continuous
 62
     2
370
     9
100
AcDbText
 10
-1013.122063095505
 20
628.5939432823235
 30
0.0
 40
18.288
  1
２５
 41
1.0625
  7
ＭＳ ゴシック
100
AcDbText
  0
TEXT
  5
15F
330
1F
100
AcDbEntity
  8
2-Fﾚｲﾔ
  6
Continuous
 62
     2
370
     9
100
AcDbText
 10
-890.9566237990921
 20
628.5939432823235
 30
0.0
 40
18.288
  1
２１７．５
 41
1.1
  7
ＭＳ ゴシック
100
AcDbText
  0
TEXT
  5
160
330
1F
100
AcDbEntity
  8
2-Fﾚｲﾔ
  6
Continuous
 62
     2
370
     9
100
AcDbText
 10
-645.2065454431482
 20
628.5939432823235
 30
0.0
 40
18.288
  1
２２０
 41
1.083333333333333
  7
ＭＳ ゴシック
100
AcDbText
  0
TEXT
  5
161
330
1F
100
AcDbEntity
  8
2-Fﾚｲﾔ
  6
Continuous
 62
     2
370
     9
100
AcDbText
 10
-425.2066609150654
 20
628.5939432823235
 30
0.0
 40
18.288
  1
２２０
 41
1.083333333333333
  7
ＭＳ ゴシック
100
AcDbText
  0
TEXT
  5
162
330
1F
100
AcDbEntity
  8
2-Fﾚｲﾔ
  6
Continuous
 62
     2
370
     9
100
AcDbText
 10
-205.206627923089
 20
628.5939432823235
 30
0.0
 40
18.288
  1
２２０
 41
1.083333333333333
  7
ＭＳ ゴシック
100
AcDbText
  0
TEXT
  5
163
330
1F
100
AcDbEntity
  8
2-Fﾚｲﾔ
  6
Continuous
 62
     2
370
     9
100
AcDbText
 10
14.79321948902032
 20
628.5939432823235
 30
0.0
 40
18.288
  1
２２０
 41
1.083333333333333
  7
ＭＳ ゴシック
100
AcDbText
  0
TEXT
  5
164
330
1F
100
AcDbEntity
  8
2-Fﾚｲﾔ
  6
Continuous
 62
     2
370
     9
100
AcDbText
 10
234.7932524809967
 20
628.5939432823235
 30
0.0
 40
18.288
  1
２２０
 41
1.083333333333333
  7
ＭＳ ゴシック
100
AcDbText
  0
TEXT
  5
165
330
1F
100
AcDbEntity
  8
2-Fﾚｲﾔ
  6
Continuous
 62
     2
370
     9
100
AcDbText
 10
454.7931370090795
 20
628.5939432823235
 30
0.0
 40
18.288
  1
２２０
 41
1.083333333333333
  7
ＭＳ ゴシック
100
AcDbText
  0
TEXT
  5
166
330
1F
100
AcDbEntity
  8
2-Fﾚｲﾔ
  6
Continuous
 62
     2
370
     9
100
AcDbText
 10
674.7931700010558
 20
628.5939432823235
 30
0.0
 40
18.288
  1
２２０
 41
1.083333333333333
  7
ＭＳ ゴシック
100
AcDbText
  0
TEXT
  5
167
330
1F
100
AcDbEntity
  8
2-Fﾚｲﾔ
  6
Continuous
 62
     2
370
     9
100
AcDbText
 10
1.293590648754304
 20
695.8926262426276
 30
0.0
 40
18.288
  1
２０２５
 41
1.09375
  7
ＭＳ ゴシック
100
AcDbText
  0
TEXT
  5
168
330
1F
100
AcDbEntity
  8
2-Fﾚｲﾔ
  6
Continuous
 62
     2
370
     9
100
AcDbText
 10
-1019.092600553434
 20
498.3291464441593
 30
0.0
 40
18.288
  1
７９
 50
90.00000250447816
 41
1.062499999999998
  7
ＭＳ ゴシック
100
AcDbText
  0
TEXT
  5
169
330
1F
100
AcDbEntity
  8
2-Fﾚｲﾔ
  6
Continuous
 62
     3
370
     9
100
AcDbText
 10
-1033.321318755279
 20
741.9726053389115
 30
0.0
 40
22.86
  1
ガーデンエッジ　ＩＡ－５０　平面図　S=1:6
 41
1.097560975609756
  7
ＭＳ ゴシック
100
AcDbText
  0
TEXT
  5
16A
330
1F
100
AcDbEntity
  8
2-Fﾚｲﾔ
  6
Continuous
 62
     2
370
     9
100
AcDbText
 10
-663.4092580434439
 20
429.5867048427121
 30
0.0
 40
18.288
  1
ベース
 41
1.083333333333333
  7
ＭＳ ゴシック
100
AcDbText
  0
TEXT
  5
16B
330
1F
100
AcDbEntity
  8
2-Fﾚｲﾔ
  6
Continuous
 62
     2
370
     9
100
AcDbText
 10
-330.1818336280617
 20
429.5867048427121
 30
0.0
 40
18.288
  1
本体
 41
1.0625
  7
ＭＳ ゴシック
100
AcDbText
  0
TEXT
  5
16C
330
1F
100
AcDbEntity
  8
1-F
  6
Continuous
 62
     7
370
     9
100
AcDbText
 10
685.8701135271112
 20
-54.76686565667217
 30
0.0
 40
13.716
  1
ジョイント部
 41
1.138888888888889
  7
ＭＳ ゴシック
100
AcDbText
  0
TEXT
  5
16D
330
1F
100
AcDbEntity
  8
1-F
  6
Continuous
 62
     7
370
     9
100
AcDbText
 10
711.9394113752301
 20
-239.0740062654198
 30
0.0
 40
13.716
  1
固定用釘
 41
1.125
  7
ＭＳ ゴシック
100
AcDbText
  0
TEXT
  5
16E
330
1F
100
AcDbEntity
  8
1-F
  6
Continuous
 62
     7
370
     9
100
AcDbText
 10
955.5612672398838
 20
-98.0690871617457
 30
0.0
 40
13.716
  1
ジョイント金具
 41
1.142857142857143
  7
ＭＳ ゴシック
100
AcDbText
  0
TEXT
  5
16F
330
1F
100
AcDbEntity
  8
1-F
  6
Continuous
 62
     7
370
     9
100
AcDbText
 10
664.2047201717905
 20
-533.9894619320002
 30
0.0
 40
13.716
  1
１０mm
 50
330.000460202943
 41
1.138888888888891
  7
ＭＳ ゴシック
100
AcDbText
  0
TEXT
  5
170
330
1F
100
AcDbEntity
  8
F-5ﾚｲﾔ
  6
Continuous
 62
     2
370
     9
100
AcDbText
 10
-344.946487866957
 20
-794.751691850235
 30
0.0
 40
18.288
  1
アルミ製　舗装用見切材　ＩＡ－５０
 41
1.117647058823529
  7
ＭＳ ゴシック
100
AcDbText
  0
TEXT
  5
171
330
1F
100
AcDbEntity
  8
2-Fﾚｲﾔ
  6
Continuous
 62
     2
370
     9
100
AcDbText
 10
-896.4226115458721
 20
429.5867048427121
 30
0.0
 40
18.288
  1
１０－φ１２
 41
1.104166666666667
  7
ＭＳ ゴシック
100
AcDbText
  0
LINE
  5
172
330
1F
100
AcDbEntity
  8
2-Fﾚｲﾔ
  6
Continuous
 62
     7
370
     9
100
AcDbLine
 10
-932.1536360739605
 20
513.5336772529486
 30
0.0
 11
-907.2100005278716
 21
420.4430480912339
 31
0.0
  0
LINE
  5
173
330
1F
100
AcDbEntity
  8
2-Fﾚｲﾔ
  6
Continuous
 62
     7
370
     9
100
AcDbLine
 10
-932.1536360739605
 20
513.5336772529486
 30
0.0
 11
-925.2653568034791
 21
496.903791141251
 31
0.0
  0
LINE
  5
174
330
1F
100
AcDbEntity
  8
2-Fﾚｲﾔ
  6
Continuous
 62
     7
370
     9
100
AcDbLine
 10
-932.1536360739605
 20
513.5336772529486
 30
0.0
 11
-929.8041949580398
 21
495.6877233889282
 31
0.0
  0
LINE
  5
175
330
1F
100
AcDbEntity
  8
1-F
  6
Continuous
 62
     7
370
     9
100
AcDbLine
 10
-1067.559245341533
 20
258.9827616923564
 30
0.0
 11
-324.0833179370777
 21
258.9827616923564
 31
0.0
  0
LINE
  5
176
330
1F
100
AcDbEntity
  8
1-F
  6
Continuous
 62
     7
370
     9
100
AcDbLine
 10
-1067.559245341533
 20
210.9827517947636
 30
0.0
 11
-324.0833179370777
 21
210.9827517947636
 31
0.0
  0
LINE
  5
177
330
1F
100
AcDbEntity
  8
1-F
  6
Continuous
 62
     7
370
     9
100
AcDbLine
 10
-1067.559245341533
 20
258.9827616923564
 30
0.0
 11
-1067.559245341533
 21
210.9827517947636
 31
0.0
  0
LINE
  5
178
330
1F
100
AcDbEntity
  8
1-F
  6
Continuous
 62
     7
370
     9
100
AcDbLine
 10
-324.0833179370777
 20
258.9827616923564
 30
0.0
 11
-324.0833179370777
 21
210.9827517947636
 31
0.0
  0
TEXT
  5
179
330
1F
100
AcDbEntity
  8
1-F
  6
Continuous
 62
     3
370
     9
100
AcDbText
 10
-1033.321318755279
 20
224.2127072555955
 30
0.0
 40
22.86
  1
ガーデンエッジ　ＩＡ－５０　断面図　S=1:1
 41
1.097560975609756
  7
ＭＳ ゴシック
100
AcDbText
  0
LINE
  5
17A
330
1F
100
AcDbEntity
  8
1-0ﾚｲﾔ
  6
Continuous
 62
     3
370
     9
100
AcDbLine
 10
-216.3451327759146
 20
-103.4111281332609
 30
0.0
 11
-204.9639066271141
 21
-205.4110249290742
 31
0.0
  0
ARC
  5
17B
330
1F
100
AcDbEntity
  8
1-0ﾚｲﾔ
  6
Continuous
 62
     3
370
     9
100
AcDbCircle
 10
-207.9454168368312
 20
-205.7437268452542
 30
0.0
 40
3.000000038662472
100
AcDbArc
 50
270.0
 51
6.367202758789119
  0
LINE
  5
17C
330
1F
100
AcDbEntity
  8
1-0ﾚｲﾔ
  6
Continuous
 62
     3
370
     9
100
AcDbLine
 10
-678.5921420532579
 20
-202.7437169476614
 30
0.0
 11
-678.5921420532579
 21
-190.7439000531302
 31
0.0
  0
LINE
  5
17D
330
1F
100
AcDbEntity
  8
1-0ﾚｲﾔ
  6
Continuous
 62
     3
370
     9
100
AcDbLine
 10
-647.7135079870629
 20
-207.865275884528
 30
0.0
 11
-638.3494448272236
 21
-198.5010642607948
 31
0.0
  0
LINE
  5
17E
330
1F
100
AcDbEntity
  8
1-0ﾚｲﾔ
  6
Continuous
 62
     3
370
     9
100
AcDbLine
 10
-649.834834330496
 20
-208.7438109747939
 30
0.0
 11
-672.5920480261254
 21
-208.7438109747939
 31
0.0
  0
LINE
  5
17F
330
1F
100
AcDbEntity
  8
1-0ﾚｲﾔ
  6
Continuous
 62
     3
370
     9
100
AcDbLine
 10
-255.5919342038074
 20
-193.7436872548826
 30
0.0
 11
-231.5921519508515
 21
-193.7436872548826
 31
0.0
  0
LINE
  5
180
330
1F
100
AcDbEntity
  8
1-0ﾚｲﾔ
  6
Continuous
 62
     3
370
     9
100
AcDbLine
 10
-228.5920678213118
 20
-190.7439000531302
 30
0.0
 11
-228.5920678213118
 21
-181.6962876824586
 31
0.0
  0
LINE
  5
181
330
1F
100
AcDbEntity
  8
1-0ﾚｲﾔ
  6
Continuous
 62
     3
370
     9
100
AcDbLine
 10
-258.5920183333471
 20
-190.7439000531302
 30
0.0
 11
-258.5920183333471
 21
-181.6962876824586
 31
0.0
  0
LINE
  5
182
330
1F
100
AcDbEntity
  8
1-0ﾚｲﾔ
  6
Continuous
 62
     3
370
     9
100
AcDbLine
 10
-283.4709295321437
 20
-207.8651274206344
 30
0.0
 11
-292.8348442280896
 21
-198.5010642607948
 31
0.0
  0
LINE
  5
183
330
1F
100
AcDbEntity
  8
1-0ﾚｲﾔ
  6
Continuous
 62
     3
370
     9
100
AcDbLine
 10
-228.6032026133299
 20
-106.7448848636242
 30
0.0
 11
-228.6027572216496
 21
-109.1646978651022
 31
0.0
  0
LINE
  5
184
330
1F
100
AcDbEntity
  8
1-0ﾚｲﾔ
  6
Continuous
 62
     3
370
     9
100
AcDbLine
 10
-219.3266589187568
 20
-100.7438258211833
 30
0.0
 11
-222.6032570500908
 21
-100.7438258211833
 31
0.0
  0
LINE
  5
185
330
1F
100
AcDbEntity
  8
1-0ﾚｲﾔ
  6
Continuous
 62
     3
370
     9
100
AcDbLine
 10
-258.581106237169
 20
-106.7448848636242
 30
0.0
 11
-258.5814773969027
 21
-109.1646978651022
 31
0.0
  0
LINE
  5
186
330
1F
100
AcDbEntity
  8
1-0ﾚｲﾔ
  6
Continuous
 62
     3
370
     9
100
AcDbLine
 10
-267.8575756997955
 20
-100.7438258211833
 30
0.0
 11
-264.5809775684608
 21
-100.7438258211833
 31
0.0
  0
LINE
  5
187
330
1F
100
AcDbEntity
  8
1-0ﾚｲﾔ
  6
Continuous
 62
     3
370
     9
100
AcDbLine
 10
-270.8414772649346
 20
-103.4264199142999
 30
0.0
 11
-279.4912064008089
 21
-184.7438060259975
 31
0.0
  0
ARC
  5
188
330
1F
100
AcDbEntity
  8
1-0ﾚｲﾔ
  6
Continuous
 62
     3
370
     9
100
AcDbCircle
 10
-672.5920480261254
 20
-190.7439000531302
 30
0.0
 40
6.000000077324945
100
AcDbArc
 50
90.0
 51
180.0
  0
ARC
  5
189
330
1F
100
AcDbEntity
  8
1-0ﾚｲﾔ
  6
Continuous
 62
     3
370
     9
100
AcDbCircle
 10
-634.1067921403574
 20
-202.7437169476614
 30
0.0
 40
6.000000077324945
100
AcDbArc
 50
90.0
 51
135.0
  0
ARC
  5
18A
330
1F
100
AcDbEntity
  8
1-0ﾚｲﾔ
  6
Continuous
 62
     3
370
     9
100
AcDbCircle
 10
-672.5920480261254
 20
-202.7437169476614
 30
0.0
 40
6.000000077324945
100
AcDbArc
 50
180.0
 51
270.0
  0
ARC
  5
18B
330
1F
100
AcDbEntity
  8
1-0ﾚｲﾔ
  6
Continuous
 62
     3
370
     9
100
AcDbCircle
 10
-297.0776453788496
 20
-202.7437169476614
 30
0.0
 40
6.000000077324945
100
AcDbArc
 50
45.0
 51
90.0
  0
ARC
  5
18C
330
1F
100
AcDbEntity
  8
1-0ﾚｲﾔ
  6
Continuous
 62
     3
370
     9
100
AcDbCircle
 10
-649.834834330496
 20
-205.7437268452542
 30
0.0
 40
3.000000038662472
100
AcDbArc
 50
270.0
 51
314.9980010986328
  0
ARC
  5
18D
330
1F
100
AcDbEntity
  8
1-0ﾚｲﾔ
  6
Continuous
 62
     3
370
     9
100
AcDbCircle
 10
-231.5921519508515
 20
-190.7439000531302
 30
0.0
 40
3.000000038662472
100
AcDbArc
 50
270.0
 51
0.0
  0
ARC
  5
18E
330
1F
100
AcDbEntity
  8
1-0ﾚｲﾔ
  6
Continuous
 62
     3
370
     9
100
AcDbCircle
 10
-255.5919342038074
 20
-190.7439000531302
 30
0.0
 40
3.000000038662472
100
AcDbArc
 50
180.0
 51
270.0
  0
ARC
  5
18F
330
1F
100
AcDbEntity
  8
1-0ﾚｲﾔ
  6
Continuous
 62
     3
370
     9
100
AcDbCircle
 10
-281.3496031887105
 20
-205.7437268452542
 30
0.0
 40
3.000000038662472
100
AcDbArc
 50
225.0
 51
270.0
  0
ARC
  5
190
330
1F
100
AcDbEntity
  8
1-0ﾚｲﾔ
  6
Continuous
 62
     3
370
     9
100
AcDbCircle
 10
-222.6032570500908
 20
-106.7438456163691
 30
0.0
 40
6.000000077324945
100
AcDbArc
 50
90.0
 51
180.010025024414
  0
ARC
  5
191
330
1F
100
AcDbEntity
  8
1-0ﾚｲﾔ
  6
Continuous
 62
     3
370
     9
100
AcDbCircle
 10
-219.3266589187568
 20
-103.7436872548826
 30
0.0
 40
3.000000038662472
100
AcDbArc
 50
6.365219116210941
 51
90.0
  0
ARC
  5
192
330
1F
100
AcDbEntity
  8
1-0ﾚｲﾔ
  6
Continuous
 62
     3
370
     9
100
AcDbCircle
 10
-264.5809775684608
 20
-106.7438456163691
 30
0.0
 40
6.000000077324945
100
AcDbArc
 50
359.9899749755859
 51
90.0
  0
ARC
  5
193
330
1F
100
AcDbEntity
  8
1-0ﾚｲﾔ
  6
Continuous
 62
     3
370
     9
100
AcDbCircle
 10
-267.8575756997955
 20
-103.7436872548826
 30
0.0
 40
3.000000038662472
100
AcDbArc
 50
90.0
 51
173.9287719726562
  0
LINE
  5
194
330
1F
100
AcDbEntity
  8
1-5ﾚｲﾔ
  6
Continuous
 62
     4
370
     9
100
AcDbLine
 10
-630.8458551497115
 20
-184.7438060259975
 30
0.0
 11
-630.8458551497115
 21
-177.543786230812
 31
0.0
  0
ARC
  5
195
330
1F
100
AcDbEntity
  8
1-5ﾚｲﾔ
  6
Continuous
 62
     4
370
     9
100
AcDbCircle
 10
-292.4458096207842
 20
-170.3437862308117
 30
0.0
 40
7.199999999999999
100
AcDbArc
 50
270.0
 51
0.0
  0
ARC
  5
196
330
1F
100
AcDbEntity
  8
1-5ﾚｲﾔ
  6
Continuous
 62
     4
370
     9
100
AcDbCircle
 10
-292.4458096207842
 20
-170.3437862308117
 30
0.0
 40
14.4
100
AcDbArc
 50
270.0
 51
0.0
  0
LINE
  5
197
330
1F
100
AcDbEntity
  8
1-5ﾚｲﾔ
  6
Continuous
 62
     4
370
     9
100
AcDbLine
 10
-516.8457066858175
 20
-184.7438060259975
 30
0.0
 11
-516.8457066858175
 21
-177.543786230812
 31
0.0
  0
LINE
  5
198
330
1F
100
AcDbEntity
  8
1-5ﾚｲﾔ
  6
Continuous
 62
     4
370
     9
100
AcDbLine
 10
-444.8457066858174
 20
-184.7438060259975
 30
0.0
 11
-444.8457066858174
 21
-177.543786230812
 31
0.0
  0
LINE
  5
199
330
1F
100
AcDbEntity
  8
1-5ﾚｲﾔ
  6
Continuous
 62
     4
370
     9
100
AcDbLine
 10
-292.4458096207842
 20
-177.543786230812
 30
0.0
 11
-446.0922459779833
 21
-177.543786230812
 31
0.0
  0
LINE
  5
19A
330
1F
100
AcDbEntity
  8
1-5ﾚｲﾔ
  6
Continuous
 62
     4
370
     9
100
AcDbLine
 10
-503.0924340322483
 20
-177.543786230812
 30
0.0
 11
-630.8458551497115
 21
-177.543786230812
 31
0.0
  0
LINE
  5
19B
330
1F
100
AcDbEntity
  8
1-0ﾚｲﾔ
  6
Continuous
 62
     3
370
     9
100
AcDbLine
 10
-567.5922014388159
 20
-196.743845616369
 30
0.0
 11
-634.1067921403574
 21
-196.743845616369
 31
0.0
  0
LINE
  5
19C
330
1F
100
AcDbEntity
  8
1-0ﾚｲﾔ
  6
Continuous
 62
     3
370
     9
100
AcDbLine
 10
-558.5920975140903
 20
-208.7438109747939
 30
0.0
 11
-549.5921420532584
 21
-208.7438109747939
 31
0.0
  0
LINE
  5
19D
330
1F
100
AcDbEntity
  8
1-0ﾚｲﾔ
  6
Continuous
 62
     3
370
     9
100
AcDbLine
 10
-561.5921074116834
 20
-205.7437268452542
 30
0.0
 11
-561.5921074116834
 21
-202.7437169476614
 31
0.0
  0
ARC
  5
19E
330
1F
100
AcDbEntity
  8
1-0ﾚｲﾔ
  6
Continuous
 62
     3
370
     9
100
AcDbCircle
 10
-543.5919737941792
 20
-208.7438109747939
 30
0.0
 40
6.000000077324945
100
AcDbArc
 50
90.0
 51
180.0
  0
ARC
  5
19F
330
1F
100
AcDbEntity
  8
1-0ﾚｲﾔ
  6
Continuous
 62
     3
370
     9
100
AcDbCircle
 10
-567.5922014388159
 20
-202.7437169476614
 30
0.0
 40
6.000000077324945
100
AcDbArc
 50
0.0
 51
90.0
  0
ARC
  5
1A0
330
1F
100
AcDbEntity
  8
1-0ﾚｲﾔ
  6
Continuous
 62
     3
370
     9
100
AcDbCircle
 10
-558.5920975140903
 20
-205.7437268452542
 30
0.0
 40
3.000000038662472
100
AcDbArc
 50
180.0
 51
270.0
  0
LINE
  5
1A1
330
1F
100
AcDbEntity
  8
1-0ﾚｲﾔ
  6
Continuous
 62
     3
370
     9
100
AcDbLine
 10
-387.5922014388158
 20
-205.7437268452542
 30
0.0
 11
-387.5922014388158
 21
-202.7437169476614
 31
0.0
  0
LINE
  5
1A2
330
1F
100
AcDbEntity
  8
1-0ﾚｲﾔ
  6
Continuous
 62
     3
370
     9
100
AcDbLine
 10
-390.5922855683552
 20
-208.7438109747939
 30
0.0
 11
-399.5920183333471
 21
-208.7438109747939
 31
0.0
  0
LINE
  5
1A3
330
1F
100
AcDbEntity
  8
1-0ﾚｲﾔ
  6
Continuous
 62
     3
370
     9
100
AcDbLine
 10
-297.0776453788496
 20
-196.743845616369
 30
0.0
 11
-381.5921074116833
 21
-196.743845616369
 31
0.0
  0
ARC
  5
1A4
330
1F
100
AcDbEntity
  8
1-0ﾚｲﾔ
  6
Continuous
 62
     3
370
     9
100
AcDbCircle
 10
-381.5921074116833
 20
-202.7437169476614
 30
0.0
 40
6.000000077324945
100
AcDbArc
 50
90.0
 51
180.0
  0
ARC
  5
1A5
330
1F
100
AcDbEntity
  8
1-0ﾚｲﾔ
  6
Continuous
 62
     3
370
     9
100
AcDbCircle
 10
-405.5921123604799
 20
-208.7438109747939
 30
0.0
 40
6.000000077324945
100
AcDbArc
 50
0.0
 51
90.0
  0
ARC
  5
1A6
330
1F
100
AcDbEntity
  8
1-0ﾚｲﾔ
  6
Continuous
 62
     3
370
     9
100
AcDbCircle
 10
-390.5922855683552
 20
-205.7437268452542
 30
0.0
 40
3.000000038662472
100
AcDbArc
 50
270.0
 51
0.0
  0
LINE
  5
1A7
330
1F
100
AcDbEntity
  8
1-0ﾚｲﾔ
  6
Continuous
 62
     3
370
     9
100
AcDbLine
 10
-504.5920034869577
 20
-184.7435090982103
 30
0.0
 11
-504.5920034869577
 21
-202.7434200198742
 31
0.0
  0
LINE
  5
1A8
330
1F
100
AcDbEntity
  8
1-0ﾚｲﾔ
  6
Continuous
 62
     3
370
     9
100
AcDbLine
 10
-432.5919342038077
 20
-184.7435090982103
 30
0.0
 11
-432.5919342038077
 21
-202.7434200198742
 31
0.0
  0
LINE
  5
1A9
330
1F
100
AcDbEntity
  8
1-5ﾚｲﾔ
  6
JWW_CENTER1
 62
     4
370
     9
100
AcDbLine
 10
-480.8457066858174
 20
-193.0275121653846
 30
0.0
 11
-480.8457066858174
 21
-169.1914889731059
 31
0.0
  0
LINE
  5
1AA
330
1F
100
AcDbEntity
  8
1-0ﾚｲﾔ
  6
JWW_CENTER1
 62
     3
370
     9
100
AcDbLine
 10
-468.5919688453827
 20
-211.6614761551816
 30
0.0
 11
-468.5919688453827
 21
-175.8254529629029
 31
0.0
  0
ARC
  5
1AB
330
1F
100
AcDbEntity
  8
1-A
  6
Continuous
 62
     2
370
     9
100
AcDbCircle
 10
-460.4689763319007
 20
-332.1196077310225
 30
0.0
 40
18.89449751054919
100
AcDbArc
 50
221.0460052490234
 51
318.9539947509765
  0
ARC
  5
1AC
330
1F
100
AcDbEntity
  8
1-A
  6
Continuous
 62
     2
370
     9
100
AcDbCircle
 10
-488.9686991992995
 20
-332.1196077310225
 30
0.0
 40
18.89449751054919
100
AcDbArc
 50
221.0460052490234
 51
318.9539947509765
  0
ARC
  5
1AD
330
1F
100
AcDbEntity
  8
1-A
  6
Continuous
 62
     2
370
     9
100
AcDbCircle
 10
-488.9686991992995
 20
-356.9341598319519
 30
0.0
 40
18.89449751054919
100
AcDbArc
 50
41.04600524902342
 51
138.9539947509766
  0
LINE
  5
1AE
330
1F
100
AcDbEntity
  8
1-A
  6
Continuous
 62
     2
370
     9
100
AcDbLine
 10
-429.7188377656001
 20
-177.543786230812
 30
0.0
 11
-519.7189862294931
 21
-177.543786230812
 31
0.0
  0
LINE
  5
1AF
330
1F
100
AcDbEntity
  8
1-A
  6
Continuous
 62
     2
370
     9
100
AcDbLine
 10
-429.7194316211745
 20
-147.5441326465634
 30
0.0
 11
-519.7189862294931
 21
-147.5441326465634
 31
0.0
  0
LINE
  5
1B0
330
1F
100
AcDbEntity
  8
1-A
  6
Continuous
 62
     2
370
     9
100
AcDbLine
 10
-446.2191148982013
 20
-344.5268837814875
 30
0.0
 11
-446.2191148982013
 21
-177.543786230812
 31
0.0
  0
LINE
  5
1B1
330
1F
100
AcDbEntity
  8
1-A
  6
Continuous
 62
     2
370
     9
100
AcDbLine
 10
-503.2193029524663
 20
-344.5268837814875
 30
0.0
 11
-503.2193029524663
 21
-177.543786230812
 31
0.0
  0
ARC
  5
1B2
330
1F
100
AcDbEntity
  8
1-A
  6
Continuous
 62
     2
370
     9
100
AcDbCircle
 10
-445.4687783800426
 20
-162.5443305984213
 30
0.0
 40
21.74996504912505
100
AcDbArc
 50
316.397216796875
 51
43.60289001464842
  0
ARC
  5
1B3
330
1F
100
AcDbEntity
  8
1-A
  6
Continuous
 62
     2
370
     9
100
AcDbCircle
 10
-503.9690456150514
 20
-162.5443305984213
 30
0.0
 40
21.74996504912505
100
AcDbArc
 50
136.3971099853515
 51
223.602783203125
  0
LINE
  5
1B4
330
1F
100
AcDbEntity
  8
1-5ﾚｲﾔ
  6
Continuous
 62
     4
370
     9
100
AcDbLine
 10
-503.2193029524663
 20
-184.7438060259975
 30
0.0
 11
-630.8458551497115
 21
-184.7438060259975
 31
0.0
  0
LINE
  5
1B5
330
1F
100
AcDbEntity
  8
1-0ﾚｲﾔ
  6
Continuous
 62
     3
370
     9
100
AcDbLine
 10
-672.5920480261254
 20
-184.7438060259975
 30
0.0
 11
-503.2193029524663
 21
-184.7438060259975
 31
0.0
  0
LINE
  5
1B6
330
1F
100
AcDbEntity
  8
1-0ﾚｲﾔ
  6
Continuous
 62
     3
370
     9
100
AcDbLine
 10
-446.2191148982013
 20
-184.7438060259975
 30
0.0
 11
-279.4912064008089
 21
-184.7438060259975
 31
0.0
  0
LINE
  5
1B7
330
1F
100
AcDbEntity
  8
1-5ﾚｲﾔ
  6
Continuous
 62
     4
370
     9
100
AcDbLine
 10
-292.4458096207842
 20
-184.7438060259975
 30
0.0
 11
-446.2191148982013
 21
-184.7438060259975
 31
0.0
  0
LINE
  5
1B8
330
1F
100
AcDbEntity
  8
1-5ﾚｲﾔ
  6
JWW_DASHED1
 62
     4
370
     9
100
AcDbLine
 10
-503.2193029524663
 20
-184.7438060259975
 30
0.0
 11
-446.2191148982013
 21
-184.7438060259975
 31
0.0
  0
LINE
  5
1B9
330
1F
100
AcDbEntity
  8
1-0ﾚｲﾔ
  6
Continuous
 62
     3
370
     9
100
AcDbLine
 10
-446.2191148982013
 20
-202.7437169476614
 30
0.0
 11
-405.5921123604799
 21
-202.7437169476614
 31
0.0
  0
LINE
  5
1BA
330
1F
100
AcDbEntity
  8
1-0ﾚｲﾔ
  6
Continuous
 62
     3
370
     9
100
AcDbLine
 10
-543.5919737941792
 20
-202.7437169476614
 30
0.0
 11
-503.2193029524663
 21
-202.7437169476614
 31
0.0
  0
LINE
  5
1BB
330
1F
100
AcDbEntity
  8
1-0ﾚｲﾔ
  6
JWW_DASHED1
 62
     3
370
     9
100
AcDbLine
 10
-503.2193029524663
 20
-202.7437169476614
 30
0.0
 11
-446.2191148982013
 21
-202.7437169476614
 31
0.0
  0
LINE
  5
1BC
330
1F
100
AcDbEntity
  8
1-0ﾚｲﾔ
  6
Continuous
 62
     3
370
     9
100
AcDbLine
 10
-207.9454168368312
 20
-208.7438109747939
 30
0.0
 11
-281.3496031887105
 21
-208.7438109747939
 31
0.0
  0
LINE
  5
1BD
330
1F
100
AcDbEntity
  8
1-F
  6
Continuous
 62
     7
370
     9
100
AcDbLine
 10
-651.7189515879188
 20
-184.7438530009013
 30
0.0
 11
-658.6072308584
 21
-168.1141153530972
 31
0.0
  0
LINE
  5
1BE
330
1F
100
AcDbEntity
  8
1-F
  6
Continuous
 62
     7
370
     9
100
AcDbLine
 10
-651.7189515879188
 20
-184.7438530009013
 30
0.0
 11
-662.6766261814576
 21
-170.4635564690179
 31
0.0
  0
LINE
  5
1BF
330
1F
100
AcDbEntity
  8
1-F
  6
Continuous
 62
     7
370
     9
100
AcDbLine
 10
-285.245809620784
 20
-34.74380602599757
 30
0.0
 11
-292.1340888912655
 21
-18.11391991429974
 31
0.0
  0
LINE
  5
1C0
330
1F
100
AcDbEntity
  8
1-F
  6
Continuous
 62
     7
370
     9
100
AcDbLine
 10
-285.245809620784
 20
-34.74380602599757
 30
0.0
 11
-296.2034842143231
 21
-20.46336103022037
 31
0.0
  0
LINE
  5
1C1
330
1F
100
AcDbEntity
  8
1-1ﾚｲﾔ
  6
Continuous
 62
     2
370
     9
100
AcDbLine
 10
-474.7188377656001
 20
-626.2592963141365
 30
0.0
 11
-503.2191544885732
 21
-547.956321097709
 31
0.0
  0
LINE
  5
1C2
330
1F
100
AcDbEntity
  8
1-1ﾚｲﾔ
  6
Continuous
 62
     2
370
     9
100
AcDbLine
 10
-469.5228984180495
 20
-548.9777155695734
 30
0.0
 11
-455.457354908231
 21
-573.3393043311866
 31
0.0
  0
LINE
  5
1C3
330
1F
100
AcDbEntity
  8
1-1ﾚｲﾔ
  6
Continuous
 62
     2
370
     9
100
AcDbLine
 10
-479.9153709687251
 20
-548.9777155695734
 30
0.0
 11
-493.9802463910226
 21
-573.3393043311866
 31
0.0
  0
LINE
  5
1C4
330
1F
100
AcDbEntity
  8
1-1ﾚｲﾔ
  6
Continuous
 62
     2
370
     9
100
AcDbLine
 10
-446.2188922023614
 20
-547.956321097709
 30
0.0
 11
-446.2188922023614
 21
-370.7510425464527
 31
0.0
  0
LINE
  5
1C5
330
1F
100
AcDbEntity
  8
1-1ﾚｲﾔ
  6
Continuous
 62
     2
370
     9
100
AcDbLine
 10
-503.2191544885732
 20
-547.956321097709
 30
0.0
 11
-503.2191544885732
 21
-370.7510425464527
 31
0.0
  0
LINE
  5
1C6
330
1F
100
AcDbEntity
  8
1-1ﾚｲﾔ
  6
Continuous
 62
     2
370
     9
100
AcDbLine
 10
-474.7188377656001
 20
-626.2592963141365
 30
0.0
 11
-446.2188922023614
 21
-547.956321097709
 31
0.0
  0
ARC
  5
1C7
330
1F
100
AcDbEntity
  8
1-1ﾚｲﾔ
  6
Continuous
 62
     2
370
     9
100
AcDbCircle
 10
-474.7188377656001
 20
-551.9775398872994
 30
0.0
 40
6.000000077324945
100
AcDbArc
 50
29.99998474121094
 51
150.0000152587891
  0
ARC
  5
1C8
330
1F
100
AcDbEntity
  8
1-1ﾚｲﾔ
  6
Continuous
 62
     2
370
     9
100
AcDbCircle
 10
-488.9686991992995
 20
-383.1584670608108
 30
0.0
 40
18.89449635067502
100
AcDbArc
 50
41.04600524902344
 51
138.9539947509766
  0
ARC
  5
1C9
330
1F
100
AcDbEntity
  8
1-1ﾚｲﾔ
  6
Continuous
 62
     2
370
     9
100
AcDbCircle
 10
-460.4689763319007
 20
-383.1584670608108
 30
0.0
 40
18.89449635067502
100
AcDbArc
 50
41.04600524902344
 51
138.9539947509766
  0
ARC
  5
1CA
330
1F
100
AcDbEntity
  8
1-1ﾚｲﾔ
  6
Continuous
 62
     2
370
     9
100
AcDbCircle
 10
-460.4689763319007
 20
-358.3434695682009
 30
0.0
 40
18.89449635067502
100
AcDbArc
 50
221.0460052490234
 51
318.9539947509766
  0
LINE
  5
1CB
330
1F
100
AcDbEntity
  8
1-A
  6
JWW_CENTER1
 62
     2
370
     9
100
AcDbLine
 10
-474.7188377656001
 20
-642.9915480217251
 30
0.0
 11
-474.7188377656001
 21
-120.0882395786808
 31
0.0
  0
LINE
  5
1CC
330
1F
100
AcDbEntity
  8
1-F
  6
Continuous
 62
     7
370
     9
100
AcDbLine
 10
-503.2193029524663
 20
-470.2191360784574
 30
0.0
 11
-622.3203045888681
 21
-538.9821926530987
 31
0.0
  0
LINE
  5
1CD
330
1F
100
AcDbEntity
  8
1-4ﾚｲﾔ
  6
Continuous
 62
     7
370
     9
100
AcDbLine
 10
-503.2193029524663
 20
-470.2191360784574
 30
0.0
 11
-519.8490406002704
 21
-477.1074895808858
 31
0.0
  0
LINE
  5
1CE
330
1F
100
AcDbEntity
  8
1-4ﾚｲﾔ
  6
Continuous
 62
     7
370
     9
100
AcDbLine
 10
-503.2193029524663
 20
-470.2191360784574
 30
0.0
 11
-517.4995994843498
 21
-481.1768849039433
 31
0.0
  0
LINE
  5
1CF
330
1F
100
AcDbEntity
  8
1-4ﾚｲﾔ
  6
Continuous
 62
     7
370
     9
100
AcDbLine
 10
-678.5920481034507
 20
-330.8561712591659
 30
0.0
 11
-204.5920318224971
 21
-330.8561712591659
 31
0.0
  0
LINE
  5
1D0
330
1F
100
AcDbEntity
  8
1-4ﾚｲﾔ
  6
Continuous
 62
     7
370
     9
100
AcDbLine
 10
-678.5920481034507
 20
-330.8561712591659
 30
0.0
 11
-663.7203751828431
 21
-328.8982783758651
 31
0.0
  0
LINE
  5
1D1
330
1F
100
AcDbEntity
  8
1-4ﾚｲﾔ
  6
Continuous
 62
     7
370
     9
100
AcDbLine
 10
-678.5920481034507
 20
-330.8561712591659
 30
0.0
 11
-663.7203751828431
 21
-332.8140641424667
 31
0.0
  0
LINE
  5
1D2
330
1F
100
AcDbEntity
  8
1-4ﾚｲﾔ
  6
Continuous
 62
     7
370
     9
100
AcDbLine
 10
-204.5920318224971
 20
-330.8561712591659
 30
0.0
 11
-219.4637047431043
 21
-328.8982783758651
 31
0.0
  0
LINE
  5
1D3
330
1F
100
AcDbEntity
  8
1-4ﾚｲﾔ
  6
Continuous
 62
     7
370
     9
100
AcDbLine
 10
-204.5920318224971
 20
-330.8561712591659
 30
0.0
 11
-219.4637047431043
 21
-332.8140641424667
 31
0.0
  0
LINE
  5
1D4
330
1F
100
AcDbEntity
  8
1-4ﾚｲﾔ
  6
Continuous
 62
     7
370
     9
100
AcDbLine
 10
-678.5920481034507
 20
-332.6561712591658
 30
0.0
 11
-678.5920481034507
 21
-214.7437169476614
 31
0.0
  0
LINE
  5
1D5
330
1F
100
AcDbEntity
  8
1-4ﾚｲﾔ
  6
Continuous
 62
     7
370
     9
100
AcDbLine
 10
-204.5920318224971
 20
-332.6561712591658
 30
0.0
 11
-204.5920318224971
 21
-208.7438109747939
 31
0.0
  0
TEXT
  5
1D6
330
1F
100
AcDbEntity
  8
1-4ﾚｲﾔ
  6
Continuous
 62
     2
370
   211
100
AcDbText
 10
-422.3542580249161
 20
-323.8721712591658
 30
0.0
 40
18.288
  1
79
 41
1.0625
  7
ＭＳ ゴシック
100
AcDbText
  0
LINE
  5
1D7
330
1F
100
AcDbEntity
  8
1-4ﾚｲﾔ
  6
Continuous
 62
     7
370
     9
100
AcDbLine
 10
-474.7188377656001
 20
-265.4409484716804
 30
0.0
 11
-204.5920318224971
 21
-265.4409484716804
 31
0.0
  0
LINE
  5
1D8
330
1F
100
AcDbEntity
  8
1-4ﾚｲﾔ
  6
Continuous
 62
     7
370
     9
100
AcDbLine
 10
-474.7188377656001
 20
-265.4409484716804
 30
0.0
 11
-459.8471648449932
 21
-263.4830555883796
 31
0.0
  0
LINE
  5
1D9
330
1F
100
AcDbEntity
  8
1-4ﾚｲﾔ
  6
Continuous
 62
     7
370
     9
100
AcDbLine
 10
-474.7188377656001
 20
-265.4409484716804
 30
0.0
 11
-459.8471648449932
 21
-267.3988413549812
 31
0.0
  0
LINE
  5
1DA
330
1F
100
AcDbEntity
  8
1-4ﾚｲﾔ
  6
Continuous
 62
     7
370
     9
100
AcDbLine
 10
-204.5920318224971
 20
-265.4409484716804
 30
0.0
 11
-219.4637047431043
 21
-263.4830555883796
 31
0.0
  0
LINE
  5
1DB
330
1F
100
AcDbEntity
  8
1-4ﾚｲﾔ
  6
Continuous
 62
     7
370
     9
100
AcDbLine
 10
-204.5920318224971
 20
-265.4409484716804
 30
0.0
 11
-219.4637047431043
 21
-267.3988413549812
 31
0.0
  0
TEXT
  5
1DC
330
1F
100
AcDbEntity
  8
1-4ﾚｲﾔ
  6
Continuous
 62
     2
370
   211
100
AcDbText
 10
-352.4054347940487
 20
-258.4569484716803
 30
0.0
 40
18.288
  1
45
 41
1.0625
  7
ＭＳ ゴシック
100
AcDbText
  0
LINE
  5
1DD
330
1F
100
AcDbEntity
  8
1-2ﾚｲﾔ
  6
Continuous
 62
     2
370
     9
100
AcDbLine
 10
-228.5920678213114
 20
88.25620387159537
 30
0.0
 11
-228.5920678213114
 21
67.25628305233866
 31
0.0
  0
LINE
  5
1DE
330
1F
100
AcDbEntity
  8
1-2ﾚｲﾔ
  6
Continuous
 62
     2
370
     9
100
AcDbLine
 10
-255.5919342038071
 20
91.25621376918835
 30
0.0
 11
-231.5921519508511
 21
91.25621376918835
 31
0.0
  0
LINE
  5
1DF
330
1F
100
AcDbEntity
  8
1-2ﾚｲﾔ
  6
Continuous
 62
     2
370
     9
100
AcDbLine
 10
-228.5920678213114
 20
7.25638202826773
 30
0.0
 11
-228.5920678213114
 21
-35.16999637650431
 31
0.0
  0
LINE
  5
1E0
330
1F
100
AcDbEntity
  8
1-2ﾚｲﾔ
  6
Continuous
 62
     2
370
     9
100
AcDbLine
 10
-243.5921173092758
 20
52.25653049216132
 30
0.0
 11
-243.5921173092758
 21
22.25643151623226
 31
0.0
  0
LINE
  5
1E1
330
1F
100
AcDbEntity
  8
1-2ﾚｲﾔ
  6
Continuous
 62
     2
370
     9
100
AcDbLine
 10
-228.5920678213114
 20
67.25628305233866
 30
0.0
 11
-243.5921173092758
 21
52.25653049216132
 31
0.0
  0
LINE
  5
1E2
330
1F
100
AcDbEntity
  8
1-2ﾚｲﾔ
  6
Continuous
 62
     2
370
     9
100
AcDbLine
 10
-243.5921173092758
 20
22.25643151623226
 30
0.0
 11
-228.5920678213114
 21
7.25638202826773
 31
0.0
  0
LINE
  5
1E3
330
1F
100
AcDbEntity
  8
1-2ﾚｲﾔ
  6
Continuous
 62
     2
370
     9
100
AcDbLine
 10
-258.5920183333467
 20
88.25620387159537
 30
0.0
 11
-258.5920183333467
 21
16.04292064207679
 31
0.0
  0
LINE
  5
1E4
330
1F
100
AcDbEntity
  8
1-2ﾚｲﾔ
  6
Continuous
 62
     2
370
     9
100
AcDbLine
 10
-258.5920183333467
 20
16.04292064207679
 30
0.0
 11
-243.5921173092758
 21
1.043168081899445
 31
0.0
  0
LINE
  5
1E5
330
1F
100
AcDbEntity
  8
1-2ﾚｲﾔ
  6
Continuous
 62
     2
370
     9
100
AcDbLine
 10
-243.5921173092758
 20
1.043168081899445
 30
0.0
 11
-243.5921173092758
 21
-28.95678243013602
 31
0.0
  0
LINE
  5
1E6
330
1F
100
AcDbEntity
  8
1-2ﾚｲﾔ
  6
Continuous
 62
     2
370
     9
100
AcDbLine
 10
-243.5921173092758
 20
-28.95678243013602
 30
0.0
 11
-258.5920183333467
 21
-43.95668345420696
 31
0.0
  0
LINE
  5
1E7
330
1F
100
AcDbEntity
  8
1-2ﾚｲﾔ
  6
Continuous
 62
     2
370
     9
100
AcDbLine
 10
-243.5918946134355
 20
-80.17014484039791
 30
0.0
 11
-228.5920678213114
 21
-95.17019432836244
 31
0.0
  0
LINE
  5
1E8
330
1F
100
AcDbEntity
  8
1-2ﾚｲﾔ
  6
Continuous
 62
     2
370
     9
100
AcDbLine
 10
-243.5918946134355
 20
-50.16989740057524
 30
0.0
 11
-243.5918946134355
 21
-80.17014484039791
 31
0.0
  0
LINE
  5
1E9
330
1F
100
AcDbEntity
  8
1-2ﾚｲﾔ
  6
Continuous
 62
     2
370
     9
100
AcDbLine
 10
-228.5920678213114
 20
-35.16999637650431
 30
0.0
 11
-243.5918946134355
 21
-50.16989740057524
 31
0.0
  0
LINE
  5
1EA
330
1F
100
AcDbEntity
  8
1-2ﾚｲﾔ
  6
Continuous
 62
     2
370
     9
100
AcDbLine
 10
-252.5919243062143
 20
-193.7436872548826
 30
0.0
 11
-234.5919391526036
 21
-193.7436872548826
 31
0.0
  0
LINE
  5
1EB
330
1F
100
AcDbEntity
  8
1-2ﾚｲﾔ
  6
Continuous
 62
     2
370
     9
100
AcDbLine
 10
-228.5920678213114
 20
-175.7437763332188
 30
0.0
 11
-225.5919836917718
 21
-172.743766435626
 31
0.0
  0
LINE
  5
1EC
330
1F
100
AcDbEntity
  8
1-2ﾚｲﾔ
  6
Continuous
 62
     2
370
     9
100
AcDbLine
 10
-225.5919836917718
 20
-172.743766435626
 30
0.0
 11
-228.5920678213114
 21
-169.743756538033
 31
0.0
  0
LINE
  5
1ED
330
1F
100
AcDbEntity
  8
1-2ﾚｲﾔ
  6
Continuous
 62
     2
370
     9
100
AcDbLine
 10
-228.5920678213114
 20
-169.743756538033
 30
0.0
 11
-225.5919836917718
 21
-166.7435981765465
 31
0.0
  0
LINE
  5
1EE
330
1F
100
AcDbEntity
  8
1-2ﾚｲﾔ
  6
Continuous
 62
     2
370
     9
100
AcDbLine
 10
-225.5919836917718
 20
-166.7435981765465
 30
0.0
 11
-228.5920678213114
 21
-163.7438852067408
 31
0.0
  0
LINE
  5
1EF
330
1F
100
AcDbEntity
  8
1-2ﾚｲﾔ
  6
Continuous
 62
     2
370
     9
100
AcDbLine
 10
-228.5920678213114
 20
-181.7437218964578
 30
0.0
 11
-225.5919836917718
 21
-178.7436377669181
 31
0.0
  0
LINE
  5
1F0
330
1F
100
AcDbEntity
  8
1-2ﾚｲﾔ
  6
Continuous
 62
     2
370
     9
100
AcDbLine
 10
-225.5919836917718
 20
-178.7436377669181
 30
0.0
 11
-228.5920678213114
 21
-175.7437763332188
 31
0.0
  0
LINE
  5
1F1
330
1F
100
AcDbEntity
  8
1-2ﾚｲﾔ
  6
Continuous
 62
     2
370
     9
100
AcDbLine
 10
-228.5920678213114
 20
-157.7437169476614
 30
0.0
 11
-225.5919836917718
 21
-154.743855513962
 31
0.0
  0
LINE
  5
1F2
330
1F
100
AcDbEntity
  8
1-2ﾚｲﾔ
  6
Continuous
 62
     2
370
     9
100
AcDbLine
 10
-225.5919836917718
 20
-154.743855513962
 30
0.0
 11
-228.5920678213114
 21
-151.7438456163692
 31
0.0
  0
LINE
  5
1F3
330
1F
100
AcDbEntity
  8
1-2ﾚｲﾔ
  6
Continuous
 62
     2
370
     9
100
AcDbLine
 10
-228.5920678213114
 20
-151.7438456163692
 30
0.0
 11
-225.5919836917718
 21
-148.7436872548827
 31
0.0
  0
LINE
  5
1F4
330
1F
100
AcDbEntity
  8
1-2ﾚｲﾔ
  6
Continuous
 62
     2
370
     9
100
AcDbLine
 10
-225.5919836917718
 20
-148.7436872548827
 30
0.0
 11
-228.5920678213114
 21
-145.7436773572898
 31
0.0
  0
LINE
  5
1F5
330
1F
100
AcDbEntity
  8
1-2ﾚｲﾔ
  6
Continuous
 62
     2
370
     9
100
AcDbLine
 10
-228.5920678213114
 20
-163.7438852067408
 30
0.0
 11
-225.5919836917718
 21
-160.7437268452543
 31
0.0
  0
LINE
  5
1F6
330
1F
100
AcDbEntity
  8
1-2ﾚｲﾔ
  6
Continuous
 62
     2
370
     9
100
AcDbLine
 10
-225.5919836917718
 20
-160.7437268452543
 30
0.0
 11
-228.5920678213114
 21
-157.7437169476614
 31
0.0
  0
LINE
  5
1F7
330
1F
100
AcDbEntity
  8
1-2ﾚｲﾔ
  6
Continuous
 62
     2
370
     9
100
AcDbLine
 10
-228.5920678213114
 20
-139.7438060259975
 30
0.0
 11
-225.5919836917718
 21
-136.743647664511
 31
0.0
  0
LINE
  5
1F8
330
1F
100
AcDbEntity
  8
1-2ﾚｲﾔ
  6
Continuous
 62
     2
370
     9
100
AcDbLine
 10
-225.5919836917718
 20
-136.743647664511
 30
0.0
 11
-228.5920678213114
 21
-133.7439346947053
 31
0.0
  0
LINE
  5
1F9
330
1F
100
AcDbEntity
  8
1-2ﾚｲﾔ
  6
Continuous
 62
     2
370
     9
100
AcDbLine
 10
-228.5920678213114
 20
-133.7439346947053
 30
0.0
 11
-225.5919836917718
 21
-130.7437763332188
 31
0.0
  0
LINE
  5
1FA
330
1F
100
AcDbEntity
  8
1-2ﾚｲﾔ
  6
Continuous
 62
     2
370
     9
100
AcDbLine
 10
-225.5919836917718
 20
-130.7437763332188
 30
0.0
 11
-228.5920678213114
 21
-127.743766435626
 31
0.0
  0
LINE
  5
1FB
330
1F
100
AcDbEntity
  8
1-2ﾚｲﾔ
  6
Continuous
 62
     2
370
     9
100
AcDbLine
 10
-228.5920678213114
 20
-145.7436773572898
 30
0.0
 11
-225.5919836917718
 21
-142.7438159235905
 31
0.0
  0
LINE
  5
1FC
330
1F
100
AcDbEntity
  8
1-2ﾚｲﾔ
  6
Continuous
 62
     2
370
     9
100
AcDbLine
 10
-225.5919836917718
 20
-142.7438159235905
 30
0.0
 11
-228.5920678213114
 21
-139.7438060259975
 31
0.0
  0
LINE
  5
1FD
330
1F
100
AcDbEntity
  8
1-2ﾚｲﾔ
  6
Continuous
 62
     2
370
     9
100
AcDbLine
 10
-228.5920678213114
 20
-121.7438951043337
 30
0.0
 11
-225.5919836917718
 21
-118.7437367428472
 31
0.0
  0
LINE
  5
1FE
330
1F
100
AcDbEntity
  8
1-2ﾚｲﾔ
  6
Continuous
 62
     2
370
     9
100
AcDbLine
 10
-225.5919836917718
 20
-118.7437367428472
 30
0.0
 11
-228.5920678213114
 21
-115.7437268452543
 31
0.0
  0
LINE
  5
1FF
330
1F
100
AcDbEntity
  8
1-2ﾚｲﾔ
  6
Continuous
 62
     2
370
     9
100
AcDbLine
 10
-228.5920678213114
 20
-115.7437268452543
 30
0.0
 11
-225.5919836917718
 21
-112.7437169476614
 31
0.0
  0
LINE
  5
200
330
1F
100
AcDbEntity
  8
1-2ﾚｲﾔ
  6
Continuous
 62
     2
370
     9
100
AcDbLine
 10
-225.5919836917718
 20
-112.7437169476614
 30
0.0
 11
-228.5920678213114
 21
-109.743855513962
 31
0.0
  0
LINE
  5
201
330
1F
100
AcDbEntity
  8
1-2ﾚｲﾔ
  6
Continuous
 62
     2
370
     9
100
AcDbLine
 10
-228.5920678213114
 20
-127.743766435626
 30
0.0
 11
-225.5919836917718
 21
-124.743756538033
 31
0.0
  0
LINE
  5
202
330
1F
100
AcDbEntity
  8
1-2ﾚｲﾔ
  6
Continuous
 62
     2
370
     9
100
AcDbLine
 10
-225.5919836917718
 20
-124.743756538033
 30
0.0
 11
-228.5920678213114
 21
-121.7438951043337
 31
0.0
  0
LINE
  5
203
330
1F
100
AcDbEntity
  8
1-2ﾚｲﾔ
  6
Continuous
 62
     2
370
     9
100
AcDbLine
 10
-258.5920183333467
 20
-175.7437763332188
 30
0.0
 11
-261.5920282309399
 21
-172.743766435626
 31
0.0
  0
LINE
  5
204
330
1F
100
AcDbEntity
  8
1-2ﾚｲﾔ
  6
Continuous
 62
     2
370
     9
100
AcDbLine
 10
-261.5920282309399
 20
-172.743766435626
 30
0.0
 11
-258.5920183333467
 21
-169.743756538033
 31
0.0
  0
LINE
  5
205
330
1F
100
AcDbEntity
  8
1-2ﾚｲﾔ
  6
Continuous
 62
     2
370
     9
100
AcDbLine
 10
-258.5920183333467
 20
-169.743756538033
 30
0.0
 11
-261.5920282309399
 21
-166.7435981765465
 31
0.0
  0
LINE
  5
206
330
1F
100
AcDbEntity
  8
1-2ﾚｲﾔ
  6
Continuous
 62
     2
370
     9
100
AcDbLine
 10
-261.5920282309399
 20
-166.7435981765465
 30
0.0
 11
-258.5920183333467
 21
-163.7438852067408
 31
0.0
  0
LINE
  5
207
330
1F
100
AcDbEntity
  8
1-2ﾚｲﾔ
  6
Continuous
 62
     2
370
     9
100
AcDbLine
 10
-258.5920183333467
 20
-181.7437218964578
 30
0.0
 11
-261.5920282309399
 21
-178.7436377669181
 31
0.0
  0
LINE
  5
208
330
1F
100
AcDbEntity
  8
1-2ﾚｲﾔ
  6
Continuous
 62
     2
370
     9
100
AcDbLine
 10
-261.5920282309399
 20
-178.7436377669181
 30
0.0
 11
-258.5920183333467
 21
-175.7437763332188
 31
0.0
  0
LINE
  5
209
330
1F
100
AcDbEntity
  8
1-2ﾚｲﾔ
  6
Continuous
 62
     2
370
     9
100
AcDbLine
 10
-258.5920183333467
 20
-157.7437169476614
 30
0.0
 11
-261.5920282309399
 21
-154.743855513962
 31
0.0
  0
LINE
  5
20A
330
1F
100
AcDbEntity
  8
1-2ﾚｲﾔ
  6
Continuous
 62
     2
370
     9
100
AcDbLine
 10
-261.5920282309399
 20
-154.743855513962
 30
0.0
 11
-258.5920183333467
 21
-151.7438456163692
 31
0.0
  0
LINE
  5
20B
330
1F
100
AcDbEntity
  8
1-2ﾚｲﾔ
  6
Continuous
 62
     2
370
     9
100
AcDbLine
 10
-258.5920183333467
 20
-151.7438456163692
 30
0.0
 11
-261.5920282309399
 21
-148.7436872548827
 31
0.0
  0
LINE
  5
20C
330
1F
100
AcDbEntity
  8
1-2ﾚｲﾔ
  6
Continuous
 62
     2
370
     9
100
AcDbLine
 10
-261.5920282309399
 20
-148.7436872548827
 30
0.0
 11
-258.5920183333467
 21
-145.7436773572898
 31
0.0
  0
LINE
  5
20D
330
1F
100
AcDbEntity
  8
1-2ﾚｲﾔ
  6
Continuous
 62
     2
370
     9
100
AcDbLine
 10
-258.5920183333467
 20
-163.7438852067408
 30
0.0
 11
-261.5920282309399
 21
-160.7437268452543
 31
0.0
  0
LINE
  5
20E
330
1F
100
AcDbEntity
  8
1-2ﾚｲﾔ
  6
Continuous
 62
     2
370
     9
100
AcDbLine
 10
-261.5920282309399
 20
-160.7437268452543
 30
0.0
 11
-258.5920183333467
 21
-157.7437169476614
 31
0.0
  0
LINE
  5
20F
330
1F
100
AcDbEntity
  8
1-2ﾚｲﾔ
  6
Continuous
 62
     2
370
     9
100
AcDbLine
 10
-258.5920183333467
 20
-139.7438060259975
 30
0.0
 11
-261.5920282309399
 21
-136.743647664511
 31
0.0
  0
LINE
  5
210
330
1F
100
AcDbEntity
  8
1-2ﾚｲﾔ
  6
Continuous
 62
     2
370
     9
100
AcDbLine
 10
-261.5920282309399
 20
-136.743647664511
 30
0.0
 11
-258.5920183333467
 21
-133.7439346947053
 31
0.0
  0
LINE
  5
211
330
1F
100
AcDbEntity
  8
1-2ﾚｲﾔ
  6
Continuous
 62
     2
370
     9
100
AcDbLine
 10
-258.5920183333467
 20
-133.7439346947053
 30
0.0
 11
-261.5920282309399
 21
-130.7437763332188
 31
0.0
  0
LINE
  5
212
330
1F
100
AcDbEntity
  8
1-2ﾚｲﾔ
  6
Continuous
 62
     2
370
     9
100
AcDbLine
 10
-261.5920282309399
 20
-130.7437763332188
 30
0.0
 11
-258.5920183333467
 21
-127.743766435626
 31
0.0
  0
LINE
  5
213
330
1F
100
AcDbEntity
  8
1-2ﾚｲﾔ
  6
Continuous
 62
     2
370
     9
100
AcDbLine
 10
-258.5920183333467
 20
-145.7436773572898
 30
0.0
 11
-261.5920282309399
 21
-142.7438159235905
 31
0.0
  0
LINE
  5
214
330
1F
100
AcDbEntity
  8
1-2ﾚｲﾔ
  6
Continuous
 62
     2
370
     9
100
AcDbLine
 10
-261.5920282309399
 20
-142.7438159235905
 30
0.0
 11
-258.5920183333467
 21
-139.7438060259975
 31
0.0
  0
LINE
  5
215
330
1F
100
AcDbEntity
  8
1-2ﾚｲﾔ
  6
Continuous
 62
     2
370
     9
100
AcDbLine
 10
-258.5920183333467
 20
-121.7438951043337
 30
0.0
 11
-261.5920282309399
 21
-118.7437367428472
 31
0.0
  0
LINE
  5
216
330
1F
100
AcDbEntity
  8
1-2ﾚｲﾔ
  6
Continuous
 62
     2
370
     9
100
AcDbLine
 10
-261.5920282309399
 20
-118.7437367428472
 30
0.0
 11
-258.5920183333467
 21
-115.7437268452543
 31
0.0
  0
LINE
  5
217
330
1F
100
AcDbEntity
  8
1-2ﾚｲﾔ
  6
Continuous
 62
     2
370
     9
100
AcDbLine
 10
-258.5920183333467
 20
-115.7437268452543
 30
0.0
 11
-261.5920282309399
 21
-112.7437169476614
 31
0.0
  0
LINE
  5
218
330
1F
100
AcDbEntity
  8
1-2ﾚｲﾔ
  6
Continuous
 62
     2
370
     9
100
AcDbLine
 10
-261.5920282309399
 20
-112.7437169476614
 30
0.0
 11
-258.5920183333467
 21
-109.743855513962
 31
0.0
  0
LINE
  5
219
330
1F
100
AcDbEntity
  8
1-2ﾚｲﾔ
  6
Continuous
 62
     2
370
     9
100
AcDbLine
 10
-258.5920183333467
 20
-127.743766435626
 30
0.0
 11
-261.5920282309399
 21
-124.743756538033
 31
0.0
  0
LINE
  5
21A
330
1F
100
AcDbEntity
  8
1-2ﾚｲﾔ
  6
Continuous
 62
     2
370
     9
100
AcDbLine
 10
-261.5920282309399
 20
-124.743756538033
 30
0.0
 11
-258.5920183333467
 21
-121.7438951043337
 31
0.0
  0
LINE
  5
21B
330
1F
100
AcDbEntity
  8
1-2ﾚｲﾔ
  6
Continuous
 62
     2
370
     9
100
AcDbLine
 10
-228.5920678213114
 20
-187.7438159235905
 30
0.0
 11
-228.5920678213114
 21
-181.7437218964578
 31
0.0
  0
LINE
  5
21C
330
1F
100
AcDbEntity
  8
1-2ﾚｲﾔ
  6
Continuous
 62
     2
370
     9
100
AcDbLine
 10
-228.5920678213114
 20
-109.743855513962
 30
0.0
 11
-228.5920678213114
 21
-95.17019432836244
 31
0.0
  0
LINE
  5
21D
330
1F
100
AcDbEntity
  8
1-2ﾚｲﾔ
  6
Continuous
 62
     2
370
     9
100
AcDbLine
 10
-258.5920183333467
 20
-187.7438159235905
 30
0.0
 11
-258.5920183333467
 21
-181.7437218964578
 31
0.0
  0
LINE
  5
21E
330
1F
100
AcDbEntity
  8
1-2ﾚｲﾔ
  6
Continuous
 62
     2
370
     9
100
AcDbLine
 10
-258.5920183333467
 20
-109.743855513962
 30
0.0
 11
-258.5920183333467
 21
-43.95668345420696
 31
0.0
  0
ARC
  5
21F
330
1F
100
AcDbEntity
  8
1-2ﾚｲﾔ
  6
Continuous
 62
     2
370
     9
100
AcDbCircle
 10
-231.5921519508511
 20
88.25620387159537
 30
0.0
 40
3.000000038662472
100
AcDbArc
 50
0.0
 51
90.0
  0
ARC
  5
220
330
1F
100
AcDbEntity
  8
1-2ﾚｲﾔ
  6
Continuous
 62
     2
370
     9
100
AcDbCircle
 10
-255.5919342038071
 20
88.25620387159537
 30
0.0
 40
3.000000038662472
100
AcDbArc
 50
90.0
 51
180.0
  0
ARC
  5
221
330
1F
100
AcDbEntity
  8
1-2ﾚｲﾔ
  6
Continuous
 62
     2
370
     9
100
AcDbCircle
 10
-234.5919391526036
 20
-187.7438159235905
 30
0.0
 40
6.000000077324945
100
AcDbArc
 50
270.0
 51
0.0
  0
ARC
  5
222
330
1F
100
AcDbEntity
  8
1-2ﾚｲﾔ
  6
Continuous
 62
     2
370
     9
100
AcDbCircle
 10
-252.5919243062143
 20
-187.7438159235905
 30
0.0
 40
6.000000077324945
100
AcDbArc
 50
180.0
 51
270.0
  0
LINE
  5
223
330
1F
100
AcDbEntity
  8
1-5ﾚｲﾔ
  6
Continuous
 62
     4
370
     9
100
AcDbLine
 10
-278.0458096207844
 20
-34.74380602599753
 30
0.0
 11
-285.245809620784
 21
-34.74380602599753
 31
0.0
  0
LINE
  5
224
330
1F
100
AcDbEntity
  8
1-5ﾚｲﾔ
  6
Continuous
 62
     4
370
     9
100
AcDbLine
 10
-285.245809620784
 20
-170.3437862308117
 30
0.0
 11
-285.245809620784
 21
-34.74380602599753
 31
0.0
  0
LINE
  5
225
330
1F
100
AcDbEntity
  8
1-5ﾚｲﾔ
  6
Continuous
 62
     4
370
     9
100
AcDbLine
 10
-278.0458096207844
 20
-34.74380602599753
 30
0.0
 11
-278.0458096207844
 21
-170.3437862308117
 31
0.0
  0
LINE
  5
226
330
1F
100
AcDbEntity
  8
1-F
  6
Continuous
 62
     7
370
     9
100
AcDbLine
 10
-285.245809620784
 20
-34.74380602599757
 30
0.0
 11
-348.0263255499436
 21
73.99524574938097
 31
0.0
  0
LINE
  5
227
330
1F
100
AcDbEntity
  8
1-F
  6
Continuous
 62
     7
370
     9
100
AcDbLine
 10
-348.0263255499436
 20
73.99524574938097
 30
0.0
 11
-596.6278107691551
 21
73.99524574938097
 31
0.0
  0
TEXT
  5
228
330
1F
100
AcDbEntity
  8
1-F
  6
Continuous
 62
     2
370
     9
100
AcDbText
 10
-595.1955078302294
 20
87.36730265394192
 30
0.0
 40
18.288
  1
ジョイント金具
 41
1.107142857142857
  7
ＭＳ ゴシック
100
AcDbText
  0
LINE
  5
229
330
1F
100
AcDbEntity
  8
1-F
  6
Continuous
 62
     7
370
     9
100
AcDbLine
 10
-490.1919261535267
 20
153.54160607455
 30
0.0
 11
-490.1919261535267
 21
117.3843382720794
 31
0.0
  0
LINE
  5
22A
330
1F
100
AcDbEntity
  8
1-F
  6
Continuous
 62
     7
370
     9
100
AcDbLine
 10
-490.1919261535267
 20
117.3843382720794
 30
0.0
 11
-591.6215303487863
 21
117.3843382720794
 31
0.0
  0
LINE
  5
22B
330
1F
100
AcDbEntity
  8
1-F
  6
Continuous
 62
     7
370
     9
100
AcDbLine
 10
-591.6215303487863
 20
117.3843382720794
 30
0.0
 11
-591.6215303487863
 21
153.54160607455
 31
0.0
  0
LINE
  5
22C
330
1F
100
AcDbEntity
  8
1-F
  6
Continuous
 62
     7
370
     9
100
AcDbLine
 10
-591.6215303487863
 20
153.54160607455
 30
0.0
 11
-490.1919261535267
 21
153.54160607455
 31
0.0
  0
TEXT
  5
22D
330
1F
100
AcDbEntity
  8
1-F
  6
Continuous
 62
     7
370
     9
100
AcDbText
 10
-581.4067096931701
 20
129.0009795965094
 30
0.0
 40
13.716
  1
付属部品
 41
1.125000000000004
  7
ＭＳ ゴシック
100
AcDbText
  0
TEXT
  5
22E
330
1F
100
AcDbEntity
  8
1-F
  6
Continuous
 62
     2
370
     9
100
AcDbText
 10
-595.1955078302294
 20
44.06914426606158
 30
0.0
 40
18.288
  1
ＳＧＭＣＣ（t=1.2）
 41
1.111842105263158
  7
ＭＳ ゴシック
100
AcDbText
  0
LINE
  5
22F
330
1F
100
AcDbEntity
  8
1-F
  6
Continuous
 62
     7
370
     9
100
AcDbLine
 10
-651.7189710456073
 20
-184.7438060259975
 30
0.0
 11
-714.4994869747673
 21
-76.00475425061896
 31
0.0
  0
LINE
  5
230
330
1F
100
AcDbEntity
  8
1-F
  6
Continuous
 62
     7
370
     9
100
AcDbLine
 10
-714.4994869747673
 20
-76.00475425061896
 30
0.0
 11
-1067.559245341533
 21
-76.00475425061896
 31
0.0
  0
TEXT
  5
231
330
1F
100
AcDbEntity
  8
1-F
  6
Continuous
 62
     2
370
     9
100
AcDbText
 10
-1062.186941547426
 20
-101.8823938198758
 30
0.0
 40
18.288
  1
Ａ６０６３Ｓ
 41
1.104166666666667
  7
ＭＳ ゴシック
100
AcDbText
  0
TEXT
  5
232
330
1F
100
AcDbEntity
  8
1-F
  6
Continuous
 62
     7
370
     9
100
AcDbText
 10
-1065.197501517631
 20
-30.0498247478743
 30
0.0
 40
13.716
  1
アルミ製舗装用見切材
 41
1.15
  7
ＭＳ ゴシック
100
AcDbText
  0
TEXT
  5
233
330
1F
100
AcDbEntity
  8
1-F
  6
Continuous
 62
     2
370
     9
100
AcDbText
 10
-1065.197501517631
 20
-63.67728930129492
 30
0.0
 40
18.288
  1
ガーデンエッジ　ＩＡ－５０
 41
1.115384615384615
  7
ＭＳ ゴシック
100
AcDbText
  0
LINE
  5
234
330
1F
100
AcDbEntity
  8
1-4ﾚｲﾔ
  6
Continuous
 62
     7
370
     9
100
AcDbLine
 10
-114.7650991460719
 20
-208.7437268839167
 30
0.0
 11
-116.7229920293727
 21
-193.8720539633094
 31
0.0
  0
LINE
  5
235
330
1F
100
AcDbEntity
  8
1-4ﾚｲﾔ
  6
Continuous
 62
     7
370
     9
100
AcDbLine
 10
-114.7650991460719
 20
-208.7437268839167
 30
0.0
 11
-112.8072062627711
 21
-193.8720539633094
 31
0.0
  0
LINE
  5
236
330
1F
100
AcDbEntity
  8
1-4ﾚｲﾔ
  6
Continuous
 62
     7
370
     9
100
AcDbLine
 10
-112.9650991460719
 20
-208.7437268839167
 30
0.0
 11
-195.9454168368312
 21
-208.7437268839167
 31
0.0
  0
LINE
  5
237
330
1F
100
AcDbEntity
  8
1-4ﾚｲﾔ
  6
Continuous
 62
     7
370
     9
100
AcDbLine
 10
-114.7650991460719
 20
91.25621376918835
 30
0.0
 11
-116.7229920293727
 21
76.3845408485812
 31
0.0
  0
LINE
  5
238
330
1F
100
AcDbEntity
  8
1-4ﾚｲﾔ
  6
Continuous
 62
     7
370
     9
100
AcDbLine
 10
-114.7650991460719
 20
91.25621376918835
 30
0.0
 11
-112.8072062627711
 21
76.3845408485812
 31
0.0
  0
LINE
  5
239
330
1F
100
AcDbEntity
  8
1-4ﾚｲﾔ
  6
Continuous
 62
     7
370
     9
100
AcDbLine
 10
-112.9650991460719
 20
91.25621376918835
 30
0.0
 11
-219.5921519508515
 21
91.25621376918835
 31
0.0
  0
LINE
  5
23A
330
1F
100
AcDbEntity
  8
1-4ﾚｲﾔ
  6
Continuous
 62
     7
370
     9
100
AcDbLine
 10
-114.7650991460719
 20
-208.7437268839167
 30
0.0
 11
-114.7650991460719
 21
91.25621376918835
 31
0.0
  0
TEXT
  5
23B
330
1F
100
AcDbEntity
  8
1-4ﾚｲﾔ
  6
Continuous
 62
     2
370
   211
100
AcDbText
 10
-121.7490991460721
 20
-71.49375655736415
 30
0.0
 40
18.288
  1
50
 50
90.0
 41
1.0625
  7
ＭＳ ゴシック
100
AcDbText
  0
LINE
  5
23C
330
1F
100
AcDbEntity
  8
1-F
  6
Continuous
 62
     7
370
     9
100
AcDbLine
 10
-622.3203045888681
 20
-538.9821926530987
 30
0.0
 11
-868.3139429289276
 21
-538.9821926530987
 31
0.0
  0
LINE
  5
23D
330
1F
100
AcDbEntity
  8
1-E
  6
Continuous
 62
     2
370
     9
100
AcDbLine
 10
925.7308128105217
 20
-140.2687459251435
 30
0.0
 11
923.4101357664409
 21
-144.9929782111978
 31
0.0
  0
LINE
  5
23E
330
1F
100
AcDbEntity
  8
1-E
  6
Continuous
 62
     2
370
     9
100
AcDbLine
 10
923.4101357664409
 20
-144.9929782111978
 30
0.0
 11
923.4101357664409
 21
-147.4768028049001
 31
0.0
  0
LINE
  5
23F
330
1F
100
AcDbEntity
  8
1-E
  6
Continuous
 62
     2
370
     9
100
AcDbLine
 10
881.9066241715317
 20
-415.5782804981825
 30
0.0
 11
888.0205911548646
 21
-410.4480383471601
 31
0.0
  0
LINE
  5
240
330
1F
100
AcDbEntity
  8
1-E
  6
Continuous
 62
     6
370
     9
100
AcDbLine
 10
910.5421005512225
 20
-214.1222832660532
 30
0.0
 11
910.5421005512225
 21
-209.026853974457
 31
0.0
  0
LINE
  5
241
330
1F
100
AcDbEntity
  8
1-E
  6
Continuous
 62
     7
370
     9
100
AcDbLine
 10
1116.768270956503
 20
-20.13425754856422
 30
0.0
 11
1116.768270956503
 21
-269.7999374802048
 31
0.0
  0
LINE
  5
242
330
1F
100
AcDbEntity
  8
1-E
  6
Continuous
 62
     7
370
     9
100
AcDbLine
 10
1116.768270956503
 20
-626.2592963141365
 30
0.0
 11
1116.768270956503
 21
-316.9633162214949
 31
0.0
  0
LINE
  5
243
330
1F
100
AcDbEntity
  8
1-E
  6
Continuous
 62
     7
370
     9
100
AcDbLine
 10
662.8644041625796
 20
-20.13425754856422
 30
0.0
 11
662.8644041625796
 21
-269.7999374802048
 31
0.0
  0
LINE
  5
244
330
1F
100
AcDbEntity
  8
1-E
  6
Continuous
 62
     7
370
     9
100
AcDbLine
 10
679.9103472422718
 20
-33.30508340371625
 30
0.0
 11
814.8295828841636
 21
-33.30508340371625
 31
0.0
  0
LINE
  5
245
330
1F
100
AcDbEntity
  8
1-E
  6
Continuous
 62
     7
370
     9
100
AcDbLine
 10
679.9103472422718
 20
-63.30488545185813
 30
0.0
 11
814.8295828841636
 21
-63.30488545185813
 31
0.0
  0
LINE
  5
246
330
1F
100
AcDbEntity
  8
1-E
  6
Continuous
 62
     7
370
     9
100
AcDbLine
 10
679.9103472422718
 20
-33.30508340371625
 30
0.0
 11
679.9103472422718
 21
-63.30488545185813
 31
0.0
  0
LINE
  5
247
330
1F
100
AcDbEntity
  8
1-E
  6
Continuous
 62
     7
370
     9
100
AcDbLine
 10
814.8295828841636
 20
-33.30508340371625
 30
0.0
 11
814.8295828841636
 21
-63.30488545185813
 31
0.0
  0
LINE
  5
248
330
1F
100
AcDbEntity
  8
1-E
  6
Continuous
 62
     7
370
     9
100
AcDbLine
 10
851.5208735136381
 20
-221.6998803944315
 30
0.0
 11
851.5208735136381
 21
-216.850158846712
 31
0.0
  0
LINE
  5
249
330
1F
100
AcDbEntity
  8
1-E
  6
Continuous
 62
     7
370
     9
100
AcDbLine
 10
851.5208735136381
 20
-216.850158846712
 30
0.0
 11
799.020774537709
 21
-186.5391764776242
 31
0.0
  0
LINE
  5
24A
330
1F
100
AcDbEntity
  8
1-E
  6
Continuous
 62
     7
370
     9
100
AcDbLine
 10
851.5208735136381
 20
-221.6998803944315
 30
0.0
 11
799.020774537709
 21
-191.3888980253437
 31
0.0
  0
LINE
  5
24B
330
1F
100
AcDbEntity
  8
1-E
  6
Continuous
 62
     7
370
     9
100
AcDbLine
 10
799.020774537709
 20
-186.5391764776242
 30
0.0
 11
799.020774537709
 21
-191.3888980253437
 31
0.0
  0
LINE
  5
24C
330
1F
100
AcDbEntity
  8
1-E
  6
Continuous
 62
     7
370
     9
100
AcDbLine
 10
858.8710239570503
 20
-215.0314761503437
 30
0.0
 11
856.7711506462393
 21
-218.6688415430802
 31
0.0
  0
LINE
  5
24D
330
1F
100
AcDbEntity
  8
1-E
  6
Continuous
 62
     7
370
     9
100
AcDbLine
 10
875.1456359714084
 20
-208.0599086355634
 30
0.0
 11
873.0460595883847
 21
-209.2722647905465
 31
0.0
  0
LINE
  5
24E
330
1F
100
AcDbEntity
  8
1-E
  6
Continuous
 62
     7
370
     9
100
AcDbLine
 10
856.7711506462393
 20
-218.6688415430802
 30
0.0
 11
851.5208735136381
 21
-221.6998803944315
 31
0.0
  0
LINE
  5
24F
330
1F
100
AcDbEntity
  8
1-E
  6
Continuous
 62
     7
370
     9
100
AcDbLine
 10
875.1456359714084
 20
-208.0599086355634
 30
0.0
 11
875.1456359714084
 21
-205.63489939781
 31
0.0
  0
LINE
  5
250
330
1F
100
AcDbEntity
  8
1-E
  6
Continuous
 62
     7
370
     9
100
AcDbLine
 10
873.0460595883847
 20
-208.6662351769485
 30
0.0
 11
873.0460595883847
 21
-209.2722647905465
 31
0.0
  0
LINE
  5
251
330
1F
100
AcDbEntity
  8
1-E
  6
Continuous
 62
     7
370
     9
100
AcDbLine
 10
871.4708576774893
 20
-207.7567453648708
 30
0.0
 11
858.8710239570503
 21
-215.0314761503437
 31
0.0
  0
LINE
  5
252
330
1F
100
AcDbEntity
  8
1-E
  6
Continuous
 62
     7
370
     9
100
AcDbLine
 10
873.0460595883847
 20
-209.2722647905465
 30
0.0
 11
870.9458893497869
 21
-208.0599086355634
 31
0.0
  0
LINE
  5
253
330
1F
100
AcDbEntity
  8
1-E
  6
Continuous
 62
     7
370
     9
100
AcDbLine
 10
914.5206359714084
 20
-258.0729404662221
 30
0.0
 11
914.5206359714084
 21
-253.2233673823961
 31
0.0
  0
LINE
  5
254
330
1F
100
AcDbEntity
  8
1-E
  6
Continuous
 62
     7
370
     9
100
AcDbLine
 10
914.5206359714084
 20
-253.2233673823961
 30
0.0
 11
862.0208339232665
 21
-222.9122365494147
 31
0.0
  0
LINE
  5
255
330
1F
100
AcDbEntity
  8
1-E
  6
Continuous
 62
     7
370
     9
100
AcDbLine
 10
914.5206359714084
 20
-258.0729404662221
 30
0.0
 11
862.0208339232665
 21
-227.7619580971343
 31
0.0
  0
LINE
  5
256
330
1F
100
AcDbEntity
  8
1-E
  6
Continuous
 62
     7
370
     9
100
AcDbLine
 10
862.0208339232665
 20
-222.9122365494147
 30
0.0
 11
862.0208339232665
 21
-227.7619580971343
 31
0.0
  0
LINE
  5
257
330
1F
100
AcDbEntity
  8
1-E
  6
Continuous
 62
     7
370
     9
100
AcDbLine
 10
921.8710833426078
 20
-251.4046846860279
 30
0.0
 11
919.7709131040097
 21
-255.0417531509772
 31
0.0
  0
LINE
  5
258
330
1F
100
AcDbEntity
  8
1-E
  6
Continuous
 62
     7
370
     9
100
AcDbLine
 10
938.1456953569659
 20
-244.4329687073539
 30
0.0
 11
936.0461189739422
 21
-245.6456217901242
 31
0.0
  0
LINE
  5
259
330
1F
100
AcDbEntity
  8
1-E
  6
Continuous
 62
     7
370
     9
100
AcDbLine
 10
919.7709131040097
 20
-255.0417531509772
 30
0.0
 11
914.5206359714084
 21
-258.0729404662221
 31
0.0
  0
LINE
  5
25A
330
1F
100
AcDbEntity
  8
1-E
  6
Continuous
 62
     7
370
     9
100
AcDbLine
 10
964.395893308824
 20
-229.2776259867036
 30
0.0
 11
964.395893308824
 21
-226.8526167489501
 31
0.0
  0
LINE
  5
25B
330
1F
100
AcDbEntity
  8
1-E
  6
Continuous
 62
     7
370
     9
100
AcDbLine
 10
966.4960635474218
 20
-228.0652698317205
 30
0.0
 11
964.395893308824
 21
-229.2776259867036
 31
0.0
  0
LINE
  5
25C
330
1F
100
AcDbEntity
  8
1-E
  6
Continuous
 62
     7
370
     9
100
AcDbLine
 10
964.395893308824
 20
-226.8526167489501
 30
0.0
 11
938.1456953569659
 21
-242.0082563973876
 31
0.0
  0
LINE
  5
25D
330
1F
100
AcDbEntity
  8
1-E
  6
Continuous
 62
     7
370
     9
100
AcDbLine
 10
938.1456953569659
 20
-244.4329687073539
 30
0.0
 11
938.1456953569659
 21
-242.0082563973876
 31
0.0
  0
LINE
  5
25E
330
1F
100
AcDbEntity
  8
1-E
  6
Continuous
 62
     7
370
     9
100
AcDbLine
 10
936.0461189739422
 20
-245.0392952487391
 30
0.0
 11
936.0461189739422
 21
-245.6456217901242
 31
0.0
  0
LINE
  5
25F
330
1F
100
AcDbEntity
  8
1-E
  6
Continuous
 62
     7
370
     9
100
AcDbLine
 10
934.4709170630468
 20
-244.1299539005549
 30
0.0
 11
921.8710833426078
 21
-251.4046846860279
 31
0.0
  0
LINE
  5
260
330
1F
100
AcDbEntity
  8
1-E
  6
Continuous
 62
     7
370
     9
100
AcDbLine
 10
966.4960635474218
 20
-226.2465871353522
 30
0.0
 11
966.4960635474218
 21
-228.0652698317205
 31
0.0
  0
LINE
  5
261
330
1F
100
AcDbEntity
  8
1-E
  6
Continuous
 62
     7
370
     9
100
AcDbLine
 10
964.395893308824
 20
-229.2776259867036
 30
0.0
 11
962.2963169258003
 21
-228.0652698317205
 31
0.0
  0
LINE
  5
262
330
1F
100
AcDbEntity
  8
1-E
  6
Continuous
 62
     7
370
     9
100
AcDbLine
 10
936.0461189739422
 20
-245.6456217901242
 30
0.0
 11
933.945948735344
 21
-244.4329687073539
 31
0.0
  0
LINE
  5
263
330
1F
100
AcDbEntity
  8
1-E
  6
Continuous
 62
     7
370
     9
100
AcDbLine
 10
982.2460041618643
 20
-217.153173653511
 30
0.0
 11
983.8212060727597
 21
-218.0625150016951
 31
0.0
  0
LINE
  5
264
330
1F
100
AcDbEntity
  8
1-E
  6
Continuous
 62
     7
370
     9
100
AcDbLine
 10
981.196067506459
 20
-217.153173653511
 30
0.0
 11
967.0210318751247
 21
-225.3372457871681
 31
0.0
  0
LINE
  5
265
330
1F
100
AcDbEntity
  8
1-E
  6
Continuous
 62
     7
370
     9
100
AcDbLine
 10
990.6460912606822
 20
-214.1222832660532
 30
0.0
 11
983.8212060727597
 21
-218.0625150016951
 31
0.0
  0
LINE
  5
266
330
1F
100
AcDbEntity
  8
1-E
  6
Continuous
 62
     7
370
     9
100
AcDbLine
 10
821.0709289401584
 20
-173.8086945308336
 30
0.0
 11
799.020774537709
 21
-186.5391764776242
 31
0.0
  0
LINE
  5
267
330
1F
100
AcDbEntity
  8
1-E
  6
Continuous
 62
     6
370
     9
100
AcDbLine
 10
934.251487428334
 20
-214.1222832660532
 30
0.0
 11
934.251487428334
 21
-209.026853974457
 31
0.0
  0
LINE
  5
268
330
1F
100
AcDbEntity
  8
1-E
  6
Continuous
 62
     6
370
     9
100
AcDbLine
 10
876.5014082475909
 20
-180.7801135817205
 30
0.0
 11
876.5014082475909
 21
-175.6848327540177
 31
0.0
  0
LINE
  5
269
330
1F
100
AcDbEntity
  8
1-E
  6
Continuous
 62
     6
370
     9
100
AcDbLine
 10
852.7920213704793
 20
-180.7801135817205
 30
0.0
 11
852.7920213704793
 21
-175.6848327540177
 31
0.0
  0
LINE
  5
26A
330
1F
100
AcDbEntity
  8
1-E
  6
Continuous
 62
     7
370
     9
100
AcDbLine
 10
801.75993337428
 20
-245.1844929366613
 30
0.0
 11
710.7925426437056
 21
-245.1844929366613
 31
0.0
  0
LINE
  5
26B
330
1F
100
AcDbEntity
  8
1-E
  6
Continuous
 62
     7
370
     9
100
AcDbLine
 10
949.9251176014759
 20
-103.6338205601832
 30
0.0
 11
1104.865897003925
 21
-103.6338205601832
 31
0.0
  0
ARC
  5
26C
330
1F
100
AcDbEntity
  8
1-E
  6
Continuous
 62
     7
370
     9
100
AcDbCircle
 10
871.9961229329793
 20
-208.6662351769485
 30
0.0
 40
1.050000013531865
100
AcDbArc
 50
0.0
 51
119.9989013671875
  0
ARC
  5
26D
330
1F
100
AcDbEntity
  8
1-E
  6
Continuous
 62
     7
370
     9
100
AcDbCircle
 10
934.9958853907497
 20
-245.0392952487391
 30
0.0
 40
1.050000013531865
100
AcDbArc
 50
0.0
 51
119.9989013671875
  0
ARC
  5
26E
330
1F
100
AcDbEntity
  8
1-E
  6
Continuous
 62
     7
370
     9
100
AcDbCircle
 10
967.5460002028271
 20
-226.2465871353522
 30
0.0
 40
1.050000013531865
100
AcDbArc
 50
120.0012664794922
 51
180.0
  0
ARC
  5
26F
330
1F
100
AcDbEntity
  8
1-E
  6
Continuous
 62
     7
370
     9
100
AcDbCircle
 10
981.7210358341619
 20
-218.0625150016951
 30
0.0
 40
1.050000013531865
100
AcDbArc
 50
60.00119018554688
 51
119.9988098144531
  0
ELLIPSE
  5
270
330
1F
100
AcDbEntity
  8
1-E
  6
Continuous
 62
     6
370
     9
100
AcDbEllipse
 10
922.3957547425231
 20
-209.7521000946006
 30
0.0
 11
-11.85468299967309
 21
-1.894255830211085E-5
 31
0.0
210
0.0
220
0.0
230
1.0
 40
0.5772
 41
0.0
 42
6.283185307179586
  0
ELLIPSE
  5
271
330
1F
100
AcDbEntity
  8
1-E
  6
Continuous
 62
     6
370
     9
100
AcDbEllipse
 10
922.3957547425231
 20
-214.1222832660532
 30
0.0
 11
-11.85468299967309
 21
-1.894255830211085E-5
 31
0.0
210
0.0
220
0.0
230
1.0
 40
0.5772
 41
0.0
 42
3.141592653589793
  0
ELLIPSE
  5
272
330
1F
100
AcDbEntity
  8
1-E
  6
Continuous
 62
     6
370
     9
100
AcDbEllipse
 10
864.6459724895672
 20
-176.4100788741613
 30
0.0
 11
-11.85468299967309
 21
-1.894255830211085E-5
 31
0.0
210
0.0
220
0.0
230
1.0
 40
0.5772
 41
0.0
 42
6.283185307179586
  0
ELLIPSE
  5
273
330
1F
100
AcDbEntity
  8
1-E
  6
Continuous
 62
     6
370
     9
100
AcDbEllipse
 10
864.6459724895672
 20
-180.7801135817205
 30
0.0
 11
-11.85468299967309
 21
-1.894255830211085E-5
 31
0.0
210
0.0
220
0.0
230
1.0
 40
0.5772
 41
0.0
 42
3.141592653589793
  0
LINE
  5
274
330
1F
100
AcDbEntity
  8
1-E
  6
Continuous
 62
     7
370
     9
100
AcDbLine
 10
767.0059486236004
 20
-557.086516509185
 30
0.0
 11
767.0059486236004
 21
-550.1583004513302
 31
0.0
  0
LINE
  5
275
330
1F
100
AcDbEntity
  8
1-E
  6
Continuous
 62
     7
370
     9
100
AcDbLine
 10
767.0059486236004
 20
-550.1583004513302
 30
0.0
 11
692.0061465754585
 21
-506.8570243216849
 31
0.0
  0
LINE
  5
276
330
1F
100
AcDbEntity
  8
1-E
  6
Continuous
 62
     7
370
     9
100
AcDbLine
 10
767.0059486236004
 20
-557.086516509185
 30
0.0
 11
692.0061465754585
 21
-513.7852403795397
 31
0.0
  0
LINE
  5
277
330
1F
100
AcDbEntity
  8
1-E
  6
Continuous
 62
     7
370
     9
100
AcDbLine
 10
692.0061465754585
 20
-506.8570243216849
 30
0.0
 11
692.0061465754585
 21
-513.7852403795397
 31
0.0
  0
LINE
  5
278
330
1F
100
AcDbEntity
  8
1-E
  6
Continuous
 62
     7
370
     9
100
AcDbLine
 10
777.5065028888032
 20
-547.5601823136612
 30
0.0
 11
774.5063445273166
 21
-552.7564185889992
 31
0.0
  0
LINE
  5
279
330
1F
100
AcDbEntity
  8
1-E
  6
Continuous
 62
     7
370
     9
100
AcDbLine
 10
800.7559486236004
 20
-537.6009274044552
 30
0.0
 11
797.7563841176882
 21
-539.3329071869721
 31
0.0
  0
LINE
  5
27A
330
1F
100
AcDbEntity
  8
1-E
  6
Continuous
 62
     7
370
     9
100
AcDbLine
 10
774.5063445273166
 20
-552.7564185889992
 30
0.0
 11
767.0059486236004
 21
-557.086516509185
 31
0.0
  0
LINE
  5
27B
330
1F
100
AcDbEntity
  8
1-E
  6
Continuous
 62
     7
370
     9
100
AcDbLine
 10
800.7559486236004
 20
-537.6009274044552
 30
0.0
 11
800.7559486236004
 21
-534.1366709116342
 31
0.0
  0
LINE
  5
27C
330
1F
100
AcDbEntity
  8
1-E
  6
Continuous
 62
     7
370
     9
100
AcDbLine
 10
797.7563841176882
 20
-538.4670657596072
 30
0.0
 11
797.7563841176882
 21
-539.3329071869721
 31
0.0
  0
LINE
  5
27D
330
1F
100
AcDbEntity
  8
1-E
  6
Continuous
 62
     7
370
     9
100
AcDbLine
 10
795.5062653465735
 20
-537.1677097629856
 30
0.0
 11
777.5065028888032
 21
-547.5601823136612
 31
0.0
  0
LINE
  5
27E
330
1F
100
AcDbEntity
  8
1-E
  6
Continuous
 62
     7
370
     9
100
AcDbLine
 10
797.7563841176882
 20
-539.3329071869721
 30
0.0
 11
794.7562257562016
 21
-537.6009274044552
 31
0.0
  0
LINE
  5
27F
330
1F
100
AcDbEntity
  8
1-E
  6
Continuous
 62
     7
370
     9
100
AcDbLine
 10
857.0059486236004
 20
-609.0480070371887
 30
0.0
 11
857.0059486236004
 21
-602.1200879071209
 31
0.0
  0
LINE
  5
280
330
1F
100
AcDbEntity
  8
1-E
  6
Continuous
 62
     7
370
     9
100
AcDbLine
 10
857.0059486236004
 20
-602.1200879071209
 30
0.0
 11
782.0061465754585
 21
-558.8184962917019
 31
0.0
  0
LINE
  5
281
330
1F
100
AcDbEntity
  8
1-E
  6
Continuous
 62
     7
370
     9
100
AcDbLine
 10
857.0059486236004
 20
-609.0480070371887
 30
0.0
 11
782.0061465754585
 21
-565.7467123495566
 31
0.0
  0
LINE
  5
282
330
1F
100
AcDbEntity
  8
1-E
  6
Continuous
 62
     7
370
     9
100
AcDbLine
 10
782.0061465754585
 20
-558.8184962917019
 30
0.0
 11
782.0061465754585
 21
-565.7467123495566
 31
0.0
  0
LINE
  5
283
330
1F
100
AcDbEntity
  8
1-E
  6
Continuous
 62
     7
370
     9
100
AcDbLine
 10
867.5065028888032
 20
-599.521969769452
 30
0.0
 11
864.5063445273166
 21
-604.7179091170027
 31
0.0
  0
LINE
  5
284
330
1F
100
AcDbEntity
  8
1-E
  6
Continuous
 62
     7
370
     9
100
AcDbLine
 10
890.7559486236004
 20
-589.5624179324589
 30
0.0
 11
887.7563841176882
 21
-591.2946946427628
 31
0.0
  0
LINE
  5
285
330
1F
100
AcDbEntity
  8
1-E
  6
Continuous
 62
     7
370
     9
100
AcDbLine
 10
864.5063445273166
 20
-604.7179091170027
 30
0.0
 11
857.0059486236004
 21
-609.0480070371887
 31
0.0
  0
LINE
  5
286
330
1F
100
AcDbEntity
  8
1-E
  6
Continuous
 62
     7
370
     9
100
AcDbLine
 10
928.2561465754585
 20
-567.911909773543
 30
0.0
 11
928.2561465754585
 21
-564.4476532807221
 31
0.0
  0
LINE
  5
287
330
1F
100
AcDbEntity
  8
1-E
  6
Continuous
 62
     7
370
     9
100
AcDbLine
 10
931.2563049369451
 20
-566.1799299910261
 30
0.0
 11
928.2561465754585
 21
-567.911909773543
 31
0.0
  0
LINE
  5
288
330
1F
100
AcDbEntity
  8
1-E
  6
Continuous
 62
     7
370
     9
100
AcDbLine
 10
928.2561465754585
 20
-564.4476532807221
 30
0.0
 11
890.7559486236004
 21
-586.098458367425
 31
0.0
  0
LINE
  5
289
330
1F
100
AcDbEntity
  8
1-E
  6
Continuous
 62
     7
370
     9
100
AcDbLine
 10
890.7559486236004
 20
-589.5624179324589
 30
0.0
 11
890.7559486236004
 21
-586.098458367425
 31
0.0
  0
LINE
  5
28A
330
1F
100
AcDbEntity
  8
1-E
  6
Continuous
 62
     7
370
     9
100
AcDbLine
 10
956.0064237080597
 20
-544.9620641759923
 30
0.0
 11
857.0059486236004
 21
-602.1200879071209
 31
0.0
  0
LINE
  5
28B
330
1F
100
AcDbEntity
  8
1-E
  6
Continuous
 62
     7
370
     9
100
AcDbLine
 10
887.7563841176882
 20
-590.4285562876107
 30
0.0
 11
887.7563841176882
 21
-591.2946946427628
 31
0.0
  0
LINE
  5
28C
330
1F
100
AcDbEntity
  8
1-E
  6
Continuous
 62
     7
370
     9
100
AcDbLine
 10
885.5062653465735
 20
-589.1294972187764
 30
0.0
 11
867.5065028888032
 21
-599.521969769452
 31
0.0
  0
LINE
  5
28D
330
1F
100
AcDbEntity
  8
1-E
  6
Continuous
 62
     7
370
     9
100
AcDbLine
 10
931.2563049369451
 20
-563.5818118533573
 30
0.0
 11
931.2563049369451
 21
-566.1799299910261
 31
0.0
  0
LINE
  5
28E
330
1F
100
AcDbEntity
  8
1-E
  6
Continuous
 62
     7
370
     9
100
AcDbLine
 10
928.2561465754585
 20
-567.911909773543
 30
0.0
 11
925.2565820695463
 21
-566.1799299910261
 31
0.0
  0
LINE
  5
28F
330
1F
100
AcDbEntity
  8
1-E
  6
Continuous
 62
     7
370
     9
100
AcDbLine
 10
887.7563841176882
 20
-591.2946946427628
 30
0.0
 11
884.7562257562016
 21
-589.5624179324589
 31
0.0
  0
LINE
  5
290
330
1F
100
AcDbEntity
  8
1-E
  6
Continuous
 62
     7
370
     9
100
AcDbLine
 10
953.7563049369451
 20
-550.5912211650127
 30
0.0
 11
956.0064237080597
 21
-551.8902802338471
 31
0.0
  0
LINE
  5
291
330
1F
100
AcDbEntity
  8
1-E
  6
Continuous
 62
     7
370
     9
100
AcDbLine
 10
952.2562257562016
 20
-550.5912211650127
 30
0.0
 11
932.0063445273166
 21
-562.2827527845228
 31
0.0
  0
LINE
  5
292
330
1F
100
AcDbEntity
  8
1-E
  6
Continuous
 62
     7
370
     9
100
AcDbLine
 10
965.7563445273166
 20
-546.261420172614
 30
0.0
 11
956.0064237080597
 21
-551.8902802338471
 31
0.0
  0
LINE
  5
293
330
1F
100
AcDbEntity
  8
1-E
  6
Continuous
 62
     7
370
     9
100
AcDbLine
 10
723.5060278043438
 20
-488.6704942857897
 30
0.0
 11
692.0061465754585
 21
-506.8570243216849
 31
0.0
  0
LINE
  5
294
330
1F
100
AcDbEntity
  8
1-E
  6
Continuous
 62
     7
370
     9
100
AcDbLine
 10
962.0061465754585
 20
-517.2494968723606
 30
0.0
 11
959.077250882891
 21
-518.9405006202492
 31
0.0
  0
LINE
  5
295
330
1F
100
AcDbEntity
  8
1-E
  6
Continuous
 62
     6
370
     9
100
AcDbLine
 10
885.1927096033301
 20
-546.261420172614
 30
0.0
 11
885.1927096033301
 21
-538.9822354703335
 31
0.0
  0
LINE
  5
296
330
1F
100
AcDbEntity
  8
1-E
  6
Continuous
 62
     6
370
     9
100
AcDbLine
 10
851.3221569217422
 20
-546.261420172614
 30
0.0
 11
851.3221569217422
 21
-538.9822354703335
 31
0.0
  0
LINE
  5
297
330
1F
100
AcDbEntity
  8
1-E
  6
Continuous
 62
     6
370
     9
100
AcDbLine
 10
802.6925116514719
 20
-498.6297491949958
 30
0.0
 11
802.6925116514719
 21
-491.3508614205025
 31
0.0
  0
LINE
  5
298
330
1F
100
AcDbEntity
  8
1-E
  6
Continuous
 62
     6
370
     9
100
AcDbLine
 10
768.8219589698841
 20
-498.6297491949958
 30
0.0
 11
768.8219589698841
 21
-491.3508614205025
 31
0.0
  0
LINE
  5
299
330
1F
100
AcDbEntity
  8
1-E
  6
Continuous
 62
     7
370
     9
100
AcDbLine
 10
724.1663952029922
 20
-576.4033021669129
 30
0.0
 11
711.941878205526
 21
-571.3397926124367
 31
0.0
  0
LINE
  5
29A
330
1F
100
AcDbEntity
  8
1-E
  6
Continuous
 62
     7
370
     9
100
AcDbLine
 10
737.8599624274432
 20
-584.3095612397065
 30
0.0
 11
748.0436947437441
 21
-588.5275689202385
 31
0.0
  0
LINE
  5
29B
330
1F
100
AcDbEntity
  8
1-E
  6
Continuous
 62
     7
370
     9
100
AcDbLine
 10
724.1663952029922
 20
-576.4033021669129
 30
0.0
 11
715.4996669513032
 21
-569.7531589817356
 31
0.0
  0
LINE
  5
29C
330
1F
100
AcDbEntity
  8
1-E
  6
Continuous
 62
     7
370
     9
100
AcDbLine
 10
737.8599624274432
 20
-584.3095612397065
 30
0.0
 11
746.5866700921391
 21
-591.0058766957876
 31
0.0
  0
LINE
  5
29D
330
1F
100
AcDbEntity
  8
1-E
  6
Continuous
 62
     7
370
     9
100
AcDbLine
 10
660.6272634198419
 20
-539.7192844700169
 30
0.0
 11
753.9947214540482
 21
-593.6249468004381
 31
0.0
  0
LINE
  5
29E
330
1F
100
AcDbEntity
  8
1-E
  6
Continuous
 62
     7
370
     9
100
AcDbLine
 10
722.8526382086932
 20
-577.1583895296665
 30
0.0
 11
758.5932420938285
 21
-556.5236156566723
 31
0.0
  0
LINE
  5
29F
330
1F
100
AcDbEntity
  8
1-E
  6
Continuous
 62
     7
370
     9
100
AcDbLine
 10
775.5757299527813
 20
-562.531132878484
 30
0.0
 11
736.2702110549773
 21
-585.224340077993
 31
0.0
  0
ARC
  5
2A0
330
1F
100
AcDbEntity
  8
1-E
  6
Continuous
 62
     7
370
     9
100
AcDbCircle
 10
796.2563049369451
 20
-538.4670657596072
 30
0.0
 40
1.500000019331236
100
AcDbArc
 50
0.0
 51
119.9989013671875
  0
ARC
  5
2A1
330
1F
100
AcDbEntity
  8
1-E
  6
Continuous
 62
     7
370
     9
100
AcDbCircle
 10
886.2563049369451
 20
-590.4285562876107
 30
0.0
 40
1.500000019331236
100
AcDbArc
 50
0.0
 51
119.9989013671875
  0
ARC
  5
2A2
330
1F
100
AcDbEntity
  8
1-E
  6
Continuous
 62
     7
370
     9
100
AcDbCircle
 10
932.7563841176882
 20
-563.5818118533573
 30
0.0
 40
1.500000019331236
100
AcDbArc
 50
120.0012664794922
 51
180.0
  0
ARC
  5
2A3
330
1F
100
AcDbEntity
  8
1-E
  6
Continuous
 62
     7
370
     9
100
AcDbCircle
 10
953.0062653465735
 20
-551.8902802338471
 30
0.0
 40
1.500000019331236
100
AcDbArc
 50
60.00119018554688
 51
119.9988098144531
  0
ELLIPSE
  5
2A4
330
1F
100
AcDbEntity
  8
1-E
  6
Continuous
 62
     6
370
     9
100
AcDbEllipse
 10
868.2559486236004
 20
-540.0182165197423
 30
0.0
 11
-16.93526242228228
 21
-2.706079916303755E-5
 31
0.0
210
0.0
220
0.0
230
1.0
 40
0.5772
 41
0.0
 42
6.283185307179586
  0
ELLIPSE
  5
2A5
330
1F
100
AcDbEntity
  8
1-E
  6
Continuous
 62
     6
370
     9
100
AcDbEllipse
 10
868.2559486236004
 20
-546.261420172614
 30
0.0
 11
-16.93526242228228
 21
-2.706079916303755E-5
 31
0.0
210
0.0
220
0.0
230
1.0
 40
0.5772
 41
0.0
 42
3.141592653589793
  0
ELLIPSE
  5
2A6
330
1F
100
AcDbEntity
  8
1-E
  6
Continuous
 62
     6
370
     9
100
AcDbEllipse
 10
785.7563445273166
 20
-492.3868424699114
 30
0.0
 11
-16.93526242228228
 21
-2.706079916303755E-5
 31
0.0
210
0.0
220
0.0
230
1.0
 40
0.5772
 41
0.0
 42
6.283185307179586
  0
ELLIPSE
  5
2A7
330
1F
100
AcDbEntity
  8
1-E
  6
Continuous
 62
     6
370
     9
100
AcDbEllipse
 10
785.7563445273166
 20
-498.6297491949958
 30
0.0
 11
-16.93526242228228
 21
-2.706079916303755E-5
 31
0.0
210
0.0
220
0.0
230
1.0
 40
0.5772
 41
0.0
 42
3.141592653589793
  0
LINE
  5
2A8
330
1F
100
AcDbEntity
  8
1-E
  6
Continuous
 62
     2
370
     9
100
AcDbLine
 10
790.406233674276
 20
-445.0227687749514
 30
0.0
 11
755.0788048049773
 21
-424.6265110325169
 31
0.0
  0
LINE
  5
2A9
330
1F
100
AcDbEntity
  8
1-E
  6
Continuous
 62
     7
370
     9
100
AcDbLine
 10
959.077250882891
 20
-518.9405006202492
 30
0.0
 11
956.8318829563707
 21
-544.48519814981
 31
0.0
  0
LINE
  5
2AA
330
1F
100
AcDbEntity
  8
1-E
  6
Continuous
 62
     2
370
     9
100
AcDbLine
 10
962.0061465754585
 20
-517.2494968723606
 30
0.0
 11
962.0061465754585
 21
-544.0962227486275
 31
0.0
  0
LINE
  5
2AB
330
1F
100
AcDbEntity
  8
1-E
  6
Continuous
 62
     2
370
     9
100
AcDbLine
 10
840.4291464971218
 20
-391.6312439264543
 30
0.0
 11
755.0788844423153
 21
-342.3540107138691
 31
0.0
  0
LINE
  5
2AC
330
1F
100
AcDbEntity
  8
1-E
  6
Continuous
 62
     7
370
     9
100
AcDbLine
 10
914.5206359714084
 20
-253.2233673823961
 30
0.0
 11
984.399000603594
 21
-212.8792047005558
 31
0.0
  0
LINE
  5
2AD
330
1F
100
AcDbEntity
  8
1-E
  6
Continuous
 62
     7
370
     9
100
AcDbLine
 10
985.9706663240265
 20
-194.997609886619
 30
0.0
 11
984.399000603594
 21
-212.8792047005559
 31
0.0
  0
LINE
  5
2AE
330
1F
100
AcDbEntity
  8
1-E
  6
Continuous
 62
     2
370
     9
100
AcDbLine
 10
868.093897954094
 20
-143.3666185437137
 30
0.0
 11
830.9707982919322
 21
-121.9336409392747
 31
0.0
  0
LINE
  5
2AF
330
1F
100
AcDbEntity
  8
1-E
  6
Continuous
 62
     2
370
     9
100
AcDbLine
 10
914.5681532457968
 20
-127.7635909148721
 30
0.0
 11
830.9707982919322
 21
-79.49844420572865
 31
0.0
  0
LINE
  5
2B0
330
1F
100
AcDbEntity
  8
1-E
  6
Continuous
 62
     7
370
     9
100
AcDbLine
 10
985.9706663240265
 20
-194.997609886619
 30
0.0
 11
988.0209526943812
 21
-193.8139072630971
 31
0.0
  0
LINE
  5
2B1
330
1F
100
AcDbEntity
  8
1-E
  6
Continuous
 62
     7
370
     9
100
AcDbLine
 10
988.0209526943812
 20
-193.8139072630971
 30
0.0
 11
988.0209526943812
 21
-212.606615376484
 31
0.0
  0
LINE
  5
2B2
330
1F
100
AcDbEntity
  8
1-E
  6
Continuous
 62
     7
370
     9
100
AcDbLine
 10
988.0209526943812
 20
-212.606615376484
 30
0.0
 11
990.6460912606822
 21
-214.1222832660532
 31
0.0
  0
LINE
  5
2B3
330
1F
100
AcDbEntity
  8
1-E
  6
Continuous
 62
     7
370
     9
100
AcDbLine
 10
928.4385780250823
 20
-150.2543050357623
 30
0.0
 11
949.9251176014759
 21
-103.6338205601832
 31
0.0
  0
LINE
  5
2B4
330
1F
100
AcDbEntity
  8
1-E
  6
Continuous
 62
     7
370
     9
100
AcDbLine
 10
928.4385780250825
 20
-150.2543050357621
 30
0.0
 11
938.0421134452681
 21
-135.0302235323838
 31
0.0
  0
LINE
  5
2B5
330
1F
100
AcDbEntity
  8
1-E
  6
Continuous
 62
     7
370
     9
100
AcDbLine
 10
928.4385780250825
 20
-150.2543050357621
 30
0.0
 11
933.7743703603866
 21
-133.0633738702217
 31
0.0
  0
LINE
  5
2B6
330
1F
100
AcDbEntity
  8
1-E
  6
Continuous
 62
     7
370
     9
100
AcDbLine
 10
956.8318829563707
 20
-514.262146872212
 30
0.0
 11
962.0061465754585
 21
-517.2494968723606
 31
0.0
  0
LINE
  5
2B7
330
1F
100
AcDbEntity
  8
1-E
  6
Continuous
 62
     7
370
     9
100
AcDbLine
 10
956.8318829563707
 20
-517.6441422648535
 30
0.0
 11
959.077250882891
 21
-518.9405006202492
 31
0.0
  0
LINE
  5
2B8
330
1F
100
AcDbEntity
  8
1-E
  6
Continuous
 62
     7
370
     9
100
AcDbLine
 10
962.0061465754585
 20
-517.2494968723606
 30
0.0
 11
962.0061465754585
 21
-544.0962227486275
 31
0.0
  0
LINE
  5
2B9
330
1F
100
AcDbEntity
  8
1-E
  6
Continuous
 62
     7
370
     9
100
AcDbLine
 10
962.0061465754585
 20
-544.0962227486275
 30
0.0
 11
965.7563445273166
 21
-546.261420172614
 31
0.0
  0
LINE
  5
2BA
330
1F
100
AcDbEntity
  8
1-E
  6
Continuous
 62
     7
370
     9
100
AcDbLine
 10
984.3990275465792
 20
-191.7224974959963
 30
0.0
 11
988.0210122306523
 21
-193.813636232591
 31
0.0
  0
LINE
  5
2BB
330
1F
100
AcDbEntity
  8
1-E
  6
Continuous
 62
     7
370
     9
100
AcDbLine
 10
984.3990275465771
 20
-194.0902303656866
 30
0.0
 11
985.9706663240265
 21
-194.997609886619
 31
0.0
  0
LINE
  5
2BC
330
1F
100
AcDbEntity
  8
1-E
  6
Continuous
 62
     7
370
     9
100
AcDbLine
 10
801.75993337428
 20
-245.1844929366613
 30
0.0
 11
858.3225249116205
 21
-186.5679001697004
 31
0.0
  0
LINE
  5
2BD
330
1F
100
AcDbEntity
  8
1-E
  6
Continuous
 62
     7
370
     9
100
AcDbLine
 10
911.9056714154002
 20
-217.3095498206068
 30
0.0
 11
801.75993337428
 21
-245.1844929366613
 31
0.0
  0
LINE
  5
2BE
330
1F
100
AcDbEntity
  8
1-E
  6
Continuous
 62
     7
370
     9
100
AcDbLine
 10
911.9056714154002
 20
-217.3095498206068
 30
0.0
 11
894.0285401337277
 21
-219.4101654508855
 31
0.0
  0
LINE
  5
2BF
330
1F
100
AcDbEntity
  8
1-E
  6
Continuous
 62
     7
370
     9
100
AcDbLine
 10
911.9056714154002
 20
-217.3095498206068
 30
0.0
 11
895.1815107312786
 21
-223.9654830976339
 31
0.0
  0
LINE
  5
2C0
330
1F
100
AcDbEntity
  8
1-E
  6
Continuous
 62
     7
370
     9
100
AcDbLine
 10
858.3225249116205
 20
-186.5679001697003
 30
0.0
 11
844.2398338220933
 21
-197.7785572379013
 31
0.0
  0
LINE
  5
2C1
330
1F
100
AcDbEntity
  8
1-E
  6
Continuous
 62
     7
370
     9
100
AcDbLine
 10
858.3225249116205
 20
-186.5679001697003
 30
0.0
 11
847.6212474622961
 21
-201.0413482271327
 31
0.0
  0
LINE
  5
2C2
330
1F
100
AcDbEntity
  8
1-E
  6
Continuous
 62
     6
370
     9
100
AcDbLine
 10
956.8318829563707
 20
-544.48519814981
 30
0.0
 11
888.5064237080597
 21
-583.9332609434387
 31
0.0
  0
LINE
  5
2C3
330
1F
100
AcDbEntity
  8
1-E
  6
Continuous
 62
     6
370
     9
100
AcDbLine
 10
936.571087301645
 20
-239.2802323528353
 30
0.0
 11
936.571087301645
 21
-240.4925885078184
 31
0.0
  0
LINE
  5
2C4
330
1F
100
AcDbEntity
  8
1-E
  6
Continuous
 62
     6
370
     9
100
AcDbLine
 10
936.571087301645
 20
-239.2802323528353
 30
0.0
 11
821.0709289401584
 21
-172.596189911957
 31
0.0
  0
LINE
  5
2C5
330
1F
100
AcDbEntity
  8
1-E
  6
Continuous
 62
     6
370
     9
100
AcDbLine
 10
936.571087301645
 20
-240.4925885078184
 30
0.0
 11
821.0709289401584
 21
-173.8086945308336
 31
0.0
  0
LINE
  5
2C6
330
1F
100
AcDbEntity
  8
1-E
  6
Continuous
 62
     6
370
     9
100
AcDbLine
 10
821.0709289401584
 20
-172.596189911957
 30
0.0
 11
821.0709289401584
 21
-173.8086945308336
 31
0.0
  0
LINE
  5
2C7
330
1F
100
AcDbEntity
  8
1-E
  6
Continuous
 62
     6
370
     9
100
AcDbLine
 10
867.9008948924387
 20
-145.5589848602256
 30
0.0
 11
821.0709289401584
 21
-172.596189911957
 31
0.0
  0
LINE
  5
2C8
330
1F
100
AcDbEntity
  8
1-E
  6
Continuous
 62
     6
370
     9
100
AcDbLine
 10
955.4060357224179
 20
-543.5765991210938
 30
0.0
 11
888.5064237080597
 21
-582.2012811609217
 31
0.0
  0
LINE
  5
2C9
330
1F
100
AcDbEntity
  8
1-E
  6
Continuous
 62
     6
370
     9
100
AcDbLine
 10
888.5064237080597
 20
-582.2012811609217
 30
0.0
 11
888.5064237080597
 21
-583.9332609434387
 31
0.0
  0
LINE
  5
2CA
330
1F
100
AcDbEntity
  8
1-E
  6
Continuous
 62
     6
370
     9
100
AcDbLine
 10
955.4060357224179
 20
-543.5765991210938
 30
0.0
 11
790.406233674276
 21
-448.3138510214316
 31
0.0
  0
LINE
  5
2CB
330
1F
100
AcDbEntity
  8
1-E
  6
Continuous
 62
     6
370
     9
100
AcDbLine
 10
888.5064237080597
 20
-582.2012811609217
 30
0.0
 11
723.5060278043438
 21
-486.9385145032728
 31
0.0
  0
LINE
  5
2CC
330
1F
100
AcDbEntity
  8
1-E
  6
Continuous
 62
     6
370
     9
100
AcDbLine
 10
888.5064237080597
 20
-583.9332609434387
 30
0.0
 11
723.5060278043438
 21
-488.6704942857897
 31
0.0
  0
LINE
  5
2CD
330
1F
100
AcDbEntity
  8
1-E
  6
Continuous
 62
     6
370
     9
100
AcDbLine
 10
723.5060278043438
 20
-486.9385145032728
 30
0.0
 11
723.5060278043438
 21
-488.6704942857897
 31
0.0
  0
LINE
  5
2CE
330
1F
100
AcDbEntity
  8
1-E
  6
Continuous
 62
     6
370
     9
100
AcDbLine
 10
790.406233674276
 20
-448.3138510214316
 30
0.0
 11
723.5060278043438
 21
-486.9385145032728
 31
0.0
  0
LINE
  5
2CF
330
1F
100
AcDbEntity
  8
1-E
  6
Continuous
 62
     6
370
     9
100
AcDbLine
 10
956.8318829563707
 20
-544.48519814981
 30
0.0
 11
956.8318829563707
 21
-501.28519814981
 31
0.0
  0
LINE
  5
2D0
330
1F
100
AcDbEntity
  8
1-E
  6
Continuous
 62
     6
370
     9
100
AcDbLine
 10
956.8318829563707
 20
-501.28519814981
 30
0.0
 11
791.8320809082288
 21
-406.0224500501478
 31
0.0
  0
LINE
  5
2D1
330
1F
100
AcDbEntity
  8
1-E
  6
Continuous
 62
     6
370
     9
100
AcDbLine
 10
956.8318829563707
 20
-501.28519814981
 30
0.0
 11
955.4060357224179
 21
-502.1084185399529
 31
0.0
  0
LINE
  5
2D2
330
1F
100
AcDbEntity
  8
1-E
  6
Continuous
 62
     6
370
     9
100
AcDbLine
 10
955.4060357224179
 20
-543.5765991210938
 30
0.0
 11
955.4060357224179
 21
-502.1084185399529
 31
0.0
  0
LINE
  5
2D3
330
1F
100
AcDbEntity
  8
1-E
  6
Continuous
 62
     6
370
     9
100
AcDbLine
 10
955.4060357224179
 20
-502.1084185399529
 30
0.0
 11
790.406233674276
 21
-406.8456704402907
 31
0.0
  0
LINE
  5
2D4
330
1F
100
AcDbEntity
  8
1-E
  6
Continuous
 62
     6
370
     9
100
AcDbLine
 10
790.406233674276
 20
-448.3138510214316
 30
0.0
 11
790.406233674276
 21
-406.8456704402907
 31
0.0
  0
LINE
  5
2D5
330
1F
100
AcDbEntity
  8
1-E
  6
Continuous
 62
     6
370
     9
100
AcDbLine
 10
791.8320905392106
 20
-406.0224556106017
 30
0.0
 11
790.406233674276
 21
-406.8456704402907
 31
0.0
  0
ELLIPSE
  5
2D6
330
1F
100
AcDbEntity
  8
1-E
  6
Continuous
 62
     6
370
     9
100
AcDbEllipse
 10
887.4447490198355
 20
-557.4525181297341
 30
0.0
 11
12.72792206135786
 21
0.0
 31
0.0
210
0.0
220
0.0
230
1.0
 40
0.5773502691896226
 41
3.926990816987241
 42
7.068583470577035
  0
ELLIPSE
  5
2D7
330
1F
100
AcDbEntity
  8
1-E
  6
Continuous
 62
     6
370
     9
100
AcDbEllipse
 10
847.8146948770894
 20
-534.5720957024201
 30
0.0
 11
-12.72792206135792
 21
5.808204941384006E-14
 31
0.0
210
0.0
220
0.0
230
1.0
 40
0.5773502691896246
 41
3.92699081698724
 42
7.068583470577038
  0
ELLIPSE
  5
2D8
330
1F
100
AcDbEntity
  8
1-E
  6
Continuous
 62
     6
370
     9
100
AcDbEllipse
 10
846.9866948770893
 20
-536.0062337710872
 30
0.0
 11
-12.72792206135792
 21
5.808204941384006E-14
 31
0.0
210
0.0
220
0.0
230
1.0
 40
0.5773502691896246
 41
3.92699081698724
 42
5.858393381887097
  0
ELLIPSE
  5
2D9
330
1F
100
AcDbEntity
  8
1-E
  6
Continuous
 62
     6
370
     9
100
AcDbEllipse
 10
886.6167490198354
 20
-558.8866561984012
 30
0.0
 11
12.72792206135786
 21
0.0
 31
0.0
210
0.0
220
0.0
230
1.0
 40
0.5773502691896226
 41
6.064476123678737
 42
7.068583470577035
  0
LINE
  5
2DA
330
1F
100
AcDbEntity
  8
1-E
  6
Continuous
 62
     6
370
     9
100
AcDbLine
 10
856.8146948770894
 20
-529.3759432797135
 30
0.0
 11
860.3009411045408
 21
-531.388728477594
 31
0.0
  0
LINE
  5
2DB
330
1F
100
AcDbEntity
  8
1-E
  6
Continuous
 62
     6
370
     9
100
AcDbLine
 10
855.9866948770893
 20
-530.8100813483805
 30
0.0
 11
858.2650108994194
 21
-532.1254677171719
 31
0.0
  0
LINE
  5
2DC
330
1F
100
AcDbEntity
  8
1-E
  6
Continuous
 62
     6
370
     9
100
AcDbLine
 10
838.8146948770894
 20
-539.7682481251268
 30
0.0
 11
851.3714741132544
 21
-547.0179079972813
 31
0.0
  0
LINE
  5
2DD
330
1F
100
AcDbEntity
  8
1-E
  6
Continuous
 62
     6
370
     9
100
AcDbLine
 10
866.9409370505141
 20
-556.006941615246
 30
0.0
 11
878.4447490198355
 21
-562.6486705524408
 31
0.0
  0
LINE
  5
2DE
330
1F
100
AcDbEntity
  8
1-E
  6
Continuous
 62
     6
370
     9
100
AcDbLine
 10
885.0360174183961
 20
-547.5817155373804
 30
0.0
 11
895.6167490198354
 21
-553.6905037756945
 31
0.0
  0
LINE
  5
2DF
330
1F
100
AcDbEntity
  8
1-E
  6
Continuous
 62
     6
370
     9
100
AcDbLine
 10
885.1927096033301
 20
-545.7599977209757
 30
0.0
 11
896.4447490198355
 21
-552.2563657070275
 31
0.0
  0
ELLIPSE
  5
2E0
330
1F
100
AcDbEntity
  8
1-E
  6
Continuous
 62
     6
370
     9
100
AcDbEllipse
 10
804.9451449235518
 20
-509.8211440799031
 30
0.0
 11
12.72792206135786
 21
0.0
 31
0.0
210
0.0
220
0.0
230
1.0
 40
0.5773502691896226
 41
3.926990816987241
 42
7.068583470577035
  0
ELLIPSE
  5
2E1
330
1F
100
AcDbEntity
  8
1-E
  6
Continuous
 62
     6
370
     9
100
AcDbEllipse
 10
765.3150907808057
 20
-486.9407216525892
 30
0.0
 11
-12.72792206135792
 21
5.808204941384006E-14
 31
0.0
210
0.0
220
0.0
230
1.0
 40
0.5773502691896246
 41
3.92699081698724
 42
7.068583470577038
  0
ELLIPSE
  5
2E2
330
1F
100
AcDbEntity
  8
1-E
  6
Continuous
 62
     6
370
     9
100
AcDbEllipse
 10
764.4870907808056
 20
-488.3748597212561
 30
0.0
 11
-12.72792206135792
 21
5.808204941384006E-14
 31
0.0
210
0.0
220
0.0
230
1.0
 40
0.5773502691896246
 41
3.92699081698724
 42
5.858393381887097
  0
ELLIPSE
  5
2E3
330
1F
100
AcDbEntity
  8
1-E
  6
Continuous
 62
     6
370
     9
100
AcDbEllipse
 10
804.1171449235517
 20
-511.2552821485701
 30
0.0
 11
12.72792206135786
 21
0.0
 31
0.0
210
0.0
220
0.0
230
1.0
 40
0.5773502691896226
 41
6.064476123678737
 42
7.068583470577035
  0
LINE
  5
2E4
330
1F
100
AcDbEntity
  8
1-E
  6
Continuous
 62
     6
370
     9
100
AcDbLine
 10
774.3150907808057
 20
-481.7445692298826
 30
0.0
 11
777.8013370082571
 21
-483.7573544277629
 31
0.0
  0
LINE
  5
2E5
330
1F
100
AcDbEntity
  8
1-E
  6
Continuous
 62
     6
370
     9
100
AcDbLine
 10
773.4870907808056
 20
-483.1787072985496
 30
0.0
 11
775.7654068031356
 21
-484.4940936673409
 31
0.0
  0
LINE
  5
2E6
330
1F
100
AcDbEntity
  8
1-E
  6
Continuous
 62
     6
370
     9
100
AcDbLine
 10
756.3150907808057
 20
-492.1368740752957
 30
0.0
 11
768.8718700169707
 21
-499.3865339474503
 31
0.0
  0
LINE
  5
2E7
330
1F
100
AcDbEntity
  8
1-E
  6
Continuous
 62
     6
370
     9
100
AcDbLine
 10
784.4413329542303
 20
-508.3755675654151
 30
0.0
 11
795.9451449235518
 21
-515.0172965026097
 31
0.0
  0
LINE
  5
2E8
330
1F
100
AcDbEntity
  8
1-E
  6
Continuous
 62
     6
370
     9
100
AcDbLine
 10
802.5364133221124
 20
-499.9503414875494
 30
0.0
 11
813.1171449235517
 21
-506.0591297258636
 31
0.0
  0
LINE
  5
2E9
330
1F
100
AcDbEntity
  8
1-E
  6
Continuous
 62
     6
370
     9
100
AcDbLine
 10
802.6931055070463
 20
-498.1286236711447
 30
0.0
 11
813.9451449235518
 21
-504.6249916571966
 31
0.0
  0
ELLIPSE
  5
2EA
330
1F
100
AcDbEntity
  8
1-E
  6
Continuous
 62
     6
370
     9
100
AcDbEllipse
 10
936.0972238263905
 20
-222.0931107720946
 30
0.0
 11
8.835727968780935
 21
0.0
 31
0.0
210
0.0
220
0.0
230
1.0
 40
0.5773502691896226
 41
3.926990816987241
 42
7.068583470577035
  0
ELLIPSE
  5
2EB
330
1F
100
AcDbEntity
  8
1-E
  6
Continuous
 62
     6
370
     9
100
AcDbEllipse
 10
908.5860263107759
 20
-206.2095134807255
 30
0.0
 11
-8.835727968780978
 21
4.032057911857087E-14
 31
0.0
210
0.0
220
0.0
230
1.0
 40
0.5773502691896246
 41
3.92699081698724
 42
7.068583470577038
  0
ELLIPSE
  5
2EC
330
1F
100
AcDbEntity
  8
1-E
  6
Continuous
 62
     6
370
     9
100
AcDbEllipse
 10
908.0112284197389
 20
-207.2050926320849
 30
0.0
 11
-8.835727968780978
 21
4.032057911857087E-14
 31
0.0
210
0.0
220
0.0
230
1.0
 40
0.5773502691896246
 41
3.92699081698724
 42
5.858393381887097
  0
ELLIPSE
  5
2ED
330
1F
100
AcDbEntity
  8
1-E
  6
Continuous
 62
     6
370
     9
100
AcDbEllipse
 10
935.5224259353536
 20
-223.088689923454
 30
0.0
 11
8.835727968780935
 21
0.0
 31
0.0
210
0.0
220
0.0
230
1.0
 40
0.5773502691896226
 41
6.064476123678737
 42
7.068583470577035
  0
ELLIPSE
  5
2EE
330
1F
100
AcDbEntity
  8
1-E
  6
Continuous
 62
     6
370
     9
100
AcDbEllipse
 10
878.3474415734347
 20
-188.7510895516554
 30
0.0
 11
8.835727968780935
 21
0.0
 31
0.0
210
0.0
220
0.0
230
1.0
 40
0.5773502691896226
 41
3.926990816987241
 42
7.068583470577035
  0
ELLIPSE
  5
2EF
330
1F
100
AcDbEntity
  8
1-E
  6
Continuous
 62
     6
370
     9
100
AcDbEllipse
 10
850.83624405782
 20
-172.8674922602863
 30
0.0
 11
-8.835727968780978
 21
4.032057911857087E-14
 31
0.0
210
0.0
220
0.0
230
1.0
 40
0.5773502691896246
 41
3.92699081698724
 42
7.068583470577038
  0
ELLIPSE
  5
2F0
330
1F
100
AcDbEntity
  8
1-E
  6
Continuous
 62
     6
370
     9
100
AcDbEllipse
 10
850.261446166783
 20
-173.8630714116456
 30
0.0
 11
-8.835727968780978
 21
4.032057911857087E-14
 31
0.0
210
0.0
220
0.0
230
1.0
 40
0.5773502691896246
 41
3.92699081698724
 42
5.858393381887097
  0
ELLIPSE
  5
2F1
330
1F
100
AcDbEntity
  8
1-E
  6
Continuous
 62
     6
370
     9
100
AcDbEllipse
 10
877.7726436823978
 20
-189.7466687030147
 30
0.0
 11
8.835727968780935
 21
0.0
 31
0.0
210
0.0
220
0.0
230
1.0
 40
0.5773502691896226
 41
6.064476123678737
 42
7.068583470577035
  0
LINE
  5
2F2
330
1F
100
AcDbEntity
  8
1-E
  6
Continuous
 62
     6
370
     9
100
AcDbLine
 10
876.3823483044405
 20
-181.7296396157811
 30
0.0
 11
884.0204468458423
 21
-186.1394978647563
 31
0.0
  0
LINE
  5
2F3
330
1F
100
AcDbEntity
  8
1-E
  6
Continuous
 62
     6
370
     9
100
AcDbLine
 10
844.5884408943753
 20
-176.4746630985447
 30
0.0
 11
852.8163608495554
 21
-181.2250548995388
 31
0.0
  0
LINE
  5
2F4
330
1F
100
AcDbEntity
  8
1-E
  6
Continuous
 62
     6
370
     9
100
AcDbLine
 10
876.5014082475909
 20
-180.4709400375293
 30
0.0
 11
884.5952447368793
 21
-185.1439187133968
 31
0.0
  0
LINE
  5
2F5
330
1F
100
AcDbEntity
  8
1-E
  6
Continuous
 62
     6
370
     9
100
AcDbLine
 10
857.0840472212647
 20
-169.2603214220277
 30
0.0
 11
859.0303131344265
 21
-170.3839985709063
 31
0.0
  0
LINE
  5
2F6
330
1F
100
AcDbEntity
  8
1-E
  6
Continuous
 62
     6
370
     9
100
AcDbLine
 10
856.5092493302277
 20
-170.2559005733871
 30
0.0
 11
857.6216361372639
 21
-170.8981373958723
 31
0.0
  0
LINE
  5
2F7
330
1F
100
AcDbEntity
  8
1-E
  6
Continuous
 62
     6
370
     9
100
AcDbLine
 10
914.8338294742207
 20
-202.602342642467
 30
0.0
 11
916.7800953873822
 21
-203.7260197913454
 31
0.0
  0
LINE
  5
2F8
330
1F
100
AcDbEntity
  8
1-E
  6
Continuous
 62
     6
370
     9
100
AcDbLine
 10
914.2590315831837
 20
-203.5979217938263
 30
0.0
 11
915.3714183902198
 21
-204.2401586163116
 31
0.0
  0
LINE
  5
2F9
330
1F
100
AcDbEntity
  8
1-E
  6
Continuous
 62
     6
370
     9
100
AcDbLine
 10
902.3382231473311
 20
-209.816684318984
 30
0.0
 11
910.5661431025113
 21
-214.567076119978
 31
0.0
  0
LINE
  5
2FA
330
1F
100
AcDbEntity
  8
1-E
  6
Continuous
 62
     6
370
     9
100
AcDbLine
 10
934.251487428334
 20
-213.8131326893064
 30
0.0
 11
942.3450269898351
 21
-218.4859399338361
 31
0.0
  0
LINE
  5
2FB
330
1F
100
AcDbEntity
  8
1-E
  6
Continuous
 62
     6
370
     9
100
AcDbLine
 10
934.1353266802437
 20
-215.0735061186065
 30
0.0
 11
941.7702290987982
 21
-219.4815190851955
 31
0.0
  0
LINE
  5
2FC
330
1F
100
AcDbEntity
  8
1-E
  6
Continuous
 62
     6
370
     9
100
AcDbLine
 10
921.6220710451994
 20
-220.9502190938301
 30
0.0
 11
929.8494206629458
 21
-225.7002816103532
 31
0.0
  0
LINE
  5
2FD
330
1F
100
AcDbEntity
  8
1-E
  6
Continuous
 62
     6
370
     9
100
AcDbLine
 10
863.872013652113
 20
-187.6080390211624
 30
0.0
 11
872.0996384099899
 21
-192.3582603899139
 31
0.0
  0
LINE
  5
2FE
330
1F
100
AcDbEntity
  8
1-E
  6
Continuous
 62
     6
370
     9
100
AcDbLine
 10
984.3990275465771
 20
-182.5631086836274
 30
0.0
 11
983.398432996435
 21
-183.140807203026
 31
0.0
  0
LINE
  5
2FF
330
1F
100
AcDbEntity
  8
1-E
  6
Continuous
 62
     6
370
     9
100
AcDbLine
 10
936.571087301645
 20
-239.2802323528353
 30
0.0
 11
983.4007563261381
 21
-212.2428788372103
 31
0.0
  0
LINE
  5
300
330
1F
100
AcDbEntity
  8
1-E
  6
Continuous
 62
     6
370
     9
100
AcDbLine
 10
867.9008948924387
 20
-145.5589848602256
 30
0.0
 11
983.398432996435
 21
-212.241537461821
 31
0.0
  0
LINE
  5
301
330
1F
100
AcDbEntity
  8
1-E
  6
Continuous
 62
     6
370
     9
100
AcDbLine
 10
983.398432996435
 20
-212.241537461821
 30
0.0
 11
983.4007563261381
 21
-212.2428788372103
 31
0.0
  0
LINE
  5
302
330
1F
100
AcDbEntity
  8
1-E
  6
Continuous
 62
     6
370
     9
100
AcDbLine
 10
983.398432996435
 20
-183.140807203026
 30
0.0
 11
983.398432996435
 21
-212.241537461821
 31
0.0
  0
LINE
  5
303
330
1F
100
AcDbEntity
  8
1-E
  6
Continuous
 62
     6
370
     9
100
AcDbLine
 10
867.9008948924387
 20
-145.5589848602256
 30
0.0
 11
867.9008948924387
 21
-116.458507259425
 31
0.0
  0
LINE
  5
304
330
1F
100
AcDbEntity
  8
1-E
  6
Continuous
 62
     6
370
     9
100
AcDbLine
 10
983.398432996435
 20
-183.140807203026
 30
0.0
 11
867.9010171536949
 21
-116.4582954968685
 31
0.0
  0
LINE
  5
305
330
1F
100
AcDbEntity
  8
1-E
  6
Continuous
 62
     6
370
     9
100
AcDbLine
 10
984.3990275465771
 20
-182.5631086836274
 30
0.0
 11
868.9016117038373
 21
-115.88059697747
 31
0.0
  0
LINE
  5
306
330
1F
100
AcDbEntity
  8
1-E
  6
Continuous
 62
     6
370
     9
100
AcDbLine
 10
867.9010171536949
 20
-116.4582954968685
 30
0.0
 11
868.9016117038373
 21
-115.88059697747
 31
0.0
  0
LINE
  5
307
330
1F
100
AcDbEntity
  8
1-E
  6
Continuous
 62
     6
370
     9
100
AcDbLine
 10
936.571087301645
 20
-240.4925885078184
 30
0.0
 11
984.3990275465771
 21
-212.8788981573117
 31
0.0
  0
LINE
  5
308
330
1F
100
AcDbEntity
  8
1-E
  6
Continuous
 62
     6
370
     9
100
AcDbLine
 10
984.3990275465771
 20
-182.5631086836274
 30
0.0
 11
984.3990275465771
 21
-212.8788981573117
 31
0.0
  0
LINE
  5
309
330
1F
100
AcDbEntity
  8
1-E
  6
Continuous
 62
     2
370
     9
100
AcDbLine
 10
866.9067070981383
 20
-406.9180730104197
 30
0.0
 11
873.0206740814713
 21
-401.7878308593973
 31
0.0
  0
LINE
  5
30A
330
1F
100
AcDbEntity
  8
1-E
  6
Continuous
 62
     2
370
     9
100
AcDbLine
 10
873.0206740814713
 20
-409.4804109167845
 30
0.0
 11
873.0206740814713
 21
-401.7878308593973
 31
0.0
  0
LINE
  5
30B
330
1F
100
AcDbEntity
  8
1-E
  6
Continuous
 62
     2
370
     9
100
AcDbLine
 10
873.0206740814712
 20
-409.4804109167845
 30
0.0
 11
869.7054223149864
 21
-417.0696701196607
 31
0.0
  0
LINE
  5
30C
330
1F
100
AcDbEntity
  8
1-E
  6
Continuous
 62
     2
370
     9
100
AcDbLine
 10
840.4291464971218
 20
-391.6312439264543
 30
0.0
 11
866.9067070981382
 21
-406.9180730104196
 31
0.0
  0
LINE
  5
30D
330
1F
100
AcDbEntity
  8
1-E
  6
Continuous
 62
     2
370
     9
100
AcDbLine
 10
873.0206740814713
 20
-401.7878308593973
 30
0.0
 11
762.5786369108322
 21
-338.0239414190562
 31
0.0
  0
LINE
  5
30E
330
1F
100
AcDbEntity
  8
1-E
  6
Continuous
 62
     2
370
     9
100
AcDbLine
 10
866.9067070981383
 20
-428.5680720040146
 30
0.0
 11
866.9067070981382
 21
-406.9180730104197
 31
0.0
  0
LINE
  5
30F
330
1F
100
AcDbEntity
  8
1-E
  6
Continuous
 62
     2
370
     9
100
AcDbLine
 10
866.9067070981382
 20
-428.5680720040145
 30
0.0
 11
870.2212224365798
 21
-430.5944642300679
 31
0.0
  0
LINE
  5
310
330
1F
100
AcDbEntity
  8
1-E
  6
Continuous
 62
     2
370
     9
100
AcDbLine
 10
869.7054223149864
 20
-424.2962840233663
 30
0.0
 11
869.7054223149864
 21
-417.0696701196607
 31
0.0
  0
LINE
  5
311
330
1F
100
AcDbEntity
  8
1-E
  6
Continuous
 62
     2
370
     9
100
AcDbLine
 10
869.7054223149867
 20
-424.2962840233663
 30
0.0
 11
873.0206740814713
 21
-426.3228235350285
 31
0.0
  0
LINE
  5
312
330
1F
100
AcDbEntity
  8
1-E
  6
Continuous
 62
     2
370
     9
100
AcDbLine
 10
873.0206740814713
 20
-439.9772672832378
 30
0.0
 11
873.0206740814713
 21
-426.3228235350285
 31
0.0
  0
LINE
  5
313
330
1F
100
AcDbEntity
  8
1-E
  6
Continuous
 62
     2
370
     9
100
AcDbLine
 10
755.079207763011
 20
-364.0038483568968
 30
0.0
 11
866.9067070981383
 21
-428.5680720040146
 31
0.0
  0
LINE
  5
314
330
1F
100
AcDbEntity
  8
1-E
  6
Continuous
 62
     2
370
     9
100
AcDbLine
 10
870.2212224365798
 20
-430.5944642300679
 30
0.0
 11
870.2212224365798
 21
-439.1420874920512
 31
0.0
  0
LINE
  5
315
330
1F
100
AcDbEntity
  8
1-E
  6
Continuous
 62
     2
370
     9
100
AcDbLine
 10
870.2212224365798
 20
-439.1420874920512
 30
0.0
 11
866.9067070981383
 21
-445.8894892532857
 31
0.0
  0
LINE
  5
316
330
1F
100
AcDbEntity
  8
1-E
  6
Continuous
 62
     2
370
     9
100
AcDbLine
 10
870.2212248613788
 20
-439.1420832921426
 30
0.0
 11
758.8288620891628
 21
-374.8301832041893
 31
0.0
  0
LINE
  5
317
330
1F
100
AcDbEntity
  8
1-E
  6
Continuous
 62
     2
370
     9
100
AcDbLine
 10
873.0206740814713
 20
-439.9772728830936
 30
0.0
 11
869.4072479743484
 21
-447.3331711637629
 31
0.0
  0
LINE
  5
318
330
1F
100
AcDbEntity
  8
1-E
  6
Continuous
 62
     2
370
     9
100
AcDbLine
 10
869.4072479743484
 20
-447.3331711637629
 30
0.0
 11
869.4072479743484
 21
-450.8105255949461
 31
0.0
  0
LINE
  5
319
330
1F
100
AcDbEntity
  8
1-E
  6
Continuous
 62
     2
370
     9
100
AcDbLine
 10
866.9067070981383
 20
-449.36683661686
 30
0.0
 11
866.9067070981383
 21
-445.8894892532857
 31
0.0
  0
LINE
  5
31A
330
1F
100
AcDbEntity
  8
1-E
  6
Continuous
 62
     2
370
     9
100
AcDbLine
 10
755.0785212404858
 20
-381.3257260530322
 30
0.0
 11
866.9067070981383
 21
-445.8894892532857
 31
0.0
  0
LINE
  5
31B
330
1F
100
AcDbEntity
  8
1-E
  6
Continuous
 62
     2
370
     9
100
AcDbLine
 10
881.9066241715316
 20
-437.228356874666
 30
0.0
 11
881.9066241715316
 21
-415.5782804981825
 31
0.0
  0
LINE
  5
31C
330
1F
100
AcDbEntity
  8
1-E
  6
Continuous
 62
     2
370
     9
100
AcDbLine
 10
885.6564191653559
 20
-448.0544480764684
 30
0.0
 11
885.6564191653559
 21
-439.3942522360969
 31
0.0
  0
LINE
  5
31D
330
1F
100
AcDbEntity
  8
1-E
  6
Continuous
 62
     2
370
     9
100
AcDbLine
 10
885.6564191653559
 20
-448.0544480764684
 30
0.0
 11
881.9063584266947
 21
-454.549505769122
 31
0.0
  0
LINE
  5
31E
330
1F
100
AcDbEntity
  8
1-E
  6
Continuous
 62
     2
370
     9
100
AcDbLine
 10
881.9063584266947
 20
-454.549505769122
 30
0.0
 11
881.9063584266947
 21
-458.026895528192
 31
0.0
  0
LINE
  5
31F
330
1F
100
AcDbEntity
  8
1-E
  6
Continuous
 62
     7
370
     9
100
AcDbLine
 10
798.5063318054722
 20
-531.9718234746084
 30
0.0
 11
767.0059486236004
 21
-550.1583004513302
 31
0.0
  0
LINE
  5
320
330
1F
100
AcDbEntity
  8
1-E
  6
Continuous
 62
     7
370
     9
100
AcDbLine
 10
813.506360783995
 20
-540.6320709401529
 30
0.0
 11
782.0061465754585
 21
-558.8184962917019
 31
0.0
  0
LINE
  5
321
330
1F
100
AcDbEntity
  8
1-E
  6
Continuous
 62
     2
370
     9
100
AcDbLine
 10
962.0061465754585
 20
-544.0962227486275
 30
0.0
 11
997.8196324895899
 21
-564.7730514073432
 31
0.0
  0
LINE
  5
322
330
1F
100
AcDbEntity
  8
1-E
  6
Continuous
 62
     2
370
     9
100
AcDbLine
 10
881.9066241715316
 20
-415.5782804981825
 30
0.0
 11
997.8196324895899
 21
-482.5006973124563
 31
0.0
  0
LINE
  5
323
330
1F
100
AcDbEntity
  8
1-E
  6
Continuous
 62
     2
370
     9
100
AcDbLine
 10
881.9066241715316
 20
-437.228356874666
 30
0.0
 11
1001.569687285082
 21
-506.3165320450002
 31
0.0
  0
LINE
  5
324
330
1F
100
AcDbEntity
  8
1-E
  6
Continuous
 62
     2
370
     9
100
AcDbLine
 10
885.6564191653559
 20
-448.0536566556757
 30
0.0
 11
1001.569720893708
 21
-514.9766696746243
 31
0.0
  0
LINE
  5
325
330
1F
100
AcDbEntity
  8
1-E
  6
Continuous
 62
     2
370
     9
100
AcDbLine
 10
997.8196374680106
 20
-521.4717666551368
 30
0.0
 11
881.9063584266947
 21
-454.549505769122
 31
0.0
  0
LINE
  5
326
330
1F
100
AcDbEntity
  8
1-E
  6
Continuous
 62
     2
370
     9
100
AcDbLine
 10
888.0204606413347
 20
-410.4482644045328
 30
0.0
 11
1005.319462513119
 21
-478.1704829961375
 31
0.0
  0
LINE
  5
327
330
1F
100
AcDbEntity
  8
1-E
  6
Continuous
 62
     2
370
     9
100
AcDbLine
 10
921.4509331124802
 20
-116.5818328245231
 30
0.0
 11
925.7308128105217
 21
-112.9905770509717
 31
0.0
  0
LINE
  5
328
330
1F
100
AcDbEntity
  8
1-E
  6
Continuous
 62
     2
370
     9
100
AcDbLine
 10
925.7308128105217
 20
-119.0528273943528
 30
0.0
 11
925.7308128105217
 21
-112.9905770509718
 31
0.0
  0
LINE
  5
329
330
1F
100
AcDbEntity
  8
1-E
  6
Continuous
 62
     2
370
     9
100
AcDbLine
 10
925.7308128105216
 20
-119.0528273943532
 30
0.0
 11
923.362775834461
 21
-124.473726824979
 31
0.0
  0
LINE
  5
32A
330
1F
100
AcDbEntity
  8
1-E
  6
Continuous
 62
     2
370
     9
100
AcDbLine
 10
923.362775834461
 20
-129.6355938990545
 30
0.0
 11
923.362775834461
 21
-124.473726824979
 31
0.0
  0
LINE
  5
32B
330
1F
100
AcDbEntity
  8
1-E
  6
Continuous
 62
     2
370
     9
100
AcDbLine
 10
923.3627758344612
 20
-129.6355938990545
 30
0.0
 11
925.7308128105217
 21
-131.0831221216704
 31
0.0
  0
LINE
  5
32C
330
1F
100
AcDbEntity
  8
1-E
  6
Continuous
 62
     2
370
     9
100
AcDbLine
 10
923.8184440685098
 20
-133.1847648187519
 30
0.0
 11
923.8184440685098
 21
-139.290210005883
 31
0.0
  0
LINE
  5
32D
330
1F
100
AcDbEntity
  8
1-E
  6
Continuous
 62
     2
370
     9
100
AcDbLine
 10
925.7308128105217
 20
-140.2687459251435
 30
0.0
 11
925.7308128105217
 21
-131.0831221216704
 31
0.0
  0
LINE
  5
32E
330
1F
100
AcDbEntity
  8
1-E
  6
Continuous
 62
     2
370
     9
100
AcDbLine
 10
931.951169885444
 20
-122.6441593099596
 30
0.0
 11
936.231062088694
 21
-119.0528930432622
 31
0.0
  0
LINE
  5
32F
330
1F
100
AcDbEntity
  8
1-E
  6
Continuous
 62
     2
370
     9
100
AcDbLine
 10
921.4509331124802
 20
-116.5818328245231
 30
0.0
 11
921.4509331124802
 21
-131.7373418001424
 31
0.0
  0
LINE
  5
330
330
1F
100
AcDbEntity
  8
1-E
  6
Continuous
 62
     2
370
     9
100
AcDbLine
 10
923.8184440685098
 20
-133.1847648187519
 30
0.0
 11
921.4509331124802
 21
-131.7373418001424
 31
0.0
  0
LINE
  5
331
330
1F
100
AcDbEntity
  8
1-E
  6
Continuous
 62
     2
370
     9
100
AcDbLine
 10
914.5681532457968
 20
-127.7635909148721
 30
0.0
 11
921.4509331124802
 21
-131.7373418001424
 31
0.0
  0
LINE
  5
332
330
1F
100
AcDbEntity
  8
1-E
  6
Continuous
 62
     2
370
     9
100
AcDbLine
 10
923.8184440685098
 20
-139.290210005883
 30
0.0
 11
921.5458190264658
 21
-143.9166222096424
 31
0.0
  0
LINE
  5
333
330
1F
100
AcDbEntity
  8
1-E
  6
Continuous
 62
     2
370
     9
100
AcDbLine
 10
921.5458190264658
 20
-146.4004417550526
 30
0.0
 11
921.5458190264658
 21
-143.9166222096424
 31
0.0
  0
LINE
  5
334
330
1F
100
AcDbEntity
  8
1-E
  6
Continuous
 62
     2
370
     9
100
AcDbLine
 10
931.9511698854437
 20
-137.7996198302863
 30
0.0
 11
931.9511698854437
 21
-122.6441593099596
 31
0.0
  0
LINE
  5
335
330
1F
100
AcDbEntity
  8
1-E
  6
Continuous
 62
     2
370
     9
100
AcDbLine
 10
934.2385743194891
 20
-145.1820868438432
 30
0.0
 11
934.2385743194891
 21
-139.1212034789347
 31
0.0
  0
LINE
  5
336
330
1F
100
AcDbEntity
  8
1-E
  6
Continuous
 62
     2
370
     9
100
AcDbLine
 10
934.2390980436306
 20
-145.1810206918317
 30
0.0
 11
931.9184209995499
 21
-149.9052529778861
 31
0.0
  0
LINE
  5
337
330
1F
100
AcDbEntity
  8
1-E
  6
Continuous
 62
     2
370
     9
100
AcDbLine
 10
931.9184209995499
 20
-149.9052529778861
 30
0.0
 11
931.9184209995499
 21
-152.2633947473145
 31
0.0
  0
LINE
  5
338
330
1F
100
AcDbEntity
  8
1-E
  6
Continuous
 62
     2
370
     9
100
AcDbLine
 10
921.4509331124802
 20
-116.5818328245231
 30
0.0
 11
830.9707982919322
 21
-64.34299958784383
 31
0.0
  0
LINE
  5
339
330
1F
100
AcDbEntity
  8
1-E
  6
Continuous
 62
     2
370
     9
100
AcDbLine
 10
836.2204815689594
 20
-61.31181227259891
 30
0.0
 11
925.7308128105217
 21
-112.9905770509718
 31
0.0
  0
LINE
  5
33A
330
1F
100
AcDbEntity
  8
1-E
  6
Continuous
 62
     2
370
     9
100
AcDbLine
 10
923.872256600715
 20
-139.1970033650214
 30
0.0
 11
833.5958528353137
 21
-87.07623342739805
 31
0.0
  0
LINE
  5
33B
330
1F
100
AcDbEntity
  8
1-E
  6
Continuous
 62
     2
370
     9
100
AcDbLine
 10
830.9705559710279
 20
-91.62334720344163
 30
0.0
 11
921.5458190264658
 21
-143.9166222096424
 31
0.0
  0
LINE
  5
33C
330
1F
100
AcDbEntity
  8
1-E
  6
Continuous
 62
     2
370
     9
100
AcDbLine
 10
1034.772714294403
 20
-203.2256772995876
 30
0.0
 11
1034.772785704004
 21
-203.2257185280574
 31
0.0
  0
LINE
  5
33D
330
1F
100
AcDbEntity
  8
1-E
  6
Continuous
 62
     2
370
     9
100
AcDbLine
 10
1032.147647137703
 20
-207.7722603599839
 30
0.0
 11
1032.147589611853
 21
-207.7723599940277
 31
0.0
  0
LINE
  5
33E
330
1F
100
AcDbEntity
  8
1-E
  6
Continuous
 62
     2
370
     9
100
AcDbLine
 10
1032.147647137703
 20
-207.7723932065911
 30
0.0
 11
1032.147589611853
 21
-207.7723599940277
 31
0.0
  0
LINE
  5
33F
330
1F
100
AcDbEntity
  8
1-E
  6
Continuous
 62
     2
370
     9
100
AcDbLine
 10
988.0209526943812
 20
-212.606615376484
 30
0.0
 11
1032.147647137703
 21
-238.0831799372599
 31
0.0
  0
LINE
  5
340
330
1F
100
AcDbEntity
  8
1-E
  6
Continuous
 62
     2
370
     9
100
AcDbLine
 10
931.9511698854437
 20
-137.7996198302863
 30
0.0
 11
1034.772785704004
 21
-197.1633218679778
 31
0.0
  0
LINE
  5
341
330
1F
100
AcDbEntity
  8
1-E
  6
Continuous
 62
     2
370
     9
100
AcDbLine
 10
931.9511590419631
 20
-122.6441780914785
 30
0.0
 11
1032.147660500923
 21
-180.4924575901666
 31
0.0
  0
LINE
  5
342
330
1F
100
AcDbEntity
  8
1-E
  6
Continuous
 62
     2
370
     9
100
AcDbLine
 10
936.231062088694
 20
-119.0528930432623
 30
0.0
 11
1037.397393779115
 21
-177.4612414040568
 31
0.0
  0
LINE
  5
343
330
1F
100
AcDbEntity
  8
1-E
  6
Continuous
 62
     2
370
     9
100
AcDbLine
 10
934.2385743194891
 20
-145.1820868438432
 30
0.0
 11
1034.772714294403
 21
-203.2256772995876
 31
0.0
  0
LINE
  5
344
330
1F
100
AcDbEntity
  8
1-E
  6
Continuous
 62
     2
370
     9
100
AcDbLine
 10
931.918439926774
 20
-149.9052144474908
 30
0.0
 11
1032.147706673974
 21
-207.7721572439166
 31
0.0
  0
LINE
  5
345
330
1F
100
AcDbEntity
  8
1-E
  6
Continuous
 62
     7
370
     9
100
AcDbLine
 10
873.5709910423113
 20
-204.1195497250587
 30
0.0
 11
851.5208735136381
 21
-216.850158846712
 31
0.0
  0
LINE
  5
346
330
1F
100
AcDbEntity
  8
1-E
  6
Continuous
 62
     7
370
     9
100
AcDbLine
 10
884.0710053109763
 20
-210.1817218309798
 30
0.0
 11
862.0208339232665
 21
-222.9122365494147
 31
0.0
  0
ENDSEC
  0
SECTION
  2
OBJECTS
  0
DICTIONARY
  5
C
330
0
100
AcDbDictionary
281
     1
  3
ACAD_DETAILVIEWSTYLE
350
38C
  3
ACAD_GROUP
350
D
  3
ACAD_LAYOUT
350
1A
  3
ACAD_MATERIAL
350
43
  3
ACAD_MLEADERSTYLE
350
6B
  3
ACAD_MLINESTYLE
350
17
  3
ACAD_PLOTSETTINGS
350
19
  3
ACAD_PLOTSTYLENAME
350
E
  3
ACAD_SCALELIST
350
47
  3
ACAD_SECTIONVIEWSTYLE
350
38D
  3
ACAD_TABLESTYLE
350
69
  3
ACAD_VISUALSTYLE
350
2A
  3
ACDB_RECOMPOSE_DATA
350
389
  3
AcDbVariableDictionary
350
349
  0
DICTIONARY
  5
347
330
8
100
AcDbDictionary
280
     1
281
     1
  3
ACAD_XREC_ROUNDTRIP
360
348
  0
DICTIONARY
  5
38C
102
{ACAD_REACTORS
330
C
102
}
330
C
100
AcDbDictionary
281
     1
  0
DICTIONARY
  5
D
102
{ACAD_REACTORS
330
C
102
}
330
C
100
AcDbDictionary
281
     1
  0
DICTIONARY
  5
1A
102
{ACAD_REACTORS
330
C
102
}
330
C
100
AcDbDictionary
281
     1
  3
Layout1
350
1E
  3
Layout2
350
26
  3
Model
350
22
  0
DICTIONARY
  5
43
102
{ACAD_REACTORS
330
C
102
}
330
C
100
AcDbDictionary
281
     1
  3
ByBlock
350
45
  3
ByLayer
350
44
  3
Global
350
46
  0
DICTIONARY
  5
6B
102
{ACAD_REACTORS
330
C
102
}
330
C
100
AcDbDictionary
281
     1
  3
Standard
350
6C
  0
DICTIONARY
  5
17
102
{ACAD_REACTORS
330
C
102
}
330
C
100
AcDbDictionary
281
     1
  3
Standard
350
18
  0
DICTIONARY
  5
19
102
{ACAD_REACTORS
330
C
102
}
330
C
100
AcDbDictionary
281
     1
  0
ACDBDICTIONARYWDFLT
  5
E
102
{ACAD_REACTORS
330
C
102
}
330
C
100
AcDbDictionary
281
     1
  3
Normal
350
F
100
AcDbDictionaryWithDefault
340
F
  0
DICTIONARY
  5
47
102
{ACAD_REACTORS
330
C
102
}
330
C
100
AcDbDictionary
281
     1
  3
A0
350
48
  3
A1
350
49
  3
A2
350
4A
  3
A3
350
4B
  3
A4
350
4C
  3
A5
350
4D
  3
A6
350
4E
  3
A7
350
4F
  3
A8
350
50
  3
A9
350
51
  3
B0
350
52
  3
B1
350
53
  3
B2
350
54
  3
B3
350
55
  3
B4
350
56
  3
B5
350
57
  3
B6
350
58
  3
B7
350
59
  3
B8
350
5A
  3
B9
350
5B
  3
C0
350
5C
  3
C1
350
5D
  3
C2
350
5E
  3
C3
350
5F
  3
C4
350
60
  3
C5
350
61
  3
C6
350
62
  3
C7
350
63
  3
C8
350
64
  3
C9
350
65
  3
D0
350
66
  3
D1
350
67
  3
D2
350
68
  0
DICTIONARY
  5
38D
102
{ACAD_REACTORS
330
C
102
}
330
C
100
AcDbDictionary
281
     1
  0
DICTIONARY
  5
69
102
{ACAD_REACTORS
330
C
102
}
330
C
100
AcDbDictionary
281
     1
  3
Standard
350
6A
  0
DICTIONARY
  5
2A
102
{ACAD_REACTORS
330
C
102
}
330
C
100
AcDbDictionary
281
     1
  3
2dWireframe
350
2F
  3
Basic
350
32
  3
Brighten
350
36
  3
ColorChange
350
3A
  3
Conceptual
350
34
  3
Dim
350
35
  3
EdgeColorOff
350
3D
  3
Facepattern
350
39
  3
Flat
350
2B
  3
FlatWithEdges
350
2C
  3
Gouraud
350
2D
  3
GouraudWithEdges
350
2E
  3
Hidden
350
31
  3
JitterOff
350
3B
  3
Linepattern
350
38
  3
OverhangOff
350
3C
  3
Realistic
350
33
  3
Shaded
350
42
  3
Shaded with edges
350
41
  3
Shades of Gray
350
3E
  3
Sketchy
350
3F
  3
Thicken
350
37
  3
Wireframe
350
30
  3
X-Ray
350
40
  0
XRECORD
  5
389
102
{ACAD_REACTORS
330
C
102
}
330
C
100
AcDbXrecord
280
     1
 90
        1
330
6A
  0
DICTIONARY
  5
349
102
{ACAD_REACTORS
330
C
102
}
330
C
100
AcDbDictionary
281
     1
  3
CANNOSCALE
350
34A
  3
CENTEREXE
350
38E
  3
CENTERLTYPEFILE
350
38F
  3
CMLEADERSTYLE
350
38B
  3
CTABLESTYLE
350
38A
  3
MSLTSCALE
350
34B
  3
XCLIPFRAME
350
34C
  0
XRECORD
  5
348
102
{ACAD_REACTORS
330
347
102
}
330
347
100
AcDbXrecord
280
     1
102
VTR_0.000_0.000_1.000_1.000_VISUALSTYLE
340
2F
102
VTR_0.000_0.000_1.000_1.000_GRIDDISPLAY
 70
     3
102
VTR_0.000_0.000_1.000_1.000_GRIDMAJOR
 70
     5
102
VTR_0.000_0.000_1.000_1.000_DEFAULTLIGHTING
280
     1
102
VTR_0.000_0.000_1.000_1.000_DEFAULTLIGHTINGTYPE
 70
     1
102
VTR_0.000_0.000_1.000_1.000_BRIGHTNESS
141
0.0
102
VTR_0.000_0.000_1.000_1.000_CONTRAST
142
0.0
  0
LAYOUT
  5
1E
102
{ACAD_REACTORS
330
1A
102
}
330
1A
100
AcDbPlotSettings
  1

  2
none_device
  4

  6

 40
0.0
 41
0.0
 42
0.0
 43
0.0
 44
0.0
 45
0.0
 46
0.0
 47
0.0
 48
0.0
 49
0.0
140
0.0
141
0.0
142
1.0
143
1.0
 70
   688
 72
     1
 73
     0
 74
     5
  7

 75
    16
 76
     0
 77
     5
 78
   300
147
1.0
148
0.0
149
0.0
100
AcDbLayout
  1
Layout1
 70
     1
 71
     1
 10
0.0
 20
0.0
 11
420.0
 21
297.0
 12
0.0
 22
0.0
 32
0.0
 14
1.000000000000000E+20
 24
1.000000000000000E+20
 34
1.000000000000000E+20
 15
-1.000000000000000E+20
 25
-1.000000000000000E+20
 35
-1.000000000000000E+20
146
0.0
 13
0.0
 23
0.0
 33
0.0
 16
1.0
 26
0.0
 36
0.0
 17
0.0
 27
1.0
 37
0.0
 76
     0
330
1B
  0
LAYOUT
  5
26
102
{ACAD_REACTORS
330
1A
102
}
330
1A
100
AcDbPlotSettings
  1

  2
none_device
  4

  6

 40
0.0
 41
0.0
 42
0.0
 43
0.0
 44
0.0
 45
0.0
 46
0.0
 47
0.0
 48
0.0
 49
0.0
140
0.0
141
0.0
142
1.0
143
1.0
 70
   688
 72
     1
 73
     0
 74
     5
  7

 75
    16
 76
     0
 77
     5
 78
   300
147
1.0
148
0.0
149
0.0
100
AcDbLayout
  1
Layout2
 70
     1
 71
     2
 10
0.0
 20
0.0
 11
0.0
 21
0.0
 12
0.0
 22
0.0
 32
0.0
 14
0.0
 24
0.0
 34
0.0
 15
0.0
 25
0.0
 35
0.0
146
0.0
 13
0.0
 23
0.0
 33
0.0
 16
1.0
 26
0.0
 36
0.0
 17
0.0
 27
1.0
 37
0.0
 76
     0
330
23
  0
LAYOUT
  5
22
102
{ACAD_REACTORS
330
1A
102
}
330
1A
100
AcDbPlotSettings
  1

  2
none_device
  4
Letter_(8.50_x_11.00_Inches)
  6

 40
6.35
 41
6.35
 42
6.35000508
 43
6.35000508
 44
215.9
 45
279.4
 46
0.0
 47
0.0
 48
0.0
 49
0.0
140
0.0
141
0.0
142
1.0
143
1.0
 70
  1712
 72
     1
 73
     0
 74
     0
  7

 75
     0
 76
     0
 77
     5
 78
   300
147
1.0
148
0.0
149
0.0
100
AcDbLayout
  1
Model
 70
     1
 71
     0
 10
-1260.0
 20
-891.0
 11
1260.0
 21
891.0
 12
0.0
 22
0.0
 32
0.0
 14
-1260.0
 24
-891.0
 34
0.0
 15
1260.0
 25
891.0
 35
0.0
146
0.0
 13
0.0
 23
0.0
 33
0.0
 16
1.0
 26
0.0
 36
0.0
 17
0.0
 27
1.0
 37
0.0
 76
     0
330
1F
331
29
  0
MATERIAL
  5
45
102
{ACAD_REACTORS
330
43
102
}
102
{ACAD_XDICTIONARY
360
37F
102
}
330
43
100
AcDbMaterial
  1
ByBlock
  0
MATERIAL
  5
44
102
{ACAD_REACTORS
330
43
102
}
102
{ACAD_XDICTIONARY
360
37D
102
}
330
43
100
AcDbMaterial
  1
ByLayer
  0
MATERIAL
  5
46
102
{ACAD_REACTORS
330
43
102
}
102
{ACAD_XDICTIONARY
360
381
102
}
330
43
100
AcDbMaterial
  1
Global
  0
MLEADERSTYLE
  5
6C
102
{ACAD_REACTORS
330
6B
102
}
102
{ACAD_XDICTIONARY
360
387
102
}
330
6B
100
AcDbMLeaderStyle
170
     2
171
     1
172
     0
 90
        2
 40
0.0
 41
0.0
173
     1
 91
-1056964608
340
14
 92
       -2
290
     1
 42
2.0
291
     1
 43
8.0
  3
Standard
341
0
 44
4.0
300

342
11
174
     1
178
     6
175
     1
176
     0
 93
-1056964608
 45
4.0
292
     0
297
     0
 46
4.0
343
0
 94
-1056964608
 47
1.0
 49
1.0
140
1.0
293
     1
141
0.0
294
     1
177
     0
142
1.0
295
     0
296
     0
143
3.75
1001
ACAD_MLEADERVER
1070
     2
  0
MLINESTYLE
  5
18
102
{ACAD_REACTORS
330
17
102
}
330
17
100
AcDbMlineStyle
  2
Standard
 70
     0
  3

 62
   256
 51
90.0
 52
90.0
 71
     2
 49
0.5
 62
   256
  6
BYLAYER
 49
-0.5
 62
   256
  6
BYLAYER
  0
ACDBPLACEHOLDER
  5
F
102
{ACAD_REACTORS
330
E
102
}
330
E
  0
SCALE
  5
48
102
{ACAD_REACTORS
330
47
102
}
330
47
100
AcDbScale
 70
     0
300
1:1
140
1.0
141
1.0
290
     1
  0
SCALE
  5
49
102
{ACAD_REACTORS
330
47
102
}
330
47
100
AcDbScale
 70
     0
300
1:2
140
1.0
141
2.0
290
     0
  0
SCALE
  5
4A
102
{ACAD_REACTORS
330
47
102
}
330
47
100
AcDbScale
 70
     0
300
1:4
140
1.0
141
4.0
290
     0
  0
SCALE
  5
4B
102
{ACAD_REACTORS
330
47
102
}
330
47
100
AcDbScale
 70
     0
300
1:5
140
1.0
141
5.0
290
     0
  0
SCALE
  5
4C
102
{ACAD_REACTORS
330
47
102
}
330
47
100
AcDbScale
 70
     0
300
1:8
140
1.0
141
8.0
290
     0
  0
SCALE
  5
4D
102
{ACAD_REACTORS
330
47
102
}
330
47
100
AcDbScale
 70
     0
300
1:10
140
1.0
141
10.0
290
     0
  0
SCALE
  5
4E
102
{ACAD_REACTORS
330
47
102
}
330
47
100
AcDbScale
 70
     0
300
1:16
140
1.0
141
16.0
290
     0
  0
SCALE
  5
4F
102
{ACAD_REACTORS
330
47
102
}
330
47
100
AcDbScale
 70
     0
300
1:20
140
1.0
141
20.0
290
     0
  0
SCALE
  5
50
102
{ACAD_REACTORS
330
47
102
}
330
47
100
AcDbScale
 70
     0
300
1:30
140
1.0
141
30.0
290
     0
  0
SCALE
  5
51
102
{ACAD_REACTORS
330
47
102
}
330
47
100
AcDbScale
 70
     0
300
1:40
140
1.0
141
40.0
290
     0
  0
SCALE
  5
52
102
{ACAD_REACTORS
330
47
102
}
330
47
100
AcDbScale
 70
     0
300
1:50
140
1.0
141
50.0
290
     0
  0
SCALE
  5
53
102
{ACAD_REACTORS
330
47
102
}
330
47
100
AcDbScale
 70
     0
300
1:100
140
1.0
141
100.0
290
     0
  0
SCALE
  5
54
102
{ACAD_REACTORS
330
47
102
}
330
47
100
AcDbScale
 70
     0
300
2:1
140
2.0
141
1.0
290
     0
  0
SCALE
  5
55
102
{ACAD_REACTORS
330
47
102
}
330
47
100
AcDbScale
 70
     0
300
4:1
140
4.0
141
1.0
290
     0
  0
SCALE
  5
56
102
{ACAD_REACTORS
330
47
102
}
330
47
100
AcDbScale
 70
     0
300
8:1
140
8.0
141
1.0
290
     0
  0
SCALE
  5
57
102
{ACAD_REACTORS
330
47
102
}
330
47
100
AcDbScale
 70
     0
300
10:1
140
10.0
141
1.0
290
     0
  0
SCALE
  5
58
102
{ACAD_REACTORS
330
47
102
}
330
47
100
AcDbScale
 70
     0
300
100:1
140
100.0
141
1.0
290
     0
  0
SCALE
  5
59
102
{ACAD_REACTORS
330
47
102
}
330
47
100
AcDbScale
 70
     0
300
1/128" = 1'-0"
140
0.0078125
141
12.0
290
     0
  0
SCALE
  5
5A
102
{ACAD_REACTORS
330
47
102
}
330
47
100
AcDbScale
 70
     0
300
1/64" = 1'-0"
140
0.015625
141
12.0
290
     0
  0
SCALE
  5
5B
102
{ACAD_REACTORS
330
47
102
}
330
47
100
AcDbScale
 70
     0
300
1/32" = 1'-0"
140
0.03125
141
12.0
290
     0
  0
SCALE
  5
5C
102
{ACAD_REACTORS
330
47
102
}
330
47
100
AcDbScale
 70
     0
300
1/16" = 1'-0"
140
0.0625
141
12.0
290
     0
  0
SCALE
  5
5D
102
{ACAD_REACTORS
330
47
102
}
330
47
100
AcDbScale
 70
     0
300
3/32" = 1'-0"
140
0.09375
141
12.0
290
     0
  0
SCALE
  5
5E
102
{ACAD_REACTORS
330
47
102
}
330
47
100
AcDbScale
 70
     0
300
1/8" = 1'-0"
140
0.125
141
12.0
290
     0
  0
SCALE
  5
5F
102
{ACAD_REACTORS
330
47
102
}
330
47
100
AcDbScale
 70
     0
300
3/16" = 1'-0"
140
0.1875
141
12.0
290
     0
  0
SCALE
  5
60
102
{ACAD_REACTORS
330
47
102
}
330
47
100
AcDbScale
 70
     0
300
1/4" = 1'-0"
140
0.25
141
12.0
290
     0
  0
SCALE
  5
61
102
{ACAD_REACTORS
330
47
102
}
330
47
100
AcDbScale
 70
     0
300
3/8" = 1'-0"
140
0.375
141
12.0
290
     0
  0
SCALE
  5
62
102
{ACAD_REACTORS
330
47
102
}
330
47
100
AcDbScale
 70
     0
300
1/2" = 1'-0"
140
0.5
141
12.0
290
     0
  0
SCALE
  5
63
102
{ACAD_REACTORS
330
47
102
}
330
47
100
AcDbScale
 70
     0
300
3/4" = 1'-0"
140
0.75
141
12.0
290
     0
  0
SCALE
  5
64
102
{ACAD_REACTORS
330
47
102
}
330
47
100
AcDbScale
 70
     0
300
1" = 1'-0"
140
1.0
141
12.0
290
     0
  0
SCALE
  5
65
102
{ACAD_REACTORS
330
47
102
}
330
47
100
AcDbScale
 70
     0
300
1-1/2" = 1'-0"
140
1.5
141
12.0
290
     0
  0
SCALE
  5
66
102
{ACAD_REACTORS
330
47
102
}
330
47
100
AcDbScale
 70
     0
300
3" = 1'-0"
140
3.0
141
12.0
290
     0
  0
SCALE
  5
67
102
{ACAD_REACTORS
330
47
102
}
330
47
100
AcDbScale
 70
     0
300
6" = 1'-0"
140
6.0
141
12.0
290
     0
  0
SCALE
  5
68
102
{ACAD_REACTORS
330
47
102
}
330
47
100
AcDbScale
 70
     0
300
1'-0" = 1'-0"
140
12.0
141
12.0
290
     0
  0
TABLESTYLE
  5
6A
102
{ACAD_REACTORS
330
69
102
}
102
{ACAD_XDICTIONARY
360
383
102
}
330
69
100
AcDbTableStyle
  3
Standard
 70
     0
 71
     0
 40
0.06
 41
0.06
280
     0
281
     0
  7
Standard
140
4.5
170
     2
 62
     0
 63
   257
283
     0
274
    -2
284
     1
 64
     0
275
    -2
285
     1
 65
     0
276
    -2
286
     1
 66
     0
277
    -2
287
     1
 67
     0
278
    -2
288
     1
 68
     0
279
    -2
289
     1
 69
     0
  7
Standard
140
6.0
170
     5
 62
     0
 63
   257
283
     0
274
    -2
284
     1
 64
     0
275
    -2
285
     1
 65
     0
276
    -2
286
     1
 66
     0
277
    -2
287
     1
 67
     0
278
    -2
288
     1
 68
     0
279
    -2
289
     1
 69
     0
  7
Standard
140
4.5
170
     5
 62
     0
 63
   257
283
     0
274
    -2
284
     1
 64
     0
275
    -2
285
     1
 65
     0
276
    -2
286
     1
 66
     0
277
    -2
287
     1
 67
     0
278
    -2
288
     1
 68
     0
279
    -2
289
     1
 69
     0
  0
VISUALSTYLE
  5
2F
102
{ACAD_REACTORS
330
2A
102
}
102
{ACAD_XDICTIONARY
360
355
102
}
330
2A
100
AcDbVisualStyle
  2
2dWireframe
 70
     4
 71
     0
 72
     2
 73
     0
 90
        0
 40
0.6
 41
30.0
 62
     5
 63
     7
421
 16777215
 74
     1
 91
        4
 64
     7
 65
   257
 75
     1
175
     1
 42
1.0
 92
        0
 66
   257
 43
1.0
 76
     1
 77
     6
 78
     2
 67
     7
 79
     5
170
     0
171
     0
290
     0
174
     0
 93
        1
 44
0.0
173
     0
291
     0
 45
0.0
1001
ACAD
1000
AcDbSavedByObjectVersion
1070
     0
  0
VISUALSTYLE
  5
32
102
{ACAD_REACTORS
330
2A
102
}
102
{ACAD_XDICTIONARY
360
35B
102
}
330
2A
100
AcDbVisualStyle
  2
Basic
 70
     7
 71
     1
 72
     0
 73
     1
 90
        0
 40
0.6
 41
30.0
 62
     5
 63
     7
421
 16777215
 74
     0
 91
        4
 64
     7
 65
   257
 75
     1
175
     1
 42
1.0
 92
        8
 66
     7
 43
1.0
 76
     1
 77
     6
 78
     2
 67
     7
 79
     5
170
     0
171
     0
290
     0
174
     0
 93
        1
 44
0.0
173
     0
291
     1
 45
0.0
1001
ACAD
1000
AcDbSavedByObjectVersion
1070
     0
  0
VISUALSTYLE
  5
36
102
{ACAD_REACTORS
330
2A
102
}
102
{ACAD_XDICTIONARY
360
363
102
}
330
2A
100
AcDbVisualStyle
  2
Brighten
 70
    12
 71
     2
 72
     2
 73
     0
 90
        0
 40
0.6
 41
30.0
 62
     5
 63
     7
421
 16777215
 74
     1
 91
        4
 64
     7
 65
   257
 75
     1
175
     1
 42
1.0
 92
        8
 66
     7
 43
1.0
 76
     1
 77
     6
 78
     2
 67
     7
 79
     5
170
     0
171
     0
290
     0
174
     0
 93
        1
 44
50.0
173
     0
291
     1
 45
0.0
1001
ACAD
1000
AcDbSavedByObjectVersion
1070
     0
  0
VISUALSTYLE
  5
3A
102
{ACAD_REACTORS
330
2A
102
}
102
{ACAD_XDICTIONARY
360
36B
102
}
330
2A
100
AcDbVisualStyle
  2
ColorChange
 70
    16
 71
     2
 72
     2
 73
     3
 90
        0
 40
0.6
 41
30.0
 62
     5
 63
     8
421
  8421504
 74
     1
 91
        4
 64
     7
 65
   257
 75
     1
175
     1
 42
1.0
 92
        8
 66
     8
424
  8421504
 43
1.0
 76
     1
 77
     6
 78
     2
 67
     7
 79
     5
170
     0
171
     0
290
     0
174
     0
 93
        1
 44
0.0
173
     0
291
     1
 45
0.0
1001
ACAD
1000
AcDbSavedByObjectVersion
1070
     0
  0
VISUALSTYLE
  5
34
102
{ACAD_REACTORS
330
2A
102
}
102
{ACAD_XDICTIONARY
360
35F
102
}
330
2A
100
AcDbVisualStyle
  2
Conceptual
 70
     9
 71
     3
 72
     2
 73
     0
 90
        0
 40
0.6
 41
30.0
 62
     5
 63
     7
421
 16777215
 74
     2
 91
        2
 64
     7
 65
   257
 75
     1
175
     1
 42
179.0
 92
        8
 66
     7
 43
1.0
 76
     1
 77
     6
 78
     2
 67
     7
 79
     3
170
     0
171
     0
290
     0
174
     0
 93
        1
 44
0.0
173
     0
291
     0
 45
0.0
1001
ACAD
1000
AcDbSavedByObjectVersion
1070
     0
  0
VISUALSTYLE
  5
35
102
{ACAD_REACTORS
330
2A
102
}
102
{ACAD_XDICTIONARY
360
361
102
}
330
2A
100
AcDbVisualStyle
  2
Dim
 70
    11
 71
     2
 72
     2
 73
     0
 90
        0
 40
0.6
 41
30.0
 62
     5
 63
     7
421
 16777215
 74
     1
 91
        4
 64
     7
 65
   257
 75
     1
175
     1
 42
1.0
 92
        8
 66
     7
 43
1.0
 76
     1
 77
     6
 78
     2
 67
     7
 79
     5
170
     0
171
     0
290
     0
174
     0
 93
        1
 44
-50.0
173
     0
291
     1
 45
0.0
1001
ACAD
1000
AcDbSavedByObjectVersion
1070
     0
  0
VISUALSTYLE
  5
3D
102
{ACAD_REACTORS
330
2A
102
}
102
{ACAD_XDICTIONARY
360
371
102
}
330
2A
100
AcDbVisualStyle
  2
EdgeColorOff
 70
    22
 71
     2
 72
     2
 73
     0
 90
        0
 40
0.6
 41
30.0
 62
     5
 63
     7
421
 16777215
 74
     1
 91
        4
 64
     7
 65
   257
 75
     1
175
     1
 42
1.0
 92
        8
 66
     7
 43
1.0
 76
     1
 77
     6
 78
     2
 67
     7
 79
     5
170
     0
171
     0
290
     0
174
     0
 93
        1
 44
0.0
173
     0
291
     1
 45
0.0
1001
ACAD
1000
AcDbSavedByObjectVersion
1070
     0
  0
VISUALSTYLE
  5
39
102
{ACAD_REACTORS
330
2A
102
}
102
{ACAD_XDICTIONARY
360
369
102
}
330
2A
100
AcDbVisualStyle
  2
Facepattern
 70
    15
 71
     2
 72
     2
 73
     0
 90
        0
 40
0.6
 41
30.0
 62
     5
 63
     7
421
 16777215
 74
     1
 91
        4
 64
     7
 65
   257
 75
     1
175
     1
 42
1.0
 92
        8
 66
     7
 43
1.0
 76
     1
 77
     6
 78
     2
 67
     7
 79
     5
170
     0
171
     0
290
     0
174
     0
 93
        1
 44
0.0
173
     0
291
     1
 45
0.0
1001
ACAD
1000
AcDbSavedByObjectVersion
1070
     0
  0
VISUALSTYLE
  5
2B
102
{ACAD_REACTORS
330
2A
102
}
102
{ACAD_XDICTIONARY
360
34D
102
}
330
2A
100
AcDbVisualStyle
  2
Flat
 70
     0
 71
     2
 72
     1
 73
     1
 90
        2
 40
0.6
 41
30.0
 62
     5
 63
     7
421
 16777215
 74
     0
 91
        0
 64
     7
 65
   257
 75
     1
175
     1
 42
1.0
 92
        8
 66
     7
 43
1.0
 76
     1
 77
     6
 78
     2
 67
     7
 79
     5
170
     0
171
     0
290
     0
174
     0
 93
       13
 44
0.0
173
     0
291
     1
 45
0.0
1001
ACAD
1000
AcDbSavedByObjectVersion
1070
     0
  0
VISUALSTYLE
  5
2C
102
{ACAD_REACTORS
330
2A
102
}
102
{ACAD_XDICTIONARY
360
34F
102
}
330
2A
100
AcDbVisualStyle
  2
FlatWithEdges
 70
     1
 71
     2
 72
     1
 73
     1
 90
        2
 40
0.6
 41
30.0
 62
     5
 63
     7
421
 16777215
 74
     1
 91
        0
 64
     7
 65
   257
 75
     1
175
     1
 42
1.0
 92
        0
 66
   257
 43
1.0
 76
     1
 77
     6
 78
     2
 67
     7
 79
     5
170
     0
171
     0
290
     0
174
     0
 93
       13
 44
0.0
173
     0
291
     1
 45
0.0
1001
ACAD
1000
AcDbSavedByObjectVersion
1070
     0
  0
VISUALSTYLE
  5
2D
102
{ACAD_REACTORS
330
2A
102
}
102
{ACAD_XDICTIONARY
360
351
102
}
330
2A
100
AcDbVisualStyle
  2
Gouraud
 70
     2
 71
     2
 72
     2
 73
     1
 90
        2
 40
0.6
 41
30.0
 62
     5
 63
     7
421
 16777215
 74
     0
 91
        0
 64
     7
 65
   257
 75
     1
175
     1
 42
1.0
 92
        0
 66
     7
 43
1.0
 76
     1
 77
     6
 78
     2
 67
     7
 79
     5
170
     0
171
     0
290
     0
174
     0
 93
       13
 44
0.0
173
     0
291
     1
 45
0.0
1001
ACAD
1000
AcDbSavedByObjectVersion
1070
     0
  0
VISUALSTYLE
  5
2E
102
{ACAD_REACTORS
330
2A
102
}
102
{ACAD_XDICTIONARY
360
353
102
}
330
2A
100
AcDbVisualStyle
  2
GouraudWithEdges
 70
     3
 71
     2
 72
     2
 73
     1
 90
        2
 40
0.6
 41
30.0
 62
     5
 63
     7
421
 16777215
 74
     1
 91
        0
 64
     7
 65
   257
 75
     1
175
     1
 42
1.0
 92
        0
 66
   257
 43
1.0
 76
     1
 77
     6
 78
     2
 67
     7
 79
     5
170
     0
171
     0
290
     0
174
     0
 93
       13
 44
0.0
173
     0
291
     1
 45
0.0
1001
ACAD
1000
AcDbSavedByObjectVersion
1070
     0
  0
VISUALSTYLE
  5
31
102
{ACAD_REACTORS
330
2A
102
}
102
{ACAD_XDICTIONARY
360
359
102
}
330
2A
100
AcDbVisualStyle
  2
Hidden
 70
     6
 71
     1
 72
     2
 73
     2
 90
        0
 40
0.6
 41
30.0
 62
     5
 63
     7
421
 16777215
 74
     2
 91
        2
 64
     7
 65
   257
 75
     2
175
     1
 42
40.0
 92
        0
 66
   257
 43
1.0
 76
     1
 77
     6
 78
     2
 67
     7
 79
     3
170
     0
171
     0
290
     0
174
     0
 93
        1
 44
0.0
173
     0
291
     0
 45
0.0
1001
ACAD
1000
AcDbSavedByObjectVersion
1070
     0
  0
VISUALSTYLE
  5
3B
102
{ACAD_REACTORS
330
2A
102
}
102
{ACAD_XDICTIONARY
360
36D
102
}
330
2A
100
AcDbVisualStyle
  2
JitterOff
 70
    20
 71
     2
 72
     2
 73
     0
 90
        0
 40
0.6
 41
30.0
 62
     5
 63
     7
421
 16777215
 74
     1
 91
        4
 64
     7
 65
   257
 75
     1
175
     1
 42
1.0
 92
       10
 66
     7
 43
1.0
 76
     1
 77
     6
 78
     2
 67
     7
 79
     5
170
     0
171
     0
290
     0
174
     0
 93
        1
 44
0.0
173
     0
291
     1
 45
0.0
1001
ACAD
1000
AcDbSavedByObjectVersion
1070
     0
  0
VISUALSTYLE
  5
38
102
{ACAD_REACTORS
330
2A
102
}
102
{ACAD_XDICTIONARY
360
367
102
}
330
2A
100
AcDbVisualStyle
  2
Linepattern
 70
    14
 71
     2
 72
     2
 73
     0
 90
        0
 40
0.6
 41
30.0
 62
     5
 63
     7
421
 16777215
 74
     1
 91
        4
 64
     7
 65
   257
 75
     7
175
     7
 42
1.0
 92
        8
 66
     7
 43
1.0
 76
     1
 77
     6
 78
     2
 67
     7
 79
     5
170
     0
171
     0
290
     0
174
     0
 93
        1
 44
0.0
173
     0
291
     1
 45
0.0
1001
ACAD
1000
AcDbSavedByObjectVersion
1070
     0
  0
VISUALSTYLE
  5
3C
102
{ACAD_REACTORS
330
2A
102
}
102
{ACAD_XDICTIONARY
360
36F
102
}
330
2A
100
AcDbVisualStyle
  2
OverhangOff
 70
    21
 71
     2
 72
     2
 73
     0
 90
        0
 40
0.6
 41
30.0
 62
     5
 63
     7
421
 16777215
 74
     1
 91
        4
 64
     7
 65
   257
 75
     1
175
     1
 42
1.0
 92
        9
 66
     7
 43
1.0
 76
     1
 77
     6
 78
     2
 67
     7
 79
     5
170
     0
171
     0
290
     0
174
     0
 93
        1
 44
0.0
173
     0
291
     1
 45
0.0
1001
ACAD
1000
AcDbSavedByObjectVersion
1070
     0
  0
VISUALSTYLE
  5
33
102
{ACAD_REACTORS
330
2A
102
}
102
{ACAD_XDICTIONARY
360
35D
102
}
330
2A
100
AcDbVisualStyle
  2
Realistic
 70
     8
 71
     2
 72
     3
 73
     0
 90
        2
 40
0.6
 41
30.0
 62
     5
 63
     7
421
 16777215
 74
     0
 91
        0
 64
     7
 65
   257
 75
     1
175
     1
 42
1.0
 92
        8
 66
   257
 43
1.0
 76
     1
 77
     6
 78
     2
 67
     7
 79
     3
170
     0
171
     0
290
     0
174
     0
 93
       13
 44
0.0
173
     0
291
     0
 45
0.0
1001
ACAD
1000
AcDbSavedByObjectVersion
1070
     0
  0
VISUALSTYLE
  5
42
102
{ACAD_REACTORS
330
2A
102
}
102
{ACAD_XDICTIONARY
360
37B
102
}
330
2A
100
AcDbVisualStyle
  2
Shaded
 70
    27
 71
     2
 72
     2
 73
     1
 90
        2
 40
0.6
 41
30.0
 62
     5
 63
     7
421
 16777215
 74
     0
 91
        4
 64
     7
 65
   257
 75
     1
175
     1
 42
1.0
 92
        8
 66
   257
 43
1.0
 76
     1
 77
     6
 78
     2
 67
     8
425
  7895160
 79
     3
170
     0
171
     0
290
     0
174
     0
 93
        5
 44
0.0
173
     0
291
     0
 45
0.0
1001
ACAD
1000
AcDbSavedByObjectVersion
1070
     0
  0
VISUALSTYLE
  5
41
102
{ACAD_REACTORS
330
2A
102
}
102
{ACAD_XDICTIONARY
360
379
102
}
330
2A
100
AcDbVisualStyle
  2
Shaded with edges
 70
    26
 71
     2
 72
     2
 73
     1
 90
        2
 40
0.6
 41
30.0
 62
     5
 63
     7
421
 16777215
 74
     1
 91
       10
 64
     7
 65
   257
 75
     2
175
     1
 42
1.0
 92
        8
 66
   257
 43
1.0
 76
     1
 77
     6
 78
     2
 67
     7
 79
     3
170
     0
171
     0
290
     0
174
     0
 93
        5
 44
0.0
173
     0
291
     0
 45
0.0
1001
ACAD
1000
AcDbSavedByObjectVersion
1070
     0
  0
VISUALSTYLE
  5
3E
102
{ACAD_REACTORS
330
2A
102
}
102
{ACAD_XDICTIONARY
360
373
102
}
330
2A
100
AcDbVisualStyle
  2
Shades of Gray
 70
    23
 71
     2
 72
     2
 73
     3
 90
        0
 40
0.6
 41
30.0
 62
     5
 63
     7
421
 16777215
 74
     2
 91
        2
 64
     7
 65
     7
 75
     1
175
     1
 42
40.0
 92
        8
 66
     7
 43
1.0
 76
     1
 77
     6
 78
     2
 67
     7
 79
     3
170
     0
171
     0
290
     0
174
     0
 93
        1
 44
0.0
173
     0
291
     0
 45
0.0
1001
ACAD
1000
AcDbSavedByObjectVersion
1070
     0
  0
VISUALSTYLE
  5
3F
102
{ACAD_REACTORS
330
2A
102
}
102
{ACAD_XDICTIONARY
360
375
102
}
330
2A
100
AcDbVisualStyle
  2
Sketchy
 70
    24
 71
     1
 72
     2
 73
     2
 90
        0
 40
0.6
 41
30.0
 62
     5
 63
     7
421
 16777215
 74
     2
 91
        2
 64
     7
 65
     7
 75
     1
175
     1
 42
40.0
 92
       11
 66
     7
 43
1.0
 76
     1
 77
     6
 78
     2
 67
     7
 79
     6
170
     0
171
     0
290
     0
174
     0
 93
        1
 44
0.0
173
     0
291
     0
 45
0.0
1001
ACAD
1000
AcDbSavedByObjectVersion
1070
     0
  0
VISUALSTYLE
  5
37
102
{ACAD_REACTORS
330
2A
102
}
102
{ACAD_XDICTIONARY
360
365
102
}
330
2A
100
AcDbVisualStyle
  2
Thicken
 70
    13
 71
     2
 72
     2
 73
     0
 90
        0
 40
0.6
 41
30.0
 62
     5
 63
     7
421
 16777215
 74
     1
 91
        4
 64
     7
 65
   257
 75
     1
175
     1
 42
1.0
 92
       12
 66
     7
 43
1.0
 76
     1
 77
     6
 78
     2
 67
     7
 79
     5
170
     0
171
     0
290
     0
174
     0
 93
        1
 44
0.0
173
     0
291
     1
 45
0.0
1001
ACAD
1000
AcDbSavedByObjectVersion
1070
     0
  0
VISUALSTYLE
  5
30
102
{ACAD_REACTORS
330
2A
102
}
102
{ACAD_XDICTIONARY
360
357
102
}
330
2A
100
AcDbVisualStyle
  2
Wireframe
 70
     5
 71
     0
 72
     2
 73
     0
 90
        0
 40
0.6
 41
30.0
 62
     5
 63
     7
421
 16777215
 74
     1
 91
        4
 64
     7
 65
   257
 75
     1
175
     1
 42
1.0
 92
        0
 66
   257
 43
1.0
 76
     1
 77
     6
 78
     2
 67
     7
 79
     3
170
     0
171
     0
290
     0
174
     0
 93
        1
 44
0.0
173
     0
291
     0
 45
0.0
1001
ACAD
1000
AcDbSavedByObjectVersion
1070
     0
  0
VISUALSTYLE
  5
40
102
{ACAD_REACTORS
330
2A
102
}
102
{ACAD_XDICTIONARY
360
377
102
}
330
2A
100
AcDbVisualStyle
  2
X-Ray
 70
    25
 71
     2
 72
     2
 73
     1
 90
        1
 40
0.5
 41
30.0
 62
     5
 63
     7
421
 16777215
 74
     1
 91
        0
 64
     7
 65
   257
 75
     1
175
     1
 42
1.0
 92
        8
 66
     7
 43
1.0
 76
     1
 77
     6
 78
     2
 67
     7
 79
     3
170
     0
171
     0
290
     0
174
     0
 93
       13
 44
0.0
173
     0
291
     0
 45
0.0
1001
ACAD
1000
AcDbSavedByObjectVersion
1070
     0
  0
DICTIONARYVAR
  5
34A
102
{ACAD_REACTORS
330
349
102
}
330
349
100
DictionaryVariables
280
     0
  1
1:1
  0
DICTIONARYVAR
  5
38E
102
{ACAD_REACTORS
330
349
102
}
330
349
100
DictionaryVariables
280
     0
  1
3.500000
  0
DICTIONARYVAR
  5
38F
102
{ACAD_REACTORS
330
349
102
}
330
349
100
DictionaryVariables
280
     0
  1
acadiso.lin
  0
DICTIONARYVAR
  5
38B
102
{ACAD_REACTORS
330
349
102
}
330
349
100
DictionaryVariables
280
     0
  1
Standard
  0
DICTIONARYVAR
  5
38A
102
{ACAD_REACTORS
330
349
102
}
330
349
100
DictionaryVariables
280
     0
  1
Standard
  0
DICTIONARYVAR
  5
34B
102
{ACAD_REACTORS
330
349
102
}
330
349
100
DictionaryVariables
280
     0
  1
1
  0
DICTIONARYVAR
  5
34C
102
{ACAD_REACTORS
330
349
102
}
330
349
100
DictionaryVariables
280
     0
  1
2
  0
DICTIONARY
  5
37F
330
45
100
AcDbDictionary
280
     1
281
     1
  3
ACAD_XREC_ROUNDTRIP
360
380
  0
DICTIONARY
  5
37D
330
44
100
AcDbDictionary
280
     1
281
     1
  3
ACAD_XREC_ROUNDTRIP
360
37E
  0
DICTIONARY
  5
381
330
46
100
AcDbDictionary
280
     1
281
     1
  3
ACAD_XREC_ROUNDTRIP
360
382
  0
DICTIONARY
  5
387
330
6C
100
AcDbDictionary
280
     1
281
     1
  3
ACAD_XREC_ROUNDTRIP
360
388
  0
DICTIONARY
  5
383
330
6A
100
AcDbDictionary
280
     1
281
     1
  3
ACAD_ROUNDTRIP_2008_TABLESTYLE_CELLSTYLEMAP
360
385
  3
ACAD_XREC_ROUNDTRIP
360
384
  0
DICTIONARY
  5
355
330
2F
100
AcDbDictionary
280
     1
281
     1
  3
ACAD_XREC_ROUNDTRIP
360
356
  0
DICTIONARY
  5
35B
330
32
100
AcDbDictionary
280
     1
281
     1
  3
ACAD_XREC_ROUNDTRIP
360
35C
  0
DICTIONARY
  5
363
330
36
100
AcDbDictionary
280
     1
281
     1
  3
ACAD_XREC_ROUNDTRIP
360
364
  0
DICTIONARY
  5
36B
330
3A
100
AcDbDictionary
280
     1
281
     1
  3
ACAD_XREC_ROUNDTRIP
360
36C
  0
DICTIONARY
  5
35F
330
34
100
AcDbDictionary
280
     1
281
     1
  3
ACAD_XREC_ROUNDTRIP
360
360
  0
DICTIONARY
  5
361
330
35
100
AcDbDictionary
280
     1
281
     1
  3
ACAD_XREC_ROUNDTRIP
360
362
  0
DICTIONARY
  5
371
330
3D
100
AcDbDictionary
280
     1
281
     1
  3
ACAD_XREC_ROUNDTRIP
360
372
  0
DICTIONARY
  5
369
330
39
100
AcDbDictionary
280
     1
281
     1
  3
ACAD_XREC_ROUNDTRIP
360
36A
  0
DICTIONARY
  5
34D
330
2B
100
AcDbDictionary
280
     1
281
     1
  3
ACAD_XREC_ROUNDTRIP
360
34E
  0
DICTIONARY
  5
34F
330
2C
100
AcDbDictionary
280
     1
281
     1
  3
ACAD_XREC_ROUNDTRIP
360
350
  0
DICTIONARY
  5
351
330
2D
100
AcDbDictionary
280
     1
281
     1
  3
ACAD_XREC_ROUNDTRIP
360
352
  0
DICTIONARY
  5
353
330
2E
100
AcDbDictionary
280
     1
281
     1
  3
ACAD_XREC_ROUNDTRIP
360
354
  0
DICTIONARY
  5
359
330
31
100
AcDbDictionary
280
     1
281
     1
  3
ACAD_XREC_ROUNDTRIP
360
35A
  0
DICTIONARY
  5
36D
330
3B
100
AcDbDictionary
280
     1
281
     1
  3
ACAD_XREC_ROUNDTRIP
360
36E
  0
DICTIONARY
  5
367
330
38
100
AcDbDictionary
280
     1
281
     1
  3
ACAD_XREC_ROUNDTRIP
360
368
  0
DICTIONARY
  5
36F
330
3C
100
AcDbDictionary
280
     1
281
     1
  3
ACAD_XREC_ROUNDTRIP
360
370
  0
DICTIONARY
  5
35D
330
33
100
AcDbDictionary
280
     1
281
     1
  3
ACAD_XREC_ROUNDTRIP
360
35E
  0
DICTIONARY
  5
37B
330
42
100
AcDbDictionary
280
     1
281
     1
  3
ACAD_XREC_ROUNDTRIP
360
37C
  0
DICTIONARY
  5
379
330
41
100
AcDbDictionary
280
     1
281
     1
  3
ACAD_XREC_ROUNDTRIP
360
37A
  0
DICTIONARY
  5
373
330
3E
100
AcDbDictionary
280
     1
281
     1
  3
ACAD_XREC_ROUNDTRIP
360
374
  0
DICTIONARY
  5
375
330
3F
100
AcDbDictionary
280
     1
281
     1
  3
ACAD_XREC_ROUNDTRIP
360
376
  0
DICTIONARY
  5
365
330
37
100
AcDbDictionary
280
     1
281
     1
  3
ACAD_XREC_ROUNDTRIP
360
366
  0
DICTIONARY
  5
357
330
30
100
AcDbDictionary
280
     1
281
     1
  3
ACAD_XREC_ROUNDTRIP
360
358
  0
DICTIONARY
  5
377
330
40
100
AcDbDictionary
280
     1
281
     1
  3
ACAD_XREC_ROUNDTRIP
360
378
  0
XRECORD
  5
380
102
{ACAD_REACTORS
330
37F
102
}
330
37F
100
AcDbXrecord
280
     1
102
MATERIAL
148
0.0
149
0.0
149
0.0
 93
        0
 94
      127
282
     0
 72
     1
 77
     1
171
     1
175
     1
179
     1
273
     0
  0
XRECORD
  5
37E
102
{ACAD_REACTORS
330
37D
102
}
330
37D
100
AcDbXrecord
280
     1
102
MATERIAL
148
0.0
149
0.0
149
0.0
 93
        0
 94
      127
282
     0
 72
     1
 77
     1
171
     1
175
     1
179
     1
273
     0
  0
XRECORD
  5
382
102
{ACAD_REACTORS
330
381
102
}
330
381
100
AcDbXrecord
280
     1
102
MATERIAL
148
0.0
149
0.0
149
0.0
 93
        0
 94
      127
282
     0
 72
     1
 77
     1
171
     1
175
     1
179
     1
273
     0
  0
XRECORD
  5
388
102
{ACAD_REACTORS
330
387
102
}
330
387
100
AcDbXrecord
280
     1
102
ACAD_ROUNDTRIP_2010_MLEADER_STYLE
  0
CELLSTYLEMAP
  5
385
102
{ACAD_REACTORS
330
383
102
}
330
383
100
AcDbCellStyleMap
 90
        3
300
CELLSTYLE
  1
TABLEFORMAT_BEGIN
 90
        5
170
     1
 91
        0
 92
    32768
 62
   257
 93
        1
300
CONTENTFORMAT
  1
CONTENTFORMAT_BEGIN
 90
        0
 91
        0
 92
        4
 93
        0
300

 40
0.0
140
1.0
 94
        5
 62
     0
340
11
144
6.0
309
CONTENTFORMAT_END
171
     1
301
MARGIN
  1
CELLMARGIN_BEGIN
 40
1.5
 40
1.5
 40
1.5
 40
1.5
 40
1.5
 40
1.5
309
CELLMARGIN_END
 94
        6
 95
        1
302
GRIDFORMAT
  1
GRIDFORMAT_BEGIN
 90
        0
 91
        1
 62
     0
 92
       -2
340
14
 93
        0
 40
0.045
309
GRIDFORMAT_END
 95
        2
302
GRIDFORMAT
  1
GRIDFORMAT_BEGIN
 90
        0
 91
        1
 62
     0
 92
       -2
340
14
 93
        0
 40
0.045
309
GRIDFORMAT_END
 95
        4
302
GRIDFORMAT
  1
GRIDFORMAT_BEGIN
 90
        0
 91
        1
 62
     0
 92
       -2
340
14
 93
        0
 40
0.045
309
GRIDFORMAT_END
 95
        8
302
GRIDFORMAT
  1
GRIDFORMAT_BEGIN
 90
        0
 91
        1
 62
     0
 92
       -2
340
14
 93
        0
 40
0.045
309
GRIDFORMAT_END
 95
       16
302
GRIDFORMAT
  1
GRIDFORMAT_BEGIN
 90
        0
 91
        1
 62
     0
 92
       -2
340
14
 93
        0
 40
0.045
309
GRIDFORMAT_END
 95
       32
302
GRIDFORMAT
  1
GRIDFORMAT_BEGIN
 90
        0
 91
        1
 62
     0
 92
       -2
340
14
 93
        0
 40
0.045
309
GRIDFORMAT_END
309
TABLEFORMAT_END
  1
CELLSTYLE_BEGIN
 90
        1
 91
        1
300
_TITLE
309
CELLSTYLE_END
300
CELLSTYLE
  1
TABLEFORMAT_BEGIN
 90
        5
170
     1
 91
        0
 92
        0
 62
   257
 93
        1
300
CONTENTFORMAT
  1
CONTENTFORMAT_BEGIN
 90
        0
 91
        0
 92
        4
 93
        0
300

 40
0.0
140
1.0
 94
        5
 62
     0
340
11
144
4.5
309
CONTENTFORMAT_END
171
     1
301
MARGIN
  1
CELLMARGIN_BEGIN
 40
1.5
 40
1.5
 40
1.5
 40
1.5
 40
1.5
 40
1.5
309
CELLMARGIN_END
 94
        6
 95
        1
302
GRIDFORMAT
  1
GRIDFORMAT_BEGIN
 90
        0
 91
        1
 62
     0
 92
       -2
340
14
 93
        0
 40
0.045
309
GRIDFORMAT_END
 95
        2
302
GRIDFORMAT
  1
GRIDFORMAT_BEGIN
 90
        0
 91
        1
 62
     0
 92
       -2
340
14
 93
        0
 40
0.045
309
GRIDFORMAT_END
 95
        4
302
GRIDFORMAT
  1
GRIDFORMAT_BEGIN
 90
        0
 91
        1
 62
     0
 92
       -2
340
14
 93
        0
 40
0.045
309
GRIDFORMAT_END
 95
        8
302
GRIDFORMAT
  1
GRIDFORMAT_BEGIN
 90
        0
 91
        1
 62
     0
 92
       -2
340
14
 93
        0
 40
0.045
309
GRIDFORMAT_END
 95
       16
302
GRIDFORMAT
  1
GRIDFORMAT_BEGIN
 90
        0
 91
        1
 62
     0
 92
       -2
340
14
 93
        0
 40
0.045
309
GRIDFORMAT_END
 95
       32
302
GRIDFORMAT
  1
GRIDFORMAT_BEGIN
 90
        0
 91
        1
 62
     0
 92
       -2
340
14
 93
        0
 40
0.045
309
GRIDFORMAT_END
309
TABLEFORMAT_END
  1
CELLSTYLE_BEGIN
 90
        2
 91
        1
300
_HEADER
309
CELLSTYLE_END
300
CELLSTYLE
  1
TABLEFORMAT_BEGIN
 90
        5
170
     1
 91
        0
 92
        0
 62
   257
 93
        1
300
CONTENTFORMAT
  1
CONTENTFORMAT_BEGIN
 90
        0
 91
        0
 92
        4
 93
        0
300

 40
0.0
140
1.0
 94
        2
 62
     0
340
11
144
4.5
309
CONTENTFORMAT_END
171
     1
301
MARGIN
  1
CELLMARGIN_BEGIN
 40
1.5
 40
1.5
 40
1.5
 40
1.5
 40
1.5
 40
1.5
309
CELLMARGIN_END
 94
        6
 95
        1
302
GRIDFORMAT
  1
GRIDFORMAT_BEGIN
 90
        0
 91
        1
 62
     0
 92
       -2
340
14
 93
        0
 40
0.045
309
GRIDFORMAT_END
 95
        2
302
GRIDFORMAT
  1
GRIDFORMAT_BEGIN
 90
        0
 91
        1
 62
     0
 92
       -2
340
14
 93
        0
 40
0.045
309
GRIDFORMAT_END
 95
        4
302
GRIDFORMAT
  1
GRIDFORMAT_BEGIN
 90
        0
 91
        1
 62
     0
 92
       -2
340
14
 93
        0
 40
0.045
309
GRIDFORMAT_END
 95
        8
302
GRIDFORMAT
  1
GRIDFORMAT_BEGIN
 90
        0
 91
        1
 62
     0
 92
       -2
340
14
 93
        0
 40
0.045
309
GRIDFORMAT_END
 95
       16
302
GRIDFORMAT
  1
GRIDFORMAT_BEGIN
 90
        0
 91
        1
 62
     0
 92
       -2
340
14
 93
        0
 40
0.045
309
GRIDFORMAT_END
 95
       32
302
GRIDFORMAT
  1
GRIDFORMAT_BEGIN
 90
        0
 91
        1
 62
     0
 92
       -2
340
14
 93
        0
 40
0.045
309
GRIDFORMAT_END
309
TABLEFORMAT_END
  1
CELLSTYLE_BEGIN
 90
        3
 91
        2
300
_DATA
309
CELLSTYLE_END
  0
XRECORD
  5
384
102
{ACAD_REACTORS
330
383
102
}
330
383
100
AcDbXrecord
280
     1
102
ACAD_ROUNDTRIP_PRE2007_TABLESTYLE
 90
        4
 91
        0
  1

 92
        4
 93
        0
  2

 94
        4
 95
        0
  3

  0
XRECORD
  5
356
102
{ACAD_REACTORS
330
355
102
}
330
355
100
AcDbXrecord
280
     1
102
RTVSPropertyOp0
 70
     1
102
RTVSPropertyOp1
 70
     1
102
RTVSPropertyOp2
 70
     1
102
RTVSPropertyOp3
 70
     1
102
RTVSPropertyOp4
 70
     1
102
RTVSPropertyOp5
 70
     1
102
RTVSPropertyOp6
 70
     1
102
RTVSPropertyOp7
 70
     1
102
RTVSPropertyOp8
 70
     1
102
RTVSPropertyOp9
 70
     1
102
RTVSPropertyOp10
 70
     1
102
RTVSPropertyOp11
 70
     1
102
RTVSPropertyOp12
 70
     1
102
RTVSPropertyOp13
 70
     1
102
RTVSPropertyOp14
 70
     1
102
RTVSPropertyOp15
 70
     1
102
RTVSPropertyOp16
 70
     1
102
RTVSPropertyOp17
 70
     1
102
RTVSPropertyOp18
 70
     1
102
RTVSPropertyOp19
 70
     1
102
RTVSPropertyOp20
 70
     1
102
RTVSPropertyOp21
 70
     1
102
RTVSPropertyOp22
 70
     1
102
RTVSPropertyOp23
 70
     1
102
RTVSPropertyOp24
 70
     1
102
RTVSPropertyOp25
 70
     1
102
RTVSPropertyOp26
 70
     1
102
RTVSPropertyOp27
 70
     1
102
RTVSPropertyOp28
 70
     1
102
RTVSPropertyOp29
 70
     1
102
RTVSPropertyOp30
 70
     1
102
RTVSPropertyOp31
 70
     1
102
RTVSPropertyOp32
 70
     1
102
RTVSPropertyOp33
 70
     1
102
RTVSPropertyOp34
 70
     1
102
RTVSPropertyOp35
 70
     1
102
RTVSPropertyOp36
 70
     1
102
RTVSPropertyOp37
 70
     1
102
RTVSPropertyOp38
 70
     1
102
RTVSPropertyOp39
 70
     1
102
RTVSPropertyOp40
 70
     1
102
RTVSPropertyOp41
 70
     1
102
RTVSPropertyOp42
 70
     1
102
RTVSPropertyOp43
 70
     1
102
RTVSPropertyOp44
 70
     1
102
RTVSPropertyOp45
 70
     1
102
RTVSPropertyOp46
 70
     1
102
RTVSPropertyOp47
 70
     1
102
RTVSPropertyOp48
 70
     1
102
RTVSPropertyOp49
 70
     1
102
RTVSPropertyOp50
 70
     1
102
RTVSPropertyOp51
 70
     0
102
RTVSPropertyOp52
 70
     0
102
RTVSPropertyOp53
 70
     1
102
RTVSPropertyOp54
 70
     1
102
RTVSPropertyOp55
 70
     1
102
RTVSPropertyOp56
 70
     1
102
RTVSPropertyOp57
 70
     1
102
RTVSPost2010Prop28
280
     1
102
RTVSPost2010PropOp28
 70
     1
102
RTVSPost2010Prop29
280
     1
102
RTVSPost2010PropOp29
 70
     1
102
RTVSPost2010Prop30
280
     0
102
RTVSPost2010PropOp30
 70
     1
102
RTVSPost2010Prop31
280
     0
102
RTVSPost2010PropOp31
 70
     1
102
RTVSPost2010Prop32
280
     0
102
RTVSPost2010PropOp32
 70
     1
102
RTVSPost2010Prop33
280
     0
102
RTVSPost2010PropOp33
 70
     1
102
RTVSPost2010Prop34
280
     0
102
RTVSPost2010PropOp34
 70
     1
102
RTVSPost2010Prop35
280
     0
102
RTVSPost2010PropOp35
 70
     1
102
RTVSPost2010Prop36
280
     0
102
RTVSPost2010PropOp36
 70
     1
102
RTVSPost2010Prop37
 90
       50
102
RTVSPost2010PropOp37
 70
     1
102
RTVSPost2010Prop38
140
0.0
102
RTVSPost2010PropOp38
 70
     1
102
RTVSPost2010Prop39
140
1.0
102
RTVSPost2010PropOp39
 70
     1
102
RTVSPost2010Prop40
 90
        0
102
RTVSPost2010PropOp40
 70
     1
102
RTVSPost2010Prop41ColorIndex
 90
       18
102
RTVSPost2010Prop41ColorRGB
 90
        0
102
RTVSPost2010PropOp41
 70
     1
102
RTVSPost2010Prop42
 90
       50
102
RTVSPost2010PropOp42
 70
     1
102
RTVSPost2010Prop43
 90
        3
102
RTVSPost2010PropOp43
 70
     1
102
RTVSPost2010Prop44ColorIndex
 90
        5
102
RTVSPost2010Prop44ColorRGB
 90
      255
102
RTVSPost2010PropOp44
 70
     1
102
RTVSPost2010Prop45
280
     0
102
RTVSPost2010PropOp45
 70
     1
102
RTVSPost2010Prop46
 90
       50
102
RTVSPost2010PropOp46
 70
     1
102
RTVSPost2010Prop47
 90
       50
102
RTVSPost2010PropOp47
 70
     1
102
RTVSPost2010Prop48
 90
       50
102
RTVSPost2010PropOp48
 70
     1
102
RTVSPost2010Prop49
280
     0
102
RTVSPost2010PropOp49
 70
     1
102
RTVSPost2010Prop50
 90
       50
102
RTVSPost2010PropOp50
 70
     1
102
RTVSPost2010Prop51ColorIndex
 90
      256
102
RTVSPost2010Prop51ColorRGB
 90
-16777216
102
RTVSPost2010PropOp51
 70
     0
102
RTVSPost2010Prop52
140
1.0
102
RTVSPost2010PropOp52
 70
     0
102
RTVSPost2010Prop53
 90
        2
102
RTVSPost2010PropOp53
 70
     1
102
RTVSPost2010Prop54
  1
strokes_ogs.tif
102
RTVSPost2010PropOp54
 70
     1
102
RTVSPost2010Prop55
280
     0
102
RTVSPost2010PropOp55
 70
     1
102
RTVSPost2010Prop56
140
1.0
102
RTVSPost2010PropOp56
 70
     1
102
RTVSPost2010Prop57
140
1.0
102
RTVSPost2010PropOp57
 70
     1
  0
XRECORD
  5
35C
102
{ACAD_REACTORS
330
35B
102
}
330
35B
100
AcDbXrecord
280
     1
102
RTVSPropertyOp0
 70
     1
102
RTVSPropertyOp1
 70
     1
102
RTVSPropertyOp2
 70
     1
102
RTVSPropertyOp3
 70
     1
102
RTVSPropertyOp4
 70
     1
102
RTVSPropertyOp5
 70
     1
102
RTVSPropertyOp6
 70
     1
102
RTVSPropertyOp7
 70
     1
102
RTVSPropertyOp8
 70
     1
102
RTVSPropertyOp9
 70
     1
102
RTVSPropertyOp10
 70
     1
102
RTVSPropertyOp11
 70
     1
102
RTVSPropertyOp12
 70
     1
102
RTVSPropertyOp13
 70
     1
102
RTVSPropertyOp14
 70
     1
102
RTVSPropertyOp15
 70
     1
102
RTVSPropertyOp16
 70
     1
102
RTVSPropertyOp17
 70
     1
102
RTVSPropertyOp18
 70
     1
102
RTVSPropertyOp19
 70
     1
102
RTVSPropertyOp20
 70
     1
102
RTVSPropertyOp21
 70
     1
102
RTVSPropertyOp22
 70
     1
102
RTVSPropertyOp23
 70
     1
102
RTVSPropertyOp24
 70
     1
102
RTVSPropertyOp25
 70
     1
102
RTVSPropertyOp26
 70
     1
102
RTVSPropertyOp27
 70
     1
102
RTVSPropertyOp28
 70
     1
102
RTVSPropertyOp29
 70
     1
102
RTVSPropertyOp30
 70
     1
102
RTVSPropertyOp31
 70
     1
102
RTVSPropertyOp32
 70
     1
102
RTVSPropertyOp33
 70
     1
102
RTVSPropertyOp34
 70
     1
102
RTVSPropertyOp35
 70
     1
102
RTVSPropertyOp36
 70
     1
102
RTVSPropertyOp37
 70
     1
102
RTVSPropertyOp38
 70
     1
102
RTVSPropertyOp39
 70
     1
102
RTVSPropertyOp40
 70
     1
102
RTVSPropertyOp41
 70
     1
102
RTVSPropertyOp42
 70
     1
102
RTVSPropertyOp43
 70
     1
102
RTVSPropertyOp44
 70
     1
102
RTVSPropertyOp45
 70
     1
102
RTVSPropertyOp46
 70
     1
102
RTVSPropertyOp47
 70
     1
102
RTVSPropertyOp48
 70
     1
102
RTVSPropertyOp49
 70
     1
102
RTVSPropertyOp50
 70
     1
102
RTVSPropertyOp51
 70
     0
102
RTVSPropertyOp52
 70
     0
102
RTVSPropertyOp53
 70
     1
102
RTVSPropertyOp54
 70
     1
102
RTVSPropertyOp55
 70
     1
102
RTVSPropertyOp56
 70
     1
102
RTVSPropertyOp57
 70
     1
102
RTVSPost2010Prop28
280
     0
102
RTVSPost2010PropOp28
 70
     1
102
RTVSPost2010Prop29
280
     1
102
RTVSPost2010PropOp29
 70
     1
102
RTVSPost2010Prop30
280
     1
102
RTVSPost2010PropOp30
 70
     1
102
RTVSPost2010Prop31
280
     0
102
RTVSPost2010PropOp31
 70
     1
102
RTVSPost2010Prop32
280
     0
102
RTVSPost2010PropOp32
 70
     1
102
RTVSPost2010Prop33
280
     0
102
RTVSPost2010PropOp33
 70
     1
102
RTVSPost2010Prop34
280
     0
102
RTVSPost2010PropOp34
 70
     1
102
RTVSPost2010Prop35
280
     0
102
RTVSPost2010PropOp35
 70
     1
102
RTVSPost2010Prop36
280
     0
102
RTVSPost2010PropOp36
 70
     1
102
RTVSPost2010Prop37
 90
       50
102
RTVSPost2010PropOp37
 70
     1
102
RTVSPost2010Prop38
140
0.0
102
RTVSPost2010PropOp38
 70
     1
102
RTVSPost2010Prop39
140
1.0
102
RTVSPost2010PropOp39
 70
     1
102
RTVSPost2010Prop40
 90
        0
102
RTVSPost2010PropOp40
 70
     1
102
RTVSPost2010Prop41ColorIndex
 90
       18
102
RTVSPost2010Prop41ColorRGB
 90
        0
102
RTVSPost2010PropOp41
 70
     1
102
RTVSPost2010Prop42
 90
       50
102
RTVSPost2010PropOp42
 70
     1
102
RTVSPost2010Prop43
 90
        3
102
RTVSPost2010PropOp43
 70
     1
102
RTVSPost2010Prop44ColorIndex
 90
        5
102
RTVSPost2010Prop44ColorRGB
 90
      255
102
RTVSPost2010PropOp44
 70
     1
102
RTVSPost2010Prop45
280
     0
102
RTVSPost2010PropOp45
 70
     1
102
RTVSPost2010Prop46
 90
       50
102
RTVSPost2010PropOp46
 70
     1
102
RTVSPost2010Prop47
 90
       50
102
RTVSPost2010PropOp47
 70
     1
102
RTVSPost2010Prop48
 90
       50
102
RTVSPost2010PropOp48
 70
     1
102
RTVSPost2010Prop49
280
     0
102
RTVSPost2010PropOp49
 70
     1
102
RTVSPost2010Prop50
 90
       50
102
RTVSPost2010PropOp50
 70
     1
102
RTVSPost2010Prop51ColorIndex
 90
      256
102
RTVSPost2010Prop51ColorRGB
 90
-16777216
102
RTVSPost2010PropOp51
 70
     0
102
RTVSPost2010Prop52
140
1.0
102
RTVSPost2010PropOp52
 70
     0
102
RTVSPost2010Prop53
 90
        2
102
RTVSPost2010PropOp53
 70
     1
102
RTVSPost2010Prop54
  1
strokes_ogs.tif
102
RTVSPost2010PropOp54
 70
     1
102
RTVSPost2010Prop55
280
     0
102
RTVSPost2010PropOp55
 70
     1
102
RTVSPost2010Prop56
140
1.0
102
RTVSPost2010PropOp56
 70
     1
102
RTVSPost2010Prop57
140
1.0
102
RTVSPost2010PropOp57
 70
     1
  0
XRECORD
  5
364
102
{ACAD_REACTORS
330
363
102
}
330
363
100
AcDbXrecord
280
     1
102
RTVSPropertyOp0
 70
     1
102
RTVSPropertyOp1
 70
     1
102
RTVSPropertyOp2
 70
     1
102
RTVSPropertyOp3
 70
     1
102
RTVSPropertyOp4
 70
     1
102
RTVSPropertyOp5
 70
     1
102
RTVSPropertyOp6
 70
     1
102
RTVSPropertyOp7
 70
     1
102
RTVSPropertyOp8
 70
     1
102
RTVSPropertyOp9
 70
     1
102
RTVSPropertyOp10
 70
     1
102
RTVSPropertyOp11
 70
     1
102
RTVSPropertyOp12
 70
     1
102
RTVSPropertyOp13
 70
     1
102
RTVSPropertyOp14
 70
     1
102
RTVSPropertyOp15
 70
     1
102
RTVSPropertyOp16
 70
     1
102
RTVSPropertyOp17
 70
     1
102
RTVSPropertyOp18
 70
     1
102
RTVSPropertyOp19
 70
     1
102
RTVSPropertyOp20
 70
     1
102
RTVSPropertyOp21
 70
     1
102
RTVSPropertyOp22
 70
     1
102
RTVSPropertyOp23
 70
     1
102
RTVSPropertyOp24
 70
     1
102
RTVSPropertyOp25
 70
     1
102
RTVSPropertyOp26
 70
     1
102
RTVSPropertyOp27
 70
     1
102
RTVSPropertyOp28
 70
     1
102
RTVSPropertyOp29
 70
     1
102
RTVSPropertyOp30
 70
     1
102
RTVSPropertyOp31
 70
     1
102
RTVSPropertyOp32
 70
     1
102
RTVSPropertyOp33
 70
     1
102
RTVSPropertyOp34
 70
     1
102
RTVSPropertyOp35
 70
     1
102
RTVSPropertyOp36
 70
     1
102
RTVSPropertyOp37
 70
     1
102
RTVSPropertyOp38
 70
     1
102
RTVSPropertyOp39
 70
     1
102
RTVSPropertyOp40
 70
     1
102
RTVSPropertyOp41
 70
     1
102
RTVSPropertyOp42
 70
     1
102
RTVSPropertyOp43
 70
     1
102
RTVSPropertyOp44
 70
     1
102
RTVSPropertyOp45
 70
     1
102
RTVSPropertyOp46
 70
     1
102
RTVSPropertyOp47
 70
     1
102
RTVSPropertyOp48
 70
     1
102
RTVSPropertyOp49
 70
     1
102
RTVSPropertyOp50
 70
     1
102
RTVSPropertyOp51
 70
     0
102
RTVSPropertyOp52
 70
     0
102
RTVSPropertyOp53
 70
     1
102
RTVSPropertyOp54
 70
     1
102
RTVSPropertyOp55
 70
     1
102
RTVSPropertyOp56
 70
     1
102
RTVSPropertyOp57
 70
     1
102
RTVSPost2010Prop28
280
     0
102
RTVSPost2010PropOp28
 70
     1
102
RTVSPost2010Prop29
280
     1
102
RTVSPost2010PropOp29
 70
     1
102
RTVSPost2010Prop30
280
     1
102
RTVSPost2010PropOp30
 70
     1
102
RTVSPost2010Prop31
280
     0
102
RTVSPost2010PropOp31
 70
     1
102
RTVSPost2010Prop32
280
     0
102
RTVSPost2010PropOp32
 70
     1
102
RTVSPost2010Prop33
280
     0
102
RTVSPost2010PropOp33
 70
     1
102
RTVSPost2010Prop34
280
     0
102
RTVSPost2010PropOp34
 70
     1
102
RTVSPost2010Prop35
280
     0
102
RTVSPost2010PropOp35
 70
     1
102
RTVSPost2010Prop36
280
     0
102
RTVSPost2010PropOp36
 70
     1
102
RTVSPost2010Prop37
 90
       50
102
RTVSPost2010PropOp37
 70
     1
102
RTVSPost2010Prop38
140
0.0
102
RTVSPost2010PropOp38
 70
     1
102
RTVSPost2010Prop39
140
1.0
102
RTVSPost2010PropOp39
 70
     1
102
RTVSPost2010Prop40
 90
        0
102
RTVSPost2010PropOp40
 70
     1
102
RTVSPost2010Prop41ColorIndex
 90
       18
102
RTVSPost2010Prop41ColorRGB
 90
        0
102
RTVSPost2010PropOp41
 70
     1
102
RTVSPost2010Prop42
 90
       50
102
RTVSPost2010PropOp42
 70
     1
102
RTVSPost2010Prop43
 90
        3
102
RTVSPost2010PropOp43
 70
     1
102
RTVSPost2010Prop44ColorIndex
 90
        5
102
RTVSPost2010Prop44ColorRGB
 90
      255
102
RTVSPost2010PropOp44
 70
     1
102
RTVSPost2010Prop45
280
     0
102
RTVSPost2010PropOp45
 70
     1
102
RTVSPost2010Prop46
 90
       50
102
RTVSPost2010PropOp46
 70
     1
102
RTVSPost2010Prop47
 90
       50
102
RTVSPost2010PropOp47
 70
     1
102
RTVSPost2010Prop48
 90
       50
102
RTVSPost2010PropOp48
 70
     1
102
RTVSPost2010Prop49
280
     0
102
RTVSPost2010PropOp49
 70
     1
102
RTVSPost2010Prop50
 90
       50
102
RTVSPost2010PropOp50
 70
     1
102
RTVSPost2010Prop51ColorIndex
 90
      256
102
RTVSPost2010Prop51ColorRGB
 90
-16777216
102
RTVSPost2010PropOp51
 70
     0
102
RTVSPost2010Prop52
140
1.0
102
RTVSPost2010PropOp52
 70
     0
102
RTVSPost2010Prop53
 90
        2
102
RTVSPost2010PropOp53
 70
     1
102
RTVSPost2010Prop54
  1
strokes_ogs.tif
102
RTVSPost2010PropOp54
 70
     1
102
RTVSPost2010Prop55
280
     0
102
RTVSPost2010PropOp55
 70
     1
102
RTVSPost2010Prop56
140
1.0
102
RTVSPost2010PropOp56
 70
     1
102
RTVSPost2010Prop57
140
1.0
102
RTVSPost2010PropOp57
 70
     1
  0
XRECORD
  5
36C
102
{ACAD_REACTORS
330
36B
102
}
330
36B
100
AcDbXrecord
280
     1
102
RTVSPropertyOp0
 70
     1
102
RTVSPropertyOp1
 70
     1
102
RTVSPropertyOp2
 70
     1
102
RTVSPropertyOp3
 70
     1
102
RTVSPropertyOp4
 70
     1
102
RTVSPropertyOp5
 70
     1
102
RTVSPropertyOp6
 70
     1
102
RTVSPropertyOp7
 70
     1
102
RTVSPropertyOp8
 70
     1
102
RTVSPropertyOp9
 70
     1
102
RTVSPropertyOp10
 70
     1
102
RTVSPropertyOp11
 70
     1
102
RTVSPropertyOp12
 70
     1
102
RTVSPropertyOp13
 70
     1
102
RTVSPropertyOp14
 70
     1
102
RTVSPropertyOp15
 70
     1
102
RTVSPropertyOp16
 70
     1
102
RTVSPropertyOp17
 70
     1
102
RTVSPropertyOp18
 70
     1
102
RTVSPropertyOp19
 70
     1
102
RTVSPropertyOp20
 70
     1
102
RTVSPropertyOp21
 70
     1
102
RTVSPropertyOp22
 70
     1
102
RTVSPropertyOp23
 70
     1
102
RTVSPropertyOp24
 70
     1
102
RTVSPropertyOp25
 70
     1
102
RTVSPropertyOp26
 70
     1
102
RTVSPropertyOp27
 70
     1
102
RTVSPropertyOp28
 70
     1
102
RTVSPropertyOp29
 70
     1
102
RTVSPropertyOp30
 70
     1
102
RTVSPropertyOp31
 70
     1
102
RTVSPropertyOp32
 70
     1
102
RTVSPropertyOp33
 70
     1
102
RTVSPropertyOp34
 70
     1
102
RTVSPropertyOp35
 70
     1
102
RTVSPropertyOp36
 70
     1
102
RTVSPropertyOp37
 70
     1
102
RTVSPropertyOp38
 70
     1
102
RTVSPropertyOp39
 70
     1
102
RTVSPropertyOp40
 70
     1
102
RTVSPropertyOp41
 70
     1
102
RTVSPropertyOp42
 70
     1
102
RTVSPropertyOp43
 70
     1
102
RTVSPropertyOp44
 70
     1
102
RTVSPropertyOp45
 70
     1
102
RTVSPropertyOp46
 70
     1
102
RTVSPropertyOp47
 70
     1
102
RTVSPropertyOp48
 70
     1
102
RTVSPropertyOp49
 70
     1
102
RTVSPropertyOp50
 70
     1
102
RTVSPropertyOp51
 70
     0
102
RTVSPropertyOp52
 70
     0
102
RTVSPropertyOp53
 70
     1
102
RTVSPropertyOp54
 70
     1
102
RTVSPropertyOp55
 70
     1
102
RTVSPropertyOp56
 70
     1
102
RTVSPropertyOp57
 70
     1
102
RTVSPost2010Prop28
280
     0
102
RTVSPost2010PropOp28
 70
     1
102
RTVSPost2010Prop29
280
     1
102
RTVSPost2010PropOp29
 70
     1
102
RTVSPost2010Prop30
280
     1
102
RTVSPost2010PropOp30
 70
     1
102
RTVSPost2010Prop31
280
     0
102
RTVSPost2010PropOp31
 70
     1
102
RTVSPost2010Prop32
280
     0
102
RTVSPost2010PropOp32
 70
     1
102
RTVSPost2010Prop33
280
     0
102
RTVSPost2010PropOp33
 70
     1
102
RTVSPost2010Prop34
280
     0
102
RTVSPost2010PropOp34
 70
     1
102
RTVSPost2010Prop35
280
     0
102
RTVSPost2010PropOp35
 70
     1
102
RTVSPost2010Prop36
280
     0
102
RTVSPost2010PropOp36
 70
     1
102
RTVSPost2010Prop37
 90
       50
102
RTVSPost2010PropOp37
 70
     1
102
RTVSPost2010Prop38
140
0.0
102
RTVSPost2010PropOp38
 70
     1
102
RTVSPost2010Prop39
140
1.0
102
RTVSPost2010PropOp39
 70
     1
102
RTVSPost2010Prop40
 90
        0
102
RTVSPost2010PropOp40
 70
     1
102
RTVSPost2010Prop41ColorIndex
 90
       18
102
RTVSPost2010Prop41ColorRGB
 90
        0
102
RTVSPost2010PropOp41
 70
     1
102
RTVSPost2010Prop42
 90
       50
102
RTVSPost2010PropOp42
 70
     1
102
RTVSPost2010Prop43
 90
        3
102
RTVSPost2010PropOp43
 70
     1
102
RTVSPost2010Prop44ColorIndex
 90
        5
102
RTVSPost2010Prop44ColorRGB
 90
      255
102
RTVSPost2010PropOp44
 70
     1
102
RTVSPost2010Prop45
280
     0
102
RTVSPost2010PropOp45
 70
     1
102
RTVSPost2010Prop46
 90
       50
102
RTVSPost2010PropOp46
 70
     1
102
RTVSPost2010Prop47
 90
       50
102
RTVSPost2010PropOp47
 70
     1
102
RTVSPost2010Prop48
 90
       50
102
RTVSPost2010PropOp48
 70
     1
102
RTVSPost2010Prop49
280
     0
102
RTVSPost2010PropOp49
 70
     1
102
RTVSPost2010Prop50
 90
       50
102
RTVSPost2010PropOp50
 70
     1
102
RTVSPost2010Prop51ColorIndex
 90
      256
102
RTVSPost2010Prop51ColorRGB
 90
-16777216
102
RTVSPost2010PropOp51
 70
     0
102
RTVSPost2010Prop52
140
1.0
102
RTVSPost2010PropOp52
 70
     0
102
RTVSPost2010Prop53
 90
        2
102
RTVSPost2010PropOp53
 70
     1
102
RTVSPost2010Prop54
  1
strokes_ogs.tif
102
RTVSPost2010PropOp54
 70
     1
102
RTVSPost2010Prop55
280
     0
102
RTVSPost2010PropOp55
 70
     1
102
RTVSPost2010Prop56
140
1.0
102
RTVSPost2010PropOp56
 70
     1
102
RTVSPost2010Prop57
140
1.0
102
RTVSPost2010PropOp57
 70
     1
  0
XRECORD
  5
360
102
{ACAD_REACTORS
330
35F
102
}
330
35F
100
AcDbXrecord
280
     1
102
RTVSPropertyOp0
 70
     1
102
RTVSPropertyOp1
 70
     1
102
RTVSPropertyOp2
 70
     1
102
RTVSPropertyOp3
 70
     1
102
RTVSPropertyOp4
 70
     1
102
RTVSPropertyOp5
 70
     1
102
RTVSPropertyOp6
 70
     1
102
RTVSPropertyOp7
 70
     1
102
RTVSPropertyOp8
 70
     1
102
RTVSPropertyOp9
 70
     1
102
RTVSPropertyOp10
 70
     1
102
RTVSPropertyOp11
 70
     1
102
RTVSPropertyOp12
 70
     1
102
RTVSPropertyOp13
 70
     1
102
RTVSPropertyOp14
 70
     1
102
RTVSPropertyOp15
 70
     1
102
RTVSPropertyOp16
 70
     1
102
RTVSPropertyOp17
 70
     1
102
RTVSPropertyOp18
 70
     1
102
RTVSPropertyOp19
 70
     1
102
RTVSPropertyOp20
 70
     1
102
RTVSPropertyOp21
 70
     1
102
RTVSPropertyOp22
 70
     1
102
RTVSPropertyOp23
 70
     1
102
RTVSPropertyOp24
 70
     1
102
RTVSPropertyOp25
 70
     1
102
RTVSPropertyOp26
 70
     1
102
RTVSPropertyOp27
 70
     1
102
RTVSPropertyOp28
 70
     1
102
RTVSPropertyOp29
 70
     1
102
RTVSPropertyOp30
 70
     1
102
RTVSPropertyOp31
 70
     1
102
RTVSPropertyOp32
 70
     1
102
RTVSPropertyOp33
 70
     1
102
RTVSPropertyOp34
 70
     1
102
RTVSPropertyOp35
 70
     1
102
RTVSPropertyOp36
 70
     1
102
RTVSPropertyOp37
 70
     1
102
RTVSPropertyOp38
 70
     1
102
RTVSPropertyOp39
 70
     1
102
RTVSPropertyOp40
 70
     1
102
RTVSPropertyOp41
 70
     1
102
RTVSPropertyOp42
 70
     1
102
RTVSPropertyOp43
 70
     1
102
RTVSPropertyOp44
 70
     1
102
RTVSPropertyOp45
 70
     1
102
RTVSPropertyOp46
 70
     1
102
RTVSPropertyOp47
 70
     1
102
RTVSPropertyOp48
 70
     1
102
RTVSPropertyOp49
 70
     1
102
RTVSPropertyOp50
 70
     1
102
RTVSPropertyOp51
 70
     0
102
RTVSPropertyOp52
 70
     0
102
RTVSPropertyOp53
 70
     1
102
RTVSPropertyOp54
 70
     1
102
RTVSPropertyOp55
 70
     1
102
RTVSPropertyOp56
 70
     1
102
RTVSPropertyOp57
 70
     1
102
RTVSPost2010Prop28
280
     0
102
RTVSPost2010PropOp28
 70
     1
102
RTVSPost2010Prop29
280
     1
102
RTVSPost2010PropOp29
 70
     1
102
RTVSPost2010Prop30
280
     1
102
RTVSPost2010PropOp30
 70
     1
102
RTVSPost2010Prop31
280
     0
102
RTVSPost2010PropOp31
 70
     1
102
RTVSPost2010Prop32
280
     0
102
RTVSPost2010PropOp32
 70
     1
102
RTVSPost2010Prop33
280
     0
102
RTVSPost2010PropOp33
 70
     1
102
RTVSPost2010Prop34
280
     0
102
RTVSPost2010PropOp34
 70
     1
102
RTVSPost2010Prop35
280
     0
102
RTVSPost2010PropOp35
 70
     1
102
RTVSPost2010Prop36
280
     0
102
RTVSPost2010PropOp36
 70
     1
102
RTVSPost2010Prop37
 90
       50
102
RTVSPost2010PropOp37
 70
     1
102
RTVSPost2010Prop38
140
0.0
102
RTVSPost2010PropOp38
 70
     1
102
RTVSPost2010Prop39
140
1.0
102
RTVSPost2010PropOp39
 70
     1
102
RTVSPost2010Prop40
 90
        0
102
RTVSPost2010PropOp40
 70
     1
102
RTVSPost2010Prop41ColorIndex
 90
       18
102
RTVSPost2010Prop41ColorRGB
 90
        0
102
RTVSPost2010PropOp41
 70
     1
102
RTVSPost2010Prop42
 90
       50
102
RTVSPost2010PropOp42
 70
     1
102
RTVSPost2010Prop43
 90
        3
102
RTVSPost2010PropOp43
 70
     1
102
RTVSPost2010Prop44ColorIndex
 90
        5
102
RTVSPost2010Prop44ColorRGB
 90
      255
102
RTVSPost2010PropOp44
 70
     1
102
RTVSPost2010Prop45
280
     0
102
RTVSPost2010PropOp45
 70
     1
102
RTVSPost2010Prop46
 90
       50
102
RTVSPost2010PropOp46
 70
     1
102
RTVSPost2010Prop47
 90
       50
102
RTVSPost2010PropOp47
 70
     1
102
RTVSPost2010Prop48
 90
       50
102
RTVSPost2010PropOp48
 70
     1
102
RTVSPost2010Prop49
280
     0
102
RTVSPost2010PropOp49
 70
     1
102
RTVSPost2010Prop50
 90
       50
102
RTVSPost2010PropOp50
 70
     1
102
RTVSPost2010Prop51ColorIndex
 90
      256
102
RTVSPost2010Prop51ColorRGB
 90
-16777216
102
RTVSPost2010PropOp51
 70
     0
102
RTVSPost2010Prop52
140
1.0
102
RTVSPost2010PropOp52
 70
     0
102
RTVSPost2010Prop53
 90
        2
102
RTVSPost2010PropOp53
 70
     1
102
RTVSPost2010Prop54
  1
strokes_ogs.tif
102
RTVSPost2010PropOp54
 70
     1
102
RTVSPost2010Prop55
280
     0
102
RTVSPost2010PropOp55
 70
     1
102
RTVSPost2010Prop56
140
1.0
102
RTVSPost2010PropOp56
 70
     1
102
RTVSPost2010Prop57
140
1.0
102
RTVSPost2010PropOp57
 70
     1
  0
XRECORD
  5
362
102
{ACAD_REACTORS
330
361
102
}
330
361
100
AcDbXrecord
280
     1
102
RTVSPropertyOp0
 70
     1
102
RTVSPropertyOp1
 70
     1
102
RTVSPropertyOp2
 70
     1
102
RTVSPropertyOp3
 70
     1
102
RTVSPropertyOp4
 70
     1
102
RTVSPropertyOp5
 70
     1
102
RTVSPropertyOp6
 70
     1
102
RTVSPropertyOp7
 70
     1
102
RTVSPropertyOp8
 70
     1
102
RTVSPropertyOp9
 70
     1
102
RTVSPropertyOp10
 70
     1
102
RTVSPropertyOp11
 70
     1
102
RTVSPropertyOp12
 70
     1
102
RTVSPropertyOp13
 70
     1
102
RTVSPropertyOp14
 70
     1
102
RTVSPropertyOp15
 70
     1
102
RTVSPropertyOp16
 70
     1
102
RTVSPropertyOp17
 70
     1
102
RTVSPropertyOp18
 70
     1
102
RTVSPropertyOp19
 70
     1
102
RTVSPropertyOp20
 70
     1
102
RTVSPropertyOp21
 70
     1
102
RTVSPropertyOp22
 70
     1
102
RTVSPropertyOp23
 70
     1
102
RTVSPropertyOp24
 70
     1
102
RTVSPropertyOp25
 70
     1
102
RTVSPropertyOp26
 70
     1
102
RTVSPropertyOp27
 70
     1
102
RTVSPropertyOp28
 70
     1
102
RTVSPropertyOp29
 70
     1
102
RTVSPropertyOp30
 70
     1
102
RTVSPropertyOp31
 70
     1
102
RTVSPropertyOp32
 70
     1
102
RTVSPropertyOp33
 70
     1
102
RTVSPropertyOp34
 70
     1
102
RTVSPropertyOp35
 70
     1
102
RTVSPropertyOp36
 70
     1
102
RTVSPropertyOp37
 70
     1
102
RTVSPropertyOp38
 70
     1
102
RTVSPropertyOp39
 70
     1
102
RTVSPropertyOp40
 70
     1
102
RTVSPropertyOp41
 70
     1
102
RTVSPropertyOp42
 70
     1
102
RTVSPropertyOp43
 70
     1
102
RTVSPropertyOp44
 70
     1
102
RTVSPropertyOp45
 70
     1
102
RTVSPropertyOp46
 70
     1
102
RTVSPropertyOp47
 70
     1
102
RTVSPropertyOp48
 70
     1
102
RTVSPropertyOp49
 70
     1
102
RTVSPropertyOp50
 70
     1
102
RTVSPropertyOp51
 70
     0
102
RTVSPropertyOp52
 70
     0
102
RTVSPropertyOp53
 70
     1
102
RTVSPropertyOp54
 70
     1
102
RTVSPropertyOp55
 70
     1
102
RTVSPropertyOp56
 70
     1
102
RTVSPropertyOp57
 70
     1
102
RTVSPost2010Prop28
280
     0
102
RTVSPost2010PropOp28
 70
     1
102
RTVSPost2010Prop29
280
     1
102
RTVSPost2010PropOp29
 70
     1
102
RTVSPost2010Prop30
280
     1
102
RTVSPost2010PropOp30
 70
     1
102
RTVSPost2010Prop31
280
     0
102
RTVSPost2010PropOp31
 70
     1
102
RTVSPost2010Prop32
280
     0
102
RTVSPost2010PropOp32
 70
     1
102
RTVSPost2010Prop33
280
     0
102
RTVSPost2010PropOp33
 70
     1
102
RTVSPost2010Prop34
280
     0
102
RTVSPost2010PropOp34
 70
     1
102
RTVSPost2010Prop35
280
     0
102
RTVSPost2010PropOp35
 70
     1
102
RTVSPost2010Prop36
280
     0
102
RTVSPost2010PropOp36
 70
     1
102
RTVSPost2010Prop37
 90
       50
102
RTVSPost2010PropOp37
 70
     1
102
RTVSPost2010Prop38
140
0.0
102
RTVSPost2010PropOp38
 70
     1
102
RTVSPost2010Prop39
140
1.0
102
RTVSPost2010PropOp39
 70
     1
102
RTVSPost2010Prop40
 90
        0
102
RTVSPost2010PropOp40
 70
     1
102
RTVSPost2010Prop41ColorIndex
 90
       18
102
RTVSPost2010Prop41ColorRGB
 90
        0
102
RTVSPost2010PropOp41
 70
     1
102
RTVSPost2010Prop42
 90
       50
102
RTVSPost2010PropOp42
 70
     1
102
RTVSPost2010Prop43
 90
        3
102
RTVSPost2010PropOp43
 70
     1
102
RTVSPost2010Prop44ColorIndex
 90
        5
102
RTVSPost2010Prop44ColorRGB
 90
      255
102
RTVSPost2010PropOp44
 70
     1
102
RTVSPost2010Prop45
280
     0
102
RTVSPost2010PropOp45
 70
     1
102
RTVSPost2010Prop46
 90
       50
102
RTVSPost2010PropOp46
 70
     1
102
RTVSPost2010Prop47
 90
       50
102
RTVSPost2010PropOp47
 70
     1
102
RTVSPost2010Prop48
 90
       50
102
RTVSPost2010PropOp48
 70
     1
102
RTVSPost2010Prop49
280
     0
102
RTVSPost2010PropOp49
 70
     1
102
RTVSPost2010Prop50
 90
       50
102
RTVSPost2010PropOp50
 70
     1
102
RTVSPost2010Prop51ColorIndex
 90
      256
102
RTVSPost2010Prop51ColorRGB
 90
-16777216
102
RTVSPost2010PropOp51
 70
     0
102
RTVSPost2010Prop52
140
1.0
102
RTVSPost2010PropOp52
 70
     0
102
RTVSPost2010Prop53
 90
        2
102
RTVSPost2010PropOp53
 70
     1
102
RTVSPost2010Prop54
  1
strokes_ogs.tif
102
RTVSPost2010PropOp54
 70
     1
102
RTVSPost2010Prop55
280
     0
102
RTVSPost2010PropOp55
 70
     1
102
RTVSPost2010Prop56
140
1.0
102
RTVSPost2010PropOp56
 70
     1
102
RTVSPost2010Prop57
140
1.0
102
RTVSPost2010PropOp57
 70
     1
  0
XRECORD
  5
372
102
{ACAD_REACTORS
330
371
102
}
330
371
100
AcDbXrecord
280
     1
102
RTVSPropertyOp0
 70
     0
102
RTVSPropertyOp1
 70
     0
102
RTVSPropertyOp2
 70
     0
102
RTVSPropertyOp3
 70
     0
102
RTVSPropertyOp4
 70
     0
102
RTVSPropertyOp5
 70
     0
102
RTVSPropertyOp6
 70
     0
102
RTVSPropertyOp7
 70
     0
102
RTVSPropertyOp8
 70
     0
102
RTVSPropertyOp9
 70
     0
102
RTVSPropertyOp10
 70
     0
102
RTVSPropertyOp11
 70
     0
102
RTVSPropertyOp12
 70
     0
102
RTVSPropertyOp13
 70
     0
102
RTVSPropertyOp14
 70
     2
102
RTVSPropertyOp15
 70
     0
102
RTVSPropertyOp16
 70
     0
102
RTVSPropertyOp17
 70
     0
102
RTVSPropertyOp18
 70
     0
102
RTVSPropertyOp19
 70
     0
102
RTVSPropertyOp20
 70
     0
102
RTVSPropertyOp21
 70
     0
102
RTVSPropertyOp22
 70
     0
102
RTVSPropertyOp23
 70
     0
102
RTVSPropertyOp24
 70
     0
102
RTVSPropertyOp25
 70
     0
102
RTVSPropertyOp26
 70
     0
102
RTVSPropertyOp27
 70
     0
102
RTVSPropertyOp28
 70
     0
102
RTVSPropertyOp29
 70
     0
102
RTVSPropertyOp30
 70
     0
102
RTVSPropertyOp31
 70
     0
102
RTVSPropertyOp32
 70
     0
102
RTVSPropertyOp33
 70
     0
102
RTVSPropertyOp34
 70
     0
102
RTVSPropertyOp35
 70
     0
102
RTVSPropertyOp36
 70
     0
102
RTVSPropertyOp37
 70
     0
102
RTVSPropertyOp38
 70
     0
102
RTVSPropertyOp39
 70
     0
102
RTVSPropertyOp40
 70
     0
102
RTVSPropertyOp41
 70
     0
102
RTVSPropertyOp42
 70
     0
102
RTVSPropertyOp43
 70
     0
102
RTVSPropertyOp44
 70
     0
102
RTVSPropertyOp45
 70
     0
102
RTVSPropertyOp46
 70
     0
102
RTVSPropertyOp47
 70
     0
102
RTVSPropertyOp48
 70
     0
102
RTVSPropertyOp49
 70
     0
102
RTVSPropertyOp50
 70
     0
102
RTVSPropertyOp51
 70
     0
102
RTVSPropertyOp52
 70
     0
102
RTVSPropertyOp53
 70
     0
102
RTVSPropertyOp54
 70
     0
102
RTVSPropertyOp55
 70
     0
102
RTVSPropertyOp56
 70
     0
102
RTVSPropertyOp57
 70
     0
102
RTVSPost2010Prop28
280
     0
102
RTVSPost2010PropOp28
 70
     0
102
RTVSPost2010Prop29
280
     1
102
RTVSPost2010PropOp29
 70
     0
102
RTVSPost2010Prop30
280
     1
102
RTVSPost2010PropOp30
 70
     0
102
RTVSPost2010Prop31
280
     0
102
RTVSPost2010PropOp31
 70
     0
102
RTVSPost2010Prop32
280
     0
102
RTVSPost2010PropOp32
 70
     0
102
RTVSPost2010Prop33
280
     0
102
RTVSPost2010PropOp33
 70
     0
102
RTVSPost2010Prop34
280
     0
102
RTVSPost2010PropOp34
 70
     0
102
RTVSPost2010Prop35
280
     0
102
RTVSPost2010PropOp35
 70
     0
102
RTVSPost2010Prop36
280
     0
102
RTVSPost2010PropOp36
 70
     0
102
RTVSPost2010Prop37
 90
       50
102
RTVSPost2010PropOp37
 70
     0
102
RTVSPost2010Prop38
140
0.0
102
RTVSPost2010PropOp38
 70
     0
102
RTVSPost2010Prop39
140
1.0
102
RTVSPost2010PropOp39
 70
     0
102
RTVSPost2010Prop40
 90
        0
102
RTVSPost2010PropOp40
 70
     0
102
RTVSPost2010Prop41ColorIndex
 90
       18
102
RTVSPost2010Prop41ColorRGB
 90
        0
102
RTVSPost2010PropOp41
 70
     0
102
RTVSPost2010Prop42
 90
       50
102
RTVSPost2010PropOp42
 70
     0
102
RTVSPost2010Prop43
 90
        3
102
RTVSPost2010PropOp43
 70
     0
102
RTVSPost2010Prop44ColorIndex
 90
        5
102
RTVSPost2010Prop44ColorRGB
 90
      255
102
RTVSPost2010PropOp44
 70
     0
102
RTVSPost2010Prop45
280
     0
102
RTVSPost2010PropOp45
 70
     0
102
RTVSPost2010Prop46
 90
       50
102
RTVSPost2010PropOp46
 70
     0
102
RTVSPost2010Prop47
 90
       50
102
RTVSPost2010PropOp47
 70
     0
102
RTVSPost2010Prop48
 90
       50
102
RTVSPost2010PropOp48
 70
     0
102
RTVSPost2010Prop49
280
     0
102
RTVSPost2010PropOp49
 70
     0
102
RTVSPost2010Prop50
 90
       50
102
RTVSPost2010PropOp50
 70
     0
102
RTVSPost2010Prop51ColorIndex
 90
      256
102
RTVSPost2010Prop51ColorRGB
 90
-16777216
102
RTVSPost2010PropOp51
 70
     0
102
RTVSPost2010Prop52
140
1.0
102
RTVSPost2010PropOp52
 70
     0
102
RTVSPost2010Prop53
 90
        2
102
RTVSPost2010PropOp53
 70
     0
102
RTVSPost2010Prop54
  1
strokes_ogs.tif
102
RTVSPost2010PropOp54
 70
     0
102
RTVSPost2010Prop55
280
     0
102
RTVSPost2010PropOp55
 70
     0
102
RTVSPost2010Prop56
140
1.0
102
RTVSPost2010PropOp56
 70
     0
102
RTVSPost2010Prop57
140
1.0
102
RTVSPost2010PropOp57
 70
     0
  0
XRECORD
  5
36A
102
{ACAD_REACTORS
330
369
102
}
330
369
100
AcDbXrecord
280
     1
102
RTVSPropertyOp0
 70
     1
102
RTVSPropertyOp1
 70
     1
102
RTVSPropertyOp2
 70
     1
102
RTVSPropertyOp3
 70
     1
102
RTVSPropertyOp4
 70
     1
102
RTVSPropertyOp5
 70
     1
102
RTVSPropertyOp6
 70
     1
102
RTVSPropertyOp7
 70
     1
102
RTVSPropertyOp8
 70
     1
102
RTVSPropertyOp9
 70
     1
102
RTVSPropertyOp10
 70
     1
102
RTVSPropertyOp11
 70
     1
102
RTVSPropertyOp12
 70
     1
102
RTVSPropertyOp13
 70
     1
102
RTVSPropertyOp14
 70
     1
102
RTVSPropertyOp15
 70
     1
102
RTVSPropertyOp16
 70
     1
102
RTVSPropertyOp17
 70
     1
102
RTVSPropertyOp18
 70
     1
102
RTVSPropertyOp19
 70
     1
102
RTVSPropertyOp20
 70
     1
102
RTVSPropertyOp21
 70
     1
102
RTVSPropertyOp22
 70
     1
102
RTVSPropertyOp23
 70
     1
102
RTVSPropertyOp24
 70
     1
102
RTVSPropertyOp25
 70
     1
102
RTVSPropertyOp26
 70
     1
102
RTVSPropertyOp27
 70
     1
102
RTVSPropertyOp28
 70
     1
102
RTVSPropertyOp29
 70
     1
102
RTVSPropertyOp30
 70
     1
102
RTVSPropertyOp31
 70
     1
102
RTVSPropertyOp32
 70
     1
102
RTVSPropertyOp33
 70
     1
102
RTVSPropertyOp34
 70
     1
102
RTVSPropertyOp35
 70
     1
102
RTVSPropertyOp36
 70
     1
102
RTVSPropertyOp37
 70
     1
102
RTVSPropertyOp38
 70
     1
102
RTVSPropertyOp39
 70
     1
102
RTVSPropertyOp40
 70
     1
102
RTVSPropertyOp41
 70
     1
102
RTVSPropertyOp42
 70
     1
102
RTVSPropertyOp43
 70
     1
102
RTVSPropertyOp44
 70
     1
102
RTVSPropertyOp45
 70
     1
102
RTVSPropertyOp46
 70
     1
102
RTVSPropertyOp47
 70
     1
102
RTVSPropertyOp48
 70
     1
102
RTVSPropertyOp49
 70
     1
102
RTVSPropertyOp50
 70
     1
102
RTVSPropertyOp51
 70
     0
102
RTVSPropertyOp52
 70
     0
102
RTVSPropertyOp53
 70
     1
102
RTVSPropertyOp54
 70
     1
102
RTVSPropertyOp55
 70
     1
102
RTVSPropertyOp56
 70
     1
102
RTVSPropertyOp57
 70
     1
102
RTVSPost2010Prop28
280
     0
102
RTVSPost2010PropOp28
 70
     1
102
RTVSPost2010Prop29
280
     1
102
RTVSPost2010PropOp29
 70
     1
102
RTVSPost2010Prop30
280
     1
102
RTVSPost2010PropOp30
 70
     1
102
RTVSPost2010Prop31
280
     0
102
RTVSPost2010PropOp31
 70
     1
102
RTVSPost2010Prop32
280
     0
102
RTVSPost2010PropOp32
 70
     1
102
RTVSPost2010Prop33
280
     0
102
RTVSPost2010PropOp33
 70
     1
102
RTVSPost2010Prop34
280
     0
102
RTVSPost2010PropOp34
 70
     1
102
RTVSPost2010Prop35
280
     0
102
RTVSPost2010PropOp35
 70
     1
102
RTVSPost2010Prop36
280
     0
102
RTVSPost2010PropOp36
 70
     1
102
RTVSPost2010Prop37
 90
       50
102
RTVSPost2010PropOp37
 70
     1
102
RTVSPost2010Prop38
140
0.0
102
RTVSPost2010PropOp38
 70
     1
102
RTVSPost2010Prop39
140
1.0
102
RTVSPost2010PropOp39
 70
     1
102
RTVSPost2010Prop40
 90
        0
102
RTVSPost2010PropOp40
 70
     1
102
RTVSPost2010Prop41ColorIndex
 90
       18
102
RTVSPost2010Prop41ColorRGB
 90
        0
102
RTVSPost2010PropOp41
 70
     1
102
RTVSPost2010Prop42
 90
       50
102
RTVSPost2010PropOp42
 70
     1
102
RTVSPost2010Prop43
 90
        3
102
RTVSPost2010PropOp43
 70
     1
102
RTVSPost2010Prop44ColorIndex
 90
        5
102
RTVSPost2010Prop44ColorRGB
 90
      255
102
RTVSPost2010PropOp44
 70
     1
102
RTVSPost2010Prop45
280
     0
102
RTVSPost2010PropOp45
 70
     1
102
RTVSPost2010Prop46
 90
       50
102
RTVSPost2010PropOp46
 70
     1
102
RTVSPost2010Prop47
 90
       50
102
RTVSPost2010PropOp47
 70
     1
102
RTVSPost2010Prop48
 90
       50
102
RTVSPost2010PropOp48
 70
     1
102
RTVSPost2010Prop49
280
     0
102
RTVSPost2010PropOp49
 70
     1
102
RTVSPost2010Prop50
 90
       50
102
RTVSPost2010PropOp50
 70
     1
102
RTVSPost2010Prop51ColorIndex
 90
      256
102
RTVSPost2010Prop51ColorRGB
 90
-16777216
102
RTVSPost2010PropOp51
 70
     0
102
RTVSPost2010Prop52
140
1.0
102
RTVSPost2010PropOp52
 70
     0
102
RTVSPost2010Prop53
 90
        2
102
RTVSPost2010PropOp53
 70
     1
102
RTVSPost2010Prop54
  1
strokes_ogs.tif
102
RTVSPost2010PropOp54
 70
     1
102
RTVSPost2010Prop55
280
     0
102
RTVSPost2010PropOp55
 70
     1
102
RTVSPost2010Prop56
140
1.0
102
RTVSPost2010PropOp56
 70
     1
102
RTVSPost2010Prop57
140
1.0
102
RTVSPost2010PropOp57
 70
     1
  0
XRECORD
  5
34E
102
{ACAD_REACTORS
330
34D
102
}
330
34D
100
AcDbXrecord
280
     1
102
RTVSPropertyOp0
 70
     1
102
RTVSPropertyOp1
 70
     1
102
RTVSPropertyOp2
 70
     1
102
RTVSPropertyOp3
 70
     1
102
RTVSPropertyOp4
 70
     1
102
RTVSPropertyOp5
 70
     1
102
RTVSPropertyOp6
 70
     1
102
RTVSPropertyOp7
 70
     1
102
RTVSPropertyOp8
 70
     1
102
RTVSPropertyOp9
 70
     1
102
RTVSPropertyOp10
 70
     1
102
RTVSPropertyOp11
 70
     1
102
RTVSPropertyOp12
 70
     1
102
RTVSPropertyOp13
 70
     1
102
RTVSPropertyOp14
 70
     1
102
RTVSPropertyOp15
 70
     1
102
RTVSPropertyOp16
 70
     1
102
RTVSPropertyOp17
 70
     1
102
RTVSPropertyOp18
 70
     1
102
RTVSPropertyOp19
 70
     1
102
RTVSPropertyOp20
 70
     1
102
RTVSPropertyOp21
 70
     1
102
RTVSPropertyOp22
 70
     1
102
RTVSPropertyOp23
 70
     1
102
RTVSPropertyOp24
 70
     1
102
RTVSPropertyOp25
 70
     1
102
RTVSPropertyOp26
 70
     1
102
RTVSPropertyOp27
 70
     1
102
RTVSPropertyOp28
 70
     1
102
RTVSPropertyOp29
 70
     1
102
RTVSPropertyOp30
 70
     1
102
RTVSPropertyOp31
 70
     1
102
RTVSPropertyOp32
 70
     1
102
RTVSPropertyOp33
 70
     1
102
RTVSPropertyOp34
 70
     1
102
RTVSPropertyOp35
 70
     1
102
RTVSPropertyOp36
 70
     1
102
RTVSPropertyOp37
 70
     1
102
RTVSPropertyOp38
 70
     1
102
RTVSPropertyOp39
 70
     1
102
RTVSPropertyOp40
 70
     1
102
RTVSPropertyOp41
 70
     1
102
RTVSPropertyOp42
 70
     1
102
RTVSPropertyOp43
 70
     1
102
RTVSPropertyOp44
 70
     1
102
RTVSPropertyOp45
 70
     1
102
RTVSPropertyOp46
 70
     1
102
RTVSPropertyOp47
 70
     1
102
RTVSPropertyOp48
 70
     1
102
RTVSPropertyOp49
 70
     1
102
RTVSPropertyOp50
 70
     1
102
RTVSPropertyOp51
 70
     0
102
RTVSPropertyOp52
 70
     0
102
RTVSPropertyOp53
 70
     1
102
RTVSPropertyOp54
 70
     1
102
RTVSPropertyOp55
 70
     1
102
RTVSPropertyOp56
 70
     1
102
RTVSPropertyOp57
 70
     1
102
RTVSPost2010Prop28
280
     0
102
RTVSPost2010PropOp28
 70
     1
102
RTVSPost2010Prop29
280
     1
102
RTVSPost2010PropOp29
 70
     1
102
RTVSPost2010Prop30
280
     1
102
RTVSPost2010PropOp30
 70
     1
102
RTVSPost2010Prop31
280
     0
102
RTVSPost2010PropOp31
 70
     1
102
RTVSPost2010Prop32
280
     0
102
RTVSPost2010PropOp32
 70
     1
102
RTVSPost2010Prop33
280
     0
102
RTVSPost2010PropOp33
 70
     1
102
RTVSPost2010Prop34
280
     0
102
RTVSPost2010PropOp34
 70
     1
102
RTVSPost2010Prop35
280
     0
102
RTVSPost2010PropOp35
 70
     1
102
RTVSPost2010Prop36
280
     0
102
RTVSPost2010PropOp36
 70
     1
102
RTVSPost2010Prop37
 90
       50
102
RTVSPost2010PropOp37
 70
     1
102
RTVSPost2010Prop38
140
0.0
102
RTVSPost2010PropOp38
 70
     1
102
RTVSPost2010Prop39
140
1.0
102
RTVSPost2010PropOp39
 70
     1
102
RTVSPost2010Prop40
 90
        0
102
RTVSPost2010PropOp40
 70
     1
102
RTVSPost2010Prop41ColorIndex
 90
       18
102
RTVSPost2010Prop41ColorRGB
 90
        0
102
RTVSPost2010PropOp41
 70
     1
102
RTVSPost2010Prop42
 90
       50
102
RTVSPost2010PropOp42
 70
     1
102
RTVSPost2010Prop43
 90
        3
102
RTVSPost2010PropOp43
 70
     1
102
RTVSPost2010Prop44ColorIndex
 90
        5
102
RTVSPost2010Prop44ColorRGB
 90
      255
102
RTVSPost2010PropOp44
 70
     1
102
RTVSPost2010Prop45
280
     0
102
RTVSPost2010PropOp45
 70
     1
102
RTVSPost2010Prop46
 90
       50
102
RTVSPost2010PropOp46
 70
     1
102
RTVSPost2010Prop47
 90
       50
102
RTVSPost2010PropOp47
 70
     1
102
RTVSPost2010Prop48
 90
       50
102
RTVSPost2010PropOp48
 70
     1
102
RTVSPost2010Prop49
280
     0
102
RTVSPost2010PropOp49
 70
     1
102
RTVSPost2010Prop50
 90
       50
102
RTVSPost2010PropOp50
 70
     1
102
RTVSPost2010Prop51ColorIndex
 90
      256
102
RTVSPost2010Prop51ColorRGB
 90
-16777216
102
RTVSPost2010PropOp51
 70
     0
102
RTVSPost2010Prop52
140
1.0
102
RTVSPost2010PropOp52
 70
     0
102
RTVSPost2010Prop53
 90
        2
102
RTVSPost2010PropOp53
 70
     1
102
RTVSPost2010Prop54
  1
strokes_ogs.tif
102
RTVSPost2010PropOp54
 70
     1
102
RTVSPost2010Prop55
280
     0
102
RTVSPost2010PropOp55
 70
     1
102
RTVSPost2010Prop56
140
1.0
102
RTVSPost2010PropOp56
 70
     1
102
RTVSPost2010Prop57
140
1.0
102
RTVSPost2010PropOp57
 70
     1
  0
XRECORD
  5
350
102
{ACAD_REACTORS
330
34F
102
}
330
34F
100
AcDbXrecord
280
     1
102
RTVSPropertyOp0
 70
     1
102
RTVSPropertyOp1
 70
     1
102
RTVSPropertyOp2
 70
     1
102
RTVSPropertyOp3
 70
     1
102
RTVSPropertyOp4
 70
     1
102
RTVSPropertyOp5
 70
     1
102
RTVSPropertyOp6
 70
     1
102
RTVSPropertyOp7
 70
     1
102
RTVSPropertyOp8
 70
     1
102
RTVSPropertyOp9
 70
     1
102
RTVSPropertyOp10
 70
     1
102
RTVSPropertyOp11
 70
     1
102
RTVSPropertyOp12
 70
     1
102
RTVSPropertyOp13
 70
     1
102
RTVSPropertyOp14
 70
     1
102
RTVSPropertyOp15
 70
     1
102
RTVSPropertyOp16
 70
     1
102
RTVSPropertyOp17
 70
     1
102
RTVSPropertyOp18
 70
     1
102
RTVSPropertyOp19
 70
     1
102
RTVSPropertyOp20
 70
     1
102
RTVSPropertyOp21
 70
     1
102
RTVSPropertyOp22
 70
     1
102
RTVSPropertyOp23
 70
     1
102
RTVSPropertyOp24
 70
     1
102
RTVSPropertyOp25
 70
     1
102
RTVSPropertyOp26
 70
     1
102
RTVSPropertyOp27
 70
     1
102
RTVSPropertyOp28
 70
     1
102
RTVSPropertyOp29
 70
     1
102
RTVSPropertyOp30
 70
     1
102
RTVSPropertyOp31
 70
     1
102
RTVSPropertyOp32
 70
     1
102
RTVSPropertyOp33
 70
     1
102
RTVSPropertyOp34
 70
     1
102
RTVSPropertyOp35
 70
     1
102
RTVSPropertyOp36
 70
     1
102
RTVSPropertyOp37
 70
     1
102
RTVSPropertyOp38
 70
     1
102
RTVSPropertyOp39
 70
     1
102
RTVSPropertyOp40
 70
     1
102
RTVSPropertyOp41
 70
     1
102
RTVSPropertyOp42
 70
     1
102
RTVSPropertyOp43
 70
     1
102
RTVSPropertyOp44
 70
     1
102
RTVSPropertyOp45
 70
     1
102
RTVSPropertyOp46
 70
     1
102
RTVSPropertyOp47
 70
     1
102
RTVSPropertyOp48
 70
     1
102
RTVSPropertyOp49
 70
     1
102
RTVSPropertyOp50
 70
     1
102
RTVSPropertyOp51
 70
     0
102
RTVSPropertyOp52
 70
     0
102
RTVSPropertyOp53
 70
     1
102
RTVSPropertyOp54
 70
     1
102
RTVSPropertyOp55
 70
     1
102
RTVSPropertyOp56
 70
     1
102
RTVSPropertyOp57
 70
     1
102
RTVSPost2010Prop28
280
     0
102
RTVSPost2010PropOp28
 70
     1
102
RTVSPost2010Prop29
280
     1
102
RTVSPost2010PropOp29
 70
     1
102
RTVSPost2010Prop30
280
     1
102
RTVSPost2010PropOp30
 70
     1
102
RTVSPost2010Prop31
280
     0
102
RTVSPost2010PropOp31
 70
     1
102
RTVSPost2010Prop32
280
     0
102
RTVSPost2010PropOp32
 70
     1
102
RTVSPost2010Prop33
280
     0
102
RTVSPost2010PropOp33
 70
     1
102
RTVSPost2010Prop34
280
     0
102
RTVSPost2010PropOp34
 70
     1
102
RTVSPost2010Prop35
280
     0
102
RTVSPost2010PropOp35
 70
     1
102
RTVSPost2010Prop36
280
     0
102
RTVSPost2010PropOp36
 70
     1
102
RTVSPost2010Prop37
 90
       50
102
RTVSPost2010PropOp37
 70
     1
102
RTVSPost2010Prop38
140
0.0
102
RTVSPost2010PropOp38
 70
     1
102
RTVSPost2010Prop39
140
1.0
102
RTVSPost2010PropOp39
 70
     1
102
RTVSPost2010Prop40
 90
        0
102
RTVSPost2010PropOp40
 70
     1
102
RTVSPost2010Prop41ColorIndex
 90
       18
102
RTVSPost2010Prop41ColorRGB
 90
        0
102
RTVSPost2010PropOp41
 70
     1
102
RTVSPost2010Prop42
 90
       50
102
RTVSPost2010PropOp42
 70
     1
102
RTVSPost2010Prop43
 90
        3
102
RTVSPost2010PropOp43
 70
     1
102
RTVSPost2010Prop44ColorIndex
 90
        5
102
RTVSPost2010Prop44ColorRGB
 90
      255
102
RTVSPost2010PropOp44
 70
     1
102
RTVSPost2010Prop45
280
     0
102
RTVSPost2010PropOp45
 70
     1
102
RTVSPost2010Prop46
 90
       50
102
RTVSPost2010PropOp46
 70
     1
102
RTVSPost2010Prop47
 90
       50
102
RTVSPost2010PropOp47
 70
     1
102
RTVSPost2010Prop48
 90
       50
102
RTVSPost2010PropOp48
 70
     1
102
RTVSPost2010Prop49
280
     0
102
RTVSPost2010PropOp49
 70
     1
102
RTVSPost2010Prop50
 90
       50
102
RTVSPost2010PropOp50
 70
     1
102
RTVSPost2010Prop51ColorIndex
 90
      256
102
RTVSPost2010Prop51ColorRGB
 90
-16777216
102
RTVSPost2010PropOp51
 70
     0
102
RTVSPost2010Prop52
140
1.0
102
RTVSPost2010PropOp52
 70
     0
102
RTVSPost2010Prop53
 90
        2
102
RTVSPost2010PropOp53
 70
     1
102
RTVSPost2010Prop54
  1
strokes_ogs.tif
102
RTVSPost2010PropOp54
 70
     1
102
RTVSPost2010Prop55
280
     0
102
RTVSPost2010PropOp55
 70
     1
102
RTVSPost2010Prop56
140
1.0
102
RTVSPost2010PropOp56
 70
     1
102
RTVSPost2010Prop57
140
1.0
102
RTVSPost2010PropOp57
 70
     1
  0
XRECORD
  5
352
102
{ACAD_REACTORS
330
351
102
}
330
351
100
AcDbXrecord
280
     1
102
RTVSPropertyOp0
 70
     1
102
RTVSPropertyOp1
 70
     1
102
RTVSPropertyOp2
 70
     1
102
RTVSPropertyOp3
 70
     1
102
RTVSPropertyOp4
 70
     1
102
RTVSPropertyOp5
 70
     1
102
RTVSPropertyOp6
 70
     1
102
RTVSPropertyOp7
 70
     1
102
RTVSPropertyOp8
 70
     1
102
RTVSPropertyOp9
 70
     1
102
RTVSPropertyOp10
 70
     1
102
RTVSPropertyOp11
 70
     1
102
RTVSPropertyOp12
 70
     1
102
RTVSPropertyOp13
 70
     1
102
RTVSPropertyOp14
 70
     1
102
RTVSPropertyOp15
 70
     1
102
RTVSPropertyOp16
 70
     1
102
RTVSPropertyOp17
 70
     1
102
RTVSPropertyOp18
 70
     1
102
RTVSPropertyOp19
 70
     1
102
RTVSPropertyOp20
 70
     1
102
RTVSPropertyOp21
 70
     1
102
RTVSPropertyOp22
 70
     1
102
RTVSPropertyOp23
 70
     1
102
RTVSPropertyOp24
 70
     1
102
RTVSPropertyOp25
 70
     1
102
RTVSPropertyOp26
 70
     1
102
RTVSPropertyOp27
 70
     1
102
RTVSPropertyOp28
 70
     1
102
RTVSPropertyOp29
 70
     1
102
RTVSPropertyOp30
 70
     1
102
RTVSPropertyOp31
 70
     1
102
RTVSPropertyOp32
 70
     1
102
RTVSPropertyOp33
 70
     1
102
RTVSPropertyOp34
 70
     1
102
RTVSPropertyOp35
 70
     1
102
RTVSPropertyOp36
 70
     1
102
RTVSPropertyOp37
 70
     1
102
RTVSPropertyOp38
 70
     1
102
RTVSPropertyOp39
 70
     1
102
RTVSPropertyOp40
 70
     1
102
RTVSPropertyOp41
 70
     1
102
RTVSPropertyOp42
 70
     1
102
RTVSPropertyOp43
 70
     1
102
RTVSPropertyOp44
 70
     1
102
RTVSPropertyOp45
 70
     1
102
RTVSPropertyOp46
 70
     1
102
RTVSPropertyOp47
 70
     1
102
RTVSPropertyOp48
 70
     1
102
RTVSPropertyOp49
 70
     1
102
RTVSPropertyOp50
 70
     1
102
RTVSPropertyOp51
 70
     0
102
RTVSPropertyOp52
 70
     0
102
RTVSPropertyOp53
 70
     1
102
RTVSPropertyOp54
 70
     1
102
RTVSPropertyOp55
 70
     1
102
RTVSPropertyOp56
 70
     1
102
RTVSPropertyOp57
 70
     1
102
RTVSPost2010Prop28
280
     0
102
RTVSPost2010PropOp28
 70
     1
102
RTVSPost2010Prop29
280
     1
102
RTVSPost2010PropOp29
 70
     1
102
RTVSPost2010Prop30
280
     1
102
RTVSPost2010PropOp30
 70
     1
102
RTVSPost2010Prop31
280
     0
102
RTVSPost2010PropOp31
 70
     1
102
RTVSPost2010Prop32
280
     0
102
RTVSPost2010PropOp32
 70
     1
102
RTVSPost2010Prop33
280
     0
102
RTVSPost2010PropOp33
 70
     1
102
RTVSPost2010Prop34
280
     0
102
RTVSPost2010PropOp34
 70
     1
102
RTVSPost2010Prop35
280
     0
102
RTVSPost2010PropOp35
 70
     1
102
RTVSPost2010Prop36
280
     0
102
RTVSPost2010PropOp36
 70
     1
102
RTVSPost2010Prop37
 90
       50
102
RTVSPost2010PropOp37
 70
     1
102
RTVSPost2010Prop38
140
0.0
102
RTVSPost2010PropOp38
 70
     1
102
RTVSPost2010Prop39
140
1.0
102
RTVSPost2010PropOp39
 70
     1
102
RTVSPost2010Prop40
 90
        0
102
RTVSPost2010PropOp40
 70
     1
102
RTVSPost2010Prop41ColorIndex
 90
       18
102
RTVSPost2010Prop41ColorRGB
 90
        0
102
RTVSPost2010PropOp41
 70
     1
102
RTVSPost2010Prop42
 90
       50
102
RTVSPost2010PropOp42
 70
     1
102
RTVSPost2010Prop43
 90
        3
102
RTVSPost2010PropOp43
 70
     1
102
RTVSPost2010Prop44ColorIndex
 90
        5
102
RTVSPost2010Prop44ColorRGB
 90
      255
102
RTVSPost2010PropOp44
 70
     1
102
RTVSPost2010Prop45
280
     0
102
RTVSPost2010PropOp45
 70
     1
102
RTVSPost2010Prop46
 90
       50
102
RTVSPost2010PropOp46
 70
     1
102
RTVSPost2010Prop47
 90
       50
102
RTVSPost2010PropOp47
 70
     1
102
RTVSPost2010Prop48
 90
       50
102
RTVSPost2010PropOp48
 70
     1
102
RTVSPost2010Prop49
280
     0
102
RTVSPost2010PropOp49
 70
     1
102
RTVSPost2010Prop50
 90
       50
102
RTVSPost2010PropOp50
 70
     1
102
RTVSPost2010Prop51ColorIndex
 90
      256
102
RTVSPost2010Prop51ColorRGB
 90
-16777216
102
RTVSPost2010PropOp51
 70
     0
102
RTVSPost2010Prop52
140
1.0
102
RTVSPost2010PropOp52
 70
     0
102
RTVSPost2010Prop53
 90
        2
102
RTVSPost2010PropOp53
 70
     1
102
RTVSPost2010Prop54
  1
strokes_ogs.tif
102
RTVSPost2010PropOp54
 70
     1
102
RTVSPost2010Prop55
280
     0
102
RTVSPost2010PropOp55
 70
     1
102
RTVSPost2010Prop56
140
1.0
102
RTVSPost2010PropOp56
 70
     1
102
RTVSPost2010Prop57
140
1.0
102
RTVSPost2010PropOp57
 70
     1
  0
XRECORD
  5
354
102
{ACAD_REACTORS
330
353
102
}
330
353
100
AcDbXrecord
280
     1
102
RTVSPropertyOp0
 70
     1
102
RTVSPropertyOp1
 70
     1
102
RTVSPropertyOp2
 70
     1
102
RTVSPropertyOp3
 70
     1
102
RTVSPropertyOp4
 70
     1
102
RTVSPropertyOp5
 70
     1
102
RTVSPropertyOp6
 70
     1
102
RTVSPropertyOp7
 70
     1
102
RTVSPropertyOp8
 70
     1
102
RTVSPropertyOp9
 70
     1
102
RTVSPropertyOp10
 70
     1
102
RTVSPropertyOp11
 70
     1
102
RTVSPropertyOp12
 70
     1
102
RTVSPropertyOp13
 70
     1
102
RTVSPropertyOp14
 70
     1
102
RTVSPropertyOp15
 70
     1
102
RTVSPropertyOp16
 70
     1
102
RTVSPropertyOp17
 70
     1
102
RTVSPropertyOp18
 70
     1
102
RTVSPropertyOp19
 70
     1
102
RTVSPropertyOp20
 70
     1
102
RTVSPropertyOp21
 70
     1
102
RTVSPropertyOp22
 70
     1
102
RTVSPropertyOp23
 70
     1
102
RTVSPropertyOp24
 70
     1
102
RTVSPropertyOp25
 70
     1
102
RTVSPropertyOp26
 70
     1
102
RTVSPropertyOp27
 70
     1
102
RTVSPropertyOp28
 70
     1
102
RTVSPropertyOp29
 70
     1
102
RTVSPropertyOp30
 70
     1
102
RTVSPropertyOp31
 70
     1
102
RTVSPropertyOp32
 70
     1
102
RTVSPropertyOp33
 70
     1
102
RTVSPropertyOp34
 70
     1
102
RTVSPropertyOp35
 70
     1
102
RTVSPropertyOp36
 70
     1
102
RTVSPropertyOp37
 70
     1
102
RTVSPropertyOp38
 70
     1
102
RTVSPropertyOp39
 70
     1
102
RTVSPropertyOp40
 70
     1
102
RTVSPropertyOp41
 70
     1
102
RTVSPropertyOp42
 70
     1
102
RTVSPropertyOp43
 70
     1
102
RTVSPropertyOp44
 70
     1
102
RTVSPropertyOp45
 70
     1
102
RTVSPropertyOp46
 70
     1
102
RTVSPropertyOp47
 70
     1
102
RTVSPropertyOp48
 70
     1
102
RTVSPropertyOp49
 70
     1
102
RTVSPropertyOp50
 70
     1
102
RTVSPropertyOp51
 70
     0
102
RTVSPropertyOp52
 70
     0
102
RTVSPropertyOp53
 70
     1
102
RTVSPropertyOp54
 70
     1
102
RTVSPropertyOp55
 70
     1
102
RTVSPropertyOp56
 70
     1
102
RTVSPropertyOp57
 70
     1
102
RTVSPost2010Prop28
280
     0
102
RTVSPost2010PropOp28
 70
     1
102
RTVSPost2010Prop29
280
     1
102
RTVSPost2010PropOp29
 70
     1
102
RTVSPost2010Prop30
280
     1
102
RTVSPost2010PropOp30
 70
     1
102
RTVSPost2010Prop31
280
     0
102
RTVSPost2010PropOp31
 70
     1
102
RTVSPost2010Prop32
280
     0
102
RTVSPost2010PropOp32
 70
     1
102
RTVSPost2010Prop33
280
     0
102
RTVSPost2010PropOp33
 70
     1
102
RTVSPost2010Prop34
280
     0
102
RTVSPost2010PropOp34
 70
     1
102
RTVSPost2010Prop35
280
     0
102
RTVSPost2010PropOp35
 70
     1
102
RTVSPost2010Prop36
280
     0
102
RTVSPost2010PropOp36
 70
     1
102
RTVSPost2010Prop37
 90
       50
102
RTVSPost2010PropOp37
 70
     1
102
RTVSPost2010Prop38
140
0.0
102
RTVSPost2010PropOp38
 70
     1
102
RTVSPost2010Prop39
140
1.0
102
RTVSPost2010PropOp39
 70
     1
102
RTVSPost2010Prop40
 90
        0
102
RTVSPost2010PropOp40
 70
     1
102
RTVSPost2010Prop41ColorIndex
 90
       18
102
RTVSPost2010Prop41ColorRGB
 90
        0
102
RTVSPost2010PropOp41
 70
     1
102
RTVSPost2010Prop42
 90
       50
102
RTVSPost2010PropOp42
 70
     1
102
RTVSPost2010Prop43
 90
        3
102
RTVSPost2010PropOp43
 70
     1
102
RTVSPost2010Prop44ColorIndex
 90
        5
102
RTVSPost2010Prop44ColorRGB
 90
      255
102
RTVSPost2010PropOp44
 70
     1
102
RTVSPost2010Prop45
280
     0
102
RTVSPost2010PropOp45
 70
     1
102
RTVSPost2010Prop46
 90
       50
102
RTVSPost2010PropOp46
 70
     1
102
RTVSPost2010Prop47
 90
       50
102
RTVSPost2010PropOp47
 70
     1
102
RTVSPost2010Prop48
 90
       50
102
RTVSPost2010PropOp48
 70
     1
102
RTVSPost2010Prop49
280
     0
102
RTVSPost2010PropOp49
 70
     1
102
RTVSPost2010Prop50
 90
       50
102
RTVSPost2010PropOp50
 70
     1
102
RTVSPost2010Prop51ColorIndex
 90
      256
102
RTVSPost2010Prop51ColorRGB
 90
-16777216
102
RTVSPost2010PropOp51
 70
     0
102
RTVSPost2010Prop52
140
1.0
102
RTVSPost2010PropOp52
 70
     0
102
RTVSPost2010Prop53
 90
        2
102
RTVSPost2010PropOp53
 70
     1
102
RTVSPost2010Prop54
  1
strokes_ogs.tif
102
RTVSPost2010PropOp54
 70
     1
102
RTVSPost2010Prop55
280
     0
102
RTVSPost2010PropOp55
 70
     1
102
RTVSPost2010Prop56
140
1.0
102
RTVSPost2010PropOp56
 70
     1
102
RTVSPost2010Prop57
140
1.0
102
RTVSPost2010PropOp57
 70
     1
  0
XRECORD
  5
35A
102
{ACAD_REACTORS
330
359
102
}
330
359
100
AcDbXrecord
280
     1
102
RTVSPropertyOp0
 70
     1
102
RTVSPropertyOp1
 70
     1
102
RTVSPropertyOp2
 70
     1
102
RTVSPropertyOp3
 70
     1
102
RTVSPropertyOp4
 70
     1
102
RTVSPropertyOp5
 70
     1
102
RTVSPropertyOp6
 70
     1
102
RTVSPropertyOp7
 70
     1
102
RTVSPropertyOp8
 70
     1
102
RTVSPropertyOp9
 70
     1
102
RTVSPropertyOp10
 70
     1
102
RTVSPropertyOp11
 70
     1
102
RTVSPropertyOp12
 70
     1
102
RTVSPropertyOp13
 70
     1
102
RTVSPropertyOp14
 70
     1
102
RTVSPropertyOp15
 70
     1
102
RTVSPropertyOp16
 70
     1
102
RTVSPropertyOp17
 70
     1
102
RTVSPropertyOp18
 70
     1
102
RTVSPropertyOp19
 70
     1
102
RTVSPropertyOp20
 70
     1
102
RTVSPropertyOp21
 70
     1
102
RTVSPropertyOp22
 70
     1
102
RTVSPropertyOp23
 70
     1
102
RTVSPropertyOp24
 70
     1
102
RTVSPropertyOp25
 70
     1
102
RTVSPropertyOp26
 70
     1
102
RTVSPropertyOp27
 70
     1
102
RTVSPropertyOp28
 70
     1
102
RTVSPropertyOp29
 70
     1
102
RTVSPropertyOp30
 70
     1
102
RTVSPropertyOp31
 70
     1
102
RTVSPropertyOp32
 70
     1
102
RTVSPropertyOp33
 70
     1
102
RTVSPropertyOp34
 70
     1
102
RTVSPropertyOp35
 70
     1
102
RTVSPropertyOp36
 70
     1
102
RTVSPropertyOp37
 70
     1
102
RTVSPropertyOp38
 70
     1
102
RTVSPropertyOp39
 70
     1
102
RTVSPropertyOp40
 70
     1
102
RTVSPropertyOp41
 70
     1
102
RTVSPropertyOp42
 70
     1
102
RTVSPropertyOp43
 70
     1
102
RTVSPropertyOp44
 70
     1
102
RTVSPropertyOp45
 70
     1
102
RTVSPropertyOp46
 70
     1
102
RTVSPropertyOp47
 70
     1
102
RTVSPropertyOp48
 70
     1
102
RTVSPropertyOp49
 70
     1
102
RTVSPropertyOp50
 70
     1
102
RTVSPropertyOp51
 70
     0
102
RTVSPropertyOp52
 70
     0
102
RTVSPropertyOp53
 70
     1
102
RTVSPropertyOp54
 70
     1
102
RTVSPropertyOp55
 70
     1
102
RTVSPropertyOp56
 70
     1
102
RTVSPropertyOp57
 70
     1
102
RTVSPost2010Prop28
280
     0
102
RTVSPost2010PropOp28
 70
     1
102
RTVSPost2010Prop29
280
     1
102
RTVSPost2010PropOp29
 70
     1
102
RTVSPost2010Prop30
280
     1
102
RTVSPost2010PropOp30
 70
     1
102
RTVSPost2010Prop31
280
     0
102
RTVSPost2010PropOp31
 70
     1
102
RTVSPost2010Prop32
280
     0
102
RTVSPost2010PropOp32
 70
     1
102
RTVSPost2010Prop33
280
     0
102
RTVSPost2010PropOp33
 70
     1
102
RTVSPost2010Prop34
280
     0
102
RTVSPost2010PropOp34
 70
     1
102
RTVSPost2010Prop35
280
     0
102
RTVSPost2010PropOp35
 70
     1
102
RTVSPost2010Prop36
280
     0
102
RTVSPost2010PropOp36
 70
     1
102
RTVSPost2010Prop37
 90
       50
102
RTVSPost2010PropOp37
 70
     1
102
RTVSPost2010Prop38
140
0.0
102
RTVSPost2010PropOp38
 70
     1
102
RTVSPost2010Prop39
140
1.0
102
RTVSPost2010PropOp39
 70
     1
102
RTVSPost2010Prop40
 90
        0
102
RTVSPost2010PropOp40
 70
     1
102
RTVSPost2010Prop41ColorIndex
 90
       18
102
RTVSPost2010Prop41ColorRGB
 90
        0
102
RTVSPost2010PropOp41
 70
     1
102
RTVSPost2010Prop42
 90
       50
102
RTVSPost2010PropOp42
 70
     1
102
RTVSPost2010Prop43
 90
        3
102
RTVSPost2010PropOp43
 70
     1
102
RTVSPost2010Prop44ColorIndex
 90
        5
102
RTVSPost2010Prop44ColorRGB
 90
      255
102
RTVSPost2010PropOp44
 70
     1
102
RTVSPost2010Prop45
280
     0
102
RTVSPost2010PropOp45
 70
     1
102
RTVSPost2010Prop46
 90
       50
102
RTVSPost2010PropOp46
 70
     1
102
RTVSPost2010Prop47
 90
       50
102
RTVSPost2010PropOp47
 70
     1
102
RTVSPost2010Prop48
 90
       50
102
RTVSPost2010PropOp48
 70
     1
102
RTVSPost2010Prop49
280
     0
102
RTVSPost2010PropOp49
 70
     1
102
RTVSPost2010Prop50
 90
       50
102
RTVSPost2010PropOp50
 70
     1
102
RTVSPost2010Prop51ColorIndex
 90
      256
102
RTVSPost2010Prop51ColorRGB
 90
-16777216
102
RTVSPost2010PropOp51
 70
     0
102
RTVSPost2010Prop52
140
1.0
102
RTVSPost2010PropOp52
 70
     0
102
RTVSPost2010Prop53
 90
        2
102
RTVSPost2010PropOp53
 70
     1
102
RTVSPost2010Prop54
  1
strokes_ogs.tif
102
RTVSPost2010PropOp54
 70
     1
102
RTVSPost2010Prop55
280
     0
102
RTVSPost2010PropOp55
 70
     1
102
RTVSPost2010Prop56
140
1.0
102
RTVSPost2010PropOp56
 70
     1
102
RTVSPost2010Prop57
140
1.0
102
RTVSPost2010PropOp57
 70
     1
  0
XRECORD
  5
36E
102
{ACAD_REACTORS
330
36D
102
}
330
36D
100
AcDbXrecord
280
     1
102
RTVSPropertyOp0
 70
     0
102
RTVSPropertyOp1
 70
     0
102
RTVSPropertyOp2
 70
     0
102
RTVSPropertyOp3
 70
     0
102
RTVSPropertyOp4
 70
     0
102
RTVSPropertyOp5
 70
     0
102
RTVSPropertyOp6
 70
     0
102
RTVSPropertyOp7
 70
     0
102
RTVSPropertyOp8
 70
     0
102
RTVSPropertyOp9
 70
     0
102
RTVSPropertyOp10
 70
     0
102
RTVSPropertyOp11
 70
     0
102
RTVSPropertyOp12
 70
     0
102
RTVSPropertyOp13
 70
     0
102
RTVSPropertyOp14
 70
     2
102
RTVSPropertyOp15
 70
     0
102
RTVSPropertyOp16
 70
     0
102
RTVSPropertyOp17
 70
     0
102
RTVSPropertyOp18
 70
     0
102
RTVSPropertyOp19
 70
     0
102
RTVSPropertyOp20
 70
     0
102
RTVSPropertyOp21
 70
     0
102
RTVSPropertyOp22
 70
     0
102
RTVSPropertyOp23
 70
     0
102
RTVSPropertyOp24
 70
     0
102
RTVSPropertyOp25
 70
     0
102
RTVSPropertyOp26
 70
     0
102
RTVSPropertyOp27
 70
     0
102
RTVSPropertyOp28
 70
     0
102
RTVSPropertyOp29
 70
     0
102
RTVSPropertyOp30
 70
     0
102
RTVSPropertyOp31
 70
     0
102
RTVSPropertyOp32
 70
     0
102
RTVSPropertyOp33
 70
     0
102
RTVSPropertyOp34
 70
     0
102
RTVSPropertyOp35
 70
     0
102
RTVSPropertyOp36
 70
     0
102
RTVSPropertyOp37
 70
     0
102
RTVSPropertyOp38
 70
     0
102
RTVSPropertyOp39
 70
     0
102
RTVSPropertyOp40
 70
     0
102
RTVSPropertyOp41
 70
     0
102
RTVSPropertyOp42
 70
     0
102
RTVSPropertyOp43
 70
     0
102
RTVSPropertyOp44
 70
     0
102
RTVSPropertyOp45
 70
     0
102
RTVSPropertyOp46
 70
     0
102
RTVSPropertyOp47
 70
     0
102
RTVSPropertyOp48
 70
     0
102
RTVSPropertyOp49
 70
     0
102
RTVSPropertyOp50
 70
     0
102
RTVSPropertyOp51
 70
     0
102
RTVSPropertyOp52
 70
     0
102
RTVSPropertyOp53
 70
     0
102
RTVSPropertyOp54
 70
     0
102
RTVSPropertyOp55
 70
     0
102
RTVSPropertyOp56
 70
     0
102
RTVSPropertyOp57
 70
     0
102
RTVSPost2010Prop28
280
     0
102
RTVSPost2010PropOp28
 70
     0
102
RTVSPost2010Prop29
280
     1
102
RTVSPost2010PropOp29
 70
     0
102
RTVSPost2010Prop30
280
     1
102
RTVSPost2010PropOp30
 70
     0
102
RTVSPost2010Prop31
280
     0
102
RTVSPost2010PropOp31
 70
     0
102
RTVSPost2010Prop32
280
     0
102
RTVSPost2010PropOp32
 70
     0
102
RTVSPost2010Prop33
280
     0
102
RTVSPost2010PropOp33
 70
     0
102
RTVSPost2010Prop34
280
     0
102
RTVSPost2010PropOp34
 70
     0
102
RTVSPost2010Prop35
280
     0
102
RTVSPost2010PropOp35
 70
     0
102
RTVSPost2010Prop36
280
     0
102
RTVSPost2010PropOp36
 70
     0
102
RTVSPost2010Prop37
 90
       50
102
RTVSPost2010PropOp37
 70
     0
102
RTVSPost2010Prop38
140
0.0
102
RTVSPost2010PropOp38
 70
     0
102
RTVSPost2010Prop39
140
1.0
102
RTVSPost2010PropOp39
 70
     0
102
RTVSPost2010Prop40
 90
        0
102
RTVSPost2010PropOp40
 70
     0
102
RTVSPost2010Prop41ColorIndex
 90
       18
102
RTVSPost2010Prop41ColorRGB
 90
        0
102
RTVSPost2010PropOp41
 70
     0
102
RTVSPost2010Prop42
 90
       50
102
RTVSPost2010PropOp42
 70
     0
102
RTVSPost2010Prop43
 90
        3
102
RTVSPost2010PropOp43
 70
     0
102
RTVSPost2010Prop44ColorIndex
 90
        5
102
RTVSPost2010Prop44ColorRGB
 90
      255
102
RTVSPost2010PropOp44
 70
     0
102
RTVSPost2010Prop45
280
     0
102
RTVSPost2010PropOp45
 70
     0
102
RTVSPost2010Prop46
 90
       50
102
RTVSPost2010PropOp46
 70
     0
102
RTVSPost2010Prop47
 90
       50
102
RTVSPost2010PropOp47
 70
     0
102
RTVSPost2010Prop48
 90
       50
102
RTVSPost2010PropOp48
 70
     0
102
RTVSPost2010Prop49
280
     0
102
RTVSPost2010PropOp49
 70
     0
102
RTVSPost2010Prop50
 90
       50
102
RTVSPost2010PropOp50
 70
     0
102
RTVSPost2010Prop51ColorIndex
 90
      256
102
RTVSPost2010Prop51ColorRGB
 90
-16777216
102
RTVSPost2010PropOp51
 70
     0
102
RTVSPost2010Prop52
140
1.0
102
RTVSPost2010PropOp52
 70
     0
102
RTVSPost2010Prop53
 90
        2
102
RTVSPost2010PropOp53
 70
     0
102
RTVSPost2010Prop54
  1
strokes_ogs.tif
102
RTVSPost2010PropOp54
 70
     0
102
RTVSPost2010Prop55
280
     0
102
RTVSPost2010PropOp55
 70
     0
102
RTVSPost2010Prop56
140
1.0
102
RTVSPost2010PropOp56
 70
     0
102
RTVSPost2010Prop57
140
1.0
102
RTVSPost2010PropOp57
 70
     0
  0
XRECORD
  5
368
102
{ACAD_REACTORS
330
367
102
}
330
367
100
AcDbXrecord
280
     1
102
RTVSPropertyOp0
 70
     1
102
RTVSPropertyOp1
 70
     1
102
RTVSPropertyOp2
 70
     1
102
RTVSPropertyOp3
 70
     1
102
RTVSPropertyOp4
 70
     1
102
RTVSPropertyOp5
 70
     1
102
RTVSPropertyOp6
 70
     1
102
RTVSPropertyOp7
 70
     1
102
RTVSPropertyOp8
 70
     1
102
RTVSPropertyOp9
 70
     1
102
RTVSPropertyOp10
 70
     1
102
RTVSPropertyOp11
 70
     1
102
RTVSPropertyOp12
 70
     1
102
RTVSPropertyOp13
 70
     1
102
RTVSPropertyOp14
 70
     1
102
RTVSPropertyOp15
 70
     1
102
RTVSPropertyOp16
 70
     1
102
RTVSPropertyOp17
 70
     1
102
RTVSPropertyOp18
 70
     1
102
RTVSPropertyOp19
 70
     1
102
RTVSPropertyOp20
 70
     1
102
RTVSPropertyOp21
 70
     1
102
RTVSPropertyOp22
 70
     1
102
RTVSPropertyOp23
 70
     1
102
RTVSPropertyOp24
 70
     1
102
RTVSPropertyOp25
 70
     1
102
RTVSPropertyOp26
 70
     1
102
RTVSPropertyOp27
 70
     1
102
RTVSPropertyOp28
 70
     1
102
RTVSPropertyOp29
 70
     1
102
RTVSPropertyOp30
 70
     1
102
RTVSPropertyOp31
 70
     1
102
RTVSPropertyOp32
 70
     1
102
RTVSPropertyOp33
 70
     1
102
RTVSPropertyOp34
 70
     1
102
RTVSPropertyOp35
 70
     1
102
RTVSPropertyOp36
 70
     1
102
RTVSPropertyOp37
 70
     1
102
RTVSPropertyOp38
 70
     1
102
RTVSPropertyOp39
 70
     1
102
RTVSPropertyOp40
 70
     1
102
RTVSPropertyOp41
 70
     1
102
RTVSPropertyOp42
 70
     1
102
RTVSPropertyOp43
 70
     1
102
RTVSPropertyOp44
 70
     1
102
RTVSPropertyOp45
 70
     1
102
RTVSPropertyOp46
 70
     1
102
RTVSPropertyOp47
 70
     1
102
RTVSPropertyOp48
 70
     1
102
RTVSPropertyOp49
 70
     1
102
RTVSPropertyOp50
 70
     1
102
RTVSPropertyOp51
 70
     0
102
RTVSPropertyOp52
 70
     0
102
RTVSPropertyOp53
 70
     1
102
RTVSPropertyOp54
 70
     1
102
RTVSPropertyOp55
 70
     1
102
RTVSPropertyOp56
 70
     1
102
RTVSPropertyOp57
 70
     1
102
RTVSPost2010Prop28
280
     0
102
RTVSPost2010PropOp28
 70
     1
102
RTVSPost2010Prop29
280
     1
102
RTVSPost2010PropOp29
 70
     1
102
RTVSPost2010Prop30
280
     1
102
RTVSPost2010PropOp30
 70
     1
102
RTVSPost2010Prop31
280
     0
102
RTVSPost2010PropOp31
 70
     1
102
RTVSPost2010Prop32
280
     0
102
RTVSPost2010PropOp32
 70
     1
102
RTVSPost2010Prop33
280
     0
102
RTVSPost2010PropOp33
 70
     1
102
RTVSPost2010Prop34
280
     0
102
RTVSPost2010PropOp34
 70
     1
102
RTVSPost2010Prop35
280
     0
102
RTVSPost2010PropOp35
 70
     1
102
RTVSPost2010Prop36
280
     0
102
RTVSPost2010PropOp36
 70
     1
102
RTVSPost2010Prop37
 90
       50
102
RTVSPost2010PropOp37
 70
     1
102
RTVSPost2010Prop38
140
0.0
102
RTVSPost2010PropOp38
 70
     1
102
RTVSPost2010Prop39
140
1.0
102
RTVSPost2010PropOp39
 70
     1
102
RTVSPost2010Prop40
 90
        0
102
RTVSPost2010PropOp40
 70
     1
102
RTVSPost2010Prop41ColorIndex
 90
       18
102
RTVSPost2010Prop41ColorRGB
 90
        0
102
RTVSPost2010PropOp41
 70
     1
102
RTVSPost2010Prop42
 90
       50
102
RTVSPost2010PropOp42
 70
     1
102
RTVSPost2010Prop43
 90
        3
102
RTVSPost2010PropOp43
 70
     1
102
RTVSPost2010Prop44ColorIndex
 90
        5
102
RTVSPost2010Prop44ColorRGB
 90
      255
102
RTVSPost2010PropOp44
 70
     1
102
RTVSPost2010Prop45
280
     0
102
RTVSPost2010PropOp45
 70
     1
102
RTVSPost2010Prop46
 90
       50
102
RTVSPost2010PropOp46
 70
     1
102
RTVSPost2010Prop47
 90
       50
102
RTVSPost2010PropOp47
 70
     1
102
RTVSPost2010Prop48
 90
       50
102
RTVSPost2010PropOp48
 70
     1
102
RTVSPost2010Prop49
280
     0
102
RTVSPost2010PropOp49
 70
     1
102
RTVSPost2010Prop50
 90
       50
102
RTVSPost2010PropOp50
 70
     1
102
RTVSPost2010Prop51ColorIndex
 90
      256
102
RTVSPost2010Prop51ColorRGB
 90
-16777216
102
RTVSPost2010PropOp51
 70
     0
102
RTVSPost2010Prop52
140
1.0
102
RTVSPost2010PropOp52
 70
     0
102
RTVSPost2010Prop53
 90
        2
102
RTVSPost2010PropOp53
 70
     1
102
RTVSPost2010Prop54
  1
strokes_ogs.tif
102
RTVSPost2010PropOp54
 70
     1
102
RTVSPost2010Prop55
280
     0
102
RTVSPost2010PropOp55
 70
     1
102
RTVSPost2010Prop56
140
1.0
102
RTVSPost2010PropOp56
 70
     1
102
RTVSPost2010Prop57
140
1.0
102
RTVSPost2010PropOp57
 70
     1
  0
XRECORD
  5
370
102
{ACAD_REACTORS
330
36F
102
}
330
36F
100
AcDbXrecord
280
     1
102
RTVSPropertyOp0
 70
     0
102
RTVSPropertyOp1
 70
     0
102
RTVSPropertyOp2
 70
     0
102
RTVSPropertyOp3
 70
     0
102
RTVSPropertyOp4
 70
     0
102
RTVSPropertyOp5
 70
     0
102
RTVSPropertyOp6
 70
     0
102
RTVSPropertyOp7
 70
     0
102
RTVSPropertyOp8
 70
     0
102
RTVSPropertyOp9
 70
     0
102
RTVSPropertyOp10
 70
     0
102
RTVSPropertyOp11
 70
     0
102
RTVSPropertyOp12
 70
     0
102
RTVSPropertyOp13
 70
     0
102
RTVSPropertyOp14
 70
     2
102
RTVSPropertyOp15
 70
     0
102
RTVSPropertyOp16
 70
     0
102
RTVSPropertyOp17
 70
     0
102
RTVSPropertyOp18
 70
     0
102
RTVSPropertyOp19
 70
     0
102
RTVSPropertyOp20
 70
     0
102
RTVSPropertyOp21
 70
     0
102
RTVSPropertyOp22
 70
     0
102
RTVSPropertyOp23
 70
     0
102
RTVSPropertyOp24
 70
     0
102
RTVSPropertyOp25
 70
     0
102
RTVSPropertyOp26
 70
     0
102
RTVSPropertyOp27
 70
     0
102
RTVSPropertyOp28
 70
     0
102
RTVSPropertyOp29
 70
     0
102
RTVSPropertyOp30
 70
     0
102
RTVSPropertyOp31
 70
     0
102
RTVSPropertyOp32
 70
     0
102
RTVSPropertyOp33
 70
     0
102
RTVSPropertyOp34
 70
     0
102
RTVSPropertyOp35
 70
     0
102
RTVSPropertyOp36
 70
     0
102
RTVSPropertyOp37
 70
     0
102
RTVSPropertyOp38
 70
     0
102
RTVSPropertyOp39
 70
     0
102
RTVSPropertyOp40
 70
     0
102
RTVSPropertyOp41
 70
     0
102
RTVSPropertyOp42
 70
     0
102
RTVSPropertyOp43
 70
     0
102
RTVSPropertyOp44
 70
     0
102
RTVSPropertyOp45
 70
     0
102
RTVSPropertyOp46
 70
     0
102
RTVSPropertyOp47
 70
     0
102
RTVSPropertyOp48
 70
     0
102
RTVSPropertyOp49
 70
     0
102
RTVSPropertyOp50
 70
     0
102
RTVSPropertyOp51
 70
     0
102
RTVSPropertyOp52
 70
     0
102
RTVSPropertyOp53
 70
     0
102
RTVSPropertyOp54
 70
     0
102
RTVSPropertyOp55
 70
     0
102
RTVSPropertyOp56
 70
     0
102
RTVSPropertyOp57
 70
     0
102
RTVSPost2010Prop28
280
     0
102
RTVSPost2010PropOp28
 70
     0
102
RTVSPost2010Prop29
280
     1
102
RTVSPost2010PropOp29
 70
     0
102
RTVSPost2010Prop30
280
     1
102
RTVSPost2010PropOp30
 70
     0
102
RTVSPost2010Prop31
280
     0
102
RTVSPost2010PropOp31
 70
     0
102
RTVSPost2010Prop32
280
     0
102
RTVSPost2010PropOp32
 70
     0
102
RTVSPost2010Prop33
280
     0
102
RTVSPost2010PropOp33
 70
     0
102
RTVSPost2010Prop34
280
     0
102
RTVSPost2010PropOp34
 70
     0
102
RTVSPost2010Prop35
280
     0
102
RTVSPost2010PropOp35
 70
     0
102
RTVSPost2010Prop36
280
     0
102
RTVSPost2010PropOp36
 70
     0
102
RTVSPost2010Prop37
 90
       50
102
RTVSPost2010PropOp37
 70
     0
102
RTVSPost2010Prop38
140
0.0
102
RTVSPost2010PropOp38
 70
     0
102
RTVSPost2010Prop39
140
1.0
102
RTVSPost2010PropOp39
 70
     0
102
RTVSPost2010Prop40
 90
        0
102
RTVSPost2010PropOp40
 70
     0
102
RTVSPost2010Prop41ColorIndex
 90
       18
102
RTVSPost2010Prop41ColorRGB
 90
        0
102
RTVSPost2010PropOp41
 70
     0
102
RTVSPost2010Prop42
 90
       50
102
RTVSPost2010PropOp42
 70
     0
102
RTVSPost2010Prop43
 90
        3
102
RTVSPost2010PropOp43
 70
     0
102
RTVSPost2010Prop44ColorIndex
 90
        5
102
RTVSPost2010Prop44ColorRGB
 90
      255
102
RTVSPost2010PropOp44
 70
     0
102
RTVSPost2010Prop45
280
     0
102
RTVSPost2010PropOp45
 70
     0
102
RTVSPost2010Prop46
 90
       50
102
RTVSPost2010PropOp46
 70
     0
102
RTVSPost2010Prop47
 90
       50
102
RTVSPost2010PropOp47
 70
     0
102
RTVSPost2010Prop48
 90
       50
102
RTVSPost2010PropOp48
 70
     0
102
RTVSPost2010Prop49
280
     0
102
RTVSPost2010PropOp49
 70
     0
102
RTVSPost2010Prop50
 90
       50
102
RTVSPost2010PropOp50
 70
     0
102
RTVSPost2010Prop51ColorIndex
 90
      256
102
RTVSPost2010Prop51ColorRGB
 90
-16777216
102
RTVSPost2010PropOp51
 70
     0
102
RTVSPost2010Prop52
140
1.0
102
RTVSPost2010PropOp52
 70
     0
102
RTVSPost2010Prop53
 90
        2
102
RTVSPost2010PropOp53
 70
     0
102
RTVSPost2010Prop54
  1
strokes_ogs.tif
102
RTVSPost2010PropOp54
 70
     0
102
RTVSPost2010Prop55
280
     0
102
RTVSPost2010PropOp55
 70
     0
102
RTVSPost2010Prop56
140
1.0
102
RTVSPost2010PropOp56
 70
     0
102
RTVSPost2010Prop57
140
1.0
102
RTVSPost2010PropOp57
 70
     0
  0
XRECORD
  5
35E
102
{ACAD_REACTORS
330
35D
102
}
330
35D
100
AcDbXrecord
280
     1
102
RTVSPropertyOp0
 70
     1
102
RTVSPropertyOp1
 70
     1
102
RTVSPropertyOp2
 70
     1
102
RTVSPropertyOp3
 70
     1
102
RTVSPropertyOp4
 70
     1
102
RTVSPropertyOp5
 70
     1
102
RTVSPropertyOp6
 70
     1
102
RTVSPropertyOp7
 70
     1
102
RTVSPropertyOp8
 70
     1
102
RTVSPropertyOp9
 70
     1
102
RTVSPropertyOp10
 70
     1
102
RTVSPropertyOp11
 70
     1
102
RTVSPropertyOp12
 70
     1
102
RTVSPropertyOp13
 70
     1
102
RTVSPropertyOp14
 70
     1
102
RTVSPropertyOp15
 70
     1
102
RTVSPropertyOp16
 70
     1
102
RTVSPropertyOp17
 70
     1
102
RTVSPropertyOp18
 70
     1
102
RTVSPropertyOp19
 70
     1
102
RTVSPropertyOp20
 70
     1
102
RTVSPropertyOp21
 70
     1
102
RTVSPropertyOp22
 70
     1
102
RTVSPropertyOp23
 70
     1
102
RTVSPropertyOp24
 70
     1
102
RTVSPropertyOp25
 70
     1
102
RTVSPropertyOp26
 70
     1
102
RTVSPropertyOp27
 70
     1
102
RTVSPropertyOp28
 70
     1
102
RTVSPropertyOp29
 70
     1
102
RTVSPropertyOp30
 70
     1
102
RTVSPropertyOp31
 70
     1
102
RTVSPropertyOp32
 70
     1
102
RTVSPropertyOp33
 70
     1
102
RTVSPropertyOp34
 70
     1
102
RTVSPropertyOp35
 70
     1
102
RTVSPropertyOp36
 70
     1
102
RTVSPropertyOp37
 70
     1
102
RTVSPropertyOp38
 70
     1
102
RTVSPropertyOp39
 70
     1
102
RTVSPropertyOp40
 70
     1
102
RTVSPropertyOp41
 70
     1
102
RTVSPropertyOp42
 70
     1
102
RTVSPropertyOp43
 70
     1
102
RTVSPropertyOp44
 70
     1
102
RTVSPropertyOp45
 70
     1
102
RTVSPropertyOp46
 70
     1
102
RTVSPropertyOp47
 70
     1
102
RTVSPropertyOp48
 70
     1
102
RTVSPropertyOp49
 70
     1
102
RTVSPropertyOp50
 70
     1
102
RTVSPropertyOp51
 70
     0
102
RTVSPropertyOp52
 70
     0
102
RTVSPropertyOp53
 70
     1
102
RTVSPropertyOp54
 70
     1
102
RTVSPropertyOp55
 70
     1
102
RTVSPropertyOp56
 70
     1
102
RTVSPropertyOp57
 70
     1
102
RTVSPost2010Prop28
280
     0
102
RTVSPost2010PropOp28
 70
     1
102
RTVSPost2010Prop29
280
     1
102
RTVSPost2010PropOp29
 70
     1
102
RTVSPost2010Prop30
280
     1
102
RTVSPost2010PropOp30
 70
     1
102
RTVSPost2010Prop31
280
     0
102
RTVSPost2010PropOp31
 70
     1
102
RTVSPost2010Prop32
280
     0
102
RTVSPost2010PropOp32
 70
     1
102
RTVSPost2010Prop33
280
     0
102
RTVSPost2010PropOp33
 70
     1
102
RTVSPost2010Prop34
280
     0
102
RTVSPost2010PropOp34
 70
     1
102
RTVSPost2010Prop35
280
     0
102
RTVSPost2010PropOp35
 70
     1
102
RTVSPost2010Prop36
280
     0
102
RTVSPost2010PropOp36
 70
     1
102
RTVSPost2010Prop37
 90
       50
102
RTVSPost2010PropOp37
 70
     1
102
RTVSPost2010Prop38
140
0.0
102
RTVSPost2010PropOp38
 70
     1
102
RTVSPost2010Prop39
140
1.0
102
RTVSPost2010PropOp39
 70
     1
102
RTVSPost2010Prop40
 90
        0
102
RTVSPost2010PropOp40
 70
     1
102
RTVSPost2010Prop41ColorIndex
 90
       18
102
RTVSPost2010Prop41ColorRGB
 90
        0
102
RTVSPost2010PropOp41
 70
     1
102
RTVSPost2010Prop42
 90
       50
102
RTVSPost2010PropOp42
 70
     1
102
RTVSPost2010Prop43
 90
        3
102
RTVSPost2010PropOp43
 70
     1
102
RTVSPost2010Prop44ColorIndex
 90
        5
102
RTVSPost2010Prop44ColorRGB
 90
      255
102
RTVSPost2010PropOp44
 70
     1
102
RTVSPost2010Prop45
280
     0
102
RTVSPost2010PropOp45
 70
     1
102
RTVSPost2010Prop46
 90
       50
102
RTVSPost2010PropOp46
 70
     1
102
RTVSPost2010Prop47
 90
       50
102
RTVSPost2010PropOp47
 70
     1
102
RTVSPost2010Prop48
 90
       50
102
RTVSPost2010PropOp48
 70
     1
102
RTVSPost2010Prop49
280
     0
102
RTVSPost2010PropOp49
 70
     1
102
RTVSPost2010Prop50
 90
       50
102
RTVSPost2010PropOp50
 70
     1
102
RTVSPost2010Prop51ColorIndex
 90
      256
102
RTVSPost2010Prop51ColorRGB
 90
-16777216
102
RTVSPost2010PropOp51
 70
     0
102
RTVSPost2010Prop52
140
1.0
102
RTVSPost2010PropOp52
 70
     0
102
RTVSPost2010Prop53
 90
        2
102
RTVSPost2010PropOp53
 70
     1
102
RTVSPost2010Prop54
  1
strokes_ogs.tif
102
RTVSPost2010PropOp54
 70
     1
102
RTVSPost2010Prop55
280
     0
102
RTVSPost2010PropOp55
 70
     1
102
RTVSPost2010Prop56
140
1.0
102
RTVSPost2010PropOp56
 70
     1
102
RTVSPost2010Prop57
140
1.0
102
RTVSPost2010PropOp57
 70
     1
  0
XRECORD
  5
37C
102
{ACAD_REACTORS
330
37B
102
}
330
37B
100
AcDbXrecord
280
     1
102
RTVSPropertyOp0
 70
     1
102
RTVSPropertyOp1
 70
     1
102
RTVSPropertyOp2
 70
     1
102
RTVSPropertyOp3
 70
     1
102
RTVSPropertyOp4
 70
     1
102
RTVSPropertyOp5
 70
     1
102
RTVSPropertyOp6
 70
     1
102
RTVSPropertyOp7
 70
     1
102
RTVSPropertyOp8
 70
     1
102
RTVSPropertyOp9
 70
     1
102
RTVSPropertyOp10
 70
     1
102
RTVSPropertyOp11
 70
     1
102
RTVSPropertyOp12
 70
     1
102
RTVSPropertyOp13
 70
     1
102
RTVSPropertyOp14
 70
     1
102
RTVSPropertyOp15
 70
     1
102
RTVSPropertyOp16
 70
     1
102
RTVSPropertyOp17
 70
     1
102
RTVSPropertyOp18
 70
     1
102
RTVSPropertyOp19
 70
     1
102
RTVSPropertyOp20
 70
     1
102
RTVSPropertyOp21
 70
     1
102
RTVSPropertyOp22
 70
     1
102
RTVSPropertyOp23
 70
     1
102
RTVSPropertyOp24
 70
     1
102
RTVSPropertyOp25
 70
     1
102
RTVSPropertyOp26
 70
     1
102
RTVSPropertyOp27
 70
     1
102
RTVSPropertyOp28
 70
     1
102
RTVSPropertyOp29
 70
     1
102
RTVSPropertyOp30
 70
     1
102
RTVSPropertyOp31
 70
     1
102
RTVSPropertyOp32
 70
     1
102
RTVSPropertyOp33
 70
     1
102
RTVSPropertyOp34
 70
     1
102
RTVSPropertyOp35
 70
     1
102
RTVSPropertyOp36
 70
     1
102
RTVSPropertyOp37
 70
     1
102
RTVSPropertyOp38
 70
     1
102
RTVSPropertyOp39
 70
     1
102
RTVSPropertyOp40
 70
     1
102
RTVSPropertyOp41
 70
     1
102
RTVSPropertyOp42
 70
     1
102
RTVSPropertyOp43
 70
     1
102
RTVSPropertyOp44
 70
     1
102
RTVSPropertyOp45
 70
     1
102
RTVSPropertyOp46
 70
     1
102
RTVSPropertyOp47
 70
     1
102
RTVSPropertyOp48
 70
     1
102
RTVSPropertyOp49
 70
     1
102
RTVSPropertyOp50
 70
     1
102
RTVSPropertyOp51
 70
     0
102
RTVSPropertyOp52
 70
     0
102
RTVSPropertyOp53
 70
     1
102
RTVSPropertyOp54
 70
     1
102
RTVSPropertyOp55
 70
     1
102
RTVSPropertyOp56
 70
     1
102
RTVSPropertyOp57
 70
     1
102
RTVSPost2010Prop28
280
     0
102
RTVSPost2010PropOp28
 70
     1
102
RTVSPost2010Prop29
280
     1
102
RTVSPost2010PropOp29
 70
     1
102
RTVSPost2010Prop30
280
     1
102
RTVSPost2010PropOp30
 70
     1
102
RTVSPost2010Prop31
280
     0
102
RTVSPost2010PropOp31
 70
     1
102
RTVSPost2010Prop32
280
     0
102
RTVSPost2010PropOp32
 70
     1
102
RTVSPost2010Prop33
280
     0
102
RTVSPost2010PropOp33
 70
     1
102
RTVSPost2010Prop34
280
     0
102
RTVSPost2010PropOp34
 70
     1
102
RTVSPost2010Prop35
280
     0
102
RTVSPost2010PropOp35
 70
     1
102
RTVSPost2010Prop36
280
     0
102
RTVSPost2010PropOp36
 70
     1
102
RTVSPost2010Prop37
 90
       50
102
RTVSPost2010PropOp37
 70
     1
102
RTVSPost2010Prop38
140
0.0
102
RTVSPost2010PropOp38
 70
     1
102
RTVSPost2010Prop39
140
1.0
102
RTVSPost2010PropOp39
 70
     1
102
RTVSPost2010Prop40
 90
        0
102
RTVSPost2010PropOp40
 70
     1
102
RTVSPost2010Prop41ColorIndex
 90
       18
102
RTVSPost2010Prop41ColorRGB
 90
        0
102
RTVSPost2010PropOp41
 70
     1
102
RTVSPost2010Prop42
 90
       50
102
RTVSPost2010PropOp42
 70
     1
102
RTVSPost2010Prop43
 90
        3
102
RTVSPost2010PropOp43
 70
     1
102
RTVSPost2010Prop44ColorIndex
 90
        5
102
RTVSPost2010Prop44ColorRGB
 90
      255
102
RTVSPost2010PropOp44
 70
     1
102
RTVSPost2010Prop45
280
     0
102
RTVSPost2010PropOp45
 70
     1
102
RTVSPost2010Prop46
 90
       50
102
RTVSPost2010PropOp46
 70
     1
102
RTVSPost2010Prop47
 90
       50
102
RTVSPost2010PropOp47
 70
     1
102
RTVSPost2010Prop48
 90
       50
102
RTVSPost2010PropOp48
 70
     1
102
RTVSPost2010Prop49
280
     0
102
RTVSPost2010PropOp49
 70
     1
102
RTVSPost2010Prop50
 90
       50
102
RTVSPost2010PropOp50
 70
     1
102
RTVSPost2010Prop51ColorIndex
 90
      256
102
RTVSPost2010Prop51ColorRGB
 90
-16777216
102
RTVSPost2010PropOp51
 70
     0
102
RTVSPost2010Prop52
140
1.0
102
RTVSPost2010PropOp52
 70
     0
102
RTVSPost2010Prop53
 90
        2
102
RTVSPost2010PropOp53
 70
     1
102
RTVSPost2010Prop54
  1
strokes_ogs.tif
102
RTVSPost2010PropOp54
 70
     1
102
RTVSPost2010Prop55
280
     0
102
RTVSPost2010PropOp55
 70
     1
102
RTVSPost2010Prop56
140
1.0
102
RTVSPost2010PropOp56
 70
     1
102
RTVSPost2010Prop57
140
1.0
102
RTVSPost2010PropOp57
 70
     1
  0
XRECORD
  5
37A
102
{ACAD_REACTORS
330
379
102
}
330
379
100
AcDbXrecord
280
     1
102
RTVSPropertyOp0
 70
     1
102
RTVSPropertyOp1
 70
     1
102
RTVSPropertyOp2
 70
     1
102
RTVSPropertyOp3
 70
     1
102
RTVSPropertyOp4
 70
     1
102
RTVSPropertyOp5
 70
     1
102
RTVSPropertyOp6
 70
     1
102
RTVSPropertyOp7
 70
     1
102
RTVSPropertyOp8
 70
     1
102
RTVSPropertyOp9
 70
     1
102
RTVSPropertyOp10
 70
     1
102
RTVSPropertyOp11
 70
     1
102
RTVSPropertyOp12
 70
     1
102
RTVSPropertyOp13
 70
     1
102
RTVSPropertyOp14
 70
     1
102
RTVSPropertyOp15
 70
     1
102
RTVSPropertyOp16
 70
     1
102
RTVSPropertyOp17
 70
     1
102
RTVSPropertyOp18
 70
     1
102
RTVSPropertyOp19
 70
     1
102
RTVSPropertyOp20
 70
     1
102
RTVSPropertyOp21
 70
     1
102
RTVSPropertyOp22
 70
     1
102
RTVSPropertyOp23
 70
     1
102
RTVSPropertyOp24
 70
     1
102
RTVSPropertyOp25
 70
     1
102
RTVSPropertyOp26
 70
     1
102
RTVSPropertyOp27
 70
     1
102
RTVSPropertyOp28
 70
     1
102
RTVSPropertyOp29
 70
     1
102
RTVSPropertyOp30
 70
     1
102
RTVSPropertyOp31
 70
     1
102
RTVSPropertyOp32
 70
     1
102
RTVSPropertyOp33
 70
     1
102
RTVSPropertyOp34
 70
     1
102
RTVSPropertyOp35
 70
     1
102
RTVSPropertyOp36
 70
     1
102
RTVSPropertyOp37
 70
     1
102
RTVSPropertyOp38
 70
     1
102
RTVSPropertyOp39
 70
     1
102
RTVSPropertyOp40
 70
     1
102
RTVSPropertyOp41
 70
     1
102
RTVSPropertyOp42
 70
     1
102
RTVSPropertyOp43
 70
     1
102
RTVSPropertyOp44
 70
     1
102
RTVSPropertyOp45
 70
     1
102
RTVSPropertyOp46
 70
     1
102
RTVSPropertyOp47
 70
     1
102
RTVSPropertyOp48
 70
     1
102
RTVSPropertyOp49
 70
     1
102
RTVSPropertyOp50
 70
     1
102
RTVSPropertyOp51
 70
     0
102
RTVSPropertyOp52
 70
     0
102
RTVSPropertyOp53
 70
     1
102
RTVSPropertyOp54
 70
     1
102
RTVSPropertyOp55
 70
     1
102
RTVSPropertyOp56
 70
     1
102
RTVSPropertyOp57
 70
     1
102
RTVSPost2010Prop28
280
     0
102
RTVSPost2010PropOp28
 70
     1
102
RTVSPost2010Prop29
280
     1
102
RTVSPost2010PropOp29
 70
     1
102
RTVSPost2010Prop30
280
     1
102
RTVSPost2010PropOp30
 70
     1
102
RTVSPost2010Prop31
280
     0
102
RTVSPost2010PropOp31
 70
     1
102
RTVSPost2010Prop32
280
     0
102
RTVSPost2010PropOp32
 70
     1
102
RTVSPost2010Prop33
280
     0
102
RTVSPost2010PropOp33
 70
     1
102
RTVSPost2010Prop34
280
     0
102
RTVSPost2010PropOp34
 70
     1
102
RTVSPost2010Prop35
280
     0
102
RTVSPost2010PropOp35
 70
     1
102
RTVSPost2010Prop36
280
     0
102
RTVSPost2010PropOp36
 70
     1
102
RTVSPost2010Prop37
 90
       50
102
RTVSPost2010PropOp37
 70
     1
102
RTVSPost2010Prop38
140
0.0
102
RTVSPost2010PropOp38
 70
     1
102
RTVSPost2010Prop39
140
1.0
102
RTVSPost2010PropOp39
 70
     1
102
RTVSPost2010Prop40
 90
        0
102
RTVSPost2010PropOp40
 70
     1
102
RTVSPost2010Prop41ColorIndex
 90
       18
102
RTVSPost2010Prop41ColorRGB
 90
        0
102
RTVSPost2010PropOp41
 70
     1
102
RTVSPost2010Prop42
 90
       50
102
RTVSPost2010PropOp42
 70
     1
102
RTVSPost2010Prop43
 90
        3
102
RTVSPost2010PropOp43
 70
     1
102
RTVSPost2010Prop44ColorIndex
 90
        5
102
RTVSPost2010Prop44ColorRGB
 90
      255
102
RTVSPost2010PropOp44
 70
     1
102
RTVSPost2010Prop45
280
     0
102
RTVSPost2010PropOp45
 70
     1
102
RTVSPost2010Prop46
 90
       50
102
RTVSPost2010PropOp46
 70
     1
102
RTVSPost2010Prop47
 90
       50
102
RTVSPost2010PropOp47
 70
     1
102
RTVSPost2010Prop48
 90
       50
102
RTVSPost2010PropOp48
 70
     1
102
RTVSPost2010Prop49
280
     0
102
RTVSPost2010PropOp49
 70
     1
102
RTVSPost2010Prop50
 90
       50
102
RTVSPost2010PropOp50
 70
     1
102
RTVSPost2010Prop51ColorIndex
 90
      256
102
RTVSPost2010Prop51ColorRGB
 90
-16777216
102
RTVSPost2010PropOp51
 70
     0
102
RTVSPost2010Prop52
140
1.0
102
RTVSPost2010PropOp52
 70
     0
102
RTVSPost2010Prop53
 90
        2
102
RTVSPost2010PropOp53
 70
     1
102
RTVSPost2010Prop54
  1
strokes_ogs.tif
102
RTVSPost2010PropOp54
 70
     1
102
RTVSPost2010Prop55
280
     0
102
RTVSPost2010PropOp55
 70
     1
102
RTVSPost2010Prop56
140
1.0
102
RTVSPost2010PropOp56
 70
     1
102
RTVSPost2010Prop57
140
1.0
102
RTVSPost2010PropOp57
 70
     1
  0
XRECORD
  5
374
102
{ACAD_REACTORS
330
373
102
}
330
373
100
AcDbXrecord
280
     1
102
RTVSPropertyOp0
 70
     1
102
RTVSPropertyOp1
 70
     1
102
RTVSPropertyOp2
 70
     1
102
RTVSPropertyOp3
 70
     1
102
RTVSPropertyOp4
 70
     1
102
RTVSPropertyOp5
 70
     1
102
RTVSPropertyOp6
 70
     1
102
RTVSPropertyOp7
 70
     1
102
RTVSPropertyOp8
 70
     1
102
RTVSPropertyOp9
 70
     1
102
RTVSPropertyOp10
 70
     1
102
RTVSPropertyOp11
 70
     1
102
RTVSPropertyOp12
 70
     1
102
RTVSPropertyOp13
 70
     1
102
RTVSPropertyOp14
 70
     1
102
RTVSPropertyOp15
 70
     1
102
RTVSPropertyOp16
 70
     1
102
RTVSPropertyOp17
 70
     1
102
RTVSPropertyOp18
 70
     1
102
RTVSPropertyOp19
 70
     1
102
RTVSPropertyOp20
 70
     1
102
RTVSPropertyOp21
 70
     1
102
RTVSPropertyOp22
 70
     1
102
RTVSPropertyOp23
 70
     1
102
RTVSPropertyOp24
 70
     1
102
RTVSPropertyOp25
 70
     1
102
RTVSPropertyOp26
 70
     1
102
RTVSPropertyOp27
 70
     1
102
RTVSPropertyOp28
 70
     1
102
RTVSPropertyOp29
 70
     1
102
RTVSPropertyOp30
 70
     1
102
RTVSPropertyOp31
 70
     1
102
RTVSPropertyOp32
 70
     1
102
RTVSPropertyOp33
 70
     1
102
RTVSPropertyOp34
 70
     1
102
RTVSPropertyOp35
 70
     1
102
RTVSPropertyOp36
 70
     1
102
RTVSPropertyOp37
 70
     1
102
RTVSPropertyOp38
 70
     1
102
RTVSPropertyOp39
 70
     1
102
RTVSPropertyOp40
 70
     1
102
RTVSPropertyOp41
 70
     1
102
RTVSPropertyOp42
 70
     1
102
RTVSPropertyOp43
 70
     1
102
RTVSPropertyOp44
 70
     1
102
RTVSPropertyOp45
 70
     1
102
RTVSPropertyOp46
 70
     1
102
RTVSPropertyOp47
 70
     1
102
RTVSPropertyOp48
 70
     1
102
RTVSPropertyOp49
 70
     1
102
RTVSPropertyOp50
 70
     1
102
RTVSPropertyOp51
 70
     0
102
RTVSPropertyOp52
 70
     0
102
RTVSPropertyOp53
 70
     1
102
RTVSPropertyOp54
 70
     1
102
RTVSPropertyOp55
 70
     1
102
RTVSPropertyOp56
 70
     1
102
RTVSPropertyOp57
 70
     1
102
RTVSPost2010Prop28
280
     0
102
RTVSPost2010PropOp28
 70
     1
102
RTVSPost2010Prop29
280
     1
102
RTVSPost2010PropOp29
 70
     1
102
RTVSPost2010Prop30
280
     1
102
RTVSPost2010PropOp30
 70
     1
102
RTVSPost2010Prop31
280
     0
102
RTVSPost2010PropOp31
 70
     1
102
RTVSPost2010Prop32
280
     0
102
RTVSPost2010PropOp32
 70
     1
102
RTVSPost2010Prop33
280
     0
102
RTVSPost2010PropOp33
 70
     1
102
RTVSPost2010Prop34
280
     0
102
RTVSPost2010PropOp34
 70
     1
102
RTVSPost2010Prop35
280
     0
102
RTVSPost2010PropOp35
 70
     1
102
RTVSPost2010Prop36
280
     0
102
RTVSPost2010PropOp36
 70
     1
102
RTVSPost2010Prop37
 90
       50
102
RTVSPost2010PropOp37
 70
     1
102
RTVSPost2010Prop38
140
0.0
102
RTVSPost2010PropOp38
 70
     1
102
RTVSPost2010Prop39
140
1.0
102
RTVSPost2010PropOp39
 70
     1
102
RTVSPost2010Prop40
 90
        0
102
RTVSPost2010PropOp40
 70
     1
102
RTVSPost2010Prop41ColorIndex
 90
       18
102
RTVSPost2010Prop41ColorRGB
 90
        0
102
RTVSPost2010PropOp41
 70
     1
102
RTVSPost2010Prop42
 90
       50
102
RTVSPost2010PropOp42
 70
     1
102
RTVSPost2010Prop43
 90
        3
102
RTVSPost2010PropOp43
 70
     1
102
RTVSPost2010Prop44ColorIndex
 90
        5
102
RTVSPost2010Prop44ColorRGB
 90
      255
102
RTVSPost2010PropOp44
 70
     1
102
RTVSPost2010Prop45
280
     0
102
RTVSPost2010PropOp45
 70
     1
102
RTVSPost2010Prop46
 90
       50
102
RTVSPost2010PropOp46
 70
     1
102
RTVSPost2010Prop47
 90
       50
102
RTVSPost2010PropOp47
 70
     1
102
RTVSPost2010Prop48
 90
       50
102
RTVSPost2010PropOp48
 70
     1
102
RTVSPost2010Prop49
280
     0
102
RTVSPost2010PropOp49
 70
     1
102
RTVSPost2010Prop50
 90
       50
102
RTVSPost2010PropOp50
 70
     1
102
RTVSPost2010Prop51ColorIndex
 90
      256
102
RTVSPost2010Prop51ColorRGB
 90
-16777216
102
RTVSPost2010PropOp51
 70
     0
102
RTVSPost2010Prop52
140
1.0
102
RTVSPost2010PropOp52
 70
     0
102
RTVSPost2010Prop53
 90
        2
102
RTVSPost2010PropOp53
 70
     1
102
RTVSPost2010Prop54
  1
strokes_ogs.tif
102
RTVSPost2010PropOp54
 70
     1
102
RTVSPost2010Prop55
280
     0
102
RTVSPost2010PropOp55
 70
     1
102
RTVSPost2010Prop56
140
1.0
102
RTVSPost2010PropOp56
 70
     1
102
RTVSPost2010Prop57
140
1.0
102
RTVSPost2010PropOp57
 70
     1
  0
XRECORD
  5
376
102
{ACAD_REACTORS
330
375
102
}
330
375
100
AcDbXrecord
280
     1
102
RTVSPropertyOp0
 70
     1
102
RTVSPropertyOp1
 70
     1
102
RTVSPropertyOp2
 70
     1
102
RTVSPropertyOp3
 70
     1
102
RTVSPropertyOp4
 70
     1
102
RTVSPropertyOp5
 70
     1
102
RTVSPropertyOp6
 70
     1
102
RTVSPropertyOp7
 70
     1
102
RTVSPropertyOp8
 70
     1
102
RTVSPropertyOp9
 70
     1
102
RTVSPropertyOp10
 70
     1
102
RTVSPropertyOp11
 70
     1
102
RTVSPropertyOp12
 70
     1
102
RTVSPropertyOp13
 70
     1
102
RTVSPropertyOp14
 70
     1
102
RTVSPropertyOp15
 70
     1
102
RTVSPropertyOp16
 70
     1
102
RTVSPropertyOp17
 70
     1
102
RTVSPropertyOp18
 70
     1
102
RTVSPropertyOp19
 70
     1
102
RTVSPropertyOp20
 70
     1
102
RTVSPropertyOp21
 70
     1
102
RTVSPropertyOp22
 70
     1
102
RTVSPropertyOp23
 70
     1
102
RTVSPropertyOp24
 70
     1
102
RTVSPropertyOp25
 70
     1
102
RTVSPropertyOp26
 70
     1
102
RTVSPropertyOp27
 70
     1
102
RTVSPropertyOp28
 70
     1
102
RTVSPropertyOp29
 70
     1
102
RTVSPropertyOp30
 70
     1
102
RTVSPropertyOp31
 70
     1
102
RTVSPropertyOp32
 70
     1
102
RTVSPropertyOp33
 70
     1
102
RTVSPropertyOp34
 70
     1
102
RTVSPropertyOp35
 70
     1
102
RTVSPropertyOp36
 70
     1
102
RTVSPropertyOp37
 70
     1
102
RTVSPropertyOp38
 70
     1
102
RTVSPropertyOp39
 70
     1
102
RTVSPropertyOp40
 70
     1
102
RTVSPropertyOp41
 70
     1
102
RTVSPropertyOp42
 70
     1
102
RTVSPropertyOp43
 70
     1
102
RTVSPropertyOp44
 70
     1
102
RTVSPropertyOp45
 70
     1
102
RTVSPropertyOp46
 70
     1
102
RTVSPropertyOp47
 70
     1
102
RTVSPropertyOp48
 70
     1
102
RTVSPropertyOp49
 70
     1
102
RTVSPropertyOp50
 70
     1
102
RTVSPropertyOp51
 70
     0
102
RTVSPropertyOp52
 70
     0
102
RTVSPropertyOp53
 70
     1
102
RTVSPropertyOp54
 70
     1
102
RTVSPropertyOp55
 70
     1
102
RTVSPropertyOp56
 70
     1
102
RTVSPropertyOp57
 70
     1
102
RTVSPost2010Prop28
280
     0
102
RTVSPost2010PropOp28
 70
     1
102
RTVSPost2010Prop29
280
     1
102
RTVSPost2010PropOp29
 70
     1
102
RTVSPost2010Prop30
280
     1
102
RTVSPost2010PropOp30
 70
     1
102
RTVSPost2010Prop31
280
     0
102
RTVSPost2010PropOp31
 70
     1
102
RTVSPost2010Prop32
280
     0
102
RTVSPost2010PropOp32
 70
     1
102
RTVSPost2010Prop33
280
     0
102
RTVSPost2010PropOp33
 70
     1
102
RTVSPost2010Prop34
280
     0
102
RTVSPost2010PropOp34
 70
     1
102
RTVSPost2010Prop35
280
     0
102
RTVSPost2010PropOp35
 70
     1
102
RTVSPost2010Prop36
280
     0
102
RTVSPost2010PropOp36
 70
     1
102
RTVSPost2010Prop37
 90
       50
102
RTVSPost2010PropOp37
 70
     1
102
RTVSPost2010Prop38
140
0.0
102
RTVSPost2010PropOp38
 70
     1
102
RTVSPost2010Prop39
140
1.0
102
RTVSPost2010PropOp39
 70
     1
102
RTVSPost2010Prop40
 90
        0
102
RTVSPost2010PropOp40
 70
     1
102
RTVSPost2010Prop41ColorIndex
 90
       18
102
RTVSPost2010Prop41ColorRGB
 90
        0
102
RTVSPost2010PropOp41
 70
     1
102
RTVSPost2010Prop42
 90
       50
102
RTVSPost2010PropOp42
 70
     1
102
RTVSPost2010Prop43
 90
        3
102
RTVSPost2010PropOp43
 70
     1
102
RTVSPost2010Prop44ColorIndex
 90
        5
102
RTVSPost2010Prop44ColorRGB
 90
      255
102
RTVSPost2010PropOp44
 70
     1
102
RTVSPost2010Prop45
280
     0
102
RTVSPost2010PropOp45
 70
     1
102
RTVSPost2010Prop46
 90
       50
102
RTVSPost2010PropOp46
 70
     1
102
RTVSPost2010Prop47
 90
       50
102
RTVSPost2010PropOp47
 70
     1
102
RTVSPost2010Prop48
 90
       50
102
RTVSPost2010PropOp48
 70
     1
102
RTVSPost2010Prop49
280
     0
102
RTVSPost2010PropOp49
 70
     1
102
RTVSPost2010Prop50
 90
       50
102
RTVSPost2010PropOp50
 70
     1
102
RTVSPost2010Prop51ColorIndex
 90
      256
102
RTVSPost2010Prop51ColorRGB
 90
-16777216
102
RTVSPost2010PropOp51
 70
     0
102
RTVSPost2010Prop52
140
1.0
102
RTVSPost2010PropOp52
 70
     0
102
RTVSPost2010Prop53
 90
        2
102
RTVSPost2010PropOp53
 70
     1
102
RTVSPost2010Prop54
  1
strokes_ogs.tif
102
RTVSPost2010PropOp54
 70
     1
102
RTVSPost2010Prop55
280
     0
102
RTVSPost2010PropOp55
 70
     1
102
RTVSPost2010Prop56
140
1.0
102
RTVSPost2010PropOp56
 70
     1
102
RTVSPost2010Prop57
140
1.0
102
RTVSPost2010PropOp57
 70
     1
  0
XRECORD
  5
366
102
{ACAD_REACTORS
330
365
102
}
330
365
100
AcDbXrecord
280
     1
102
RTVSPropertyOp0
 70
     1
102
RTVSPropertyOp1
 70
     1
102
RTVSPropertyOp2
 70
     1
102
RTVSPropertyOp3
 70
     1
102
RTVSPropertyOp4
 70
     1
102
RTVSPropertyOp5
 70
     1
102
RTVSPropertyOp6
 70
     1
102
RTVSPropertyOp7
 70
     1
102
RTVSPropertyOp8
 70
     1
102
RTVSPropertyOp9
 70
     1
102
RTVSPropertyOp10
 70
     1
102
RTVSPropertyOp11
 70
     1
102
RTVSPropertyOp12
 70
     1
102
RTVSPropertyOp13
 70
     1
102
RTVSPropertyOp14
 70
     1
102
RTVSPropertyOp15
 70
     1
102
RTVSPropertyOp16
 70
     1
102
RTVSPropertyOp17
 70
     1
102
RTVSPropertyOp18
 70
     1
102
RTVSPropertyOp19
 70
     1
102
RTVSPropertyOp20
 70
     1
102
RTVSPropertyOp21
 70
     1
102
RTVSPropertyOp22
 70
     1
102
RTVSPropertyOp23
 70
     1
102
RTVSPropertyOp24
 70
     1
102
RTVSPropertyOp25
 70
     1
102
RTVSPropertyOp26
 70
     1
102
RTVSPropertyOp27
 70
     1
102
RTVSPropertyOp28
 70
     1
102
RTVSPropertyOp29
 70
     1
102
RTVSPropertyOp30
 70
     1
102
RTVSPropertyOp31
 70
     1
102
RTVSPropertyOp32
 70
     1
102
RTVSPropertyOp33
 70
     1
102
RTVSPropertyOp34
 70
     1
102
RTVSPropertyOp35
 70
     1
102
RTVSPropertyOp36
 70
     1
102
RTVSPropertyOp37
 70
     1
102
RTVSPropertyOp38
 70
     1
102
RTVSPropertyOp39
 70
     1
102
RTVSPropertyOp40
 70
     1
102
RTVSPropertyOp41
 70
     1
102
RTVSPropertyOp42
 70
     1
102
RTVSPropertyOp43
 70
     1
102
RTVSPropertyOp44
 70
     1
102
RTVSPropertyOp45
 70
     1
102
RTVSPropertyOp46
 70
     1
102
RTVSPropertyOp47
 70
     1
102
RTVSPropertyOp48
 70
     1
102
RTVSPropertyOp49
 70
     1
102
RTVSPropertyOp50
 70
     1
102
RTVSPropertyOp51
 70
     0
102
RTVSPropertyOp52
 70
     0
102
RTVSPropertyOp53
 70
     1
102
RTVSPropertyOp54
 70
     1
102
RTVSPropertyOp55
 70
     1
102
RTVSPropertyOp56
 70
     1
102
RTVSPropertyOp57
 70
     1
102
RTVSPost2010Prop28
280
     0
102
RTVSPost2010PropOp28
 70
     1
102
RTVSPost2010Prop29
280
     1
102
RTVSPost2010PropOp29
 70
     1
102
RTVSPost2010Prop30
280
     1
102
RTVSPost2010PropOp30
 70
     1
102
RTVSPost2010Prop31
280
     0
102
RTVSPost2010PropOp31
 70
     1
102
RTVSPost2010Prop32
280
     0
102
RTVSPost2010PropOp32
 70
     1
102
RTVSPost2010Prop33
280
     0
102
RTVSPost2010PropOp33
 70
     1
102
RTVSPost2010Prop34
280
     0
102
RTVSPost2010PropOp34
 70
     1
102
RTVSPost2010Prop35
280
     0
102
RTVSPost2010PropOp35
 70
     1
102
RTVSPost2010Prop36
280
     0
102
RTVSPost2010PropOp36
 70
     1
102
RTVSPost2010Prop37
 90
       50
102
RTVSPost2010PropOp37
 70
     1
102
RTVSPost2010Prop38
140
0.0
102
RTVSPost2010PropOp38
 70
     1
102
RTVSPost2010Prop39
140
1.0
102
RTVSPost2010PropOp39
 70
     1
102
RTVSPost2010Prop40
 90
        0
102
RTVSPost2010PropOp40
 70
     1
102
RTVSPost2010Prop41ColorIndex
 90
       18
102
RTVSPost2010Prop41ColorRGB
 90
        0
102
RTVSPost2010PropOp41
 70
     1
102
RTVSPost2010Prop42
 90
       50
102
RTVSPost2010PropOp42
 70
     1
102
RTVSPost2010Prop43
 90
        3
102
RTVSPost2010PropOp43
 70
     1
102
RTVSPost2010Prop44ColorIndex
 90
        5
102
RTVSPost2010Prop44ColorRGB
 90
      255
102
RTVSPost2010PropOp44
 70
     1
102
RTVSPost2010Prop45
280
     0
102
RTVSPost2010PropOp45
 70
     1
102
RTVSPost2010Prop46
 90
       50
102
RTVSPost2010PropOp46
 70
     1
102
RTVSPost2010Prop47
 90
       50
102
RTVSPost2010PropOp47
 70
     1
102
RTVSPost2010Prop48
 90
       50
102
RTVSPost2010PropOp48
 70
     1
102
RTVSPost2010Prop49
280
     0
102
RTVSPost2010PropOp49
 70
     1
102
RTVSPost2010Prop50
 90
       50
102
RTVSPost2010PropOp50
 70
     1
102
RTVSPost2010Prop51ColorIndex
 90
      256
102
RTVSPost2010Prop51ColorRGB
 90
-16777216
102
RTVSPost2010PropOp51
 70
     0
102
RTVSPost2010Prop52
140
1.0
102
RTVSPost2010PropOp52
 70
     0
102
RTVSPost2010Prop53
 90
        2
102
RTVSPost2010PropOp53
 70
     1
102
RTVSPost2010Prop54
  1
strokes_ogs.tif
102
RTVSPost2010PropOp54
 70
     1
102
RTVSPost2010Prop55
280
     0
102
RTVSPost2010PropOp55
 70
     1
102
RTVSPost2010Prop56
140
1.0
102
RTVSPost2010PropOp56
 70
     1
102
RTVSPost2010Prop57
140
1.0
102
RTVSPost2010PropOp57
 70
     1
  0
XRECORD
  5
358
102
{ACAD_REACTORS
330
357
102
}
330
357
100
AcDbXrecord
280
     1
102
RTVSPropertyOp0
 70
     1
102
RTVSPropertyOp1
 70
     1
102
RTVSPropertyOp2
 70
     1
102
RTVSPropertyOp3
 70
     1
102
RTVSPropertyOp4
 70
     1
102
RTVSPropertyOp5
 70
     1
102
RTVSPropertyOp6
 70
     1
102
RTVSPropertyOp7
 70
     1
102
RTVSPropertyOp8
 70
     1
102
RTVSPropertyOp9
 70
     1
102
RTVSPropertyOp10
 70
     1
102
RTVSPropertyOp11
 70
     1
102
RTVSPropertyOp12
 70
     1
102
RTVSPropertyOp13
 70
     1
102
RTVSPropertyOp14
 70
     1
102
RTVSPropertyOp15
 70
     1
102
RTVSPropertyOp16
 70
     1
102
RTVSPropertyOp17
 70
     1
102
RTVSPropertyOp18
 70
     1
102
RTVSPropertyOp19
 70
     1
102
RTVSPropertyOp20
 70
     1
102
RTVSPropertyOp21
 70
     1
102
RTVSPropertyOp22
 70
     1
102
RTVSPropertyOp23
 70
     1
102
RTVSPropertyOp24
 70
     1
102
RTVSPropertyOp25
 70
     1
102
RTVSPropertyOp26
 70
     1
102
RTVSPropertyOp27
 70
     1
102
RTVSPropertyOp28
 70
     1
102
RTVSPropertyOp29
 70
     1
102
RTVSPropertyOp30
 70
     1
102
RTVSPropertyOp31
 70
     1
102
RTVSPropertyOp32
 70
     1
102
RTVSPropertyOp33
 70
     1
102
RTVSPropertyOp34
 70
     1
102
RTVSPropertyOp35
 70
     1
102
RTVSPropertyOp36
 70
     1
102
RTVSPropertyOp37
 70
     1
102
RTVSPropertyOp38
 70
     1
102
RTVSPropertyOp39
 70
     1
102
RTVSPropertyOp40
 70
     1
102
RTVSPropertyOp41
 70
     1
102
RTVSPropertyOp42
 70
     1
102
RTVSPropertyOp43
 70
     1
102
RTVSPropertyOp44
 70
     1
102
RTVSPropertyOp45
 70
     1
102
RTVSPropertyOp46
 70
     1
102
RTVSPropertyOp47
 70
     1
102
RTVSPropertyOp48
 70
     1
102
RTVSPropertyOp49
 70
     1
102
RTVSPropertyOp50
 70
     1
102
RTVSPropertyOp51
 70
     0
102
RTVSPropertyOp52
 70
     0
102
RTVSPropertyOp53
 70
     1
102
RTVSPropertyOp54
 70
     1
102
RTVSPropertyOp55
 70
     1
102
RTVSPropertyOp56
 70
     1
102
RTVSPropertyOp57
 70
     1
102
RTVSPost2010Prop28
280
     0
102
RTVSPost2010PropOp28
 70
     1
102
RTVSPost2010Prop29
280
     1
102
RTVSPost2010PropOp29
 70
     1
102
RTVSPost2010Prop30
280
     1
102
RTVSPost2010PropOp30
 70
     1
102
RTVSPost2010Prop31
280
     0
102
RTVSPost2010PropOp31
 70
     1
102
RTVSPost2010Prop32
280
     0
102
RTVSPost2010PropOp32
 70
     1
102
RTVSPost2010Prop33
280
     0
102
RTVSPost2010PropOp33
 70
     1
102
RTVSPost2010Prop34
280
     0
102
RTVSPost2010PropOp34
 70
     1
102
RTVSPost2010Prop35
280
     0
102
RTVSPost2010PropOp35
 70
     1
102
RTVSPost2010Prop36
280
     0
102
RTVSPost2010PropOp36
 70
     1
102
RTVSPost2010Prop37
 90
       50
102
RTVSPost2010PropOp37
 70
     1
102
RTVSPost2010Prop38
140
0.0
102
RTVSPost2010PropOp38
 70
     1
102
RTVSPost2010Prop39
140
1.0
102
RTVSPost2010PropOp39
 70
     1
102
RTVSPost2010Prop40
 90
        0
102
RTVSPost2010PropOp40
 70
     1
102
RTVSPost2010Prop41ColorIndex
 90
       18
102
RTVSPost2010Prop41ColorRGB
 90
        0
102
RTVSPost2010PropOp41
 70
     1
102
RTVSPost2010Prop42
 90
       50
102
RTVSPost2010PropOp42
 70
     1
102
RTVSPost2010Prop43
 90
        3
102
RTVSPost2010PropOp43
 70
     1
102
RTVSPost2010Prop44ColorIndex
 90
        5
102
RTVSPost2010Prop44ColorRGB
 90
      255
102
RTVSPost2010PropOp44
 70
     1
102
RTVSPost2010Prop45
280
     0
102
RTVSPost2010PropOp45
 70
     1
102
RTVSPost2010Prop46
 90
       50
102
RTVSPost2010PropOp46
 70
     1
102
RTVSPost2010Prop47
 90
       50
102
RTVSPost2010PropOp47
 70
     1
102
RTVSPost2010Prop48
 90
       50
102
RTVSPost2010PropOp48
 70
     1
102
RTVSPost2010Prop49
280
     0
102
RTVSPost2010PropOp49
 70
     1
102
RTVSPost2010Prop50
 90
       50
102
RTVSPost2010PropOp50
 70
     1
102
RTVSPost2010Prop51ColorIndex
 90
      256
102
RTVSPost2010Prop51ColorRGB
 90
-16777216
102
RTVSPost2010PropOp51
 70
     0
102
RTVSPost2010Prop52
140
1.0
102
RTVSPost2010PropOp52
 70
     0
102
RTVSPost2010Prop53
 90
        2
102
RTVSPost2010PropOp53
 70
     1
102
RTVSPost2010Prop54
  1
strokes_ogs.tif
102
RTVSPost2010PropOp54
 70
     1
102
RTVSPost2010Prop55
280
     0
102
RTVSPost2010PropOp55
 70
     1
102
RTVSPost2010Prop56
140
1.0
102
RTVSPost2010PropOp56
 70
     1
102
RTVSPost2010Prop57
140
1.0
102
RTVSPost2010PropOp57
 70
     1
  0
XRECORD
  5
378
102
{ACAD_REACTORS
330
377
102
}
330
377
100
AcDbXrecord
280
     1
102
RTVSPropertyOp0
 70
     1
102
RTVSPropertyOp1
 70
     1
102
RTVSPropertyOp2
 70
     1
102
RTVSPropertyOp3
 70
     1
102
RTVSPropertyOp4
 70
     1
102
RTVSPropertyOp5
 70
     1
102
RTVSPropertyOp6
 70
     1
102
RTVSPropertyOp7
 70
     1
102
RTVSPropertyOp8
 70
     1
102
RTVSPropertyOp9
 70
     1
102
RTVSPropertyOp10
 70
     1
102
RTVSPropertyOp11
 70
     1
102
RTVSPropertyOp12
 70
     1
102
RTVSPropertyOp13
 70
     1
102
RTVSPropertyOp14
 70
     1
102
RTVSPropertyOp15
 70
     1
102
RTVSPropertyOp16
 70
     1
102
RTVSPropertyOp17
 70
     1
102
RTVSPropertyOp18
 70
     1
102
RTVSPropertyOp19
 70
     1
102
RTVSPropertyOp20
 70
     1
102
RTVSPropertyOp21
 70
     1
102
RTVSPropertyOp22
 70
     1
102
RTVSPropertyOp23
 70
     1
102
RTVSPropertyOp24
 70
     1
102
RTVSPropertyOp25
 70
     1
102
RTVSPropertyOp26
 70
     1
102
RTVSPropertyOp27
 70
     1
102
RTVSPropertyOp28
 70
     1
102
RTVSPropertyOp29
 70
     1
102
RTVSPropertyOp30
 70
     1
102
RTVSPropertyOp31
 70
     1
102
RTVSPropertyOp32
 70
     1
102
RTVSPropertyOp33
 70
     1
102
RTVSPropertyOp34
 70
     1
102
RTVSPropertyOp35
 70
     1
102
RTVSPropertyOp36
 70
     1
102
RTVSPropertyOp37
 70
     1
102
RTVSPropertyOp38
 70
     1
102
RTVSPropertyOp39
 70
     1
102
RTVSPropertyOp40
 70
     1
102
RTVSPropertyOp41
 70
     1
102
RTVSPropertyOp42
 70
     1
102
RTVSPropertyOp43
 70
     1
102
RTVSPropertyOp44
 70
     1
102
RTVSPropertyOp45
 70
     1
102
RTVSPropertyOp46
 70
     1
102
RTVSPropertyOp47
 70
     1
102
RTVSPropertyOp48
 70
     1
102
RTVSPropertyOp49
 70
     1
102
RTVSPropertyOp50
 70
     1
102
RTVSPropertyOp51
 70
     0
102
RTVSPropertyOp52
 70
     0
102
RTVSPropertyOp53
 70
     1
102
RTVSPropertyOp54
 70
     1
102
RTVSPropertyOp55
 70
     1
102
RTVSPropertyOp56
 70
     1
102
RTVSPropertyOp57
 70
     1
102
RTVSPost2010Prop28
280
     0
102
RTVSPost2010PropOp28
 70
     1
102
RTVSPost2010Prop29
280
     1
102
RTVSPost2010PropOp29
 70
     1
102
RTVSPost2010Prop30
280
     1
102
RTVSPost2010PropOp30
 70
     1
102
RTVSPost2010Prop31
280
     0
102
RTVSPost2010PropOp31
 70
     1
102
RTVSPost2010Prop32
280
     0
102
RTVSPost2010PropOp32
 70
     1
102
RTVSPost2010Prop33
280
     0
102
RTVSPost2010PropOp33
 70
     1
102
RTVSPost2010Prop34
280
     0
102
RTVSPost2010PropOp34
 70
     1
102
RTVSPost2010Prop35
280
     0
102
RTVSPost2010PropOp35
 70
     1
102
RTVSPost2010Prop36
280
     0
102
RTVSPost2010PropOp36
 70
     1
102
RTVSPost2010Prop37
 90
       50
102
RTVSPost2010PropOp37
 70
     1
102
RTVSPost2010Prop38
140
0.0
102
RTVSPost2010PropOp38
 70
     1
102
RTVSPost2010Prop39
140
1.0
102
RTVSPost2010PropOp39
 70
     1
102
RTVSPost2010Prop40
 90
        0
102
RTVSPost2010PropOp40
 70
     1
102
RTVSPost2010Prop41ColorIndex
 90
       18
102
RTVSPost2010Prop41ColorRGB
 90
        0
102
RTVSPost2010PropOp41
 70
     1
102
RTVSPost2010Prop42
 90
       50
102
RTVSPost2010PropOp42
 70
     1
102
RTVSPost2010Prop43
 90
        3
102
RTVSPost2010PropOp43
 70
     1
102
RTVSPost2010Prop44ColorIndex
 90
        5
102
RTVSPost2010Prop44ColorRGB
 90
      255
102
RTVSPost2010PropOp44
 70
     1
102
RTVSPost2010Prop45
280
     0
102
RTVSPost2010PropOp45
 70
     1
102
RTVSPost2010Prop46
 90
       50
102
RTVSPost2010PropOp46
 70
     1
102
RTVSPost2010Prop47
 90
       50
102
RTVSPost2010PropOp47
 70
     1
102
RTVSPost2010Prop48
 90
       50
102
RTVSPost2010PropOp48
 70
     1
102
RTVSPost2010Prop49
280
     0
102
RTVSPost2010PropOp49
 70
     1
102
RTVSPost2010Prop50
 90
       50
102
RTVSPost2010PropOp50
 70
     1
102
RTVSPost2010Prop51ColorIndex
 90
      256
102
RTVSPost2010Prop51ColorRGB
 90
-16777216
102
RTVSPost2010PropOp51
 70
     0
102
RTVSPost2010Prop52
140
1.0
102
RTVSPost2010PropOp52
 70
     0
102
RTVSPost2010Prop53
 90
        2
102
RTVSPost2010PropOp53
 70
     1
102
RTVSPost2010Prop54
  1
strokes_ogs.tif
102
RTVSPost2010PropOp54
 70
     1
102
RTVSPost2010Prop55
280
     0
102
RTVSPost2010PropOp55
 70
     1
102
RTVSPost2010Prop56
140
1.0
102
RTVSPost2010PropOp56
 70
     1
102
RTVSPost2010Prop57
140
1.0
102
RTVSPost2010PropOp57
 70
     1
  0
ENDSEC
  0
EOF
