  0
SECTION
  2
HEADER
  9
$ACADVER
  1
AC1018
  9
$ACADMAINTVER
 70
     0
  9
$DWGCODEPAGE
  3
ANSI_932
  9
$INSBASE
 10
0.0
 20
0.0
 30
0.0
  9
$EXTMIN
 10
-1260.0
 20
-891.0
 30
0.0
  9
$EXTMAX
 10
1260.0
 20
891.0
 30
0.0
  9
$LIMMIN
 10
-1260.0
 20
-891.0
  9
$LIMMAX
 10
1260.0
 20
891.0
  9
$ORTHOMODE
 70
     0
  9
$REGENMODE
 70
     1
  9
$FILLMODE
 70
     1
  9
$QTEXTMODE
 70
     0
  9
$MIRRTEXT
 70
     1
  9
$LTSCALE
 40
6.0
  9
$ATTMODE
 70
     1
  9
$TEXTSIZE
 40
2.5
  9
$TRACEWID
 40
1.0
  9
$TEXTSTYLE
  7
Standard
  9
$CLAYER
  8
0
  9
$CELTYPE
  6
ByLayer
  9
$CECOLOR
 62
   256
  9
$CELTSCALE
 40
1.0
  9
$DISPSILH
 70
     0
  9
$DIMSCALE
 40
1.0
  9
$DIMASZ
 40
2.5
  9
$DIMEXO
 40
0.625
  9
$DIMDLI
 40
3.75
  9
$DIMRND
 40
0.0
  9
$DIMDLE
 40
0.0
  9
$DIMEXE
 40
1.25
  9
$DIMTP
 40
0.0
  9
$DIMTM
 40
0.0
  9
$DIMTXT
 40
2.5
  9
$DIMCEN
 40
2.5
  9
$DIMTSZ
 40
0.0
  9
$DIMTOL
 70
     0
  9
$DIMLIM
 70
     0
  9
$DIMTIH
 70
     0
  9
$DIMTOH
 70
     0
  9
$DIMSE1
 70
     0
  9
$DIMSE2
 70
     0
  9
$DIMTAD
 70
     1
  9
$DIMZIN
 70
     8
  9
$DIMBLK
  1

  9
$DIMASO
 70
     1
  9
$DIMSHO
 70
     1
  9
$DIMPOST
  1

  9
$DIMAPOST
  1

  9
$DIMALT
 70
     0
  9
$DIMALTD
 70
     3
  9
$DIMALTF
 40
0.03937007874016
  9
$DIMLFAC
 40
1.0
  9
$DIMTOFL
 70
     1
  9
$DIMTVP
 40
0.0
  9
$DIMTIX
 70
     0
  9
$DIMSOXD
 70
     0
  9
$DIMSAH
 70
     0
  9
$DIMBLK1
  1

  9
$DIMBLK2
  1

  9
$DIMSTYLE
  2
ISO-25
  9
$DIMCLRD
 70
     0
  9
$DIMCLRE
 70
     0
  9
$DIMCLRT
 70
     0
  9
$DIMTFAC
 40
1.0
  9
$DIMGAP
 40
0.625
  9
$DIMJUST
 70
     0
  9
$DIMSD1
 70
     0
  9
$DIMSD2
 70
     0
  9
$DIMTOLJ
 70
     0
  9
$DIMTZIN
 70
     8
  9
$DIMALTZ
 70
     0
  9
$DIMALTTZ
 70
     0
  9
$DIMUPT
 70
     0
  9
$DIMDEC
 70
     2
  9
$DIMTDEC
 70
     2
  9
$DIMALTU
 70
     2
  9
$DIMALTTD
 70
     3
  9
$DIMTXSTY
  7
Standard
  9
$DIMAUNIT
 70
     0
  9
$DIMADEC
 70
     0
  9
$DIMALTRND
 40
0.0
  9
$DIMAZIN
 70
     0
  9
$DIMDSEP
 70
    44
  9
$DIMATFIT
 70
     3
  9
$DIMFRAC
 70
     0
  9
$DIMLDRBLK
  1

  9
$DIMLUNIT
 70
     2
  9
$DIMLWD
 70
    -2
  9
$DIMLWE
 70
    -2
  9
$DIMTMOVE
 70
     0
  9
$LUNITS
 70
     2
  9
$LUPREC
 70
     4
  9
$SKETCHINC
 40
1.0
  9
$FILLETRAD
 40
10.0
  9
$AUNITS
 70
     0
  9
$AUPREC
 70
     0
  9
$MENU
  1
.
  9
$ELEVATION
 40
0.0
  9
$PELEVATION
 40
0.0
  9
$THICKNESS
 40
0.0
  9
$LIMCHECK
 70
     0
  9
$CHAMFERA
 40
0.0
  9
$CHAMFERB
 40
0.0
  9
$CHAMFERC
 40
0.0
  9
$CHAMFERD
 40
0.0
  9
$SKPOLY
 70
     0
  9
$TDCREATE
 40
2459417.362838206
  9
$TDUCREATE
 40
2459416.987838206
  9
$TDUPDATE
 40
2459417.36283831
  9
$TDUUPDATE
 40
2459416.98783831
  9
$TDINDWG
 40
0.0000000116
  9
$TDUSRTIMER
 40
0.0000000116
  9
$USRTIMER
 70
     1
  9
$ANGBASE
 50
0.0
  9
$ANGDIR
 70
     0
  9
$PDMODE
 70
     0
  9
$PDSIZE
 40
0.0
  9
$PLINEWID
 40
0.0
  9
$SPLFRAME
 70
     0
  9
$SPLINETYPE
 70
     6
  9
$SPLINESEGS
 70
     8
  9
$HANDSEED
  5
293
  9
$SURFTAB1
 70
     6
  9
$SURFTAB2
 70
     6
  9
$SURFTYPE
 70
     6
  9
$SURFU
 70
     6
  9
$SURFV
 70
     6
  9
$UCSBASE
  2

  9
$UCSNAME
  2

  9
$UCSORG
 10
0.0
 20
0.0
 30
0.0
  9
$UCSXDIR
 10
1.0
 20
0.0
 30
0.0
  9
$UCSYDIR
 10
0.0
 20
1.0
 30
0.0
  9
$UCSORTHOREF
  2

  9
$UCSORTHOVIEW
 70
     0
  9
$UCSORGTOP
 10
0.0
 20
0.0
 30
0.0
  9
$UCSORGBOTTOM
 10
0.0
 20
0.0
 30
0.0
  9
$UCSORGLEFT
 10
0.0
 20
0.0
 30
0.0
  9
$UCSORGRIGHT
 10
0.0
 20
0.0
 30
0.0
  9
$UCSORGFRONT
 10
0.0
 20
0.0
 30
0.0
  9
$UCSORGBACK
 10
0.0
 20
0.0
 30
0.0
  9
$PUCSBASE
  2

  9
$PUCSNAME
  2

  9
$PUCSORG
 10
0.0
 20
0.0
 30
0.0
  9
$PUCSXDIR
 10
1.0
 20
0.0
 30
0.0
  9
$PUCSYDIR
 10
0.0
 20
1.0
 30
0.0
  9
$PUCSORTHOREF
  2

  9
$PUCSORTHOVIEW
 70
     0
  9
$PUCSORGTOP
 10
0.0
 20
0.0
 30
0.0
  9
$PUCSORGBOTTOM
 10
0.0
 20
0.0
 30
0.0
  9
$PUCSORGLEFT
 10
0.0
 20
0.0
 30
0.0
  9
$PUCSORGRIGHT
 10
0.0
 20
0.0
 30
0.0
  9
$PUCSORGFRONT
 10
0.0
 20
0.0
 30
0.0
  9
$PUCSORGBACK
 10
0.0
 20
0.0
 30
0.0
  9
$USERI1
 70
     0
  9
$USERI2
 70
     0
  9
$USERI3
 70
     0
  9
$USERI4
 70
     0
  9
$USERI5
 70
     0
  9
$USERR1
 40
0.0
  9
$USERR2
 40
0.0
  9
$USERR3
 40
0.0
  9
$USERR4
 40
0.0
  9
$USERR5
 40
0.0
  9
$WORLDVIEW
 70
     1
  9
$SHADEDGE
 70
     3
  9
$SHADEDIF
 70
    70
  9
$TILEMODE
 70
     1
  9
$MAXACTVP
 70
    64
  9
$PINSBASE
 10
0.0
 20
0.0
 30
0.0
  9
$PLIMCHECK
 70
     0
  9
$PEXTMIN
 10
1.000000000000000E+20
 20
1.000000000000000E+20
 30
1.000000000000000E+20
  9
$PEXTMAX
 10
-1.000000000000000E+20
 20
-1.000000000000000E+20
 30
-1.000000000000000E+20
  9
$PLIMMIN
 10
0.0
 20
0.0
  9
$PLIMMAX
 10
420.0
 20
297.0
  9
$UNITMODE
 70
     0
  9
$VISRETAIN
 70
     1
  9
$PLINEGEN
 70
     0
  9
$PSLTSCALE
 70
     1
  9
$TREEDEPTH
 70
  3020
  9
$CMLSTYLE
  2
Standard
  9
$CMLJUST
 70
     0
  9
$CMLSCALE
 40
20.0
  9
$PROXYGRAPHICS
 70
     1
  9
$MEASUREMENT
 70
     1
  9
$CELWEIGHT
370
    -1
  9
$ENDCAPS
280
     0
  9
$JOINSTYLE
280
     0
  9
$LWDISPLAY
290
     0
  9
$INSUNITS
 70
     4
  9
$HYPERLINKBASE
  1

  9
$STYLESHEET
  1

  9
$XEDIT
290
     1
  9
$CEPSNTYPE
380
     0
  9
$PSTYLEMODE
290
     1
  9
$FINGERPRINTGUID
  2
{CDF544AC-E325-45AD-9B07-4B5D64589C46}
  9
$VERSIONGUID
  2
{FAEB1C32-E019-11D5-929B-00C0DF256EC4}
  9
$EXTNAMES
290
     1
  9
$PSVPSCALE
 40
0.0
  9
$OLESTARTUP
290
     0
  9
$SORTENTS
280
   127
  9
$INDEXCTL
280
     0
  9
$HIDETEXT
280
     1
  9
$XCLIPFRAME
290
     0
  9
$HALOGAP
280
     0
  9
$OBSCOLOR
 70
   257
  9
$OBSLTYPE
280
     0
  9
$INTERSECTIONDISPLAY
280
     0
  9
$INTERSECTIONCOLOR
 70
   257
  9
$DIMASSOC
280
     2
  9
$PROJECTNAME
  1

  0
ENDSEC
  0
SECTION
  2
CLASSES
  0
CLASS
  1
ACDBDICTIONARYWDFLT
  2
AcDbDictionaryWithDefault
  3
ObjectDBX Classes
 90
        0
 91
        4
280
     0
281
     0
  0
CLASS
  1
VISUALSTYLE
  2
AcDbVisualStyle
  3
ObjectDBX Classes
 90
     4095
 91
        4
280
     0
281
     0
  0
CLASS
  1
MATERIAL
  2
AcDbMaterial
  3
ObjectDBX Classes
 90
     1153
 91
        4
280
     0
281
     0
  0
CLASS
  1
SCALE
  2
AcDbScale
  3
ObjectDBX Classes
 90
     1153
 91
        4
280
     0
281
     0
  0
CLASS
  1
TABLESTYLE
  2
AcDbTableStyle
  3
ObjectDBX Classes
 90
     4095
 91
        4
280
     0
281
     0
  0
CLASS
  1
MLEADERSTYLE
  2
AcDbMLeaderStyle
  3
ACDB_MLEADERSTYLE_CLASS
 90
     4095
 91
        4
280
     0
281
     0
  0
CLASS
  1
SUN
  2
AcDbSun
  3
SCENEOE
 90
     1153
 91
        4
280
     0
281
     0
  0
CLASS
  1
DICTIONARYVAR
  2
AcDbDictionaryVar
  3
ObjectDBX Classes
 90
        0
 91
        4
280
     0
281
     0
  0
CLASS
  1
CELLSTYLEMAP
  2
AcDbCellStyleMap
  3
ObjectDBX Classes
 90
     1152
 91
        4
280
     0
281
     0
  0
ENDSEC
  0
SECTION
  2
TABLES
  0
TABLE
  2
VPORT
  5
8
102
{ACAD_XDICTIONARY
360
24A
102
}
330
0
100
AcDbSymbolTable
 70
     1
  0
VPORT
  5
29
330
8
100
AcDbSymbolTableRecord
100
AcDbViewportTableRecord
  2
*Active
 70
     0
 10
0.0
 20
0.0
 11
1.0
 21
1.0
 12
0.0
 22
0.0
 13
0.0
 23
0.0
 14
10.0
 24
10.0
 15
10.0
 25
10.0
 16
0.0
 26
0.0
 36
1.0
 17
0.0
 27
0.0
 37
0.0
 40
1960.2
 41
1.414141414141414
 42
50.0
 43
0.0
 44
0.0
 50
0.0
 51
0.0
 71
     0
 72
 10000
 73
     1
 74
     3
 75
     0
 76
     0
 77
     0
 78
     0
281
     0
 65
     1
110
0.0
120
0.0
130
0.0
111
1.0
121
0.0
131
0.0
112
0.0
122
1.0
132
0.0
 79
     0
146
0.0
  0
ENDTAB
  0
TABLE
  2
LTYPE
  5
5
330
0
100
AcDbSymbolTable
 70
     4
  0
LTYPE
  5
14
330
5
100
AcDbSymbolTableRecord
100
AcDbLinetypeTableRecord
  2
ByBlock
 70
     0
  3

 72
    65
 73
     0
 40
0.0
  0
LTYPE
  5
15
330
5
100
AcDbSymbolTableRecord
100
AcDbLinetypeTableRecord
  2
ByLayer
 70
     0
  3

 72
    65
 73
     0
 40
0.0
  0
LTYPE
  5
16
330
5
100
AcDbSymbolTableRecord
100
AcDbLinetypeTableRecord
  2
Continuous
 70
     0
  3
Solid line
 72
    65
 73
     0
 40
0.0
  0
LTYPE
  5
6F
330
5
100
AcDbSymbolTableRecord
100
AcDbLinetypeTableRecord
  2
JWW_CENTER1
 70
     0
  3
-----  --  ----------  --  -----
 72
    65
 73
     4
 40
6.773333333333333
 49
4.233333333333333
 74
     0
 49
-0.8466666666666667
 74
     0
 49
0.8466666666666667
 74
     0
 49
-0.8466666666666667
 74
     0
  0
LTYPE
  5
70
330
5
100
AcDbSymbolTableRecord
100
AcDbLinetypeTableRecord
  2
JWW_DASHED1
 70
     0
  3
-  --  --  --  --  --  --  --  -
 72
    65
 73
     2
 40
1.693333333333333
 49
0.8466666666666667
 74
     0
 49
-0.8466666666666667
 74
     0
  0
LTYPE
  5
71
330
5
100
AcDbSymbolTableRecord
100
AcDbLinetypeTableRecord
  2
JWW_PHANTOM1
 70
     0
  3
----  -  -  --------  -  -  ----
 72
    65
 73
     6
 40
6.773333333333333
 49
3.386666666666667
 74
     0
 49
-0.8466666666666667
 74
     0
 49
0.4233333333333333
 74
     0
 49
-0.8466666666666667
 74
     0
 49
0.4233333333333333
 74
     0
 49
-0.8466666666666667
 74
     0
  0
ENDTAB
  0
TABLE
  2
LAYER
  5
2
330
0
100
AcDbSymbolTable
 70
    11
  0
LAYER
  5
10
330
2
100
AcDbSymbolTableRecord
100
AcDbLayerTableRecord
  2
0
 70
     0
 62
     7
  6
Continuous
370
    -3
390
F
  0
LAYER
  5
72
330
2
100
AcDbSymbolTableRecord
100
AcDbLayerTableRecord
  2
A-F_断熱材
 70
     0
 62
     7
  6
Continuous
370
    -3
390
F
  0
LAYER
  5
73
330
2
100
AcDbSymbolTableRecord
100
AcDbLayerTableRecord
  2
A-0_通り芯
 70
     0
 62
     7
  6
Continuous
370
    -3
390
F
  0
LAYER
  5
74
330
2
100
AcDbSymbolTableRecord
100
AcDbLayerTableRecord
  2
A-4_文字
 70
     0
 62
     7
  6
Continuous
370
    -3
390
F
  0
LAYER
  5
75
330
2
100
AcDbSymbolTableRecord
100
AcDbLayerTableRecord
  2
F-5ﾚｲﾔ
 70
     0
 62
     7
  6
Continuous
370
    -3
390
F
  0
LAYER
  5
76
330
2
100
AcDbSymbolTableRecord
100
AcDbLayerTableRecord
  2
D-F_断熱材
 70
     0
 62
     7
  6
Continuous
370
    -3
390
F
  0
LAYER
  5
77
330
2
100
AcDbSymbolTableRecord
100
AcDbLayerTableRecord
  2
D-5_建具
 70
     0
 62
     7
  6
Continuous
370
    -3
390
F
  0
LAYER
  5
78
330
2
100
AcDbSymbolTableRecord
100
AcDbLayerTableRecord
  2
D-2_仕上
 70
     0
 62
     7
  6
Continuous
370
    -3
390
F
  0
LAYER
  5
79
330
2
100
AcDbSymbolTableRecord
100
AcDbLayerTableRecord
  2
D-6_間仕切
 70
     0
 62
     7
  6
Continuous
370
    -3
390
F
  0
LAYER
  5
7A
330
2
100
AcDbSymbolTableRecord
100
AcDbLayerTableRecord
  2
D-0_通り芯
 70
     0
 62
     7
  6
Continuous
370
    -3
390
F
  0
LAYER
  5
7B
330
2
100
AcDbSymbolTableRecord
100
AcDbLayerTableRecord
  2
D-4_文字
 70
     0
 62
     7
  6
Continuous
370
    -3
390
F
  0
ENDTAB
  0
TABLE
  2
STYLE
  5
3
330
0
100
AcDbSymbolTable
 70
     2
  0
STYLE
  5
11
330
3
100
AcDbSymbolTableRecord
100
AcDbTextStyleTableRecord
  2
Standard
 70
     0
 40
0.0
 41
1.0
 50
0.0
 71
     0
 42
2.5
  3
txt
  4

  0
STYLE
  5
6E
330
3
100
AcDbSymbolTableRecord
100
AcDbTextStyleTableRecord
  2
ＭＳ ゴシック
 70
     0
 40
1.0
 41
1.0
 50
0.0
 71
     0
 42
2.5
  3

  4

1001
ACAD
1000
MS Gothic
1071
    32817
  0
ENDTAB
  0
TABLE
  2
VIEW
  5
6
330
0
100
AcDbSymbolTable
 70
     0
  0
ENDTAB
  0
TABLE
  2
UCS
  5
7
330
0
100
AcDbSymbolTable
 70
     0
  0
ENDTAB
  0
TABLE
  2
APPID
  5
9
330
0
100
AcDbSymbolTable
 70
     2
  0
APPID
  5
12
330
9
100
AcDbSymbolTableRecord
100
AcDbRegAppTableRecord
  2
ACAD
 70
     0
  0
APPID
  5
289
330
9
100
AcDbSymbolTableRecord
100
AcDbRegAppTableRecord
  2
ACAD_MLEADERVER
 70
     0
  0
ENDTAB
  0
TABLE
  2
DIMSTYLE
  5
A
330
0
100
AcDbSymbolTable
 70
     1
100
AcDbDimStyleTable
  0
DIMSTYLE
105
27
330
A
100
AcDbSymbolTableRecord
100
AcDbDimStyleTableRecord
  2
ISO-25
 70
     0
 41
2.5
 42
0.625
 43
3.75
 44
1.25
 73
     0
 74
     0
 77
     1
 78
     8
140
2.5
141
2.5
143
0.03937007874016
147
0.625
171
     3
172
     1
178
     0
271
     2
272
     2
274
     3
278
    44
283
     0
284
     8
340
11
  0
ENDTAB
  0
TABLE
  2
BLOCK_RECORD
  5
1
330
0
100
AcDbSymbolTable
 70
     1
  0
BLOCK_RECORD
  5
1F
330
1
100
AcDbSymbolTableRecord
100
AcDbBlockTableRecord
  2
*Model_Space
340
22
  0
BLOCK_RECORD
  5
1B
330
1
100
AcDbSymbolTableRecord
100
AcDbBlockTableRecord
  2
*Paper_Space
340
1E
  0
BLOCK_RECORD
  5
23
330
1
100
AcDbSymbolTableRecord
100
AcDbBlockTableRecord
  2
*Paper_Space0
340
26
  0
ENDTAB
  0
ENDSEC
  0
SECTION
  2
BLOCKS
  0
BLOCK
  5
20
330
1F
100
AcDbEntity
  8
0
100
AcDbBlockBegin
  2
*Model_Space
 70
     0
 10
0.0
 20
0.0
 30
0.0
  3
*Model_Space
  1

  0
ENDBLK
  5
21
330
1F
100
AcDbEntity
  8
0
100
AcDbBlockEnd
  0
BLOCK
  5
1C
330
1B
100
AcDbEntity
 67
     1
  8
0
100
AcDbBlockBegin
  2
*Paper_Space
 70
     0
 10
0.0
 20
0.0
 30
0.0
  3
*Paper_Space
  1

  0
ENDBLK
  5
1D
330
1B
100
AcDbEntity
 67
     1
  8
0
100
AcDbBlockEnd
  0
BLOCK
  5
24
330
23
100
AcDbEntity
  8
0
100
AcDbBlockBegin
  2
*Paper_Space0
 70
     0
 10
0.0
 20
0.0
 30
0.0
  3
*Paper_Space0
  1

  0
ENDBLK
  5
25
330
23
100
AcDbEntity
  8
0
100
AcDbBlockEnd
  0
ENDSEC
  0
SECTION
  2
ENTITIES
  0
TEXT
  5
7C
330
1F
100
AcDbEntity
  8
A-F_断熱材
  6
Continuous
 62
     2
370
     9
100
AcDbText
 10
-1108.83937755644
 20
775.5812428140031
 30
0.0
 40
18.288
  1
平面図　Ｓ＝１：６
 41
1.111111111111111
  7
ＭＳ ゴシック
100
AcDbText
  0
LINE
  5
7D
330
1F
100
AcDbEntity
  8
A-F_断熱材
  6
Continuous
 62
     7
370
     9
100
AcDbLine
 10
-1121.162773052327
 20
765.9912755851998
 30
0.0
 11
-861.4237060519853
 21
765.9912755851998
 31
0.0
  0
LINE
  5
7E
330
1F
100
AcDbEntity
  8
A-F_断熱材
  6
Continuous
 62
     7
370
     9
100
AcDbLine
 10
-1121.162773052327
 20
804.6452293789791
 30
0.0
 11
-861.4237060519853
 21
804.6452293789791
 31
0.0
  0
LINE
  5
7F
330
1F
100
AcDbEntity
  8
A-F_断熱材
  6
Continuous
 62
     7
370
     9
100
AcDbLine
 10
-1121.162773052327
 20
804.6452293789791
 30
0.0
 11
-1121.162773052327
 21
765.9912755851998
 31
0.0
  0
LINE
  5
80
330
1F
100
AcDbEntity
  8
A-F_断熱材
  6
Continuous
 62
     7
370
     9
100
AcDbLine
 10
-861.4237060519853
 20
804.6452293789791
 30
0.0
 11
-861.4237060519853
 21
765.9912755851998
 31
0.0
  0
LINE
  5
81
330
1F
100
AcDbEntity
  8
A-F_断熱材
  6
Continuous
 62
     7
370
     9
100
AcDbLine
 10
-1121.162773052327
 20
377.3373217914208
 30
0.0
 11
-861.4237060519853
 21
377.3373217914208
 31
0.0
  0
LINE
  5
82
330
1F
100
AcDbEntity
  8
A-F_断熱材
  6
Continuous
 62
     7
370
     9
100
AcDbLine
 10
-1121.162773052327
 20
415.9912755851998
 30
0.0
 11
-861.4237060519853
 21
415.9912755851998
 31
0.0
  0
LINE
  5
83
330
1F
100
AcDbEntity
  8
A-F_断熱材
  6
Continuous
 62
     7
370
     9
100
AcDbLine
 10
-1121.162773052327
 20
415.9912755851998
 30
0.0
 11
-1121.162773052327
 21
377.3373217914208
 31
0.0
  0
LINE
  5
84
330
1F
100
AcDbEntity
  8
A-F_断熱材
  6
Continuous
 62
     7
370
     9
100
AcDbLine
 10
-861.4237060519853
 20
415.9912755851998
 30
0.0
 11
-861.4237060519853
 21
377.3373217914208
 31
0.0
  0
LINE
  5
85
330
1F
100
AcDbEntity
  8
A-0_通り芯
  6
Continuous
 62
     3
370
     9
100
AcDbLine
 10
-1012.499257680532
 20
233.5373217914206
 30
0.0
 11
1012.499257680532
 21
233.5373217914206
 31
0.0
  0
LINE
  5
86
330
1F
100
AcDbEntity
  8
A-0_通り芯
  6
Continuous
 62
     3
370
     9
100
AcDbLine
 10
-1012.499257680532
 20
282.3373217914205
 30
0.0
 11
-1012.499257680532
 21
232.3373217914207
 31
0.0
  0
LINE
  5
87
330
1F
100
AcDbEntity
  8
A-0_通り芯
  6
Continuous
 62
     3
370
     9
100
AcDbLine
 10
-1012.499257680532
 20
282.3373217914205
 30
0.0
 11
1012.499257680532
 21
282.3373217914205
 31
0.0
  0
LINE
  5
88
330
1F
100
AcDbEntity
  8
A-0_通り芯
  6
Continuous
 62
     3
370
     9
100
AcDbLine
 10
-1012.499257680532
 20
232.3373217914207
 30
0.0
 11
1012.499257680532
 21
232.3373217914207
 31
0.0
  0
LINE
  5
89
330
1F
100
AcDbEntity
  8
A-0_通り芯
  6
Continuous
 62
     3
370
     9
100
AcDbLine
 10
1012.499257680532
 20
282.3373217914205
 30
0.0
 11
1012.499257680532
 21
232.3373217914207
 31
0.0
  0
LINE
  5
8A
330
1F
100
AcDbEntity
  8
A-0_通り芯
  6
Continuous
 62
     3
370
     9
100
AcDbLine
 10
-784.9999999999999
 20
242.3373217914207
 30
0.0
 11
-714.9999999999995
 21
242.3373217914207
 31
0.0
  0
LINE
  5
8B
330
1F
100
AcDbEntity
  8
A-4_文字
  6
Continuous
 62
     7
370
     9
100
AcDbLine
 10
-827.3009096418299
 20
232.3373217914207
 30
0.0
 11
-827.3009096418299
 21
242.3373217914207
 31
0.0
  0
LWPOLYLINE
  5
8C
330
1F
100
AcDbEntity
  8
A-4_文字
  6
Continuous
 62
     7
370
     9
100
AcDbPolyline
 90
        4
 70
     1
 43
1.2
 10
-826.7009096418299
 20
232.3373217914207
 42
0.4142135623731
 10
-827.3009096418299
 20
232.9373217914207
 42
0.4142135623731
 10
-827.9009096418299
 20
232.3373217914207
 42
0.4142135623731
 10
-827.3009096418299
 20
231.7373217914207
 42
0.4142135623731
  0
LWPOLYLINE
  5
8D
330
1F
100
AcDbEntity
  8
A-4_文字
  6
Continuous
 62
     7
370
     9
100
AcDbPolyline
 90
        4
 70
     1
 43
1.2
 10
-826.7009096418299
 20
242.3373217914207
 42
0.4142135623731
 10
-827.3009096418299
 20
242.9373217914207
 42
0.4142135623731
 10
-827.9009096418299
 20
242.3373217914207
 42
0.4142135623731
 10
-827.3009096418299
 20
241.7373217914207
 42
0.4142135623731
  0
LINE
  5
8E
330
1F
100
AcDbEntity
  8
A-4_文字
  6
Continuous
 62
     7
370
     9
100
AcDbLine
 10
-829.1009096418296
 20
242.3373217914207
 30
0.0
 11
-796.9999999999999
 21
242.3373217914207
 31
0.0
  0
TEXT
  5
8F
330
1F
100
AcDbEntity
  8
A-4_文字
  6
Continuous
 62
     2
370
   211
100
AcDbText
 10
-834.28490964183
 20
203.9339520136344
 30
0.0
 40
18.288
  1
10
 50
90.0
 41
1.0625
  7
ＭＳ ゴシック
100
AcDbText
  0
LINE
  5
90
330
1F
100
AcDbEntity
  8
A-4_文字
  6
Continuous
 62
     7
370
     9
100
AcDbLine
 10
-827.3009096418299
 20
232.3373217914207
 30
0.0
 11
-827.3009096418299
 21
203.1601380242678
 31
0.0
  0
LINE
  5
91
330
1F
100
AcDbEntity
  8
A-4_文字
  6
Continuous
 62
     7
370
     9
100
AcDbLine
 10
-784.9999999999999
 20
303.4184128877445
 30
0.0
 11
-714.9999999999995
 21
303.4184128877445
 31
0.0
  0
LWPOLYLINE
  5
92
330
1F
100
AcDbEntity
  8
A-4_文字
  6
Continuous
 62
     7
370
     9
100
AcDbPolyline
 90
        4
 70
     1
 43
1.2
 10
-784.3999999999999
 20
303.4184128877445
 42
0.4142135623731
 10
-784.9999999999999
 20
304.0184128877445
 42
0.4142135623731
 10
-785.5999999999999
 20
303.4184128877445
 42
0.4142135623731
 10
-784.9999999999999
 20
302.8184128877445
 42
0.4142135623731
  0
LWPOLYLINE
  5
93
330
1F
100
AcDbEntity
  8
A-4_文字
  6
Continuous
 62
     7
370
     9
100
AcDbPolyline
 90
        4
 70
     1
 43
1.2
 10
-714.3999999999995
 20
303.4184128877445
 42
0.4142135623731
 10
-714.9999999999995
 20
304.0184128877445
 42
0.4142135623731
 10
-715.5999999999995
 20
303.4184128877445
 42
0.4142135623731
 10
-714.9999999999995
 20
302.8184128877445
 42
0.4142135623731
  0
LINE
  5
94
330
1F
100
AcDbEntity
  8
A-4_文字
  6
Continuous
 62
     7
370
     9
100
AcDbLine
 10
-784.9999999999999
 20
305.2184128877442
 30
0.0
 11
-784.9999999999999
 21
254.3373217914207
 31
0.0
  0
LINE
  5
95
330
1F
100
AcDbEntity
  8
A-4_文字
  6
Continuous
 62
     7
370
     9
100
AcDbLine
 10
-714.9999999999995
 20
305.2184128877442
 30
0.0
 11
-714.9999999999995
 21
254.3373217914207
 31
0.0
  0
TEXT
  5
96
330
1F
100
AcDbEntity
  8
A-4_文字
  6
Continuous
 62
     2
370
   211
100
AcDbText
 10
-762.7499999999998
 20
310.4024128877446
 30
0.0
 40
18.288
  1
70
 41
1.0625
  7
ＭＳ ゴシック
100
AcDbText
  0
LINE
  5
97
330
1F
100
AcDbEntity
  8
A-0_通り芯
  6
Continuous
 62
     3
370
     9
100
AcDbLine
 10
-485.0000000000001
 20
242.3373217914207
 30
0.0
 11
-414.9999999999996
 21
242.3373217914207
 31
0.0
  0
LINE
  5
98
330
1F
100
AcDbEntity
  8
A-0_通り芯
  6
Continuous
 62
     3
370
     9
100
AcDbLine
 10
-184.9999999999997
 20
242.3373217914207
 30
0.0
 11
-114.9999999999999
 21
242.3373217914207
 31
0.0
  0
LINE
  5
99
330
1F
100
AcDbEntity
  8
A-0_通り芯
  6
Continuous
 62
     3
370
     9
100
AcDbLine
 10
115.0000000000003
 20
242.3373217914207
 30
0.0
 11
185.0000000000004
 21
242.3373217914207
 31
0.0
  0
LINE
  5
9A
330
1F
100
AcDbEntity
  8
A-0_通り芯
  6
Continuous
 62
     3
370
     9
100
AcDbLine
 10
414.9999999999999
 20
242.3373217914207
 30
0.0
 11
485.0000000000001
 21
242.3373217914207
 31
0.0
  0
LINE
  5
9B
330
1F
100
AcDbEntity
  8
A-0_通り芯
  6
Continuous
 62
     3
370
     9
100
AcDbLine
 10
715.0
 20
242.3373217914207
 30
0.0
 11
784.9999999999999
 21
242.3373217914207
 31
0.0
  0
LINE
  5
9C
330
1F
100
AcDbEntity
  8
A-4_文字
  6
Continuous
 62
     7
370
     9
100
AcDbLine
 10
-749.9999999999998
 20
160.2086841885401
 30
0.0
 11
-449.9999999999998
 21
160.2086841885401
 31
0.0
  0
LWPOLYLINE
  5
9D
330
1F
100
AcDbEntity
  8
A-4_文字
  6
Continuous
 62
     7
370
     9
100
AcDbPolyline
 90
        4
 70
     1
 43
1.2
 10
-749.3999999999997
 20
160.2086841885401
 42
0.4142135623731
 10
-749.9999999999998
 20
160.8086841885402
 42
0.4142135623731
 10
-750.5999999999997
 20
160.2086841885401
 42
0.4142135623731
 10
-749.9999999999998
 20
159.6086841885401
 42
0.4142135623731
  0
LWPOLYLINE
  5
9E
330
1F
100
AcDbEntity
  8
A-4_文字
  6
Continuous
 62
     7
370
     9
100
AcDbPolyline
 90
        4
 70
     1
 43
1.2
 10
-449.3999999999999
 20
160.2086841885401
 42
0.4142135623731
 10
-449.9999999999998
 20
160.8086841885402
 42
0.4142135623731
 10
-450.5999999999998
 20
160.2086841885401
 42
0.4142135623731
 10
-449.9999999999998
 20
159.6086841885401
 42
0.4142135623731
  0
TEXT
  5
9F
330
1F
100
AcDbEntity
  8
A-4_文字
  6
Continuous
 62
     2
370
   211
100
AcDbText
 10
-619.4999999999998
 20
167.1926841885403
 30
0.0
 40
18.288
  1
300
 41
1.083333333333333
  7
ＭＳ ゴシック
100
AcDbText
  0
LINE
  5
A0
330
1F
100
AcDbEntity
  8
A-4_文字
  6
Continuous
 62
     7
370
     9
100
AcDbLine
 10
-749.9999999999998
 20
158.4086841885401
 30
0.0
 11
-749.9999999999998
 21
218.1462106390812
 31
0.0
  0
LINE
  5
A1
330
1F
100
AcDbEntity
  8
A-4_文字
  6
Continuous
 62
     7
370
     9
100
AcDbLine
 10
-449.9999999999998
 20
158.4086841885401
 30
0.0
 11
-449.9999999999998
 21
218.1462106390812
 31
0.0
  0
LINE
  5
A2
330
1F
100
AcDbEntity
  8
A-0_通り芯
  6
JWW_CENTER1
 62
     3
370
     9
100
AcDbLine
 10
-997.4993566564609
 20
243.5442672622822
 30
0.0
 11
-997.4993566564609
 21
221.1303763205591
 31
0.0
  0
LINE
  5
A3
330
1F
100
AcDbEntity
  8
A-0_通り芯
  6
Continuous
 62
     3
370
     9
100
AcDbLine
 10
784.9999999999999
 20
242.3373217914207
 30
0.0
 11
784.9999999999999
 21
233.5373217914206
 31
0.0
  0
LINE
  5
A4
330
1F
100
AcDbEntity
  8
A-0_通り芯
  6
Continuous
 62
     3
370
     9
100
AcDbLine
 10
-714.9999999999995
 20
242.3373217914207
 30
0.0
 11
-714.9999999999995
 21
233.5373217914206
 31
0.0
  0
LINE
  5
A5
330
1F
100
AcDbEntity
  8
A-0_通り芯
  6
Continuous
 62
     3
370
     9
100
AcDbLine
 10
-485.0000000000001
 20
242.3373217914207
 30
0.0
 11
-485.0000000000001
 21
233.5373217914206
 31
0.0
  0
LINE
  5
A6
330
1F
100
AcDbEntity
  8
A-0_通り芯
  6
Continuous
 62
     3
370
     9
100
AcDbLine
 10
-414.9999999999996
 20
242.3373217914207
 30
0.0
 11
-414.9999999999996
 21
233.5373217914206
 31
0.0
  0
LINE
  5
A7
330
1F
100
AcDbEntity
  8
A-0_通り芯
  6
Continuous
 62
     3
370
     9
100
AcDbLine
 10
-184.9999999999997
 20
242.3373217914207
 30
0.0
 11
-184.9999999999997
 21
233.5373217914206
 31
0.0
  0
LINE
  5
A8
330
1F
100
AcDbEntity
  8
A-0_通り芯
  6
Continuous
 62
     3
370
     9
100
AcDbLine
 10
-114.9999999999999
 20
242.3373217914207
 30
0.0
 11
-114.9999999999999
 21
233.5373217914206
 31
0.0
  0
LINE
  5
A9
330
1F
100
AcDbEntity
  8
A-0_通り芯
  6
Continuous
 62
     3
370
     9
100
AcDbLine
 10
115.0000000000003
 20
242.3373217914207
 30
0.0
 11
115.0000000000003
 21
233.5373217914206
 31
0.0
  0
LINE
  5
AA
330
1F
100
AcDbEntity
  8
A-0_通り芯
  6
Continuous
 62
     3
370
     9
100
AcDbLine
 10
185.0000000000004
 20
242.3373217914207
 30
0.0
 11
185.0000000000004
 21
233.5373217914206
 31
0.0
  0
LINE
  5
AB
330
1F
100
AcDbEntity
  8
A-0_通り芯
  6
Continuous
 62
     3
370
     9
100
AcDbLine
 10
414.9999999999999
 20
242.3373217914207
 30
0.0
 11
414.9999999999999
 21
233.5373217914206
 31
0.0
  0
LINE
  5
AC
330
1F
100
AcDbEntity
  8
A-0_通り芯
  6
Continuous
 62
     3
370
     9
100
AcDbLine
 10
485.0000000000001
 20
242.3373217914207
 30
0.0
 11
485.0000000000001
 21
233.5373217914206
 31
0.0
  0
LINE
  5
AD
330
1F
100
AcDbEntity
  8
A-0_通り芯
  6
Continuous
 62
     3
370
     9
100
AcDbLine
 10
715.0
 20
242.3373217914207
 30
0.0
 11
715.0
 21
233.5373217914206
 31
0.0
  0
LINE
  5
AE
330
1F
100
AcDbEntity
  8
A-0_通り芯
  6
Continuous
 62
     3
370
     9
100
AcDbLine
 10
-784.9999999999999
 20
242.3373217914207
 30
0.0
 11
-784.9999999999999
 21
233.5373217914206
 31
0.0
  0
LINE
  5
AF
330
1F
100
AcDbEntity
  8
A-0_通り芯
  6
JWW_DASHED1
 62
     3
370
     9
100
AcDbLine
 10
-784.9999999999999
 20
232.3373217914207
 30
0.0
 11
-784.9999999999999
 21
233.5373217914206
 31
0.0
  0
LINE
  5
B0
330
1F
100
AcDbEntity
  8
A-0_通り芯
  6
JWW_DASHED1
 62
     3
370
     9
100
AcDbLine
 10
-714.9999999999995
 20
232.3373217914207
 30
0.0
 11
-714.9999999999995
 21
233.5373217914206
 31
0.0
  0
LINE
  5
B1
330
1F
100
AcDbEntity
  8
A-0_通り芯
  6
JWW_DASHED1
 62
     3
370
     9
100
AcDbLine
 10
-485.0000000000001
 20
232.3373217914207
 30
0.0
 11
-485.0000000000001
 21
233.5373217914206
 31
0.0
  0
LINE
  5
B2
330
1F
100
AcDbEntity
  8
A-0_通り芯
  6
JWW_DASHED1
 62
     3
370
     9
100
AcDbLine
 10
-414.9999999999996
 20
232.3373217914207
 30
0.0
 11
-414.9999999999996
 21
233.5373217914206
 31
0.0
  0
LINE
  5
B3
330
1F
100
AcDbEntity
  8
A-0_通り芯
  6
JWW_DASHED1
 62
     3
370
     9
100
AcDbLine
 10
-184.9999999999997
 20
232.3373217914207
 30
0.0
 11
-184.9999999999997
 21
233.5373217914206
 31
0.0
  0
LINE
  5
B4
330
1F
100
AcDbEntity
  8
A-0_通り芯
  6
JWW_DASHED1
 62
     3
370
     9
100
AcDbLine
 10
-114.9999999999999
 20
232.3373217914207
 30
0.0
 11
-114.9999999999999
 21
233.5373217914206
 31
0.0
  0
LINE
  5
B5
330
1F
100
AcDbEntity
  8
A-0_通り芯
  6
JWW_DASHED1
 62
     3
370
     9
100
AcDbLine
 10
115.0000000000003
 20
232.3373217914207
 30
0.0
 11
115.0000000000003
 21
233.5373217914206
 31
0.0
  0
LINE
  5
B6
330
1F
100
AcDbEntity
  8
A-0_通り芯
  6
JWW_DASHED1
 62
     3
370
     9
100
AcDbLine
 10
185.0000000000004
 20
232.3373217914207
 30
0.0
 11
185.0000000000004
 21
233.5373217914206
 31
0.0
  0
LINE
  5
B7
330
1F
100
AcDbEntity
  8
A-0_通り芯
  6
JWW_DASHED1
 62
     3
370
     9
100
AcDbLine
 10
414.9999999999999
 20
232.3373217914207
 30
0.0
 11
414.9999999999999
 21
233.5373217914206
 31
0.0
  0
LINE
  5
B8
330
1F
100
AcDbEntity
  8
A-0_通り芯
  6
JWW_DASHED1
 62
     3
370
     9
100
AcDbLine
 10
485.0000000000004
 20
232.3373217914207
 30
0.0
 11
485.0000000000004
 21
233.5373217914206
 31
0.0
  0
LINE
  5
B9
330
1F
100
AcDbEntity
  8
A-0_通り芯
  6
JWW_DASHED1
 62
     3
370
     9
100
AcDbLine
 10
715.0
 20
232.3373217914207
 30
0.0
 11
715.0
 21
233.5373217914206
 31
0.0
  0
LINE
  5
BA
330
1F
100
AcDbEntity
  8
A-0_通り芯
  6
JWW_DASHED1
 62
     3
370
     9
100
AcDbLine
 10
784.9999999999998
 20
232.3373217914207
 30
0.0
 11
784.9999999999998
 21
233.5373217914206
 31
0.0
  0
LINE
  5
BB
330
1F
100
AcDbEntity
  8
A-0_通り芯
  6
Continuous
 62
     3
370
     9
100
AcDbLine
 10
-1012.499257680532
 20
272.0373217914207
 30
0.0
 11
1012.499257680532
 21
272.0373217914207
 31
0.0
  0
TEXT
  5
BC
330
1F
100
AcDbEntity
  8
A-F_断熱材
  6
Continuous
 62
     2
370
     9
100
AcDbText
 10
-1108.83937755644
 20
386.9272890202241
 30
0.0
 40
18.288
  1
背面図　Ｓ＝１：６
 41
1.111111111111111
  7
ＭＳ ゴシック
100
AcDbText
  0
LINE
  5
BD
330
1F
100
AcDbEntity
  8
A-F_断熱材
  6
Continuous
 62
     7
370
     9
100
AcDbLine
 10
-672.4634437604195
 20
349.727901112853
 30
0.0
 11
-422.019850142387
 21
349.727901112853
 31
0.0
  0
TEXT
  5
BE
330
1F
100
AcDbEntity
  8
A-F_断熱材
  6
Continuous
 62
     2
370
     9
100
AcDbText
 10
-669.8846524676146
 20
358.254008878734
 30
0.0
 40
18.288
  1
水抜き穴：＠３００
 41
1.111111111111111
  7
ＭＳ ゴシック
100
AcDbText
  0
LINE
  5
BF
330
1F
100
AcDbEntity
  8
A-0_通り芯
  6
Continuous
 62
     3
370
     9
100
AcDbLine
 10
-1012.499257680532
 20
656.1829350617968
 30
0.0
 11
-1012.499257680532
 21
581.1829845497614
 31
0.0
  0
LINE
  5
C0
330
1F
100
AcDbEntity
  8
A-0_通り芯
  6
Continuous
 62
     3
370
     9
100
AcDbLine
 10
-1012.499257680532
 20
656.1829350617968
 30
0.0
 11
1012.499257680533
 21
656.1829350617968
 31
0.0
  0
LINE
  5
C1
330
1F
100
AcDbEntity
  8
A-F_断熱材
  6
Continuous
 62
     7
370
     9
100
AcDbLine
 10
-1080.596676388302
 20
581.1829845497614
 30
0.0
 11
-1080.596676388302
 21
656.1829350617968
 31
0.0
  0
LINE
  5
C2
330
1F
100
AcDbEntity
  8
A-F_断熱材
  6
Continuous
 62
     7
370
     9
100
AcDbLine
 10
-1022.499191696579
 20
581.1829845497614
 30
0.0
 11
-1082.097052496832
 21
581.1829845497614
 31
0.0
  0
LINE
  5
C3
330
1F
100
AcDbEntity
  8
A-F_断熱材
  6
Continuous
 62
     7
370
     9
100
AcDbLine
 10
-1022.499191696579
 20
656.1829350617968
 30
0.0
 11
-1082.097052496832
 21
656.1829350617968
 31
0.0
  0
LINE
  5
C4
330
1F
100
AcDbEntity
  8
A-0_通り芯
  6
Continuous
 62
     3
370
     9
100
AcDbLine
 10
1012.499257680533
 20
656.1829350617968
 30
0.0
 11
1012.499257680533
 21
581.1829845497614
 31
0.0
  0
LINE
  5
C5
330
1F
100
AcDbEntity
  8
A-0_通り芯
  6
Continuous
 62
     3
370
     9
100
AcDbLine
 10
-1012.499257680532
 20
653.7830162220587
 30
0.0
 11
1012.499257680533
 21
653.7830162220587
 31
0.0
  0
LINE
  5
C6
330
1F
100
AcDbEntity
  8
A-0_通り芯
  6
Continuous
 62
     3
370
     9
100
AcDbLine
 10
-982.4994556323896
 20
581.1829845497614
 30
0.0
 11
-982.4994556323896
 21
653.7830162220587
 31
0.0
  0
LINE
  5
C7
330
1F
100
AcDbEntity
  8
A-0_通り芯
  6
Continuous
 62
     3
370
     9
100
AcDbLine
 10
-912.7493368612746
 20
581.1829845497614
 30
0.0
 11
-912.7493368612746
 21
653.7830162220587
 31
0.0
  0
LINE
  5
C8
330
1F
100
AcDbEntity
  8
A-0_通り芯
  6
Continuous
 62
     3
370
     9
100
AcDbLine
 10
-882.7492378853458
 20
581.1829845497614
 30
0.0
 11
-882.7492378853458
 21
653.7830162220587
 31
0.0
  0
LINE
  5
C9
330
1F
100
AcDbEntity
  8
A-0_通り芯
  6
Continuous
 62
     3
370
     9
100
AcDbLine
 10
-812.9994160420181
 20
581.1829845497614
 30
0.0
 11
-812.9994160420181
 21
653.7830162220587
 31
0.0
  0
LINE
  5
CA
330
1F
100
AcDbEntity
  8
A-0_通り芯
  6
Continuous
 62
     3
370
     9
100
AcDbLine
 10
-782.9994655299827
 20
581.1829845497614
 30
0.0
 11
-782.9994655299827
 21
653.7830162220587
 31
0.0
  0
LINE
  5
CB
330
1F
100
AcDbEntity
  8
A-0_通り芯
  6
Continuous
 62
     3
370
     9
100
AcDbLine
 10
-713.2494952227614
 20
581.1829845497614
 30
0.0
 11
-713.2494952227614
 21
653.7830162220587
 31
0.0
  0
LINE
  5
CC
330
1F
100
AcDbEntity
  8
A-0_通り芯
  6
Continuous
 62
     3
370
     9
100
AcDbLine
 10
-683.2493962468322
 20
581.1829845497614
 30
0.0
 11
-683.2493962468322
 21
653.7830162220587
 31
0.0
  0
LINE
  5
CD
330
1F
100
AcDbEntity
  8
A-0_通り芯
  6
Continuous
 62
     3
370
     9
100
AcDbLine
 10
-613.4995744035045
 20
581.1829845497614
 30
0.0
 11
-613.4995744035045
 21
653.7830162220587
 31
0.0
  0
LINE
  5
CE
330
1F
100
AcDbEntity
  8
A-0_通り芯
  6
Continuous
 62
     3
370
     9
100
AcDbLine
 10
-583.4994754275754
 20
581.1829845497614
 30
0.0
 11
-583.4994754275754
 21
653.7830162220587
 31
0.0
  0
LINE
  5
CF
330
1F
100
AcDbEntity
  8
A-0_通り芯
  6
Continuous
 62
     3
370
     9
100
AcDbLine
 10
-513.7496535842478
 20
581.1829845497614
 30
0.0
 11
-513.7496535842478
 21
653.7830162220587
 31
0.0
  0
LINE
  5
D0
330
1F
100
AcDbEntity
  8
A-0_通り芯
  6
Continuous
 62
     3
370
     9
100
AcDbLine
 10
-483.7495546083187
 20
581.1829845497614
 30
0.0
 11
-483.7495546083187
 21
653.7830162220587
 31
0.0
  0
LINE
  5
D1
330
1F
100
AcDbEntity
  8
A-0_通り芯
  6
Continuous
 62
     3
370
     9
100
AcDbLine
 10
-413.9997327649911
 20
581.1829845497614
 30
0.0
 11
-413.9997327649911
 21
653.7830162220587
 31
0.0
  0
LINE
  5
D2
330
1F
100
AcDbEntity
  8
A-0_通り芯
  6
Continuous
 62
     3
370
     9
100
AcDbLine
 10
-383.999633789062
 20
581.1829845497614
 30
0.0
 11
-383.999633789062
 21
653.7830162220587
 31
0.0
  0
LINE
  5
D3
330
1F
100
AcDbEntity
  8
A-0_通り芯
  6
Continuous
 62
     3
370
     9
100
AcDbLine
 10
-314.2498119457343
 20
581.1829845497614
 30
0.0
 11
-314.2498119457343
 21
653.7830162220587
 31
0.0
  0
LINE
  5
D4
330
1F
100
AcDbEntity
  8
A-0_通り芯
  6
Continuous
 62
     3
370
     9
100
AcDbLine
 10
-284.2500098975925
 20
581.1829845497614
 30
0.0
 11
-284.2500098975925
 21
653.7830162220587
 31
0.0
  0
LINE
  5
D5
330
1F
100
AcDbEntity
  8
A-0_通り芯
  6
Continuous
 62
     3
370
     9
100
AcDbLine
 10
-214.4998911264775
 20
581.1829845497614
 30
0.0
 11
-214.4998911264775
 21
653.7830162220587
 31
0.0
  0
LINE
  5
D6
330
1F
100
AcDbEntity
  8
A-0_通り芯
  6
Continuous
 62
     3
370
     9
100
AcDbLine
 10
-184.499940614442
 20
581.1829845497614
 30
0.0
 11
-184.499940614442
 21
653.7830162220587
 31
0.0
  0
LINE
  5
D7
330
1F
100
AcDbEntity
  8
A-0_通り芯
  6
Continuous
 62
     3
370
     9
100
AcDbLine
 10
-84.74987133129167
 20
581.1829845497614
 30
0.0
 11
-84.74987133129167
 21
653.7830162220587
 31
0.0
  0
LINE
  5
D8
330
1F
100
AcDbEntity
  8
A-0_通り芯
  6
Continuous
 62
     3
370
     9
100
AcDbLine
 10
-114.7499703072207
 20
581.1829845497614
 30
0.0
 11
-114.7499703072207
 21
653.7830162220587
 31
0.0
  0
LINE
  5
D9
330
1F
100
AcDbEntity
  8
A-0_通り芯
  6
Continuous
 62
     3
370
     9
100
AcDbLine
 10
-15.00004948796402
 20
581.1829845497614
 30
0.0
 11
-15.00004948796402
 21
653.7830162220587
 31
0.0
  0
LINE
  5
DA
330
1F
100
AcDbEntity
  8
A-0_通り芯
  6
Continuous
 62
     3
370
     9
100
AcDbLine
 10
84.7498713312927
 20
581.1829845497614
 30
0.0
 11
84.7498713312927
 21
653.7830162220587
 31
0.0
  0
LINE
  5
DB
330
1F
100
AcDbEntity
  8
A-0_通り芯
  6
Continuous
 62
     3
370
     9
100
AcDbLine
 10
114.7499703072218
 20
581.1829845497614
 30
0.0
 11
114.7499703072218
 21
653.7830162220587
 31
0.0
  0
LINE
  5
DC
330
1F
100
AcDbEntity
  8
A-0_通り芯
  6
Continuous
 62
     3
370
     9
100
AcDbLine
 10
184.4997921505496
 20
581.1829845497614
 30
0.0
 11
184.4997921505496
 21
653.7830162220587
 31
0.0
  0
LINE
  5
DD
330
1F
100
AcDbEntity
  8
A-0_通り芯
  6
Continuous
 62
     3
370
     9
100
AcDbLine
 10
214.4998911264786
 20
581.1829845497614
 30
0.0
 11
214.4998911264786
 21
653.7830162220587
 31
0.0
  0
LINE
  5
DE
330
1F
100
AcDbEntity
  8
A-0_通り芯
  6
Continuous
 62
     3
370
     9
100
AcDbLine
 10
314.2498119457352
 20
581.1829845497614
 30
0.0
 11
314.2498119457352
 21
653.7830162220587
 31
0.0
  0
LINE
  5
DF
330
1F
100
AcDbEntity
  8
A-0_通り芯
  6
Continuous
 62
     3
370
     9
100
AcDbLine
 10
284.2497129698061
 20
581.1829845497614
 30
0.0
 11
284.2497129698061
 21
653.7830162220587
 31
0.0
  0
LINE
  5
E0
330
1F
100
AcDbEntity
  8
A-0_通り芯
  6
Continuous
 62
     3
370
     9
100
AcDbLine
 10
383.999633789063
 20
581.1829845497614
 30
0.0
 11
383.999633789063
 21
653.7830162220587
 31
0.0
  0
LINE
  5
E1
330
1F
100
AcDbEntity
  8
A-0_通り芯
  6
Continuous
 62
     3
370
     9
100
AcDbLine
 10
413.9997327649921
 20
581.1829845497614
 30
0.0
 11
413.9997327649921
 21
653.7830162220587
 31
0.0
  0
LINE
  5
E2
330
1F
100
AcDbEntity
  8
A-0_通り芯
  6
Continuous
 62
     3
370
     9
100
AcDbLine
 10
483.7495546083199
 20
581.1829845497614
 30
0.0
 11
483.7495546083199
 21
653.7830162220587
 31
0.0
  0
LINE
  5
E3
330
1F
100
AcDbEntity
  8
A-0_通り芯
  6
Continuous
 62
     3
370
     9
100
AcDbLine
 10
513.749653584249
 20
581.1829845497614
 30
0.0
 11
513.749653584249
 21
653.7830162220587
 31
0.0
  0
LINE
  5
E4
330
1F
100
AcDbEntity
  8
A-0_通り芯
  6
Continuous
 62
     3
370
     9
100
AcDbLine
 10
583.4994754275765
 20
581.1829845497614
 30
0.0
 11
583.4994754275765
 21
653.7830162220587
 31
0.0
  0
LINE
  5
E5
330
1F
100
AcDbEntity
  8
A-0_通り芯
  6
Continuous
 62
     3
370
     9
100
AcDbLine
 10
613.4995744035054
 20
581.1829845497614
 30
0.0
 11
613.4995744035054
 21
653.7830162220587
 31
0.0
  0
LINE
  5
E6
330
1F
100
AcDbEntity
  8
A-0_通り芯
  6
Continuous
 62
     3
370
     9
100
AcDbLine
 10
683.2493962468334
 20
581.1829845497614
 30
0.0
 11
683.2493962468334
 21
653.7830162220587
 31
0.0
  0
LINE
  5
E7
330
1F
100
AcDbEntity
  8
A-0_通り芯
  6
Continuous
 62
     3
370
     9
100
AcDbLine
 10
713.2494952227623
 20
581.1829845497614
 30
0.0
 11
713.2494952227623
 21
653.7830162220587
 31
0.0
  0
LINE
  5
E8
330
1F
100
AcDbEntity
  8
A-0_通り芯
  6
Continuous
 62
     3
370
     9
100
AcDbLine
 10
782.9993170660903
 20
581.1829845497614
 30
0.0
 11
782.9993170660903
 21
653.7830162220587
 31
0.0
  0
LINE
  5
E9
330
1F
100
AcDbEntity
  8
A-0_通り芯
  6
Continuous
 62
     3
370
     9
100
AcDbLine
 10
812.9994160420191
 20
581.1829845497614
 30
0.0
 11
812.9994160420191
 21
653.7830162220587
 31
0.0
  0
LINE
  5
EA
330
1F
100
AcDbEntity
  8
A-0_通り芯
  6
Continuous
 62
     3
370
     9
100
AcDbLine
 10
882.7492378853466
 20
581.1829845497614
 30
0.0
 11
882.7492378853466
 21
653.7830162220587
 31
0.0
  0
LINE
  5
EB
330
1F
100
AcDbEntity
  8
A-0_通り芯
  6
Continuous
 62
     3
370
     9
100
AcDbLine
 10
982.4991587046035
 20
581.1829845497614
 30
0.0
 11
982.4991587046035
 21
653.7830162220587
 31
0.0
  0
LINE
  5
EC
330
1F
100
AcDbEntity
  8
A-0_通り芯
  6
Continuous
 62
     3
370
     9
100
AcDbLine
 10
912.7493368612759
 20
581.1829845497614
 30
0.0
 11
912.7493368612759
 21
653.7830162220587
 31
0.0
  0
LINE
  5
ED
330
1F
100
AcDbEntity
  8
A-0_通り芯
  6
Continuous
 62
     3
370
     9
100
AcDbLine
 10
-982.4994556323896
 20
581.1829845497614
 30
0.0
 11
-1012.499257680532
 21
581.1829845497614
 31
0.0
  0
LINE
  5
EE
330
1F
100
AcDbEntity
  8
A-0_通り芯
  6
Continuous
 62
     3
370
     9
100
AcDbLine
 10
-882.7492378853458
 20
581.1829845497614
 30
0.0
 11
-912.7493368612746
 21
581.1829845497614
 31
0.0
  0
LINE
  5
EF
330
1F
100
AcDbEntity
  8
A-0_通り芯
  6
Continuous
 62
     3
370
     9
100
AcDbLine
 10
-782.9994655299827
 20
581.1829845497614
 30
0.0
 11
-812.9994160420181
 21
581.1829845497614
 31
0.0
  0
LINE
  5
F0
330
1F
100
AcDbEntity
  8
A-0_通り芯
  6
Continuous
 62
     3
370
     9
100
AcDbLine
 10
-683.2493962468322
 20
581.1829845497614
 30
0.0
 11
-713.2494952227614
 21
581.1829845497614
 31
0.0
  0
LINE
  5
F1
330
1F
100
AcDbEntity
  8
A-0_通り芯
  6
Continuous
 62
     3
370
     9
100
AcDbLine
 10
-583.4994754275754
 20
581.1829845497614
 30
0.0
 11
-613.4995744035045
 21
581.1829845497614
 31
0.0
  0
LINE
  5
F2
330
1F
100
AcDbEntity
  8
A-0_通り芯
  6
Continuous
 62
     3
370
     9
100
AcDbLine
 10
-483.7495546083187
 20
581.1829845497614
 30
0.0
 11
-513.7496535842478
 21
581.1829845497614
 31
0.0
  0
LINE
  5
F3
330
1F
100
AcDbEntity
  8
A-0_通り芯
  6
Continuous
 62
     3
370
     9
100
AcDbLine
 10
-383.999633789062
 20
581.1829845497614
 30
0.0
 11
-414.0000296927782
 21
581.1829845497614
 31
0.0
  0
LINE
  5
F4
330
1F
100
AcDbEntity
  8
A-0_通り芯
  6
Continuous
 62
     3
370
     9
100
AcDbLine
 10
-284.2500098975925
 20
581.1829845497614
 30
0.0
 11
-314.2498119457343
 21
581.1829845497614
 31
0.0
  0
LINE
  5
F5
330
1F
100
AcDbEntity
  8
A-0_通り芯
  6
Continuous
 62
     3
370
     9
100
AcDbLine
 10
-184.499940614442
 20
581.1829845497614
 30
0.0
 11
-214.4998911264775
 21
581.1829845497614
 31
0.0
  0
LINE
  5
F6
330
1F
100
AcDbEntity
  8
A-0_通り芯
  6
Continuous
 62
     3
370
     9
100
AcDbLine
 10
-84.74987133129167
 20
581.1829845497614
 30
0.0
 11
-114.7499703072207
 21
581.1829845497614
 31
0.0
  0
LINE
  5
F7
330
1F
100
AcDbEntity
  8
A-0_通り芯
  6
Continuous
 62
     3
370
     9
100
AcDbLine
 10
15.00004948796504
 20
581.1829845497614
 30
0.0
 11
-15.00004948796402
 21
581.1829845497614
 31
0.0
  0
LINE
  5
F8
330
1F
100
AcDbEntity
  8
A-0_通り芯
  6
Continuous
 62
     3
370
     9
100
AcDbLine
 10
114.7499703072218
 20
581.1829845497614
 30
0.0
 11
84.7498713312927
 21
581.1829845497614
 31
0.0
  0
LINE
  5
F9
330
1F
100
AcDbEntity
  8
A-0_通り芯
  6
Continuous
 62
     3
370
     9
100
AcDbLine
 10
214.4998911264786
 20
581.1829845497614
 30
0.0
 11
184.4997921505496
 21
581.1829845497614
 31
0.0
  0
LINE
  5
FA
330
1F
100
AcDbEntity
  8
A-0_通り芯
  6
Continuous
 62
     3
370
     9
100
AcDbLine
 10
314.2498119457352
 20
581.1829845497614
 30
0.0
 11
284.2497129698061
 21
581.1829845497614
 31
0.0
  0
LINE
  5
FB
330
1F
100
AcDbEntity
  8
A-0_通り芯
  6
Continuous
 62
     3
370
     9
100
AcDbLine
 10
413.9997327649921
 20
581.1829845497614
 30
0.0
 11
383.999633789063
 21
581.1829845497614
 31
0.0
  0
LINE
  5
FC
330
1F
100
AcDbEntity
  8
A-0_通り芯
  6
Continuous
 62
     3
370
     9
100
AcDbLine
 10
513.749653584249
 20
581.1829845497614
 30
0.0
 11
483.7495546083199
 21
581.1829845497614
 31
0.0
  0
LINE
  5
FD
330
1F
100
AcDbEntity
  8
A-0_通り芯
  6
Continuous
 62
     3
370
     9
100
AcDbLine
 10
613.4995744035054
 20
581.1829845497614
 30
0.0
 11
583.4994754275765
 21
581.1829845497614
 31
0.0
  0
LINE
  5
FE
330
1F
100
AcDbEntity
  8
A-0_通り芯
  6
Continuous
 62
     3
370
     9
100
AcDbLine
 10
713.2494952227623
 20
581.1829845497614
 30
0.0
 11
683.2493962468334
 21
581.1829845497614
 31
0.0
  0
LINE
  5
FF
330
1F
100
AcDbEntity
  8
A-0_通り芯
  6
Continuous
 62
     3
370
     9
100
AcDbLine
 10
812.9994160420191
 20
581.1829845497614
 30
0.0
 11
782.9993170660903
 21
581.1829845497614
 31
0.0
  0
LINE
  5
100
330
1F
100
AcDbEntity
  8
A-0_通り芯
  6
Continuous
 62
     3
370
     9
100
AcDbLine
 10
1012.499257680533
 20
581.1829845497614
 30
0.0
 11
982.4991587046035
 21
581.1829845497614
 31
0.0
  0
LINE
  5
101
330
1F
100
AcDbEntity
  8
A-0_通り芯
  6
Continuous
 62
     3
370
     9
100
AcDbLine
 10
912.7493368612759
 20
581.1829845497614
 30
0.0
 11
882.7492378853466
 21
581.1829845497614
 31
0.0
  0
LINE
  5
102
330
1F
100
AcDbEntity
  8
A-0_通り芯
  6
JWW_CENTER1
 62
     3
370
     9
100
AcDbLine
 10
-1005.213837494721
 20
621.182869077844
 30
0.0
 11
-989.7848758182006
 21
621.182869077844
 31
0.0
  0
LINE
  5
103
330
1F
100
AcDbEntity
  8
A-0_通り芯
  6
JWW_CENTER1
 62
     3
370
     9
100
AcDbLine
 10
-997.4993566564608
 20
613.4683882395839
 30
0.0
 11
-997.4993566564608
 21
628.8973499161043
 31
0.0
  0
LINE
  5
104
330
1F
100
AcDbEntity
  8
A-0_通り芯
  6
JWW_CENTER1
 62
     3
370
     9
100
AcDbLine
 10
-905.463916675464
 20
621.182869077844
 30
0.0
 11
-890.0349549989439
 21
621.182869077844
 31
0.0
  0
LINE
  5
105
330
1F
100
AcDbEntity
  8
A-0_通り芯
  6
JWW_CENTER1
 62
     3
370
     9
100
AcDbLine
 10
-897.7494358372039
 20
613.4683882395839
 30
0.0
 11
-897.7494358372039
 21
628.8973499161043
 31
0.0
  0
LINE
  5
106
330
1F
100
AcDbEntity
  8
A-0_通り芯
  6
JWW_CENTER1
 62
     3
370
     9
100
AcDbLine
 10
-805.7139958562071
 20
621.182869077844
 30
0.0
 11
-790.285034179687
 21
621.182869077844
 31
0.0
  0
LINE
  5
107
330
1F
100
AcDbEntity
  8
A-0_通り芯
  6
JWW_CENTER1
 62
     3
370
     9
100
AcDbLine
 10
-797.9995150179471
 20
613.4683882395839
 30
0.0
 11
-797.9995150179471
 21
628.8973499161043
 31
0.0
  0
LINE
  5
108
330
1F
100
AcDbEntity
  8
A-0_通り芯
  6
JWW_CENTER1
 62
     3
370
     9
100
AcDbLine
 10
-705.9640750369504
 20
621.182869077844
 30
0.0
 11
-690.5351133604303
 21
621.182869077844
 31
0.0
  0
LINE
  5
109
330
1F
100
AcDbEntity
  8
A-0_通り芯
  6
JWW_CENTER1
 62
     3
370
     9
100
AcDbLine
 10
-698.2495941986904
 20
613.4683882395839
 30
0.0
 11
-698.2495941986904
 21
628.8973499161043
 31
0.0
  0
LINE
  5
10A
330
1F
100
AcDbEntity
  8
A-0_通り芯
  6
JWW_CENTER1
 62
     3
370
     9
100
AcDbLine
 10
-606.2141542176938
 20
621.182869077844
 30
0.0
 11
-590.7851925411735
 21
621.182869077844
 31
0.0
  0
LINE
  5
10B
330
1F
100
AcDbEntity
  8
A-0_通り芯
  6
JWW_CENTER1
 62
     3
370
     9
100
AcDbLine
 10
-598.4996733794335
 20
613.4683882395839
 30
0.0
 11
-598.4996733794335
 21
628.8973499161043
 31
0.0
  0
LINE
  5
10C
330
1F
100
AcDbEntity
  8
A-0_通り芯
  6
JWW_CENTER1
 62
     3
370
     9
100
AcDbLine
 10
-506.464233398437
 20
621.182869077844
 30
0.0
 11
-491.0352717219167
 21
621.182869077844
 31
0.0
  0
LINE
  5
10D
330
1F
100
AcDbEntity
  8
A-0_通り芯
  6
JWW_CENTER1
 62
     3
370
     9
100
AcDbLine
 10
-498.7497525601768
 20
613.4683882395839
 30
0.0
 11
-498.7497525601768
 21
628.8973499161043
 31
0.0
  0
LINE
  5
10E
330
1F
100
AcDbEntity
  8
A-0_通り芯
  6
JWW_CENTER1
 62
     3
370
     9
100
AcDbLine
 10
-406.7143125791803
 20
621.182869077844
 30
0.0
 11
-391.28535090266
 21
621.182869077844
 31
0.0
  0
LINE
  5
10F
330
1F
100
AcDbEntity
  8
A-0_通り芯
  6
JWW_CENTER1
 62
     3
370
     9
100
AcDbLine
 10
-398.9998317409201
 20
613.4683882395839
 30
0.0
 11
-398.9998317409201
 21
628.8973499161043
 31
0.0
  0
LINE
  5
110
330
1F
100
AcDbEntity
  8
A-0_通り芯
  6
JWW_CENTER1
 62
     3
370
     9
100
AcDbLine
 10
-306.9643917599236
 20
621.182869077844
 30
0.0
 11
-291.5354300834032
 21
621.182869077844
 31
0.0
  0
LINE
  5
111
330
1F
100
AcDbEntity
  8
A-0_通り芯
  6
JWW_CENTER1
 62
     3
370
     9
100
AcDbLine
 10
-299.2499109216634
 20
613.4683882395839
 30
0.0
 11
-299.2499109216634
 21
628.8973499161043
 31
0.0
  0
LINE
  5
112
330
1F
100
AcDbEntity
  8
A-0_通り芯
  6
JWW_CENTER1
 62
     3
370
     9
100
AcDbLine
 10
-207.2144709406667
 20
621.182869077844
 30
0.0
 11
-191.7855092641464
 21
621.182869077844
 31
0.0
  0
LINE
  5
113
330
1F
100
AcDbEntity
  8
A-0_通り芯
  6
JWW_CENTER1
 62
     3
370
     9
100
AcDbLine
 10
-199.4999901024065
 20
613.4683882395839
 30
0.0
 11
-199.4999901024065
 21
628.8973499161043
 31
0.0
  0
LINE
  5
114
330
1F
100
AcDbEntity
  8
A-0_通り芯
  6
JWW_CENTER1
 62
     3
370
     9
100
AcDbLine
 10
-107.46455012141
 20
621.182869077844
 30
0.0
 11
-92.03558844488964
 21
621.182869077844
 31
0.0
  0
LINE
  5
115
330
1F
100
AcDbEntity
  8
A-0_通り芯
  6
JWW_CENTER1
 62
     3
370
     9
100
AcDbLine
 10
-99.7500692831498
 20
613.4683882395839
 30
0.0
 11
-99.7500692831498
 21
628.8973499161043
 31
0.0
  0
LINE
  5
116
330
1F
100
AcDbEntity
  8
A-0_通り芯
  6
JWW_CENTER1
 62
     3
370
     9
100
AcDbLine
 10
-7.714629302153241
 20
621.182869077844
 30
0.0
 11
7.714332374367075
 21
621.182869077844
 31
0.0
  0
LINE
  5
117
330
1F
100
AcDbEntity
  8
A-0_通り芯
  6
JWW_CENTER1
 62
     3
370
     9
100
AcDbLine
 10
-0.0001484638930833
 20
613.4683882395839
 30
0.0
 11
-0.0001484638930833
 21
628.8973499161043
 31
0.0
  0
LINE
  5
118
330
1F
100
AcDbEntity
  8
A-0_通り芯
  6
JWW_CENTER1
 62
     3
370
     9
100
AcDbLine
 10
92.03529151710364
 20
621.182869077844
 30
0.0
 11
107.4642531936238
 21
621.182869077844
 31
0.0
  0
LINE
  5
119
330
1F
100
AcDbEntity
  8
A-0_通り芯
  6
JWW_CENTER1
 62
     3
370
     9
100
AcDbLine
 10
99.74977235536363
 20
613.4683882395839
 30
0.0
 11
99.74977235536363
 21
628.8973499161043
 31
0.0
  0
LINE
  5
11A
330
1F
100
AcDbEntity
  8
A-0_通り芯
  6
JWW_CENTER1
 62
     3
370
     9
100
AcDbLine
 10
191.7852123363604
 20
621.182869077844
 30
0.0
 11
207.2141740128805
 21
621.182869077844
 31
0.0
  0
LINE
  5
11B
330
1F
100
AcDbEntity
  8
A-0_通り芯
  6
JWW_CENTER1
 62
     3
370
     9
100
AcDbLine
 10
199.4996931746205
 20
613.4683882395839
 30
0.0
 11
199.4996931746205
 21
628.8973499161043
 31
0.0
  0
LINE
  5
11C
330
1F
100
AcDbEntity
  8
A-0_通り芯
  6
JWW_CENTER1
 62
     3
370
     9
100
AcDbLine
 10
291.5351331556171
 20
621.182869077844
 30
0.0
 11
306.9640948321374
 21
621.182869077844
 31
0.0
  0
LINE
  5
11D
330
1F
100
AcDbEntity
  8
A-0_通り芯
  6
JWW_CENTER1
 62
     3
370
     9
100
AcDbLine
 10
299.2496139938774
 20
613.4683882395839
 30
0.0
 11
299.2496139938774
 21
628.8973499161043
 31
0.0
  0
LINE
  5
11E
330
1F
100
AcDbEntity
  8
A-0_通り芯
  6
JWW_CENTER1
 62
     3
370
     9
100
AcDbLine
 10
391.285053974874
 20
621.182869077844
 30
0.0
 11
406.7140156513943
 21
621.182869077844
 31
0.0
  0
LINE
  5
11F
330
1F
100
AcDbEntity
  8
A-0_通り芯
  6
JWW_CENTER1
 62
     3
370
     9
100
AcDbLine
 10
398.9995348131339
 20
613.4683882395839
 30
0.0
 11
398.9995348131339
 21
628.8973499161043
 31
0.0
  0
LINE
  5
120
330
1F
100
AcDbEntity
  8
A-0_通り芯
  6
JWW_CENTER1
 62
     3
370
     9
100
AcDbLine
 10
491.0349747941305
 20
621.182869077844
 30
0.0
 11
506.4639364706508
 21
621.182869077844
 31
0.0
  0
LINE
  5
121
330
1F
100
AcDbEntity
  8
A-0_通り芯
  6
JWW_CENTER1
 62
     3
370
     9
100
AcDbLine
 10
498.7494556323908
 20
613.4683882395839
 30
0.0
 11
498.7494556323908
 21
628.8973499161043
 31
0.0
  0
LINE
  5
122
330
1F
100
AcDbEntity
  8
A-0_通り芯
  6
JWW_CENTER1
 62
     3
370
     9
100
AcDbLine
 10
590.7848956133873
 20
621.182869077844
 30
0.0
 11
606.2138572899078
 21
621.182869077844
 31
0.0
  0
LINE
  5
123
330
1F
100
AcDbEntity
  8
A-0_通り芯
  6
JWW_CENTER1
 62
     3
370
     9
100
AcDbLine
 10
598.4993764516473
 20
613.4683882395839
 30
0.0
 11
598.4993764516473
 21
628.8973499161043
 31
0.0
  0
LINE
  5
124
330
1F
100
AcDbEntity
  8
A-0_通り芯
  6
JWW_CENTER1
 62
     3
370
     9
100
AcDbLine
 10
690.5348164326442
 20
621.182869077844
 30
0.0
 11
705.9637781091642
 21
621.182869077844
 31
0.0
  0
LINE
  5
125
330
1F
100
AcDbEntity
  8
A-0_通り芯
  6
JWW_CENTER1
 62
     3
370
     9
100
AcDbLine
 10
698.2492972709042
 20
613.4683882395839
 30
0.0
 11
698.2492972709042
 21
628.8973499161043
 31
0.0
  0
LINE
  5
126
330
1F
100
AcDbEntity
  8
A-0_通り芯
  6
JWW_CENTER1
 62
     3
370
     9
100
AcDbLine
 10
790.2847372519009
 20
621.182869077844
 30
0.0
 11
805.713698928421
 21
621.182869077844
 31
0.0
  0
LINE
  5
127
330
1F
100
AcDbEntity
  8
A-0_通り芯
  6
JWW_CENTER1
 62
     3
370
     9
100
AcDbLine
 10
797.999218090161
 20
613.4683882395839
 30
0.0
 11
797.999218090161
 21
628.8973499161043
 31
0.0
  0
LINE
  5
128
330
1F
100
AcDbEntity
  8
A-0_通り芯
  6
JWW_CENTER1
 62
     3
370
     9
100
AcDbLine
 10
890.0346580711578
 20
621.182869077844
 30
0.0
 11
905.4636197476779
 21
621.182869077844
 31
0.0
  0
LINE
  5
129
330
1F
100
AcDbEntity
  8
A-0_通り芯
  6
JWW_CENTER1
 62
     3
370
     9
100
AcDbLine
 10
897.7491389094178
 20
613.4683882395839
 30
0.0
 11
897.7491389094178
 21
628.8973499161043
 31
0.0
  0
LINE
  5
12A
330
1F
100
AcDbEntity
  8
A-0_通り芯
  6
JWW_CENTER1
 62
     3
370
     9
100
AcDbLine
 10
989.7845788904147
 20
621.182869077844
 30
0.0
 11
1005.213540566935
 21
621.182869077844
 31
0.0
  0
LINE
  5
12B
330
1F
100
AcDbEntity
  8
A-0_通り芯
  6
JWW_CENTER1
 62
     3
370
     9
100
AcDbLine
 10
997.4990597286746
 20
613.4683882395839
 30
0.0
 11
997.4990597286746
 21
628.8973499161043
 31
0.0
  0
LINE
  5
12C
330
1F
100
AcDbEntity
  8
A-4_文字
  6
Continuous
 62
     7
370
     9
100
AcDbLine
 10
-897.7494358372039
 20
605.9684377275483
 30
0.0
 11
-897.7494358372039
 21
483.5593636143727
 31
0.0
  0
LINE
  5
12D
330
1F
100
AcDbEntity
  8
A-0_通り芯
  6
JWW_CENTER1
 62
     3
370
     9
100
AcDbLine
 10
-748.1247030722122
 20
664.9898132290265
 30
0.0
 11
-748.1247030722122
 21
642.5760707511971
 31
0.0
  0
LINE
  5
12E
330
1F
100
AcDbEntity
  8
A-0_通り芯
  6
JWW_CENTER1
 62
     3
370
     9
100
AcDbLine
 10
-448.8750890783356
 20
664.9898132290265
 30
0.0
 11
-448.8750890783356
 21
642.5760707511971
 31
0.0
  0
LINE
  5
12F
330
1F
100
AcDbEntity
  8
A-0_通り芯
  6
JWW_CENTER1
 62
     3
370
     9
100
AcDbLine
 10
-149.6256235483525
 20
664.9898132290265
 30
0.0
 11
-149.6256235483525
 21
642.5760707511971
 31
0.0
  0
LINE
  5
130
330
1F
100
AcDbEntity
  8
A-0_通り芯
  6
JWW_CENTER1
 62
     3
370
     9
100
AcDbLine
 10
149.6238419816307
 20
664.9898132290265
 30
0.0
 11
149.6238419816307
 21
642.5760707511971
 31
0.0
  0
LINE
  5
131
330
1F
100
AcDbEntity
  8
A-0_通り芯
  6
JWW_CENTER1
 62
     3
370
     9
100
AcDbLine
 10
448.8736044394008
 20
664.9898132290265
 30
0.0
 11
448.8736044394008
 21
642.5760707511971
 31
0.0
  0
LINE
  5
132
330
1F
100
AcDbEntity
  8
A-0_通り芯
  6
JWW_CENTER1
 62
     3
370
     9
100
AcDbLine
 10
748.1233668971711
 20
664.9898132290265
 30
0.0
 11
748.1233668971711
 21
642.5760707511971
 31
0.0
  0
LINE
  5
133
330
1F
100
AcDbEntity
  8
A-4_文字
  6
Continuous
 62
     7
370
     9
100
AcDbLine
 10
1064.93462639886
 20
581.1829845497614
 30
0.0
 11
1064.93462639886
 21
621.182869077844
 31
0.0
  0
LINE
  5
134
330
1F
100
AcDbEntity
  8
A-4_文字
  6
Continuous
 62
     7
370
     9
100
AcDbLine
 10
1021.499287373312
 20
581.1829845497614
 30
0.0
 11
1066.734602644637
 21
581.1829845497614
 31
0.0
  0
LINE
  5
135
330
1F
100
AcDbEntity
  8
A-4_文字
  6
Continuous
 62
     7
370
     9
100
AcDbLine
 10
1017.551929370778
 20
621.182869077844
 30
0.0
 11
1066.734602644637
 21
621.182869077844
 31
0.0
  0
LINE
  5
136
330
1F
100
AcDbEntity
  8
A-4_文字
  6
Continuous
 62
     7
370
     9
100
AcDbLine
 10
1064.93462639886
 20
621.182869077844
 30
0.0
 11
1064.93462639886
 21
656.1829350617968
 31
0.0
  0
LINE
  5
137
330
1F
100
AcDbEntity
  8
A-4_文字
  6
Continuous
 62
     7
370
     9
100
AcDbLine
 10
1021.499287373312
 20
656.1829350617968
 30
0.0
 11
1066.734602644637
 21
656.1829350617968
 31
0.0
  0
LINE
  5
138
330
1F
100
AcDbEntity
  8
A-4_文字
  6
Continuous
 62
     7
370
     9
100
AcDbLine
 10
-797.9995150179471
 20
604.4683585468052
 30
0.0
 11
-797.9995150179471
 21
483.259466549339
 31
0.0
  0
LINE
  5
139
330
1F
100
AcDbEntity
  8
A-4_文字
  6
Continuous
 62
     7
370
     9
100
AcDbLine
 10
-1012.499257680532
 20
572.1829548569826
 30
0.0
 11
-1012.499257680532
 21
528.4954499081862
 31
0.0
  0
LINE
  5
13A
330
1F
100
AcDbEntity
  8
A-4_文字
  6
Continuous
 62
     7
370
     9
100
AcDbLine
 10
-982.4994556323896
 20
572.1829548569826
 30
0.0
 11
-982.4994556323896
 21
528.4954499081862
 31
0.0
  0
LINE
  5
13B
330
1F
100
AcDbEntity
  8
A-4_文字
  6
Continuous
 62
     7
370
     9
100
AcDbLine
 10
-997.4993566564608
 20
605.9684377275483
 30
0.0
 11
-997.4993566564608
 21
557.1869138941449
 31
0.0
  0
CIRCLE
  5
13C
330
1F
100
AcDbEntity
  8
A-0_通り芯
  6
Continuous
 62
     3
370
     9
100
AcDbCircle
 10
-997.4993566564608
 20
621.182869077844
 30
0.0
 40
5.500000360849742
  0
CIRCLE
  5
13D
330
1F
100
AcDbEntity
  8
A-0_通り芯
  6
Continuous
 62
     3
370
     9
100
AcDbCircle
 10
-897.7494358372039
 20
621.182869077844
 30
0.0
 40
5.500000360849742
  0
CIRCLE
  5
13E
330
1F
100
AcDbEntity
  8
A-0_通り芯
  6
Continuous
 62
     3
370
     9
100
AcDbCircle
 10
-797.9995150179471
 20
621.182869077844
 30
0.0
 40
5.500000360849742
  0
CIRCLE
  5
13F
330
1F
100
AcDbEntity
  8
A-0_通り芯
  6
Continuous
 62
     3
370
     9
100
AcDbCircle
 10
-698.2498911264776
 20
621.182869077844
 30
0.0
 40
5.500000360849742
  0
CIRCLE
  5
140
330
1F
100
AcDbEntity
  8
A-0_通り芯
  6
Continuous
 62
     3
370
     9
100
AcDbCircle
 10
-598.4999703072208
 20
621.182869077844
 30
0.0
 40
5.500000360849742
  0
CIRCLE
  5
141
330
1F
100
AcDbEntity
  8
A-0_通り芯
  6
Continuous
 62
     3
370
     9
100
AcDbCircle
 10
-498.750049487964
 20
621.182869077844
 30
0.0
 40
5.500000360849742
  0
CIRCLE
  5
142
330
1F
100
AcDbEntity
  8
A-0_通り芯
  6
Continuous
 62
     3
370
     9
100
AcDbCircle
 10
-399.0001286687073
 20
621.182869077844
 30
0.0
 40
5.500000360849742
  0
CIRCLE
  5
143
330
1F
100
AcDbEntity
  8
A-0_通り芯
  6
Continuous
 62
     3
370
     9
100
AcDbCircle
 10
-299.2502078494504
 20
621.182869077844
 30
0.0
 40
5.500000360849742
  0
CIRCLE
  5
144
330
1F
100
AcDbEntity
  8
A-0_通り芯
  6
Continuous
 62
     3
370
     9
100
AcDbCircle
 10
-199.5002870301937
 20
621.182869077844
 30
0.0
 40
5.500000360849742
  0
CIRCLE
  5
145
330
1F
100
AcDbEntity
  8
A-0_通り芯
  6
Continuous
 62
     3
370
     9
100
AcDbCircle
 10
-99.75036621093699
 20
621.182869077844
 30
0.0
 40
5.500000360849742
  0
CIRCLE
  5
146
330
1F
100
AcDbEntity
  8
A-0_通り芯
  6
Continuous
 62
     3
370
     9
100
AcDbCircle
 10
-0.0004453916802731
 20
621.182869077844
 30
0.0
 40
5.500000360849742
  0
CIRCLE
  5
147
330
1F
100
AcDbEntity
  8
A-0_通り芯
  6
Continuous
 62
     3
370
     9
100
AcDbCircle
 10
99.74947542757661
 20
621.182869077844
 30
0.0
 40
5.500000360849742
  0
CIRCLE
  5
148
330
1F
100
AcDbEntity
  8
A-0_通り芯
  6
Continuous
 62
     3
370
     9
100
AcDbCircle
 10
199.4993962468333
 20
621.182869077844
 30
0.0
 40
5.500000360849742
  0
CIRCLE
  5
149
330
1F
100
AcDbEntity
  8
A-0_通り芯
  6
Continuous
 62
     3
370
     9
100
AcDbCircle
 10
299.2493170660902
 20
621.182869077844
 30
0.0
 40
5.500000360849742
  0
CIRCLE
  5
14A
330
1F
100
AcDbEntity
  8
A-0_通り芯
  6
Continuous
 62
     3
370
     9
100
AcDbCircle
 10
398.9992378853468
 20
621.182869077844
 30
0.0
 40
5.500000360849742
  0
CIRCLE
  5
14B
330
1F
100
AcDbEntity
  8
A-0_通り芯
  6
Continuous
 62
     3
370
     9
100
AcDbCircle
 10
498.7491587046036
 20
621.182869077844
 30
0.0
 40
5.500000360849742
  0
CIRCLE
  5
14C
330
1F
100
AcDbEntity
  8
A-0_通り芯
  6
Continuous
 62
     3
370
     9
100
AcDbCircle
 10
598.4990795238605
 20
621.182869077844
 30
0.0
 40
5.500000360849742
  0
CIRCLE
  5
14D
330
1F
100
AcDbEntity
  8
A-0_通り芯
  6
Continuous
 62
     3
370
     9
100
AcDbCircle
 10
698.2490003431171
 20
621.182869077844
 30
0.0
 40
5.500000360849742
  0
CIRCLE
  5
14E
330
1F
100
AcDbEntity
  8
A-0_通り芯
  6
Continuous
 62
     3
370
     9
100
AcDbCircle
 10
797.998921162374
 20
621.182869077844
 30
0.0
 40
5.500000360849742
  0
CIRCLE
  5
14F
330
1F
100
AcDbEntity
  8
A-0_通り芯
  6
Continuous
 62
     3
370
     9
100
AcDbCircle
 10
897.7488419816303
 20
621.182869077844
 30
0.0
 40
5.500000360849742
  0
CIRCLE
  5
150
330
1F
100
AcDbEntity
  8
A-0_通り芯
  6
Continuous
 62
     3
370
     9
100
AcDbCircle
 10
997.4987628008872
 20
621.182869077844
 30
0.0
 40
5.500000360849742
  0
LWPOLYLINE
  5
151
330
1F
100
AcDbEntity
  8
A-4_文字
  6
Continuous
 62
     7
370
     9
100
AcDbPolyline
 90
        4
 70
     1
 43
1.2
 10
-1079.996676388302
 20
656.1829350617968
 42
0.4142135623731
 10
-1080.596676388302
 20
656.7829350617968
 42
0.4142135623731
 10
-1081.196676388302
 20
656.1829350617968
 42
0.4142135623731
 10
-1080.596676388302
 20
655.5829350617969
 42
0.4142135623731
  0
LWPOLYLINE
  5
152
330
1F
100
AcDbEntity
  8
A-4_文字
  6
Continuous
 62
     7
370
     9
100
AcDbPolyline
 90
        4
 70
     1
 43
1.2
 10
-1079.996676388302
 20
581.1829845497614
 42
0.4142135623731
 10
-1080.596676388302
 20
581.7829845497614
 42
0.4142135623731
 10
-1081.196676388302
 20
581.1829845497614
 42
0.4142135623731
 10
-1080.596676388302
 20
580.5829845497615
 42
0.4142135623731
  0
LWPOLYLINE
  5
153
330
1F
100
AcDbEntity
  8
A-4_文字
  6
Continuous
 62
     7
370
     9
100
AcDbPolyline
 90
        4
 70
     1
 43
1.2
 10
1065.53462639886
 20
656.1829350617968
 42
0.4142135623731
 10
1064.93462639886
 20
656.7829350617968
 42
0.4142135623731
 10
1064.33462639886
 20
656.1829350617968
 42
0.4142135623731
 10
1064.93462639886
 20
655.5829350617969
 42
0.4142135623731
  0
LWPOLYLINE
  5
154
330
1F
100
AcDbEntity
  8
A-4_文字
  6
Continuous
 62
     7
370
     9
100
AcDbPolyline
 90
        4
 70
     1
 43
1.2
 10
1065.53462639886
 20
621.182869077844
 42
0.4142135623731
 10
1064.93462639886
 20
621.782869077844
 42
0.4142135623731
 10
1064.33462639886
 20
621.182869077844
 42
0.4142135623731
 10
1064.93462639886
 20
620.5828690778441
 42
0.4142135623731
  0
LWPOLYLINE
  5
155
330
1F
100
AcDbEntity
  8
A-4_文字
  6
Continuous
 62
     7
370
     9
100
AcDbPolyline
 90
        4
 70
     1
 43
1.2
 10
1065.53462639886
 20
581.1829845497614
 42
0.4142135623731
 10
1064.93462639886
 20
581.7829845497614
 42
0.4142135623731
 10
1064.33462639886
 20
581.1829845497614
 42
0.4142135623731
 10
1064.93462639886
 20
580.5829845497615
 42
0.4142135623731
  0
LINE
  5
156
330
1F
100
AcDbEntity
  8
A-4_文字
  6
Continuous
 62
     7
370
     9
100
AcDbLine
 10
-997.4993566564608
 20
485.0594427951161
 30
0.0
 11
-897.7494358372039
 21
485.0594427951161
 31
0.0
  0
LINE
  5
157
330
1F
100
AcDbEntity
  8
A-4_文字
  6
Continuous
 62
     7
370
     9
100
AcDbLine
 10
-897.7494358372039
 20
485.0594427951161
 30
0.0
 11
-797.9995150179471
 21
485.0594427951161
 31
0.0
  0
LINE
  5
158
330
1F
100
AcDbEntity
  8
A-4_文字
  6
Continuous
 62
     7
370
     9
100
AcDbLine
 10
-1012.499257680532
 20
530.295426153963
 30
0.0
 11
-982.4994556323896
 21
530.295426153963
 31
0.0
  0
LINE
  5
159
330
1F
100
AcDbEntity
  8
A-4_文字
  6
Continuous
 62
     7
370
     9
100
AcDbLine
 10
-997.4993566564608
 20
526.2768054825106
 30
0.0
 11
-997.4993566564608
 21
483.5593636143727
 31
0.0
  0
TEXT
  5
15A
330
1F
100
AcDbEntity
  8
A-4_文字
  6
Continuous
 62
     2
370
     9
100
AcDbText
 10
-967.1245261527392
 20
490.9434262991277
 30
0.0
 40
18.288
  1
100
 41
1.083333333333333
  7
ＭＳ ゴシック
100
AcDbText
  0
TEXT
  5
15B
330
1F
100
AcDbEntity
  8
A-4_文字
  6
Continuous
 62
     2
370
     9
100
AcDbText
 10
-867.3744568695887
 20
491.4434526927089
 30
0.0
 40
18.288
  1
100
 41
1.083333333333333
  7
ＭＳ ゴシック
100
AcDbText
  0
TEXT
  5
15C
330
1F
100
AcDbEntity
  8
A-4_文字
  6
Continuous
 62
     2
370
     9
100
AcDbText
 10
-1010.249356656461
 20
536.6794360515562
 30
0.0
 40
18.288
  1
30
 41
1.0625
  7
ＭＳ ゴシック
100
AcDbText
  0
LWPOLYLINE
  5
15D
330
1F
100
AcDbEntity
  8
A-4_文字
  6
Continuous
 62
     7
370
     9
100
AcDbPolyline
 90
        4
 70
     1
 43
1.2
 10
-996.8993566564608
 20
485.0594427951161
 42
0.4142135623731
 10
-997.4993566564608
 20
485.6594427951161
 42
0.4142135623731
 10
-998.0993566564607
 20
485.0594427951161
 42
0.4142135623731
 10
-997.4993566564608
 20
484.4594427951162
 42
0.4142135623731
  0
LWPOLYLINE
  5
15E
330
1F
100
AcDbEntity
  8
A-4_文字
  6
Continuous
 62
     7
370
     9
100
AcDbPolyline
 90
        4
 70
     1
 43
1.2
 10
-897.1494358372039
 20
485.0594427951161
 42
0.4142135623731
 10
-897.7494358372039
 20
485.6594427951161
 42
0.4142135623731
 10
-898.3494358372038
 20
485.0594427951161
 42
0.4142135623731
 10
-897.7494358372039
 20
484.4594427951162
 42
0.4142135623731
  0
LWPOLYLINE
  5
15F
330
1F
100
AcDbEntity
  8
A-4_文字
  6
Continuous
 62
     7
370
     9
100
AcDbPolyline
 90
        4
 70
     1
 43
1.2
 10
-797.3995150179471
 20
485.0594427951161
 42
0.4142135623731
 10
-797.9995150179471
 20
485.6594427951161
 42
0.4142135623731
 10
-798.5995150179472
 20
485.0594427951161
 42
0.4142135623731
 10
-797.9995150179471
 20
484.4594427951162
 42
0.4142135623731
  0
LWPOLYLINE
  5
160
330
1F
100
AcDbEntity
  8
A-4_文字
  6
Continuous
 62
     7
370
     9
100
AcDbPolyline
 90
        4
 70
     1
 43
1.2
 10
-1011.899257680531
 20
530.295426153963
 42
0.4142135623731
 10
-1012.499257680532
 20
530.8954261539631
 42
0.4142135623731
 10
-1013.099257680532
 20
530.295426153963
 42
0.4142135623731
 10
-1012.499257680532
 20
529.6954261539631
 42
0.4142135623731
  0
LWPOLYLINE
  5
161
330
1F
100
AcDbEntity
  8
A-4_文字
  6
Continuous
 62
     7
370
     9
100
AcDbPolyline
 90
        4
 70
     1
 43
1.2
 10
-981.8994556323896
 20
530.295426153963
 42
0.4142135623731
 10
-982.4994556323896
 20
530.8954261539631
 42
0.4142135623731
 10
-983.0994556323897
 20
530.295426153963
 42
0.4142135623731
 10
-982.4994556323896
 20
529.6954261539631
 42
0.4142135623731
  0
TEXT
  5
162
330
1F
100
AcDbEntity
  8
A-F_断熱材
  6
Continuous
 62
     2
370
     9
100
AcDbText
 10
-1086.480808356207
 20
608.057923514605
 30
0.0
 40
18.288
  1
75
 50
90.0
 41
1.0625
  7
ＭＳ ゴシック
100
AcDbText
  0
TEXT
  5
163
330
1F
100
AcDbEntity
  8
A-4_文字
  6
Continuous
 62
     2
370
     9
100
AcDbText
 10
1058.550616501267
 20
625.9329763017672
 30
0.0
 40
18.288
  1
35
 50
90.0
 41
1.0625
  7
ＭＳ ゴシック
100
AcDbText
  0
TEXT
  5
164
330
1F
100
AcDbEntity
  8
A-4_文字
  6
Continuous
 62
     2
370
     9
100
AcDbText
 10
1058.550616501267
 20
588.4329268138026
 30
0.0
 40
18.288
  1
40
 50
90.0
 41
1.0625
  7
ＭＳ ゴシック
100
AcDbText
  0
LINE
  5
165
330
1F
100
AcDbEntity
  8
A-F_断熱材
  6
Continuous
 62
     7
370
     9
100
AcDbLine
 10
-1012.499257680532
 20
708.0485370298429
 30
0.0
 11
1012.499257680533
 21
708.0485370298429
 31
0.0
  0
LINE
  5
166
330
1F
100
AcDbEntity
  8
A-F_断熱材
  6
Continuous
 62
     7
370
     9
100
AcDbLine
 10
-1012.499257680532
 20
666.1830175417376
 30
0.0
 11
-1012.499257680532
 21
709.548616210586
 31
0.0
  0
LINE
  5
167
330
1F
100
AcDbEntity
  8
A-F_断熱材
  6
Continuous
 62
     7
370
     9
100
AcDbLine
 10
1012.499257680533
 20
666.1830175417376
 30
0.0
 11
1012.499257680533
 21
709.548616210586
 31
0.0
  0
LWPOLYLINE
  5
168
330
1F
100
AcDbEntity
  8
A-4_文字
  6
Continuous
 62
     7
370
     9
100
AcDbPolyline
 90
        4
 70
     1
 43
1.2
 10
-1011.899257680531
 20
708.0485370298429
 42
0.4142135623731
 10
-1012.499257680532
 20
708.6485370298429
 42
0.4142135623731
 10
-1013.099257680532
 20
708.0485370298429
 42
0.4142135623731
 10
-1012.499257680532
 20
707.448537029843
 42
0.4142135623731
  0
LWPOLYLINE
  5
169
330
1F
100
AcDbEntity
  8
A-4_文字
  6
Continuous
 62
     7
370
     9
100
AcDbPolyline
 90
        4
 70
     1
 43
1.2
 10
1013.099257680533
 20
708.0485370298429
 42
0.4142135623731
 10
1012.499257680533
 20
708.6485370298429
 42
0.4142135623731
 10
1011.899257680533
 20
708.0485370298429
 42
0.4142135623731
 10
1012.499257680533
 20
707.448537029843
 42
0.4142135623731
  0
TEXT
  5
16A
330
1F
100
AcDbEntity
  8
A-F_断熱材
  6
Continuous
 62
     2
370
     9
100
AcDbText
 10
-21.87514021589894
 20
713.9326689977482
 30
0.0
 40
18.288
  1
2025
 41
1.09375
  7
ＭＳ ゴシック
100
AcDbText
  0
LINE
  5
16B
330
1F
100
AcDbEntity
  8
A-0_通り芯
  6
Continuous
 62
     3
370
     9
100
AcDbLine
 10
15.00004948796504
 20
581.1829845497614
 30
0.0
 11
15.00004948796504
 21
653.7830162220587
 31
0.0
  0
LINE
  5
16C
330
1F
100
AcDbEntity
  8
A-F_断熱材
  6
Continuous
 62
     7
370
     9
100
AcDbLine
 10
51.98752335785713
 20
531.1375801153565
 30
0.0
 11
2.749852006500703
 21
616.4197285422841
 31
0.0
  0
LINE
  5
16D
330
1F
100
AcDbEntity
  8
A-F_断熱材
  6
Continuous
 62
     7
370
     9
100
AcDbLine
 10
2.749852006500703
 20
616.4197285422841
 30
0.0
 11
11.88127344163155
 21
604.5194284379158
 31
0.0
  0
LINE
  5
16E
330
1F
100
AcDbEntity
  8
A-F_断熱材
  6
Continuous
 62
     7
370
     9
100
AcDbLine
 10
2.749852006500703
 20
616.4197285422841
 30
0.0
 11
8.490103491976754
 21
602.5615355546149
 31
0.0
  0
LINE
  5
16F
330
1F
100
AcDbEntity
  8
A-F_断熱材
  6
Continuous
 62
     7
370
     9
100
AcDbLine
 10
51.98752335785713
 20
531.1375801153565
 30
0.0
 11
223.162384131717
 21
531.1375801153565
 31
0.0
  0
TEXT
  5
170
330
1F
100
AcDbEntity
  8
A-F_断熱材
  6
Continuous
 62
     2
370
     9
100
AcDbText
 10
59.79483371997712
 20
540.2812368668344
 30
0.0
 40
18.288
  1
２１－φ１１
 41
1.104166666666667
  7
ＭＳ ゴシック
100
AcDbText
  0
LINE
  5
171
330
1F
100
AcDbEntity
  8
A-0_通り芯
  6
JWW_CENTER1
 62
     3
370
     9
100
AcDbLine
 10
-897.7494358372039
 20
243.5442672622822
 30
0.0
 11
-897.7494358372039
 21
221.1303763205591
 31
0.0
  0
LINE
  5
172
330
1F
100
AcDbEntity
  8
A-0_通り芯
  6
JWW_CENTER1
 62
     3
370
     9
100
AcDbLine
 10
-797.9995150179471
 20
243.5442672622822
 30
0.0
 11
-797.9995150179471
 21
221.1303763205591
 31
0.0
  0
LINE
  5
173
330
1F
100
AcDbEntity
  8
A-0_通り芯
  6
JWW_CENTER1
 62
     3
370
     9
100
AcDbLine
 10
-698.2495941986904
 20
243.5442672622822
 30
0.0
 11
-698.2495941986904
 21
221.1303763205591
 31
0.0
  0
LINE
  5
174
330
1F
100
AcDbEntity
  8
A-0_通り芯
  6
JWW_CENTER1
 62
     3
370
     9
100
AcDbLine
 10
-598.4996733794335
 20
243.5442672622822
 30
0.0
 11
-598.4996733794335
 21
221.1303763205591
 31
0.0
  0
LINE
  5
175
330
1F
100
AcDbEntity
  8
A-0_通り芯
  6
JWW_CENTER1
 62
     3
370
     9
100
AcDbLine
 10
-498.7497525601768
 20
243.5442672622822
 30
0.0
 11
-498.7497525601768
 21
221.1303763205591
 31
0.0
  0
LINE
  5
176
330
1F
100
AcDbEntity
  8
A-0_通り芯
  6
JWW_CENTER1
 62
     3
370
     9
100
AcDbLine
 10
-398.9998317409201
 20
243.5442672622822
 30
0.0
 11
-398.9998317409201
 21
221.1303763205591
 31
0.0
  0
LINE
  5
177
330
1F
100
AcDbEntity
  8
A-0_通り芯
  6
JWW_CENTER1
 62
     3
370
     9
100
AcDbLine
 10
-299.2499109216634
 20
243.5442672622822
 30
0.0
 11
-299.2499109216634
 21
221.1303763205591
 31
0.0
  0
LINE
  5
178
330
1F
100
AcDbEntity
  8
A-0_通り芯
  6
JWW_CENTER1
 62
     3
370
     9
100
AcDbLine
 10
-199.4999901024065
 20
243.5442672622822
 30
0.0
 11
-199.4999901024065
 21
221.1303763205591
 31
0.0
  0
LINE
  5
179
330
1F
100
AcDbEntity
  8
A-0_通り芯
  6
JWW_CENTER1
 62
     3
370
     9
100
AcDbLine
 10
-99.7500692831498
 20
243.5442672622822
 30
0.0
 11
-99.7500692831498
 21
221.1303763205591
 31
0.0
  0
LINE
  5
17A
330
1F
100
AcDbEntity
  8
A-0_通り芯
  6
JWW_CENTER1
 62
     3
370
     9
100
AcDbLine
 10
-0.0001484638930833
 20
243.5442672622822
 30
0.0
 11
-0.0001484638930833
 21
221.1303763205591
 31
0.0
  0
LINE
  5
17B
330
1F
100
AcDbEntity
  8
A-0_通り芯
  6
JWW_CENTER1
 62
     3
370
     9
100
AcDbLine
 10
99.74977235536363
 20
243.5442672622822
 30
0.0
 11
99.74977235536363
 21
221.1303763205591
 31
0.0
  0
LINE
  5
17C
330
1F
100
AcDbEntity
  8
A-0_通り芯
  6
JWW_CENTER1
 62
     3
370
     9
100
AcDbLine
 10
997.4990597286746
 20
243.5442672622822
 30
0.0
 11
997.4990597286746
 21
221.1303763205591
 31
0.0
  0
LINE
  5
17D
330
1F
100
AcDbEntity
  8
A-0_通り芯
  6
JWW_CENTER1
 62
     3
370
     9
100
AcDbLine
 10
897.7491389094178
 20
243.5442672622822
 30
0.0
 11
897.7491389094178
 21
221.1303763205591
 31
0.0
  0
LINE
  5
17E
330
1F
100
AcDbEntity
  8
A-0_通り芯
  6
JWW_CENTER1
 62
     3
370
     9
100
AcDbLine
 10
797.999218090161
 20
243.5442672622822
 30
0.0
 11
797.999218090161
 21
221.1303763205591
 31
0.0
  0
LINE
  5
17F
330
1F
100
AcDbEntity
  8
A-0_通り芯
  6
JWW_CENTER1
 62
     3
370
     9
100
AcDbLine
 10
698.2492972709042
 20
243.5442672622822
 30
0.0
 11
698.2492972709042
 21
221.1303763205591
 31
0.0
  0
LINE
  5
180
330
1F
100
AcDbEntity
  8
A-0_通り芯
  6
JWW_CENTER1
 62
     3
370
     9
100
AcDbLine
 10
598.4993764516473
 20
243.5442672622822
 30
0.0
 11
598.4993764516473
 21
221.1303763205591
 31
0.0
  0
LINE
  5
181
330
1F
100
AcDbEntity
  8
A-0_通り芯
  6
JWW_CENTER1
 62
     3
370
     9
100
AcDbLine
 10
498.7494556323908
 20
243.5442672622822
 30
0.0
 11
498.7494556323908
 21
221.1303763205591
 31
0.0
  0
LINE
  5
182
330
1F
100
AcDbEntity
  8
A-0_通り芯
  6
JWW_CENTER1
 62
     3
370
     9
100
AcDbLine
 10
398.9995348131339
 20
243.5442672622822
 30
0.0
 11
398.9995348131339
 21
221.1303763205591
 31
0.0
  0
LINE
  5
183
330
1F
100
AcDbEntity
  8
A-0_通り芯
  6
JWW_CENTER1
 62
     3
370
     9
100
AcDbLine
 10
299.2496139938774
 20
243.5442672622822
 30
0.0
 11
299.2496139938774
 21
221.1303763205591
 31
0.0
  0
LINE
  5
184
330
1F
100
AcDbEntity
  8
A-0_通り芯
  6
JWW_CENTER1
 62
     3
370
     9
100
AcDbLine
 10
199.4996931746205
 20
243.5442672622822
 30
0.0
 11
199.4996931746205
 21
221.1303763205591
 31
0.0
  0
LINE
  5
185
330
1F
100
AcDbEntity
  8
A-F_断熱材
  6
Continuous
 62
     7
370
     9
100
AcDbLine
 10
-672.4634437604195
 20
349.727901112853
 30
0.0
 11
-734.4654236400784
 21
242.3373217914207
 31
0.0
  0
LINE
  5
186
330
1F
100
AcDbEntity
  8
A-F_断熱材
  6
Continuous
 62
     7
370
     9
100
AcDbLine
 10
-734.4654236400784
 20
242.3373217914207
 30
0.0
 11
-728.725172154602
 21
256.1955147790901
 31
0.0
  0
LINE
  5
187
330
1F
100
AcDbEntity
  8
A-F_断熱材
  6
Continuous
 62
     7
370
     9
100
AcDbLine
 10
-734.4654236400784
 20
242.3373217914207
 30
0.0
 11
-725.3340022049474
 21
254.2376218957893
 31
0.0
  0
TEXT
  5
188
330
1F
100
AcDbEntity
  8
F-5ﾚｲﾔ
  6
Continuous
 62
     2
370
     9
100
AcDbText
 10
-432.2257004864187
 20
-794.0218420556901
 30
0.0
 40
18.288
  1
ガーデンエッジ　曲線用　水抜き穴付
 41
1.117647058823529
  7
ＭＳ ゴシック
100
AcDbText
  0
TEXT
  5
189
330
1F
100
AcDbEntity
  8
F-5ﾚｲﾔ
  6
Continuous
 62
     2
370
     9
100
AcDbText
 10
-432.2257004864187
 20
-821.5201831306736
 30
0.0
 40
18.288
  1
ステンレス製　舗装用見切材　ＩＳ－Ｈ－Ｒ
 41
1.11875
  7
ＭＳ ゴシック
100
AcDbText
  0
LINE
  5
18A
330
1F
100
AcDbEntity
  8
A-4_文字
  6
Continuous
 62
     7
370
     9
100
AcDbLine
 10
-1080.596676388302
 20
282.3373217914205
 30
0.0
 11
-1080.596676388302
 21
232.3373217914207
 31
0.0
  0
LWPOLYLINE
  5
18B
330
1F
100
AcDbEntity
  8
A-4_文字
  6
Continuous
 62
     7
370
     9
100
AcDbPolyline
 90
        4
 70
     1
 43
1.2
 10
-1079.996676388302
 20
282.3373217914205
 42
0.4142135623731
 10
-1080.596676388302
 20
282.9373217914206
 42
0.4142135623731
 10
-1081.196676388302
 20
282.3373217914205
 42
0.4142135623731
 10
-1080.596676388302
 20
281.7373217914206
 42
0.4142135623731
  0
LWPOLYLINE
  5
18C
330
1F
100
AcDbEntity
  8
A-4_文字
  6
Continuous
 62
     7
370
     9
100
AcDbPolyline
 90
        4
 70
     1
 43
1.2
 10
-1079.996676388302
 20
232.3373217914207
 42
0.4142135623731
 10
-1080.596676388302
 20
232.9373217914207
 42
0.4142135623731
 10
-1081.196676388302
 20
232.3373217914207
 42
0.4142135623731
 10
-1080.596676388302
 20
231.7373217914207
 42
0.4142135623731
  0
LINE
  5
18D
330
1F
100
AcDbEntity
  8
A-4_文字
  6
Continuous
 62
     7
370
     9
100
AcDbLine
 10
-1082.396676388302
 20
282.3373217914205
 30
0.0
 11
-1024.499257680532
 21
282.3373217914205
 31
0.0
  0
LINE
  5
18E
330
1F
100
AcDbEntity
  8
A-4_文字
  6
Continuous
 62
     7
370
     9
100
AcDbLine
 10
-1082.396676388302
 20
232.3373217914207
 30
0.0
 11
-1024.499257680532
 21
232.3373217914207
 31
0.0
  0
TEXT
  5
18F
330
1F
100
AcDbEntity
  8
A-4_文字
  6
Continuous
 62
     2
370
   211
100
AcDbText
 10
-1087.580676388302
 20
245.3373217914206
 30
0.0
 40
18.288
  1
Ｈ
 50
90.0
  7
ＭＳ ゴシック
100
AcDbText
  0
LINE
  5
190
330
1F
100
AcDbEntity
  8
D-F_断熱材
  6
Continuous
 62
     7
370
     9
100
AcDbLine
 10
-1122.000092171334
 20
-430.8650009567673
 30
0.0
 11
-1122.000092171334
 21
-676.8649960079708
 31
0.0
  0
TEXT
  5
191
330
1F
100
AcDbEntity
  8
D-F_断熱材
  6
Continuous
 62
     2
370
     9
100
AcDbText
 10
-1098.90015297967
 20
-535.480911878431
 30
0.0
 40
18.288
  1
ＩＳ－Ｈ－５０Ｒ
 41
1.109375
  7
ＭＳ ゴシック
100
AcDbText
  0
TEXT
  5
192
330
1F
100
AcDbEntity
  8
D-F_断熱材
  6
Continuous
 62
     2
370
     9
100
AcDbText
 10
-1098.90015297967
 20
-595.4809799243824
 30
0.0
 40
18.288
  1
ＩＳ－Ｈ－７５Ｒ
 41
1.109375
  7
ＭＳ ゴシック
100
AcDbText
  0
TEXT
  5
193
330
1F
100
AcDbEntity
  8
D-F_断熱材
  6
Continuous
 62
     2
370
     9
100
AcDbText
 10
-1098.90015297967
 20
-655.4809737383868
 30
0.0
 40
18.288
  1
ＩＳ－Ｈ－９０Ｒ
 41
1.109375
  7
ＭＳ ゴシック
100
AcDbText
  0
LINE
  5
194
330
1F
100
AcDbEntity
  8
D-F_断熱材
  6
Continuous
 62
     7
370
     9
100
AcDbLine
 10
-858.440603924253
 20
-430.8650380727407
 30
0.0
 11
-858.440603924253
 21
-676.8649960079708
 31
0.0
  0
LINE
  5
195
330
1F
100
AcDbEntity
  8
D-F_断熱材
  6
Continuous
 62
     7
370
     9
100
AcDbLine
 10
-678.4406781561999
 20
-430.8650380727407
 30
0.0
 11
-678.4406781561999
 21
-676.8649960079708
 31
0.0
  0
LINE
  5
196
330
1F
100
AcDbEntity
  8
D-F_断熱材
  6
Continuous
 62
     7
370
     9
100
AcDbLine
 10
-1122.000092171334
 20
-556.8649712639885
 30
0.0
 11
-678.4406781561999
 21
-556.8649712639885
 31
0.0
  0
LINE
  5
197
330
1F
100
AcDbEntity
  8
D-F_断熱材
  6
Continuous
 62
     7
370
     9
100
AcDbLine
 10
-1122.000092171334
 20
-616.8650393099399
 30
0.0
 11
-678.4406781561999
 21
-616.8650207519531
 31
0.0
  0
LINE
  5
198
330
1F
100
AcDbEntity
  8
D-F_断熱材
  6
Continuous
 62
     7
370
     9
100
AcDbLine
 10
-1122.000092171334
 20
-676.8649960079708
 30
0.0
 11
-678.4406781561999
 21
-676.8649960079708
 31
0.0
  0
LINE
  5
199
330
1F
100
AcDbEntity
  8
D-F_断熱材
  6
Continuous
 62
     7
370
     9
100
AcDbLine
 10
-1122.000092171334
 20
-490.8650504447318
 30
0.0
 11
-678.4406781561999
 21
-490.8650504447318
 31
0.0
  0
LINE
  5
19A
330
1F
100
AcDbEntity
  8
D-F_断熱材
  6
Continuous
 62
     7
370
     9
100
AcDbLine
 10
-1122.000092171334
 20
-496.8649960079708
 30
0.0
 11
-678.4406781561999
 21
-496.8649960079708
 31
0.0
  0
LINE
  5
19B
330
1F
100
AcDbEntity
  8
D-F_断熱材
  6
Continuous
 62
     7
370
     9
100
AcDbLine
 10
-1122.000092171334
 20
-430.8650009567673
 30
0.0
 11
-678.4406781561999
 21
-430.8650380727407
 31
0.0
  0
TEXT
  5
19C
330
1F
100
AcDbEntity
  8
D-F_断熱材
  6
Continuous
 62
     2
370
     9
100
AcDbText
 10
-820.9407709461333
 20
-469.4810281751478
 30
0.0
 40
18.288
  1
Ｈ［mm］
 41
1.09375
  7
ＭＳ ゴシック
100
AcDbText
  0
TEXT
  5
19D
330
1F
100
AcDbEntity
  8
D-F_断熱材
  6
Continuous
 62
     2
370
     9
100
AcDbText
 10
-793.9406224822396
 20
-655.4809737383868
 30
0.0
 40
18.288
  1
９０
 41
1.0625
  7
ＭＳ ゴシック
100
AcDbText
  0
TEXT
  5
19E
330
1F
100
AcDbEntity
  8
D-F_断熱材
  6
Continuous
 62
     2
370
     9
100
AcDbText
 10
-793.9406224822396
 20
-595.4809613663956
 30
0.0
 40
18.288
  1
７５
 41
1.0625
  7
ＭＳ ゴシック
100
AcDbText
  0
TEXT
  5
19F
330
1F
100
AcDbEntity
  8
D-F_断熱材
  6
Continuous
 62
     2
370
     9
100
AcDbText
 10
-793.9406224822396
 20
-535.480911878431
 30
0.0
 40
18.288
  1
５０
 41
1.0625
  7
ＭＳ ゴシック
100
AcDbText
  0
TEXT
  5
1A0
330
1F
100
AcDbEntity
  8
D-F_断熱材
  6
Continuous
 62
     2
370
     9
100
AcDbText
 10
-1042.720346851595
 20
-469.4809910591768
 30
0.0
 40
18.288
  1
製品符号
 50
359.9999797467773
 41
1.093749999999999
  7
ＭＳ ゴシック
100
AcDbText
  0
LINE
  5
1A1
330
1F
100
AcDbEntity
  8
D-F_断熱材
  6
Continuous
 62
     7
370
     9
100
AcDbLine
 10
-1121.162773052327
 20
48.68336799764165
 30
0.0
 11
-861.4237060519853
 21
48.68336799764165
 31
0.0
  0
LINE
  5
1A2
330
1F
100
AcDbEntity
  8
D-F_断熱材
  6
Continuous
 62
     7
370
     9
100
AcDbLine
 10
-1121.162773052327
 20
87.33732179142066
 30
0.0
 11
-861.4237060519853
 21
87.33732179142066
 31
0.0
  0
LINE
  5
1A3
330
1F
100
AcDbEntity
  8
D-F_断熱材
  6
Continuous
 62
     7
370
     9
100
AcDbLine
 10
-1121.162773052327
 20
87.33732179142066
 30
0.0
 11
-1121.162773052327
 21
48.68336799764165
 31
0.0
  0
LINE
  5
1A4
330
1F
100
AcDbEntity
  8
D-F_断熱材
  6
Continuous
 62
     7
370
     9
100
AcDbLine
 10
-861.4237060519853
 20
87.33732179142066
 30
0.0
 11
-861.4237060519853
 21
48.68336799764165
 31
0.0
  0
TEXT
  5
1A5
330
1F
100
AcDbEntity
  8
D-F_断熱材
  6
Continuous
 62
     2
370
     9
100
AcDbText
 10
-1108.83937755644
 20
58.27333522644493
 30
0.0
 40
18.288
  1
断面図　Ｓ＝１：２
 41
1.111111111111111
  7
ＭＳ ゴシック
100
AcDbText
  0
TEXT
  5
1A6
330
1F
100
AcDbEntity
  8
D-5_建具
  6
Continuous
 62
     2
370
     9
100
AcDbText
 10
85.21101667804831
 20
-513.447548794243
 30
0.0
 40
18.288
  1
注記）
 41
1.083333333333333
  7
ＭＳ ゴシック
100
AcDbText
  0
TEXT
  5
1A7
330
1F
100
AcDbEntity
  8
D-5_建具
  6
Continuous
 62
     2
370
     9
100
AcDbText
 10
124.2109961610248
 20
-628.6731974165024
 30
0.0
 40
18.288
  1
設けて施工してください。
 50
0.00001222177511
 41
1.114583333333333
  7
ＭＳ ゴシック
100
AcDbText
  0
TEXT
  5
1A8
330
1F
100
AcDbEntity
  8
D-5_建具
  6
Continuous
 62
     2
370
     9
100
AcDbText
 10
124.2110265756414
 20
-592.637001919243
 30
0.0
 40
18.288
  1
考慮してジョイント部に５mmの隙間を
 41
1.117647058823529
  7
ＭＳ ゴシック
100
AcDbText
  0
TEXT
  5
1A9
330
1F
100
AcDbEntity
  8
D-5_建具
  6
Continuous
 62
     2
370
     9
100
AcDbText
 10
124.2110265756414
 20
-553.042275356743
 30
0.0
 40
18.288
  1
アスファルト舗装は、見切材の熱膨張を
 41
1.118055555555556
  7
ＭＳ ゴシック
100
AcDbText
  0
LINE
  5
1AA
330
1F
100
AcDbEntity
  8
D-5_建具
  6
Continuous
 62
     7
370
     9
100
AcDbLine
 10
454.1384960137583
 20
-115.3786167238814
 30
0.0
 11
585.8006150497196
 21
-343.4240963263477
 31
0.0
  0
LINE
  5
1AB
330
1F
100
AcDbEntity
  8
D-5_建具
  6
Continuous
 62
     7
370
     9
100
AcDbLine
 10
585.8006150497196
 20
-343.4240963263477
 30
0.0
 11
576.6691936145886
 21
-331.5237962219791
 31
0.0
  0
LINE
  5
1AC
330
1F
100
AcDbEntity
  8
D-5_建具
  6
Continuous
 62
     7
370
     9
100
AcDbLine
 10
585.8006150497196
 20
-343.4240963263477
 30
0.0
 11
580.0603635642432
 21
-329.5659033386783
 31
0.0
  0
LINE
  5
1AD
330
1F
100
AcDbEntity
  8
D-5_建具
  6
Continuous
 62
     7
370
     9
100
AcDbLine
 10
725.9097500632248
 20
-140.9388389543408
 30
0.0
 11
668.4584851320144
 21
-240.4473487742976
 31
0.0
  0
LINE
  5
1AE
330
1F
100
AcDbEntity
  8
D-5_建具
  6
Continuous
 62
     7
370
     9
100
AcDbLine
 10
668.4584851320144
 20
-240.4473487742976
 30
0.0
 11
674.1987366174908
 21
-226.5891557866281
 31
0.0
  0
LINE
  5
1AF
330
1F
100
AcDbEntity
  8
D-5_建具
  6
Continuous
 62
     7
370
     9
100
AcDbLine
 10
668.4584851320144
 20
-240.4473487742976
 30
0.0
 11
677.5899065671451
 21
-228.5470486699289
 31
0.0
  0
TEXT
  5
1B0
330
1F
100
AcDbEntity
  8
D-5_建具
  6
Continuous
 62
     7
370
     9
100
AcDbText
 10
747.2621490327942
 20
-86.13427368301485
 30
0.0
 40
13.716
  1
付属部品
 41
1.125
  7
ＭＳ ゴシック
100
AcDbText
  0
TEXT
  5
1B1
330
1F
100
AcDbEntity
  8
D-5_建具
  6
Continuous
 62
     2
370
     9
100
AcDbText
 10
727.3420530021499
 20
-127.5667820497802
 30
0.0
 40
18.288
  1
ジョイント金具
 41
1.107142857142857
  7
ＭＳ ゴシック
100
AcDbText
  0
LINE
  5
1B2
330
1F
100
AcDbEntity
  8
D-5_建具
  6
Continuous
 62
     7
370
     9
100
AcDbLine
 10
844.1119167692809
 20
-59.58478226092859
 30
0.0
 11
844.1119167692809
 21
-99.75955725564984
 31
0.0
  0
LINE
  5
1B3
330
1F
100
AcDbEntity
  8
D-5_建具
  6
Continuous
 62
     7
370
     9
100
AcDbLine
 10
844.1119167692809
 20
-99.75955725564984
 30
0.0
 11
731.4123812963079
 21
-99.75955725564984
 31
0.0
  0
LINE
  5
1B4
330
1F
100
AcDbEntity
  8
D-5_建具
  6
Continuous
 62
     7
370
     9
100
AcDbLine
 10
731.4123812963079
 20
-99.75955725564984
 30
0.0
 11
731.4123812963079
 21
-59.58478226092859
 31
0.0
  0
LINE
  5
1B5
330
1F
100
AcDbEntity
  8
D-5_建具
  6
Continuous
 62
     7
370
     9
100
AcDbLine
 10
731.4123812963079
 20
-59.58478226092859
 30
0.0
 11
844.1119167692809
 21
-59.58478226092859
 31
0.0
  0
TEXT
  5
1B6
330
1F
100
AcDbEntity
  8
D-5_建具
  6
Continuous
 62
     2
370
     9
100
AcDbText
 10
727.3420530021499
 20
-170.8649404376602
 30
0.0
 40
18.288
  1
ＳＧＭＣＣ（t=1.2）
 41
1.111842105263158
  7
ＭＳ ゴシック
100
AcDbText
  0
LINE
  5
1B7
330
1F
100
AcDbEntity
  8
D-5_建具
  6
Continuous
 62
     7
370
     9
100
AcDbLine
 10
725.9097500632248
 20
-140.9388389543408
 30
0.0
 11
983.2601725464394
 21
-140.9388389543408
 31
0.0
  0
ELLIPSE
  5
1B8
330
1F
100
AcDbEntity
  8
D-2_仕上
  6
Continuous
 62
     3
370
     9
100
AcDbEllipse
 10
936.5799501436761
 20
-571.6473487742969
 30
0.0
 11
-20.20829037796126
 21
2.474801812761051E-15
 31
0.0
210
0.0
220
0.0
230
1.0
 40
0.5773502691896216
 41
0.0
 42
6.283185307179586
  0
ARC
  5
1B9
330
1F
100
AcDbEntity
  8
D-2_仕上
  6
Continuous
 62
     3
370
     9
100
AcDbCircle
 10
725.3156888059812
 20
-202.1354321615656
 30
0.0
 40
3.36617883695534
100
AcDbArc
 50
66.54945504329099
 51
168.5792601820298
  0
LINE
  5
1BA
330
1F
100
AcDbEntity
  8
D-2_仕上
  6
Continuous
 62
     3
370
     9
100
AcDbLine
 10
722.0161617817878
 20
-201.4688878052149
 30
0.0
 11
722.0161617817878
 21
-226.3688878052147
 31
0.0
  0
LINE
  5
1BB
330
1F
100
AcDbEntity
  8
D-2_仕上
  6
Continuous
 62
     3
370
     9
100
AcDbLine
 10
572.8492805542129
 20
-436.6473487742977
 30
0.0
 11
533.8781373839132
 21
-459.147348774298
 31
0.0
  0
LINE
  5
1BC
330
1F
100
AcDbEntity
  8
D-2_仕上
  6
Continuous
 62
     3
370
     9
100
AcDbLine
 10
725.6161617817876
 20
-228.4473487742974
 30
0.0
 11
725.6161617817876
 21
-273.4473487742977
 31
0.0
  0
ELLIPSE
  5
1BD
330
1F
100
AcDbEntity
  8
D-6_間仕切
  6
Continuous
 62
     6
370
     5
100
AcDbEllipse
 10
547.6665946520328
 20
-347.6650402279217
 30
0.0
 11
-22.0454076850486
 21
2.699783795739324E-15
 31
0.0
210
0.0
220
0.0
230
1.0
 40
0.5773502691896257
 41
3.926990816987241
 42
5.831973981779823
  0
ELLIPSE
  5
1BE
330
1F
100
AcDbEntity
  8
D-6_間仕切
  6
Continuous
 62
     6
370
     5
100
AcDbEllipse
 10
549.4665946520329
 20
-344.5473487742977
 30
0.0
 11
-22.0454076850486
 21
2.699783795739324E-15
 31
0.0
210
0.0
220
0.0
230
1.0
 40
0.5773502691896257
 41
3.926990816987241
 42
7.068583470577035
  0
LINE
  5
1BF
330
1F
100
AcDbEntity
  8
D-6_間仕切
  6
Continuous
 62
     6
370
     5
100
AcDbLine
 10
611.3008084822413
 20
-207.4473487742977
 30
0.0
 11
839.931515081333
 21
-339.4473487742976
 31
0.0
  0
LINE
  5
1C0
330
1F
100
AcDbEntity
  8
D-6_間仕切
  6
Continuous
 62
     6
370
     5
100
AcDbLine
 10
839.9315150813334
 20
-339.4473487742976
 30
0.0
 11
836.8138236277093
 21
-341.2473487742976
 31
0.0
  0
LINE
  5
1C1
330
1F
100
AcDbEntity
  8
D-6_間仕切
  6
Continuous
 62
     6
370
     5
100
AcDbLine
 10
836.3315150813329
 20
-416.5258097433799
 30
0.0
 11
687.1646338537583
 21
-502.6473487742975
 31
0.0
  0
LINE
  5
1C2
330
1F
100
AcDbEntity
  8
D-6_間仕切
  6
Continuous
 62
     6
370
     5
100
AcDbLine
 10
839.931515081333
 20
-410.2904268361323
 30
0.0
 11
839.9315150813334
 21
-339.4473487742977
 31
0.0
  0
ARC
  5
1C3
330
1F
100
AcDbEntity
  8
D-6_間仕切
  6
Continuous
 62
     6
370
     5
100
AcDbCircle
 10
832.7315150813331
 20
-410.2904268361324
 30
0.0
 40
7.200000000000001
100
AcDbArc
 50
300.0
 51
0.0000000000000254
  0
LINE
  5
1C4
330
1F
100
AcDbEntity
  8
D-6_間仕切
  6
Continuous
 62
     6
370
     5
100
AcDbLine
 10
836.8138236277093
 20
-410.5688878052147
 30
0.0
 11
836.8138236277093
 21
-341.2473487742978
 31
0.0
  0
ARC
  5
1C5
330
1F
100
AcDbEntity
  8
D-6_間仕切
  6
Continuous
 62
     6
370
     5
100
AcDbCircle
 10
833.2138236277088
 20
-410.5688878052147
 30
0.0
 40
3.600000000000001
100
AcDbArc
 50
300.0
 51
0.0
  0
LINE
  5
1C6
330
1F
100
AcDbEntity
  8
D-6_間仕切
  6
Continuous
 62
     6
370
     5
100
AcDbLine
 10
836.8138236277093
 20
-341.2473487742976
 30
0.0
 11
608.183117028618
 21
-209.2473487742978
 31
0.0
  0
LINE
  5
1C7
330
1F
100
AcDbEntity
  8
D-6_間仕切
  6
Continuous
 62
     6
370
     5
100
AcDbLine
 10
687.1646338537586
 20
-502.6473487742977
 30
0.0
 11
687.1646338537586
 21
-499.0473487742975
 31
0.0
  0
LINE
  5
1C8
330
1F
100
AcDbEntity
  8
D-6_間仕切
  6
Continuous
 62
     6
370
     5
100
AcDbLine
 10
835.0138236277096
 20
-413.6865792588387
 30
0.0
 11
687.1646338537587
 21
-499.0473487742975
 31
0.0
  0
LINE
  5
1C9
330
1F
100
AcDbEntity
  8
D-6_間仕切
  6
Continuous
 62
     6
370
     5
100
AcDbLine
 10
687.164633853758
 20
-502.6473487742973
 30
0.0
 11
458.5339272546668
 21
-370.6473487742975
 31
0.0
  0
LINE
  5
1CA
330
1F
100
AcDbEntity
  8
D-6_間仕切
  6
Continuous
 62
     6
370
     5
100
AcDbLine
 10
687.1646338537586
 20
-499.0473487742975
 30
0.0
 11
458.533927254667
 21
-367.0473487742975
 31
0.0
  0
LINE
  5
1CB
330
1F
100
AcDbEntity
  8
D-6_間仕切
  6
Continuous
 62
     6
370
     5
100
AcDbLine
 10
458.533927254667
 20
-370.6473487742978
 30
0.0
 11
458.5339272546671
 21
-367.0473487742975
 31
0.0
  0
LINE
  5
1CC
330
1F
100
AcDbEntity
  8
D-6_間仕切
  6
Continuous
 62
     6
370
     5
100
AcDbLine
 10
606.3831170286176
 20
-281.6865792588391
 30
0.0
 11
458.5339272546664
 21
-367.0473487742973
 31
0.0
  0
LINE
  5
1CD
330
1F
100
AcDbEntity
  8
D-6_間仕切
  6
Continuous
 62
     6
370
     5
100
AcDbLine
 10
611.3008084822413
 20
-207.4473487742977
 30
0.0
 11
608.1831170286173
 21
-209.2473487742976
 31
0.0
  0
LINE
  5
1CE
330
1F
100
AcDbEntity
  8
D-6_間仕切
  6
Continuous
 62
     6
370
     5
100
AcDbLine
 10
608.1831170286176
 20
-278.5688878052154
 30
0.0
 11
608.1831170286176
 21
-209.2473487742978
 31
0.0
  0
ARC
  5
1CF
330
1F
100
AcDbEntity
  8
D-6_間仕切
  6
Continuous
 62
     6
370
     5
100
AcDbCircle
 10
604.5831170286175
 20
-278.5688878052154
 30
0.0
 40
3.600000000000001
100
AcDbArc
 50
300.0
 51
0.0000000000000254
  0
ELLIPSE
  5
1D0
330
1F
100
AcDbEntity
  8
D-6_間仕切
  6
Continuous
 62
     6
370
     5
100
AcDbEllipse
 10
724.3357770240583
 20
-449.6650402279214
 30
0.0
 11
22.0454076850486
 21
0.0
 31
0.0
210
0.0
220
0.0
230
1.0
 40
0.5773502691896257
 41
6.090895523786025
 42
7.068583470577035
  0
ELLIPSE
  5
1D1
330
1F
100
AcDbEntity
  8
D-6_間仕切
  6
Continuous
 62
     6
370
     5
100
AcDbEllipse
 10
726.1357770240584
 20
-446.5473487742975
 30
0.0
 11
22.0454076850486
 21
0.0
 31
0.0
210
0.0
220
0.0
230
1.0
 40
0.5773502691896257
 41
3.926990816987241
 42
7.068583470577035
  0
ELLIPSE
  5
1D2
330
1F
100
AcDbEntity
  8
D-6_間仕切
  6
Continuous
 62
     6
370
     5
100
AcDbEllipse
 10
595.7310045620692
 20
-360.4150402279217
 30
0.0
 11
31.23099422048556
 21
0.0
 31
0.0
210
0.0
220
0.0
230
1.0
 40
0.577350269189625
 41
0.0
 42
6.283185307179586
  0
LINE
  5
1D3
330
1F
100
AcDbEntity
  8
D-6_間仕切
  6
Continuous
 62
     6
370
     5
100
AcDbLine
 10
626.9619987825547
 20
-360.4150402279217
 30
0.0
 11
626.9619987825547
 21
-375.4150402279216
 31
0.0
  0
LINE
  5
1D4
330
1F
100
AcDbEntity
  8
D-6_間仕切
  6
Continuous
 62
     6
370
     5
100
AcDbLine
 10
564.5000103415837
 20
-360.4150402279217
 30
0.0
 11
564.500010341584
 21
-375.4150402279216
 31
0.0
  0
ELLIPSE
  5
1D5
330
1F
100
AcDbEntity
  8
D-6_間仕切
  6
Continuous
 62
     6
370
     5
100
AcDbEllipse
 10
595.731004562069
 20
-375.4150402279217
 30
0.0
 11
31.23099422048556
 21
0.0
 31
0.0
210
0.0
220
0.0
230
1.0
 40
0.577350269189625
 41
3.141592653589793
 42
6.283185307179586
  0
ELLIPSE
  5
1D6
330
1F
100
AcDbEntity
  8
D-6_間仕切
  6
Continuous
 62
     6
370
     5
100
AcDbEllipse
 10
676.2713671140219
 20
-406.9150402279216
 30
0.0
 11
31.23099422048556
 21
0.0
 31
0.0
210
0.0
220
0.0
230
1.0
 40
0.577350269189625
 41
0.0
 42
6.283185307179586
  0
LINE
  5
1D7
330
1F
100
AcDbEntity
  8
D-6_間仕切
  6
Continuous
 62
     6
370
     5
100
AcDbLine
 10
645.0403728935364
 20
-406.9150402279216
 30
0.0
 11
645.0403728935364
 21
-421.9150402279214
 31
0.0
  0
ELLIPSE
  5
1D8
330
1F
100
AcDbEntity
  8
D-6_間仕切
  6
Continuous
 62
     6
370
     5
100
AcDbEllipse
 10
676.2713671140219
 20
-421.9150402279216
 30
0.0
 11
31.23099422048556
 21
0.0
 31
0.0
210
0.0
220
0.0
230
1.0
 40
0.577350269189625
 41
3.141592653589793
 42
6.283185307179586
  0
LINE
  5
1D9
330
1F
100
AcDbEntity
  8
D-6_間仕切
  6
Continuous
 62
     6
370
     5
100
AcDbLine
 10
707.5023145931021
 20
-421.9462361620156
 30
0.0
 11
739.9242342921779
 21
-440.6650402279212
 31
0.0
  0
LINE
  5
1DA
330
1F
100
AcDbEntity
  8
D-6_間仕切
  6
Continuous
 62
     6
370
     5
100
AcDbLine
 10
707.5023613345072
 20
-406.9150402279216
 30
0.0
 11
707.5023613345072
 21
-421.9150402279214
 31
0.0
  0
LINE
  5
1DB
330
1F
100
AcDbEntity
  8
D-6_間仕切
  6
Continuous
 62
     6
370
     5
100
AcDbLine
 10
707.5023613345071
 20
-417.789341210013
 30
0.0
 11
741.7242342921779
 21
-437.5473487742973
 31
0.0
  0
LINE
  5
1DC
330
1F
100
AcDbEntity
  8
D-6_間仕切
  6
Continuous
 62
     6
370
     5
100
AcDbLine
 10
682.8291868936129
 20
-439.5442773048002
 30
0.0
 11
710.5473197559381
 21
-455.5473487742973
 31
0.0
  0
LINE
  5
1DD
330
1F
100
AcDbEntity
  8
D-6_間仕切
  6
Continuous
 62
     6
370
     5
100
AcDbLine
 10
533.878137383913
 20
-353.5473487742977
 30
0.0
 11
564.5000103415837
 21
-371.2268953694992
 31
0.0
  0
LINE
  5
1DE
330
1F
100
AcDbEntity
  8
D-6_間仕切
  6
Continuous
 62
     6
370
     5
100
AcDbLine
 10
563.2550519201527
 20
-338.6650402279216
 30
0.0
 11
576.3987934976022
 21
-346.253582965821
 31
0.0
  0
LINE
  5
1DF
330
1F
100
AcDbEntity
  8
D-6_間仕切
  6
Continuous
 62
     6
370
     5
100
AcDbLine
 10
565.0550519201524
 20
-335.5473487742975
 30
0.0
 11
580.7330587108216
 21
-344.5990502152471
 31
0.0
  0
LINE
  5
1E0
330
1F
100
AcDbEntity
  8
D-2_仕上
  6
Continuous
 62
     3
370
     9
100
AcDbLine
 10
533.8781373839129
 20
-459.147348774298
 30
0.0
 11
533.8781373839129
 21
-462.7473487742981
 31
0.0
  0
LINE
  5
1E1
330
1F
100
AcDbEntity
  8
D-2_仕上
  6
Continuous
 62
     3
370
     9
100
AcDbLine
 10
533.8781373839132
 20
-459.147348774298
 30
0.0
 11
611.8204237245127
 21
-504.147348774298
 31
0.0
  0
LINE
  5
1E2
330
1F
100
AcDbEntity
  8
D-2_仕上
  6
Continuous
 62
     3
370
     9
100
AcDbLine
 10
650.7915668948124
 20
-481.6473487742977
 30
0.0
 11
611.8204237245127
 21
-504.147348774298
 31
0.0
  0
LINE
  5
1E3
330
1F
100
AcDbEntity
  8
D-2_仕上
  6
Continuous
 62
     3
370
     9
100
AcDbLine
 10
611.8204237245124
 20
-504.147348774298
 30
0.0
 11
611.8204237245124
 21
-507.7473487742981
 31
0.0
  0
LINE
  5
1E4
330
1F
100
AcDbEntity
  8
D-2_仕上
  6
Continuous
 62
     3
370
     9
100
AcDbLine
 10
653.9092583484364
 20
-483.4473487742979
 30
0.0
 11
611.8204237245127
 21
-507.7473487742983
 31
0.0
  0
LINE
  5
1E5
330
1F
100
AcDbEntity
  8
D-2_仕上
  6
Continuous
 62
     3
370
     9
100
AcDbLine
 10
455.9358510433137
 20
-414.147348774298
 30
0.0
 11
533.8781373839132
 21
-459.147348774298
 31
0.0
  0
LINE
  5
1E6
330
1F
100
AcDbEntity
  8
D-2_仕上
  6
Continuous
 62
     3
370
     9
100
AcDbLine
 10
494.9069942136134
 20
-391.6473487742977
 30
0.0
 11
455.9358510433137
 21
-414.147348774298
 31
0.0
  0
LINE
  5
1E7
330
1F
100
AcDbEntity
  8
D-2_仕上
  6
Continuous
 62
     3
370
     9
100
AcDbLine
 10
455.9358510433134
 20
-414.147348774298
 30
0.0
 11
455.9358510433134
 21
-417.7473487742981
 31
0.0
  0
LINE
  5
1E8
330
1F
100
AcDbEntity
  8
D-2_仕上
  6
Continuous
 62
     3
370
     9
100
AcDbLine
 10
455.9358510433134
 20
-417.7473487742981
 30
0.0
 11
611.8204237245124
 21
-507.7473487742981
 31
0.0
  0
LINE
  5
1E9
330
1F
100
AcDbEntity
  8
D-2_仕上
  6
Continuous
 62
     3
370
     9
100
AcDbLine
 10
793.6857585192445
 20
-609.147348774298
 30
0.0
 11
793.6857585192445
 21
-612.7473487742982
 31
0.0
  0
LINE
  5
1EA
330
1F
100
AcDbEntity
  8
D-2_仕上
  6
Continuous
 62
     3
370
     9
100
AcDbLine
 10
985.4237829171176
 20
-498.4473487742967
 30
0.0
 11
793.6857585192448
 21
-609.147348774298
 31
0.0
  0
LINE
  5
1EB
330
1F
100
AcDbEntity
  8
D-2_仕上
  6
Continuous
 62
     3
370
     9
100
AcDbLine
 10
428.9531651411327
 20
-177.168887805215
 30
0.0
 11
234.0974492896359
 21
-289.6688878052163
 31
0.0
  0
LINE
  5
1EC
330
1F
100
AcDbEntity
  8
D-2_仕上
  6
Continuous
 62
     3
370
     9
100
AcDbLine
 10
703.2727063641483
 20
-451.3473487742974
 30
0.0
 11
730.8496209003881
 21
-435.4258097433799
 31
0.0
  0
LINE
  5
1ED
330
1F
100
AcDbEntity
  8
D-2_仕上
  6
Continuous
 62
     3
370
     9
100
AcDbLine
 10
706.3903978177724
 20
-453.1473487742975
 30
0.0
 11
733.9673123540118
 21
-437.22580974338
 31
0.0
  0
LINE
  5
1EE
330
1F
100
AcDbEntity
  8
D-2_仕上
  6
Continuous
 62
     3
370
     9
100
AcDbLine
 10
547.3881336829496
 20
-361.3473487742972
 30
0.0
 11
574.9650482191887
 21
-345.4258097433799
 31
0.0
  0
LINE
  5
1EF
330
1F
100
AcDbEntity
  8
D-2_仕上
  6
Continuous
 62
     3
370
     9
100
AcDbLine
 10
793.6857585192445
 20
-609.147348774298
 30
0.0
 11
871.628044859844
 21
-654.147348774298
 31
0.0
  0
LINE
  5
1F0
330
1F
100
AcDbEntity
  8
D-2_仕上
  6
Continuous
 62
     3
370
     9
100
AcDbLine
 10
871.6280448598436
 20
-654.147348774298
 30
0.0
 11
871.6280448598436
 21
-657.7473487742982
 31
0.0
  0
LINE
  5
1F1
330
1F
100
AcDbEntity
  8
D-2_仕上
  6
Continuous
 62
     3
370
     9
100
AcDbLine
 10
871.6280448598436
 20
-657.7473487742982
 30
0.0
 11
793.6857585192445
 21
-612.7473487742982
 31
0.0
  0
LINE
  5
1F2
330
1F
100
AcDbEntity
  8
D-2_仕上
  6
Continuous
 62
     3
370
     9
100
AcDbLine
 10
1066.483760711341
 20
-545.2473487742968
 30
0.0
 11
871.628044859844
 21
-657.7473487742982
 31
0.0
  0
LINE
  5
1F3
330
1F
100
AcDbEntity
  8
D-2_仕上
  6
Continuous
 62
     3
370
     9
100
AcDbLine
 10
1063.366069257717
 20
-543.4473487742966
 30
0.0
 11
871.628044859844
 21
-654.147348774298
 31
0.0
  0
LINE
  5
1F4
330
1F
100
AcDbEntity
  8
D-2_仕上
  6
Continuous
 62
     3
370
     9
100
AcDbLine
 10
838.9668979885812
 20
-413.8904268361321
 30
0.0
 11
1081.22501198336
 21
-553.7582141643884
 31
0.0
  0
ELLIPSE
  5
1F5
330
1F
100
AcDbEntity
  8
D-2_仕上
  6
Continuous
 62
     3
370
     9
100
AcDbEllipse
 10
936.5799501436761
 20
-575.2473487742968
 30
0.0
 11
-20.20829037796126
 21
2.474801812761051E-15
 31
0.0
210
0.0
220
0.0
230
1.0
 40
0.5773502691896216
 41
3.296489157533977
 42
6.128288803235396
  0
ELLIPSE
  5
1F6
330
1F
100
AcDbEntity
  8
D-2_仕上
  6
Continuous
 62
     3
370
     9
100
AcDbEllipse
 10
299.0493545734673
 20
-203.568887805215
 30
0.0
 11
-20.20829037796126
 21
2.474801812761051E-15
 31
0.0
210
0.0
220
0.0
230
1.0
 40
0.5773502691896216
 41
0.0
 42
6.283185307179586
  0
LINE
  5
1F7
330
1F
100
AcDbEntity
  8
D-2_仕上
  6
Continuous
 62
     3
370
     9
100
AcDbLine
 10
156.1551629490356
 20
-241.068887805216
 30
0.0
 11
156.1551629490356
 21
-244.6688878052162
 31
0.0
  0
LINE
  5
1F8
330
1F
100
AcDbEntity
  8
D-2_仕上
  6
Continuous
 62
     3
370
     9
100
AcDbLine
 10
347.893187346909
 20
-130.3688878052147
 30
0.0
 11
156.1551629490362
 21
-241.068887805216
 31
0.0
  0
LINE
  5
1F9
330
1F
100
AcDbEntity
  8
D-2_仕上
  6
Continuous
 62
     3
370
     9
100
AcDbLine
 10
156.1551629490356
 20
-241.068887805216
 30
0.0
 11
234.0974492896351
 21
-286.068887805216
 31
0.0
  0
LINE
  5
1FA
330
1F
100
AcDbEntity
  8
D-2_仕上
  6
Continuous
 62
     3
370
     9
100
AcDbLine
 10
234.0974492896348
 20
-286.068887805216
 30
0.0
 11
234.0974492896348
 21
-289.6688878052162
 31
0.0
  0
LINE
  5
1FB
330
1F
100
AcDbEntity
  8
D-2_仕上
  6
Continuous
 62
     3
370
     9
100
AcDbLine
 10
234.0974492896348
 20
-289.6688878052162
 30
0.0
 11
156.1551629490357
 21
-244.6688878052162
 31
0.0
  0
LINE
  5
1FC
330
1F
100
AcDbEntity
  8
D-2_仕上
  6
Continuous
 62
     3
370
     9
100
AcDbLine
 10
425.8354736875086
 20
-175.3688878052147
 30
0.0
 11
234.0974492896352
 21
-286.068887805216
 31
0.0
  0
ELLIPSE
  5
1FD
330
1F
100
AcDbEntity
  8
D-2_仕上
  6
Continuous
 62
     3
370
     9
100
AcDbEllipse
 10
299.0493545734673
 20
-207.168887805215
 30
0.0
 11
-20.20829037796126
 21
2.474801812761051E-15
 31
0.0
210
0.0
220
0.0
230
1.0
 40
0.5773502691896216
 41
3.296489157533977
 42
6.128288803235396
  0
LINE
  5
1FE
330
1F
100
AcDbEntity
  8
D-2_仕上
  6
Continuous
 62
     3
370
     9
100
AcDbLine
 10
607.7008084822412
 20
-280.3688878052149
 30
0.0
 11
334.3230756212158
 21
-122.5341801474523
 31
0.0
  0
LINE
  5
1FF
330
1F
100
AcDbEntity
  8
D-2_仕上
  6
Continuous
 62
     3
370
     9
100
AcDbLine
 10
375.3352652375643
 20
-26.21257886250726
 30
0.0
 11
1081.22501198336
 21
-433.7582141643884
 31
0.0
  0
LINE
  5
200
330
1F
100
AcDbEntity
  8
D-2_仕上
  6
Continuous
 62
     3
370
     9
100
AcDbLine
 10
375.3352652375643
 20
-1.312578862507223
 30
0.0
 11
1081.22501198336
 21
-408.8582141643886
 31
0.0
  0
LINE
  5
201
330
1F
100
AcDbEntity
  8
D-2_仕上
  6
Continuous
 62
     3
370
     9
100
AcDbLine
 10
375.3352652375645
 20
3.787421137492913
 30
0.0
 11
1081.22501198336
 21
-403.7582141643884
 31
0.0
  0
LINE
  5
202
330
1F
100
AcDbEntity
  8
D-F_断熱材
  6
Continuous
 62
     7
370
     9
100
AcDbLine
 10
95.31688080759366
 20
75.36713374035958
 30
0.0
 11
95.31688080759366
 21
36.71317994658048
 31
0.0
  0
TEXT
  5
203
330
1F
100
AcDbEntity
  8
D-F_断熱材
  6
Continuous
 62
     2
370
     9
100
AcDbText
 10
107.6402763034805
 20
46.30314717538376
 30
0.0
 40
18.288
  1
ジョイント部　Ｓ＝１：２
 41
1.114583333333333
  7
ＭＳ ゴシック
100
AcDbText
  0
LINE
  5
204
330
1F
100
AcDbEntity
  8
D-F_断熱材
  6
Continuous
 62
     7
370
     9
100
AcDbLine
 10
95.31688080759366
 20
36.71317994658048
 30
0.0
 11
436.0671446517881
 21
36.71317994658048
 31
0.0
  0
LINE
  5
205
330
1F
100
AcDbEntity
  8
D-F_断熱材
  6
Continuous
 62
     7
370
     9
100
AcDbLine
 10
95.31688080759366
 20
75.36713374035958
 30
0.0
 11
436.0671446517881
 21
75.36713374035958
 31
0.0
  0
LINE
  5
206
330
1F
100
AcDbEntity
  8
D-F_断熱材
  6
Continuous
 62
     7
370
     9
100
AcDbLine
 10
436.0671446517881
 20
75.36713374035958
 30
0.0
 11
436.0671446517881
 21
36.71317994658048
 31
0.0
  0
LINE
  5
207
330
1F
100
AcDbEntity
  8
D-0_通り芯
  6
Continuous
 62
     3
370
     9
100
AcDbLine
 10
-648.0001119665196
 20
-299.4648915883658
 30
0.0
 11
-648.0001119665196
 21
-295.8648648648648
 31
0.0
  0
LINE
  5
208
330
1F
100
AcDbEntity
  8
D-0_通り芯
  6
Continuous
 62
     3
370
     9
100
AcDbLine
 10
-430.2000911815744
 20
-179.4649410763303
 30
0.0
 11
-426.614836615485
 21
-179.1390628299199
 31
0.0
  0
LINE
  5
209
330
1F
100
AcDbEntity
  8
D-0_通り芯
  6
Continuous
 62
     3
370
     9
100
AcDbLine
 10
-430.2000911815744
 20
-179.4649410763303
 30
0.0
 11
-432.4569650598472
 21
-154.6395139951964
 31
0.0
  0
LINE
  5
20A
330
1F
100
AcDbEntity
  8
D-0_通り芯
  6
Continuous
 62
     3
370
     9
100
AcDbLine
 10
-426.614836615485
 20
-179.1390628299199
 30
0.0
 11
-428.8717104937577
 21
-154.3135615168392
 31
0.0
  0
LINE
  5
20B
330
1F
100
AcDbEntity
  8
D-0_通り芯
  6
Continuous
 62
     3
370
     9
100
AcDbLine
 10
-423.0001119665196
 20
-292.2649123733109
 30
0.0
 11
-423.0001119665196
 21
-154.2105275746939
 31
0.0
  0
LINE
  5
20C
330
1F
100
AcDbEntity
  8
D-0_通り芯
  6
Continuous
 62
     3
370
     9
100
AcDbLine
 10
-426.6000644580737
 20
-154.2105275746939
 30
0.0
 11
-426.6000644580737
 21
-292.2649123733109
 31
0.0
  0
ARC
  5
20D
330
1F
100
AcDbEntity
  8
D-0_通り芯
  6
Continuous
 62
     3
370
     9
100
AcDbCircle
 10
-430.2000911815744
 20
-292.2649123733109
 30
0.0
 40
3.600000046394967
100
AcDbArc
 50
270.0
 51
0.0
  0
ARC
  5
20E
330
1F
100
AcDbEntity
  8
D-0_通り芯
  6
Continuous
 62
     3
370
     9
100
AcDbCircle
 10
-430.2000911815744
 20
-292.2649123733109
 30
0.0
 40
7.200000092789934
100
AcDbArc
 50
270.0
 51
0.0
  0
ARC
  5
20F
330
1F
100
AcDbEntity
  8
D-0_通り芯
  6
Continuous
 62
     3
370
     9
100
AcDbCircle
 10
-427.738262898213
 20
-154.2105275746939
 30
0.0
 40
4.73815586115863
100
AcDbArc
 50
0.0
 51
185.1943969726562
  0
ARC
  5
210
330
1F
100
AcDbEntity
  8
D-0_通り芯
  6
Continuous
 62
     3
370
     9
100
AcDbCircle
 10
-427.738262898213
 20
-154.2105275746939
 30
0.0
 40
1.138155887255798
100
AcDbArc
 50
0.0
 51
185.1943969726562
  0
LINE
  5
211
330
1F
100
AcDbEntity
  8
D-F_断熱材
  6
Continuous
 62
     7
370
     9
100
AcDbLine
 10
-289.2933425696742
 20
-299.464912466101
 30
0.0
 11
-289.2933425696742
 21
-149.4723345975618
 31
0.0
  0
LINE
  5
212
330
1F
100
AcDbEntity
  8
D-F_断熱材
  6
Continuous
 62
     7
370
     9
100
AcDbLine
 10
-287.4933425696744
 20
-299.464912466101
 30
0.0
 11
-418.2000911815745
 21
-299.464912466101
 31
0.0
  0
LINE
  5
213
330
1F
100
AcDbEntity
  8
D-F_断熱材
  6
Continuous
 62
     7
370
     9
100
AcDbLine
 10
-287.4933425696744
 20
-149.4723345975618
 30
0.0
 11
-415.738262898213
 21
-149.4723345975618
 31
0.0
  0
TEXT
  5
214
330
1F
100
AcDbEntity
  8
D-F_断熱材
  6
Continuous
 62
     2
370
   211
100
AcDbText
 10
-295.6773425696742
 20
-236.4686235318314
 30
0.0
 40
18.288
  1
Ｈ
 50
90.0
  7
ＭＳ ゴシック
100
AcDbText
  0
LINE
  5
215
330
1F
100
AcDbEntity
  8
D-4_文字
  6
Continuous
 62
     7
370
     9
100
AcDbLine
 10
-695.2584732656345
 20
-299.4648915883658
 30
0.0
 11
-695.2584732656345
 21
-295.8648648648648
 31
0.0
  0
LWPOLYLINE
  5
216
330
1F
100
AcDbEntity
  8
D-4_文字
  6
Continuous
 62
     7
370
     9
100
AcDbPolyline
 90
        4
 70
     1
 43
1.2
 10
-694.6584732656345
 20
-299.4648915883658
 42
0.4142135623731
 10
-695.2584732656345
 20
-298.8648915883658
 42
0.4142135623731
 10
-695.8584732656344
 20
-299.4648915883658
 42
0.4142135623731
 10
-695.2584732656345
 20
-300.0648915883658
 42
0.4142135623731
  0
LWPOLYLINE
  5
217
330
1F
100
AcDbEntity
  8
D-4_文字
  6
Continuous
 62
     7
370
     9
100
AcDbPolyline
 90
        4
 70
     1
 43
1.2
 10
-694.6584732656345
 20
-295.8648648648648
 42
0.4142135623731
 10
-695.2584732656345
 20
-295.2648648648648
 42
0.4142135623731
 10
-695.8584732656344
 20
-295.8648648648648
 42
0.4142135623731
 10
-695.2584732656345
 20
-296.4648648648649
 42
0.4142135623731
  0
LINE
  5
218
330
1F
100
AcDbEntity
  8
D-4_文字
  6
Continuous
 62
     7
370
     9
100
AcDbLine
 10
-697.0584732656345
 20
-299.4648915883658
 30
0.0
 11
-660.0001119665196
 21
-299.4648915883658
 31
0.0
  0
LINE
  5
219
330
1F
100
AcDbEntity
  8
D-4_文字
  6
Continuous
 62
     7
370
     9
100
AcDbLine
 10
-697.0584732656345
 20
-295.8648648648648
 30
0.0
 11
-660.0001119665196
 21
-295.8648648648648
 31
0.0
  0
TEXT
  5
21A
330
1F
100
AcDbEntity
  8
D-4_文字
  6
Continuous
 62
     2
370
   211
100
AcDbText
 10
-702.2424732656344
 20
-317.1648782266154
 30
0.0
 40
18.288
  1
1.2
 50
90.0
 41
1.083333333333335
  7
ＭＳ ゴシック
100
AcDbText
  0
LINE
  5
21B
330
1F
100
AcDbEntity
  8
D-4_文字
  6
Continuous
 62
     7
370
     9
100
AcDbLine
 10
-423.0001119665196
 20
-98.09818798362784
 30
0.0
 11
-432.4569603706225
 21
-98.09818798362784
 31
0.0
  0
LWPOLYLINE
  5
21C
330
1F
100
AcDbEntity
  8
D-4_文字
  6
Continuous
 62
     7
370
     9
100
AcDbPolyline
 90
        4
 70
     1
 43
1.2
 10
-422.4001119665196
 20
-98.09818798362784
 42
0.4142135623731
 10
-423.0001119665196
 20
-97.49818798362783
 42
0.4142135623731
 10
-423.6001119665195
 20
-98.09818798362784
 42
0.4142135623731
 10
-423.0001119665196
 20
-98.69818798362785
 42
0.4142135623731
  0
LWPOLYLINE
  5
21D
330
1F
100
AcDbEntity
  8
D-4_文字
  6
Continuous
 62
     7
370
     9
100
AcDbPolyline
 90
        4
 70
     1
 43
1.2
 10
-431.8569603706226
 20
-98.09818798362784
 42
0.4142135623731
 10
-432.4569603706225
 20
-97.49818798362783
 42
0.4142135623731
 10
-433.0569603706225
 20
-98.09818798362784
 42
0.4142135623731
 10
-432.4569603706225
 20
-98.69818798362785
 42
0.4142135623731
  0
LINE
  5
21E
330
1F
100
AcDbEntity
  8
D-4_文字
  6
Continuous
 62
     7
370
     9
100
AcDbLine
 10
-423.0001119665196
 20
-96.29818798362777
 30
0.0
 11
-423.0001119665196
 21
-142.2105275746939
 31
0.0
  0
LINE
  5
21F
330
1F
100
AcDbEntity
  8
D-4_文字
  6
Continuous
 62
     7
370
     9
100
AcDbLine
 10
-432.4569603706225
 20
-96.29818798362777
 30
0.0
 11
-432.4569603706225
 21
-142.6394974203785
 31
0.0
  0
LWPOLYLINE
  5
220
330
1F
100
AcDbEntity
  8
D-4_文字
  6
Continuous
 62
     7
370
     9
100
AcDbPolyline
 90
        4
 70
     1
 43
1.2
 10
-288.6933425696743
 20
-299.464912466101
 42
0.4142135623731
 10
-289.2933425696742
 20
-298.864912466101
 42
0.4142135623731
 10
-289.8933425696742
 20
-299.464912466101
 42
0.4142135623731
 10
-289.2933425696742
 20
-300.064912466101
 42
0.4142135623731
  0
LWPOLYLINE
  5
221
330
1F
100
AcDbEntity
  8
D-4_文字
  6
Continuous
 62
     7
370
     9
100
AcDbPolyline
 90
        4
 70
     1
 43
1.2
 10
-288.6933425696743
 20
-149.4723345975618
 42
0.4142135623731
 10
-289.2933425696742
 20
-148.8723345975617
 42
0.4142135623731
 10
-289.8933425696742
 20
-149.4723345975618
 42
0.4142135623731
 10
-289.2933425696742
 20
-150.0723345975618
 42
0.4142135623731
  0
LINE
  5
222
330
1F
100
AcDbEntity
  8
D-4_文字
  6
Continuous
 62
     7
370
     9
100
AcDbLine
 10
-348.885314754325
 20
-299.464912466101
 30
0.0
 11
-348.885314754325
 21
-269.4649410763303
 31
0.0
  0
LWPOLYLINE
  5
223
330
1F
100
AcDbEntity
  8
D-4_文字
  6
Continuous
 62
     7
370
     9
100
AcDbPolyline
 90
        4
 70
     1
 43
1.2
 10
-348.285314754325
 20
-299.464912466101
 42
0.4142135623731
 10
-348.885314754325
 20
-298.864912466101
 42
0.4142135623731
 10
-349.485314754325
 20
-299.464912466101
 42
0.4142135623731
 10
-348.885314754325
 20
-300.064912466101
 42
0.4142135623731
  0
LWPOLYLINE
  5
224
330
1F
100
AcDbEntity
  8
D-4_文字
  6
Continuous
 62
     7
370
     9
100
AcDbPolyline
 90
        4
 70
     1
 43
1.2
 10
-348.285314754325
 20
-269.4649410763303
 42
0.4142135623731
 10
-348.885314754325
 20
-268.8649410763303
 42
0.4142135623731
 10
-349.485314754325
 20
-269.4649410763303
 42
0.4142135623731
 10
-348.885314754325
 20
-270.0649410763303
 42
0.4142135623731
  0
LINE
  5
225
330
1F
100
AcDbEntity
  8
D-4_文字
  6
Continuous
 62
     7
370
     9
100
AcDbLine
 10
-347.085314754325
 20
-269.4649410763303
 30
0.0
 11
-411.0001119665196
 21
-269.4649410763303
 31
0.0
  0
TEXT
  5
226
330
1F
100
AcDbEntity
  8
D-4_文字
  6
Continuous
 62
     2
370
   211
100
AcDbText
 10
-355.869314754325
 20
-297.2149267712157
 30
0.0
 40
18.288
  1
10
 50
90.0
 41
1.0625
  7
ＭＳ ゴシック
100
AcDbText
  0
LINE
  5
227
330
1F
100
AcDbEntity
  8
D-F_断熱材
  6
Continuous
 62
     7
370
     9
100
AcDbLine
 10
-618.8113190324929
 20
-295.864864864865
 30
0.0
 11
-625.6995983029742
 21
-279.2350529851142
 31
0.0
  0
LINE
  5
228
330
1F
100
AcDbEntity
  8
D-F_断熱材
  6
Continuous
 62
     7
370
     9
100
AcDbLine
 10
-618.8113190324929
 20
-295.864864864865
 30
0.0
 11
-629.7689936260317
 21
-281.5844941010347
 31
0.0
  0
LINE
  5
229
330
1F
100
AcDbEntity
  8
D-F_断熱材
  6
Continuous
 62
     7
370
     9
100
AcDbLine
 10
-618.8113190324929
 20
-295.864864864865
 30
0.0
 11
-681.735588510583
 21
-186.8769054037998
 31
0.0
  0
TEXT
  5
22A
330
1F
100
AcDbEntity
  8
D-4_文字
  6
Continuous
 62
     2
370
   211
100
AcDbText
 10
-447.2285361685711
 20
-91.11418798362787
 30
0.0
 40
18.288
  1
3.6
 41
1.083333333333333
  7
ＭＳ ゴシック
100
AcDbText
  0
TEXT
  5
22B
330
1F
100
AcDbEntity
  8
D-F_断熱材
  6
Continuous
 62
     7
370
     9
100
AcDbText
 10
-1063.283643844973
 20
-140.9219759010547
 30
0.0
 40
13.716
  1
ステンレス製舗装用見切材
 41
1.152777777777777
  7
ＭＳ ゴシック
100
AcDbText
  0
LINE
  5
22C
330
1F
100
AcDbEntity
  8
D-F_断熱材
  6
Continuous
 62
     7
370
     9
100
AcDbLine
 10
-681.735588510583
 20
-186.8769054037998
 30
0.0
 11
-1079.531341829822
 21
-186.8769054037998
 31
0.0
  0
TEXT
  5
22D
330
1F
100
AcDbEntity
  8
D-F_断熱材
  6
Continuous
 62
     2
370
     9
100
AcDbText
 10
-1064.783683435123
 20
-212.7545078570831
 30
0.0
 40
18.288
  1
ＳＵＳ３０４（t=1.2）
 50
359.9999999962516
 41
1.113095238095238
  7
ＭＳ ゴシック
100
AcDbText
  0
TEXT
  5
22E
330
1F
100
AcDbEntity
  8
D-F_断熱材
  6
Continuous
 62
     2
370
     9
100
AcDbText
 10
-1063.283643844973
 20
-174.5495146864222
 30
0.0
 40
18.288
  1
ガーデンエッジ　ＩＳ－Ｈ－Ｒ
 41
1.116071428571429
  7
ＭＳ ゴシック
100
AcDbText
  0
LINE
  5
22F
330
1F
100
AcDbEntity
  8
D-0_通り芯
  6
Continuous
 62
     3
370
     9
100
AcDbLine
 10
-430.2000911815744
 20
-295.8649124197059
 30
0.0
 11
-430.2000911815744
 21
-299.4648915883658
 31
0.0
  0
LINE
  5
230
330
1F
100
AcDbEntity
  8
D-5_建具
  6
Continuous
 62
     4
370
     9
100
AcDbLine
 10
-433.8000644580738
 20
-295.8648648648648
 30
0.0
 11
-513.7501515568912
 21
-295.8648648648648
 31
0.0
  0
LINE
  5
231
330
1F
100
AcDbEntity
  8
D-0_通り芯
  6
Continuous
 62
     3
370
     9
100
AcDbLine
 10
-648.0001119665196
 20
-299.4648915883658
 30
0.0
 11
-430.2000911815744
 21
-299.4648915883658
 31
0.0
  0
LINE
  5
232
330
1F
100
AcDbEntity
  8
D-0_通り芯
  6
Continuous
 62
     3
370
     9
100
AcDbLine
 10
-430.1815873279822
 20
-295.8648648648648
 30
0.0
 11
-648.0001119665196
 21
-295.8648648648648
 31
0.0
  0
LINE
  5
233
330
1F
100
AcDbEntity
  8
D-0_通り芯
  6
JWW_PHANTOM1
 62
     3
370
     9
100
AcDbLine
 10
-528.0000129905906
 20
-310.5898019706793
 30
0.0
 11
-528.0000129905906
 21
-284.7399544825513
 31
0.0
  0
LINE
  5
234
330
1F
100
AcDbEntity
  8
D-0_通り芯
  6
JWW_DASHED1
 62
     3
370
     9
100
AcDbLine
 10
-511.5000327857763
 20
-299.4648915883658
 30
0.0
 11
-511.5000327857763
 21
-295.8648648648648
 31
0.0
  0
LINE
  5
235
330
1F
100
AcDbEntity
  8
D-0_通り芯
  6
JWW_DASHED1
 62
     3
370
     9
100
AcDbLine
 10
-544.4999931954047
 20
-299.4648915883658
 30
0.0
 11
-544.4999931954047
 21
-295.8648648648648
 31
0.0
  0
LINE
  5
236
330
1F
100
AcDbEntity
  8
D-4_文字
  6
Continuous
 62
     7
370
     9
100
AcDbLine
 10
-648.0001119665196
 20
-358.5519148166522
 30
0.0
 11
-423.0001119665196
 21
-358.5519148166522
 31
0.0
  0
LWPOLYLINE
  5
237
330
1F
100
AcDbEntity
  8
D-4_文字
  6
Continuous
 62
     7
370
     9
100
AcDbPolyline
 90
        4
 70
     1
 43
1.2
 10
-647.4001119665197
 20
-358.5519148166522
 42
0.4142135623731
 10
-648.0001119665196
 20
-357.9519148166522
 42
0.4142135623731
 10
-648.6001119665196
 20
-358.5519148166522
 42
0.4142135623731
 10
-648.0001119665196
 20
-359.1519148166523
 42
0.4142135623731
  0
LWPOLYLINE
  5
238
330
1F
100
AcDbEntity
  8
D-4_文字
  6
Continuous
 62
     7
370
     9
100
AcDbPolyline
 90
        4
 70
     1
 43
1.2
 10
-422.4001119665196
 20
-358.5519148166522
 42
0.4142135623731
 10
-423.0001119665196
 20
-357.9519148166522
 42
0.4142135623731
 10
-423.6001119665195
 20
-358.5519148166522
 42
0.4142135623731
 10
-423.0001119665196
 20
-359.1519148166523
 42
0.4142135623731
  0
LINE
  5
239
330
1F
100
AcDbEntity
  8
D-4_文字
  6
Continuous
 62
     7
370
     9
100
AcDbLine
 10
-648.0001119665196
 20
-360.3519148166521
 30
0.0
 11
-648.0001119665196
 21
-311.4648915883658
 31
0.0
  0
LINE
  5
23A
330
1F
100
AcDbEntity
  8
D-4_文字
  6
Continuous
 62
     7
370
     9
100
AcDbLine
 10
-423.0001119665196
 20
-360.3519148166521
 30
0.0
 11
-423.0001119665196
 21
-304.2649123733109
 31
0.0
  0
TEXT
  5
23B
330
1F
100
AcDbEntity
  8
D-4_文字
  6
Continuous
 62
     2
370
   211
100
AcDbText
 10
-548.2501119665196
 20
-351.5679148166523
 30
0.0
 40
18.288
  1
75
 41
1.0625
  7
ＭＳ ゴシック
100
AcDbText
  0
LINE
  5
23C
330
1F
100
AcDbEntity
  8
D-0_通り芯
  6
Continuous
 62
     3
370
     9
100
AcDbLine
 10
-423.0001119665196
 20
-269.4649410763303
 30
0.0
 11
-426.6000644580737
 21
-269.4649410763303
 31
0.0
  0
LINE
  5
23D
330
1F
100
AcDbEntity
  8
D-4_文字
  6
Continuous
 62
     7
370
     9
100
AcDbLine
 10
-695.2584732656345
 20
-295.8648648648648
 30
0.0
 11
-695.2584732656345
 21
-278.1648782266153
 31
0.0
  0
LINE
  5
23E
330
1F
100
AcDbEntity
  8
D-4_文字
  6
Continuous
 62
     7
370
     9
100
AcDbLine
 10
-695.2584732656345
 20
-299.4648915883658
 30
0.0
 11
-695.2584732656345
 21
-317.1648782266154
 31
0.0
  0
LINE
  5
23F
330
1F
100
AcDbEntity
  8
D-6_間仕切
  6
Continuous
 62
     6
370
     5
100
AcDbLine
 10
607.7008084822412
 20
-280.3688878052151
 30
0.0
 11
836.3315150813326
 21
-412.3688878052147
 31
0.0
  0
LINE
  5
240
330
1F
100
AcDbEntity
  8
D-2_仕上
  6
JWW_DASHED1
 62
     3
370
     9
100
AcDbLine
 10
725.6161617817876
 20
-273.4473487742977
 30
0.0
 11
725.6161617817876
 21
-348.4473487742965
 31
0.0
  0
LINE
  5
241
330
1F
100
AcDbEntity
  8
D-2_仕上
  6
JWW_DASHED1
 62
     3
370
     9
100
AcDbLine
 10
572.8492805542129
 20
-436.6473487742977
 30
0.0
 11
725.6161617817876
 21
-348.4473487742965
 31
0.0
  0
TEXT
  5
242
330
1F
100
AcDbEntity
  8
D-5_建具
  6
Continuous
 62
     7
370
     9
100
AcDbText
 10
179.9843056648679
 20
-33.36800656731602
 30
0.0
 40
13.716
  1
別　売
 50
359.9999645568416
 41
1.111111111111112
  7
ＭＳ ゴシック
100
AcDbText
  0
LINE
  5
243
330
1F
100
AcDbEntity
  8
D-5_建具
  6
Continuous
 62
     7
370
     9
100
AcDbLine
 10
153.6344992423959
 20
-10.31860711037117
 30
0.0
 11
153.6344992423959
 21
-43.49347654462477
 31
0.0
  0
LINE
  5
244
330
1F
100
AcDbEntity
  8
D-5_建具
  6
Continuous
 62
     7
370
     9
100
AcDbLine
 10
153.6344992423959
 20
-43.49347654462477
 30
0.0
 11
266.3340347153688
 21
-43.49347654462477
 31
0.0
  0
LINE
  5
245
330
1F
100
AcDbEntity
  8
D-5_建具
  6
Continuous
 62
     7
370
     9
100
AcDbLine
 10
266.3340347153688
 20
-43.49347654462477
 30
0.0
 11
266.3340347153688
 21
-10.31860711037117
 31
0.0
  0
LINE
  5
246
330
1F
100
AcDbEntity
  8
D-5_建具
  6
Continuous
 62
     7
370
     9
100
AcDbLine
 10
266.3340347153688
 20
-10.31860711037117
 30
0.0
 11
153.6344992423959
 21
-10.31860711037117
 31
0.0
  0
TEXT
  5
247
330
1F
100
AcDbEntity
  8
D-5_建具
  6
Continuous
 62
     2
370
     9
100
AcDbText
 10
154.9216041686177
 20
-72.14353815527537
 30
0.0
 40
18.288
  1
スチール製固定用釘
 41
1.111111111111111
  7
ＭＳ ゴシック
100
AcDbText
  0
TEXT
  5
248
330
1F
100
AcDbEntity
  8
D-5_建具
  6
Continuous
 62
     2
370
     9
100
AcDbText
 10
154.9216041686177
 20
-103.051207448517
 30
0.0
 40
18.288
  1
φ９．５×２００
 41
1.109375
  7
ＭＳ ゴシック
100
AcDbText
  0
LINE
  5
249
330
1F
100
AcDbEntity
  8
D-5_建具
  6
Continuous
 62
     7
370
     9
100
AcDbLine
 10
454.1384960137583
 20
-115.3786167238814
 30
0.0
 11
153.6344992423959
 21
-115.3786167238814
 31
0.0
  0
ENDSEC
  0
SECTION
  2
OBJECTS
  0
DICTIONARY
  5
C
330
0
100
AcDbDictionary
281
     1
  3
ACAD_DETAILVIEWSTYLE
350
28F
  3
ACAD_GROUP
350
D
  3
ACAD_LAYOUT
350
1A
  3
ACAD_MATERIAL
350
43
  3
ACAD_MLEADERSTYLE
350
6B
  3
ACAD_MLINESTYLE
350
17
  3
ACAD_PLOTSETTINGS
350
19
  3
ACAD_PLOTSTYLENAME
350
E
  3
ACAD_SCALELIST
350
47
  3
ACAD_SECTIONVIEWSTYLE
350
290
  3
ACAD_TABLESTYLE
350
69
  3
ACAD_VISUALSTYLE
350
2A
  3
ACDB_RECOMPOSE_DATA
350
28C
  3
AcDbVariableDictionary
350
24C
  0
DICTIONARY
  5
24A
330
8
100
AcDbDictionary
280
     1
281
     1
  3
ACAD_XREC_ROUNDTRIP
360
24B
  0
DICTIONARY
  5
28F
102
{ACAD_REACTORS
330
C
102
}
330
C
100
AcDbDictionary
281
     1
  0
DICTIONARY
  5
D
102
{ACAD_REACTORS
330
C
102
}
330
C
100
AcDbDictionary
281
     1
  0
DICTIONARY
  5
1A
102
{ACAD_REACTORS
330
C
102
}
330
C
100
AcDbDictionary
281
     1
  3
Layout1
350
1E
  3
Layout2
350
26
  3
Model
350
22
  0
DICTIONARY
  5
43
102
{ACAD_REACTORS
330
C
102
}
330
C
100
AcDbDictionary
281
     1
  3
ByBlock
350
45
  3
ByLayer
350
44
  3
Global
350
46
  0
DICTIONARY
  5
6B
102
{ACAD_REACTORS
330
C
102
}
330
C
100
AcDbDictionary
281
     1
  3
Standard
350
6C
  0
DICTIONARY
  5
17
102
{ACAD_REACTORS
330
C
102
}
330
C
100
AcDbDictionary
281
     1
  3
Standard
350
18
  0
DICTIONARY
  5
19
102
{ACAD_REACTORS
330
C
102
}
330
C
100
AcDbDictionary
281
     1
  0
ACDBDICTIONARYWDFLT
  5
E
102
{ACAD_REACTORS
330
C
102
}
330
C
100
AcDbDictionary
281
     1
  3
Normal
350
F
100
AcDbDictionaryWithDefault
340
F
  0
DICTIONARY
  5
47
102
{ACAD_REACTORS
330
C
102
}
330
C
100
AcDbDictionary
281
     1
  3
A0
350
48
  3
A1
350
49
  3
A2
350
4A
  3
A3
350
4B
  3
A4
350
4C
  3
A5
350
4D
  3
A6
350
4E
  3
A7
350
4F
  3
A8
350
50
  3
A9
350
51
  3
B0
350
52
  3
B1
350
53
  3
B2
350
54
  3
B3
350
55
  3
B4
350
56
  3
B5
350
57
  3
B6
350
58
  3
B7
350
59
  3
B8
350
5A
  3
B9
350
5B
  3
C0
350
5C
  3
C1
350
5D
  3
C2
350
5E
  3
C3
350
5F
  3
C4
350
60
  3
C5
350
61
  3
C6
350
62
  3
C7
350
63
  3
C8
350
64
  3
C9
350
65
  3
D0
350
66
  3
D1
350
67
  3
D2
350
68
  0
DICTIONARY
  5
290
102
{ACAD_REACTORS
330
C
102
}
330
C
100
AcDbDictionary
281
     1
  0
DICTIONARY
  5
69
102
{ACAD_REACTORS
330
C
102
}
330
C
100
AcDbDictionary
281
     1
  3
Standard
350
6A
  0
DICTIONARY
  5
2A
102
{ACAD_REACTORS
330
C
102
}
330
C
100
AcDbDictionary
281
     1
  3
2dWireframe
350
2F
  3
Basic
350
32
  3
Brighten
350
36
  3
ColorChange
350
3A
  3
Conceptual
350
34
  3
Dim
350
35
  3
EdgeColorOff
350
3D
  3
Facepattern
350
39
  3
Flat
350
2B
  3
FlatWithEdges
350
2C
  3
Gouraud
350
2D
  3
GouraudWithEdges
350
2E
  3
Hidden
350
31
  3
JitterOff
350
3B
  3
Linepattern
350
38
  3
OverhangOff
350
3C
  3
Realistic
350
33
  3
Shaded
350
42
  3
Shaded with edges
350
41
  3
Shades of Gray
350
3E
  3
Sketchy
350
3F
  3
Thicken
350
37
  3
Wireframe
350
30
  3
X-Ray
350
40
  0
XRECORD
  5
28C
102
{ACAD_REACTORS
330
C
102
}
330
C
100
AcDbXrecord
280
     1
 90
        1
330
6A
  0
DICTIONARY
  5
24C
102
{ACAD_REACTORS
330
C
102
}
330
C
100
AcDbDictionary
281
     1
  3
CANNOSCALE
350
24D
  3
CENTEREXE
350
291
  3
CENTERLTYPEFILE
350
292
  3
CMLEADERSTYLE
350
28E
  3
CTABLESTYLE
350
28D
  3
MSLTSCALE
350
24E
  3
XCLIPFRAME
350
24F
  0
XRECORD
  5
24B
102
{ACAD_REACTORS
330
24A
102
}
330
24A
100
AcDbXrecord
280
     1
102
VTR_0.000_0.000_1.000_1.000_VISUALSTYLE
340
2F
102
VTR_0.000_0.000_1.000_1.000_GRIDDISPLAY
 70
     3
102
VTR_0.000_0.000_1.000_1.000_GRIDMAJOR
 70
     5
102
VTR_0.000_0.000_1.000_1.000_DEFAULTLIGHTING
280
     1
102
VTR_0.000_0.000_1.000_1.000_DEFAULTLIGHTINGTYPE
 70
     1
102
VTR_0.000_0.000_1.000_1.000_BRIGHTNESS
141
0.0
102
VTR_0.000_0.000_1.000_1.000_CONTRAST
142
0.0
  0
LAYOUT
  5
1E
102
{ACAD_REACTORS
330
1A
102
}
330
1A
100
AcDbPlotSettings
  1

  2
none_device
  4

  6

 40
0.0
 41
0.0
 42
0.0
 43
0.0
 44
0.0
 45
0.0
 46
0.0
 47
0.0
 48
0.0
 49
0.0
140
0.0
141
0.0
142
1.0
143
1.0
 70
   688
 72
     1
 73
     0
 74
     5
  7

 75
    16
 76
     0
 77
     5
 78
   300
147
1.0
148
0.0
149
0.0
100
AcDbLayout
  1
Layout1
 70
     1
 71
     1
 10
0.0
 20
0.0
 11
420.0
 21
297.0
 12
0.0
 22
0.0
 32
0.0
 14
1.000000000000000E+20
 24
1.000000000000000E+20
 34
1.000000000000000E+20
 15
-1.000000000000000E+20
 25
-1.000000000000000E+20
 35
-1.000000000000000E+20
146
0.0
 13
0.0
 23
0.0
 33
0.0
 16
1.0
 26
0.0
 36
0.0
 17
0.0
 27
1.0
 37
0.0
 76
     0
330
1B
  0
LAYOUT
  5
26
102
{ACAD_REACTORS
330
1A
102
}
330
1A
100
AcDbPlotSettings
  1

  2
none_device
  4

  6

 40
0.0
 41
0.0
 42
0.0
 43
0.0
 44
0.0
 45
0.0
 46
0.0
 47
0.0
 48
0.0
 49
0.0
140
0.0
141
0.0
142
1.0
143
1.0
 70
   688
 72
     1
 73
     0
 74
     5
  7

 75
    16
 76
     0
 77
     5
 78
   300
147
1.0
148
0.0
149
0.0
100
AcDbLayout
  1
Layout2
 70
     1
 71
     2
 10
0.0
 20
0.0
 11
0.0
 21
0.0
 12
0.0
 22
0.0
 32
0.0
 14
0.0
 24
0.0
 34
0.0
 15
0.0
 25
0.0
 35
0.0
146
0.0
 13
0.0
 23
0.0
 33
0.0
 16
1.0
 26
0.0
 36
0.0
 17
0.0
 27
1.0
 37
0.0
 76
     0
330
23
  0
LAYOUT
  5
22
102
{ACAD_REACTORS
330
1A
102
}
330
1A
100
AcDbPlotSettings
  1

  2
none_device
  4
Letter_(8.50_x_11.00_Inches)
  6

 40
6.35
 41
6.35
 42
6.35000508
 43
6.35000508
 44
215.9
 45
279.4
 46
0.0
 47
0.0
 48
0.0
 49
0.0
140
0.0
141
0.0
142
1.0
143
1.0
 70
  1712
 72
     1
 73
     0
 74
     0
  7

 75
     0
 76
     0
 77
     5
 78
   300
147
1.0
148
0.0
149
0.0
100
AcDbLayout
  1
Model
 70
     1
 71
     0
 10
-1260.0
 20
-891.0
 11
1260.0
 21
891.0
 12
0.0
 22
0.0
 32
0.0
 14
-1260.0
 24
-891.0
 34
0.0
 15
1260.0
 25
891.0
 35
0.0
146
0.0
 13
0.0
 23
0.0
 33
0.0
 16
1.0
 26
0.0
 36
0.0
 17
0.0
 27
1.0
 37
0.0
 76
     0
330
1F
331
29
  0
MATERIAL
  5
45
102
{ACAD_REACTORS
330
43
102
}
102
{ACAD_XDICTIONARY
360
282
102
}
330
43
100
AcDbMaterial
  1
ByBlock
  0
MATERIAL
  5
44
102
{ACAD_REACTORS
330
43
102
}
102
{ACAD_XDICTIONARY
360
280
102
}
330
43
100
AcDbMaterial
  1
ByLayer
  0
MATERIAL
  5
46
102
{ACAD_REACTORS
330
43
102
}
102
{ACAD_XDICTIONARY
360
284
102
}
330
43
100
AcDbMaterial
  1
Global
  0
MLEADERSTYLE
  5
6C
102
{ACAD_REACTORS
330
6B
102
}
102
{ACAD_XDICTIONARY
360
28A
102
}
330
6B
100
AcDbMLeaderStyle
170
     2
171
     1
172
     0
 90
        2
 40
0.0
 41
0.0
173
     1
 91
-1056964608
340
14
 92
       -2
290
     1
 42
2.0
291
     1
 43
8.0
  3
Standard
341
0
 44
4.0
300

342
11
174
     1
178
     6
175
     1
176
     0
 93
-1056964608
 45
4.0
292
     0
297
     0
 46
4.0
343
0
 94
-1056964608
 47
1.0
 49
1.0
140
1.0
293
     1
141
0.0
294
     1
177
     0
142
1.0
295
     0
296
     0
143
3.75
1001
ACAD_MLEADERVER
1070
     2
  0
MLINESTYLE
  5
18
102
{ACAD_REACTORS
330
17
102
}
330
17
100
AcDbMlineStyle
  2
Standard
 70
     0
  3

 62
   256
 51
90.0
 52
90.0
 71
     2
 49
0.5
 62
   256
  6
BYLAYER
 49
-0.5
 62
   256
  6
BYLAYER
  0
ACDBPLACEHOLDER
  5
F
102
{ACAD_REACTORS
330
E
102
}
330
E
  0
SCALE
  5
48
102
{ACAD_REACTORS
330
47
102
}
330
47
100
AcDbScale
 70
     0
300
1:1
140
1.0
141
1.0
290
     1
  0
SCALE
  5
49
102
{ACAD_REACTORS
330
47
102
}
330
47
100
AcDbScale
 70
     0
300
1:2
140
1.0
141
2.0
290
     0
  0
SCALE
  5
4A
102
{ACAD_REACTORS
330
47
102
}
330
47
100
AcDbScale
 70
     0
300
1:4
140
1.0
141
4.0
290
     0
  0
SCALE
  5
4B
102
{ACAD_REACTORS
330
47
102
}
330
47
100
AcDbScale
 70
     0
300
1:5
140
1.0
141
5.0
290
     0
  0
SCALE
  5
4C
102
{ACAD_REACTORS
330
47
102
}
330
47
100
AcDbScale
 70
     0
300
1:8
140
1.0
141
8.0
290
     0
  0
SCALE
  5
4D
102
{ACAD_REACTORS
330
47
102
}
330
47
100
AcDbScale
 70
     0
300
1:10
140
1.0
141
10.0
290
     0
  0
SCALE
  5
4E
102
{ACAD_REACTORS
330
47
102
}
330
47
100
AcDbScale
 70
     0
300
1:16
140
1.0
141
16.0
290
     0
  0
SCALE
  5
4F
102
{ACAD_REACTORS
330
47
102
}
330
47
100
AcDbScale
 70
     0
300
1:20
140
1.0
141
20.0
290
     0
  0
SCALE
  5
50
102
{ACAD_REACTORS
330
47
102
}
330
47
100
AcDbScale
 70
     0
300
1:30
140
1.0
141
30.0
290
     0
  0
SCALE
  5
51
102
{ACAD_REACTORS
330
47
102
}
330
47
100
AcDbScale
 70
     0
300
1:40
140
1.0
141
40.0
290
     0
  0
SCALE
  5
52
102
{ACAD_REACTORS
330
47
102
}
330
47
100
AcDbScale
 70
     0
300
1:50
140
1.0
141
50.0
290
     0
  0
SCALE
  5
53
102
{ACAD_REACTORS
330
47
102
}
330
47
100
AcDbScale
 70
     0
300
1:100
140
1.0
141
100.0
290
     0
  0
SCALE
  5
54
102
{ACAD_REACTORS
330
47
102
}
330
47
100
AcDbScale
 70
     0
300
2:1
140
2.0
141
1.0
290
     0
  0
SCALE
  5
55
102
{ACAD_REACTORS
330
47
102
}
330
47
100
AcDbScale
 70
     0
300
4:1
140
4.0
141
1.0
290
     0
  0
SCALE
  5
56
102
{ACAD_REACTORS
330
47
102
}
330
47
100
AcDbScale
 70
     0
300
8:1
140
8.0
141
1.0
290
     0
  0
SCALE
  5
57
102
{ACAD_REACTORS
330
47
102
}
330
47
100
AcDbScale
 70
     0
300
10:1
140
10.0
141
1.0
290
     0
  0
SCALE
  5
58
102
{ACAD_REACTORS
330
47
102
}
330
47
100
AcDbScale
 70
     0
300
100:1
140
100.0
141
1.0
290
     0
  0
SCALE
  5
59
102
{ACAD_REACTORS
330
47
102
}
330
47
100
AcDbScale
 70
     0
300
1/128" = 1'-0"
140
0.0078125
141
12.0
290
     0
  0
SCALE
  5
5A
102
{ACAD_REACTORS
330
47
102
}
330
47
100
AcDbScale
 70
     0
300
1/64" = 1'-0"
140
0.015625
141
12.0
290
     0
  0
SCALE
  5
5B
102
{ACAD_REACTORS
330
47
102
}
330
47
100
AcDbScale
 70
     0
300
1/32" = 1'-0"
140
0.03125
141
12.0
290
     0
  0
SCALE
  5
5C
102
{ACAD_REACTORS
330
47
102
}
330
47
100
AcDbScale
 70
     0
300
1/16" = 1'-0"
140
0.0625
141
12.0
290
     0
  0
SCALE
  5
5D
102
{ACAD_REACTORS
330
47
102
}
330
47
100
AcDbScale
 70
     0
300
3/32" = 1'-0"
140
0.09375
141
12.0
290
     0
  0
SCALE
  5
5E
102
{ACAD_REACTORS
330
47
102
}
330
47
100
AcDbScale
 70
     0
300
1/8" = 1'-0"
140
0.125
141
12.0
290
     0
  0
SCALE
  5
5F
102
{ACAD_REACTORS
330
47
102
}
330
47
100
AcDbScale
 70
     0
300
3/16" = 1'-0"
140
0.1875
141
12.0
290
     0
  0
SCALE
  5
60
102
{ACAD_REACTORS
330
47
102
}
330
47
100
AcDbScale
 70
     0
300
1/4" = 1'-0"
140
0.25
141
12.0
290
     0
  0
SCALE
  5
61
102
{ACAD_REACTORS
330
47
102
}
330
47
100
AcDbScale
 70
     0
300
3/8" = 1'-0"
140
0.375
141
12.0
290
     0
  0
SCALE
  5
62
102
{ACAD_REACTORS
330
47
102
}
330
47
100
AcDbScale
 70
     0
300
1/2" = 1'-0"
140
0.5
141
12.0
290
     0
  0
SCALE
  5
63
102
{ACAD_REACTORS
330
47
102
}
330
47
100
AcDbScale
 70
     0
300
3/4" = 1'-0"
140
0.75
141
12.0
290
     0
  0
SCALE
  5
64
102
{ACAD_REACTORS
330
47
102
}
330
47
100
AcDbScale
 70
     0
300
1" = 1'-0"
140
1.0
141
12.0
290
     0
  0
SCALE
  5
65
102
{ACAD_REACTORS
330
47
102
}
330
47
100
AcDbScale
 70
     0
300
1-1/2" = 1'-0"
140
1.5
141
12.0
290
     0
  0
SCALE
  5
66
102
{ACAD_REACTORS
330
47
102
}
330
47
100
AcDbScale
 70
     0
300
3" = 1'-0"
140
3.0
141
12.0
290
     0
  0
SCALE
  5
67
102
{ACAD_REACTORS
330
47
102
}
330
47
100
AcDbScale
 70
     0
300
6" = 1'-0"
140
6.0
141
12.0
290
     0
  0
SCALE
  5
68
102
{ACAD_REACTORS
330
47
102
}
330
47
100
AcDbScale
 70
     0
300
1'-0" = 1'-0"
140
12.0
141
12.0
290
     0
  0
TABLESTYLE
  5
6A
102
{ACAD_REACTORS
330
69
102
}
102
{ACAD_XDICTIONARY
360
286
102
}
330
69
100
AcDbTableStyle
  3
Standard
 70
     0
 71
     0
 40
0.06
 41
0.06
280
     0
281
     0
  7
Standard
140
4.5
170
     2
 62
     0
 63
   257
283
     0
274
    -2
284
     1
 64
     0
275
    -2
285
     1
 65
     0
276
    -2
286
     1
 66
     0
277
    -2
287
     1
 67
     0
278
    -2
288
     1
 68
     0
279
    -2
289
     1
 69
     0
  7
Standard
140
6.0
170
     5
 62
     0
 63
   257
283
     0
274
    -2
284
     1
 64
     0
275
    -2
285
     1
 65
     0
276
    -2
286
     1
 66
     0
277
    -2
287
     1
 67
     0
278
    -2
288
     1
 68
     0
279
    -2
289
     1
 69
     0
  7
Standard
140
4.5
170
     5
 62
     0
 63
   257
283
     0
274
    -2
284
     1
 64
     0
275
    -2
285
     1
 65
     0
276
    -2
286
     1
 66
     0
277
    -2
287
     1
 67
     0
278
    -2
288
     1
 68
     0
279
    -2
289
     1
 69
     0
  0
VISUALSTYLE
  5
2F
102
{ACAD_REACTORS
330
2A
102
}
102
{ACAD_XDICTIONARY
360
258
102
}
330
2A
100
AcDbVisualStyle
  2
2dWireframe
 70
     4
 71
     0
 72
     2
 73
     0
 90
        0
 40
0.6
 41
30.0
 62
     5
 63
     7
421
 16777215
 74
     1
 91
        4
 64
     7
 65
   257
 75
     1
175
     1
 42
1.0
 92
        0
 66
   257
 43
1.0
 76
     1
 77
     6
 78
     2
 67
     7
 79
     5
170
     0
171
     0
290
     0
174
     0
 93
        1
 44
0.0
173
     0
291
     0
 45
0.0
1001
ACAD
1000
AcDbSavedByObjectVersion
1070
     0
  0
VISUALSTYLE
  5
32
102
{ACAD_REACTORS
330
2A
102
}
102
{ACAD_XDICTIONARY
360
25E
102
}
330
2A
100
AcDbVisualStyle
  2
Basic
 70
     7
 71
     1
 72
     0
 73
     1
 90
        0
 40
0.6
 41
30.0
 62
     5
 63
     7
421
 16777215
 74
     0
 91
        4
 64
     7
 65
   257
 75
     1
175
     1
 42
1.0
 92
        8
 66
     7
 43
1.0
 76
     1
 77
     6
 78
     2
 67
     7
 79
     5
170
     0
171
     0
290
     0
174
     0
 93
        1
 44
0.0
173
     0
291
     1
 45
0.0
1001
ACAD
1000
AcDbSavedByObjectVersion
1070
     0
  0
VISUALSTYLE
  5
36
102
{ACAD_REACTORS
330
2A
102
}
102
{ACAD_XDICTIONARY
360
266
102
}
330
2A
100
AcDbVisualStyle
  2
Brighten
 70
    12
 71
     2
 72
     2
 73
     0
 90
        0
 40
0.6
 41
30.0
 62
     5
 63
     7
421
 16777215
 74
     1
 91
        4
 64
     7
 65
   257
 75
     1
175
     1
 42
1.0
 92
        8
 66
     7
 43
1.0
 76
     1
 77
     6
 78
     2
 67
     7
 79
     5
170
     0
171
     0
290
     0
174
     0
 93
        1
 44
50.0
173
     0
291
     1
 45
0.0
1001
ACAD
1000
AcDbSavedByObjectVersion
1070
     0
  0
VISUALSTYLE
  5
3A
102
{ACAD_REACTORS
330
2A
102
}
102
{ACAD_XDICTIONARY
360
26E
102
}
330
2A
100
AcDbVisualStyle
  2
ColorChange
 70
    16
 71
     2
 72
     2
 73
     3
 90
        0
 40
0.6
 41
30.0
 62
     5
 63
     8
421
  8421504
 74
     1
 91
        4
 64
     7
 65
   257
 75
     1
175
     1
 42
1.0
 92
        8
 66
     8
424
  8421504
 43
1.0
 76
     1
 77
     6
 78
     2
 67
     7
 79
     5
170
     0
171
     0
290
     0
174
     0
 93
        1
 44
0.0
173
     0
291
     1
 45
0.0
1001
ACAD
1000
AcDbSavedByObjectVersion
1070
     0
  0
VISUALSTYLE
  5
34
102
{ACAD_REACTORS
330
2A
102
}
102
{ACAD_XDICTIONARY
360
262
102
}
330
2A
100
AcDbVisualStyle
  2
Conceptual
 70
     9
 71
     3
 72
     2
 73
     0
 90
        0
 40
0.6
 41
30.0
 62
     5
 63
     7
421
 16777215
 74
     2
 91
        2
 64
     7
 65
   257
 75
     1
175
     1
 42
179.0
 92
        8
 66
     7
 43
1.0
 76
     1
 77
     6
 78
     2
 67
     7
 79
     3
170
     0
171
     0
290
     0
174
     0
 93
        1
 44
0.0
173
     0
291
     0
 45
0.0
1001
ACAD
1000
AcDbSavedByObjectVersion
1070
     0
  0
VISUALSTYLE
  5
35
102
{ACAD_REACTORS
330
2A
102
}
102
{ACAD_XDICTIONARY
360
264
102
}
330
2A
100
AcDbVisualStyle
  2
Dim
 70
    11
 71
     2
 72
     2
 73
     0
 90
        0
 40
0.6
 41
30.0
 62
     5
 63
     7
421
 16777215
 74
     1
 91
        4
 64
     7
 65
   257
 75
     1
175
     1
 42
1.0
 92
        8
 66
     7
 43
1.0
 76
     1
 77
     6
 78
     2
 67
     7
 79
     5
170
     0
171
     0
290
     0
174
     0
 93
        1
 44
-50.0
173
     0
291
     1
 45
0.0
1001
ACAD
1000
AcDbSavedByObjectVersion
1070
     0
  0
VISUALSTYLE
  5
3D
102
{ACAD_REACTORS
330
2A
102
}
102
{ACAD_XDICTIONARY
360
274
102
}
330
2A
100
AcDbVisualStyle
  2
EdgeColorOff
 70
    22
 71
     2
 72
     2
 73
     0
 90
        0
 40
0.6
 41
30.0
 62
     5
 63
     7
421
 16777215
 74
     1
 91
        4
 64
     7
 65
   257
 75
     1
175
     1
 42
1.0
 92
        8
 66
     7
 43
1.0
 76
     1
 77
     6
 78
     2
 67
     7
 79
     5
170
     0
171
     0
290
     0
174
     0
 93
        1
 44
0.0
173
     0
291
     1
 45
0.0
1001
ACAD
1000
AcDbSavedByObjectVersion
1070
     0
  0
VISUALSTYLE
  5
39
102
{ACAD_REACTORS
330
2A
102
}
102
{ACAD_XDICTIONARY
360
26C
102
}
330
2A
100
AcDbVisualStyle
  2
Facepattern
 70
    15
 71
     2
 72
     2
 73
     0
 90
        0
 40
0.6
 41
30.0
 62
     5
 63
     7
421
 16777215
 74
     1
 91
        4
 64
     7
 65
   257
 75
     1
175
     1
 42
1.0
 92
        8
 66
     7
 43
1.0
 76
     1
 77
     6
 78
     2
 67
     7
 79
     5
170
     0
171
     0
290
     0
174
     0
 93
        1
 44
0.0
173
     0
291
     1
 45
0.0
1001
ACAD
1000
AcDbSavedByObjectVersion
1070
     0
  0
VISUALSTYLE
  5
2B
102
{ACAD_REACTORS
330
2A
102
}
102
{ACAD_XDICTIONARY
360
250
102
}
330
2A
100
AcDbVisualStyle
  2
Flat
 70
     0
 71
     2
 72
     1
 73
     1
 90
        2
 40
0.6
 41
30.0
 62
     5
 63
     7
421
 16777215
 74
     0
 91
        0
 64
     7
 65
   257
 75
     1
175
     1
 42
1.0
 92
        8
 66
     7
 43
1.0
 76
     1
 77
     6
 78
     2
 67
     7
 79
     5
170
     0
171
     0
290
     0
174
     0
 93
       13
 44
0.0
173
     0
291
     1
 45
0.0
1001
ACAD
1000
AcDbSavedByObjectVersion
1070
     0
  0
VISUALSTYLE
  5
2C
102
{ACAD_REACTORS
330
2A
102
}
102
{ACAD_XDICTIONARY
360
252
102
}
330
2A
100
AcDbVisualStyle
  2
FlatWithEdges
 70
     1
 71
     2
 72
     1
 73
     1
 90
        2
 40
0.6
 41
30.0
 62
     5
 63
     7
421
 16777215
 74
     1
 91
        0
 64
     7
 65
   257
 75
     1
175
     1
 42
1.0
 92
        0
 66
   257
 43
1.0
 76
     1
 77
     6
 78
     2
 67
     7
 79
     5
170
     0
171
     0
290
     0
174
     0
 93
       13
 44
0.0
173
     0
291
     1
 45
0.0
1001
ACAD
1000
AcDbSavedByObjectVersion
1070
     0
  0
VISUALSTYLE
  5
2D
102
{ACAD_REACTORS
330
2A
102
}
102
{ACAD_XDICTIONARY
360
254
102
}
330
2A
100
AcDbVisualStyle
  2
Gouraud
 70
     2
 71
     2
 72
     2
 73
     1
 90
        2
 40
0.6
 41
30.0
 62
     5
 63
     7
421
 16777215
 74
     0
 91
        0
 64
     7
 65
   257
 75
     1
175
     1
 42
1.0
 92
        0
 66
     7
 43
1.0
 76
     1
 77
     6
 78
     2
 67
     7
 79
     5
170
     0
171
     0
290
     0
174
     0
 93
       13
 44
0.0
173
     0
291
     1
 45
0.0
1001
ACAD
1000
AcDbSavedByObjectVersion
1070
     0
  0
VISUALSTYLE
  5
2E
102
{ACAD_REACTORS
330
2A
102
}
102
{ACAD_XDICTIONARY
360
256
102
}
330
2A
100
AcDbVisualStyle
  2
GouraudWithEdges
 70
     3
 71
     2
 72
     2
 73
     1
 90
        2
 40
0.6
 41
30.0
 62
     5
 63
     7
421
 16777215
 74
     1
 91
        0
 64
     7
 65
   257
 75
     1
175
     1
 42
1.0
 92
        0
 66
   257
 43
1.0
 76
     1
 77
     6
 78
     2
 67
     7
 79
     5
170
     0
171
     0
290
     0
174
     0
 93
       13
 44
0.0
173
     0
291
     1
 45
0.0
1001
ACAD
1000
AcDbSavedByObjectVersion
1070
     0
  0
VISUALSTYLE
  5
31
102
{ACAD_REACTORS
330
2A
102
}
102
{ACAD_XDICTIONARY
360
25C
102
}
330
2A
100
AcDbVisualStyle
  2
Hidden
 70
     6
 71
     1
 72
     2
 73
     2
 90
        0
 40
0.6
 41
30.0
 62
     5
 63
     7
421
 16777215
 74
     2
 91
        2
 64
     7
 65
   257
 75
     2
175
     1
 42
40.0
 92
        0
 66
   257
 43
1.0
 76
     1
 77
     6
 78
     2
 67
     7
 79
     3
170
     0
171
     0
290
     0
174
     0
 93
        1
 44
0.0
173
     0
291
     0
 45
0.0
1001
ACAD
1000
AcDbSavedByObjectVersion
1070
     0
  0
VISUALSTYLE
  5
3B
102
{ACAD_REACTORS
330
2A
102
}
102
{ACAD_XDICTIONARY
360
270
102
}
330
2A
100
AcDbVisualStyle
  2
JitterOff
 70
    20
 71
     2
 72
     2
 73
     0
 90
        0
 40
0.6
 41
30.0
 62
     5
 63
     7
421
 16777215
 74
     1
 91
        4
 64
     7
 65
   257
 75
     1
175
     1
 42
1.0
 92
       10
 66
     7
 43
1.0
 76
     1
 77
     6
 78
     2
 67
     7
 79
     5
170
     0
171
     0
290
     0
174
     0
 93
        1
 44
0.0
173
     0
291
     1
 45
0.0
1001
ACAD
1000
AcDbSavedByObjectVersion
1070
     0
  0
VISUALSTYLE
  5
38
102
{ACAD_REACTORS
330
2A
102
}
102
{ACAD_XDICTIONARY
360
26A
102
}
330
2A
100
AcDbVisualStyle
  2
Linepattern
 70
    14
 71
     2
 72
     2
 73
     0
 90
        0
 40
0.6
 41
30.0
 62
     5
 63
     7
421
 16777215
 74
     1
 91
        4
 64
     7
 65
   257
 75
     7
175
     7
 42
1.0
 92
        8
 66
     7
 43
1.0
 76
     1
 77
     6
 78
     2
 67
     7
 79
     5
170
     0
171
     0
290
     0
174
     0
 93
        1
 44
0.0
173
     0
291
     1
 45
0.0
1001
ACAD
1000
AcDbSavedByObjectVersion
1070
     0
  0
VISUALSTYLE
  5
3C
102
{ACAD_REACTORS
330
2A
102
}
102
{ACAD_XDICTIONARY
360
272
102
}
330
2A
100
AcDbVisualStyle
  2
OverhangOff
 70
    21
 71
     2
 72
     2
 73
     0
 90
        0
 40
0.6
 41
30.0
 62
     5
 63
     7
421
 16777215
 74
     1
 91
        4
 64
     7
 65
   257
 75
     1
175
     1
 42
1.0
 92
        9
 66
     7
 43
1.0
 76
     1
 77
     6
 78
     2
 67
     7
 79
     5
170
     0
171
     0
290
     0
174
     0
 93
        1
 44
0.0
173
     0
291
     1
 45
0.0
1001
ACAD
1000
AcDbSavedByObjectVersion
1070
     0
  0
VISUALSTYLE
  5
33
102
{ACAD_REACTORS
330
2A
102
}
102
{ACAD_XDICTIONARY
360
260
102
}
330
2A
100
AcDbVisualStyle
  2
Realistic
 70
     8
 71
     2
 72
     3
 73
     0
 90
        2
 40
0.6
 41
30.0
 62
     5
 63
     7
421
 16777215
 74
     0
 91
        0
 64
     7
 65
   257
 75
     1
175
     1
 42
1.0
 92
        8
 66
   257
 43
1.0
 76
     1
 77
     6
 78
     2
 67
     7
 79
     3
170
     0
171
     0
290
     0
174
     0
 93
       13
 44
0.0
173
     0
291
     0
 45
0.0
1001
ACAD
1000
AcDbSavedByObjectVersion
1070
     0
  0
VISUALSTYLE
  5
42
102
{ACAD_REACTORS
330
2A
102
}
102
{ACAD_XDICTIONARY
360
27E
102
}
330
2A
100
AcDbVisualStyle
  2
Shaded
 70
    27
 71
     2
 72
     2
 73
     1
 90
        2
 40
0.6
 41
30.0
 62
     5
 63
     7
421
 16777215
 74
     0
 91
        4
 64
     7
 65
   257
 75
     1
175
     1
 42
1.0
 92
        8
 66
   257
 43
1.0
 76
     1
 77
     6
 78
     2
 67
     8
425
  7895160
 79
     3
170
     0
171
     0
290
     0
174
     0
 93
        5
 44
0.0
173
     0
291
     0
 45
0.0
1001
ACAD
1000
AcDbSavedByObjectVersion
1070
     0
  0
VISUALSTYLE
  5
41
102
{ACAD_REACTORS
330
2A
102
}
102
{ACAD_XDICTIONARY
360
27C
102
}
330
2A
100
AcDbVisualStyle
  2
Shaded with edges
 70
    26
 71
     2
 72
     2
 73
     1
 90
        2
 40
0.6
 41
30.0
 62
     5
 63
     7
421
 16777215
 74
     1
 91
       10
 64
     7
 65
   257
 75
     2
175
     1
 42
1.0
 92
        8
 66
   257
 43
1.0
 76
     1
 77
     6
 78
     2
 67
     7
 79
     3
170
     0
171
     0
290
     0
174
     0
 93
        5
 44
0.0
173
     0
291
     0
 45
0.0
1001
ACAD
1000
AcDbSavedByObjectVersion
1070
     0
  0
VISUALSTYLE
  5
3E
102
{ACAD_REACTORS
330
2A
102
}
102
{ACAD_XDICTIONARY
360
276
102
}
330
2A
100
AcDbVisualStyle
  2
Shades of Gray
 70
    23
 71
     2
 72
     2
 73
     3
 90
        0
 40
0.6
 41
30.0
 62
     5
 63
     7
421
 16777215
 74
     2
 91
        2
 64
     7
 65
     7
 75
     1
175
     1
 42
40.0
 92
        8
 66
     7
 43
1.0
 76
     1
 77
     6
 78
     2
 67
     7
 79
     3
170
     0
171
     0
290
     0
174
     0
 93
        1
 44
0.0
173
     0
291
     0
 45
0.0
1001
ACAD
1000
AcDbSavedByObjectVersion
1070
     0
  0
VISUALSTYLE
  5
3F
102
{ACAD_REACTORS
330
2A
102
}
102
{ACAD_XDICTIONARY
360
278
102
}
330
2A
100
AcDbVisualStyle
  2
Sketchy
 70
    24
 71
     1
 72
     2
 73
     2
 90
        0
 40
0.6
 41
30.0
 62
     5
 63
     7
421
 16777215
 74
     2
 91
        2
 64
     7
 65
     7
 75
     1
175
     1
 42
40.0
 92
       11
 66
     7
 43
1.0
 76
     1
 77
     6
 78
     2
 67
     7
 79
     6
170
     0
171
     0
290
     0
174
     0
 93
        1
 44
0.0
173
     0
291
     0
 45
0.0
1001
ACAD
1000
AcDbSavedByObjectVersion
1070
     0
  0
VISUALSTYLE
  5
37
102
{ACAD_REACTORS
330
2A
102
}
102
{ACAD_XDICTIONARY
360
268
102
}
330
2A
100
AcDbVisualStyle
  2
Thicken
 70
    13
 71
     2
 72
     2
 73
     0
 90
        0
 40
0.6
 41
30.0
 62
     5
 63
     7
421
 16777215
 74
     1
 91
        4
 64
     7
 65
   257
 75
     1
175
     1
 42
1.0
 92
       12
 66
     7
 43
1.0
 76
     1
 77
     6
 78
     2
 67
     7
 79
     5
170
     0
171
     0
290
     0
174
     0
 93
        1
 44
0.0
173
     0
291
     1
 45
0.0
1001
ACAD
1000
AcDbSavedByObjectVersion
1070
     0
  0
VISUALSTYLE
  5
30
102
{ACAD_REACTORS
330
2A
102
}
102
{ACAD_XDICTIONARY
360
25A
102
}
330
2A
100
AcDbVisualStyle
  2
Wireframe
 70
     5
 71
     0
 72
     2
 73
     0
 90
        0
 40
0.6
 41
30.0
 62
     5
 63
     7
421
 16777215
 74
     1
 91
        4
 64
     7
 65
   257
 75
     1
175
     1
 42
1.0
 92
        0
 66
   257
 43
1.0
 76
     1
 77
     6
 78
     2
 67
     7
 79
     3
170
     0
171
     0
290
     0
174
     0
 93
        1
 44
0.0
173
     0
291
     0
 45
0.0
1001
ACAD
1000
AcDbSavedByObjectVersion
1070
     0
  0
VISUALSTYLE
  5
40
102
{ACAD_REACTORS
330
2A
102
}
102
{ACAD_XDICTIONARY
360
27A
102
}
330
2A
100
AcDbVisualStyle
  2
X-Ray
 70
    25
 71
     2
 72
     2
 73
     1
 90
        1
 40
0.5
 41
30.0
 62
     5
 63
     7
421
 16777215
 74
     1
 91
        0
 64
     7
 65
   257
 75
     1
175
     1
 42
1.0
 92
        8
 66
     7
 43
1.0
 76
     1
 77
     6
 78
     2
 67
     7
 79
     3
170
     0
171
     0
290
     0
174
     0
 93
       13
 44
0.0
173
     0
291
     0
 45
0.0
1001
ACAD
1000
AcDbSavedByObjectVersion
1070
     0
  0
DICTIONARYVAR
  5
24D
102
{ACAD_REACTORS
330
24C
102
}
330
24C
100
DictionaryVariables
280
     0
  1
1:1
  0
DICTIONARYVAR
  5
291
102
{ACAD_REACTORS
330
24C
102
}
330
24C
100
DictionaryVariables
280
     0
  1
3.500000
  0
DICTIONARYVAR
  5
292
102
{ACAD_REACTORS
330
24C
102
}
330
24C
100
DictionaryVariables
280
     0
  1
acadiso.lin
  0
DICTIONARYVAR
  5
28E
102
{ACAD_REACTORS
330
24C
102
}
330
24C
100
DictionaryVariables
280
     0
  1
Standard
  0
DICTIONARYVAR
  5
28D
102
{ACAD_REACTORS
330
24C
102
}
330
24C
100
DictionaryVariables
280
     0
  1
Standard
  0
DICTIONARYVAR
  5
24E
102
{ACAD_REACTORS
330
24C
102
}
330
24C
100
DictionaryVariables
280
     0
  1
1
  0
DICTIONARYVAR
  5
24F
102
{ACAD_REACTORS
330
24C
102
}
330
24C
100
DictionaryVariables
280
     0
  1
2
  0
DICTIONARY
  5
282
330
45
100
AcDbDictionary
280
     1
281
     1
  3
ACAD_XREC_ROUNDTRIP
360
283
  0
DICTIONARY
  5
280
330
44
100
AcDbDictionary
280
     1
281
     1
  3
ACAD_XREC_ROUNDTRIP
360
281
  0
DICTIONARY
  5
284
330
46
100
AcDbDictionary
280
     1
281
     1
  3
ACAD_XREC_ROUNDTRIP
360
285
  0
DICTIONARY
  5
28A
330
6C
100
AcDbDictionary
280
     1
281
     1
  3
ACAD_XREC_ROUNDTRIP
360
28B
  0
DICTIONARY
  5
286
330
6A
100
AcDbDictionary
280
     1
281
     1
  3
ACAD_ROUNDTRIP_2008_TABLESTYLE_CELLSTYLEMAP
360
288
  3
ACAD_XREC_ROUNDTRIP
360
287
  0
DICTIONARY
  5
258
330
2F
100
AcDbDictionary
280
     1
281
     1
  3
ACAD_XREC_ROUNDTRIP
360
259
  0
DICTIONARY
  5
25E
330
32
100
AcDbDictionary
280
     1
281
     1
  3
ACAD_XREC_ROUNDTRIP
360
25F
  0
DICTIONARY
  5
266
330
36
100
AcDbDictionary
280
     1
281
     1
  3
ACAD_XREC_ROUNDTRIP
360
267
  0
DICTIONARY
  5
26E
330
3A
100
AcDbDictionary
280
     1
281
     1
  3
ACAD_XREC_ROUNDTRIP
360
26F
  0
DICTIONARY
  5
262
330
34
100
AcDbDictionary
280
     1
281
     1
  3
ACAD_XREC_ROUNDTRIP
360
263
  0
DICTIONARY
  5
264
330
35
100
AcDbDictionary
280
     1
281
     1
  3
ACAD_XREC_ROUNDTRIP
360
265
  0
DICTIONARY
  5
274
330
3D
100
AcDbDictionary
280
     1
281
     1
  3
ACAD_XREC_ROUNDTRIP
360
275
  0
DICTIONARY
  5
26C
330
39
100
AcDbDictionary
280
     1
281
     1
  3
ACAD_XREC_ROUNDTRIP
360
26D
  0
DICTIONARY
  5
250
330
2B
100
AcDbDictionary
280
     1
281
     1
  3
ACAD_XREC_ROUNDTRIP
360
251
  0
DICTIONARY
  5
252
330
2C
100
AcDbDictionary
280
     1
281
     1
  3
ACAD_XREC_ROUNDTRIP
360
253
  0
DICTIONARY
  5
254
330
2D
100
AcDbDictionary
280
     1
281
     1
  3
ACAD_XREC_ROUNDTRIP
360
255
  0
DICTIONARY
  5
256
330
2E
100
AcDbDictionary
280
     1
281
     1
  3
ACAD_XREC_ROUNDTRIP
360
257
  0
DICTIONARY
  5
25C
330
31
100
AcDbDictionary
280
     1
281
     1
  3
ACAD_XREC_ROUNDTRIP
360
25D
  0
DICTIONARY
  5
270
330
3B
100
AcDbDictionary
280
     1
281
     1
  3
ACAD_XREC_ROUNDTRIP
360
271
  0
DICTIONARY
  5
26A
330
38
100
AcDbDictionary
280
     1
281
     1
  3
ACAD_XREC_ROUNDTRIP
360
26B
  0
DICTIONARY
  5
272
330
3C
100
AcDbDictionary
280
     1
281
     1
  3
ACAD_XREC_ROUNDTRIP
360
273
  0
DICTIONARY
  5
260
330
33
100
AcDbDictionary
280
     1
281
     1
  3
ACAD_XREC_ROUNDTRIP
360
261
  0
DICTIONARY
  5
27E
330
42
100
AcDbDictionary
280
     1
281
     1
  3
ACAD_XREC_ROUNDTRIP
360
27F
  0
DICTIONARY
  5
27C
330
41
100
AcDbDictionary
280
     1
281
     1
  3
ACAD_XREC_ROUNDTRIP
360
27D
  0
DICTIONARY
  5
276
330
3E
100
AcDbDictionary
280
     1
281
     1
  3
ACAD_XREC_ROUNDTRIP
360
277
  0
DICTIONARY
  5
278
330
3F
100
AcDbDictionary
280
     1
281
     1
  3
ACAD_XREC_ROUNDTRIP
360
279
  0
DICTIONARY
  5
268
330
37
100
AcDbDictionary
280
     1
281
     1
  3
ACAD_XREC_ROUNDTRIP
360
269
  0
DICTIONARY
  5
25A
330
30
100
AcDbDictionary
280
     1
281
     1
  3
ACAD_XREC_ROUNDTRIP
360
25B
  0
DICTIONARY
  5
27A
330
40
100
AcDbDictionary
280
     1
281
     1
  3
ACAD_XREC_ROUNDTRIP
360
27B
  0
XRECORD
  5
283
102
{ACAD_REACTORS
330
282
102
}
330
282
100
AcDbXrecord
280
     1
102
MATERIAL
148
0.0
149
0.0
149
0.0
 93
        0
 94
      127
282
     0
 72
     1
 77
     1
171
     1
175
     1
179
     1
273
     0
  0
XRECORD
  5
281
102
{ACAD_REACTORS
330
280
102
}
330
280
100
AcDbXrecord
280
     1
102
MATERIAL
148
0.0
149
0.0
149
0.0
 93
        0
 94
      127
282
     0
 72
     1
 77
     1
171
     1
175
     1
179
     1
273
     0
  0
XRECORD
  5
285
102
{ACAD_REACTORS
330
284
102
}
330
284
100
AcDbXrecord
280
     1
102
MATERIAL
148
0.0
149
0.0
149
0.0
 93
        0
 94
      127
282
     0
 72
     1
 77
     1
171
     1
175
     1
179
     1
273
     0
  0
XRECORD
  5
28B
102
{ACAD_REACTORS
330
28A
102
}
330
28A
100
AcDbXrecord
280
     1
102
ACAD_ROUNDTRIP_2010_MLEADER_STYLE
  0
CELLSTYLEMAP
  5
288
102
{ACAD_REACTORS
330
286
102
}
330
286
100
AcDbCellStyleMap
 90
        3
300
CELLSTYLE
  1
TABLEFORMAT_BEGIN
 90
        5
170
     1
 91
        0
 92
    32768
 62
   257
 93
        1
300
CONTENTFORMAT
  1
CONTENTFORMAT_BEGIN
 90
        0
 91
        0
 92
        4
 93
        0
300

 40
0.0
140
1.0
 94
        5
 62
     0
340
11
144
6.0
309
CONTENTFORMAT_END
171
     1
301
MARGIN
  1
CELLMARGIN_BEGIN
 40
1.5
 40
1.5
 40
1.5
 40
1.5
 40
1.5
 40
1.5
309
CELLMARGIN_END
 94
        6
 95
        1
302
GRIDFORMAT
  1
GRIDFORMAT_BEGIN
 90
        0
 91
        1
 62
     0
 92
       -2
340
14
 93
        0
 40
0.045
309
GRIDFORMAT_END
 95
        2
302
GRIDFORMAT
  1
GRIDFORMAT_BEGIN
 90
        0
 91
        1
 62
     0
 92
       -2
340
14
 93
        0
 40
0.045
309
GRIDFORMAT_END
 95
        4
302
GRIDFORMAT
  1
GRIDFORMAT_BEGIN
 90
        0
 91
        1
 62
     0
 92
       -2
340
14
 93
        0
 40
0.045
309
GRIDFORMAT_END
 95
        8
302
GRIDFORMAT
  1
GRIDFORMAT_BEGIN
 90
        0
 91
        1
 62
     0
 92
       -2
340
14
 93
        0
 40
0.045
309
GRIDFORMAT_END
 95
       16
302
GRIDFORMAT
  1
GRIDFORMAT_BEGIN
 90
        0
 91
        1
 62
     0
 92
       -2
340
14
 93
        0
 40
0.045
309
GRIDFORMAT_END
 95
       32
302
GRIDFORMAT
  1
GRIDFORMAT_BEGIN
 90
        0
 91
        1
 62
     0
 92
       -2
340
14
 93
        0
 40
0.045
309
GRIDFORMAT_END
309
TABLEFORMAT_END
  1
CELLSTYLE_BEGIN
 90
        1
 91
        1
300
_TITLE
309
CELLSTYLE_END
300
CELLSTYLE
  1
TABLEFORMAT_BEGIN
 90
        5
170
     1
 91
        0
 92
        0
 62
   257
 93
        1
300
CONTENTFORMAT
  1
CONTENTFORMAT_BEGIN
 90
        0
 91
        0
 92
        4
 93
        0
300

 40
0.0
140
1.0
 94
        5
 62
     0
340
11
144
4.5
309
CONTENTFORMAT_END
171
     1
301
MARGIN
  1
CELLMARGIN_BEGIN
 40
1.5
 40
1.5
 40
1.5
 40
1.5
 40
1.5
 40
1.5
309
CELLMARGIN_END
 94
        6
 95
        1
302
GRIDFORMAT
  1
GRIDFORMAT_BEGIN
 90
        0
 91
        1
 62
     0
 92
       -2
340
14
 93
        0
 40
0.045
309
GRIDFORMAT_END
 95
        2
302
GRIDFORMAT
  1
GRIDFORMAT_BEGIN
 90
        0
 91
        1
 62
     0
 92
       -2
340
14
 93
        0
 40
0.045
309
GRIDFORMAT_END
 95
        4
302
GRIDFORMAT
  1
GRIDFORMAT_BEGIN
 90
        0
 91
        1
 62
     0
 92
       -2
340
14
 93
        0
 40
0.045
309
GRIDFORMAT_END
 95
        8
302
GRIDFORMAT
  1
GRIDFORMAT_BEGIN
 90
        0
 91
        1
 62
     0
 92
       -2
340
14
 93
        0
 40
0.045
309
GRIDFORMAT_END
 95
       16
302
GRIDFORMAT
  1
GRIDFORMAT_BEGIN
 90
        0
 91
        1
 62
     0
 92
       -2
340
14
 93
        0
 40
0.045
309
GRIDFORMAT_END
 95
       32
302
GRIDFORMAT
  1
GRIDFORMAT_BEGIN
 90
        0
 91
        1
 62
     0
 92
       -2
340
14
 93
        0
 40
0.045
309
GRIDFORMAT_END
309
TABLEFORMAT_END
  1
CELLSTYLE_BEGIN
 90
        2
 91
        1
300
_HEADER
309
CELLSTYLE_END
300
CELLSTYLE
  1
TABLEFORMAT_BEGIN
 90
        5
170
     1
 91
        0
 92
        0
 62
   257
 93
        1
300
CONTENTFORMAT
  1
CONTENTFORMAT_BEGIN
 90
        0
 91
        0
 92
        4
 93
        0
300

 40
0.0
140
1.0
 94
        2
 62
     0
340
11
144
4.5
309
CONTENTFORMAT_END
171
     1
301
MARGIN
  1
CELLMARGIN_BEGIN
 40
1.5
 40
1.5
 40
1.5
 40
1.5
 40
1.5
 40
1.5
309
CELLMARGIN_END
 94
        6
 95
        1
302
GRIDFORMAT
  1
GRIDFORMAT_BEGIN
 90
        0
 91
        1
 62
     0
 92
       -2
340
14
 93
        0
 40
0.045
309
GRIDFORMAT_END
 95
        2
302
GRIDFORMAT
  1
GRIDFORMAT_BEGIN
 90
        0
 91
        1
 62
     0
 92
       -2
340
14
 93
        0
 40
0.045
309
GRIDFORMAT_END
 95
        4
302
GRIDFORMAT
  1
GRIDFORMAT_BEGIN
 90
        0
 91
        1
 62
     0
 92
       -2
340
14
 93
        0
 40
0.045
309
GRIDFORMAT_END
 95
        8
302
GRIDFORMAT
  1
GRIDFORMAT_BEGIN
 90
        0
 91
        1
 62
     0
 92
       -2
340
14
 93
        0
 40
0.045
309
GRIDFORMAT_END
 95
       16
302
GRIDFORMAT
  1
GRIDFORMAT_BEGIN
 90
        0
 91
        1
 62
     0
 92
       -2
340
14
 93
        0
 40
0.045
309
GRIDFORMAT_END
 95
       32
302
GRIDFORMAT
  1
GRIDFORMAT_BEGIN
 90
        0
 91
        1
 62
     0
 92
       -2
340
14
 93
        0
 40
0.045
309
GRIDFORMAT_END
309
TABLEFORMAT_END
  1
CELLSTYLE_BEGIN
 90
        3
 91
        2
300
_DATA
309
CELLSTYLE_END
  0
XRECORD
  5
287
102
{ACAD_REACTORS
330
286
102
}
330
286
100
AcDbXrecord
280
     1
102
ACAD_ROUNDTRIP_PRE2007_TABLESTYLE
 90
        4
 91
        0
  1

 92
        4
 93
        0
  2

 94
        4
 95
        0
  3

  0
XRECORD
  5
259
102
{ACAD_REACTORS
330
258
102
}
330
258
100
AcDbXrecord
280
     1
102
RTVSPropertyOp0
 70
     1
102
RTVSPropertyOp1
 70
     1
102
RTVSPropertyOp2
 70
     1
102
RTVSPropertyOp3
 70
     1
102
RTVSPropertyOp4
 70
     1
102
RTVSPropertyOp5
 70
     1
102
RTVSPropertyOp6
 70
     1
102
RTVSPropertyOp7
 70
     1
102
RTVSPropertyOp8
 70
     1
102
RTVSPropertyOp9
 70
     1
102
RTVSPropertyOp10
 70
     1
102
RTVSPropertyOp11
 70
     1
102
RTVSPropertyOp12
 70
     1
102
RTVSPropertyOp13
 70
     1
102
RTVSPropertyOp14
 70
     1
102
RTVSPropertyOp15
 70
     1
102
RTVSPropertyOp16
 70
     1
102
RTVSPropertyOp17
 70
     1
102
RTVSPropertyOp18
 70
     1
102
RTVSPropertyOp19
 70
     1
102
RTVSPropertyOp20
 70
     1
102
RTVSPropertyOp21
 70
     1
102
RTVSPropertyOp22
 70
     1
102
RTVSPropertyOp23
 70
     1
102
RTVSPropertyOp24
 70
     1
102
RTVSPropertyOp25
 70
     1
102
RTVSPropertyOp26
 70
     1
102
RTVSPropertyOp27
 70
     1
102
RTVSPropertyOp28
 70
     1
102
RTVSPropertyOp29
 70
     1
102
RTVSPropertyOp30
 70
     1
102
RTVSPropertyOp31
 70
     1
102
RTVSPropertyOp32
 70
     1
102
RTVSPropertyOp33
 70
     1
102
RTVSPropertyOp34
 70
     1
102
RTVSPropertyOp35
 70
     1
102
RTVSPropertyOp36
 70
     1
102
RTVSPropertyOp37
 70
     1
102
RTVSPropertyOp38
 70
     1
102
RTVSPropertyOp39
 70
     1
102
RTVSPropertyOp40
 70
     1
102
RTVSPropertyOp41
 70
     1
102
RTVSPropertyOp42
 70
     1
102
RTVSPropertyOp43
 70
     1
102
RTVSPropertyOp44
 70
     1
102
RTVSPropertyOp45
 70
     1
102
RTVSPropertyOp46
 70
     1
102
RTVSPropertyOp47
 70
     1
102
RTVSPropertyOp48
 70
     1
102
RTVSPropertyOp49
 70
     1
102
RTVSPropertyOp50
 70
     1
102
RTVSPropertyOp51
 70
     0
102
RTVSPropertyOp52
 70
     0
102
RTVSPropertyOp53
 70
     1
102
RTVSPropertyOp54
 70
     1
102
RTVSPropertyOp55
 70
     1
102
RTVSPropertyOp56
 70
     1
102
RTVSPropertyOp57
 70
     1
102
RTVSPost2010Prop28
280
     1
102
RTVSPost2010PropOp28
 70
     1
102
RTVSPost2010Prop29
280
     1
102
RTVSPost2010PropOp29
 70
     1
102
RTVSPost2010Prop30
280
     0
102
RTVSPost2010PropOp30
 70
     1
102
RTVSPost2010Prop31
280
     0
102
RTVSPost2010PropOp31
 70
     1
102
RTVSPost2010Prop32
280
     0
102
RTVSPost2010PropOp32
 70
     1
102
RTVSPost2010Prop33
280
     0
102
RTVSPost2010PropOp33
 70
     1
102
RTVSPost2010Prop34
280
     0
102
RTVSPost2010PropOp34
 70
     1
102
RTVSPost2010Prop35
280
     0
102
RTVSPost2010PropOp35
 70
     1
102
RTVSPost2010Prop36
280
     0
102
RTVSPost2010PropOp36
 70
     1
102
RTVSPost2010Prop37
 90
       50
102
RTVSPost2010PropOp37
 70
     1
102
RTVSPost2010Prop38
140
0.0
102
RTVSPost2010PropOp38
 70
     1
102
RTVSPost2010Prop39
140
1.0
102
RTVSPost2010PropOp39
 70
     1
102
RTVSPost2010Prop40
 90
        0
102
RTVSPost2010PropOp40
 70
     1
102
RTVSPost2010Prop41ColorIndex
 90
       18
102
RTVSPost2010Prop41ColorRGB
 90
        0
102
RTVSPost2010PropOp41
 70
     1
102
RTVSPost2010Prop42
 90
       50
102
RTVSPost2010PropOp42
 70
     1
102
RTVSPost2010Prop43
 90
        3
102
RTVSPost2010PropOp43
 70
     1
102
RTVSPost2010Prop44ColorIndex
 90
        5
102
RTVSPost2010Prop44ColorRGB
 90
      255
102
RTVSPost2010PropOp44
 70
     1
102
RTVSPost2010Prop45
280
     0
102
RTVSPost2010PropOp45
 70
     1
102
RTVSPost2010Prop46
 90
       50
102
RTVSPost2010PropOp46
 70
     1
102
RTVSPost2010Prop47
 90
       50
102
RTVSPost2010PropOp47
 70
     1
102
RTVSPost2010Prop48
 90
       50
102
RTVSPost2010PropOp48
 70
     1
102
RTVSPost2010Prop49
280
     0
102
RTVSPost2010PropOp49
 70
     1
102
RTVSPost2010Prop50
 90
       50
102
RTVSPost2010PropOp50
 70
     1
102
RTVSPost2010Prop51ColorIndex
 90
      256
102
RTVSPost2010Prop51ColorRGB
 90
-16777216
102
RTVSPost2010PropOp51
 70
     0
102
RTVSPost2010Prop52
140
1.0
102
RTVSPost2010PropOp52
 70
     0
102
RTVSPost2010Prop53
 90
        2
102
RTVSPost2010PropOp53
 70
     1
102
RTVSPost2010Prop54
  1
strokes_ogs.tif
102
RTVSPost2010PropOp54
 70
     1
102
RTVSPost2010Prop55
280
     0
102
RTVSPost2010PropOp55
 70
     1
102
RTVSPost2010Prop56
140
1.0
102
RTVSPost2010PropOp56
 70
     1
102
RTVSPost2010Prop57
140
1.0
102
RTVSPost2010PropOp57
 70
     1
  0
XRECORD
  5
25F
102
{ACAD_REACTORS
330
25E
102
}
330
25E
100
AcDbXrecord
280
     1
102
RTVSPropertyOp0
 70
     1
102
RTVSPropertyOp1
 70
     1
102
RTVSPropertyOp2
 70
     1
102
RTVSPropertyOp3
 70
     1
102
RTVSPropertyOp4
 70
     1
102
RTVSPropertyOp5
 70
     1
102
RTVSPropertyOp6
 70
     1
102
RTVSPropertyOp7
 70
     1
102
RTVSPropertyOp8
 70
     1
102
RTVSPropertyOp9
 70
     1
102
RTVSPropertyOp10
 70
     1
102
RTVSPropertyOp11
 70
     1
102
RTVSPropertyOp12
 70
     1
102
RTVSPropertyOp13
 70
     1
102
RTVSPropertyOp14
 70
     1
102
RTVSPropertyOp15
 70
     1
102
RTVSPropertyOp16
 70
     1
102
RTVSPropertyOp17
 70
     1
102
RTVSPropertyOp18
 70
     1
102
RTVSPropertyOp19
 70
     1
102
RTVSPropertyOp20
 70
     1
102
RTVSPropertyOp21
 70
     1
102
RTVSPropertyOp22
 70
     1
102
RTVSPropertyOp23
 70
     1
102
RTVSPropertyOp24
 70
     1
102
RTVSPropertyOp25
 70
     1
102
RTVSPropertyOp26
 70
     1
102
RTVSPropertyOp27
 70
     1
102
RTVSPropertyOp28
 70
     1
102
RTVSPropertyOp29
 70
     1
102
RTVSPropertyOp30
 70
     1
102
RTVSPropertyOp31
 70
     1
102
RTVSPropertyOp32
 70
     1
102
RTVSPropertyOp33
 70
     1
102
RTVSPropertyOp34
 70
     1
102
RTVSPropertyOp35
 70
     1
102
RTVSPropertyOp36
 70
     1
102
RTVSPropertyOp37
 70
     1
102
RTVSPropertyOp38
 70
     1
102
RTVSPropertyOp39
 70
     1
102
RTVSPropertyOp40
 70
     1
102
RTVSPropertyOp41
 70
     1
102
RTVSPropertyOp42
 70
     1
102
RTVSPropertyOp43
 70
     1
102
RTVSPropertyOp44
 70
     1
102
RTVSPropertyOp45
 70
     1
102
RTVSPropertyOp46
 70
     1
102
RTVSPropertyOp47
 70
     1
102
RTVSPropertyOp48
 70
     1
102
RTVSPropertyOp49
 70
     1
102
RTVSPropertyOp50
 70
     1
102
RTVSPropertyOp51
 70
     0
102
RTVSPropertyOp52
 70
     0
102
RTVSPropertyOp53
 70
     1
102
RTVSPropertyOp54
 70
     1
102
RTVSPropertyOp55
 70
     1
102
RTVSPropertyOp56
 70
     1
102
RTVSPropertyOp57
 70
     1
102
RTVSPost2010Prop28
280
     0
102
RTVSPost2010PropOp28
 70
     1
102
RTVSPost2010Prop29
280
     1
102
RTVSPost2010PropOp29
 70
     1
102
RTVSPost2010Prop30
280
     1
102
RTVSPost2010PropOp30
 70
     1
102
RTVSPost2010Prop31
280
     0
102
RTVSPost2010PropOp31
 70
     1
102
RTVSPost2010Prop32
280
     0
102
RTVSPost2010PropOp32
 70
     1
102
RTVSPost2010Prop33
280
     0
102
RTVSPost2010PropOp33
 70
     1
102
RTVSPost2010Prop34
280
     0
102
RTVSPost2010PropOp34
 70
     1
102
RTVSPost2010Prop35
280
     0
102
RTVSPost2010PropOp35
 70
     1
102
RTVSPost2010Prop36
280
     0
102
RTVSPost2010PropOp36
 70
     1
102
RTVSPost2010Prop37
 90
       50
102
RTVSPost2010PropOp37
 70
     1
102
RTVSPost2010Prop38
140
0.0
102
RTVSPost2010PropOp38
 70
     1
102
RTVSPost2010Prop39
140
1.0
102
RTVSPost2010PropOp39
 70
     1
102
RTVSPost2010Prop40
 90
        0
102
RTVSPost2010PropOp40
 70
     1
102
RTVSPost2010Prop41ColorIndex
 90
       18
102
RTVSPost2010Prop41ColorRGB
 90
        0
102
RTVSPost2010PropOp41
 70
     1
102
RTVSPost2010Prop42
 90
       50
102
RTVSPost2010PropOp42
 70
     1
102
RTVSPost2010Prop43
 90
        3
102
RTVSPost2010PropOp43
 70
     1
102
RTVSPost2010Prop44ColorIndex
 90
        5
102
RTVSPost2010Prop44ColorRGB
 90
      255
102
RTVSPost2010PropOp44
 70
     1
102
RTVSPost2010Prop45
280
     0
102
RTVSPost2010PropOp45
 70
     1
102
RTVSPost2010Prop46
 90
       50
102
RTVSPost2010PropOp46
 70
     1
102
RTVSPost2010Prop47
 90
       50
102
RTVSPost2010PropOp47
 70
     1
102
RTVSPost2010Prop48
 90
       50
102
RTVSPost2010PropOp48
 70
     1
102
RTVSPost2010Prop49
280
     0
102
RTVSPost2010PropOp49
 70
     1
102
RTVSPost2010Prop50
 90
       50
102
RTVSPost2010PropOp50
 70
     1
102
RTVSPost2010Prop51ColorIndex
 90
      256
102
RTVSPost2010Prop51ColorRGB
 90
-16777216
102
RTVSPost2010PropOp51
 70
     0
102
RTVSPost2010Prop52
140
1.0
102
RTVSPost2010PropOp52
 70
     0
102
RTVSPost2010Prop53
 90
        2
102
RTVSPost2010PropOp53
 70
     1
102
RTVSPost2010Prop54
  1
strokes_ogs.tif
102
RTVSPost2010PropOp54
 70
     1
102
RTVSPost2010Prop55
280
     0
102
RTVSPost2010PropOp55
 70
     1
102
RTVSPost2010Prop56
140
1.0
102
RTVSPost2010PropOp56
 70
     1
102
RTVSPost2010Prop57
140
1.0
102
RTVSPost2010PropOp57
 70
     1
  0
XRECORD
  5
267
102
{ACAD_REACTORS
330
266
102
}
330
266
100
AcDbXrecord
280
     1
102
RTVSPropertyOp0
 70
     1
102
RTVSPropertyOp1
 70
     1
102
RTVSPropertyOp2
 70
     1
102
RTVSPropertyOp3
 70
     1
102
RTVSPropertyOp4
 70
     1
102
RTVSPropertyOp5
 70
     1
102
RTVSPropertyOp6
 70
     1
102
RTVSPropertyOp7
 70
     1
102
RTVSPropertyOp8
 70
     1
102
RTVSPropertyOp9
 70
     1
102
RTVSPropertyOp10
 70
     1
102
RTVSPropertyOp11
 70
     1
102
RTVSPropertyOp12
 70
     1
102
RTVSPropertyOp13
 70
     1
102
RTVSPropertyOp14
 70
     1
102
RTVSPropertyOp15
 70
     1
102
RTVSPropertyOp16
 70
     1
102
RTVSPropertyOp17
 70
     1
102
RTVSPropertyOp18
 70
     1
102
RTVSPropertyOp19
 70
     1
102
RTVSPropertyOp20
 70
     1
102
RTVSPropertyOp21
 70
     1
102
RTVSPropertyOp22
 70
     1
102
RTVSPropertyOp23
 70
     1
102
RTVSPropertyOp24
 70
     1
102
RTVSPropertyOp25
 70
     1
102
RTVSPropertyOp26
 70
     1
102
RTVSPropertyOp27
 70
     1
102
RTVSPropertyOp28
 70
     1
102
RTVSPropertyOp29
 70
     1
102
RTVSPropertyOp30
 70
     1
102
RTVSPropertyOp31
 70
     1
102
RTVSPropertyOp32
 70
     1
102
RTVSPropertyOp33
 70
     1
102
RTVSPropertyOp34
 70
     1
102
RTVSPropertyOp35
 70
     1
102
RTVSPropertyOp36
 70
     1
102
RTVSPropertyOp37
 70
     1
102
RTVSPropertyOp38
 70
     1
102
RTVSPropertyOp39
 70
     1
102
RTVSPropertyOp40
 70
     1
102
RTVSPropertyOp41
 70
     1
102
RTVSPropertyOp42
 70
     1
102
RTVSPropertyOp43
 70
     1
102
RTVSPropertyOp44
 70
     1
102
RTVSPropertyOp45
 70
     1
102
RTVSPropertyOp46
 70
     1
102
RTVSPropertyOp47
 70
     1
102
RTVSPropertyOp48
 70
     1
102
RTVSPropertyOp49
 70
     1
102
RTVSPropertyOp50
 70
     1
102
RTVSPropertyOp51
 70
     0
102
RTVSPropertyOp52
 70
     0
102
RTVSPropertyOp53
 70
     1
102
RTVSPropertyOp54
 70
     1
102
RTVSPropertyOp55
 70
     1
102
RTVSPropertyOp56
 70
     1
102
RTVSPropertyOp57
 70
     1
102
RTVSPost2010Prop28
280
     0
102
RTVSPost2010PropOp28
 70
     1
102
RTVSPost2010Prop29
280
     1
102
RTVSPost2010PropOp29
 70
     1
102
RTVSPost2010Prop30
280
     1
102
RTVSPost2010PropOp30
 70
     1
102
RTVSPost2010Prop31
280
     0
102
RTVSPost2010PropOp31
 70
     1
102
RTVSPost2010Prop32
280
     0
102
RTVSPost2010PropOp32
 70
     1
102
RTVSPost2010Prop33
280
     0
102
RTVSPost2010PropOp33
 70
     1
102
RTVSPost2010Prop34
280
     0
102
RTVSPost2010PropOp34
 70
     1
102
RTVSPost2010Prop35
280
     0
102
RTVSPost2010PropOp35
 70
     1
102
RTVSPost2010Prop36
280
     0
102
RTVSPost2010PropOp36
 70
     1
102
RTVSPost2010Prop37
 90
       50
102
RTVSPost2010PropOp37
 70
     1
102
RTVSPost2010Prop38
140
0.0
102
RTVSPost2010PropOp38
 70
     1
102
RTVSPost2010Prop39
140
1.0
102
RTVSPost2010PropOp39
 70
     1
102
RTVSPost2010Prop40
 90
        0
102
RTVSPost2010PropOp40
 70
     1
102
RTVSPost2010Prop41ColorIndex
 90
       18
102
RTVSPost2010Prop41ColorRGB
 90
        0
102
RTVSPost2010PropOp41
 70
     1
102
RTVSPost2010Prop42
 90
       50
102
RTVSPost2010PropOp42
 70
     1
102
RTVSPost2010Prop43
 90
        3
102
RTVSPost2010PropOp43
 70
     1
102
RTVSPost2010Prop44ColorIndex
 90
        5
102
RTVSPost2010Prop44ColorRGB
 90
      255
102
RTVSPost2010PropOp44
 70
     1
102
RTVSPost2010Prop45
280
     0
102
RTVSPost2010PropOp45
 70
     1
102
RTVSPost2010Prop46
 90
       50
102
RTVSPost2010PropOp46
 70
     1
102
RTVSPost2010Prop47
 90
       50
102
RTVSPost2010PropOp47
 70
     1
102
RTVSPost2010Prop48
 90
       50
102
RTVSPost2010PropOp48
 70
     1
102
RTVSPost2010Prop49
280
     0
102
RTVSPost2010PropOp49
 70
     1
102
RTVSPost2010Prop50
 90
       50
102
RTVSPost2010PropOp50
 70
     1
102
RTVSPost2010Prop51ColorIndex
 90
      256
102
RTVSPost2010Prop51ColorRGB
 90
-16777216
102
RTVSPost2010PropOp51
 70
     0
102
RTVSPost2010Prop52
140
1.0
102
RTVSPost2010PropOp52
 70
     0
102
RTVSPost2010Prop53
 90
        2
102
RTVSPost2010PropOp53
 70
     1
102
RTVSPost2010Prop54
  1
strokes_ogs.tif
102
RTVSPost2010PropOp54
 70
     1
102
RTVSPost2010Prop55
280
     0
102
RTVSPost2010PropOp55
 70
     1
102
RTVSPost2010Prop56
140
1.0
102
RTVSPost2010PropOp56
 70
     1
102
RTVSPost2010Prop57
140
1.0
102
RTVSPost2010PropOp57
 70
     1
  0
XRECORD
  5
26F
102
{ACAD_REACTORS
330
26E
102
}
330
26E
100
AcDbXrecord
280
     1
102
RTVSPropertyOp0
 70
     1
102
RTVSPropertyOp1
 70
     1
102
RTVSPropertyOp2
 70
     1
102
RTVSPropertyOp3
 70
     1
102
RTVSPropertyOp4
 70
     1
102
RTVSPropertyOp5
 70
     1
102
RTVSPropertyOp6
 70
     1
102
RTVSPropertyOp7
 70
     1
102
RTVSPropertyOp8
 70
     1
102
RTVSPropertyOp9
 70
     1
102
RTVSPropertyOp10
 70
     1
102
RTVSPropertyOp11
 70
     1
102
RTVSPropertyOp12
 70
     1
102
RTVSPropertyOp13
 70
     1
102
RTVSPropertyOp14
 70
     1
102
RTVSPropertyOp15
 70
     1
102
RTVSPropertyOp16
 70
     1
102
RTVSPropertyOp17
 70
     1
102
RTVSPropertyOp18
 70
     1
102
RTVSPropertyOp19
 70
     1
102
RTVSPropertyOp20
 70
     1
102
RTVSPropertyOp21
 70
     1
102
RTVSPropertyOp22
 70
     1
102
RTVSPropertyOp23
 70
     1
102
RTVSPropertyOp24
 70
     1
102
RTVSPropertyOp25
 70
     1
102
RTVSPropertyOp26
 70
     1
102
RTVSPropertyOp27
 70
     1
102
RTVSPropertyOp28
 70
     1
102
RTVSPropertyOp29
 70
     1
102
RTVSPropertyOp30
 70
     1
102
RTVSPropertyOp31
 70
     1
102
RTVSPropertyOp32
 70
     1
102
RTVSPropertyOp33
 70
     1
102
RTVSPropertyOp34
 70
     1
102
RTVSPropertyOp35
 70
     1
102
RTVSPropertyOp36
 70
     1
102
RTVSPropertyOp37
 70
     1
102
RTVSPropertyOp38
 70
     1
102
RTVSPropertyOp39
 70
     1
102
RTVSPropertyOp40
 70
     1
102
RTVSPropertyOp41
 70
     1
102
RTVSPropertyOp42
 70
     1
102
RTVSPropertyOp43
 70
     1
102
RTVSPropertyOp44
 70
     1
102
RTVSPropertyOp45
 70
     1
102
RTVSPropertyOp46
 70
     1
102
RTVSPropertyOp47
 70
     1
102
RTVSPropertyOp48
 70
     1
102
RTVSPropertyOp49
 70
     1
102
RTVSPropertyOp50
 70
     1
102
RTVSPropertyOp51
 70
     0
102
RTVSPropertyOp52
 70
     0
102
RTVSPropertyOp53
 70
     1
102
RTVSPropertyOp54
 70
     1
102
RTVSPropertyOp55
 70
     1
102
RTVSPropertyOp56
 70
     1
102
RTVSPropertyOp57
 70
     1
102
RTVSPost2010Prop28
280
     0
102
RTVSPost2010PropOp28
 70
     1
102
RTVSPost2010Prop29
280
     1
102
RTVSPost2010PropOp29
 70
     1
102
RTVSPost2010Prop30
280
     1
102
RTVSPost2010PropOp30
 70
     1
102
RTVSPost2010Prop31
280
     0
102
RTVSPost2010PropOp31
 70
     1
102
RTVSPost2010Prop32
280
     0
102
RTVSPost2010PropOp32
 70
     1
102
RTVSPost2010Prop33
280
     0
102
RTVSPost2010PropOp33
 70
     1
102
RTVSPost2010Prop34
280
     0
102
RTVSPost2010PropOp34
 70
     1
102
RTVSPost2010Prop35
280
     0
102
RTVSPost2010PropOp35
 70
     1
102
RTVSPost2010Prop36
280
     0
102
RTVSPost2010PropOp36
 70
     1
102
RTVSPost2010Prop37
 90
       50
102
RTVSPost2010PropOp37
 70
     1
102
RTVSPost2010Prop38
140
0.0
102
RTVSPost2010PropOp38
 70
     1
102
RTVSPost2010Prop39
140
1.0
102
RTVSPost2010PropOp39
 70
     1
102
RTVSPost2010Prop40
 90
        0
102
RTVSPost2010PropOp40
 70
     1
102
RTVSPost2010Prop41ColorIndex
 90
       18
102
RTVSPost2010Prop41ColorRGB
 90
        0
102
RTVSPost2010PropOp41
 70
     1
102
RTVSPost2010Prop42
 90
       50
102
RTVSPost2010PropOp42
 70
     1
102
RTVSPost2010Prop43
 90
        3
102
RTVSPost2010PropOp43
 70
     1
102
RTVSPost2010Prop44ColorIndex
 90
        5
102
RTVSPost2010Prop44ColorRGB
 90
      255
102
RTVSPost2010PropOp44
 70
     1
102
RTVSPost2010Prop45
280
     0
102
RTVSPost2010PropOp45
 70
     1
102
RTVSPost2010Prop46
 90
       50
102
RTVSPost2010PropOp46
 70
     1
102
RTVSPost2010Prop47
 90
       50
102
RTVSPost2010PropOp47
 70
     1
102
RTVSPost2010Prop48
 90
       50
102
RTVSPost2010PropOp48
 70
     1
102
RTVSPost2010Prop49
280
     0
102
RTVSPost2010PropOp49
 70
     1
102
RTVSPost2010Prop50
 90
       50
102
RTVSPost2010PropOp50
 70
     1
102
RTVSPost2010Prop51ColorIndex
 90
      256
102
RTVSPost2010Prop51ColorRGB
 90
-16777216
102
RTVSPost2010PropOp51
 70
     0
102
RTVSPost2010Prop52
140
1.0
102
RTVSPost2010PropOp52
 70
     0
102
RTVSPost2010Prop53
 90
        2
102
RTVSPost2010PropOp53
 70
     1
102
RTVSPost2010Prop54
  1
strokes_ogs.tif
102
RTVSPost2010PropOp54
 70
     1
102
RTVSPost2010Prop55
280
     0
102
RTVSPost2010PropOp55
 70
     1
102
RTVSPost2010Prop56
140
1.0
102
RTVSPost2010PropOp56
 70
     1
102
RTVSPost2010Prop57
140
1.0
102
RTVSPost2010PropOp57
 70
     1
  0
XRECORD
  5
263
102
{ACAD_REACTORS
330
262
102
}
330
262
100
AcDbXrecord
280
     1
102
RTVSPropertyOp0
 70
     1
102
RTVSPropertyOp1
 70
     1
102
RTVSPropertyOp2
 70
     1
102
RTVSPropertyOp3
 70
     1
102
RTVSPropertyOp4
 70
     1
102
RTVSPropertyOp5
 70
     1
102
RTVSPropertyOp6
 70
     1
102
RTVSPropertyOp7
 70
     1
102
RTVSPropertyOp8
 70
     1
102
RTVSPropertyOp9
 70
     1
102
RTVSPropertyOp10
 70
     1
102
RTVSPropertyOp11
 70
     1
102
RTVSPropertyOp12
 70
     1
102
RTVSPropertyOp13
 70
     1
102
RTVSPropertyOp14
 70
     1
102
RTVSPropertyOp15
 70
     1
102
RTVSPropertyOp16
 70
     1
102
RTVSPropertyOp17
 70
     1
102
RTVSPropertyOp18
 70
     1
102
RTVSPropertyOp19
 70
     1
102
RTVSPropertyOp20
 70
     1
102
RTVSPropertyOp21
 70
     1
102
RTVSPropertyOp22
 70
     1
102
RTVSPropertyOp23
 70
     1
102
RTVSPropertyOp24
 70
     1
102
RTVSPropertyOp25
 70
     1
102
RTVSPropertyOp26
 70
     1
102
RTVSPropertyOp27
 70
     1
102
RTVSPropertyOp28
 70
     1
102
RTVSPropertyOp29
 70
     1
102
RTVSPropertyOp30
 70
     1
102
RTVSPropertyOp31
 70
     1
102
RTVSPropertyOp32
 70
     1
102
RTVSPropertyOp33
 70
     1
102
RTVSPropertyOp34
 70
     1
102
RTVSPropertyOp35
 70
     1
102
RTVSPropertyOp36
 70
     1
102
RTVSPropertyOp37
 70
     1
102
RTVSPropertyOp38
 70
     1
102
RTVSPropertyOp39
 70
     1
102
RTVSPropertyOp40
 70
     1
102
RTVSPropertyOp41
 70
     1
102
RTVSPropertyOp42
 70
     1
102
RTVSPropertyOp43
 70
     1
102
RTVSPropertyOp44
 70
     1
102
RTVSPropertyOp45
 70
     1
102
RTVSPropertyOp46
 70
     1
102
RTVSPropertyOp47
 70
     1
102
RTVSPropertyOp48
 70
     1
102
RTVSPropertyOp49
 70
     1
102
RTVSPropertyOp50
 70
     1
102
RTVSPropertyOp51
 70
     0
102
RTVSPropertyOp52
 70
     0
102
RTVSPropertyOp53
 70
     1
102
RTVSPropertyOp54
 70
     1
102
RTVSPropertyOp55
 70
     1
102
RTVSPropertyOp56
 70
     1
102
RTVSPropertyOp57
 70
     1
102
RTVSPost2010Prop28
280
     0
102
RTVSPost2010PropOp28
 70
     1
102
RTVSPost2010Prop29
280
     1
102
RTVSPost2010PropOp29
 70
     1
102
RTVSPost2010Prop30
280
     1
102
RTVSPost2010PropOp30
 70
     1
102
RTVSPost2010Prop31
280
     0
102
RTVSPost2010PropOp31
 70
     1
102
RTVSPost2010Prop32
280
     0
102
RTVSPost2010PropOp32
 70
     1
102
RTVSPost2010Prop33
280
     0
102
RTVSPost2010PropOp33
 70
     1
102
RTVSPost2010Prop34
280
     0
102
RTVSPost2010PropOp34
 70
     1
102
RTVSPost2010Prop35
280
     0
102
RTVSPost2010PropOp35
 70
     1
102
RTVSPost2010Prop36
280
     0
102
RTVSPost2010PropOp36
 70
     1
102
RTVSPost2010Prop37
 90
       50
102
RTVSPost2010PropOp37
 70
     1
102
RTVSPost2010Prop38
140
0.0
102
RTVSPost2010PropOp38
 70
     1
102
RTVSPost2010Prop39
140
1.0
102
RTVSPost2010PropOp39
 70
     1
102
RTVSPost2010Prop40
 90
        0
102
RTVSPost2010PropOp40
 70
     1
102
RTVSPost2010Prop41ColorIndex
 90
       18
102
RTVSPost2010Prop41ColorRGB
 90
        0
102
RTVSPost2010PropOp41
 70
     1
102
RTVSPost2010Prop42
 90
       50
102
RTVSPost2010PropOp42
 70
     1
102
RTVSPost2010Prop43
 90
        3
102
RTVSPost2010PropOp43
 70
     1
102
RTVSPost2010Prop44ColorIndex
 90
        5
102
RTVSPost2010Prop44ColorRGB
 90
      255
102
RTVSPost2010PropOp44
 70
     1
102
RTVSPost2010Prop45
280
     0
102
RTVSPost2010PropOp45
 70
     1
102
RTVSPost2010Prop46
 90
       50
102
RTVSPost2010PropOp46
 70
     1
102
RTVSPost2010Prop47
 90
       50
102
RTVSPost2010PropOp47
 70
     1
102
RTVSPost2010Prop48
 90
       50
102
RTVSPost2010PropOp48
 70
     1
102
RTVSPost2010Prop49
280
     0
102
RTVSPost2010PropOp49
 70
     1
102
RTVSPost2010Prop50
 90
       50
102
RTVSPost2010PropOp50
 70
     1
102
RTVSPost2010Prop51ColorIndex
 90
      256
102
RTVSPost2010Prop51ColorRGB
 90
-16777216
102
RTVSPost2010PropOp51
 70
     0
102
RTVSPost2010Prop52
140
1.0
102
RTVSPost2010PropOp52
 70
     0
102
RTVSPost2010Prop53
 90
        2
102
RTVSPost2010PropOp53
 70
     1
102
RTVSPost2010Prop54
  1
strokes_ogs.tif
102
RTVSPost2010PropOp54
 70
     1
102
RTVSPost2010Prop55
280
     0
102
RTVSPost2010PropOp55
 70
     1
102
RTVSPost2010Prop56
140
1.0
102
RTVSPost2010PropOp56
 70
     1
102
RTVSPost2010Prop57
140
1.0
102
RTVSPost2010PropOp57
 70
     1
  0
XRECORD
  5
265
102
{ACAD_REACTORS
330
264
102
}
330
264
100
AcDbXrecord
280
     1
102
RTVSPropertyOp0
 70
     1
102
RTVSPropertyOp1
 70
     1
102
RTVSPropertyOp2
 70
     1
102
RTVSPropertyOp3
 70
     1
102
RTVSPropertyOp4
 70
     1
102
RTVSPropertyOp5
 70
     1
102
RTVSPropertyOp6
 70
     1
102
RTVSPropertyOp7
 70
     1
102
RTVSPropertyOp8
 70
     1
102
RTVSPropertyOp9
 70
     1
102
RTVSPropertyOp10
 70
     1
102
RTVSPropertyOp11
 70
     1
102
RTVSPropertyOp12
 70
     1
102
RTVSPropertyOp13
 70
     1
102
RTVSPropertyOp14
 70
     1
102
RTVSPropertyOp15
 70
     1
102
RTVSPropertyOp16
 70
     1
102
RTVSPropertyOp17
 70
     1
102
RTVSPropertyOp18
 70
     1
102
RTVSPropertyOp19
 70
     1
102
RTVSPropertyOp20
 70
     1
102
RTVSPropertyOp21
 70
     1
102
RTVSPropertyOp22
 70
     1
102
RTVSPropertyOp23
 70
     1
102
RTVSPropertyOp24
 70
     1
102
RTVSPropertyOp25
 70
     1
102
RTVSPropertyOp26
 70
     1
102
RTVSPropertyOp27
 70
     1
102
RTVSPropertyOp28
 70
     1
102
RTVSPropertyOp29
 70
     1
102
RTVSPropertyOp30
 70
     1
102
RTVSPropertyOp31
 70
     1
102
RTVSPropertyOp32
 70
     1
102
RTVSPropertyOp33
 70
     1
102
RTVSPropertyOp34
 70
     1
102
RTVSPropertyOp35
 70
     1
102
RTVSPropertyOp36
 70
     1
102
RTVSPropertyOp37
 70
     1
102
RTVSPropertyOp38
 70
     1
102
RTVSPropertyOp39
 70
     1
102
RTVSPropertyOp40
 70
     1
102
RTVSPropertyOp41
 70
     1
102
RTVSPropertyOp42
 70
     1
102
RTVSPropertyOp43
 70
     1
102
RTVSPropertyOp44
 70
     1
102
RTVSPropertyOp45
 70
     1
102
RTVSPropertyOp46
 70
     1
102
RTVSPropertyOp47
 70
     1
102
RTVSPropertyOp48
 70
     1
102
RTVSPropertyOp49
 70
     1
102
RTVSPropertyOp50
 70
     1
102
RTVSPropertyOp51
 70
     0
102
RTVSPropertyOp52
 70
     0
102
RTVSPropertyOp53
 70
     1
102
RTVSPropertyOp54
 70
     1
102
RTVSPropertyOp55
 70
     1
102
RTVSPropertyOp56
 70
     1
102
RTVSPropertyOp57
 70
     1
102
RTVSPost2010Prop28
280
     0
102
RTVSPost2010PropOp28
 70
     1
102
RTVSPost2010Prop29
280
     1
102
RTVSPost2010PropOp29
 70
     1
102
RTVSPost2010Prop30
280
     1
102
RTVSPost2010PropOp30
 70
     1
102
RTVSPost2010Prop31
280
     0
102
RTVSPost2010PropOp31
 70
     1
102
RTVSPost2010Prop32
280
     0
102
RTVSPost2010PropOp32
 70
     1
102
RTVSPost2010Prop33
280
     0
102
RTVSPost2010PropOp33
 70
     1
102
RTVSPost2010Prop34
280
     0
102
RTVSPost2010PropOp34
 70
     1
102
RTVSPost2010Prop35
280
     0
102
RTVSPost2010PropOp35
 70
     1
102
RTVSPost2010Prop36
280
     0
102
RTVSPost2010PropOp36
 70
     1
102
RTVSPost2010Prop37
 90
       50
102
RTVSPost2010PropOp37
 70
     1
102
RTVSPost2010Prop38
140
0.0
102
RTVSPost2010PropOp38
 70
     1
102
RTVSPost2010Prop39
140
1.0
102
RTVSPost2010PropOp39
 70
     1
102
RTVSPost2010Prop40
 90
        0
102
RTVSPost2010PropOp40
 70
     1
102
RTVSPost2010Prop41ColorIndex
 90
       18
102
RTVSPost2010Prop41ColorRGB
 90
        0
102
RTVSPost2010PropOp41
 70
     1
102
RTVSPost2010Prop42
 90
       50
102
RTVSPost2010PropOp42
 70
     1
102
RTVSPost2010Prop43
 90
        3
102
RTVSPost2010PropOp43
 70
     1
102
RTVSPost2010Prop44ColorIndex
 90
        5
102
RTVSPost2010Prop44ColorRGB
 90
      255
102
RTVSPost2010PropOp44
 70
     1
102
RTVSPost2010Prop45
280
     0
102
RTVSPost2010PropOp45
 70
     1
102
RTVSPost2010Prop46
 90
       50
102
RTVSPost2010PropOp46
 70
     1
102
RTVSPost2010Prop47
 90
       50
102
RTVSPost2010PropOp47
 70
     1
102
RTVSPost2010Prop48
 90
       50
102
RTVSPost2010PropOp48
 70
     1
102
RTVSPost2010Prop49
280
     0
102
RTVSPost2010PropOp49
 70
     1
102
RTVSPost2010Prop50
 90
       50
102
RTVSPost2010PropOp50
 70
     1
102
RTVSPost2010Prop51ColorIndex
 90
      256
102
RTVSPost2010Prop51ColorRGB
 90
-16777216
102
RTVSPost2010PropOp51
 70
     0
102
RTVSPost2010Prop52
140
1.0
102
RTVSPost2010PropOp52
 70
     0
102
RTVSPost2010Prop53
 90
        2
102
RTVSPost2010PropOp53
 70
     1
102
RTVSPost2010Prop54
  1
strokes_ogs.tif
102
RTVSPost2010PropOp54
 70
     1
102
RTVSPost2010Prop55
280
     0
102
RTVSPost2010PropOp55
 70
     1
102
RTVSPost2010Prop56
140
1.0
102
RTVSPost2010PropOp56
 70
     1
102
RTVSPost2010Prop57
140
1.0
102
RTVSPost2010PropOp57
 70
     1
  0
XRECORD
  5
275
102
{ACAD_REACTORS
330
274
102
}
330
274
100
AcDbXrecord
280
     1
102
RTVSPropertyOp0
 70
     0
102
RTVSPropertyOp1
 70
     0
102
RTVSPropertyOp2
 70
     0
102
RTVSPropertyOp3
 70
     0
102
RTVSPropertyOp4
 70
     0
102
RTVSPropertyOp5
 70
     0
102
RTVSPropertyOp6
 70
     0
102
RTVSPropertyOp7
 70
     0
102
RTVSPropertyOp8
 70
     0
102
RTVSPropertyOp9
 70
     0
102
RTVSPropertyOp10
 70
     0
102
RTVSPropertyOp11
 70
     0
102
RTVSPropertyOp12
 70
     0
102
RTVSPropertyOp13
 70
     0
102
RTVSPropertyOp14
 70
     2
102
RTVSPropertyOp15
 70
     0
102
RTVSPropertyOp16
 70
     0
102
RTVSPropertyOp17
 70
     0
102
RTVSPropertyOp18
 70
     0
102
RTVSPropertyOp19
 70
     0
102
RTVSPropertyOp20
 70
     0
102
RTVSPropertyOp21
 70
     0
102
RTVSPropertyOp22
 70
     0
102
RTVSPropertyOp23
 70
     0
102
RTVSPropertyOp24
 70
     0
102
RTVSPropertyOp25
 70
     0
102
RTVSPropertyOp26
 70
     0
102
RTVSPropertyOp27
 70
     0
102
RTVSPropertyOp28
 70
     0
102
RTVSPropertyOp29
 70
     0
102
RTVSPropertyOp30
 70
     0
102
RTVSPropertyOp31
 70
     0
102
RTVSPropertyOp32
 70
     0
102
RTVSPropertyOp33
 70
     0
102
RTVSPropertyOp34
 70
     0
102
RTVSPropertyOp35
 70
     0
102
RTVSPropertyOp36
 70
     0
102
RTVSPropertyOp37
 70
     0
102
RTVSPropertyOp38
 70
     0
102
RTVSPropertyOp39
 70
     0
102
RTVSPropertyOp40
 70
     0
102
RTVSPropertyOp41
 70
     0
102
RTVSPropertyOp42
 70
     0
102
RTVSPropertyOp43
 70
     0
102
RTVSPropertyOp44
 70
     0
102
RTVSPropertyOp45
 70
     0
102
RTVSPropertyOp46
 70
     0
102
RTVSPropertyOp47
 70
     0
102
RTVSPropertyOp48
 70
     0
102
RTVSPropertyOp49
 70
     0
102
RTVSPropertyOp50
 70
     0
102
RTVSPropertyOp51
 70
     0
102
RTVSPropertyOp52
 70
     0
102
RTVSPropertyOp53
 70
     0
102
RTVSPropertyOp54
 70
     0
102
RTVSPropertyOp55
 70
     0
102
RTVSPropertyOp56
 70
     0
102
RTVSPropertyOp57
 70
     0
102
RTVSPost2010Prop28
280
     0
102
RTVSPost2010PropOp28
 70
     0
102
RTVSPost2010Prop29
280
     1
102
RTVSPost2010PropOp29
 70
     0
102
RTVSPost2010Prop30
280
     1
102
RTVSPost2010PropOp30
 70
     0
102
RTVSPost2010Prop31
280
     0
102
RTVSPost2010PropOp31
 70
     0
102
RTVSPost2010Prop32
280
     0
102
RTVSPost2010PropOp32
 70
     0
102
RTVSPost2010Prop33
280
     0
102
RTVSPost2010PropOp33
 70
     0
102
RTVSPost2010Prop34
280
     0
102
RTVSPost2010PropOp34
 70
     0
102
RTVSPost2010Prop35
280
     0
102
RTVSPost2010PropOp35
 70
     0
102
RTVSPost2010Prop36
280
     0
102
RTVSPost2010PropOp36
 70
     0
102
RTVSPost2010Prop37
 90
       50
102
RTVSPost2010PropOp37
 70
     0
102
RTVSPost2010Prop38
140
0.0
102
RTVSPost2010PropOp38
 70
     0
102
RTVSPost2010Prop39
140
1.0
102
RTVSPost2010PropOp39
 70
     0
102
RTVSPost2010Prop40
 90
        0
102
RTVSPost2010PropOp40
 70
     0
102
RTVSPost2010Prop41ColorIndex
 90
       18
102
RTVSPost2010Prop41ColorRGB
 90
        0
102
RTVSPost2010PropOp41
 70
     0
102
RTVSPost2010Prop42
 90
       50
102
RTVSPost2010PropOp42
 70
     0
102
RTVSPost2010Prop43
 90
        3
102
RTVSPost2010PropOp43
 70
     0
102
RTVSPost2010Prop44ColorIndex
 90
        5
102
RTVSPost2010Prop44ColorRGB
 90
      255
102
RTVSPost2010PropOp44
 70
     0
102
RTVSPost2010Prop45
280
     0
102
RTVSPost2010PropOp45
 70
     0
102
RTVSPost2010Prop46
 90
       50
102
RTVSPost2010PropOp46
 70
     0
102
RTVSPost2010Prop47
 90
       50
102
RTVSPost2010PropOp47
 70
     0
102
RTVSPost2010Prop48
 90
       50
102
RTVSPost2010PropOp48
 70
     0
102
RTVSPost2010Prop49
280
     0
102
RTVSPost2010PropOp49
 70
     0
102
RTVSPost2010Prop50
 90
       50
102
RTVSPost2010PropOp50
 70
     0
102
RTVSPost2010Prop51ColorIndex
 90
      256
102
RTVSPost2010Prop51ColorRGB
 90
-16777216
102
RTVSPost2010PropOp51
 70
     0
102
RTVSPost2010Prop52
140
1.0
102
RTVSPost2010PropOp52
 70
     0
102
RTVSPost2010Prop53
 90
        2
102
RTVSPost2010PropOp53
 70
     0
102
RTVSPost2010Prop54
  1
strokes_ogs.tif
102
RTVSPost2010PropOp54
 70
     0
102
RTVSPost2010Prop55
280
     0
102
RTVSPost2010PropOp55
 70
     0
102
RTVSPost2010Prop56
140
1.0
102
RTVSPost2010PropOp56
 70
     0
102
RTVSPost2010Prop57
140
1.0
102
RTVSPost2010PropOp57
 70
     0
  0
XRECORD
  5
26D
102
{ACAD_REACTORS
330
26C
102
}
330
26C
100
AcDbXrecord
280
     1
102
RTVSPropertyOp0
 70
     1
102
RTVSPropertyOp1
 70
     1
102
RTVSPropertyOp2
 70
     1
102
RTVSPropertyOp3
 70
     1
102
RTVSPropertyOp4
 70
     1
102
RTVSPropertyOp5
 70
     1
102
RTVSPropertyOp6
 70
     1
102
RTVSPropertyOp7
 70
     1
102
RTVSPropertyOp8
 70
     1
102
RTVSPropertyOp9
 70
     1
102
RTVSPropertyOp10
 70
     1
102
RTVSPropertyOp11
 70
     1
102
RTVSPropertyOp12
 70
     1
102
RTVSPropertyOp13
 70
     1
102
RTVSPropertyOp14
 70
     1
102
RTVSPropertyOp15
 70
     1
102
RTVSPropertyOp16
 70
     1
102
RTVSPropertyOp17
 70
     1
102
RTVSPropertyOp18
 70
     1
102
RTVSPropertyOp19
 70
     1
102
RTVSPropertyOp20
 70
     1
102
RTVSPropertyOp21
 70
     1
102
RTVSPropertyOp22
 70
     1
102
RTVSPropertyOp23
 70
     1
102
RTVSPropertyOp24
 70
     1
102
RTVSPropertyOp25
 70
     1
102
RTVSPropertyOp26
 70
     1
102
RTVSPropertyOp27
 70
     1
102
RTVSPropertyOp28
 70
     1
102
RTVSPropertyOp29
 70
     1
102
RTVSPropertyOp30
 70
     1
102
RTVSPropertyOp31
 70
     1
102
RTVSPropertyOp32
 70
     1
102
RTVSPropertyOp33
 70
     1
102
RTVSPropertyOp34
 70
     1
102
RTVSPropertyOp35
 70
     1
102
RTVSPropertyOp36
 70
     1
102
RTVSPropertyOp37
 70
     1
102
RTVSPropertyOp38
 70
     1
102
RTVSPropertyOp39
 70
     1
102
RTVSPropertyOp40
 70
     1
102
RTVSPropertyOp41
 70
     1
102
RTVSPropertyOp42
 70
     1
102
RTVSPropertyOp43
 70
     1
102
RTVSPropertyOp44
 70
     1
102
RTVSPropertyOp45
 70
     1
102
RTVSPropertyOp46
 70
     1
102
RTVSPropertyOp47
 70
     1
102
RTVSPropertyOp48
 70
     1
102
RTVSPropertyOp49
 70
     1
102
RTVSPropertyOp50
 70
     1
102
RTVSPropertyOp51
 70
     0
102
RTVSPropertyOp52
 70
     0
102
RTVSPropertyOp53
 70
     1
102
RTVSPropertyOp54
 70
     1
102
RTVSPropertyOp55
 70
     1
102
RTVSPropertyOp56
 70
     1
102
RTVSPropertyOp57
 70
     1
102
RTVSPost2010Prop28
280
     0
102
RTVSPost2010PropOp28
 70
     1
102
RTVSPost2010Prop29
280
     1
102
RTVSPost2010PropOp29
 70
     1
102
RTVSPost2010Prop30
280
     1
102
RTVSPost2010PropOp30
 70
     1
102
RTVSPost2010Prop31
280
     0
102
RTVSPost2010PropOp31
 70
     1
102
RTVSPost2010Prop32
280
     0
102
RTVSPost2010PropOp32
 70
     1
102
RTVSPost2010Prop33
280
     0
102
RTVSPost2010PropOp33
 70
     1
102
RTVSPost2010Prop34
280
     0
102
RTVSPost2010PropOp34
 70
     1
102
RTVSPost2010Prop35
280
     0
102
RTVSPost2010PropOp35
 70
     1
102
RTVSPost2010Prop36
280
     0
102
RTVSPost2010PropOp36
 70
     1
102
RTVSPost2010Prop37
 90
       50
102
RTVSPost2010PropOp37
 70
     1
102
RTVSPost2010Prop38
140
0.0
102
RTVSPost2010PropOp38
 70
     1
102
RTVSPost2010Prop39
140
1.0
102
RTVSPost2010PropOp39
 70
     1
102
RTVSPost2010Prop40
 90
        0
102
RTVSPost2010PropOp40
 70
     1
102
RTVSPost2010Prop41ColorIndex
 90
       18
102
RTVSPost2010Prop41ColorRGB
 90
        0
102
RTVSPost2010PropOp41
 70
     1
102
RTVSPost2010Prop42
 90
       50
102
RTVSPost2010PropOp42
 70
     1
102
RTVSPost2010Prop43
 90
        3
102
RTVSPost2010PropOp43
 70
     1
102
RTVSPost2010Prop44ColorIndex
 90
        5
102
RTVSPost2010Prop44ColorRGB
 90
      255
102
RTVSPost2010PropOp44
 70
     1
102
RTVSPost2010Prop45
280
     0
102
RTVSPost2010PropOp45
 70
     1
102
RTVSPost2010Prop46
 90
       50
102
RTVSPost2010PropOp46
 70
     1
102
RTVSPost2010Prop47
 90
       50
102
RTVSPost2010PropOp47
 70
     1
102
RTVSPost2010Prop48
 90
       50
102
RTVSPost2010PropOp48
 70
     1
102
RTVSPost2010Prop49
280
     0
102
RTVSPost2010PropOp49
 70
     1
102
RTVSPost2010Prop50
 90
       50
102
RTVSPost2010PropOp50
 70
     1
102
RTVSPost2010Prop51ColorIndex
 90
      256
102
RTVSPost2010Prop51ColorRGB
 90
-16777216
102
RTVSPost2010PropOp51
 70
     0
102
RTVSPost2010Prop52
140
1.0
102
RTVSPost2010PropOp52
 70
     0
102
RTVSPost2010Prop53
 90
        2
102
RTVSPost2010PropOp53
 70
     1
102
RTVSPost2010Prop54
  1
strokes_ogs.tif
102
RTVSPost2010PropOp54
 70
     1
102
RTVSPost2010Prop55
280
     0
102
RTVSPost2010PropOp55
 70
     1
102
RTVSPost2010Prop56
140
1.0
102
RTVSPost2010PropOp56
 70
     1
102
RTVSPost2010Prop57
140
1.0
102
RTVSPost2010PropOp57
 70
     1
  0
XRECORD
  5
251
102
{ACAD_REACTORS
330
250
102
}
330
250
100
AcDbXrecord
280
     1
102
RTVSPropertyOp0
 70
     1
102
RTVSPropertyOp1
 70
     1
102
RTVSPropertyOp2
 70
     1
102
RTVSPropertyOp3
 70
     1
102
RTVSPropertyOp4
 70
     1
102
RTVSPropertyOp5
 70
     1
102
RTVSPropertyOp6
 70
     1
102
RTVSPropertyOp7
 70
     1
102
RTVSPropertyOp8
 70
     1
102
RTVSPropertyOp9
 70
     1
102
RTVSPropertyOp10
 70
     1
102
RTVSPropertyOp11
 70
     1
102
RTVSPropertyOp12
 70
     1
102
RTVSPropertyOp13
 70
     1
102
RTVSPropertyOp14
 70
     1
102
RTVSPropertyOp15
 70
     1
102
RTVSPropertyOp16
 70
     1
102
RTVSPropertyOp17
 70
     1
102
RTVSPropertyOp18
 70
     1
102
RTVSPropertyOp19
 70
     1
102
RTVSPropertyOp20
 70
     1
102
RTVSPropertyOp21
 70
     1
102
RTVSPropertyOp22
 70
     1
102
RTVSPropertyOp23
 70
     1
102
RTVSPropertyOp24
 70
     1
102
RTVSPropertyOp25
 70
     1
102
RTVSPropertyOp26
 70
     1
102
RTVSPropertyOp27
 70
     1
102
RTVSPropertyOp28
 70
     1
102
RTVSPropertyOp29
 70
     1
102
RTVSPropertyOp30
 70
     1
102
RTVSPropertyOp31
 70
     1
102
RTVSPropertyOp32
 70
     1
102
RTVSPropertyOp33
 70
     1
102
RTVSPropertyOp34
 70
     1
102
RTVSPropertyOp35
 70
     1
102
RTVSPropertyOp36
 70
     1
102
RTVSPropertyOp37
 70
     1
102
RTVSPropertyOp38
 70
     1
102
RTVSPropertyOp39
 70
     1
102
RTVSPropertyOp40
 70
     1
102
RTVSPropertyOp41
 70
     1
102
RTVSPropertyOp42
 70
     1
102
RTVSPropertyOp43
 70
     1
102
RTVSPropertyOp44
 70
     1
102
RTVSPropertyOp45
 70
     1
102
RTVSPropertyOp46
 70
     1
102
RTVSPropertyOp47
 70
     1
102
RTVSPropertyOp48
 70
     1
102
RTVSPropertyOp49
 70
     1
102
RTVSPropertyOp50
 70
     1
102
RTVSPropertyOp51
 70
     0
102
RTVSPropertyOp52
 70
     0
102
RTVSPropertyOp53
 70
     1
102
RTVSPropertyOp54
 70
     1
102
RTVSPropertyOp55
 70
     1
102
RTVSPropertyOp56
 70
     1
102
RTVSPropertyOp57
 70
     1
102
RTVSPost2010Prop28
280
     0
102
RTVSPost2010PropOp28
 70
     1
102
RTVSPost2010Prop29
280
     1
102
RTVSPost2010PropOp29
 70
     1
102
RTVSPost2010Prop30
280
     1
102
RTVSPost2010PropOp30
 70
     1
102
RTVSPost2010Prop31
280
     0
102
RTVSPost2010PropOp31
 70
     1
102
RTVSPost2010Prop32
280
     0
102
RTVSPost2010PropOp32
 70
     1
102
RTVSPost2010Prop33
280
     0
102
RTVSPost2010PropOp33
 70
     1
102
RTVSPost2010Prop34
280
     0
102
RTVSPost2010PropOp34
 70
     1
102
RTVSPost2010Prop35
280
     0
102
RTVSPost2010PropOp35
 70
     1
102
RTVSPost2010Prop36
280
     0
102
RTVSPost2010PropOp36
 70
     1
102
RTVSPost2010Prop37
 90
       50
102
RTVSPost2010PropOp37
 70
     1
102
RTVSPost2010Prop38
140
0.0
102
RTVSPost2010PropOp38
 70
     1
102
RTVSPost2010Prop39
140
1.0
102
RTVSPost2010PropOp39
 70
     1
102
RTVSPost2010Prop40
 90
        0
102
RTVSPost2010PropOp40
 70
     1
102
RTVSPost2010Prop41ColorIndex
 90
       18
102
RTVSPost2010Prop41ColorRGB
 90
        0
102
RTVSPost2010PropOp41
 70
     1
102
RTVSPost2010Prop42
 90
       50
102
RTVSPost2010PropOp42
 70
     1
102
RTVSPost2010Prop43
 90
        3
102
RTVSPost2010PropOp43
 70
     1
102
RTVSPost2010Prop44ColorIndex
 90
        5
102
RTVSPost2010Prop44ColorRGB
 90
      255
102
RTVSPost2010PropOp44
 70
     1
102
RTVSPost2010Prop45
280
     0
102
RTVSPost2010PropOp45
 70
     1
102
RTVSPost2010Prop46
 90
       50
102
RTVSPost2010PropOp46
 70
     1
102
RTVSPost2010Prop47
 90
       50
102
RTVSPost2010PropOp47
 70
     1
102
RTVSPost2010Prop48
 90
       50
102
RTVSPost2010PropOp48
 70
     1
102
RTVSPost2010Prop49
280
     0
102
RTVSPost2010PropOp49
 70
     1
102
RTVSPost2010Prop50
 90
       50
102
RTVSPost2010PropOp50
 70
     1
102
RTVSPost2010Prop51ColorIndex
 90
      256
102
RTVSPost2010Prop51ColorRGB
 90
-16777216
102
RTVSPost2010PropOp51
 70
     0
102
RTVSPost2010Prop52
140
1.0
102
RTVSPost2010PropOp52
 70
     0
102
RTVSPost2010Prop53
 90
        2
102
RTVSPost2010PropOp53
 70
     1
102
RTVSPost2010Prop54
  1
strokes_ogs.tif
102
RTVSPost2010PropOp54
 70
     1
102
RTVSPost2010Prop55
280
     0
102
RTVSPost2010PropOp55
 70
     1
102
RTVSPost2010Prop56
140
1.0
102
RTVSPost2010PropOp56
 70
     1
102
RTVSPost2010Prop57
140
1.0
102
RTVSPost2010PropOp57
 70
     1
  0
XRECORD
  5
253
102
{ACAD_REACTORS
330
252
102
}
330
252
100
AcDbXrecord
280
     1
102
RTVSPropertyOp0
 70
     1
102
RTVSPropertyOp1
 70
     1
102
RTVSPropertyOp2
 70
     1
102
RTVSPropertyOp3
 70
     1
102
RTVSPropertyOp4
 70
     1
102
RTVSPropertyOp5
 70
     1
102
RTVSPropertyOp6
 70
     1
102
RTVSPropertyOp7
 70
     1
102
RTVSPropertyOp8
 70
     1
102
RTVSPropertyOp9
 70
     1
102
RTVSPropertyOp10
 70
     1
102
RTVSPropertyOp11
 70
     1
102
RTVSPropertyOp12
 70
     1
102
RTVSPropertyOp13
 70
     1
102
RTVSPropertyOp14
 70
     1
102
RTVSPropertyOp15
 70
     1
102
RTVSPropertyOp16
 70
     1
102
RTVSPropertyOp17
 70
     1
102
RTVSPropertyOp18
 70
     1
102
RTVSPropertyOp19
 70
     1
102
RTVSPropertyOp20
 70
     1
102
RTVSPropertyOp21
 70
     1
102
RTVSPropertyOp22
 70
     1
102
RTVSPropertyOp23
 70
     1
102
RTVSPropertyOp24
 70
     1
102
RTVSPropertyOp25
 70
     1
102
RTVSPropertyOp26
 70
     1
102
RTVSPropertyOp27
 70
     1
102
RTVSPropertyOp28
 70
     1
102
RTVSPropertyOp29
 70
     1
102
RTVSPropertyOp30
 70
     1
102
RTVSPropertyOp31
 70
     1
102
RTVSPropertyOp32
 70
     1
102
RTVSPropertyOp33
 70
     1
102
RTVSPropertyOp34
 70
     1
102
RTVSPropertyOp35
 70
     1
102
RTVSPropertyOp36
 70
     1
102
RTVSPropertyOp37
 70
     1
102
RTVSPropertyOp38
 70
     1
102
RTVSPropertyOp39
 70
     1
102
RTVSPropertyOp40
 70
     1
102
RTVSPropertyOp41
 70
     1
102
RTVSPropertyOp42
 70
     1
102
RTVSPropertyOp43
 70
     1
102
RTVSPropertyOp44
 70
     1
102
RTVSPropertyOp45
 70
     1
102
RTVSPropertyOp46
 70
     1
102
RTVSPropertyOp47
 70
     1
102
RTVSPropertyOp48
 70
     1
102
RTVSPropertyOp49
 70
     1
102
RTVSPropertyOp50
 70
     1
102
RTVSPropertyOp51
 70
     0
102
RTVSPropertyOp52
 70
     0
102
RTVSPropertyOp53
 70
     1
102
RTVSPropertyOp54
 70
     1
102
RTVSPropertyOp55
 70
     1
102
RTVSPropertyOp56
 70
     1
102
RTVSPropertyOp57
 70
     1
102
RTVSPost2010Prop28
280
     0
102
RTVSPost2010PropOp28
 70
     1
102
RTVSPost2010Prop29
280
     1
102
RTVSPost2010PropOp29
 70
     1
102
RTVSPost2010Prop30
280
     1
102
RTVSPost2010PropOp30
 70
     1
102
RTVSPost2010Prop31
280
     0
102
RTVSPost2010PropOp31
 70
     1
102
RTVSPost2010Prop32
280
     0
102
RTVSPost2010PropOp32
 70
     1
102
RTVSPost2010Prop33
280
     0
102
RTVSPost2010PropOp33
 70
     1
102
RTVSPost2010Prop34
280
     0
102
RTVSPost2010PropOp34
 70
     1
102
RTVSPost2010Prop35
280
     0
102
RTVSPost2010PropOp35
 70
     1
102
RTVSPost2010Prop36
280
     0
102
RTVSPost2010PropOp36
 70
     1
102
RTVSPost2010Prop37
 90
       50
102
RTVSPost2010PropOp37
 70
     1
102
RTVSPost2010Prop38
140
0.0
102
RTVSPost2010PropOp38
 70
     1
102
RTVSPost2010Prop39
140
1.0
102
RTVSPost2010PropOp39
 70
     1
102
RTVSPost2010Prop40
 90
        0
102
RTVSPost2010PropOp40
 70
     1
102
RTVSPost2010Prop41ColorIndex
 90
       18
102
RTVSPost2010Prop41ColorRGB
 90
        0
102
RTVSPost2010PropOp41
 70
     1
102
RTVSPost2010Prop42
 90
       50
102
RTVSPost2010PropOp42
 70
     1
102
RTVSPost2010Prop43
 90
        3
102
RTVSPost2010PropOp43
 70
     1
102
RTVSPost2010Prop44ColorIndex
 90
        5
102
RTVSPost2010Prop44ColorRGB
 90
      255
102
RTVSPost2010PropOp44
 70
     1
102
RTVSPost2010Prop45
280
     0
102
RTVSPost2010PropOp45
 70
     1
102
RTVSPost2010Prop46
 90
       50
102
RTVSPost2010PropOp46
 70
     1
102
RTVSPost2010Prop47
 90
       50
102
RTVSPost2010PropOp47
 70
     1
102
RTVSPost2010Prop48
 90
       50
102
RTVSPost2010PropOp48
 70
     1
102
RTVSPost2010Prop49
280
     0
102
RTVSPost2010PropOp49
 70
     1
102
RTVSPost2010Prop50
 90
       50
102
RTVSPost2010PropOp50
 70
     1
102
RTVSPost2010Prop51ColorIndex
 90
      256
102
RTVSPost2010Prop51ColorRGB
 90
-16777216
102
RTVSPost2010PropOp51
 70
     0
102
RTVSPost2010Prop52
140
1.0
102
RTVSPost2010PropOp52
 70
     0
102
RTVSPost2010Prop53
 90
        2
102
RTVSPost2010PropOp53
 70
     1
102
RTVSPost2010Prop54
  1
strokes_ogs.tif
102
RTVSPost2010PropOp54
 70
     1
102
RTVSPost2010Prop55
280
     0
102
RTVSPost2010PropOp55
 70
     1
102
RTVSPost2010Prop56
140
1.0
102
RTVSPost2010PropOp56
 70
     1
102
RTVSPost2010Prop57
140
1.0
102
RTVSPost2010PropOp57
 70
     1
  0
XRECORD
  5
255
102
{ACAD_REACTORS
330
254
102
}
330
254
100
AcDbXrecord
280
     1
102
RTVSPropertyOp0
 70
     1
102
RTVSPropertyOp1
 70
     1
102
RTVSPropertyOp2
 70
     1
102
RTVSPropertyOp3
 70
     1
102
RTVSPropertyOp4
 70
     1
102
RTVSPropertyOp5
 70
     1
102
RTVSPropertyOp6
 70
     1
102
RTVSPropertyOp7
 70
     1
102
RTVSPropertyOp8
 70
     1
102
RTVSPropertyOp9
 70
     1
102
RTVSPropertyOp10
 70
     1
102
RTVSPropertyOp11
 70
     1
102
RTVSPropertyOp12
 70
     1
102
RTVSPropertyOp13
 70
     1
102
RTVSPropertyOp14
 70
     1
102
RTVSPropertyOp15
 70
     1
102
RTVSPropertyOp16
 70
     1
102
RTVSPropertyOp17
 70
     1
102
RTVSPropertyOp18
 70
     1
102
RTVSPropertyOp19
 70
     1
102
RTVSPropertyOp20
 70
     1
102
RTVSPropertyOp21
 70
     1
102
RTVSPropertyOp22
 70
     1
102
RTVSPropertyOp23
 70
     1
102
RTVSPropertyOp24
 70
     1
102
RTVSPropertyOp25
 70
     1
102
RTVSPropertyOp26
 70
     1
102
RTVSPropertyOp27
 70
     1
102
RTVSPropertyOp28
 70
     1
102
RTVSPropertyOp29
 70
     1
102
RTVSPropertyOp30
 70
     1
102
RTVSPropertyOp31
 70
     1
102
RTVSPropertyOp32
 70
     1
102
RTVSPropertyOp33
 70
     1
102
RTVSPropertyOp34
 70
     1
102
RTVSPropertyOp35
 70
     1
102
RTVSPropertyOp36
 70
     1
102
RTVSPropertyOp37
 70
     1
102
RTVSPropertyOp38
 70
     1
102
RTVSPropertyOp39
 70
     1
102
RTVSPropertyOp40
 70
     1
102
RTVSPropertyOp41
 70
     1
102
RTVSPropertyOp42
 70
     1
102
RTVSPropertyOp43
 70
     1
102
RTVSPropertyOp44
 70
     1
102
RTVSPropertyOp45
 70
     1
102
RTVSPropertyOp46
 70
     1
102
RTVSPropertyOp47
 70
     1
102
RTVSPropertyOp48
 70
     1
102
RTVSPropertyOp49
 70
     1
102
RTVSPropertyOp50
 70
     1
102
RTVSPropertyOp51
 70
     0
102
RTVSPropertyOp52
 70
     0
102
RTVSPropertyOp53
 70
     1
102
RTVSPropertyOp54
 70
     1
102
RTVSPropertyOp55
 70
     1
102
RTVSPropertyOp56
 70
     1
102
RTVSPropertyOp57
 70
     1
102
RTVSPost2010Prop28
280
     0
102
RTVSPost2010PropOp28
 70
     1
102
RTVSPost2010Prop29
280
     1
102
RTVSPost2010PropOp29
 70
     1
102
RTVSPost2010Prop30
280
     1
102
RTVSPost2010PropOp30
 70
     1
102
RTVSPost2010Prop31
280
     0
102
RTVSPost2010PropOp31
 70
     1
102
RTVSPost2010Prop32
280
     0
102
RTVSPost2010PropOp32
 70
     1
102
RTVSPost2010Prop33
280
     0
102
RTVSPost2010PropOp33
 70
     1
102
RTVSPost2010Prop34
280
     0
102
RTVSPost2010PropOp34
 70
     1
102
RTVSPost2010Prop35
280
     0
102
RTVSPost2010PropOp35
 70
     1
102
RTVSPost2010Prop36
280
     0
102
RTVSPost2010PropOp36
 70
     1
102
RTVSPost2010Prop37
 90
       50
102
RTVSPost2010PropOp37
 70
     1
102
RTVSPost2010Prop38
140
0.0
102
RTVSPost2010PropOp38
 70
     1
102
RTVSPost2010Prop39
140
1.0
102
RTVSPost2010PropOp39
 70
     1
102
RTVSPost2010Prop40
 90
        0
102
RTVSPost2010PropOp40
 70
     1
102
RTVSPost2010Prop41ColorIndex
 90
       18
102
RTVSPost2010Prop41ColorRGB
 90
        0
102
RTVSPost2010PropOp41
 70
     1
102
RTVSPost2010Prop42
 90
       50
102
RTVSPost2010PropOp42
 70
     1
102
RTVSPost2010Prop43
 90
        3
102
RTVSPost2010PropOp43
 70
     1
102
RTVSPost2010Prop44ColorIndex
 90
        5
102
RTVSPost2010Prop44ColorRGB
 90
      255
102
RTVSPost2010PropOp44
 70
     1
102
RTVSPost2010Prop45
280
     0
102
RTVSPost2010PropOp45
 70
     1
102
RTVSPost2010Prop46
 90
       50
102
RTVSPost2010PropOp46
 70
     1
102
RTVSPost2010Prop47
 90
       50
102
RTVSPost2010PropOp47
 70
     1
102
RTVSPost2010Prop48
 90
       50
102
RTVSPost2010PropOp48
 70
     1
102
RTVSPost2010Prop49
280
     0
102
RTVSPost2010PropOp49
 70
     1
102
RTVSPost2010Prop50
 90
       50
102
RTVSPost2010PropOp50
 70
     1
102
RTVSPost2010Prop51ColorIndex
 90
      256
102
RTVSPost2010Prop51ColorRGB
 90
-16777216
102
RTVSPost2010PropOp51
 70
     0
102
RTVSPost2010Prop52
140
1.0
102
RTVSPost2010PropOp52
 70
     0
102
RTVSPost2010Prop53
 90
        2
102
RTVSPost2010PropOp53
 70
     1
102
RTVSPost2010Prop54
  1
strokes_ogs.tif
102
RTVSPost2010PropOp54
 70
     1
102
RTVSPost2010Prop55
280
     0
102
RTVSPost2010PropOp55
 70
     1
102
RTVSPost2010Prop56
140
1.0
102
RTVSPost2010PropOp56
 70
     1
102
RTVSPost2010Prop57
140
1.0
102
RTVSPost2010PropOp57
 70
     1
  0
XRECORD
  5
257
102
{ACAD_REACTORS
330
256
102
}
330
256
100
AcDbXrecord
280
     1
102
RTVSPropertyOp0
 70
     1
102
RTVSPropertyOp1
 70
     1
102
RTVSPropertyOp2
 70
     1
102
RTVSPropertyOp3
 70
     1
102
RTVSPropertyOp4
 70
     1
102
RTVSPropertyOp5
 70
     1
102
RTVSPropertyOp6
 70
     1
102
RTVSPropertyOp7
 70
     1
102
RTVSPropertyOp8
 70
     1
102
RTVSPropertyOp9
 70
     1
102
RTVSPropertyOp10
 70
     1
102
RTVSPropertyOp11
 70
     1
102
RTVSPropertyOp12
 70
     1
102
RTVSPropertyOp13
 70
     1
102
RTVSPropertyOp14
 70
     1
102
RTVSPropertyOp15
 70
     1
102
RTVSPropertyOp16
 70
     1
102
RTVSPropertyOp17
 70
     1
102
RTVSPropertyOp18
 70
     1
102
RTVSPropertyOp19
 70
     1
102
RTVSPropertyOp20
 70
     1
102
RTVSPropertyOp21
 70
     1
102
RTVSPropertyOp22
 70
     1
102
RTVSPropertyOp23
 70
     1
102
RTVSPropertyOp24
 70
     1
102
RTVSPropertyOp25
 70
     1
102
RTVSPropertyOp26
 70
     1
102
RTVSPropertyOp27
 70
     1
102
RTVSPropertyOp28
 70
     1
102
RTVSPropertyOp29
 70
     1
102
RTVSPropertyOp30
 70
     1
102
RTVSPropertyOp31
 70
     1
102
RTVSPropertyOp32
 70
     1
102
RTVSPropertyOp33
 70
     1
102
RTVSPropertyOp34
 70
     1
102
RTVSPropertyOp35
 70
     1
102
RTVSPropertyOp36
 70
     1
102
RTVSPropertyOp37
 70
     1
102
RTVSPropertyOp38
 70
     1
102
RTVSPropertyOp39
 70
     1
102
RTVSPropertyOp40
 70
     1
102
RTVSPropertyOp41
 70
     1
102
RTVSPropertyOp42
 70
     1
102
RTVSPropertyOp43
 70
     1
102
RTVSPropertyOp44
 70
     1
102
RTVSPropertyOp45
 70
     1
102
RTVSPropertyOp46
 70
     1
102
RTVSPropertyOp47
 70
     1
102
RTVSPropertyOp48
 70
     1
102
RTVSPropertyOp49
 70
     1
102
RTVSPropertyOp50
 70
     1
102
RTVSPropertyOp51
 70
     0
102
RTVSPropertyOp52
 70
     0
102
RTVSPropertyOp53
 70
     1
102
RTVSPropertyOp54
 70
     1
102
RTVSPropertyOp55
 70
     1
102
RTVSPropertyOp56
 70
     1
102
RTVSPropertyOp57
 70
     1
102
RTVSPost2010Prop28
280
     0
102
RTVSPost2010PropOp28
 70
     1
102
RTVSPost2010Prop29
280
     1
102
RTVSPost2010PropOp29
 70
     1
102
RTVSPost2010Prop30
280
     1
102
RTVSPost2010PropOp30
 70
     1
102
RTVSPost2010Prop31
280
     0
102
RTVSPost2010PropOp31
 70
     1
102
RTVSPost2010Prop32
280
     0
102
RTVSPost2010PropOp32
 70
     1
102
RTVSPost2010Prop33
280
     0
102
RTVSPost2010PropOp33
 70
     1
102
RTVSPost2010Prop34
280
     0
102
RTVSPost2010PropOp34
 70
     1
102
RTVSPost2010Prop35
280
     0
102
RTVSPost2010PropOp35
 70
     1
102
RTVSPost2010Prop36
280
     0
102
RTVSPost2010PropOp36
 70
     1
102
RTVSPost2010Prop37
 90
       50
102
RTVSPost2010PropOp37
 70
     1
102
RTVSPost2010Prop38
140
0.0
102
RTVSPost2010PropOp38
 70
     1
102
RTVSPost2010Prop39
140
1.0
102
RTVSPost2010PropOp39
 70
     1
102
RTVSPost2010Prop40
 90
        0
102
RTVSPost2010PropOp40
 70
     1
102
RTVSPost2010Prop41ColorIndex
 90
       18
102
RTVSPost2010Prop41ColorRGB
 90
        0
102
RTVSPost2010PropOp41
 70
     1
102
RTVSPost2010Prop42
 90
       50
102
RTVSPost2010PropOp42
 70
     1
102
RTVSPost2010Prop43
 90
        3
102
RTVSPost2010PropOp43
 70
     1
102
RTVSPost2010Prop44ColorIndex
 90
        5
102
RTVSPost2010Prop44ColorRGB
 90
      255
102
RTVSPost2010PropOp44
 70
     1
102
RTVSPost2010Prop45
280
     0
102
RTVSPost2010PropOp45
 70
     1
102
RTVSPost2010Prop46
 90
       50
102
RTVSPost2010PropOp46
 70
     1
102
RTVSPost2010Prop47
 90
       50
102
RTVSPost2010PropOp47
 70
     1
102
RTVSPost2010Prop48
 90
       50
102
RTVSPost2010PropOp48
 70
     1
102
RTVSPost2010Prop49
280
     0
102
RTVSPost2010PropOp49
 70
     1
102
RTVSPost2010Prop50
 90
       50
102
RTVSPost2010PropOp50
 70
     1
102
RTVSPost2010Prop51ColorIndex
 90
      256
102
RTVSPost2010Prop51ColorRGB
 90
-16777216
102
RTVSPost2010PropOp51
 70
     0
102
RTVSPost2010Prop52
140
1.0
102
RTVSPost2010PropOp52
 70
     0
102
RTVSPost2010Prop53
 90
        2
102
RTVSPost2010PropOp53
 70
     1
102
RTVSPost2010Prop54
  1
strokes_ogs.tif
102
RTVSPost2010PropOp54
 70
     1
102
RTVSPost2010Prop55
280
     0
102
RTVSPost2010PropOp55
 70
     1
102
RTVSPost2010Prop56
140
1.0
102
RTVSPost2010PropOp56
 70
     1
102
RTVSPost2010Prop57
140
1.0
102
RTVSPost2010PropOp57
 70
     1
  0
XRECORD
  5
25D
102
{ACAD_REACTORS
330
25C
102
}
330
25C
100
AcDbXrecord
280
     1
102
RTVSPropertyOp0
 70
     1
102
RTVSPropertyOp1
 70
     1
102
RTVSPropertyOp2
 70
     1
102
RTVSPropertyOp3
 70
     1
102
RTVSPropertyOp4
 70
     1
102
RTVSPropertyOp5
 70
     1
102
RTVSPropertyOp6
 70
     1
102
RTVSPropertyOp7
 70
     1
102
RTVSPropertyOp8
 70
     1
102
RTVSPropertyOp9
 70
     1
102
RTVSPropertyOp10
 70
     1
102
RTVSPropertyOp11
 70
     1
102
RTVSPropertyOp12
 70
     1
102
RTVSPropertyOp13
 70
     1
102
RTVSPropertyOp14
 70
     1
102
RTVSPropertyOp15
 70
     1
102
RTVSPropertyOp16
 70
     1
102
RTVSPropertyOp17
 70
     1
102
RTVSPropertyOp18
 70
     1
102
RTVSPropertyOp19
 70
     1
102
RTVSPropertyOp20
 70
     1
102
RTVSPropertyOp21
 70
     1
102
RTVSPropertyOp22
 70
     1
102
RTVSPropertyOp23
 70
     1
102
RTVSPropertyOp24
 70
     1
102
RTVSPropertyOp25
 70
     1
102
RTVSPropertyOp26
 70
     1
102
RTVSPropertyOp27
 70
     1
102
RTVSPropertyOp28
 70
     1
102
RTVSPropertyOp29
 70
     1
102
RTVSPropertyOp30
 70
     1
102
RTVSPropertyOp31
 70
     1
102
RTVSPropertyOp32
 70
     1
102
RTVSPropertyOp33
 70
     1
102
RTVSPropertyOp34
 70
     1
102
RTVSPropertyOp35
 70
     1
102
RTVSPropertyOp36
 70
     1
102
RTVSPropertyOp37
 70
     1
102
RTVSPropertyOp38
 70
     1
102
RTVSPropertyOp39
 70
     1
102
RTVSPropertyOp40
 70
     1
102
RTVSPropertyOp41
 70
     1
102
RTVSPropertyOp42
 70
     1
102
RTVSPropertyOp43
 70
     1
102
RTVSPropertyOp44
 70
     1
102
RTVSPropertyOp45
 70
     1
102
RTVSPropertyOp46
 70
     1
102
RTVSPropertyOp47
 70
     1
102
RTVSPropertyOp48
 70
     1
102
RTVSPropertyOp49
 70
     1
102
RTVSPropertyOp50
 70
     1
102
RTVSPropertyOp51
 70
     0
102
RTVSPropertyOp52
 70
     0
102
RTVSPropertyOp53
 70
     1
102
RTVSPropertyOp54
 70
     1
102
RTVSPropertyOp55
 70
     1
102
RTVSPropertyOp56
 70
     1
102
RTVSPropertyOp57
 70
     1
102
RTVSPost2010Prop28
280
     0
102
RTVSPost2010PropOp28
 70
     1
102
RTVSPost2010Prop29
280
     1
102
RTVSPost2010PropOp29
 70
     1
102
RTVSPost2010Prop30
280
     1
102
RTVSPost2010PropOp30
 70
     1
102
RTVSPost2010Prop31
280
     0
102
RTVSPost2010PropOp31
 70
     1
102
RTVSPost2010Prop32
280
     0
102
RTVSPost2010PropOp32
 70
     1
102
RTVSPost2010Prop33
280
     0
102
RTVSPost2010PropOp33
 70
     1
102
RTVSPost2010Prop34
280
     0
102
RTVSPost2010PropOp34
 70
     1
102
RTVSPost2010Prop35
280
     0
102
RTVSPost2010PropOp35
 70
     1
102
RTVSPost2010Prop36
280
     0
102
RTVSPost2010PropOp36
 70
     1
102
RTVSPost2010Prop37
 90
       50
102
RTVSPost2010PropOp37
 70
     1
102
RTVSPost2010Prop38
140
0.0
102
RTVSPost2010PropOp38
 70
     1
102
RTVSPost2010Prop39
140
1.0
102
RTVSPost2010PropOp39
 70
     1
102
RTVSPost2010Prop40
 90
        0
102
RTVSPost2010PropOp40
 70
     1
102
RTVSPost2010Prop41ColorIndex
 90
       18
102
RTVSPost2010Prop41ColorRGB
 90
        0
102
RTVSPost2010PropOp41
 70
     1
102
RTVSPost2010Prop42
 90
       50
102
RTVSPost2010PropOp42
 70
     1
102
RTVSPost2010Prop43
 90
        3
102
RTVSPost2010PropOp43
 70
     1
102
RTVSPost2010Prop44ColorIndex
 90
        5
102
RTVSPost2010Prop44ColorRGB
 90
      255
102
RTVSPost2010PropOp44
 70
     1
102
RTVSPost2010Prop45
280
     0
102
RTVSPost2010PropOp45
 70
     1
102
RTVSPost2010Prop46
 90
       50
102
RTVSPost2010PropOp46
 70
     1
102
RTVSPost2010Prop47
 90
       50
102
RTVSPost2010PropOp47
 70
     1
102
RTVSPost2010Prop48
 90
       50
102
RTVSPost2010PropOp48
 70
     1
102
RTVSPost2010Prop49
280
     0
102
RTVSPost2010PropOp49
 70
     1
102
RTVSPost2010Prop50
 90
       50
102
RTVSPost2010PropOp50
 70
     1
102
RTVSPost2010Prop51ColorIndex
 90
      256
102
RTVSPost2010Prop51ColorRGB
 90
-16777216
102
RTVSPost2010PropOp51
 70
     0
102
RTVSPost2010Prop52
140
1.0
102
RTVSPost2010PropOp52
 70
     0
102
RTVSPost2010Prop53
 90
        2
102
RTVSPost2010PropOp53
 70
     1
102
RTVSPost2010Prop54
  1
strokes_ogs.tif
102
RTVSPost2010PropOp54
 70
     1
102
RTVSPost2010Prop55
280
     0
102
RTVSPost2010PropOp55
 70
     1
102
RTVSPost2010Prop56
140
1.0
102
RTVSPost2010PropOp56
 70
     1
102
RTVSPost2010Prop57
140
1.0
102
RTVSPost2010PropOp57
 70
     1
  0
XRECORD
  5
271
102
{ACAD_REACTORS
330
270
102
}
330
270
100
AcDbXrecord
280
     1
102
RTVSPropertyOp0
 70
     0
102
RTVSPropertyOp1
 70
     0
102
RTVSPropertyOp2
 70
     0
102
RTVSPropertyOp3
 70
     0
102
RTVSPropertyOp4
 70
     0
102
RTVSPropertyOp5
 70
     0
102
RTVSPropertyOp6
 70
     0
102
RTVSPropertyOp7
 70
     0
102
RTVSPropertyOp8
 70
     0
102
RTVSPropertyOp9
 70
     0
102
RTVSPropertyOp10
 70
     0
102
RTVSPropertyOp11
 70
     0
102
RTVSPropertyOp12
 70
     0
102
RTVSPropertyOp13
 70
     0
102
RTVSPropertyOp14
 70
     2
102
RTVSPropertyOp15
 70
     0
102
RTVSPropertyOp16
 70
     0
102
RTVSPropertyOp17
 70
     0
102
RTVSPropertyOp18
 70
     0
102
RTVSPropertyOp19
 70
     0
102
RTVSPropertyOp20
 70
     0
102
RTVSPropertyOp21
 70
     0
102
RTVSPropertyOp22
 70
     0
102
RTVSPropertyOp23
 70
     0
102
RTVSPropertyOp24
 70
     0
102
RTVSPropertyOp25
 70
     0
102
RTVSPropertyOp26
 70
     0
102
RTVSPropertyOp27
 70
     0
102
RTVSPropertyOp28
 70
     0
102
RTVSPropertyOp29
 70
     0
102
RTVSPropertyOp30
 70
     0
102
RTVSPropertyOp31
 70
     0
102
RTVSPropertyOp32
 70
     0
102
RTVSPropertyOp33
 70
     0
102
RTVSPropertyOp34
 70
     0
102
RTVSPropertyOp35
 70
     0
102
RTVSPropertyOp36
 70
     0
102
RTVSPropertyOp37
 70
     0
102
RTVSPropertyOp38
 70
     0
102
RTVSPropertyOp39
 70
     0
102
RTVSPropertyOp40
 70
     0
102
RTVSPropertyOp41
 70
     0
102
RTVSPropertyOp42
 70
     0
102
RTVSPropertyOp43
 70
     0
102
RTVSPropertyOp44
 70
     0
102
RTVSPropertyOp45
 70
     0
102
RTVSPropertyOp46
 70
     0
102
RTVSPropertyOp47
 70
     0
102
RTVSPropertyOp48
 70
     0
102
RTVSPropertyOp49
 70
     0
102
RTVSPropertyOp50
 70
     0
102
RTVSPropertyOp51
 70
     0
102
RTVSPropertyOp52
 70
     0
102
RTVSPropertyOp53
 70
     0
102
RTVSPropertyOp54
 70
     0
102
RTVSPropertyOp55
 70
     0
102
RTVSPropertyOp56
 70
     0
102
RTVSPropertyOp57
 70
     0
102
RTVSPost2010Prop28
280
     0
102
RTVSPost2010PropOp28
 70
     0
102
RTVSPost2010Prop29
280
     1
102
RTVSPost2010PropOp29
 70
     0
102
RTVSPost2010Prop30
280
     1
102
RTVSPost2010PropOp30
 70
     0
102
RTVSPost2010Prop31
280
     0
102
RTVSPost2010PropOp31
 70
     0
102
RTVSPost2010Prop32
280
     0
102
RTVSPost2010PropOp32
 70
     0
102
RTVSPost2010Prop33
280
     0
102
RTVSPost2010PropOp33
 70
     0
102
RTVSPost2010Prop34
280
     0
102
RTVSPost2010PropOp34
 70
     0
102
RTVSPost2010Prop35
280
     0
102
RTVSPost2010PropOp35
 70
     0
102
RTVSPost2010Prop36
280
     0
102
RTVSPost2010PropOp36
 70
     0
102
RTVSPost2010Prop37
 90
       50
102
RTVSPost2010PropOp37
 70
     0
102
RTVSPost2010Prop38
140
0.0
102
RTVSPost2010PropOp38
 70
     0
102
RTVSPost2010Prop39
140
1.0
102
RTVSPost2010PropOp39
 70
     0
102
RTVSPost2010Prop40
 90
        0
102
RTVSPost2010PropOp40
 70
     0
102
RTVSPost2010Prop41ColorIndex
 90
       18
102
RTVSPost2010Prop41ColorRGB
 90
        0
102
RTVSPost2010PropOp41
 70
     0
102
RTVSPost2010Prop42
 90
       50
102
RTVSPost2010PropOp42
 70
     0
102
RTVSPost2010Prop43
 90
        3
102
RTVSPost2010PropOp43
 70
     0
102
RTVSPost2010Prop44ColorIndex
 90
        5
102
RTVSPost2010Prop44ColorRGB
 90
      255
102
RTVSPost2010PropOp44
 70
     0
102
RTVSPost2010Prop45
280
     0
102
RTVSPost2010PropOp45
 70
     0
102
RTVSPost2010Prop46
 90
       50
102
RTVSPost2010PropOp46
 70
     0
102
RTVSPost2010Prop47
 90
       50
102
RTVSPost2010PropOp47
 70
     0
102
RTVSPost2010Prop48
 90
       50
102
RTVSPost2010PropOp48
 70
     0
102
RTVSPost2010Prop49
280
     0
102
RTVSPost2010PropOp49
 70
     0
102
RTVSPost2010Prop50
 90
       50
102
RTVSPost2010PropOp50
 70
     0
102
RTVSPost2010Prop51ColorIndex
 90
      256
102
RTVSPost2010Prop51ColorRGB
 90
-16777216
102
RTVSPost2010PropOp51
 70
     0
102
RTVSPost2010Prop52
140
1.0
102
RTVSPost2010PropOp52
 70
     0
102
RTVSPost2010Prop53
 90
        2
102
RTVSPost2010PropOp53
 70
     0
102
RTVSPost2010Prop54
  1
strokes_ogs.tif
102
RTVSPost2010PropOp54
 70
     0
102
RTVSPost2010Prop55
280
     0
102
RTVSPost2010PropOp55
 70
     0
102
RTVSPost2010Prop56
140
1.0
102
RTVSPost2010PropOp56
 70
     0
102
RTVSPost2010Prop57
140
1.0
102
RTVSPost2010PropOp57
 70
     0
  0
XRECORD
  5
26B
102
{ACAD_REACTORS
330
26A
102
}
330
26A
100
AcDbXrecord
280
     1
102
RTVSPropertyOp0
 70
     1
102
RTVSPropertyOp1
 70
     1
102
RTVSPropertyOp2
 70
     1
102
RTVSPropertyOp3
 70
     1
102
RTVSPropertyOp4
 70
     1
102
RTVSPropertyOp5
 70
     1
102
RTVSPropertyOp6
 70
     1
102
RTVSPropertyOp7
 70
     1
102
RTVSPropertyOp8
 70
     1
102
RTVSPropertyOp9
 70
     1
102
RTVSPropertyOp10
 70
     1
102
RTVSPropertyOp11
 70
     1
102
RTVSPropertyOp12
 70
     1
102
RTVSPropertyOp13
 70
     1
102
RTVSPropertyOp14
 70
     1
102
RTVSPropertyOp15
 70
     1
102
RTVSPropertyOp16
 70
     1
102
RTVSPropertyOp17
 70
     1
102
RTVSPropertyOp18
 70
     1
102
RTVSPropertyOp19
 70
     1
102
RTVSPropertyOp20
 70
     1
102
RTVSPropertyOp21
 70
     1
102
RTVSPropertyOp22
 70
     1
102
RTVSPropertyOp23
 70
     1
102
RTVSPropertyOp24
 70
     1
102
RTVSPropertyOp25
 70
     1
102
RTVSPropertyOp26
 70
     1
102
RTVSPropertyOp27
 70
     1
102
RTVSPropertyOp28
 70
     1
102
RTVSPropertyOp29
 70
     1
102
RTVSPropertyOp30
 70
     1
102
RTVSPropertyOp31
 70
     1
102
RTVSPropertyOp32
 70
     1
102
RTVSPropertyOp33
 70
     1
102
RTVSPropertyOp34
 70
     1
102
RTVSPropertyOp35
 70
     1
102
RTVSPropertyOp36
 70
     1
102
RTVSPropertyOp37
 70
     1
102
RTVSPropertyOp38
 70
     1
102
RTVSPropertyOp39
 70
     1
102
RTVSPropertyOp40
 70
     1
102
RTVSPropertyOp41
 70
     1
102
RTVSPropertyOp42
 70
     1
102
RTVSPropertyOp43
 70
     1
102
RTVSPropertyOp44
 70
     1
102
RTVSPropertyOp45
 70
     1
102
RTVSPropertyOp46
 70
     1
102
RTVSPropertyOp47
 70
     1
102
RTVSPropertyOp48
 70
     1
102
RTVSPropertyOp49
 70
     1
102
RTVSPropertyOp50
 70
     1
102
RTVSPropertyOp51
 70
     0
102
RTVSPropertyOp52
 70
     0
102
RTVSPropertyOp53
 70
     1
102
RTVSPropertyOp54
 70
     1
102
RTVSPropertyOp55
 70
     1
102
RTVSPropertyOp56
 70
     1
102
RTVSPropertyOp57
 70
     1
102
RTVSPost2010Prop28
280
     0
102
RTVSPost2010PropOp28
 70
     1
102
RTVSPost2010Prop29
280
     1
102
RTVSPost2010PropOp29
 70
     1
102
RTVSPost2010Prop30
280
     1
102
RTVSPost2010PropOp30
 70
     1
102
RTVSPost2010Prop31
280
     0
102
RTVSPost2010PropOp31
 70
     1
102
RTVSPost2010Prop32
280
     0
102
RTVSPost2010PropOp32
 70
     1
102
RTVSPost2010Prop33
280
     0
102
RTVSPost2010PropOp33
 70
     1
102
RTVSPost2010Prop34
280
     0
102
RTVSPost2010PropOp34
 70
     1
102
RTVSPost2010Prop35
280
     0
102
RTVSPost2010PropOp35
 70
     1
102
RTVSPost2010Prop36
280
     0
102
RTVSPost2010PropOp36
 70
     1
102
RTVSPost2010Prop37
 90
       50
102
RTVSPost2010PropOp37
 70
     1
102
RTVSPost2010Prop38
140
0.0
102
RTVSPost2010PropOp38
 70
     1
102
RTVSPost2010Prop39
140
1.0
102
RTVSPost2010PropOp39
 70
     1
102
RTVSPost2010Prop40
 90
        0
102
RTVSPost2010PropOp40
 70
     1
102
RTVSPost2010Prop41ColorIndex
 90
       18
102
RTVSPost2010Prop41ColorRGB
 90
        0
102
RTVSPost2010PropOp41
 70
     1
102
RTVSPost2010Prop42
 90
       50
102
RTVSPost2010PropOp42
 70
     1
102
RTVSPost2010Prop43
 90
        3
102
RTVSPost2010PropOp43
 70
     1
102
RTVSPost2010Prop44ColorIndex
 90
        5
102
RTVSPost2010Prop44ColorRGB
 90
      255
102
RTVSPost2010PropOp44
 70
     1
102
RTVSPost2010Prop45
280
     0
102
RTVSPost2010PropOp45
 70
     1
102
RTVSPost2010Prop46
 90
       50
102
RTVSPost2010PropOp46
 70
     1
102
RTVSPost2010Prop47
 90
       50
102
RTVSPost2010PropOp47
 70
     1
102
RTVSPost2010Prop48
 90
       50
102
RTVSPost2010PropOp48
 70
     1
102
RTVSPost2010Prop49
280
     0
102
RTVSPost2010PropOp49
 70
     1
102
RTVSPost2010Prop50
 90
       50
102
RTVSPost2010PropOp50
 70
     1
102
RTVSPost2010Prop51ColorIndex
 90
      256
102
RTVSPost2010Prop51ColorRGB
 90
-16777216
102
RTVSPost2010PropOp51
 70
     0
102
RTVSPost2010Prop52
140
1.0
102
RTVSPost2010PropOp52
 70
     0
102
RTVSPost2010Prop53
 90
        2
102
RTVSPost2010PropOp53
 70
     1
102
RTVSPost2010Prop54
  1
strokes_ogs.tif
102
RTVSPost2010PropOp54
 70
     1
102
RTVSPost2010Prop55
280
     0
102
RTVSPost2010PropOp55
 70
     1
102
RTVSPost2010Prop56
140
1.0
102
RTVSPost2010PropOp56
 70
     1
102
RTVSPost2010Prop57
140
1.0
102
RTVSPost2010PropOp57
 70
     1
  0
XRECORD
  5
273
102
{ACAD_REACTORS
330
272
102
}
330
272
100
AcDbXrecord
280
     1
102
RTVSPropertyOp0
 70
     0
102
RTVSPropertyOp1
 70
     0
102
RTVSPropertyOp2
 70
     0
102
RTVSPropertyOp3
 70
     0
102
RTVSPropertyOp4
 70
     0
102
RTVSPropertyOp5
 70
     0
102
RTVSPropertyOp6
 70
     0
102
RTVSPropertyOp7
 70
     0
102
RTVSPropertyOp8
 70
     0
102
RTVSPropertyOp9
 70
     0
102
RTVSPropertyOp10
 70
     0
102
RTVSPropertyOp11
 70
     0
102
RTVSPropertyOp12
 70
     0
102
RTVSPropertyOp13
 70
     0
102
RTVSPropertyOp14
 70
     2
102
RTVSPropertyOp15
 70
     0
102
RTVSPropertyOp16
 70
     0
102
RTVSPropertyOp17
 70
     0
102
RTVSPropertyOp18
 70
     0
102
RTVSPropertyOp19
 70
     0
102
RTVSPropertyOp20
 70
     0
102
RTVSPropertyOp21
 70
     0
102
RTVSPropertyOp22
 70
     0
102
RTVSPropertyOp23
 70
     0
102
RTVSPropertyOp24
 70
     0
102
RTVSPropertyOp25
 70
     0
102
RTVSPropertyOp26
 70
     0
102
RTVSPropertyOp27
 70
     0
102
RTVSPropertyOp28
 70
     0
102
RTVSPropertyOp29
 70
     0
102
RTVSPropertyOp30
 70
     0
102
RTVSPropertyOp31
 70
     0
102
RTVSPropertyOp32
 70
     0
102
RTVSPropertyOp33
 70
     0
102
RTVSPropertyOp34
 70
     0
102
RTVSPropertyOp35
 70
     0
102
RTVSPropertyOp36
 70
     0
102
RTVSPropertyOp37
 70
     0
102
RTVSPropertyOp38
 70
     0
102
RTVSPropertyOp39
 70
     0
102
RTVSPropertyOp40
 70
     0
102
RTVSPropertyOp41
 70
     0
102
RTVSPropertyOp42
 70
     0
102
RTVSPropertyOp43
 70
     0
102
RTVSPropertyOp44
 70
     0
102
RTVSPropertyOp45
 70
     0
102
RTVSPropertyOp46
 70
     0
102
RTVSPropertyOp47
 70
     0
102
RTVSPropertyOp48
 70
     0
102
RTVSPropertyOp49
 70
     0
102
RTVSPropertyOp50
 70
     0
102
RTVSPropertyOp51
 70
     0
102
RTVSPropertyOp52
 70
     0
102
RTVSPropertyOp53
 70
     0
102
RTVSPropertyOp54
 70
     0
102
RTVSPropertyOp55
 70
     0
102
RTVSPropertyOp56
 70
     0
102
RTVSPropertyOp57
 70
     0
102
RTVSPost2010Prop28
280
     0
102
RTVSPost2010PropOp28
 70
     0
102
RTVSPost2010Prop29
280
     1
102
RTVSPost2010PropOp29
 70
     0
102
RTVSPost2010Prop30
280
     1
102
RTVSPost2010PropOp30
 70
     0
102
RTVSPost2010Prop31
280
     0
102
RTVSPost2010PropOp31
 70
     0
102
RTVSPost2010Prop32
280
     0
102
RTVSPost2010PropOp32
 70
     0
102
RTVSPost2010Prop33
280
     0
102
RTVSPost2010PropOp33
 70
     0
102
RTVSPost2010Prop34
280
     0
102
RTVSPost2010PropOp34
 70
     0
102
RTVSPost2010Prop35
280
     0
102
RTVSPost2010PropOp35
 70
     0
102
RTVSPost2010Prop36
280
     0
102
RTVSPost2010PropOp36
 70
     0
102
RTVSPost2010Prop37
 90
       50
102
RTVSPost2010PropOp37
 70
     0
102
RTVSPost2010Prop38
140
0.0
102
RTVSPost2010PropOp38
 70
     0
102
RTVSPost2010Prop39
140
1.0
102
RTVSPost2010PropOp39
 70
     0
102
RTVSPost2010Prop40
 90
        0
102
RTVSPost2010PropOp40
 70
     0
102
RTVSPost2010Prop41ColorIndex
 90
       18
102
RTVSPost2010Prop41ColorRGB
 90
        0
102
RTVSPost2010PropOp41
 70
     0
102
RTVSPost2010Prop42
 90
       50
102
RTVSPost2010PropOp42
 70
     0
102
RTVSPost2010Prop43
 90
        3
102
RTVSPost2010PropOp43
 70
     0
102
RTVSPost2010Prop44ColorIndex
 90
        5
102
RTVSPost2010Prop44ColorRGB
 90
      255
102
RTVSPost2010PropOp44
 70
     0
102
RTVSPost2010Prop45
280
     0
102
RTVSPost2010PropOp45
 70
     0
102
RTVSPost2010Prop46
 90
       50
102
RTVSPost2010PropOp46
 70
     0
102
RTVSPost2010Prop47
 90
       50
102
RTVSPost2010PropOp47
 70
     0
102
RTVSPost2010Prop48
 90
       50
102
RTVSPost2010PropOp48
 70
     0
102
RTVSPost2010Prop49
280
     0
102
RTVSPost2010PropOp49
 70
     0
102
RTVSPost2010Prop50
 90
       50
102
RTVSPost2010PropOp50
 70
     0
102
RTVSPost2010Prop51ColorIndex
 90
      256
102
RTVSPost2010Prop51ColorRGB
 90
-16777216
102
RTVSPost2010PropOp51
 70
     0
102
RTVSPost2010Prop52
140
1.0
102
RTVSPost2010PropOp52
 70
     0
102
RTVSPost2010Prop53
 90
        2
102
RTVSPost2010PropOp53
 70
     0
102
RTVSPost2010Prop54
  1
strokes_ogs.tif
102
RTVSPost2010PropOp54
 70
     0
102
RTVSPost2010Prop55
280
     0
102
RTVSPost2010PropOp55
 70
     0
102
RTVSPost2010Prop56
140
1.0
102
RTVSPost2010PropOp56
 70
     0
102
RTVSPost2010Prop57
140
1.0
102
RTVSPost2010PropOp57
 70
     0
  0
XRECORD
  5
261
102
{ACAD_REACTORS
330
260
102
}
330
260
100
AcDbXrecord
280
     1
102
RTVSPropertyOp0
 70
     1
102
RTVSPropertyOp1
 70
     1
102
RTVSPropertyOp2
 70
     1
102
RTVSPropertyOp3
 70
     1
102
RTVSPropertyOp4
 70
     1
102
RTVSPropertyOp5
 70
     1
102
RTVSPropertyOp6
 70
     1
102
RTVSPropertyOp7
 70
     1
102
RTVSPropertyOp8
 70
     1
102
RTVSPropertyOp9
 70
     1
102
RTVSPropertyOp10
 70
     1
102
RTVSPropertyOp11
 70
     1
102
RTVSPropertyOp12
 70
     1
102
RTVSPropertyOp13
 70
     1
102
RTVSPropertyOp14
 70
     1
102
RTVSPropertyOp15
 70
     1
102
RTVSPropertyOp16
 70
     1
102
RTVSPropertyOp17
 70
     1
102
RTVSPropertyOp18
 70
     1
102
RTVSPropertyOp19
 70
     1
102
RTVSPropertyOp20
 70
     1
102
RTVSPropertyOp21
 70
     1
102
RTVSPropertyOp22
 70
     1
102
RTVSPropertyOp23
 70
     1
102
RTVSPropertyOp24
 70
     1
102
RTVSPropertyOp25
 70
     1
102
RTVSPropertyOp26
 70
     1
102
RTVSPropertyOp27
 70
     1
102
RTVSPropertyOp28
 70
     1
102
RTVSPropertyOp29
 70
     1
102
RTVSPropertyOp30
 70
     1
102
RTVSPropertyOp31
 70
     1
102
RTVSPropertyOp32
 70
     1
102
RTVSPropertyOp33
 70
     1
102
RTVSPropertyOp34
 70
     1
102
RTVSPropertyOp35
 70
     1
102
RTVSPropertyOp36
 70
     1
102
RTVSPropertyOp37
 70
     1
102
RTVSPropertyOp38
 70
     1
102
RTVSPropertyOp39
 70
     1
102
RTVSPropertyOp40
 70
     1
102
RTVSPropertyOp41
 70
     1
102
RTVSPropertyOp42
 70
     1
102
RTVSPropertyOp43
 70
     1
102
RTVSPropertyOp44
 70
     1
102
RTVSPropertyOp45
 70
     1
102
RTVSPropertyOp46
 70
     1
102
RTVSPropertyOp47
 70
     1
102
RTVSPropertyOp48
 70
     1
102
RTVSPropertyOp49
 70
     1
102
RTVSPropertyOp50
 70
     1
102
RTVSPropertyOp51
 70
     0
102
RTVSPropertyOp52
 70
     0
102
RTVSPropertyOp53
 70
     1
102
RTVSPropertyOp54
 70
     1
102
RTVSPropertyOp55
 70
     1
102
RTVSPropertyOp56
 70
     1
102
RTVSPropertyOp57
 70
     1
102
RTVSPost2010Prop28
280
     0
102
RTVSPost2010PropOp28
 70
     1
102
RTVSPost2010Prop29
280
     1
102
RTVSPost2010PropOp29
 70
     1
102
RTVSPost2010Prop30
280
     1
102
RTVSPost2010PropOp30
 70
     1
102
RTVSPost2010Prop31
280
     0
102
RTVSPost2010PropOp31
 70
     1
102
RTVSPost2010Prop32
280
     0
102
RTVSPost2010PropOp32
 70
     1
102
RTVSPost2010Prop33
280
     0
102
RTVSPost2010PropOp33
 70
     1
102
RTVSPost2010Prop34
280
     0
102
RTVSPost2010PropOp34
 70
     1
102
RTVSPost2010Prop35
280
     0
102
RTVSPost2010PropOp35
 70
     1
102
RTVSPost2010Prop36
280
     0
102
RTVSPost2010PropOp36
 70
     1
102
RTVSPost2010Prop37
 90
       50
102
RTVSPost2010PropOp37
 70
     1
102
RTVSPost2010Prop38
140
0.0
102
RTVSPost2010PropOp38
 70
     1
102
RTVSPost2010Prop39
140
1.0
102
RTVSPost2010PropOp39
 70
     1
102
RTVSPost2010Prop40
 90
        0
102
RTVSPost2010PropOp40
 70
     1
102
RTVSPost2010Prop41ColorIndex
 90
       18
102
RTVSPost2010Prop41ColorRGB
 90
        0
102
RTVSPost2010PropOp41
 70
     1
102
RTVSPost2010Prop42
 90
       50
102
RTVSPost2010PropOp42
 70
     1
102
RTVSPost2010Prop43
 90
        3
102
RTVSPost2010PropOp43
 70
     1
102
RTVSPost2010Prop44ColorIndex
 90
        5
102
RTVSPost2010Prop44ColorRGB
 90
      255
102
RTVSPost2010PropOp44
 70
     1
102
RTVSPost2010Prop45
280
     0
102
RTVSPost2010PropOp45
 70
     1
102
RTVSPost2010Prop46
 90
       50
102
RTVSPost2010PropOp46
 70
     1
102
RTVSPost2010Prop47
 90
       50
102
RTVSPost2010PropOp47
 70
     1
102
RTVSPost2010Prop48
 90
       50
102
RTVSPost2010PropOp48
 70
     1
102
RTVSPost2010Prop49
280
     0
102
RTVSPost2010PropOp49
 70
     1
102
RTVSPost2010Prop50
 90
       50
102
RTVSPost2010PropOp50
 70
     1
102
RTVSPost2010Prop51ColorIndex
 90
      256
102
RTVSPost2010Prop51ColorRGB
 90
-16777216
102
RTVSPost2010PropOp51
 70
     0
102
RTVSPost2010Prop52
140
1.0
102
RTVSPost2010PropOp52
 70
     0
102
RTVSPost2010Prop53
 90
        2
102
RTVSPost2010PropOp53
 70
     1
102
RTVSPost2010Prop54
  1
strokes_ogs.tif
102
RTVSPost2010PropOp54
 70
     1
102
RTVSPost2010Prop55
280
     0
102
RTVSPost2010PropOp55
 70
     1
102
RTVSPost2010Prop56
140
1.0
102
RTVSPost2010PropOp56
 70
     1
102
RTVSPost2010Prop57
140
1.0
102
RTVSPost2010PropOp57
 70
     1
  0
XRECORD
  5
27F
102
{ACAD_REACTORS
330
27E
102
}
330
27E
100
AcDbXrecord
280
     1
102
RTVSPropertyOp0
 70
     1
102
RTVSPropertyOp1
 70
     1
102
RTVSPropertyOp2
 70
     1
102
RTVSPropertyOp3
 70
     1
102
RTVSPropertyOp4
 70
     1
102
RTVSPropertyOp5
 70
     1
102
RTVSPropertyOp6
 70
     1
102
RTVSPropertyOp7
 70
     1
102
RTVSPropertyOp8
 70
     1
102
RTVSPropertyOp9
 70
     1
102
RTVSPropertyOp10
 70
     1
102
RTVSPropertyOp11
 70
     1
102
RTVSPropertyOp12
 70
     1
102
RTVSPropertyOp13
 70
     1
102
RTVSPropertyOp14
 70
     1
102
RTVSPropertyOp15
 70
     1
102
RTVSPropertyOp16
 70
     1
102
RTVSPropertyOp17
 70
     1
102
RTVSPropertyOp18
 70
     1
102
RTVSPropertyOp19
 70
     1
102
RTVSPropertyOp20
 70
     1
102
RTVSPropertyOp21
 70
     1
102
RTVSPropertyOp22
 70
     1
102
RTVSPropertyOp23
 70
     1
102
RTVSPropertyOp24
 70
     1
102
RTVSPropertyOp25
 70
     1
102
RTVSPropertyOp26
 70
     1
102
RTVSPropertyOp27
 70
     1
102
RTVSPropertyOp28
 70
     1
102
RTVSPropertyOp29
 70
     1
102
RTVSPropertyOp30
 70
     1
102
RTVSPropertyOp31
 70
     1
102
RTVSPropertyOp32
 70
     1
102
RTVSPropertyOp33
 70
     1
102
RTVSPropertyOp34
 70
     1
102
RTVSPropertyOp35
 70
     1
102
RTVSPropertyOp36
 70
     1
102
RTVSPropertyOp37
 70
     1
102
RTVSPropertyOp38
 70
     1
102
RTVSPropertyOp39
 70
     1
102
RTVSPropertyOp40
 70
     1
102
RTVSPropertyOp41
 70
     1
102
RTVSPropertyOp42
 70
     1
102
RTVSPropertyOp43
 70
     1
102
RTVSPropertyOp44
 70
     1
102
RTVSPropertyOp45
 70
     1
102
RTVSPropertyOp46
 70
     1
102
RTVSPropertyOp47
 70
     1
102
RTVSPropertyOp48
 70
     1
102
RTVSPropertyOp49
 70
     1
102
RTVSPropertyOp50
 70
     1
102
RTVSPropertyOp51
 70
     0
102
RTVSPropertyOp52
 70
     0
102
RTVSPropertyOp53
 70
     1
102
RTVSPropertyOp54
 70
     1
102
RTVSPropertyOp55
 70
     1
102
RTVSPropertyOp56
 70
     1
102
RTVSPropertyOp57
 70
     1
102
RTVSPost2010Prop28
280
     0
102
RTVSPost2010PropOp28
 70
     1
102
RTVSPost2010Prop29
280
     1
102
RTVSPost2010PropOp29
 70
     1
102
RTVSPost2010Prop30
280
     1
102
RTVSPost2010PropOp30
 70
     1
102
RTVSPost2010Prop31
280
     0
102
RTVSPost2010PropOp31
 70
     1
102
RTVSPost2010Prop32
280
     0
102
RTVSPost2010PropOp32
 70
     1
102
RTVSPost2010Prop33
280
     0
102
RTVSPost2010PropOp33
 70
     1
102
RTVSPost2010Prop34
280
     0
102
RTVSPost2010PropOp34
 70
     1
102
RTVSPost2010Prop35
280
     0
102
RTVSPost2010PropOp35
 70
     1
102
RTVSPost2010Prop36
280
     0
102
RTVSPost2010PropOp36
 70
     1
102
RTVSPost2010Prop37
 90
       50
102
RTVSPost2010PropOp37
 70
     1
102
RTVSPost2010Prop38
140
0.0
102
RTVSPost2010PropOp38
 70
     1
102
RTVSPost2010Prop39
140
1.0
102
RTVSPost2010PropOp39
 70
     1
102
RTVSPost2010Prop40
 90
        0
102
RTVSPost2010PropOp40
 70
     1
102
RTVSPost2010Prop41ColorIndex
 90
       18
102
RTVSPost2010Prop41ColorRGB
 90
        0
102
RTVSPost2010PropOp41
 70
     1
102
RTVSPost2010Prop42
 90
       50
102
RTVSPost2010PropOp42
 70
     1
102
RTVSPost2010Prop43
 90
        3
102
RTVSPost2010PropOp43
 70
     1
102
RTVSPost2010Prop44ColorIndex
 90
        5
102
RTVSPost2010Prop44ColorRGB
 90
      255
102
RTVSPost2010PropOp44
 70
     1
102
RTVSPost2010Prop45
280
     0
102
RTVSPost2010PropOp45
 70
     1
102
RTVSPost2010Prop46
 90
       50
102
RTVSPost2010PropOp46
 70
     1
102
RTVSPost2010Prop47
 90
       50
102
RTVSPost2010PropOp47
 70
     1
102
RTVSPost2010Prop48
 90
       50
102
RTVSPost2010PropOp48
 70
     1
102
RTVSPost2010Prop49
280
     0
102
RTVSPost2010PropOp49
 70
     1
102
RTVSPost2010Prop50
 90
       50
102
RTVSPost2010PropOp50
 70
     1
102
RTVSPost2010Prop51ColorIndex
 90
      256
102
RTVSPost2010Prop51ColorRGB
 90
-16777216
102
RTVSPost2010PropOp51
 70
     0
102
RTVSPost2010Prop52
140
1.0
102
RTVSPost2010PropOp52
 70
     0
102
RTVSPost2010Prop53
 90
        2
102
RTVSPost2010PropOp53
 70
     1
102
RTVSPost2010Prop54
  1
strokes_ogs.tif
102
RTVSPost2010PropOp54
 70
     1
102
RTVSPost2010Prop55
280
     0
102
RTVSPost2010PropOp55
 70
     1
102
RTVSPost2010Prop56
140
1.0
102
RTVSPost2010PropOp56
 70
     1
102
RTVSPost2010Prop57
140
1.0
102
RTVSPost2010PropOp57
 70
     1
  0
XRECORD
  5
27D
102
{ACAD_REACTORS
330
27C
102
}
330
27C
100
AcDbXrecord
280
     1
102
RTVSPropertyOp0
 70
     1
102
RTVSPropertyOp1
 70
     1
102
RTVSPropertyOp2
 70
     1
102
RTVSPropertyOp3
 70
     1
102
RTVSPropertyOp4
 70
     1
102
RTVSPropertyOp5
 70
     1
102
RTVSPropertyOp6
 70
     1
102
RTVSPropertyOp7
 70
     1
102
RTVSPropertyOp8
 70
     1
102
RTVSPropertyOp9
 70
     1
102
RTVSPropertyOp10
 70
     1
102
RTVSPropertyOp11
 70
     1
102
RTVSPropertyOp12
 70
     1
102
RTVSPropertyOp13
 70
     1
102
RTVSPropertyOp14
 70
     1
102
RTVSPropertyOp15
 70
     1
102
RTVSPropertyOp16
 70
     1
102
RTVSPropertyOp17
 70
     1
102
RTVSPropertyOp18
 70
     1
102
RTVSPropertyOp19
 70
     1
102
RTVSPropertyOp20
 70
     1
102
RTVSPropertyOp21
 70
     1
102
RTVSPropertyOp22
 70
     1
102
RTVSPropertyOp23
 70
     1
102
RTVSPropertyOp24
 70
     1
102
RTVSPropertyOp25
 70
     1
102
RTVSPropertyOp26
 70
     1
102
RTVSPropertyOp27
 70
     1
102
RTVSPropertyOp28
 70
     1
102
RTVSPropertyOp29
 70
     1
102
RTVSPropertyOp30
 70
     1
102
RTVSPropertyOp31
 70
     1
102
RTVSPropertyOp32
 70
     1
102
RTVSPropertyOp33
 70
     1
102
RTVSPropertyOp34
 70
     1
102
RTVSPropertyOp35
 70
     1
102
RTVSPropertyOp36
 70
     1
102
RTVSPropertyOp37
 70
     1
102
RTVSPropertyOp38
 70
     1
102
RTVSPropertyOp39
 70
     1
102
RTVSPropertyOp40
 70
     1
102
RTVSPropertyOp41
 70
     1
102
RTVSPropertyOp42
 70
     1
102
RTVSPropertyOp43
 70
     1
102
RTVSPropertyOp44
 70
     1
102
RTVSPropertyOp45
 70
     1
102
RTVSPropertyOp46
 70
     1
102
RTVSPropertyOp47
 70
     1
102
RTVSPropertyOp48
 70
     1
102
RTVSPropertyOp49
 70
     1
102
RTVSPropertyOp50
 70
     1
102
RTVSPropertyOp51
 70
     0
102
RTVSPropertyOp52
 70
     0
102
RTVSPropertyOp53
 70
     1
102
RTVSPropertyOp54
 70
     1
102
RTVSPropertyOp55
 70
     1
102
RTVSPropertyOp56
 70
     1
102
RTVSPropertyOp57
 70
     1
102
RTVSPost2010Prop28
280
     0
102
RTVSPost2010PropOp28
 70
     1
102
RTVSPost2010Prop29
280
     1
102
RTVSPost2010PropOp29
 70
     1
102
RTVSPost2010Prop30
280
     1
102
RTVSPost2010PropOp30
 70
     1
102
RTVSPost2010Prop31
280
     0
102
RTVSPost2010PropOp31
 70
     1
102
RTVSPost2010Prop32
280
     0
102
RTVSPost2010PropOp32
 70
     1
102
RTVSPost2010Prop33
280
     0
102
RTVSPost2010PropOp33
 70
     1
102
RTVSPost2010Prop34
280
     0
102
RTVSPost2010PropOp34
 70
     1
102
RTVSPost2010Prop35
280
     0
102
RTVSPost2010PropOp35
 70
     1
102
RTVSPost2010Prop36
280
     0
102
RTVSPost2010PropOp36
 70
     1
102
RTVSPost2010Prop37
 90
       50
102
RTVSPost2010PropOp37
 70
     1
102
RTVSPost2010Prop38
140
0.0
102
RTVSPost2010PropOp38
 70
     1
102
RTVSPost2010Prop39
140
1.0
102
RTVSPost2010PropOp39
 70
     1
102
RTVSPost2010Prop40
 90
        0
102
RTVSPost2010PropOp40
 70
     1
102
RTVSPost2010Prop41ColorIndex
 90
       18
102
RTVSPost2010Prop41ColorRGB
 90
        0
102
RTVSPost2010PropOp41
 70
     1
102
RTVSPost2010Prop42
 90
       50
102
RTVSPost2010PropOp42
 70
     1
102
RTVSPost2010Prop43
 90
        3
102
RTVSPost2010PropOp43
 70
     1
102
RTVSPost2010Prop44ColorIndex
 90
        5
102
RTVSPost2010Prop44ColorRGB
 90
      255
102
RTVSPost2010PropOp44
 70
     1
102
RTVSPost2010Prop45
280
     0
102
RTVSPost2010PropOp45
 70
     1
102
RTVSPost2010Prop46
 90
       50
102
RTVSPost2010PropOp46
 70
     1
102
RTVSPost2010Prop47
 90
       50
102
RTVSPost2010PropOp47
 70
     1
102
RTVSPost2010Prop48
 90
       50
102
RTVSPost2010PropOp48
 70
     1
102
RTVSPost2010Prop49
280
     0
102
RTVSPost2010PropOp49
 70
     1
102
RTVSPost2010Prop50
 90
       50
102
RTVSPost2010PropOp50
 70
     1
102
RTVSPost2010Prop51ColorIndex
 90
      256
102
RTVSPost2010Prop51ColorRGB
 90
-16777216
102
RTVSPost2010PropOp51
 70
     0
102
RTVSPost2010Prop52
140
1.0
102
RTVSPost2010PropOp52
 70
     0
102
RTVSPost2010Prop53
 90
        2
102
RTVSPost2010PropOp53
 70
     1
102
RTVSPost2010Prop54
  1
strokes_ogs.tif
102
RTVSPost2010PropOp54
 70
     1
102
RTVSPost2010Prop55
280
     0
102
RTVSPost2010PropOp55
 70
     1
102
RTVSPost2010Prop56
140
1.0
102
RTVSPost2010PropOp56
 70
     1
102
RTVSPost2010Prop57
140
1.0
102
RTVSPost2010PropOp57
 70
     1
  0
XRECORD
  5
277
102
{ACAD_REACTORS
330
276
102
}
330
276
100
AcDbXrecord
280
     1
102
RTVSPropertyOp0
 70
     1
102
RTVSPropertyOp1
 70
     1
102
RTVSPropertyOp2
 70
     1
102
RTVSPropertyOp3
 70
     1
102
RTVSPropertyOp4
 70
     1
102
RTVSPropertyOp5
 70
     1
102
RTVSPropertyOp6
 70
     1
102
RTVSPropertyOp7
 70
     1
102
RTVSPropertyOp8
 70
     1
102
RTVSPropertyOp9
 70
     1
102
RTVSPropertyOp10
 70
     1
102
RTVSPropertyOp11
 70
     1
102
RTVSPropertyOp12
 70
     1
102
RTVSPropertyOp13
 70
     1
102
RTVSPropertyOp14
 70
     1
102
RTVSPropertyOp15
 70
     1
102
RTVSPropertyOp16
 70
     1
102
RTVSPropertyOp17
 70
     1
102
RTVSPropertyOp18
 70
     1
102
RTVSPropertyOp19
 70
     1
102
RTVSPropertyOp20
 70
     1
102
RTVSPropertyOp21
 70
     1
102
RTVSPropertyOp22
 70
     1
102
RTVSPropertyOp23
 70
     1
102
RTVSPropertyOp24
 70
     1
102
RTVSPropertyOp25
 70
     1
102
RTVSPropertyOp26
 70
     1
102
RTVSPropertyOp27
 70
     1
102
RTVSPropertyOp28
 70
     1
102
RTVSPropertyOp29
 70
     1
102
RTVSPropertyOp30
 70
     1
102
RTVSPropertyOp31
 70
     1
102
RTVSPropertyOp32
 70
     1
102
RTVSPropertyOp33
 70
     1
102
RTVSPropertyOp34
 70
     1
102
RTVSPropertyOp35
 70
     1
102
RTVSPropertyOp36
 70
     1
102
RTVSPropertyOp37
 70
     1
102
RTVSPropertyOp38
 70
     1
102
RTVSPropertyOp39
 70
     1
102
RTVSPropertyOp40
 70
     1
102
RTVSPropertyOp41
 70
     1
102
RTVSPropertyOp42
 70
     1
102
RTVSPropertyOp43
 70
     1
102
RTVSPropertyOp44
 70
     1
102
RTVSPropertyOp45
 70
     1
102
RTVSPropertyOp46
 70
     1
102
RTVSPropertyOp47
 70
     1
102
RTVSPropertyOp48
 70
     1
102
RTVSPropertyOp49
 70
     1
102
RTVSPropertyOp50
 70
     1
102
RTVSPropertyOp51
 70
     0
102
RTVSPropertyOp52
 70
     0
102
RTVSPropertyOp53
 70
     1
102
RTVSPropertyOp54
 70
     1
102
RTVSPropertyOp55
 70
     1
102
RTVSPropertyOp56
 70
     1
102
RTVSPropertyOp57
 70
     1
102
RTVSPost2010Prop28
280
     0
102
RTVSPost2010PropOp28
 70
     1
102
RTVSPost2010Prop29
280
     1
102
RTVSPost2010PropOp29
 70
     1
102
RTVSPost2010Prop30
280
     1
102
RTVSPost2010PropOp30
 70
     1
102
RTVSPost2010Prop31
280
     0
102
RTVSPost2010PropOp31
 70
     1
102
RTVSPost2010Prop32
280
     0
102
RTVSPost2010PropOp32
 70
     1
102
RTVSPost2010Prop33
280
     0
102
RTVSPost2010PropOp33
 70
     1
102
RTVSPost2010Prop34
280
     0
102
RTVSPost2010PropOp34
 70
     1
102
RTVSPost2010Prop35
280
     0
102
RTVSPost2010PropOp35
 70
     1
102
RTVSPost2010Prop36
280
     0
102
RTVSPost2010PropOp36
 70
     1
102
RTVSPost2010Prop37
 90
       50
102
RTVSPost2010PropOp37
 70
     1
102
RTVSPost2010Prop38
140
0.0
102
RTVSPost2010PropOp38
 70
     1
102
RTVSPost2010Prop39
140
1.0
102
RTVSPost2010PropOp39
 70
     1
102
RTVSPost2010Prop40
 90
        0
102
RTVSPost2010PropOp40
 70
     1
102
RTVSPost2010Prop41ColorIndex
 90
       18
102
RTVSPost2010Prop41ColorRGB
 90
        0
102
RTVSPost2010PropOp41
 70
     1
102
RTVSPost2010Prop42
 90
       50
102
RTVSPost2010PropOp42
 70
     1
102
RTVSPost2010Prop43
 90
        3
102
RTVSPost2010PropOp43
 70
     1
102
RTVSPost2010Prop44ColorIndex
 90
        5
102
RTVSPost2010Prop44ColorRGB
 90
      255
102
RTVSPost2010PropOp44
 70
     1
102
RTVSPost2010Prop45
280
     0
102
RTVSPost2010PropOp45
 70
     1
102
RTVSPost2010Prop46
 90
       50
102
RTVSPost2010PropOp46
 70
     1
102
RTVSPost2010Prop47
 90
       50
102
RTVSPost2010PropOp47
 70
     1
102
RTVSPost2010Prop48
 90
       50
102
RTVSPost2010PropOp48
 70
     1
102
RTVSPost2010Prop49
280
     0
102
RTVSPost2010PropOp49
 70
     1
102
RTVSPost2010Prop50
 90
       50
102
RTVSPost2010PropOp50
 70
     1
102
RTVSPost2010Prop51ColorIndex
 90
      256
102
RTVSPost2010Prop51ColorRGB
 90
-16777216
102
RTVSPost2010PropOp51
 70
     0
102
RTVSPost2010Prop52
140
1.0
102
RTVSPost2010PropOp52
 70
     0
102
RTVSPost2010Prop53
 90
        2
102
RTVSPost2010PropOp53
 70
     1
102
RTVSPost2010Prop54
  1
strokes_ogs.tif
102
RTVSPost2010PropOp54
 70
     1
102
RTVSPost2010Prop55
280
     0
102
RTVSPost2010PropOp55
 70
     1
102
RTVSPost2010Prop56
140
1.0
102
RTVSPost2010PropOp56
 70
     1
102
RTVSPost2010Prop57
140
1.0
102
RTVSPost2010PropOp57
 70
     1
  0
XRECORD
  5
279
102
{ACAD_REACTORS
330
278
102
}
330
278
100
AcDbXrecord
280
     1
102
RTVSPropertyOp0
 70
     1
102
RTVSPropertyOp1
 70
     1
102
RTVSPropertyOp2
 70
     1
102
RTVSPropertyOp3
 70
     1
102
RTVSPropertyOp4
 70
     1
102
RTVSPropertyOp5
 70
     1
102
RTVSPropertyOp6
 70
     1
102
RTVSPropertyOp7
 70
     1
102
RTVSPropertyOp8
 70
     1
102
RTVSPropertyOp9
 70
     1
102
RTVSPropertyOp10
 70
     1
102
RTVSPropertyOp11
 70
     1
102
RTVSPropertyOp12
 70
     1
102
RTVSPropertyOp13
 70
     1
102
RTVSPropertyOp14
 70
     1
102
RTVSPropertyOp15
 70
     1
102
RTVSPropertyOp16
 70
     1
102
RTVSPropertyOp17
 70
     1
102
RTVSPropertyOp18
 70
     1
102
RTVSPropertyOp19
 70
     1
102
RTVSPropertyOp20
 70
     1
102
RTVSPropertyOp21
 70
     1
102
RTVSPropertyOp22
 70
     1
102
RTVSPropertyOp23
 70
     1
102
RTVSPropertyOp24
 70
     1
102
RTVSPropertyOp25
 70
     1
102
RTVSPropertyOp26
 70
     1
102
RTVSPropertyOp27
 70
     1
102
RTVSPropertyOp28
 70
     1
102
RTVSPropertyOp29
 70
     1
102
RTVSPropertyOp30
 70
     1
102
RTVSPropertyOp31
 70
     1
102
RTVSPropertyOp32
 70
     1
102
RTVSPropertyOp33
 70
     1
102
RTVSPropertyOp34
 70
     1
102
RTVSPropertyOp35
 70
     1
102
RTVSPropertyOp36
 70
     1
102
RTVSPropertyOp37
 70
     1
102
RTVSPropertyOp38
 70
     1
102
RTVSPropertyOp39
 70
     1
102
RTVSPropertyOp40
 70
     1
102
RTVSPropertyOp41
 70
     1
102
RTVSPropertyOp42
 70
     1
102
RTVSPropertyOp43
 70
     1
102
RTVSPropertyOp44
 70
     1
102
RTVSPropertyOp45
 70
     1
102
RTVSPropertyOp46
 70
     1
102
RTVSPropertyOp47
 70
     1
102
RTVSPropertyOp48
 70
     1
102
RTVSPropertyOp49
 70
     1
102
RTVSPropertyOp50
 70
     1
102
RTVSPropertyOp51
 70
     0
102
RTVSPropertyOp52
 70
     0
102
RTVSPropertyOp53
 70
     1
102
RTVSPropertyOp54
 70
     1
102
RTVSPropertyOp55
 70
     1
102
RTVSPropertyOp56
 70
     1
102
RTVSPropertyOp57
 70
     1
102
RTVSPost2010Prop28
280
     0
102
RTVSPost2010PropOp28
 70
     1
102
RTVSPost2010Prop29
280
     1
102
RTVSPost2010PropOp29
 70
     1
102
RTVSPost2010Prop30
280
     1
102
RTVSPost2010PropOp30
 70
     1
102
RTVSPost2010Prop31
280
     0
102
RTVSPost2010PropOp31
 70
     1
102
RTVSPost2010Prop32
280
     0
102
RTVSPost2010PropOp32
 70
     1
102
RTVSPost2010Prop33
280
     0
102
RTVSPost2010PropOp33
 70
     1
102
RTVSPost2010Prop34
280
     0
102
RTVSPost2010PropOp34
 70
     1
102
RTVSPost2010Prop35
280
     0
102
RTVSPost2010PropOp35
 70
     1
102
RTVSPost2010Prop36
280
     0
102
RTVSPost2010PropOp36
 70
     1
102
RTVSPost2010Prop37
 90
       50
102
RTVSPost2010PropOp37
 70
     1
102
RTVSPost2010Prop38
140
0.0
102
RTVSPost2010PropOp38
 70
     1
102
RTVSPost2010Prop39
140
1.0
102
RTVSPost2010PropOp39
 70
     1
102
RTVSPost2010Prop40
 90
        0
102
RTVSPost2010PropOp40
 70
     1
102
RTVSPost2010Prop41ColorIndex
 90
       18
102
RTVSPost2010Prop41ColorRGB
 90
        0
102
RTVSPost2010PropOp41
 70
     1
102
RTVSPost2010Prop42
 90
       50
102
RTVSPost2010PropOp42
 70
     1
102
RTVSPost2010Prop43
 90
        3
102
RTVSPost2010PropOp43
 70
     1
102
RTVSPost2010Prop44ColorIndex
 90
        5
102
RTVSPost2010Prop44ColorRGB
 90
      255
102
RTVSPost2010PropOp44
 70
     1
102
RTVSPost2010Prop45
280
     0
102
RTVSPost2010PropOp45
 70
     1
102
RTVSPost2010Prop46
 90
       50
102
RTVSPost2010PropOp46
 70
     1
102
RTVSPost2010Prop47
 90
       50
102
RTVSPost2010PropOp47
 70
     1
102
RTVSPost2010Prop48
 90
       50
102
RTVSPost2010PropOp48
 70
     1
102
RTVSPost2010Prop49
280
     0
102
RTVSPost2010PropOp49
 70
     1
102
RTVSPost2010Prop50
 90
       50
102
RTVSPost2010PropOp50
 70
     1
102
RTVSPost2010Prop51ColorIndex
 90
      256
102
RTVSPost2010Prop51ColorRGB
 90
-16777216
102
RTVSPost2010PropOp51
 70
     0
102
RTVSPost2010Prop52
140
1.0
102
RTVSPost2010PropOp52
 70
     0
102
RTVSPost2010Prop53
 90
        2
102
RTVSPost2010PropOp53
 70
     1
102
RTVSPost2010Prop54
  1
strokes_ogs.tif
102
RTVSPost2010PropOp54
 70
     1
102
RTVSPost2010Prop55
280
     0
102
RTVSPost2010PropOp55
 70
     1
102
RTVSPost2010Prop56
140
1.0
102
RTVSPost2010PropOp56
 70
     1
102
RTVSPost2010Prop57
140
1.0
102
RTVSPost2010PropOp57
 70
     1
  0
XRECORD
  5
269
102
{ACAD_REACTORS
330
268
102
}
330
268
100
AcDbXrecord
280
     1
102
RTVSPropertyOp0
 70
     1
102
RTVSPropertyOp1
 70
     1
102
RTVSPropertyOp2
 70
     1
102
RTVSPropertyOp3
 70
     1
102
RTVSPropertyOp4
 70
     1
102
RTVSPropertyOp5
 70
     1
102
RTVSPropertyOp6
 70
     1
102
RTVSPropertyOp7
 70
     1
102
RTVSPropertyOp8
 70
     1
102
RTVSPropertyOp9
 70
     1
102
RTVSPropertyOp10
 70
     1
102
RTVSPropertyOp11
 70
     1
102
RTVSPropertyOp12
 70
     1
102
RTVSPropertyOp13
 70
     1
102
RTVSPropertyOp14
 70
     1
102
RTVSPropertyOp15
 70
     1
102
RTVSPropertyOp16
 70
     1
102
RTVSPropertyOp17
 70
     1
102
RTVSPropertyOp18
 70
     1
102
RTVSPropertyOp19
 70
     1
102
RTVSPropertyOp20
 70
     1
102
RTVSPropertyOp21
 70
     1
102
RTVSPropertyOp22
 70
     1
102
RTVSPropertyOp23
 70
     1
102
RTVSPropertyOp24
 70
     1
102
RTVSPropertyOp25
 70
     1
102
RTVSPropertyOp26
 70
     1
102
RTVSPropertyOp27
 70
     1
102
RTVSPropertyOp28
 70
     1
102
RTVSPropertyOp29
 70
     1
102
RTVSPropertyOp30
 70
     1
102
RTVSPropertyOp31
 70
     1
102
RTVSPropertyOp32
 70
     1
102
RTVSPropertyOp33
 70
     1
102
RTVSPropertyOp34
 70
     1
102
RTVSPropertyOp35
 70
     1
102
RTVSPropertyOp36
 70
     1
102
RTVSPropertyOp37
 70
     1
102
RTVSPropertyOp38
 70
     1
102
RTVSPropertyOp39
 70
     1
102
RTVSPropertyOp40
 70
     1
102
RTVSPropertyOp41
 70
     1
102
RTVSPropertyOp42
 70
     1
102
RTVSPropertyOp43
 70
     1
102
RTVSPropertyOp44
 70
     1
102
RTVSPropertyOp45
 70
     1
102
RTVSPropertyOp46
 70
     1
102
RTVSPropertyOp47
 70
     1
102
RTVSPropertyOp48
 70
     1
102
RTVSPropertyOp49
 70
     1
102
RTVSPropertyOp50
 70
     1
102
RTVSPropertyOp51
 70
     0
102
RTVSPropertyOp52
 70
     0
102
RTVSPropertyOp53
 70
     1
102
RTVSPropertyOp54
 70
     1
102
RTVSPropertyOp55
 70
     1
102
RTVSPropertyOp56
 70
     1
102
RTVSPropertyOp57
 70
     1
102
RTVSPost2010Prop28
280
     0
102
RTVSPost2010PropOp28
 70
     1
102
RTVSPost2010Prop29
280
     1
102
RTVSPost2010PropOp29
 70
     1
102
RTVSPost2010Prop30
280
     1
102
RTVSPost2010PropOp30
 70
     1
102
RTVSPost2010Prop31
280
     0
102
RTVSPost2010PropOp31
 70
     1
102
RTVSPost2010Prop32
280
     0
102
RTVSPost2010PropOp32
 70
     1
102
RTVSPost2010Prop33
280
     0
102
RTVSPost2010PropOp33
 70
     1
102
RTVSPost2010Prop34
280
     0
102
RTVSPost2010PropOp34
 70
     1
102
RTVSPost2010Prop35
280
     0
102
RTVSPost2010PropOp35
 70
     1
102
RTVSPost2010Prop36
280
     0
102
RTVSPost2010PropOp36
 70
     1
102
RTVSPost2010Prop37
 90
       50
102
RTVSPost2010PropOp37
 70
     1
102
RTVSPost2010Prop38
140
0.0
102
RTVSPost2010PropOp38
 70
     1
102
RTVSPost2010Prop39
140
1.0
102
RTVSPost2010PropOp39
 70
     1
102
RTVSPost2010Prop40
 90
        0
102
RTVSPost2010PropOp40
 70
     1
102
RTVSPost2010Prop41ColorIndex
 90
       18
102
RTVSPost2010Prop41ColorRGB
 90
        0
102
RTVSPost2010PropOp41
 70
     1
102
RTVSPost2010Prop42
 90
       50
102
RTVSPost2010PropOp42
 70
     1
102
RTVSPost2010Prop43
 90
        3
102
RTVSPost2010PropOp43
 70
     1
102
RTVSPost2010Prop44ColorIndex
 90
        5
102
RTVSPost2010Prop44ColorRGB
 90
      255
102
RTVSPost2010PropOp44
 70
     1
102
RTVSPost2010Prop45
280
     0
102
RTVSPost2010PropOp45
 70
     1
102
RTVSPost2010Prop46
 90
       50
102
RTVSPost2010PropOp46
 70
     1
102
RTVSPost2010Prop47
 90
       50
102
RTVSPost2010PropOp47
 70
     1
102
RTVSPost2010Prop48
 90
       50
102
RTVSPost2010PropOp48
 70
     1
102
RTVSPost2010Prop49
280
     0
102
RTVSPost2010PropOp49
 70
     1
102
RTVSPost2010Prop50
 90
       50
102
RTVSPost2010PropOp50
 70
     1
102
RTVSPost2010Prop51ColorIndex
 90
      256
102
RTVSPost2010Prop51ColorRGB
 90
-16777216
102
RTVSPost2010PropOp51
 70
     0
102
RTVSPost2010Prop52
140
1.0
102
RTVSPost2010PropOp52
 70
     0
102
RTVSPost2010Prop53
 90
        2
102
RTVSPost2010PropOp53
 70
     1
102
RTVSPost2010Prop54
  1
strokes_ogs.tif
102
RTVSPost2010PropOp54
 70
     1
102
RTVSPost2010Prop55
280
     0
102
RTVSPost2010PropOp55
 70
     1
102
RTVSPost2010Prop56
140
1.0
102
RTVSPost2010PropOp56
 70
     1
102
RTVSPost2010Prop57
140
1.0
102
RTVSPost2010PropOp57
 70
     1
  0
XRECORD
  5
25B
102
{ACAD_REACTORS
330
25A
102
}
330
25A
100
AcDbXrecord
280
     1
102
RTVSPropertyOp0
 70
     1
102
RTVSPropertyOp1
 70
     1
102
RTVSPropertyOp2
 70
     1
102
RTVSPropertyOp3
 70
     1
102
RTVSPropertyOp4
 70
     1
102
RTVSPropertyOp5
 70
     1
102
RTVSPropertyOp6
 70
     1
102
RTVSPropertyOp7
 70
     1
102
RTVSPropertyOp8
 70
     1
102
RTVSPropertyOp9
 70
     1
102
RTVSPropertyOp10
 70
     1
102
RTVSPropertyOp11
 70
     1
102
RTVSPropertyOp12
 70
     1
102
RTVSPropertyOp13
 70
     1
102
RTVSPropertyOp14
 70
     1
102
RTVSPropertyOp15
 70
     1
102
RTVSPropertyOp16
 70
     1
102
RTVSPropertyOp17
 70
     1
102
RTVSPropertyOp18
 70
     1
102
RTVSPropertyOp19
 70
     1
102
RTVSPropertyOp20
 70
     1
102
RTVSPropertyOp21
 70
     1
102
RTVSPropertyOp22
 70
     1
102
RTVSPropertyOp23
 70
     1
102
RTVSPropertyOp24
 70
     1
102
RTVSPropertyOp25
 70
     1
102
RTVSPropertyOp26
 70
     1
102
RTVSPropertyOp27
 70
     1
102
RTVSPropertyOp28
 70
     1
102
RTVSPropertyOp29
 70
     1
102
RTVSPropertyOp30
 70
     1
102
RTVSPropertyOp31
 70
     1
102
RTVSPropertyOp32
 70
     1
102
RTVSPropertyOp33
 70
     1
102
RTVSPropertyOp34
 70
     1
102
RTVSPropertyOp35
 70
     1
102
RTVSPropertyOp36
 70
     1
102
RTVSPropertyOp37
 70
     1
102
RTVSPropertyOp38
 70
     1
102
RTVSPropertyOp39
 70
     1
102
RTVSPropertyOp40
 70
     1
102
RTVSPropertyOp41
 70
     1
102
RTVSPropertyOp42
 70
     1
102
RTVSPropertyOp43
 70
     1
102
RTVSPropertyOp44
 70
     1
102
RTVSPropertyOp45
 70
     1
102
RTVSPropertyOp46
 70
     1
102
RTVSPropertyOp47
 70
     1
102
RTVSPropertyOp48
 70
     1
102
RTVSPropertyOp49
 70
     1
102
RTVSPropertyOp50
 70
     1
102
RTVSPropertyOp51
 70
     0
102
RTVSPropertyOp52
 70
     0
102
RTVSPropertyOp53
 70
     1
102
RTVSPropertyOp54
 70
     1
102
RTVSPropertyOp55
 70
     1
102
RTVSPropertyOp56
 70
     1
102
RTVSPropertyOp57
 70
     1
102
RTVSPost2010Prop28
280
     0
102
RTVSPost2010PropOp28
 70
     1
102
RTVSPost2010Prop29
280
     1
102
RTVSPost2010PropOp29
 70
     1
102
RTVSPost2010Prop30
280
     1
102
RTVSPost2010PropOp30
 70
     1
102
RTVSPost2010Prop31
280
     0
102
RTVSPost2010PropOp31
 70
     1
102
RTVSPost2010Prop32
280
     0
102
RTVSPost2010PropOp32
 70
     1
102
RTVSPost2010Prop33
280
     0
102
RTVSPost2010PropOp33
 70
     1
102
RTVSPost2010Prop34
280
     0
102
RTVSPost2010PropOp34
 70
     1
102
RTVSPost2010Prop35
280
     0
102
RTVSPost2010PropOp35
 70
     1
102
RTVSPost2010Prop36
280
     0
102
RTVSPost2010PropOp36
 70
     1
102
RTVSPost2010Prop37
 90
       50
102
RTVSPost2010PropOp37
 70
     1
102
RTVSPost2010Prop38
140
0.0
102
RTVSPost2010PropOp38
 70
     1
102
RTVSPost2010Prop39
140
1.0
102
RTVSPost2010PropOp39
 70
     1
102
RTVSPost2010Prop40
 90
        0
102
RTVSPost2010PropOp40
 70
     1
102
RTVSPost2010Prop41ColorIndex
 90
       18
102
RTVSPost2010Prop41ColorRGB
 90
        0
102
RTVSPost2010PropOp41
 70
     1
102
RTVSPost2010Prop42
 90
       50
102
RTVSPost2010PropOp42
 70
     1
102
RTVSPost2010Prop43
 90
        3
102
RTVSPost2010PropOp43
 70
     1
102
RTVSPost2010Prop44ColorIndex
 90
        5
102
RTVSPost2010Prop44ColorRGB
 90
      255
102
RTVSPost2010PropOp44
 70
     1
102
RTVSPost2010Prop45
280
     0
102
RTVSPost2010PropOp45
 70
     1
102
RTVSPost2010Prop46
 90
       50
102
RTVSPost2010PropOp46
 70
     1
102
RTVSPost2010Prop47
 90
       50
102
RTVSPost2010PropOp47
 70
     1
102
RTVSPost2010Prop48
 90
       50
102
RTVSPost2010PropOp48
 70
     1
102
RTVSPost2010Prop49
280
     0
102
RTVSPost2010PropOp49
 70
     1
102
RTVSPost2010Prop50
 90
       50
102
RTVSPost2010PropOp50
 70
     1
102
RTVSPost2010Prop51ColorIndex
 90
      256
102
RTVSPost2010Prop51ColorRGB
 90
-16777216
102
RTVSPost2010PropOp51
 70
     0
102
RTVSPost2010Prop52
140
1.0
102
RTVSPost2010PropOp52
 70
     0
102
RTVSPost2010Prop53
 90
        2
102
RTVSPost2010PropOp53
 70
     1
102
RTVSPost2010Prop54
  1
strokes_ogs.tif
102
RTVSPost2010PropOp54
 70
     1
102
RTVSPost2010Prop55
280
     0
102
RTVSPost2010PropOp55
 70
     1
102
RTVSPost2010Prop56
140
1.0
102
RTVSPost2010PropOp56
 70
     1
102
RTVSPost2010Prop57
140
1.0
102
RTVSPost2010PropOp57
 70
     1
  0
XRECORD
  5
27B
102
{ACAD_REACTORS
330
27A
102
}
330
27A
100
AcDbXrecord
280
     1
102
RTVSPropertyOp0
 70
     1
102
RTVSPropertyOp1
 70
     1
102
RTVSPropertyOp2
 70
     1
102
RTVSPropertyOp3
 70
     1
102
RTVSPropertyOp4
 70
     1
102
RTVSPropertyOp5
 70
     1
102
RTVSPropertyOp6
 70
     1
102
RTVSPropertyOp7
 70
     1
102
RTVSPropertyOp8
 70
     1
102
RTVSPropertyOp9
 70
     1
102
RTVSPropertyOp10
 70
     1
102
RTVSPropertyOp11
 70
     1
102
RTVSPropertyOp12
 70
     1
102
RTVSPropertyOp13
 70
     1
102
RTVSPropertyOp14
 70
     1
102
RTVSPropertyOp15
 70
     1
102
RTVSPropertyOp16
 70
     1
102
RTVSPropertyOp17
 70
     1
102
RTVSPropertyOp18
 70
     1
102
RTVSPropertyOp19
 70
     1
102
RTVSPropertyOp20
 70
     1
102
RTVSPropertyOp21
 70
     1
102
RTVSPropertyOp22
 70
     1
102
RTVSPropertyOp23
 70
     1
102
RTVSPropertyOp24
 70
     1
102
RTVSPropertyOp25
 70
     1
102
RTVSPropertyOp26
 70
     1
102
RTVSPropertyOp27
 70
     1
102
RTVSPropertyOp28
 70
     1
102
RTVSPropertyOp29
 70
     1
102
RTVSPropertyOp30
 70
     1
102
RTVSPropertyOp31
 70
     1
102
RTVSPropertyOp32
 70
     1
102
RTVSPropertyOp33
 70
     1
102
RTVSPropertyOp34
 70
     1
102
RTVSPropertyOp35
 70
     1
102
RTVSPropertyOp36
 70
     1
102
RTVSPropertyOp37
 70
     1
102
RTVSPropertyOp38
 70
     1
102
RTVSPropertyOp39
 70
     1
102
RTVSPropertyOp40
 70
     1
102
RTVSPropertyOp41
 70
     1
102
RTVSPropertyOp42
 70
     1
102
RTVSPropertyOp43
 70
     1
102
RTVSPropertyOp44
 70
     1
102
RTVSPropertyOp45
 70
     1
102
RTVSPropertyOp46
 70
     1
102
RTVSPropertyOp47
 70
     1
102
RTVSPropertyOp48
 70
     1
102
RTVSPropertyOp49
 70
     1
102
RTVSPropertyOp50
 70
     1
102
RTVSPropertyOp51
 70
     0
102
RTVSPropertyOp52
 70
     0
102
RTVSPropertyOp53
 70
     1
102
RTVSPropertyOp54
 70
     1
102
RTVSPropertyOp55
 70
     1
102
RTVSPropertyOp56
 70
     1
102
RTVSPropertyOp57
 70
     1
102
RTVSPost2010Prop28
280
     0
102
RTVSPost2010PropOp28
 70
     1
102
RTVSPost2010Prop29
280
     1
102
RTVSPost2010PropOp29
 70
     1
102
RTVSPost2010Prop30
280
     1
102
RTVSPost2010PropOp30
 70
     1
102
RTVSPost2010Prop31
280
     0
102
RTVSPost2010PropOp31
 70
     1
102
RTVSPost2010Prop32
280
     0
102
RTVSPost2010PropOp32
 70
     1
102
RTVSPost2010Prop33
280
     0
102
RTVSPost2010PropOp33
 70
     1
102
RTVSPost2010Prop34
280
     0
102
RTVSPost2010PropOp34
 70
     1
102
RTVSPost2010Prop35
280
     0
102
RTVSPost2010PropOp35
 70
     1
102
RTVSPost2010Prop36
280
     0
102
RTVSPost2010PropOp36
 70
     1
102
RTVSPost2010Prop37
 90
       50
102
RTVSPost2010PropOp37
 70
     1
102
RTVSPost2010Prop38
140
0.0
102
RTVSPost2010PropOp38
 70
     1
102
RTVSPost2010Prop39
140
1.0
102
RTVSPost2010PropOp39
 70
     1
102
RTVSPost2010Prop40
 90
        0
102
RTVSPost2010PropOp40
 70
     1
102
RTVSPost2010Prop41ColorIndex
 90
       18
102
RTVSPost2010Prop41ColorRGB
 90
        0
102
RTVSPost2010PropOp41
 70
     1
102
RTVSPost2010Prop42
 90
       50
102
RTVSPost2010PropOp42
 70
     1
102
RTVSPost2010Prop43
 90
        3
102
RTVSPost2010PropOp43
 70
     1
102
RTVSPost2010Prop44ColorIndex
 90
        5
102
RTVSPost2010Prop44ColorRGB
 90
      255
102
RTVSPost2010PropOp44
 70
     1
102
RTVSPost2010Prop45
280
     0
102
RTVSPost2010PropOp45
 70
     1
102
RTVSPost2010Prop46
 90
       50
102
RTVSPost2010PropOp46
 70
     1
102
RTVSPost2010Prop47
 90
       50
102
RTVSPost2010PropOp47
 70
     1
102
RTVSPost2010Prop48
 90
       50
102
RTVSPost2010PropOp48
 70
     1
102
RTVSPost2010Prop49
280
     0
102
RTVSPost2010PropOp49
 70
     1
102
RTVSPost2010Prop50
 90
       50
102
RTVSPost2010PropOp50
 70
     1
102
RTVSPost2010Prop51ColorIndex
 90
      256
102
RTVSPost2010Prop51ColorRGB
 90
-16777216
102
RTVSPost2010PropOp51
 70
     0
102
RTVSPost2010Prop52
140
1.0
102
RTVSPost2010PropOp52
 70
     0
102
RTVSPost2010Prop53
 90
        2
102
RTVSPost2010PropOp53
 70
     1
102
RTVSPost2010Prop54
  1
strokes_ogs.tif
102
RTVSPost2010PropOp54
 70
     1
102
RTVSPost2010Prop55
280
     0
102
RTVSPost2010PropOp55
 70
     1
102
RTVSPost2010Prop56
140
1.0
102
RTVSPost2010PropOp56
 70
     1
102
RTVSPost2010Prop57
140
1.0
102
RTVSPost2010PropOp57
 70
     1
  0
ENDSEC
  0
EOF
