  0
SECTION
  2
HEADER
  9
$ACADVER
  1
AC1018
  9
$ACADMAINTVER
 70
     0
  9
$DWGCODEPAGE
  3
ANSI_932
  9
$INSBASE
 10
0.0
 20
0.0
 30
0.0
  9
$EXTMIN
 10
-2100.0
 20
-1485.0
 30
0.0
  9
$EXTMAX
 10
2100.0
 20
1485.0
 30
0.0
  9
$LIMMIN
 10
-2100.0
 20
-1485.0
  9
$LIMMAX
 10
2100.0
 20
1485.0
  9
$ORTHOMODE
 70
     0
  9
$REGENMODE
 70
     1
  9
$FILLMODE
 70
     1
  9
$QTEXTMODE
 70
     0
  9
$MIRRTEXT
 70
     1
  9
$LTSCALE
 40
10.0
  9
$ATTMODE
 70
     1
  9
$TEXTSIZE
 40
2.5
  9
$TRACEWID
 40
1.0
  9
$TEXTSTYLE
  7
Standard
  9
$CLAYER
  8
0
  9
$CELTYPE
  6
ByLayer
  9
$CECOLOR
 62
   256
  9
$CELTSCALE
 40
1.0
  9
$DISPSILH
 70
     0
  9
$DIMSCALE
 40
1.0
  9
$DIMASZ
 40
2.5
  9
$DIMEXO
 40
0.625
  9
$DIMDLI
 40
3.75
  9
$DIMRND
 40
0.0
  9
$DIMDLE
 40
0.0
  9
$DIMEXE
 40
1.25
  9
$DIMTP
 40
0.0
  9
$DIMTM
 40
0.0
  9
$DIMTXT
 40
2.5
  9
$DIMCEN
 40
2.5
  9
$DIMTSZ
 40
0.0
  9
$DIMTOL
 70
     0
  9
$DIMLIM
 70
     0
  9
$DIMTIH
 70
     0
  9
$DIMTOH
 70
     0
  9
$DIMSE1
 70
     0
  9
$DIMSE2
 70
     0
  9
$DIMTAD
 70
     1
  9
$DIMZIN
 70
     8
  9
$DIMBLK
  1

  9
$DIMASO
 70
     1
  9
$DIMSHO
 70
     1
  9
$DIMPOST
  1

  9
$DIMAPOST
  1

  9
$DIMALT
 70
     0
  9
$DIMALTD
 70
     3
  9
$DIMALTF
 40
0.03937007874016
  9
$DIMLFAC
 40
1.0
  9
$DIMTOFL
 70
     1
  9
$DIMTVP
 40
0.0
  9
$DIMTIX
 70
     0
  9
$DIMSOXD
 70
     0
  9
$DIMSAH
 70
     0
  9
$DIMBLK1
  1

  9
$DIMBLK2
  1

  9
$DIMSTYLE
  2
ISO-25
  9
$DIMCLRD
 70
     0
  9
$DIMCLRE
 70
     0
  9
$DIMCLRT
 70
     0
  9
$DIMTFAC
 40
1.0
  9
$DIMGAP
 40
0.625
  9
$DIMJUST
 70
     0
  9
$DIMSD1
 70
     0
  9
$DIMSD2
 70
     0
  9
$DIMTOLJ
 70
     0
  9
$DIMTZIN
 70
     8
  9
$DIMALTZ
 70
     0
  9
$DIMALTTZ
 70
     0
  9
$DIMUPT
 70
     0
  9
$DIMDEC
 70
     2
  9
$DIMTDEC
 70
     2
  9
$DIMALTU
 70
     2
  9
$DIMALTTD
 70
     3
  9
$DIMTXSTY
  7
Standard
  9
$DIMAUNIT
 70
     0
  9
$DIMADEC
 70
     0
  9
$DIMALTRND
 40
0.0
  9
$DIMAZIN
 70
     0
  9
$DIMDSEP
 70
    44
  9
$DIMATFIT
 70
     3
  9
$DIMFRAC
 70
     0
  9
$DIMLDRBLK
  1

  9
$DIMLUNIT
 70
     2
  9
$DIMLWD
 70
    -2
  9
$DIMLWE
 70
    -2
  9
$DIMTMOVE
 70
     0
  9
$LUNITS
 70
     2
  9
$LUPREC
 70
     4
  9
$SKETCHINC
 40
1.0
  9
$FILLETRAD
 40
10.0
  9
$AUNITS
 70
     0
  9
$AUPREC
 70
     0
  9
$MENU
  1
.
  9
$ELEVATION
 40
0.0
  9
$PELEVATION
 40
0.0
  9
$THICKNESS
 40
0.0
  9
$LIMCHECK
 70
     0
  9
$CHAMFERA
 40
10.0
  9
$CHAMFERB
 40
10.0
  9
$CHAMFERC
 40
20.0
  9
$CHAMFERD
 40
0.0
  9
$SKPOLY
 70
     0
  9
$TDCREATE
 40
2456498.825282662
  9
$TDUCREATE
 40
2456498.450282662
  9
$TDUPDATE
 40
2456498.825282674
  9
$TDUUPDATE
 40
2456498.450282674
  9
$TDINDWG
 40
0.0000000116
  9
$TDUSRTIMER
 40
0.0000000116
  9
$USRTIMER
 70
     1
  9
$ANGBASE
 50
0.0
  9
$ANGDIR
 70
     0
  9
$PDMODE
 70
     0
  9
$PDSIZE
 40
0.0
  9
$PLINEWID
 40
0.0
  9
$SPLFRAME
 70
     0
  9
$SPLINETYPE
 70
     6
  9
$SPLINESEGS
 70
     8
  9
$HANDSEED
  5
130
  9
$SURFTAB1
 70
     6
  9
$SURFTAB2
 70
     6
  9
$SURFTYPE
 70
     6
  9
$SURFU
 70
     6
  9
$SURFV
 70
     6
  9
$UCSBASE
  2

  9
$UCSNAME
  2

  9
$UCSORG
 10
0.0
 20
0.0
 30
0.0
  9
$UCSXDIR
 10
1.0
 20
0.0
 30
0.0
  9
$UCSYDIR
 10
0.0
 20
1.0
 30
0.0
  9
$UCSORTHOREF
  2

  9
$UCSORTHOVIEW
 70
     0
  9
$UCSORGTOP
 10
0.0
 20
0.0
 30
0.0
  9
$UCSORGBOTTOM
 10
0.0
 20
0.0
 30
0.0
  9
$UCSORGLEFT
 10
0.0
 20
0.0
 30
0.0
  9
$UCSORGRIGHT
 10
0.0
 20
0.0
 30
0.0
  9
$UCSORGFRONT
 10
0.0
 20
0.0
 30
0.0
  9
$UCSORGBACK
 10
0.0
 20
0.0
 30
0.0
  9
$PUCSBASE
  2

  9
$PUCSNAME
  2

  9
$PUCSORG
 10
0.0
 20
0.0
 30
0.0
  9
$PUCSXDIR
 10
1.0
 20
0.0
 30
0.0
  9
$PUCSYDIR
 10
0.0
 20
1.0
 30
0.0
  9
$PUCSORTHOREF
  2

  9
$PUCSORTHOVIEW
 70
     0
  9
$PUCSORGTOP
 10
0.0
 20
0.0
 30
0.0
  9
$PUCSORGBOTTOM
 10
0.0
 20
0.0
 30
0.0
  9
$PUCSORGLEFT
 10
0.0
 20
0.0
 30
0.0
  9
$PUCSORGRIGHT
 10
0.0
 20
0.0
 30
0.0
  9
$PUCSORGFRONT
 10
0.0
 20
0.0
 30
0.0
  9
$PUCSORGBACK
 10
0.0
 20
0.0
 30
0.0
  9
$USERI1
 70
     0
  9
$USERI2
 70
     0
  9
$USERI3
 70
     0
  9
$USERI4
 70
     0
  9
$USERI5
 70
     0
  9
$USERR1
 40
0.0
  9
$USERR2
 40
0.0
  9
$USERR3
 40
0.0
  9
$USERR4
 40
0.0
  9
$USERR5
 40
0.0
  9
$WORLDVIEW
 70
     1
  9
$SHADEDGE
 70
     3
  9
$SHADEDIF
 70
    70
  9
$TILEMODE
 70
     1
  9
$MAXACTVP
 70
    64
  9
$PINSBASE
 10
0.0
 20
0.0
 30
0.0
  9
$PLIMCHECK
 70
     0
  9
$PEXTMIN
 10
1.000000000000000E+20
 20
1.000000000000000E+20
 30
1.000000000000000E+20
  9
$PEXTMAX
 10
-1.000000000000000E+20
 20
-1.000000000000000E+20
 30
-1.000000000000000E+20
  9
$PLIMMIN
 10
0.0
 20
0.0
  9
$PLIMMAX
 10
420.0
 20
297.0
  9
$UNITMODE
 70
     0
  9
$VISRETAIN
 70
     1
  9
$PLINEGEN
 70
     0
  9
$PSLTSCALE
 70
     1
  9
$TREEDEPTH
 70
  3020
  9
$CMLSTYLE
  2
Standard
  9
$CMLJUST
 70
     0
  9
$CMLSCALE
 40
20.0
  9
$PROXYGRAPHICS
 70
     1
  9
$MEASUREMENT
 70
     1
  9
$CELWEIGHT
370
    -1
  9
$ENDCAPS
280
     0
  9
$JOINSTYLE
280
     0
  9
$LWDISPLAY
290
     0
  9
$INSUNITS
 70
     4
  9
$HYPERLINKBASE
  1

  9
$STYLESHEET
  1

  9
$XEDIT
290
     1
  9
$CEPSNTYPE
380
     0
  9
$PSTYLEMODE
290
     1
  9
$FINGERPRINTGUID
  2
{2FDABC69-421B-4732-A872-F53E187EC5FD}
  9
$VERSIONGUID
  2
{FAEB1C32-E019-11D5-929B-00C0DF256EC4}
  9
$EXTNAMES
290
     1
  9
$PSVPSCALE
 40
0.0
  9
$OLESTARTUP
290
     0
  9
$SORTENTS
280
   127
  9
$INDEXCTL
280
     0
  9
$HIDETEXT
280
     1
  9
$XCLIPFRAME
290
     0
  9
$HALOGAP
280
     0
  9
$OBSCOLOR
 70
   257
  9
$OBSLTYPE
280
     0
  9
$INTERSECTIONDISPLAY
280
     0
  9
$INTERSECTIONCOLOR
 70
   257
  9
$DIMASSOC
280
     2
  9
$PROJECTNAME
  1

  0
ENDSEC
  0
SECTION
  2
CLASSES
  0
CLASS
  1
ACDBDICTIONARYWDFLT
  2
AcDbDictionaryWithDefault
  3
ObjectDBX Classes
 90
        0
 91
        4
280
     0
281
     0
  0
CLASS
  1
VISUALSTYLE
  2
AcDbVisualStyle
  3
ObjectDBX Classes
 90
     4095
 91
        4
280
     0
281
     0
  0
ENDSEC
  0
SECTION
  2
TABLES
  0
TABLE
  2
VPORT
  5
8
330
0
100
AcDbSymbolTable
 70
     1
  0
VPORT
  5
29
330
8
100
AcDbSymbolTableRecord
100
AcDbViewportTableRecord
  2
*Active
 70
     0
 10
0.0
 20
0.0
 11
1.0
 21
1.0
 12
0.0
 22
0.0
 13
0.0
 23
0.0
 14
10.0
 24
10.0
 15
10.0
 25
10.0
 16
0.0
 26
0.0
 36
1.0
 17
0.0
 27
0.0
 37
0.0
 40
3267.0
 41
1.414141414141414
 42
50.0
 43
0.0
 44
0.0
 50
0.0
 51
0.0
 71
     0
 72
 10000
 73
     1
 74
     3
 75
     0
 76
     0
 77
     0
 78
     0
281
     0
 65
     1
110
0.0
120
0.0
130
0.0
111
1.0
121
0.0
131
0.0
112
0.0
122
1.0
132
0.0
 79
     0
146
0.0
  0
ENDTAB
  0
TABLE
  2
LTYPE
  5
5
330
0
100
AcDbSymbolTable
 70
     3
  0
LTYPE
  5
14
330
5
100
AcDbSymbolTableRecord
100
AcDbLinetypeTableRecord
  2
ByBlock
 70
     0
  3

 72
    65
 73
     0
 40
0.0
  0
LTYPE
  5
15
330
5
100
AcDbSymbolTableRecord
100
AcDbLinetypeTableRecord
  2
ByLayer
 70
     0
  3

 72
    65
 73
     0
 40
0.0
  0
LTYPE
  5
16
330
5
100
AcDbSymbolTableRecord
100
AcDbLinetypeTableRecord
  2
Continuous
 70
     0
  3
Solid line
 72
    65
 73
     0
 40
0.0
  0
LTYPE
  5
3C
330
5
100
AcDbSymbolTableRecord
100
AcDbLinetypeTableRecord
  2
JWW_DASHED1
 70
     0
  3
-  --  --  --  --  --  --  --  -
 72
    65
 73
     2
 40
1.693333333333333
 49
0.8466666666666667
 74
     0
 49
-0.8466666666666667
 74
     0
  0
LTYPE
  5
3D
330
5
100
AcDbSymbolTableRecord
100
AcDbLinetypeTableRecord
  2
JWW_CENTER1
 70
     0
  3
-----  --  ----------  --  -----
 72
    65
 73
     4
 40
6.773333333333333
 49
4.233333333333333
 74
     0
 49
-0.8466666666666667
 74
     0
 49
0.8466666666666667
 74
     0
 49
-0.8466666666666667
 74
     0
  0
ENDTAB
  0
TABLE
  2
LAYER
  5
2
330
0
100
AcDbSymbolTable
 70
     8
  0
LAYER
  5
10
330
2
100
AcDbSymbolTableRecord
100
AcDbLayerTableRecord
  2
0
 70
     0
 62
     7
  6
Continuous
370
    -3
390
F
  0
LAYER
  5
3E
330
2
100
AcDbSymbolTableRecord
100
AcDbLayerTableRecord
  2
3-4
 70
     0
 62
     7
  6
Continuous
370
    -3
390
F
  0
LAYER
  5
3F
330
2
100
AcDbSymbolTableRecord
100
AcDbLayerTableRecord
  2
0-4
 70
     0
 62
     7
  6
Continuous
370
    -3
390
F
  0
LAYER
  5
40
330
2
100
AcDbSymbolTableRecord
100
AcDbLayerTableRecord
  2
3-0
 70
     0
 62
     7
  6
Continuous
370
    -3
390
F
  0
LAYER
  5
41
330
2
100
AcDbSymbolTableRecord
100
AcDbLayerTableRecord
  2
3-2
 70
     0
 62
     7
  6
Continuous
370
    -3
390
F
  0
LAYER
  5
42
330
2
100
AcDbSymbolTableRecord
100
AcDbLayerTableRecord
  2
0-2
 70
     0
 62
     7
  6
Continuous
370
    -3
390
F
  0
LAYER
  5
43
330
2
100
AcDbSymbolTableRecord
100
AcDbLayerTableRecord
  2
0-0
 70
     0
 62
     7
  6
Continuous
370
    -3
390
F
  0
LAYER
  5
44
330
2
100
AcDbSymbolTableRecord
100
AcDbLayerTableRecord
  2
F-4
 70
     0
 62
     7
  6
Continuous
370
    -3
390
F
  0
ENDTAB
  0
TABLE
  2
STYLE
  5
3
330
0
100
AcDbSymbolTable
 70
     2
  0
STYLE
  5
11
330
3
100
AcDbSymbolTableRecord
100
AcDbTextStyleTableRecord
  2
Standard
 70
     0
 40
0.0
 41
1.0
 50
0.0
 71
     0
 42
2.5
  3
txt
  4

1001
ACAD
1000

1071
        0
  0
STYLE
  5
3B
330
3
100
AcDbSymbolTableRecord
100
AcDbTextStyleTableRecord
  2
ＭＳ ゴシック
 70
     0
 40
1.0
 41
1.0
 50
0.0
 71
     0
 42
10.0
  3

  4

1001
ACAD
1000
MS Gothic
1071
    32817
  0
ENDTAB
  0
TABLE
  2
VIEW
  5
6
330
0
100
AcDbSymbolTable
 70
     0
  0
ENDTAB
  0
TABLE
  2
UCS
  5
7
330
0
100
AcDbSymbolTable
 70
     0
  0
ENDTAB
  0
TABLE
  2
APPID
  5
9
330
0
100
AcDbSymbolTable
 70
     1
  0
APPID
  5
12
330
9
100
AcDbSymbolTableRecord
100
AcDbRegAppTableRecord
  2
ACAD
 70
     0
  0
ENDTAB
  0
TABLE
  2
DIMSTYLE
  5
A
330
0
100
AcDbSymbolTable
 70
     1
100
AcDbDimStyleTable
  0
DIMSTYLE
105
27
330
A
100
AcDbSymbolTableRecord
100
AcDbDimStyleTableRecord
  2
ISO-25
 70
     0
 41
2.5
 42
0.625
 43
3.75
 44
1.25
 73
     0
 74
     0
 77
     1
 78
     8
140
2.5
141
2.5
143
0.03937007874016
147
0.625
171
     3
172
     1
271
     2
272
     2
274
     3
278
    44
283
     0
284
     8
340
11
  0
ENDTAB
  0
TABLE
  2
BLOCK_RECORD
  5
1
330
0
100
AcDbSymbolTable
 70
     1
  0
BLOCK_RECORD
  5
1F
330
1
100
AcDbSymbolTableRecord
100
AcDbBlockTableRecord
  2
*Model_Space
340
22
  0
BLOCK_RECORD
  5
1B
330
1
100
AcDbSymbolTableRecord
100
AcDbBlockTableRecord
  2
*Paper_Space
340
1E
  0
BLOCK_RECORD
  5
23
330
1
100
AcDbSymbolTableRecord
100
AcDbBlockTableRecord
  2
*Paper_Space0
340
26
  0
ENDTAB
  0
ENDSEC
  0
SECTION
  2
BLOCKS
  0
BLOCK
  5
20
330
1F
100
AcDbEntity
  8
0
100
AcDbBlockBegin
  2
*Model_Space
 70
     0
 10
0.0
 20
0.0
 30
0.0
  3
*Model_Space
  1

  0
ENDBLK
  5
21
330
1F
100
AcDbEntity
  8
0
100
AcDbBlockEnd
  0
BLOCK
  5
1C
330
1B
100
AcDbEntity
 67
     1
  8
0
100
AcDbBlockBegin
  2
*Paper_Space
 70
     0
 10
0.0
 20
0.0
 30
0.0
  3
*Paper_Space
  1

  0
ENDBLK
  5
1D
330
1B
100
AcDbEntity
 67
     1
  8
0
100
AcDbBlockEnd
  0
BLOCK
  5
24
330
23
100
AcDbEntity
  8
0
100
AcDbBlockBegin
  2
*Paper_Space0
 70
     0
 10
0.0
 20
0.0
 30
0.0
  3
*Paper_Space0
  1

  0
ENDBLK
  5
25
330
23
100
AcDbEntity
  8
0
100
AcDbBlockEnd
  0
ENDSEC
  0
SECTION
  2
ENTITIES
  0
LWPOLYLINE
  5
45
330
1F
100
AcDbEntity
  8
3-4
  6
Continuous
 62
     7
370
     5
100
AcDbPolyline
 90
        4
 70
     1
 43
1.0
 10
-108.9594594594594
 20
-163.7852931667018
 42
0.4142135623731
 10
-109.4594594594594
 20
-163.2852931667018
 42
0.4142135623731
 10
-109.9594594594594
 20
-163.7852931667018
 42
0.4142135623731
 10
-109.4594594594594
 20
-164.2852931667018
 42
0.4142135623731
  0
LWPOLYLINE
  5
46
330
1F
100
AcDbEntity
  8
3-4
  6
Continuous
 62
     7
370
     5
100
AcDbPolyline
 90
        4
 70
     1
 43
1.0
 10
-8.959376979518481
 20
-163.7852931667018
 42
0.4142135623731
 10
-9.459376979518481
 20
-163.2852931667018
 42
0.4142135623731
 10
-9.959376979518481
 20
-163.7852931667018
 42
0.4142135623731
 10
-9.459376979518481
 20
-164.2852931667018
 42
0.4142135623731
  0
LWPOLYLINE
  5
47
330
1F
100
AcDbEntity
  8
3-4
  6
Continuous
 62
     7
370
     5
100
AcDbPolyline
 90
        4
 70
     1
 43
1.0
 10
191.0405405405406
 20
-163.7852931667018
 42
0.4142135623731
 10
190.5405405405406
 20
-163.2852931667018
 42
0.4142135623731
 10
190.0405405405406
 20
-163.7852931667018
 42
0.4142135623731
 10
190.5405405405406
 20
-164.2852931667018
 42
0.4142135623731
  0
LWPOLYLINE
  5
48
330
1F
100
AcDbEntity
  8
3-4
  6
Continuous
 62
     7
370
     5
100
AcDbPolyline
 90
        4
 70
     1
 43
1.0
 10
391.0407055004224
 20
-163.7852931667018
 42
0.4142135623731
 10
390.5407055004224
 20
-163.2852931667018
 42
0.4142135623731
 10
390.0407055004224
 20
-163.7852931667018
 42
0.4142135623731
 10
390.5407055004224
 20
-164.2852931667018
 42
0.4142135623731
  0
LWPOLYLINE
  5
49
330
1F
100
AcDbEntity
  8
3-4
  6
Continuous
 62
     7
370
     5
100
AcDbPolyline
 90
        4
 70
     1
 43
1.0
 10
591.0406230204818
 20
-163.7852931667018
 42
0.4142135623731
 10
590.5406230204818
 20
-163.2852931667018
 42
0.4142135623731
 10
590.0406230204818
 20
-163.7852931667018
 42
0.4142135623731
 10
590.5406230204818
 20
-164.2852931667018
 42
0.4142135623731
  0
LWPOLYLINE
  5
4A
330
1F
100
AcDbEntity
  8
3-4
  6
Continuous
 62
     7
370
     5
100
AcDbPolyline
 90
        4
 70
     1
 43
1.0
 10
791.0405405405406
 20
-163.7852931667018
 42
0.4142135623731
 10
790.5405405405406
 20
-163.2852931667018
 42
0.4142135623731
 10
790.0405405405406
 20
-163.7852931667018
 42
0.4142135623731
 10
790.5405405405406
 20
-164.2852931667018
 42
0.4142135623731
  0
LWPOLYLINE
  5
4B
330
1F
100
AcDbEntity
  8
3-4
  6
Continuous
 62
     7
370
     5
100
AcDbPolyline
 90
        4
 70
     1
 43
1.0
 10
891.0406230204818
 20
-163.7852931667018
 42
0.4142135623731
 10
890.5406230204818
 20
-163.2852931667018
 42
0.4142135623731
 10
890.0406230204818
 20
-163.7852931667018
 42
0.4142135623731
 10
890.5406230204818
 20
-164.2852931667018
 42
0.4142135623731
  0
LWPOLYLINE
  5
4C
330
1F
100
AcDbEntity
  8
3-4
  6
Continuous
 62
     7
370
     5
100
AcDbPolyline
 90
        4
 70
     1
 43
1.0
 10
-108.9594594594594
 20
-261.8339414854307
 42
0.4142135623731
 10
-109.4594594594594
 20
-261.3339414854307
 42
0.4142135623731
 10
-109.9594594594594
 20
-261.8339414854307
 42
0.4142135623731
 10
-109.4594594594594
 20
-262.3339414854307
 42
0.4142135623731
  0
LWPOLYLINE
  5
4D
330
1F
100
AcDbEntity
  8
3-4
  6
Continuous
 62
     7
370
     5
100
AcDbPolyline
 90
        4
 70
     1
 43
1.0
 10
891.0406230204818
 20
-261.8339414854307
 42
0.4142135623731
 10
890.5406230204818
 20
-261.3339414854307
 42
0.4142135623731
 10
890.0406230204818
 20
-261.8339414854307
 42
0.4142135623731
 10
890.5406230204818
 20
-262.3339414854307
 42
0.4142135623731
  0
LWPOLYLINE
  5
4E
330
1F
100
AcDbEntity
  8
3-4
  6
Continuous
 62
     7
370
     5
100
AcDbPolyline
 90
        4
 70
     1
 43
1.0
 10
1007.066145613387
 20
-62.02702702702709
 42
0.4142135623731
 10
1006.566145613387
 20
-61.52702702702709
 42
0.4142135623731
 10
1006.066145613387
 20
-62.02702702702709
 42
0.4142135623731
 10
1006.566145613387
 20
-62.52702702702709
 42
0.4142135623731
  0
LWPOLYLINE
  5
4F
330
1F
100
AcDbEntity
  8
3-4
  6
Continuous
 62
     7
370
     5
100
AcDbPolyline
 90
        4
 70
     1
 43
1.0
 10
1007.066145613387
 20
37.97355033255911
 42
0.4142135623731
 10
1006.566145613387
 20
38.47355033255911
 42
0.4142135623731
 10
1006.066145613387
 20
37.97355033255911
 42
0.4142135623731
 10
1006.566145613387
 20
37.47355033255911
 42
0.4142135623731
  0
LWPOLYLINE
  5
50
330
1F
100
AcDbEntity
  8
3-4
  6
Continuous
 62
     7
370
     5
100
AcDbPolyline
 90
        4
 70
     1
 43
1.0
 10
1007.066145613387
 20
237.9735915725297
 42
0.4142135623731
 10
1006.566145613387
 20
238.4735915725297
 42
0.4142135623731
 10
1006.066145613387
 20
237.9735915725297
 42
0.4142135623731
 10
1006.566145613387
 20
237.4735915725297
 42
0.4142135623731
  0
LWPOLYLINE
  5
51
330
1F
100
AcDbEntity
  8
3-4
  6
Continuous
 62
     7
370
     5
100
AcDbPolyline
 90
        4
 70
     1
 43
1.0
 10
1007.066145613387
 20
437.9735090925888
 42
0.4142135623731
 10
1006.566145613387
 20
438.4735090925888
 42
0.4142135623731
 10
1006.066145613387
 20
437.9735090925888
 42
0.4142135623731
 10
1006.566145613387
 20
437.4735090925889
 42
0.4142135623731
  0
LWPOLYLINE
  5
52
330
1F
100
AcDbEntity
  8
3-4
  6
Continuous
 62
     7
370
     5
100
AcDbPolyline
 90
        4
 70
     1
 43
1.0
 10
1007.066145613387
 20
637.9735503325592
 42
0.4142135623731
 10
1006.566145613387
 20
638.4735503325591
 42
0.4142135623731
 10
1006.066145613387
 20
637.9735503325592
 42
0.4142135623731
 10
1006.566145613387
 20
637.4735503325592
 42
0.4142135623731
  0
LWPOLYLINE
  5
53
330
1F
100
AcDbEntity
  8
3-4
  6
Continuous
 62
     7
370
     5
100
AcDbPolyline
 90
        4
 70
     1
 43
1.0
 10
1007.066145613387
 20
837.9734678526186
 42
0.4142135623731
 10
1006.566145613387
 20
838.4734678526185
 42
0.4142135623731
 10
1006.066145613387
 20
837.9734678526186
 42
0.4142135623731
 10
1006.566145613387
 20
837.4734678526186
 42
0.4142135623731
  0
LWPOLYLINE
  5
54
330
1F
100
AcDbEntity
  8
3-4
  6
Continuous
 62
     7
370
     5
100
AcDbPolyline
 90
        4
 70
     1
 43
1.0
 10
1007.066145613387
 20
937.9730554529141
 42
0.4142135623731
 10
1006.566145613387
 20
938.4730554529141
 42
0.4142135623731
 10
1006.066145613387
 20
937.9730554529141
 42
0.4142135623731
 10
1006.566145613387
 20
937.4730554529141
 42
0.4142135623731
  0
LWPOLYLINE
  5
55
330
1F
100
AcDbEntity
  8
3-4
  6
Continuous
 62
     7
370
     5
100
AcDbPolyline
 90
        4
 70
     1
 43
1.0
 10
1113.215107685811
 20
-62.02702702702709
 42
0.4142135623731
 10
1112.715107685811
 20
-61.52702702702709
 42
0.4142135623731
 10
1112.215107685811
 20
-62.02702702702709
 42
0.4142135623731
 10
1112.715107685811
 20
-62.52702702702709
 42
0.4142135623731
  0
LWPOLYLINE
  5
56
330
1F
100
AcDbEntity
  8
3-4
  6
Continuous
 62
     7
370
     5
100
AcDbPolyline
 90
        4
 70
     1
 43
1.0
 10
1113.215107685811
 20
937.9730554529141
 42
0.4142135623731
 10
1112.715107685811
 20
938.4730554529141
 42
0.4142135623731
 10
1112.215107685811
 20
937.9730554529141
 42
0.4142135623731
 10
1112.715107685811
 20
937.4730554529141
 42
0.4142135623731
  0
LWPOLYLINE
  5
57
330
1F
100
AcDbEntity
  8
0-4
  6
Continuous
 62
     7
370
     5
100
AcDbPolyline
 90
        4
 70
     1
 43
1.0
 10
-1195.986478238492
 20
458.3208568676099
 42
0.4142135623731
 10
-1196.486478238492
 20
458.8208568676099
 42
0.4142135623731
 10
-1196.986478238492
 20
458.3208568676099
 42
0.4142135623731
 10
-1196.486478238492
 20
457.8208568676099
 42
0.4142135623731
  0
LWPOLYLINE
  5
58
330
1F
100
AcDbEntity
  8
0-4
  6
Continuous
 62
     7
370
     5
100
AcDbPolyline
 90
        4
 70
     1
 43
1.0
 10
-1145.986436998522
 20
538.3208733635981
 42
0.4142135623731
 10
-1146.486436998522
 20
538.8208733635981
 42
0.4142135623731
 10
-1146.986436998522
 20
538.3208733635981
 42
0.4142135623731
 10
-1146.486436998522
 20
537.8208733635983
 42
0.4142135623731
  0
LWPOLYLINE
  5
59
330
1F
100
AcDbEntity
  8
0-4
  6
Continuous
 62
     7
370
     5
100
AcDbPolyline
 90
        4
 70
     1
 43
1.0
 10
-1025.986535974451
 20
538.3208733635981
 42
0.4142135623731
 10
-1026.486535974451
 20
538.8208733635981
 42
0.4142135623731
 10
-1026.986535974451
 20
538.3208733635981
 42
0.4142135623731
 10
-1026.486535974451
 20
537.8208733635983
 42
0.4142135623731
  0
LWPOLYLINE
  5
5A
330
1F
100
AcDbEntity
  8
0-4
  6
Continuous
 62
     7
370
     5
100
AcDbPolyline
 90
        4
 70
     1
 43
1.0
 10
-975.9864947344805
 20
458.3208568676099
 42
0.4142135623731
 10
-976.4864947344804
 20
458.8208568676099
 42
0.4142135623731
 10
-976.9864947344804
 20
458.3208568676099
 42
0.4142135623731
 10
-976.4864947344804
 20
457.8208568676099
 42
0.4142135623731
  0
LWPOLYLINE
  5
5B
330
1F
100
AcDbEntity
  8
0-4
  6
Continuous
 62
     7
370
     5
100
AcDbPolyline
 90
        4
 70
     1
 43
1.0
 10
-1115.986461742504
 20
-271.2176018792229
 42
0.4142135623731
 10
-1116.486461742504
 20
-270.7176018792229
 42
0.4142135623731
 10
-1116.986461742504
 20
-271.2176018792229
 42
0.4142135623731
 10
-1116.486461742504
 20
-271.7176018792229
 42
0.4142135623731
  0
LWPOLYLINE
  5
5C
330
1F
100
AcDbEntity
  8
0-4
  6
Continuous
 62
     7
370
     5
100
AcDbPolyline
 90
        4
 70
     1
 43
1.0
 10
-1055.986511230469
 20
-271.2176018792229
 42
0.4142135623731
 10
-1056.486511230469
 20
-270.7176018792229
 42
0.4142135623731
 10
-1056.986511230469
 20
-271.2176018792229
 42
0.4142135623731
 10
-1056.486511230469
 20
-271.7176018792229
 42
0.4142135623731
  0
LWPOLYLINE
  5
5D
330
1F
100
AcDbEntity
  8
0-4
  6
Continuous
 62
     7
370
     5
100
AcDbPolyline
 90
        4
 70
     1
 43
1.0
 10
-840.7709004170185
 20
-1.217577135240617
 42
0.4142135623731
 10
-841.2709004170185
 20
-0.7175771352406173
 42
0.4142135623731
 10
-841.7709004170184
 20
-1.217577135240617
 42
0.4142135623731
 10
-841.2709004170185
 20
-1.717577135240617
 42
0.4142135623731
  0
LWPOLYLINE
  5
5E
330
1F
100
AcDbEntity
  8
0-4
  6
Continuous
 62
     7
370
     5
100
AcDbPolyline
 90
        4
 70
     1
 43
1.0
 10
-840.7709004170185
 20
-51.21749465529973
 42
0.4142135623731
 10
-841.2709004170185
 20
-50.71749465529973
 42
0.4142135623731
 10
-841.7709004170184
 20
-51.21749465529973
 42
0.4142135623731
 10
-841.2709004170185
 20
-51.71749465529973
 42
0.4142135623731
  0
LWPOLYLINE
  5
5F
330
1F
100
AcDbEntity
  8
0-4
  6
Continuous
 62
     7
370
     5
100
AcDbPolyline
 90
        4
 70
     1
 43
1.0
 10
-840.7709004170185
 20
-171.2176431191932
 42
0.4142135623731
 10
-841.2709004170185
 20
-170.7176431191932
 42
0.4142135623731
 10
-841.7709004170184
 20
-171.2176431191932
 42
0.4142135623731
 10
-841.2709004170185
 20
-171.7176431191932
 42
0.4142135623731
  0
LWPOLYLINE
  5
60
330
1F
100
AcDbEntity
  8
0-4
  6
Continuous
 62
     7
370
     5
100
AcDbPolyline
 90
        4
 70
     1
 43
1.0
 10
-760.7711313608529
 20
-171.2176431191932
 42
0.4142135623731
 10
-761.2711313608529
 20
-170.7176431191932
 42
0.4142135623731
 10
-761.7711313608528
 20
-171.2176431191932
 42
0.4142135623731
 10
-761.2711313608529
 20
-171.7176431191932
 42
0.4142135623731
  0
LWPOLYLINE
  5
61
330
1F
100
AcDbEntity
  8
0-4
  6
Continuous
 62
     7
370
     5
100
AcDbPolyline
 90
        4
 70
     1
 43
1.0
 10
-760.7711313608529
 20
-1.217577135240617
 42
0.4142135623731
 10
-761.2711313608529
 20
-0.7175771352406173
 42
0.4142135623731
 10
-761.7711313608528
 20
-1.217577135240617
 42
0.4142135623731
 10
-761.2711313608529
 20
-1.717577135240617
 42
0.4142135623731
  0
LINE
  5
62
330
1F
100
AcDbEntity
  8
0-4
  6
Continuous
 62
     7
370
     5
100
AcDbLine
 10
-1162.147274532834
 20
-13.857421875
 30
0.0
 11
-1177.36630826383
 21
5.97636454814193
 31
0.0
  0
LINE
  5
63
330
1F
100
AcDbEntity
  8
0-4
  6
Continuous
 62
     7
370
     5
100
AcDbLine
 10
-1162.147274532834
 20
-13.857421875
 30
0.0
 11
-1171.71441155511
 21
9.239600929054177
 31
0.0
  0
LINE
  5
64
330
1F
100
AcDbEntity
  8
0-4
  6
Continuous
 62
     7
370
     5
100
AcDbLine
 10
-1162.147274532834
 20
-13.857421875
 30
0.0
 11
-1220.769108952702
 21
87.67864330394843
 31
0.0
  0
LINE
  5
65
330
1F
100
AcDbEntity
  8
0-4
  6
Continuous
 62
     7
370
     5
100
AcDbLine
 10
-1426.830683527766
 20
87.67864330394843
 30
0.0
 11
-1220.769108952702
 21
87.67864330394843
 31
0.0
  0
LINE
  5
66
330
1F
100
AcDbEntity
  8
3-0
  6
JWW_DASHED1
 62
    92
370
     5
100
AcDbLine
 10
-109.4594594594594
 20
-62.02702702702709
 30
0.0
 11
-109.4594594594594
 21
937.9730554529141
 31
0.0
  0
LINE
  5
67
330
1F
100
AcDbEntity
  8
3-0
  6
JWW_DASHED1
 62
    92
370
     5
100
AcDbLine
 10
-109.4594594594594
 20
937.9730554529141
 30
0.0
 11
890.5406230204818
 21
937.9730554529141
 31
0.0
  0
LINE
  5
68
330
1F
100
AcDbEntity
  8
3-0
  6
JWW_DASHED1
 62
    92
370
     5
100
AcDbLine
 10
890.5406230204818
 20
937.9730554529141
 30
0.0
 11
890.5406230204818
 21
-62.02702702702709
 31
0.0
  0
LINE
  5
69
330
1F
100
AcDbEntity
  8
3-0
  6
JWW_DASHED1
 62
    92
370
     5
100
AcDbLine
 10
890.5406230204818
 20
-62.02702702702709
 30
0.0
 11
-109.4594594594594
 21
-62.02702702702709
 31
0.0
  0
LINE
  5
6A
330
1F
100
AcDbEntity
  8
3-2
  6
JWW_CENTER1
 62
    92
370
     5
100
AcDbLine
 10
-60.98995724239842
 20
37.97355033255911
 30
0.0
 11
41.70672442462006
 21
37.97355033255911
 31
0.0
  0
LINE
  5
6B
330
1F
100
AcDbEntity
  8
3-2
  6
JWW_CENTER1
 62
    92
370
     5
100
AcDbLine
 10
-9.459376979518481
 20
91.5343743401607
 30
0.0
 11
-9.459376979518481
 21
-13.55059649493228
 31
0.0
  0
LINE
  5
6C
330
1F
100
AcDbEntity
  8
3-4
  6
Continuous
 62
     7
370
     5
100
AcDbLine
 10
-109.4594594594594
 20
-163.7852931667018
 30
0.0
 11
890.5406230204818
 21
-163.7852931667018
 31
0.0
  0
LINE
  5
6D
330
1F
100
AcDbEntity
  8
3-4
  6
Continuous
 62
     7
370
     5
100
AcDbLine
 10
-109.4594594594594
 20
-79.35449548669766
 30
0.0
 11
-109.4594594594594
 21
-264.8339018950591
 31
0.0
  0
LINE
  5
6E
330
1F
100
AcDbEntity
  8
3-4
  6
Continuous
 62
     7
370
     5
100
AcDbLine
 10
-9.459376979518481
 20
-79.35449548669766
 30
0.0
 11
-9.459376979518481
 21
-166.7852535763302
 31
0.0
  0
LINE
  5
6F
330
1F
100
AcDbEntity
  8
3-4
  6
Continuous
 62
     7
370
     5
100
AcDbLine
 10
190.5405405405406
 20
-79.35449548669766
 30
0.0
 11
190.5405405405406
 21
-166.7852535763302
 31
0.0
  0
LINE
  5
70
330
1F
100
AcDbEntity
  8
3-4
  6
Continuous
 62
     7
370
     5
100
AcDbLine
 10
390.5407055004224
 20
-79.35449548669766
 30
0.0
 11
390.5407055004224
 21
-166.7852535763302
 31
0.0
  0
LINE
  5
71
330
1F
100
AcDbEntity
  8
3-4
  6
Continuous
 62
     7
370
     5
100
AcDbLine
 10
590.5406230204818
 20
-79.35449548669766
 30
0.0
 11
590.5406230204818
 21
-166.7852535763302
 31
0.0
  0
LINE
  5
72
330
1F
100
AcDbEntity
  8
3-4
  6
Continuous
 62
     7
370
     5
100
AcDbLine
 10
790.5405405405406
 20
-79.35449548669766
 30
0.0
 11
790.5405405405406
 21
-166.7852535763302
 31
0.0
  0
LINE
  5
73
330
1F
100
AcDbEntity
  8
3-4
  6
Continuous
 62
     7
370
     5
100
AcDbLine
 10
890.5406230204818
 20
-79.35449548669766
 30
0.0
 11
890.5406230204818
 21
-264.8339018950591
 31
0.0
  0
LINE
  5
74
330
1F
100
AcDbEntity
  8
3-4
  6
Continuous
 62
     7
370
     5
100
AcDbLine
 10
-109.4594594594594
 20
-261.8339414854307
 30
0.0
 11
890.5406230204818
 21
-261.8339414854307
 31
0.0
  0
LINE
  5
75
330
1F
100
AcDbEntity
  8
3-4
  6
Continuous
 62
     7
370
     5
100
AcDbLine
 10
1006.566145613387
 20
-62.02702702702709
 30
0.0
 11
1006.566145613387
 21
937.9730554529141
 31
0.0
  0
LINE
  5
76
330
1F
100
AcDbEntity
  8
3-4
  6
Continuous
 62
     7
370
     5
100
AcDbLine
 10
907.999234586149
 20
-62.02702702702709
 30
0.0
 11
1115.71506809544
 21
-62.02702702702709
 31
0.0
  0
LINE
  5
77
330
1F
100
AcDbEntity
  8
3-4
  6
Continuous
 62
     7
370
     5
100
AcDbLine
 10
907.999234586149
 20
37.97355033255911
 30
0.0
 11
1009.566106023015
 21
37.97355033255911
 31
0.0
  0
LINE
  5
78
330
1F
100
AcDbEntity
  8
3-4
  6
Continuous
 62
     7
370
     5
100
AcDbLine
 10
907.999234586149
 20
237.9735915725297
 30
0.0
 11
1009.566106023015
 21
237.9735915725297
 31
0.0
  0
LINE
  5
79
330
1F
100
AcDbEntity
  8
3-4
  6
Continuous
 62
     7
370
     5
100
AcDbLine
 10
907.999234586149
 20
437.9735090925888
 30
0.0
 11
1009.566106023015
 21
437.9735090925888
 31
0.0
  0
LINE
  5
7A
330
1F
100
AcDbEntity
  8
3-4
  6
Continuous
 62
     7
370
     5
100
AcDbLine
 10
907.999234586149
 20
637.9735503325592
 30
0.0
 11
1009.566106023015
 21
637.9735503325592
 31
0.0
  0
LINE
  5
7B
330
1F
100
AcDbEntity
  8
3-4
  6
Continuous
 62
     7
370
     5
100
AcDbLine
 10
907.999234586149
 20
837.9734678526186
 30
0.0
 11
1009.566106023015
 21
837.9734678526186
 31
0.0
  0
LINE
  5
7C
330
1F
100
AcDbEntity
  8
3-4
  6
Continuous
 62
     7
370
     5
100
AcDbLine
 10
907.999234586149
 20
937.9730554529141
 30
0.0
 11
1115.71506809544
 21
937.9730554529141
 31
0.0
  0
LINE
  5
7D
330
1F
100
AcDbEntity
  8
3-4
  6
Continuous
 62
     7
370
     5
100
AcDbLine
 10
1112.715107685811
 20
-62.02702702702709
 30
0.0
 11
1112.715107685811
 21
937.9730554529141
 31
0.0
  0
LINE
  5
7E
330
1F
100
AcDbEntity
  8
0-4
  6
Continuous
 62
     7
370
     5
100
AcDbLine
 10
-1146.486436998522
 20
538.3208733635981
 30
0.0
 11
-1026.486535974451
 21
538.3208733635981
 31
0.0
  0
LINE
  5
7F
330
1F
100
AcDbEntity
  8
0-4
  6
Continuous
 62
     7
370
     5
100
AcDbLine
 10
-1196.486478238492
 20
458.3208568676099
 30
0.0
 11
-976.4864947344804
 21
458.3208568676099
 31
0.0
  0
LINE
  5
80
330
1F
100
AcDbEntity
  8
0-4
  6
Continuous
 62
     7
370
     5
100
AcDbLine
 10
-1196.486478238492
 20
733.6756030933279
 30
0.0
 11
-1196.486478238492
 21
455.3208964579815
 31
0.0
  0
LINE
  5
81
330
1F
100
AcDbEntity
  8
0-4
  6
Continuous
 62
     7
370
     5
100
AcDbLine
 10
-976.4864947344804
 20
733.6756030933279
 30
0.0
 11
-976.4864947344804
 21
455.3208964579815
 31
0.0
  0
LINE
  5
82
330
1F
100
AcDbEntity
  8
0-4
  6
Continuous
 62
     7
370
     5
100
AcDbLine
 10
-1146.486436998522
 20
535.3209129539698
 30
0.0
 11
-1146.486436998522
 21
733.6756030933279
 31
0.0
  0
LINE
  5
83
330
1F
100
AcDbEntity
  8
0-4
  6
Continuous
 62
     7
370
     5
100
AcDbLine
 10
-1026.486535974451
 20
535.3209129539698
 30
0.0
 11
-1026.486535974451
 21
733.6756030933279
 31
0.0
  0
LINE
  5
84
330
1F
100
AcDbEntity
  8
0-2
  6
JWW_CENTER1
 62
    92
370
     5
100
AcDbLine
 10
-1086.486486486486
 20
17.08220610747475
 30
0.0
 11
-1086.486486486486
 21
-194.2806429476352
 31
0.0
  0
LINE
  5
85
330
1F
100
AcDbEntity
  8
0-4
  6
Continuous
 62
     7
370
     5
100
AcDbLine
 10
-1049.271166002428
 20
-171.2176431191932
 30
0.0
 11
-758.2711709512245
 21
-171.2176431191932
 31
0.0
  0
LINE
  5
86
330
1F
100
AcDbEntity
  8
0-4
  6
Continuous
 62
     7
370
     5
100
AcDbLine
 10
-761.2711313608529
 20
-171.2176431191932
 30
0.0
 11
-761.2711313608529
 21
-1.217577135240617
 31
0.0
  0
LINE
  5
87
330
1F
100
AcDbEntity
  8
0-4
  6
Continuous
 62
     7
370
     5
100
AcDbLine
 10
-1056.486511230469
 20
-193.2175177496833
 30
0.0
 11
-1056.486511230469
 21
-274.2176860087626
 31
0.0
  0
LINE
  5
88
330
1F
100
AcDbEntity
  8
0-4
  6
Continuous
 62
     7
370
     5
100
AcDbLine
 10
-1116.486461742504
 20
-193.2175177496833
 30
0.0
 11
-1116.486461742504
 21
-274.2176860087626
 31
0.0
  0
LINE
  5
89
330
1F
100
AcDbEntity
  8
0-0
  6
Continuous
 62
    92
370
     5
100
AcDbLine
 10
-1056.486387510558
 20
-141.216306944151
 30
0.0
 11
-1116.486585462415
 21
-141.216306944151
 31
0.0
  0
LINE
  5
8A
330
1F
100
AcDbEntity
  8
0-0
  6
Continuous
 62
    92
370
     5
100
AcDbLine
 10
-1116.486585462415
 20
-141.216306944151
 30
0.0
 11
-1116.486585462415
 21
-171.2162822001687
 31
0.0
  0
LINE
  5
8B
330
1F
100
AcDbEntity
  8
0-0
  6
Continuous
 62
    92
370
     5
100
AcDbLine
 10
-1056.486387510558
 20
-141.216306944151
 30
0.0
 11
-1056.486387510558
 21
-171.2162822001687
 31
0.0
  0
LINE
  5
8C
330
1F
100
AcDbEntity
  8
0-0
  6
Continuous
 62
    92
370
     5
100
AcDbLine
 10
-1056.486387510558
 20
-171.2162822001687
 30
0.0
 11
-1116.486585462415
 21
-171.2162822001687
 31
0.0
  0
LINE
  5
8D
330
1F
100
AcDbEntity
  8
0-0
  6
Continuous
 62
    92
370
     5
100
AcDbLine
 10
-976.3458251953125
 20
-41.21610074429896
 30
0.0
 11
-976.3458251953125
 21
-51.21613373627525
 31
0.0
  0
LINE
  5
8E
330
1F
100
AcDbEntity
  8
0-0
  6
Continuous
 62
    92
370
     5
100
AcDbLine
 10
-1196.345808699324
 20
-41.21610074429896
 30
0.0
 11
-1196.345808699324
 21
-51.21613373627525
 31
0.0
  0
LINE
  5
8F
330
1F
100
AcDbEntity
  8
0-0
  6
JWW_DASHED1
 62
    92
370
     5
100
AcDbLine
 10
-1148.322193042652
 20
-41.21610074429896
 30
0.0
 11
-1160.822358002534
 21
-51.21613373627525
 31
0.0
  0
LINE
  5
90
330
1F
100
AcDbEntity
  8
0-0
  6
Continuous
 62
    92
370
     5
100
AcDbLine
 10
-1196.345808699324
 20
-51.21613373627525
 30
0.0
 11
-976.3458251953125
 21
-51.21613373627525
 31
0.0
  0
LINE
  5
91
330
1F
100
AcDbEntity
  8
0-0
  6
Continuous
 62
    92
370
     5
100
AcDbLine
 10
-1116.486585462415
 20
-91.21638942409191
 30
0.0
 11
-1116.486585462415
 21
-51.21638117609791
 31
0.0
  0
LINE
  5
92
330
1F
100
AcDbEntity
  8
0-0
  6
Continuous
 62
    92
370
     5
100
AcDbLine
 10
-1056.486387510558
 20
-91.21638942409191
 30
0.0
 11
-1116.486585462415
 21
-91.21638942409191
 31
0.0
  0
LINE
  5
93
330
1F
100
AcDbEntity
  8
0-0
  6
Continuous
 62
    92
370
     5
100
AcDbLine
 10
-1056.486387510558
 20
-91.21638942409191
 30
0.0
 11
-1056.486387510558
 21
-51.21638117609791
 31
0.0
  0
LINE
  5
94
330
1F
100
AcDbEntity
  8
0-0
  6
Continuous
 62
    92
370
     5
100
AcDbLine
 10
-1111.486568966427
 20
-141.216306944151
 30
0.0
 11
-1111.486568966427
 21
-91.21638942409191
 31
0.0
  0
LINE
  5
95
330
1F
100
AcDbEntity
  8
0-0
  6
Continuous
 62
    92
370
     5
100
AcDbLine
 10
-1061.486404006546
 20
-141.216306944151
 30
0.0
 11
-1061.486404006546
 21
-91.21638942409191
 31
0.0
  0
LINE
  5
96
330
1F
100
AcDbEntity
  8
0-0
  6
JWW_DASHED1
 62
    92
370
     5
100
AcDbLine
 10
-1116.486585462415
 20
-51.21638117609791
 30
0.0
 11
-1116.486585462415
 21
-41.21610074429896
 31
0.0
  0
LINE
  5
97
330
1F
100
AcDbEntity
  8
0-0
  6
JWW_DASHED1
 62
    92
370
     5
100
AcDbLine
 10
-1056.486387510558
 20
-51.21638117609791
 30
0.0
 11
-1056.486387510558
 21
-41.21610074429896
 31
0.0
  0
LINE
  5
98
330
1F
100
AcDbEntity
  8
0-0
  6
JWW_DASHED1
 62
    92
370
     5
100
AcDbLine
 10
-1148.322193042652
 20
-41.21610074429896
 30
0.0
 11
-1024.369440851985
 21
-41.21610074429896
 31
0.0
  0
LINE
  5
99
330
1F
100
AcDbEntity
  8
0-0
  6
JWW_DASHED1
 62
    92
370
     5
100
AcDbLine
 10
-1024.369440851985
 20
-41.21610074429896
 30
0.0
 11
-1011.869275892103
 21
-51.21613373627525
 31
0.0
  0
LINE
  5
9A
330
1F
100
AcDbEntity
  8
0-2
  6
JWW_CENTER1
 62
    92
370
     5
100
AcDbLine
 10
-1241.078350995038
 20
758.675438133446
 30
0.0
 11
-1196.486478238492
 21
758.675438133446
 31
0.0
  0
LINE
  5
9B
330
1F
100
AcDbEntity
  8
0-2
  6
JWW_CENTER1
 62
    92
370
     5
100
AcDbLine
 10
-976.4864947344804
 20
758.675438133446
 30
0.0
 11
-932.9884297138935
 21
758.675438133446
 31
0.0
  0
LINE
  5
9C
330
1F
100
AcDbEntity
  8
0-2
  6
JWW_CENTER1
 62
    92
370
     5
100
AcDbLine
 10
-1086.486486486486
 20
648.6755701013516
 30
0.0
 11
-1086.486486486486
 21
604.1037399704394
 31
0.0
  0
LINE
  5
9D
330
1F
100
AcDbEntity
  8
0-2
  6
JWW_CENTER1
 62
    92
370
     5
100
AcDbLine
 10
-1086.486486486486
 20
919.3584050358953
 30
0.0
 11
-1086.486486486486
 21
868.675801045186
 31
0.0
  0
LINE
  5
9E
330
1F
100
AcDbEntity
  8
0-4
  6
Continuous
 62
     7
370
     5
100
AcDbLine
 10
-1012.424654574007
 20
-1.217577135240617
 30
0.0
 11
-758.2711709512245
 21
-1.217577135240617
 31
0.0
  0
LINE
  5
9F
330
1F
100
AcDbEntity
  8
0-4
  6
Continuous
 62
     7
370
     5
100
AcDbLine
 10
-967.2039135082348
 20
-51.21749465529973
 30
0.0
 11
-838.2709400073901
 21
-51.21749465529973
 31
0.0
  0
LINE
  5
A0
330
1F
100
AcDbEntity
  8
0-4
  6
Continuous
 62
     7
370
     5
100
AcDbLine
 10
-973.5420845650337
 20
876.8373561549834
 30
0.0
 11
-784.770243876689
 21
876.8373561549834
 31
0.0
  0
LINE
  5
A1
330
1F
100
AcDbEntity
  8
0-4
  6
Continuous
 62
     7
370
     5
100
AcDbLine
 10
-973.5420845650337
 20
876.8373561549834
 30
0.0
 11
-1028.934210699958
 21
814.2429991026186
 31
0.0
  0
LINE
  5
A2
330
1F
100
AcDbEntity
  8
0-4
  6
Continuous
 62
     7
370
     5
100
AcDbLine
 10
-1028.934210699958
 20
814.2429991026186
 30
0.0
 11
-1014.951881202492
 21
834.9675688872467
 31
0.0
  0
LINE
  5
A3
330
1F
100
AcDbEntity
  8
0-4
  6
Continuous
 62
     7
370
     5
100
AcDbLine
 10
-1028.934210699958
 20
814.2429991026186
 30
0.0
 11
-1010.064449825802
 21
830.6423207875846
 31
0.0
  0
LINE
  5
A4
330
1F
100
AcDbEntity
  8
0-0
  6
Continuous
 62
    92
370
     5
100
AcDbLine
 10
-976.3458251953125
 20
-41.21610074429896
 30
0.0
 11
-1026.345742715372
 21
-1.216216216216139
 31
0.0
  0
LINE
  5
A5
330
1F
100
AcDbEntity
  8
0-0
  6
Continuous
 62
    92
370
     5
100
AcDbLine
 10
-1146.345767459354
 20
-1.216216216216139
 30
0.0
 11
-1026.345742715372
 21
-1.216216216216139
 31
0.0
  0
LINE
  5
A6
330
1F
100
AcDbEntity
  8
0-0
  6
Continuous
 62
    92
370
     5
100
AcDbLine
 10
-1196.345808699324
 20
-41.21610074429896
 30
0.0
 11
-1146.345767459354
 21
-1.216216216216139
 31
0.0
  0
LINE
  5
A7
330
1F
100
AcDbEntity
  8
3-2
  6
JWW_CENTER1
 62
    92
370
     5
100
AcDbLine
 10
139.0099602776607
 20
37.97355033255911
 30
0.0
 11
241.7066419446792
 21
37.97355033255911
 31
0.0
  0
LINE
  5
A8
330
1F
100
AcDbEntity
  8
3-2
  6
JWW_CENTER1
 62
    92
370
     5
100
AcDbLine
 10
190.5405405405406
 20
91.5343743401607
 30
0.0
 11
190.5405405405406
 21
-13.55059649493228
 31
0.0
  0
LINE
  5
A9
330
1F
100
AcDbEntity
  8
3-2
  6
JWW_CENTER1
 62
    92
370
     5
100
AcDbLine
 10
339.0101252375425
 20
37.97355033255911
 30
0.0
 11
441.7068069045609
 21
37.97355033255911
 31
0.0
  0
LINE
  5
AA
330
1F
100
AcDbEntity
  8
3-2
  6
JWW_CENTER1
 62
    92
370
     5
100
AcDbLine
 10
390.5407055004224
 20
91.5343743401607
 30
0.0
 11
390.5407055004224
 21
-13.55059649493228
 31
0.0
  0
LINE
  5
AB
330
1F
100
AcDbEntity
  8
3-2
  6
JWW_CENTER1
 62
    92
370
     5
100
AcDbLine
 10
539.0100427576016
 20
37.97355033255911
 30
0.0
 11
641.7067244246203
 21
37.97355033255911
 31
0.0
  0
LINE
  5
AC
330
1F
100
AcDbEntity
  8
3-2
  6
JWW_CENTER1
 62
    92
370
     5
100
AcDbLine
 10
590.5406230204818
 20
91.5343743401607
 30
0.0
 11
590.5406230204818
 21
-13.55059649493228
 31
0.0
  0
LINE
  5
AD
330
1F
100
AcDbEntity
  8
3-2
  6
JWW_CENTER1
 62
    92
370
     5
100
AcDbLine
 10
739.0099602776604
 20
37.97355033255911
 30
0.0
 11
841.7066419446792
 21
37.97355033255911
 31
0.0
  0
LINE
  5
AE
330
1F
100
AcDbEntity
  8
3-2
  6
JWW_CENTER1
 62
    92
370
     5
100
AcDbLine
 10
790.5405405405406
 20
91.5343743401607
 30
0.0
 11
790.5405405405406
 21
-13.55059649493228
 31
0.0
  0
LINE
  5
AF
330
1F
100
AcDbEntity
  8
3-2
  6
JWW_CENTER1
 62
    92
370
     5
100
AcDbLine
 10
-60.98995724239842
 20
237.9735915725297
 30
0.0
 11
41.70672442462006
 21
237.9735915725297
 31
0.0
  0
LINE
  5
B0
330
1F
100
AcDbEntity
  8
3-2
  6
JWW_CENTER1
 62
    92
370
     5
100
AcDbLine
 10
-9.459376979518481
 20
291.534415580131
 30
0.0
 11
-9.459376979518481
 21
186.449444745038
 31
0.0
  0
LINE
  5
B1
330
1F
100
AcDbEntity
  8
3-2
  6
JWW_CENTER1
 62
    92
370
     5
100
AcDbLine
 10
139.0099602776607
 20
237.9735915725297
 30
0.0
 11
241.7066419446792
 21
237.9735915725297
 31
0.0
  0
LINE
  5
B2
330
1F
100
AcDbEntity
  8
3-2
  6
JWW_CENTER1
 62
    92
370
     5
100
AcDbLine
 10
190.5405405405406
 20
291.534415580131
 30
0.0
 11
190.5405405405406
 21
186.449444745038
 31
0.0
  0
LINE
  5
B3
330
1F
100
AcDbEntity
  8
3-2
  6
JWW_CENTER1
 62
    92
370
     5
100
AcDbLine
 10
339.0101252375425
 20
237.9735915725297
 30
0.0
 11
441.7068069045609
 21
237.9735915725297
 31
0.0
  0
LINE
  5
B4
330
1F
100
AcDbEntity
  8
3-2
  6
JWW_CENTER1
 62
    92
370
     5
100
AcDbLine
 10
390.5407055004224
 20
291.534415580131
 30
0.0
 11
390.5407055004224
 21
186.449444745038
 31
0.0
  0
LINE
  5
B5
330
1F
100
AcDbEntity
  8
3-2
  6
JWW_CENTER1
 62
    92
370
     5
100
AcDbLine
 10
539.0100427576016
 20
237.9735915725297
 30
0.0
 11
641.7067244246203
 21
237.9735915725297
 31
0.0
  0
LINE
  5
B6
330
1F
100
AcDbEntity
  8
3-2
  6
JWW_CENTER1
 62
    92
370
     5
100
AcDbLine
 10
590.5406230204818
 20
291.534415580131
 30
0.0
 11
590.5406230204818
 21
186.449444745038
 31
0.0
  0
LINE
  5
B7
330
1F
100
AcDbEntity
  8
3-2
  6
JWW_CENTER1
 62
    92
370
     5
100
AcDbLine
 10
739.0099602776604
 20
237.9735915725297
 30
0.0
 11
841.7066419446792
 21
237.9735915725297
 31
0.0
  0
LINE
  5
B8
330
1F
100
AcDbEntity
  8
3-2
  6
JWW_CENTER1
 62
    92
370
     5
100
AcDbLine
 10
790.5405405405406
 20
291.534415580131
 30
0.0
 11
790.5405405405406
 21
186.449444745038
 31
0.0
  0
LINE
  5
B9
330
1F
100
AcDbEntity
  8
3-2
  6
JWW_CENTER1
 62
    92
370
     5
100
AcDbLine
 10
-60.98995724239842
 20
437.9735090925888
 30
0.0
 11
41.70672442462006
 21
437.9735090925888
 31
0.0
  0
LINE
  5
BA
330
1F
100
AcDbEntity
  8
3-2
  6
JWW_CENTER1
 62
    92
370
     5
100
AcDbLine
 10
-9.459376979518481
 20
491.5343331001901
 30
0.0
 11
-9.459376979518481
 21
386.4493622650971
 31
0.0
  0
LINE
  5
BB
330
1F
100
AcDbEntity
  8
3-2
  6
JWW_CENTER1
 62
    92
370
     5
100
AcDbLine
 10
139.0099602776607
 20
437.9735090925888
 30
0.0
 11
241.7066419446792
 21
437.9735090925888
 31
0.0
  0
LINE
  5
BC
330
1F
100
AcDbEntity
  8
3-2
  6
JWW_CENTER1
 62
    92
370
     5
100
AcDbLine
 10
190.5405405405406
 20
491.5343331001901
 30
0.0
 11
190.5405405405406
 21
386.4493622650971
 31
0.0
  0
LINE
  5
BD
330
1F
100
AcDbEntity
  8
3-2
  6
JWW_CENTER1
 62
    92
370
     5
100
AcDbLine
 10
339.0101252375425
 20
437.9735090925888
 30
0.0
 11
441.7068069045609
 21
437.9735090925888
 31
0.0
  0
LINE
  5
BE
330
1F
100
AcDbEntity
  8
3-2
  6
JWW_CENTER1
 62
    92
370
     5
100
AcDbLine
 10
390.5407055004224
 20
491.5343331001901
 30
0.0
 11
390.5407055004224
 21
386.4493622650971
 31
0.0
  0
LINE
  5
BF
330
1F
100
AcDbEntity
  8
3-2
  6
JWW_CENTER1
 62
    92
370
     5
100
AcDbLine
 10
539.0100427576016
 20
437.9735090925888
 30
0.0
 11
641.7067244246203
 21
437.9735090925888
 31
0.0
  0
LINE
  5
C0
330
1F
100
AcDbEntity
  8
3-2
  6
JWW_CENTER1
 62
    92
370
     5
100
AcDbLine
 10
590.5406230204818
 20
491.5343331001901
 30
0.0
 11
590.5406230204818
 21
386.4493622650971
 31
0.0
  0
LINE
  5
C1
330
1F
100
AcDbEntity
  8
3-2
  6
JWW_CENTER1
 62
    92
370
     5
100
AcDbLine
 10
739.0099602776604
 20
437.9735090925888
 30
0.0
 11
841.7066419446792
 21
437.9735090925888
 31
0.0
  0
LINE
  5
C2
330
1F
100
AcDbEntity
  8
3-2
  6
JWW_CENTER1
 62
    92
370
     5
100
AcDbLine
 10
790.5405405405406
 20
491.5343331001901
 30
0.0
 11
790.5405405405406
 21
386.4493622650971
 31
0.0
  0
LINE
  5
C3
330
1F
100
AcDbEntity
  8
3-2
  6
JWW_CENTER1
 62
    92
370
     5
100
AcDbLine
 10
-60.98995724239842
 20
637.9735503325592
 30
0.0
 11
41.70672442462006
 21
637.9735503325592
 31
0.0
  0
LINE
  5
C4
330
1F
100
AcDbEntity
  8
3-2
  6
JWW_CENTER1
 62
    92
370
     5
100
AcDbLine
 10
-9.459376979518481
 20
691.5343743401606
 30
0.0
 11
-9.459376979518481
 21
586.4494035050677
 31
0.0
  0
LINE
  5
C5
330
1F
100
AcDbEntity
  8
3-2
  6
JWW_CENTER1
 62
    92
370
     5
100
AcDbLine
 10
139.0099602776607
 20
637.9735503325592
 30
0.0
 11
241.7066419446792
 21
637.9735503325592
 31
0.0
  0
LINE
  5
C6
330
1F
100
AcDbEntity
  8
3-2
  6
JWW_CENTER1
 62
    92
370
     5
100
AcDbLine
 10
190.5405405405406
 20
691.5343743401606
 30
0.0
 11
190.5405405405406
 21
586.4494035050677
 31
0.0
  0
LINE
  5
C7
330
1F
100
AcDbEntity
  8
3-2
  6
JWW_CENTER1
 62
    92
370
     5
100
AcDbLine
 10
339.0101252375425
 20
637.9735503325592
 30
0.0
 11
441.7068069045609
 21
637.9735503325592
 31
0.0
  0
LINE
  5
C8
330
1F
100
AcDbEntity
  8
3-2
  6
JWW_CENTER1
 62
    92
370
     5
100
AcDbLine
 10
390.5407055004224
 20
691.5343743401606
 30
0.0
 11
390.5407055004224
 21
586.4494035050677
 31
0.0
  0
LINE
  5
C9
330
1F
100
AcDbEntity
  8
3-2
  6
JWW_CENTER1
 62
    92
370
     5
100
AcDbLine
 10
539.0100427576016
 20
637.9735503325592
 30
0.0
 11
641.7067244246203
 21
637.9735503325592
 31
0.0
  0
LINE
  5
CA
330
1F
100
AcDbEntity
  8
3-2
  6
JWW_CENTER1
 62
    92
370
     5
100
AcDbLine
 10
590.5406230204818
 20
691.5343743401606
 30
0.0
 11
590.5406230204818
 21
586.4494035050677
 31
0.0
  0
LINE
  5
CB
330
1F
100
AcDbEntity
  8
3-2
  6
JWW_CENTER1
 62
    92
370
     5
100
AcDbLine
 10
739.0099602776604
 20
637.9735503325592
 30
0.0
 11
841.7066419446792
 21
637.9735503325592
 31
0.0
  0
LINE
  5
CC
330
1F
100
AcDbEntity
  8
3-2
  6
JWW_CENTER1
 62
    92
370
     5
100
AcDbLine
 10
790.5405405405406
 20
691.5343743401606
 30
0.0
 11
790.5405405405406
 21
586.4494035050677
 31
0.0
  0
LINE
  5
CD
330
1F
100
AcDbEntity
  8
3-2
  6
JWW_CENTER1
 62
    92
370
     5
100
AcDbLine
 10
-60.98995724239842
 20
837.9734678526186
 30
0.0
 11
41.70672442462006
 21
837.9734678526186
 31
0.0
  0
LINE
  5
CE
330
1F
100
AcDbEntity
  8
3-2
  6
JWW_CENTER1
 62
    92
370
     5
100
AcDbLine
 10
-9.459376979518481
 20
891.5342918602198
 30
0.0
 11
-9.459376979518481
 21
786.4493210251269
 31
0.0
  0
LINE
  5
CF
330
1F
100
AcDbEntity
  8
3-2
  6
JWW_CENTER1
 62
    92
370
     5
100
AcDbLine
 10
139.0099602776607
 20
837.9734678526186
 30
0.0
 11
241.7066419446792
 21
837.9734678526186
 31
0.0
  0
LINE
  5
D0
330
1F
100
AcDbEntity
  8
3-2
  6
JWW_CENTER1
 62
    92
370
     5
100
AcDbLine
 10
190.5405405405406
 20
891.5342918602198
 30
0.0
 11
190.5405405405406
 21
786.4493210251269
 31
0.0
  0
LINE
  5
D1
330
1F
100
AcDbEntity
  8
3-2
  6
JWW_CENTER1
 62
    92
370
     5
100
AcDbLine
 10
339.0101252375425
 20
837.9734678526186
 30
0.0
 11
441.7068069045609
 21
837.9734678526186
 31
0.0
  0
LINE
  5
D2
330
1F
100
AcDbEntity
  8
3-2
  6
JWW_CENTER1
 62
    92
370
     5
100
AcDbLine
 10
390.5407055004224
 20
891.5342918602198
 30
0.0
 11
390.5407055004224
 21
786.4493210251269
 31
0.0
  0
LINE
  5
D3
330
1F
100
AcDbEntity
  8
3-2
  6
JWW_CENTER1
 62
    92
370
     5
100
AcDbLine
 10
539.0100427576016
 20
837.9734678526186
 30
0.0
 11
641.7067244246203
 21
837.9734678526186
 31
0.0
  0
LINE
  5
D4
330
1F
100
AcDbEntity
  8
3-2
  6
JWW_CENTER1
 62
    92
370
     5
100
AcDbLine
 10
590.5406230204818
 20
891.5342918602198
 30
0.0
 11
590.5406230204818
 21
786.4493210251269
 31
0.0
  0
LINE
  5
D5
330
1F
100
AcDbEntity
  8
3-2
  6
JWW_CENTER1
 62
    92
370
     5
100
AcDbLine
 10
739.0099602776604
 20
837.9734678526186
 30
0.0
 11
841.7066419446792
 21
837.9734678526186
 31
0.0
  0
LINE
  5
D6
330
1F
100
AcDbEntity
  8
3-2
  6
JWW_CENTER1
 62
    92
370
     5
100
AcDbLine
 10
790.5405405405406
 20
891.5342918602198
 30
0.0
 11
790.5405405405406
 21
786.4493210251269
 31
0.0
  0
LINE
  5
D7
330
1F
100
AcDbEntity
  8
0-4
  6
Continuous
 62
     7
370
     5
100
AcDbLine
 10
-841.2709004170185
 20
-171.2176431191932
 30
0.0
 11
-841.2709004170185
 21
-1.217577135240617
 31
0.0
  0
LINE
  5
D8
330
1F
100
AcDbEntity
  8
0-4
  6
Continuous
 62
     7
370
     5
100
AcDbLine
 10
-948.2247842324746
 20
-271.2176018792229
 30
0.0
 11
-1116.486461742504
 21
-271.2176018792229
 31
0.0
  0
CIRCLE
  5
D9
330
1F
100
AcDbEntity
  8
0-0
  6
Continuous
 62
    92
370
     5
100
AcDbCircle
 10
-1086.486486486486
 20
758.675438133446
 30
0.0
 40
109.9999994845004
  0
CIRCLE
  5
DA
330
1F
100
AcDbEntity
  8
0-0
  6
Continuous
 62
    92
370
     5
100
AcDbCircle
 10
-1086.486486486486
 20
758.675438133446
 30
0.0
 40
60.00000077324945
  0
ARC
  5
DB
330
1F
100
AcDbEntity
  8
0-0
  6
Continuous
 62
    92
370
     5
100
AcDbCircle
 10
-1086.486486486486
 20
758.675438133446
 30
0.0
 40
69.99999896900074
100
AcDbArc
 50
8.291397094726562
 51
78.63708496093749
  0
ARC
  5
DC
330
1F
100
AcDbEntity
  8
0-0
  6
Continuous
 62
    92
370
     5
100
AcDbCircle
 10
-1086.486486486486
 20
758.675438133446
 30
0.0
 40
80.00000103099927
100
AcDbArc
 50
8.291397094726562
 51
78.63708496093749
  0
ARC
  5
DD
330
1F
100
AcDbEntity
  8
0-0
  6
Continuous
 62
    92
370
     5
100
AcDbCircle
 10
-1086.486486486486
 20
758.675438133446
 30
0.0
 40
90.00000309299779
100
AcDbArc
 50
8.291397094726562
 51
78.63708496093749
  0
ARC
  5
DE
330
1F
100
AcDbEntity
  8
0-0
  6
Continuous
 62
    92
370
     5
100
AcDbCircle
 10
-1086.486486486486
 20
758.675438133446
 30
0.0
 40
100.0000051549963
100
AcDbArc
 50
8.291397094726562
 51
78.63708496093749
  0
ARC
  5
DF
330
1F
100
AcDbEntity
  8
0-0
  6
Continuous
 62
    92
370
     5
100
AcDbCircle
 10
-1086.486486486486
 20
758.675438133446
 30
0.0
 40
50.00000257749815
100
AcDbArc
 50
8.291397094726562
 51
78.63708496093749
  0
ARC
  5
E0
330
1F
100
AcDbEntity
  8
0-0
  6
Continuous
 62
    92
370
     5
100
AcDbCircle
 10
-1086.486486486486
 20
758.675438133446
 30
0.0
 40
40.00000051549964
100
AcDbArc
 50
8.291397094726562
 51
78.63708496093749
  0
CIRCLE
  5
E1
330
1F
100
AcDbEntity
  8
3-2
  6
Continuous
 62
    92
370
     5
100
AcDbCircle
 10
-9.459376979518481
 20
37.97355033255911
 30
0.0
 40
36.66666907233162
  0
CIRCLE
  5
E2
330
1F
100
AcDbEntity
  8
3-2
  6
Continuous
 62
    92
370
     5
100
AcDbCircle
 10
-9.459376979518481
 20
37.97355033255911
 30
0.0
 40
20.00000025774982
  0
CIRCLE
  5
E3
330
1F
100
AcDbEntity
  8
3-2
  6
Continuous
 62
    92
370
     5
100
AcDbCircle
 10
190.5405405405406
 20
37.97355033255911
 30
0.0
 40
36.66666907233162
  0
CIRCLE
  5
E4
330
1F
100
AcDbEntity
  8
3-2
  6
Continuous
 62
    92
370
     5
100
AcDbCircle
 10
190.5405405405406
 20
37.97355033255911
 30
0.0
 40
20.00000025774982
  0
CIRCLE
  5
E5
330
1F
100
AcDbEntity
  8
3-2
  6
Continuous
 62
    92
370
     5
100
AcDbCircle
 10
390.5407055004224
 20
37.97355033255911
 30
0.0
 40
36.66666907233162
  0
CIRCLE
  5
E6
330
1F
100
AcDbEntity
  8
3-2
  6
Continuous
 62
    92
370
     5
100
AcDbCircle
 10
390.5407055004224
 20
37.97355033255911
 30
0.0
 40
20.00000025774982
  0
CIRCLE
  5
E7
330
1F
100
AcDbEntity
  8
3-2
  6
Continuous
 62
    92
370
     5
100
AcDbCircle
 10
590.5406230204818
 20
37.97355033255911
 30
0.0
 40
36.66666907233162
  0
CIRCLE
  5
E8
330
1F
100
AcDbEntity
  8
3-2
  6
Continuous
 62
    92
370
     5
100
AcDbCircle
 10
590.5406230204818
 20
37.97355033255911
 30
0.0
 40
20.00000025774982
  0
CIRCLE
  5
E9
330
1F
100
AcDbEntity
  8
3-2
  6
Continuous
 62
    92
370
     5
100
AcDbCircle
 10
790.5405405405406
 20
37.97355033255911
 30
0.0
 40
36.66666907233162
  0
CIRCLE
  5
EA
330
1F
100
AcDbEntity
  8
3-2
  6
Continuous
 62
    92
370
     5
100
AcDbCircle
 10
790.5405405405406
 20
37.97355033255911
 30
0.0
 40
20.00000025774982
  0
CIRCLE
  5
EB
330
1F
100
AcDbEntity
  8
3-2
  6
Continuous
 62
    92
370
     5
100
AcDbCircle
 10
-9.459376979518481
 20
237.9735915725297
 30
0.0
 40
36.66666907233162
  0
CIRCLE
  5
EC
330
1F
100
AcDbEntity
  8
3-2
  6
Continuous
 62
    92
370
     5
100
AcDbCircle
 10
-9.459376979518481
 20
237.9735915725297
 30
0.0
 40
20.00000025774982
  0
CIRCLE
  5
ED
330
1F
100
AcDbEntity
  8
3-2
  6
Continuous
 62
    92
370
     5
100
AcDbCircle
 10
190.5405405405406
 20
237.9735915725297
 30
0.0
 40
36.66666907233162
  0
CIRCLE
  5
EE
330
1F
100
AcDbEntity
  8
3-2
  6
Continuous
 62
    92
370
     5
100
AcDbCircle
 10
190.5405405405406
 20
237.9735915725297
 30
0.0
 40
20.00000025774982
  0
CIRCLE
  5
EF
330
1F
100
AcDbEntity
  8
3-2
  6
Continuous
 62
    92
370
     5
100
AcDbCircle
 10
390.5407055004224
 20
237.9735915725297
 30
0.0
 40
36.66666907233162
  0
CIRCLE
  5
F0
330
1F
100
AcDbEntity
  8
3-2
  6
Continuous
 62
    92
370
     5
100
AcDbCircle
 10
390.5407055004224
 20
237.9735915725297
 30
0.0
 40
20.00000025774982
  0
CIRCLE
  5
F1
330
1F
100
AcDbEntity
  8
3-2
  6
Continuous
 62
    92
370
     5
100
AcDbCircle
 10
590.5406230204818
 20
237.9735915725297
 30
0.0
 40
36.66666907233162
  0
CIRCLE
  5
F2
330
1F
100
AcDbEntity
  8
3-2
  6
Continuous
 62
    92
370
     5
100
AcDbCircle
 10
590.5406230204818
 20
237.9735915725297
 30
0.0
 40
20.00000025774982
  0
CIRCLE
  5
F3
330
1F
100
AcDbEntity
  8
3-2
  6
Continuous
 62
    92
370
     5
100
AcDbCircle
 10
790.5405405405406
 20
237.9735915725297
 30
0.0
 40
36.66666907233162
  0
CIRCLE
  5
F4
330
1F
100
AcDbEntity
  8
3-2
  6
Continuous
 62
    92
370
     5
100
AcDbCircle
 10
790.5405405405406
 20
237.9735915725297
 30
0.0
 40
20.00000025774982
  0
CIRCLE
  5
F5
330
1F
100
AcDbEntity
  8
3-2
  6
Continuous
 62
    92
370
     5
100
AcDbCircle
 10
-9.459376979518481
 20
437.9735090925888
 30
0.0
 40
36.66666907233162
  0
CIRCLE
  5
F6
330
1F
100
AcDbEntity
  8
3-2
  6
Continuous
 62
    92
370
     5
100
AcDbCircle
 10
-9.459376979518481
 20
437.9735090925888
 30
0.0
 40
20.00000025774982
  0
CIRCLE
  5
F7
330
1F
100
AcDbEntity
  8
3-2
  6
Continuous
 62
    92
370
     5
100
AcDbCircle
 10
190.5405405405406
 20
437.9735090925888
 30
0.0
 40
36.66666907233162
  0
CIRCLE
  5
F8
330
1F
100
AcDbEntity
  8
3-2
  6
Continuous
 62
    92
370
     5
100
AcDbCircle
 10
190.5405405405406
 20
437.9735090925888
 30
0.0
 40
20.00000025774982
  0
CIRCLE
  5
F9
330
1F
100
AcDbEntity
  8
3-2
  6
Continuous
 62
    92
370
     5
100
AcDbCircle
 10
390.5407055004224
 20
437.9735090925888
 30
0.0
 40
36.66666907233162
  0
CIRCLE
  5
FA
330
1F
100
AcDbEntity
  8
3-2
  6
Continuous
 62
    92
370
     5
100
AcDbCircle
 10
390.5407055004224
 20
437.9735090925888
 30
0.0
 40
20.00000025774982
  0
CIRCLE
  5
FB
330
1F
100
AcDbEntity
  8
3-2
  6
Continuous
 62
    92
370
     5
100
AcDbCircle
 10
590.5406230204818
 20
437.9735090925888
 30
0.0
 40
36.66666907233162
  0
CIRCLE
  5
FC
330
1F
100
AcDbEntity
  8
3-2
  6
Continuous
 62
    92
370
     5
100
AcDbCircle
 10
590.5406230204818
 20
437.9735090925888
 30
0.0
 40
20.00000025774982
  0
CIRCLE
  5
FD
330
1F
100
AcDbEntity
  8
3-2
  6
Continuous
 62
    92
370
     5
100
AcDbCircle
 10
790.5405405405406
 20
437.9735090925888
 30
0.0
 40
36.66666907233162
  0
CIRCLE
  5
FE
330
1F
100
AcDbEntity
  8
3-2
  6
Continuous
 62
    92
370
     5
100
AcDbCircle
 10
790.5405405405406
 20
437.9735090925888
 30
0.0
 40
20.00000025774982
  0
CIRCLE
  5
FF
330
1F
100
AcDbEntity
  8
3-2
  6
Continuous
 62
    92
370
     5
100
AcDbCircle
 10
-9.459376979518481
 20
637.9735503325592
 30
0.0
 40
36.66666907233162
  0
CIRCLE
  5
100
330
1F
100
AcDbEntity
  8
3-2
  6
Continuous
 62
    92
370
     5
100
AcDbCircle
 10
-9.459376979518481
 20
637.9735503325592
 30
0.0
 40
20.00000025774982
  0
CIRCLE
  5
101
330
1F
100
AcDbEntity
  8
3-2
  6
Continuous
 62
    92
370
     5
100
AcDbCircle
 10
190.5405405405406
 20
637.9735503325592
 30
0.0
 40
36.66666907233162
  0
CIRCLE
  5
102
330
1F
100
AcDbEntity
  8
3-2
  6
Continuous
 62
    92
370
     5
100
AcDbCircle
 10
190.5405405405406
 20
637.9735503325592
 30
0.0
 40
20.00000025774982
  0
CIRCLE
  5
103
330
1F
100
AcDbEntity
  8
3-2
  6
Continuous
 62
    92
370
     5
100
AcDbCircle
 10
390.5407055004224
 20
637.9735503325592
 30
0.0
 40
36.66666907233162
  0
CIRCLE
  5
104
330
1F
100
AcDbEntity
  8
3-2
  6
Continuous
 62
    92
370
     5
100
AcDbCircle
 10
390.5407055004224
 20
637.9735503325592
 30
0.0
 40
20.00000025774982
  0
CIRCLE
  5
105
330
1F
100
AcDbEntity
  8
3-2
  6
Continuous
 62
    92
370
     5
100
AcDbCircle
 10
590.5406230204818
 20
637.9735503325592
 30
0.0
 40
36.66666907233162
  0
CIRCLE
  5
106
330
1F
100
AcDbEntity
  8
3-2
  6
Continuous
 62
    92
370
     5
100
AcDbCircle
 10
590.5406230204818
 20
637.9735503325592
 30
0.0
 40
20.00000025774982
  0
CIRCLE
  5
107
330
1F
100
AcDbEntity
  8
3-2
  6
Continuous
 62
    92
370
     5
100
AcDbCircle
 10
790.5405405405406
 20
637.9735503325592
 30
0.0
 40
36.66666907233162
  0
CIRCLE
  5
108
330
1F
100
AcDbEntity
  8
3-2
  6
Continuous
 62
    92
370
     5
100
AcDbCircle
 10
790.5405405405406
 20
637.9735503325592
 30
0.0
 40
20.00000025774982
  0
CIRCLE
  5
109
330
1F
100
AcDbEntity
  8
3-2
  6
Continuous
 62
    92
370
     5
100
AcDbCircle
 10
-9.459376979518481
 20
837.9734678526186
 30
0.0
 40
36.66666907233162
  0
CIRCLE
  5
10A
330
1F
100
AcDbEntity
  8
3-2
  6
Continuous
 62
    92
370
     5
100
AcDbCircle
 10
-9.459376979518481
 20
837.9734678526186
 30
0.0
 40
20.00000025774982
  0
CIRCLE
  5
10B
330
1F
100
AcDbEntity
  8
3-2
  6
Continuous
 62
    92
370
     5
100
AcDbCircle
 10
190.5405405405406
 20
837.9734678526186
 30
0.0
 40
36.66666907233162
  0
CIRCLE
  5
10C
330
1F
100
AcDbEntity
  8
3-2
  6
Continuous
 62
    92
370
     5
100
AcDbCircle
 10
190.5405405405406
 20
837.9734678526186
 30
0.0
 40
20.00000025774982
  0
CIRCLE
  5
10D
330
1F
100
AcDbEntity
  8
3-2
  6
Continuous
 62
    92
370
     5
100
AcDbCircle
 10
390.5407055004224
 20
837.9734678526186
 30
0.0
 40
36.66666907233162
  0
CIRCLE
  5
10E
330
1F
100
AcDbEntity
  8
3-2
  6
Continuous
 62
    92
370
     5
100
AcDbCircle
 10
390.5407055004224
 20
837.9734678526186
 30
0.0
 40
20.00000025774982
  0
CIRCLE
  5
10F
330
1F
100
AcDbEntity
  8
3-2
  6
Continuous
 62
    92
370
     5
100
AcDbCircle
 10
590.5406230204818
 20
837.9734678526186
 30
0.0
 40
36.66666907233162
  0
CIRCLE
  5
110
330
1F
100
AcDbEntity
  8
3-2
  6
Continuous
 62
    92
370
     5
100
AcDbCircle
 10
590.5406230204818
 20
837.9734678526186
 30
0.0
 40
20.00000025774982
  0
CIRCLE
  5
111
330
1F
100
AcDbEntity
  8
3-2
  6
Continuous
 62
    92
370
     5
100
AcDbCircle
 10
790.5405405405406
 20
837.9734678526186
 30
0.0
 40
36.66666907233162
  0
CIRCLE
  5
112
330
1F
100
AcDbEntity
  8
3-2
  6
Continuous
 62
    92
370
     5
100
AcDbCircle
 10
790.5405405405406
 20
837.9734678526186
 30
0.0
 40
20.00000025774982
  0
TEXT
  5
113
330
1F
100
AcDbEntity
  8
0-4
  6
Continuous
 62
     7
370
     5
100
AcDbText
 10
-1411.618454391892
 20
100.5021046241555
 30
0.0
 40
22.86
  1
ＳＣＳ１３
 41
1.133333360826646
  7
ＭＳ ゴシック
100
AcDbText
  0
TEXT
  5
114
330
1F
100
AcDbEntity
  8
3-4
  6
Continuous
 62
    40
370
     9
100
AcDbText
 10
-80.70942646748307
 20
-153.1452766707135
 30
0.0
 40
30.48
  1
30
 41
1.0625
  7
ＭＳ ゴシック
100
AcDbText
  0
TEXT
  5
115
330
1F
100
AcDbEntity
  8
3-4
  6
Continuous
 62
    40
370
     9
100
AcDbText
 10
69.29057353251693
 20
-153.1452766707135
 30
0.0
 40
30.48
  1
60
 41
1.0625
  7
ＭＳ ゴシック
100
AcDbText
  0
TEXT
  5
116
330
1F
100
AcDbEntity
  8
3-4
  6
Continuous
 62
    40
370
     9
100
AcDbText
 10
269.2907384923987
 20
-153.1452766707135
 30
0.0
 40
30.48
  1
60
 41
1.0625
  7
ＭＳ ゴシック
100
AcDbText
  0
TEXT
  5
117
330
1F
100
AcDbEntity
  8
3-4
  6
Continuous
 62
    40
370
     9
100
AcDbText
 10
469.2906560124578
 20
-153.1452766707135
 30
0.0
 40
30.48
  1
60
 41
1.0625
  7
ＭＳ ゴシック
100
AcDbText
  0
TEXT
  5
118
330
1F
100
AcDbEntity
  8
3-4
  6
Continuous
 62
    40
370
     9
100
AcDbText
 10
669.2905735325172
 20
-153.1452766707135
 30
0.0
 40
30.48
  1
60
 41
1.0625
  7
ＭＳ ゴシック
100
AcDbText
  0
TEXT
  5
119
330
1F
100
AcDbEntity
  8
3-4
  6
Continuous
 62
    40
370
     9
100
AcDbText
 10
819.2905735325172
 20
-153.1452766707135
 30
0.0
 40
30.48
  1
30
 41
1.0625
  7
ＭＳ ゴシック
100
AcDbText
  0
TEXT
  5
11A
330
1F
100
AcDbEntity
  8
3-4
  6
Continuous
 62
    40
370
     9
100
AcDbText
 10
358.040474556588
 20
-251.1939249894425
 30
0.0
 40
30.48
  1
300
 41
1.083333333333333
  7
ＭＳ ゴシック
100
AcDbText
  0
TEXT
  5
11B
330
1F
100
AcDbEntity
  8
3-4
  6
Continuous
 62
    40
370
     9
100
AcDbText
 10
995.926129117399
 20
-33.27674659522785
 30
0.0
 40
30.48
  1
30
 50
90.0
 41
1.0625
  7
ＭＳ ゴシック
100
AcDbText
  0
TEXT
  5
11C
330
1F
100
AcDbEntity
  8
3-4
  6
Continuous
 62
    40
370
     9
100
AcDbText
 10
995.926129117399
 20
116.723624564506
 30
0.0
 40
30.48
  1
60
 50
90.0
 41
1.0625
  7
ＭＳ ゴシック
100
AcDbText
  0
TEXT
  5
11D
330
1F
100
AcDbEntity
  8
3-4
  6
Continuous
 62
    40
370
     9
100
AcDbText
 10
995.926129117399
 20
316.7235420845651
 30
0.0
 40
30.48
  1
60
 50
90.0
 41
1.0625
  7
ＭＳ ゴシック
100
AcDbText
  0
TEXT
  5
11E
330
1F
100
AcDbEntity
  8
3-4
  6
Continuous
 62
    40
370
     9
100
AcDbText
 10
995.926129117399
 20
516.7235833245356
 30
0.0
 40
30.48
  1
60
 50
90.0
 41
1.0625
  7
ＭＳ ゴシック
100
AcDbText
  0
TEXT
  5
11F
330
1F
100
AcDbEntity
  8
3-4
  6
Continuous
 62
    40
370
     9
100
AcDbText
 10
995.926129117399
 20
716.7235008445948
 30
0.0
 40
30.48
  1
60
 50
90.0
 41
1.0625
  7
ＭＳ ゴシック
100
AcDbText
  0
TEXT
  5
120
330
1F
100
AcDbEntity
  8
3-4
  6
Continuous
 62
    40
370
     9
100
AcDbText
 10
995.926129117399
 20
866.7232534047721
 30
0.0
 40
30.48
  1
30
 50
90.0
 41
1.0625
  7
ＭＳ ゴシック
100
AcDbText
  0
TEXT
  5
121
330
1F
100
AcDbEntity
  8
3-4
  6
Continuous
 62
    40
370
     9
100
AcDbText
 10
1102.075091189823
 20
405.4730307089318
 30
0.0
 40
30.48
  1
300
 50
90.0
 41
1.083333333333333
  7
ＭＳ ゴシック
100
AcDbText
  0
TEXT
  5
122
330
1F
100
AcDbEntity
  8
3-4
  6
Continuous
 62
    40
370
     9
100
AcDbText
 10
162.9292256123313
 20
-457.5192704154349
 30
0.0
 40
30.48
  1
パターン例　Ｓ＝１：３
 41
1.113636363636364
  7
ＭＳ ゴシック
100
AcDbText
  0
TEXT
  5
123
330
1F
100
AcDbEntity
  8
0-4
  6
Continuous
 62
    40
370
     9
100
AcDbText
 10
-1191.453614106049
 20
-457.5192704154349
 30
0.0
 40
30.48
  1
Ｓ＝１：１
 41
1.1
  7
ＭＳ ゴシック
100
AcDbText
  0
TEXT
  5
124
330
1F
100
AcDbEntity
  8
0-4
  6
Continuous
 62
    40
370
     9
100
AcDbText
 10
-856.9109334089949
 20
-132.4675771352406
 30
0.0
 40
30.48
  1
12
 50
90.0
 41
1.0625
  7
ＭＳ ゴシック
100
AcDbText
  0
TEXT
  5
125
330
1F
100
AcDbEntity
  8
0-4
  6
Continuous
 62
    40
370
     9
100
AcDbText
 10
-856.9109334089949
 20
-36.21756888724661
 30
0.0
 40
30.48
  1
5
 50
90.0
 41
0.9999999999999997
  7
ＭＳ ゴシック
100
AcDbText
  0
TEXT
  5
126
330
1F
100
AcDbEntity
  8
0-4
  6
Continuous
 62
    40
370
     9
100
AcDbText
 10
-776.9111643528294
 20
-107.4676183752112
 30
0.0
 40
30.48
  1
17
 50
90.0
 41
1.0625
  7
ＭＳ ゴシック
100
AcDbText
  0
TEXT
  5
127
330
1F
100
AcDbEntity
  8
0-4
  6
Continuous
 62
    40
370
     9
100
AcDbText
 10
-1026.636484506968
 20
-255.5776926071578
 30
0.0
 40
30.48
  1
φ6
 41
1.083333333333333
  7
ＭＳ ゴシック
100
AcDbText
  0
TEXT
  5
128
330
1F
100
AcDbEntity
  8
0-4
  6
Continuous
 62
    40
370
     9
100
AcDbText
 10
-1130.236568966427
 20
553.9609063555745
 30
0.0
 40
30.48
  1
φ12
 41
1.09375
  7
ＭＳ ゴシック
100
AcDbText
  0
TEXT
  5
129
330
1F
100
AcDbEntity
  8
0-4
  6
Continuous
 62
    40
370
     9
100
AcDbText
 10
-1130.236568966427
 20
473.9608898595862
 30
0.0
 40
30.48
  1
φ22
 41
1.09375
  7
ＭＳ ゴシック
100
AcDbText
  0
TEXT
  5
12A
330
1F
100
AcDbEntity
  8
0-4
  6
Continuous
 62
    40
370
     9
100
AcDbText
 10
-965.2476542704813
 20
887.8349231946792
 30
0.0
 40
30.48
  1
ＨＬ方向
 41
1.09375
  7
ＭＳ ゴシック
100
AcDbText
  0
TEXT
  5
12B
330
1F
100
AcDbEntity
  8
0-4
  6
Continuous
 62
     7
370
     5
100
AcDbText
 10
-1400.299319705448
 20
48.88714738175678
 30
0.0
 40
22.86
  1
ＨＬ仕上げ
 41
1.133333360826648
  7
ＭＳ ゴシック
100
AcDbText
  0
TEXT
  5
12C
330
1F
100
AcDbEntity
  8
F-4
  6
Continuous
 62
     7
370
     5
100
AcDbText
 10
-814.756609942462
 20
-1320.836605645257
 30
0.0
 40
22.86
  1
ＪＩＳ型　床タイル用　ステンレス鋳鋼製　プレーンタイプ
 41
1.160493837343203
  7
ＭＳ ゴシック
100
AcDbText
  0
TEXT
  5
12D
330
1F
100
AcDbEntity
  8
F-4
  6
Continuous
 62
     7
370
     5
100
AcDbText
 10
-499.0506146405193
 20
-1372.645679428513
 30
0.0
 40
22.86
  1
視覚障害者誘導用マーカー（点状突起）　ＪＭＰ－１
 41
1.159722222222222
  7
ＭＳ ゴシック
100
AcDbText
  0
ENDSEC
  0
SECTION
  2
OBJECTS
  0
DICTIONARY
  5
C
330
0
100
AcDbDictionary
281
     1
  3
ACAD_GROUP
350
D
  3
ACAD_LAYOUT
350
1A
  3
ACAD_MLEADERSTYLE
350
12F
  3
ACAD_MLINESTYLE
350
17
  3
ACAD_PLOTSETTINGS
350
19
  3
ACAD_PLOTSTYLENAME
350
E
  3
ACAD_TABLESTYLE
350
12E
  3
ACAD_VISUALSTYLE
350
2A
  0
DICTIONARY
  5
D
102
{ACAD_REACTORS
330
C
102
}
330
C
100
AcDbDictionary
281
     1
  0
DICTIONARY
  5
1A
102
{ACAD_REACTORS
330
C
102
}
330
C
100
AcDbDictionary
281
     1
  3
Layout1
350
1E
  3
Layout2
350
26
  3
Model
350
22
  0
DICTIONARY
  5
12F
102
{ACAD_REACTORS
330
C
102
}
330
C
100
AcDbDictionary
281
     1
  0
DICTIONARY
  5
17
102
{ACAD_REACTORS
330
C
102
}
330
C
100
AcDbDictionary
281
     1
  3
Standard
350
18
  0
DICTIONARY
  5
19
102
{ACAD_REACTORS
330
C
102
}
330
C
100
AcDbDictionary
281
     1
  0
ACDBDICTIONARYWDFLT
  5
E
102
{ACAD_REACTORS
330
C
102
}
330
C
100
AcDbDictionary
281
     1
  3
Normal
350
F
100
AcDbDictionaryWithDefault
340
F
  0
DICTIONARY
  5
12E
102
{ACAD_REACTORS
330
C
102
}
330
C
100
AcDbDictionary
281
     1
  0
DICTIONARY
  5
2A
102
{ACAD_REACTORS
330
C
102
}
330
C
100
AcDbDictionary
281
     1
  3
2dWireframe
350
2F
  3
3D Hidden
350
31
  3
3dWireframe
350
30
  3
Basic
350
32
  3
Brighten
350
36
  3
ColorChange
350
3A
  3
Conceptual
350
34
  3
Dim
350
35
  3
Facepattern
350
39
  3
Flat
350
2B
  3
FlatWithEdges
350
2C
  3
Gouraud
350
2D
  3
GouraudWithEdges
350
2E
  3
Linepattern
350
38
  3
Realistic
350
33
  3
Thicken
350
37
  0
LAYOUT
  5
1E
102
{ACAD_REACTORS
330
1A
102
}
330
1A
100
AcDbPlotSettings
  1

  2
none_device
  4

  6

 40
0.0
 41
0.0
 42
0.0
 43
0.0
 44
0.0
 45
0.0
 46
0.0
 47
0.0
 48
0.0
 49
0.0
140
0.0
141
0.0
142
1.0
143
1.0
 70
   688
 72
     0
 73
     0
 74
     5
  7

 75
    16
 76
     0
 77
     5
 78
   300
147
1.0
148
0.0
149
0.0
100
AcDbLayout
  1
Layout1
 70
     1
 71
     1
 10
0.0
 20
0.0
 11
420.0
 21
297.0
 12
0.0
 22
0.0
 32
0.0
 14
1.000000000000000E+20
 24
1.000000000000000E+20
 34
1.000000000000000E+20
 15
-1.000000000000000E+20
 25
-1.000000000000000E+20
 35
-1.000000000000000E+20
146
0.0
 13
0.0
 23
0.0
 33
0.0
 16
1.0
 26
0.0
 36
0.0
 17
0.0
 27
1.0
 37
0.0
 76
     0
330
1B
  0
LAYOUT
  5
26
102
{ACAD_REACTORS
330
1A
102
}
330
1A
100
AcDbPlotSettings
  1

  2
none_device
  4

  6

 40
0.0
 41
0.0
 42
0.0
 43
0.0
 44
0.0
 45
0.0
 46
0.0
 47
0.0
 48
0.0
 49
0.0
140
0.0
141
0.0
142
1.0
143
1.0
 70
   688
 72
     0
 73
     0
 74
     5
  7

 75
    16
 76
     0
 77
     5
 78
   300
147
1.0
148
0.0
149
0.0
100
AcDbLayout
  1
Layout2
 70
     1
 71
     2
 10
0.0
 20
0.0
 11
0.0
 21
0.0
 12
0.0
 22
0.0
 32
0.0
 14
0.0
 24
0.0
 34
0.0
 15
0.0
 25
0.0
 35
0.0
146
0.0
 13
0.0
 23
0.0
 33
0.0
 16
1.0
 26
0.0
 36
0.0
 17
0.0
 27
1.0
 37
0.0
 76
     0
330
23
  0
LAYOUT
  5
22
102
{ACAD_REACTORS
330
1A
102
}
330
1A
100
AcDbPlotSettings
  1

  2
none_device
  4

  6

 40
0.0
 41
0.0
 42
0.0
 43
0.0
 44
0.0
 45
0.0
 46
0.0
 47
0.0
 48
0.0
 49
0.0
140
0.0
141
0.0
142
1.0
143
1.0
 70
  1712
 72
     0
 73
     0
 74
     0
  7

 75
     0
 76
     0
 77
     5
 78
   300
147
1.0
148
0.0
149
0.0
100
AcDbLayout
  1
Model
 70
     1
 71
     0
 10
-2100.0
 20
-1485.0
 11
2100.0
 21
1485.0
 12
0.0
 22
0.0
 32
0.0
 14
-2100.0
 24
-1485.0
 34
0.0
 15
2100.0
 25
1485.0
 35
0.0
146
0.0
 13
0.0
 23
0.0
 33
0.0
 16
1.0
 26
0.0
 36
0.0
 17
0.0
 27
1.0
 37
0.0
 76
     0
330
1F
331
29
  0
MLINESTYLE
  5
18
102
{ACAD_REACTORS
330
17
102
}
330
17
100
AcDbMlineStyle
  2
Standard
 70
     0
  3

 62
   256
 51
90.0
 52
90.0
 71
     2
 49
0.5
 62
   256
  6
BYLAYER
 49
-0.5
 62
   256
  6
BYLAYER
  0
ACDBPLACEHOLDER
  5
F
102
{ACAD_REACTORS
330
E
102
}
330
E
  0
VISUALSTYLE
  5
2F
102
{ACAD_REACTORS
330
2A
102
}
330
2A
100
AcDbVisualStyle
  2
2dWireframe
 70
     4
 71
     0
 72
     2
 73
     0
 90
        0
 40
-0.6
 41
-30.0
 62
     5
 63
     7
421
 16777215
 74
     1
 91
        4
 64
     7
 65
   257
 75
     1
175
     1
 42
1.0
 92
        0
 66
   257
 43
1.0
 76
     1
 77
     6
 78
     2
 67
     7
 79
     5
170
     0
171
     0
290
     0
174
     0
 93
        1
 44
0.0
173
     0
291
     0
 45
0.0
1001
ACAD
1000
AcDbSavedByObjectVersion
1070
     0
  0
VISUALSTYLE
  5
31
102
{ACAD_REACTORS
330
2A
102
}
330
2A
100
AcDbVisualStyle
  2
3D Hidden
 70
     6
 71
     1
 72
     2
 73
     2
 90
        0
 40
-0.6
 41
-30.0
 62
     5
 63
     7
421
 16777215
 74
     2
 91
        2
 64
     7
 65
   257
 75
     2
175
     1
 42
40.0
 92
        0
 66
   257
 43
1.0
 76
     1
 77
     6
 78
     2
 67
     7
 79
     3
170
     0
171
     0
290
     0
174
     0
 93
        1
 44
0.0
173
     0
291
     0
 45
0.0
1001
ACAD
1000
AcDbSavedByObjectVersion
1070
     0
  0
VISUALSTYLE
  5
30
102
{ACAD_REACTORS
330
2A
102
}
330
2A
100
AcDbVisualStyle
  2
3dWireframe
 70
     5
 71
     0
 72
     2
 73
     0
 90
        0
 40
-0.6
 41
-30.0
 62
     5
 63
     7
421
 16777215
 74
     1
 91
        4
 64
     7
 65
   257
 75
     1
175
     1
 42
1.0
 92
        0
 66
   257
 43
1.0
 76
     1
 77
     6
 78
     2
 67
     7
 79
     5
170
     0
171
     0
290
     0
174
     0
 93
        1
 44
0.0
173
     0
291
     0
 45
0.0
1001
ACAD
1000
AcDbSavedByObjectVersion
1070
     0
  0
VISUALSTYLE
  5
32
102
{ACAD_REACTORS
330
2A
102
}
330
2A
100
AcDbVisualStyle
  2
Basic
 70
     7
 71
     1
 72
     0
 73
     1
 90
        0
 40
-0.6
 41
-30.0
 62
     5
 63
     7
421
 16777215
 74
     0
 91
        4
 64
     7
 65
   257
 75
     1
175
     1
 42
1.0
 92
        8
 66
     7
 43
1.0
 76
     1
 77
     6
 78
     2
 67
     7
 79
     5
170
     0
171
     0
290
     0
174
     0
 93
        1
 44
0.0
173
     0
291
     1
 45
0.0
1001
ACAD
1000
AcDbSavedByObjectVersion
1070
     0
  0
VISUALSTYLE
  5
36
102
{ACAD_REACTORS
330
2A
102
}
330
2A
100
AcDbVisualStyle
  2
Brighten
 70
    12
 71
     2
 72
     2
 73
     0
 90
        0
 40
-0.6
 41
-30.0
 62
     5
 63
     7
421
 16777215
 74
     1
 91
        4
 64
     7
 65
   257
 75
     1
175
     1
 42
1.0
 92
        8
 66
     7
 43
1.0
 76
     1
 77
     6
 78
     2
 67
     7
 79
     5
170
     0
171
     0
290
     0
174
     0
 93
        1
 44
50.0
173
     0
291
     1
 45
0.0
1001
ACAD
1000
AcDbSavedByObjectVersion
1070
     0
  0
VISUALSTYLE
  5
3A
102
{ACAD_REACTORS
330
2A
102
}
330
2A
100
AcDbVisualStyle
  2
ColorChange
 70
    16
 71
     2
 72
     2
 73
     3
 90
        0
 40
-0.6
 41
-30.0
 62
     5
 63
     8
421
  8421504
 74
     1
 91
        4
 64
     7
 65
   257
 75
     1
175
     1
 42
1.0
 92
        8
 66
     8
424
  8421504
 43
1.0
 76
     1
 77
     6
 78
     2
 67
     7
 79
     5
170
     0
171
     0
290
     0
174
     0
 93
        1
 44
0.0
173
     0
291
     1
 45
0.0
1001
ACAD
1000
AcDbSavedByObjectVersion
1070
     0
  0
VISUALSTYLE
  5
34
102
{ACAD_REACTORS
330
2A
102
}
330
2A
100
AcDbVisualStyle
  2
Conceptual
 70
     9
 71
     3
 72
     2
 73
     0
 90
        0
 40
-0.6
 41
-30.0
 62
     5
 63
     7
421
 16777215
 74
     2
 91
        2
 64
     7
 65
   257
 75
     1
175
     1
 42
40.0
 92
        8
 66
     7
 43
1.0
 76
     1
 77
     6
 78
     2
 67
     7
 79
     3
170
     0
171
     0
290
     0
174
     0
 93
        1
 44
0.0
173
     0
291
     0
 45
0.0
1001
ACAD
1000
AcDbSavedByObjectVersion
1070
     0
  0
VISUALSTYLE
  5
35
102
{ACAD_REACTORS
330
2A
102
}
330
2A
100
AcDbVisualStyle
  2
Dim
 70
    11
 71
     2
 72
     2
 73
     0
 90
        0
 40
-0.6
 41
-30.0
 62
     5
 63
     7
421
 16777215
 74
     1
 91
        4
 64
     7
 65
   257
 75
     1
175
     1
 42
1.0
 92
        8
 66
     7
 43
1.0
 76
     1
 77
     6
 78
     2
 67
     7
 79
     5
170
     0
171
     0
290
     0
174
     0
 93
        1
 44
-50.0
173
     0
291
     1
 45
0.0
1001
ACAD
1000
AcDbSavedByObjectVersion
1070
     0
  0
VISUALSTYLE
  5
39
102
{ACAD_REACTORS
330
2A
102
}
330
2A
100
AcDbVisualStyle
  2
Facepattern
 70
    15
 71
     2
 72
     2
 73
     0
 90
        0
 40
-0.6
 41
-30.0
 62
     5
 63
     7
421
 16777215
 74
     1
 91
        4
 64
     7
 65
   257
 75
     1
175
     1
 42
1.0
 92
        8
 66
     7
 43
1.0
 76
     1
 77
     6
 78
     2
 67
     7
 79
     5
170
     0
171
     0
290
     0
174
     0
 93
        1
 44
0.0
173
     0
291
     1
 45
0.0
1001
ACAD
1000
AcDbSavedByObjectVersion
1070
     0
  0
VISUALSTYLE
  5
2B
102
{ACAD_REACTORS
330
2A
102
}
330
2A
100
AcDbVisualStyle
  2
Flat
 70
     0
 71
     2
 72
     1
 73
     1
 90
        2
 40
-0.6
 41
30.0
 62
     5
 63
     7
421
 16777215
 74
     0
 91
        4
 64
     7
 65
   257
 75
     1
175
     1
 42
1.0
 92
        8
 66
     7
 43
1.0
 76
     1
 77
     6
 78
     2
 67
     7
 79
     5
170
     0
171
     0
290
     0
174
     0
 93
       13
 44
0.0
173
     0
291
     1
 45
0.0
1001
ACAD
1000
AcDbSavedByObjectVersion
1070
     0
  0
VISUALSTYLE
  5
2C
102
{ACAD_REACTORS
330
2A
102
}
330
2A
100
AcDbVisualStyle
  2
FlatWithEdges
 70
     1
 71
     2
 72
     1
 73
     1
 90
        2
 40
-0.6
 41
30.0
 62
     5
 63
     7
421
 16777215
 74
     1
 91
        4
 64
     7
 65
   257
 75
     1
175
     1
 42
1.0
 92
        0
 66
   257
 43
1.0
 76
     1
 77
     6
 78
     2
 67
     7
 79
     5
170
     0
171
     0
290
     0
174
     0
 93
       13
 44
0.0
173
     0
291
     1
 45
0.0
1001
ACAD
1000
AcDbSavedByObjectVersion
1070
     0
  0
VISUALSTYLE
  5
2D
102
{ACAD_REACTORS
330
2A
102
}
330
2A
100
AcDbVisualStyle
  2
Gouraud
 70
     2
 71
     2
 72
     2
 73
     1
 90
        2
 40
-0.6
 41
30.0
 62
     5
 63
     7
421
 16777215
 74
     0
 91
        4
 64
     7
 65
   257
 75
     1
175
     1
 42
1.0
 92
        0
 66
     7
 43
1.0
 76
     1
 77
     6
 78
     2
 67
     7
 79
     5
170
     0
171
     0
290
     0
174
     0
 93
       13
 44
0.0
173
     0
291
     1
 45
0.0
1001
ACAD
1000
AcDbSavedByObjectVersion
1070
     0
  0
VISUALSTYLE
  5
2E
102
{ACAD_REACTORS
330
2A
102
}
330
2A
100
AcDbVisualStyle
  2
GouraudWithEdges
 70
     3
 71
     2
 72
     2
 73
     1
 90
        2
 40
-0.6
 41
30.0
 62
     5
 63
     7
421
 16777215
 74
     1
 91
        4
 64
     7
 65
   257
 75
     1
175
     1
 42
1.0
 92
        0
 66
   257
 43
1.0
 76
     1
 77
     6
 78
     2
 67
     7
 79
     5
170
     0
171
     0
290
     0
174
     0
 93
       13
 44
0.0
173
     0
291
     1
 45
0.0
1001
ACAD
1000
AcDbSavedByObjectVersion
1070
     0
  0
VISUALSTYLE
  5
38
102
{ACAD_REACTORS
330
2A
102
}
330
2A
100
AcDbVisualStyle
  2
Linepattern
 70
    14
 71
     2
 72
     2
 73
     0
 90
        0
 40
-0.6
 41
-30.0
 62
     5
 63
     7
421
 16777215
 74
     1
 91
        4
 64
     7
 65
   257
 75
     7
175
     7
 42
1.0
 92
        8
 66
     7
 43
1.0
 76
     1
 77
     6
 78
     2
 67
     7
 79
     5
170
     0
171
     0
290
     0
174
     0
 93
        1
 44
0.0
173
     0
291
     1
 45
0.0
1001
ACAD
1000
AcDbSavedByObjectVersion
1070
     0
  0
VISUALSTYLE
  5
33
102
{ACAD_REACTORS
330
2A
102
}
330
2A
100
AcDbVisualStyle
  2
Realistic
 70
     8
 71
     2
 72
     2
 73
     0
 90
        0
 40
-0.6
 41
-30.0
 62
     5
 63
     7
421
 16777215
 74
     1
 91
        0
 64
     7
 65
   257
 75
     1
175
     1
 42
1.0
 92
        8
 66
     8
424
  7895160
 43
1.0
 76
     1
 77
     6
 78
     2
 67
     7
 79
     5
170
     0
171
     0
290
     0
174
     0
 93
       13
 44
0.0
173
     0
291
     0
 45
0.0
1001
ACAD
1000
AcDbSavedByObjectVersion
1070
     0
  0
VISUALSTYLE
  5
37
102
{ACAD_REACTORS
330
2A
102
}
330
2A
100
AcDbVisualStyle
  2
Thicken
 70
    13
 71
     2
 72
     2
 73
     0
 90
        0
 40
-0.6
 41
-30.0
 62
     5
 63
     7
421
 16777215
 74
     1
 91
        4
 64
     7
 65
   257
 75
     1
175
     1
 42
1.0
 92
       12
 66
     7
 43
1.0
 76
     1
 77
     6
 78
     2
 67
     7
 79
     5
170
     0
171
     0
290
     0
174
     0
 93
        1
 44
0.0
173
     0
291
     1
 45
0.0
1001
ACAD
1000
AcDbSavedByObjectVersion
1070
     0
  0
ENDSEC
  0
EOF
