  0
SECTION
  2
HEADER
  9
$ACADVER
  1
AC1018
  9
$ACADMAINTVER
 70
     0
  9
$DWGCODEPAGE
  3
ANSI_932
  9
$INSBASE
 10
0.0
 20
0.0
 30
0.0
  9
$EXTMIN
 10
-2100.0
 20
-1485.0
 30
0.0
  9
$EXTMAX
 10
2100.0
 20
1485.0
 30
0.0
  9
$LIMMIN
 10
-2100.0
 20
-1485.0
  9
$LIMMAX
 10
2100.0
 20
1485.0
  9
$ORTHOMODE
 70
     0
  9
$REGENMODE
 70
     1
  9
$FILLMODE
 70
     1
  9
$QTEXTMODE
 70
     0
  9
$MIRRTEXT
 70
     1
  9
$LTSCALE
 40
10.0
  9
$ATTMODE
 70
     1
  9
$TEXTSIZE
 40
2.5
  9
$TRACEWID
 40
1.0
  9
$TEXTSTYLE
  7
Standard
  9
$CLAYER
  8
0
  9
$CELTYPE
  6
ByLayer
  9
$CECOLOR
 62
   256
  9
$CELTSCALE
 40
1.0
  9
$DISPSILH
 70
     0
  9
$DIMSCALE
 40
1.0
  9
$DIMASZ
 40
2.5
  9
$DIMEXO
 40
0.625
  9
$DIMDLI
 40
3.75
  9
$DIMRND
 40
0.0
  9
$DIMDLE
 40
0.0
  9
$DIMEXE
 40
1.25
  9
$DIMTP
 40
0.0
  9
$DIMTM
 40
0.0
  9
$DIMTXT
 40
2.5
  9
$DIMCEN
 40
2.5
  9
$DIMTSZ
 40
0.0
  9
$DIMTOL
 70
     0
  9
$DIMLIM
 70
     0
  9
$DIMTIH
 70
     0
  9
$DIMTOH
 70
     0
  9
$DIMSE1
 70
     0
  9
$DIMSE2
 70
     0
  9
$DIMTAD
 70
     1
  9
$DIMZIN
 70
     8
  9
$DIMBLK
  1

  9
$DIMASO
 70
     1
  9
$DIMSHO
 70
     1
  9
$DIMPOST
  1

  9
$DIMAPOST
  1

  9
$DIMALT
 70
     0
  9
$DIMALTD
 70
     3
  9
$DIMALTF
 40
0.03937007874016
  9
$DIMLFAC
 40
1.0
  9
$DIMTOFL
 70
     1
  9
$DIMTVP
 40
0.0
  9
$DIMTIX
 70
     0
  9
$DIMSOXD
 70
     0
  9
$DIMSAH
 70
     0
  9
$DIMBLK1
  1

  9
$DIMBLK2
  1

  9
$DIMSTYLE
  2
ISO-25
  9
$DIMCLRD
 70
     0
  9
$DIMCLRE
 70
     0
  9
$DIMCLRT
 70
     0
  9
$DIMTFAC
 40
1.0
  9
$DIMGAP
 40
0.625
  9
$DIMJUST
 70
     0
  9
$DIMSD1
 70
     0
  9
$DIMSD2
 70
     0
  9
$DIMTOLJ
 70
     0
  9
$DIMTZIN
 70
     8
  9
$DIMALTZ
 70
     0
  9
$DIMALTTZ
 70
     0
  9
$DIMUPT
 70
     0
  9
$DIMDEC
 70
     2
  9
$DIMTDEC
 70
     2
  9
$DIMALTU
 70
     2
  9
$DIMALTTD
 70
     3
  9
$DIMTXSTY
  7
Standard
  9
$DIMAUNIT
 70
     0
  9
$DIMADEC
 70
     0
  9
$DIMALTRND
 40
0.0
  9
$DIMAZIN
 70
     0
  9
$DIMDSEP
 70
    44
  9
$DIMATFIT
 70
     3
  9
$DIMFRAC
 70
     0
  9
$DIMLDRBLK
  1

  9
$DIMLUNIT
 70
     2
  9
$DIMLWD
 70
    -2
  9
$DIMLWE
 70
    -2
  9
$DIMTMOVE
 70
     0
  9
$LUNITS
 70
     2
  9
$LUPREC
 70
     4
  9
$SKETCHINC
 40
1.0
  9
$FILLETRAD
 40
10.0
  9
$AUNITS
 70
     0
  9
$AUPREC
 70
     0
  9
$MENU
  1
.
  9
$ELEVATION
 40
0.0
  9
$PELEVATION
 40
0.0
  9
$THICKNESS
 40
0.0
  9
$LIMCHECK
 70
     0
  9
$CHAMFERA
 40
10.0
  9
$CHAMFERB
 40
10.0
  9
$CHAMFERC
 40
20.0
  9
$CHAMFERD
 40
0.0
  9
$SKPOLY
 70
     0
  9
$TDCREATE
 40
2456498.825285185
  9
$TDUCREATE
 40
2456498.450285185
  9
$TDUPDATE
 40
2456498.825285197
  9
$TDUUPDATE
 40
2456498.450285197
  9
$TDINDWG
 40
0.0000000116
  9
$TDUSRTIMER
 40
0.0000000116
  9
$USRTIMER
 70
     1
  9
$ANGBASE
 50
0.0
  9
$ANGDIR
 70
     0
  9
$PDMODE
 70
     0
  9
$PDSIZE
 40
0.0
  9
$PLINEWID
 40
0.0
  9
$SPLFRAME
 70
     0
  9
$SPLINETYPE
 70
     6
  9
$SPLINESEGS
 70
     8
  9
$HANDSEED
  5
13A
  9
$SURFTAB1
 70
     6
  9
$SURFTAB2
 70
     6
  9
$SURFTYPE
 70
     6
  9
$SURFU
 70
     6
  9
$SURFV
 70
     6
  9
$UCSBASE
  2

  9
$UCSNAME
  2

  9
$UCSORG
 10
0.0
 20
0.0
 30
0.0
  9
$UCSXDIR
 10
1.0
 20
0.0
 30
0.0
  9
$UCSYDIR
 10
0.0
 20
1.0
 30
0.0
  9
$UCSORTHOREF
  2

  9
$UCSORTHOVIEW
 70
     0
  9
$UCSORGTOP
 10
0.0
 20
0.0
 30
0.0
  9
$UCSORGBOTTOM
 10
0.0
 20
0.0
 30
0.0
  9
$UCSORGLEFT
 10
0.0
 20
0.0
 30
0.0
  9
$UCSORGRIGHT
 10
0.0
 20
0.0
 30
0.0
  9
$UCSORGFRONT
 10
0.0
 20
0.0
 30
0.0
  9
$UCSORGBACK
 10
0.0
 20
0.0
 30
0.0
  9
$PUCSBASE
  2

  9
$PUCSNAME
  2

  9
$PUCSORG
 10
0.0
 20
0.0
 30
0.0
  9
$PUCSXDIR
 10
1.0
 20
0.0
 30
0.0
  9
$PUCSYDIR
 10
0.0
 20
1.0
 30
0.0
  9
$PUCSORTHOREF
  2

  9
$PUCSORTHOVIEW
 70
     0
  9
$PUCSORGTOP
 10
0.0
 20
0.0
 30
0.0
  9
$PUCSORGBOTTOM
 10
0.0
 20
0.0
 30
0.0
  9
$PUCSORGLEFT
 10
0.0
 20
0.0
 30
0.0
  9
$PUCSORGRIGHT
 10
0.0
 20
0.0
 30
0.0
  9
$PUCSORGFRONT
 10
0.0
 20
0.0
 30
0.0
  9
$PUCSORGBACK
 10
0.0
 20
0.0
 30
0.0
  9
$USERI1
 70
     0
  9
$USERI2
 70
     0
  9
$USERI3
 70
     0
  9
$USERI4
 70
     0
  9
$USERI5
 70
     0
  9
$USERR1
 40
0.0
  9
$USERR2
 40
0.0
  9
$USERR3
 40
0.0
  9
$USERR4
 40
0.0
  9
$USERR5
 40
0.0
  9
$WORLDVIEW
 70
     1
  9
$SHADEDGE
 70
     3
  9
$SHADEDIF
 70
    70
  9
$TILEMODE
 70
     1
  9
$MAXACTVP
 70
    64
  9
$PINSBASE
 10
0.0
 20
0.0
 30
0.0
  9
$PLIMCHECK
 70
     0
  9
$PEXTMIN
 10
1.000000000000000E+20
 20
1.000000000000000E+20
 30
1.000000000000000E+20
  9
$PEXTMAX
 10
-1.000000000000000E+20
 20
-1.000000000000000E+20
 30
-1.000000000000000E+20
  9
$PLIMMIN
 10
0.0
 20
0.0
  9
$PLIMMAX
 10
420.0
 20
297.0
  9
$UNITMODE
 70
     0
  9
$VISRETAIN
 70
     1
  9
$PLINEGEN
 70
     0
  9
$PSLTSCALE
 70
     1
  9
$TREEDEPTH
 70
  3020
  9
$CMLSTYLE
  2
Standard
  9
$CMLJUST
 70
     0
  9
$CMLSCALE
 40
20.0
  9
$PROXYGRAPHICS
 70
     1
  9
$MEASUREMENT
 70
     1
  9
$CELWEIGHT
370
    -1
  9
$ENDCAPS
280
     0
  9
$JOINSTYLE
280
     0
  9
$LWDISPLAY
290
     0
  9
$INSUNITS
 70
     4
  9
$HYPERLINKBASE
  1

  9
$STYLESHEET
  1

  9
$XEDIT
290
     1
  9
$CEPSNTYPE
380
     0
  9
$PSTYLEMODE
290
     1
  9
$FINGERPRINTGUID
  2
{159F9144-6115-4E89-9263-05D0BDBC5D50}
  9
$VERSIONGUID
  2
{FAEB1C32-E019-11D5-929B-00C0DF256EC4}
  9
$EXTNAMES
290
     1
  9
$PSVPSCALE
 40
0.0
  9
$OLESTARTUP
290
     0
  9
$SORTENTS
280
   127
  9
$INDEXCTL
280
     0
  9
$HIDETEXT
280
     1
  9
$XCLIPFRAME
290
     0
  9
$HALOGAP
280
     0
  9
$OBSCOLOR
 70
   257
  9
$OBSLTYPE
280
     0
  9
$INTERSECTIONDISPLAY
280
     0
  9
$INTERSECTIONCOLOR
 70
   257
  9
$DIMASSOC
280
     2
  9
$PROJECTNAME
  1

  0
ENDSEC
  0
SECTION
  2
CLASSES
  0
CLASS
  1
ACDBDICTIONARYWDFLT
  2
AcDbDictionaryWithDefault
  3
ObjectDBX Classes
 90
        0
 91
        4
280
     0
281
     0
  0
CLASS
  1
VISUALSTYLE
  2
AcDbVisualStyle
  3
ObjectDBX Classes
 90
     4095
 91
        4
280
     0
281
     0
  0
ENDSEC
  0
SECTION
  2
TABLES
  0
TABLE
  2
VPORT
  5
8
330
0
100
AcDbSymbolTable
 70
     1
  0
VPORT
  5
29
330
8
100
AcDbSymbolTableRecord
100
AcDbViewportTableRecord
  2
*Active
 70
     0
 10
0.0
 20
0.0
 11
1.0
 21
1.0
 12
0.0
 22
0.0
 13
0.0
 23
0.0
 14
10.0
 24
10.0
 15
10.0
 25
10.0
 16
0.0
 26
0.0
 36
1.0
 17
0.0
 27
0.0
 37
0.0
 40
3267.0
 41
1.414141414141414
 42
50.0
 43
0.0
 44
0.0
 50
0.0
 51
0.0
 71
     0
 72
 10000
 73
     1
 74
     3
 75
     0
 76
     0
 77
     0
 78
     0
281
     0
 65
     1
110
0.0
120
0.0
130
0.0
111
1.0
121
0.0
131
0.0
112
0.0
122
1.0
132
0.0
 79
     0
146
0.0
  0
ENDTAB
  0
TABLE
  2
LTYPE
  5
5
330
0
100
AcDbSymbolTable
 70
     3
  0
LTYPE
  5
14
330
5
100
AcDbSymbolTableRecord
100
AcDbLinetypeTableRecord
  2
ByBlock
 70
     0
  3

 72
    65
 73
     0
 40
0.0
  0
LTYPE
  5
15
330
5
100
AcDbSymbolTableRecord
100
AcDbLinetypeTableRecord
  2
ByLayer
 70
     0
  3

 72
    65
 73
     0
 40
0.0
  0
LTYPE
  5
16
330
5
100
AcDbSymbolTableRecord
100
AcDbLinetypeTableRecord
  2
Continuous
 70
     0
  3
Solid line
 72
    65
 73
     0
 40
0.0
  0
LTYPE
  5
3C
330
5
100
AcDbSymbolTableRecord
100
AcDbLinetypeTableRecord
  2
JWW_DASHED1
 70
     0
  3
-  --  --  --  --  --  --  --  -
 72
    65
 73
     2
 40
1.693333333333333
 49
0.8466666666666667
 74
     0
 49
-0.8466666666666667
 74
     0
  0
LTYPE
  5
3D
330
5
100
AcDbSymbolTableRecord
100
AcDbLinetypeTableRecord
  2
JWW_CENTER1
 70
     0
  3
-----  --  ----------  --  -----
 72
    65
 73
     4
 40
6.773333333333333
 49
4.233333333333333
 74
     0
 49
-0.8466666666666667
 74
     0
 49
0.8466666666666667
 74
     0
 49
-0.8466666666666667
 74
     0
  0
ENDTAB
  0
TABLE
  2
LAYER
  5
2
330
0
100
AcDbSymbolTable
 70
     8
  0
LAYER
  5
10
330
2
100
AcDbSymbolTableRecord
100
AcDbLayerTableRecord
  2
0
 70
     0
 62
     7
  6
Continuous
370
    -3
390
F
  0
LAYER
  5
3E
330
2
100
AcDbSymbolTableRecord
100
AcDbLayerTableRecord
  2
3-4
 70
     0
 62
     7
  6
Continuous
370
    -3
390
F
  0
LAYER
  5
3F
330
2
100
AcDbSymbolTableRecord
100
AcDbLayerTableRecord
  2
D-4
 70
     0
 62
     7
  6
Continuous
370
    -3
390
F
  0
LAYER
  5
40
330
2
100
AcDbSymbolTableRecord
100
AcDbLayerTableRecord
  2
3-0
 70
     0
 62
     7
  6
Continuous
370
    -3
390
F
  0
LAYER
  5
41
330
2
100
AcDbSymbolTableRecord
100
AcDbLayerTableRecord
  2
3-2
 70
     0
 62
     7
  6
Continuous
370
    -3
390
F
  0
LAYER
  5
42
330
2
100
AcDbSymbolTableRecord
100
AcDbLayerTableRecord
  2
D-2
 70
     0
 62
     7
  6
Continuous
370
    -3
390
F
  0
LAYER
  5
43
330
2
100
AcDbSymbolTableRecord
100
AcDbLayerTableRecord
  2
F-4
 70
     0
 62
     7
  6
Continuous
370
    -3
390
F
  0
LAYER
  5
44
330
2
100
AcDbSymbolTableRecord
100
AcDbLayerTableRecord
  2
F-5
 70
     0
 62
     7
  6
Continuous
370
    -3
390
F
  0
ENDTAB
  0
TABLE
  2
STYLE
  5
3
330
0
100
AcDbSymbolTable
 70
     2
  0
STYLE
  5
11
330
3
100
AcDbSymbolTableRecord
100
AcDbTextStyleTableRecord
  2
Standard
 70
     0
 40
0.0
 41
1.0
 50
0.0
 71
     0
 42
2.5
  3
txt
  4

1001
ACAD
1000

1071
        0
  0
STYLE
  5
3B
330
3
100
AcDbSymbolTableRecord
100
AcDbTextStyleTableRecord
  2
ＭＳ ゴシック
 70
     0
 40
1.0
 41
1.0
 50
0.0
 71
     0
 42
10.0
  3

  4

1001
ACAD
1000
MS Gothic
1071
    32817
  0
ENDTAB
  0
TABLE
  2
VIEW
  5
6
330
0
100
AcDbSymbolTable
 70
     0
  0
ENDTAB
  0
TABLE
  2
UCS
  5
7
330
0
100
AcDbSymbolTable
 70
     0
  0
ENDTAB
  0
TABLE
  2
APPID
  5
9
330
0
100
AcDbSymbolTable
 70
     1
  0
APPID
  5
12
330
9
100
AcDbSymbolTableRecord
100
AcDbRegAppTableRecord
  2
ACAD
 70
     0
  0
ENDTAB
  0
TABLE
  2
DIMSTYLE
  5
A
330
0
100
AcDbSymbolTable
 70
     1
100
AcDbDimStyleTable
  0
DIMSTYLE
105
27
330
A
100
AcDbSymbolTableRecord
100
AcDbDimStyleTableRecord
  2
ISO-25
 70
     0
 41
2.5
 42
0.625
 43
3.75
 44
1.25
 73
     0
 74
     0
 77
     1
 78
     8
140
2.5
141
2.5
143
0.03937007874016
147
0.625
171
     3
172
     1
271
     2
272
     2
274
     3
278
    44
283
     0
284
     8
340
11
  0
ENDTAB
  0
TABLE
  2
BLOCK_RECORD
  5
1
330
0
100
AcDbSymbolTable
 70
     1
  0
BLOCK_RECORD
  5
1F
330
1
100
AcDbSymbolTableRecord
100
AcDbBlockTableRecord
  2
*Model_Space
340
22
  0
BLOCK_RECORD
  5
1B
330
1
100
AcDbSymbolTableRecord
100
AcDbBlockTableRecord
  2
*Paper_Space
340
1E
  0
BLOCK_RECORD
  5
23
330
1
100
AcDbSymbolTableRecord
100
AcDbBlockTableRecord
  2
*Paper_Space0
340
26
  0
ENDTAB
  0
ENDSEC
  0
SECTION
  2
BLOCKS
  0
BLOCK
  5
20
330
1F
100
AcDbEntity
  8
0
100
AcDbBlockBegin
  2
*Model_Space
 70
     0
 10
0.0
 20
0.0
 30
0.0
  3
*Model_Space
  1

  0
ENDBLK
  5
21
330
1F
100
AcDbEntity
  8
0
100
AcDbBlockEnd
  0
BLOCK
  5
1C
330
1B
100
AcDbEntity
 67
     1
  8
0
100
AcDbBlockBegin
  2
*Paper_Space
 70
     0
 10
0.0
 20
0.0
 30
0.0
  3
*Paper_Space
  1

  0
ENDBLK
  5
1D
330
1B
100
AcDbEntity
 67
     1
  8
0
100
AcDbBlockEnd
  0
BLOCK
  5
24
330
23
100
AcDbEntity
  8
0
100
AcDbBlockBegin
  2
*Paper_Space0
 70
     0
 10
0.0
 20
0.0
 30
0.0
  3
*Paper_Space0
  1

  0
ENDBLK
  5
25
330
23
100
AcDbEntity
  8
0
100
AcDbBlockEnd
  0
ENDSEC
  0
SECTION
  2
ENTITIES
  0
LWPOLYLINE
  5
45
330
1F
100
AcDbEntity
  8
3-4
  6
Continuous
 62
     7
370
     5
100
AcDbPolyline
 90
        4
 70
     1
 43
1.0
 10
-108.9594594594594
 20
-261.8339414854307
 42
0.4142135623731
 10
-109.4594594594594
 20
-261.3339414854307
 42
0.4142135623731
 10
-109.9594594594594
 20
-261.8339414854307
 42
0.4142135623731
 10
-109.4594594594594
 20
-262.3339414854307
 42
0.4142135623731
  0
LWPOLYLINE
  5
46
330
1F
100
AcDbEntity
  8
3-4
  6
Continuous
 62
     7
370
     5
100
AcDbPolyline
 90
        4
 70
     1
 43
1.0
 10
891.0406230204818
 20
-261.8339414854307
 42
0.4142135623731
 10
890.5406230204818
 20
-261.3339414854307
 42
0.4142135623731
 10
890.0406230204818
 20
-261.8339414854307
 42
0.4142135623731
 10
890.5406230204818
 20
-262.3339414854307
 42
0.4142135623731
  0
LWPOLYLINE
  5
47
330
1F
100
AcDbEntity
  8
3-4
  6
Continuous
 62
     7
370
     5
100
AcDbPolyline
 90
        4
 70
     1
 43
1.0
 10
1113.215107685811
 20
-62.02702702702709
 42
0.4142135623731
 10
1112.715107685811
 20
-61.52702702702709
 42
0.4142135623731
 10
1112.215107685811
 20
-62.02702702702709
 42
0.4142135623731
 10
1112.715107685811
 20
-62.52702702702709
 42
0.4142135623731
  0
LWPOLYLINE
  5
48
330
1F
100
AcDbEntity
  8
3-4
  6
Continuous
 62
     7
370
     5
100
AcDbPolyline
 90
        4
 70
     1
 43
1.0
 10
1113.215107685811
 20
937.9730554529141
 42
0.4142135623731
 10
1112.715107685811
 20
938.4730554529141
 42
0.4142135623731
 10
1112.215107685811
 20
937.9730554529141
 42
0.4142135623731
 10
1112.715107685811
 20
937.4730554529141
 42
0.4142135623731
  0
LWPOLYLINE
  5
49
330
1F
100
AcDbEntity
  8
3-4
  6
Continuous
 62
     7
370
     5
100
AcDbPolyline
 90
        4
 70
     1
 43
1.0
 10
1017.63677483636
 20
-62.02702702702709
 42
0.4142135623731
 10
1017.13677483636
 20
-61.52702702702709
 42
0.4142135623731
 10
1016.63677483636
 20
-62.02702702702709
 42
0.4142135623731
 10
1017.13677483636
 20
-62.52702702702709
 42
0.4142135623731
  0
LWPOLYLINE
  5
4A
330
1F
100
AcDbEntity
  8
3-4
  6
Continuous
 62
     7
370
     5
100
AcDbPolyline
 90
        4
 70
     1
 43
1.0
 10
1017.63677483636
 20
62.97326165276615
 42
0.4142135623731
 10
1017.13677483636
 20
63.47326165276615
 42
0.4142135623731
 10
1016.63677483636
 20
62.97326165276615
 42
0.4142135623731
 10
1017.13677483636
 20
62.47326165276615
 42
0.4142135623731
  0
LWPOLYLINE
  5
4B
330
1F
100
AcDbEntity
  8
3-4
  6
Continuous
 62
     7
370
     5
100
AcDbPolyline
 90
        4
 70
     1
 43
1.0
 10
1017.63677483636
 20
312.9732204127956
 42
0.4142135623731
 10
1017.13677483636
 20
313.4732204127956
 42
0.4142135623731
 10
1016.63677483636
 20
312.9732204127956
 42
0.4142135623731
 10
1017.13677483636
 20
312.4732204127956
 42
0.4142135623731
  0
LWPOLYLINE
  5
4C
330
1F
100
AcDbEntity
  8
3-4
  6
Continuous
 62
     7
370
     5
100
AcDbPolyline
 90
        4
 70
     1
 43
1.0
 10
1017.63677483636
 20
562.9733028927367
 42
0.4142135623731
 10
1017.13677483636
 20
563.4733028927367
 42
0.4142135623731
 10
1016.63677483636
 20
562.9733028927367
 42
0.4142135623731
 10
1017.13677483636
 20
562.4733028927368
 42
0.4142135623731
  0
LWPOLYLINE
  5
4D
330
1F
100
AcDbEntity
  8
3-4
  6
Continuous
 62
     7
370
     5
100
AcDbPolyline
 90
        4
 70
     1
 43
1.0
 10
1017.63677483636
 20
812.973137932855
 42
0.4142135623731
 10
1017.13677483636
 20
813.4731379328549
 42
0.4142135623731
 10
1016.63677483636
 20
812.973137932855
 42
0.4142135623731
 10
1017.13677483636
 20
812.473137932855
 42
0.4142135623731
  0
LWPOLYLINE
  5
4E
330
1F
100
AcDbEntity
  8
3-4
  6
Continuous
 62
     7
370
     5
100
AcDbPolyline
 90
        4
 70
     1
 43
1.0
 10
1017.63677483636
 20
937.9730554529141
 42
0.4142135623731
 10
1017.13677483636
 20
938.4730554529141
 42
0.4142135623731
 10
1016.63677483636
 20
937.9730554529141
 42
0.4142135623731
 10
1017.13677483636
 20
937.4730554529141
 42
0.4142135623731
  0
LWPOLYLINE
  5
4F
330
1F
100
AcDbEntity
  8
D-4
  6
Continuous
 62
     7
370
     5
100
AcDbPolyline
 90
        4
 70
     1
 43
1.0
 10
-489.8793334960938
 20
1052.841549435178
 42
0.4142135623731
 10
-490.3793334960938
 20
1053.341549435178
 42
0.4142135623731
 10
-490.8793334960938
 20
1052.841549435178
 42
0.4142135623731
 10
-490.3793334960938
 20
1052.341549435178
 42
0.4142135623731
  0
LWPOLYLINE
  5
50
330
1F
100
AcDbEntity
  8
D-4
  6
Continuous
 62
     7
370
     5
100
AcDbPolyline
 90
        4
 70
     1
 43
1.0
 10
-489.8793334960938
 20
452.8415494351773
 42
0.4142135623731
 10
-490.3793334960938
 20
453.3415494351773
 42
0.4142135623731
 10
-490.8793334960938
 20
452.8415494351773
 42
0.4142135623731
 10
-490.3793334960938
 20
452.3415494351774
 42
0.4142135623731
  0
LWPOLYLINE
  5
51
330
1F
100
AcDbEntity
  8
D-4
  6
Continuous
 62
     7
370
     5
100
AcDbPolyline
 90
        4
 70
     1
 43
1.0
 10
-489.8793334960938
 20
-147.1584505648227
 42
0.4142135623731
 10
-490.3793334960938
 20
-146.6584505648227
 42
0.4142135623731
 10
-490.8793334960938
 20
-147.1584505648227
 42
0.4142135623731
 10
-490.3793334960938
 20
-147.6584505648227
 42
0.4142135623731
  0
LWPOLYLINE
  5
52
330
1F
100
AcDbEntity
  8
D-4
  6
Continuous
 62
     7
370
     5
100
AcDbPolyline
 90
        4
 70
     1
 43
1.0
 10
-1100.757901578336
 20
1152.841631915118
 42
0.4142135623731
 10
-1101.257901578336
 20
1153.341631915118
 42
0.4142135623731
 10
-1101.757901578336
 20
1152.841631915118
 42
0.4142135623731
 10
-1101.257901578336
 20
1152.341631915118
 42
0.4142135623731
  0
LWPOLYLINE
  5
53
330
1F
100
AcDbEntity
  8
D-4
  6
Continuous
 62
     7
370
     5
100
AcDbPolyline
 90
        4
 70
     1
 43
1.0
 10
-1180.757918074324
 20
1127.841301995355
 42
0.4142135623731
 10
-1181.257918074324
 20
1128.341301995355
 42
0.4142135623731
 10
-1181.757918074324
 20
1127.841301995355
 42
0.4142135623731
 10
-1181.257918074324
 20
1127.341301995355
 42
0.4142135623731
  0
LWPOLYLINE
  5
54
330
1F
100
AcDbEntity
  8
D-4
  6
Continuous
 62
     7
370
     5
100
AcDbPolyline
 90
        4
 70
     1
 43
1.0
 10
-1180.757918074324
 20
-222.1583268449112
 42
0.4142135623731
 10
-1181.257918074324
 20
-221.6583268449112
 42
0.4142135623731
 10
-1181.757918074324
 20
-222.1583268449112
 42
0.4142135623731
 10
-1181.257918074324
 20
-222.6583268449112
 42
0.4142135623731
  0
LWPOLYLINE
  5
55
330
1F
100
AcDbEntity
  8
D-4
  6
Continuous
 62
     7
370
     5
100
AcDbPolyline
 90
        4
 70
     1
 43
1.0
 10
-1100.757901578336
 20
-247.1585330447634
 42
0.4142135623731
 10
-1101.257901578336
 20
-246.6585330447634
 42
0.4142135623731
 10
-1101.757901578336
 20
-247.1585330447634
 42
0.4142135623731
 10
-1101.257901578336
 20
-247.6585330447634
 42
0.4142135623731
  0
LWPOLYLINE
  5
56
330
1F
100
AcDbEntity
  8
D-4
  6
Continuous
 62
     7
370
     5
100
AcDbPolyline
 90
        4
 70
     1
 43
1.0
 10
-1375.756210739548
 20
-871.0215058197846
 42
0.4142135623731
 10
-1376.256210739548
 20
-870.5215058197847
 42
0.4142135623731
 10
-1376.756210739548
 20
-871.0215058197846
 42
0.4142135623731
 10
-1376.256210739548
 20
-871.5215058197846
 42
0.4142135623731
  0
LWPOLYLINE
  5
57
330
1F
100
AcDbEntity
  8
D-4
  6
Continuous
 62
     7
370
     5
100
AcDbPolyline
 90
        4
 70
     1
 43
1.0
 10
-1345.756359203442
 20
-871.0215058197846
 42
0.4142135623731
 10
-1346.256359203442
 20
-870.5215058197847
 42
0.4142135623731
 10
-1346.756359203442
 20
-871.0215058197846
 42
0.4142135623731
 10
-1346.256359203442
 20
-871.5215058197846
 42
0.4142135623731
  0
LWPOLYLINE
  5
58
330
1F
100
AcDbEntity
  8
D-4
  6
Continuous
 62
     7
370
     5
100
AcDbPolyline
 90
        4
 70
     1
 43
1.0
 10
-1191.642548432221
 20
-778.4071308857685
 42
0.4142135623731
 10
-1192.142548432221
 20
-777.9071308857685
 42
0.4142135623731
 10
-1192.642548432221
 20
-778.4071308857685
 42
0.4142135623731
 10
-1192.142548432221
 20
-778.9071308857684
 42
0.4142135623731
  0
LWPOLYLINE
  5
59
330
1F
100
AcDbEntity
  8
D-4
  6
Continuous
 62
     7
370
     5
100
AcDbPolyline
 90
        4
 70
     1
 43
1.0
 10
-1191.642548432221
 20
-718.4069329339104
 42
0.4142135623731
 10
-1192.142548432221
 20
-717.9069329339104
 42
0.4142135623731
 10
-1192.642548432221
 20
-718.4069329339104
 42
0.4142135623731
 10
-1192.142548432221
 20
-718.9069329339104
 42
0.4142135623731
  0
LWPOLYLINE
  5
5A
330
1F
100
AcDbEntity
  8
D-4
  6
Continuous
 62
     7
370
     5
100
AcDbPolyline
 90
        4
 70
     1
 43
1.0
 10
-1191.642548432221
 20
-693.4070978937922
 42
0.4142135623731
 10
-1192.142548432221
 20
-692.9070978937922
 42
0.4142135623731
 10
-1192.642548432221
 20
-693.4070978937922
 42
0.4142135623731
 10
-1192.142548432221
 20
-693.9070978937922
 42
0.4142135623731
  0
LWPOLYLINE
  5
5B
330
1F
100
AcDbEntity
  8
D-4
  6
Continuous
 62
     7
370
     5
100
AcDbPolyline
 90
        4
 70
     1
 43
1.0
 10
-1111.642531936233
 20
-778.4071308857685
 42
0.4142135623731
 10
-1112.142531936233
 20
-777.9071308857685
 42
0.4142135623731
 10
-1112.642531936233
 20
-778.4071308857685
 42
0.4142135623731
 10
-1112.142531936233
 20
-778.9071308857684
 42
0.4142135623731
  0
LWPOLYLINE
  5
5C
330
1F
100
AcDbEntity
  8
D-4
  6
Continuous
 62
     7
370
     5
100
AcDbPolyline
 90
        4
 70
     1
 43
1.0
 10
-1111.642531936233
 20
-693.4070978937922
 42
0.4142135623731
 10
-1112.142531936233
 20
-692.9070978937922
 42
0.4142135623731
 10
-1112.642531936233
 20
-693.4070978937922
 42
0.4142135623731
 10
-1112.142531936233
 20
-693.9070978937922
 42
0.4142135623731
  0
LWPOLYLINE
  5
5D
330
1F
100
AcDbEntity
  8
D-4
  6
Continuous
 62
     7
370
     5
100
AcDbPolyline
 90
        4
 70
     1
 43
1.0
 10
-1428.257744866448
 20
-441.5244932432432
 42
0.4142135623731
 10
-1428.757744866448
 20
-441.0244932432432
 42
0.4142135623731
 10
-1429.257744866449
 20
-441.5244932432432
 42
0.4142135623731
 10
-1428.757744866448
 20
-442.0244932432432
 42
0.4142135623731
  0
LWPOLYLINE
  5
5E
330
1F
100
AcDbEntity
  8
D-4
  6
Continuous
 62
     7
370
     5
100
AcDbPolyline
 90
        4
 70
     1
 43
1.0
 10
-1293.25754691459
 20
-441.5244932432432
 42
0.4142135623731
 10
-1293.75754691459
 20
-441.0244932432432
 42
0.4142135623731
 10
-1294.25754691459
 20
-441.5244932432432
 42
0.4142135623731
 10
-1293.75754691459
 20
-442.0244932432432
 42
0.4142135623731
  0
LWPOLYLINE
  5
5F
330
1F
100
AcDbEntity
  8
D-4
  6
Continuous
 62
     7
370
     5
100
AcDbPolyline
 90
        4
 70
     1
 43
1.0
 10
-1403.257662386507
 20
-361.5244767472549
 42
0.4142135623731
 10
-1403.757662386507
 20
-361.024476747255
 42
0.4142135623731
 10
-1404.257662386508
 20
-361.5244767472549
 42
0.4142135623731
 10
-1403.757662386507
 20
-362.0244767472549
 42
0.4142135623731
  0
LWPOLYLINE
  5
60
330
1F
100
AcDbEntity
  8
D-4
  6
Continuous
 62
     7
370
     5
100
AcDbPolyline
 90
        4
 70
     1
 43
1.0
 10
-1318.257629394531
 20
-361.5244767472549
 42
0.4142135623731
 10
-1318.757629394531
 20
-361.024476747255
 42
0.4142135623731
 10
-1319.257629394531
 20
-361.5244767472549
 42
0.4142135623731
 10
-1318.757629394531
 20
-362.0244767472549
 42
0.4142135623731
  0
LINE
  5
61
330
1F
100
AcDbEntity
  8
3-0
  6
JWW_DASHED1
 62
    92
370
     5
100
AcDbLine
 10
-109.4594594594594
 20
-62.02702702702709
 30
0.0
 11
-109.4594594594594
 21
937.9730554529141
 31
0.0
  0
LINE
  5
62
330
1F
100
AcDbEntity
  8
3-0
  6
JWW_DASHED1
 62
    92
370
     5
100
AcDbLine
 10
-109.4594594594594
 20
937.9730554529141
 30
0.0
 11
890.5406230204818
 21
937.9730554529141
 31
0.0
  0
LINE
  5
63
330
1F
100
AcDbEntity
  8
3-0
  6
JWW_DASHED1
 62
    92
370
     5
100
AcDbLine
 10
890.5406230204818
 20
937.9730554529141
 30
0.0
 11
890.5406230204818
 21
-62.02702702702709
 31
0.0
  0
LINE
  5
64
330
1F
100
AcDbEntity
  8
3-0
  6
JWW_DASHED1
 62
    92
370
     5
100
AcDbLine
 10
890.5406230204818
 20
-62.02702702702709
 30
0.0
 11
-109.4594594594594
 21
-62.02702702702709
 31
0.0
  0
LINE
  5
65
330
1F
100
AcDbEntity
  8
3-4
  6
Continuous
 62
     7
370
     5
100
AcDbLine
 10
-109.4594594594594
 20
-79.35449548669766
 30
0.0
 11
-109.4594594594594
 21
-264.8339018950591
 31
0.0
  0
LINE
  5
66
330
1F
100
AcDbEntity
  8
3-4
  6
Continuous
 62
     7
370
     5
100
AcDbLine
 10
890.5406230204818
 20
-79.35449548669766
 30
0.0
 11
890.5406230204818
 21
-264.8339018950591
 31
0.0
  0
LINE
  5
67
330
1F
100
AcDbEntity
  8
3-4
  6
Continuous
 62
     7
370
     5
100
AcDbLine
 10
-109.4594594594594
 20
-261.8339414854307
 30
0.0
 11
890.5406230204818
 21
-261.8339414854307
 31
0.0
  0
LINE
  5
68
330
1F
100
AcDbEntity
  8
3-4
  6
Continuous
 62
     7
370
     5
100
AcDbLine
 10
907.999234586149
 20
-62.02702702702709
 30
0.0
 11
1115.71506809544
 21
-62.02702702702709
 31
0.0
  0
LINE
  5
69
330
1F
100
AcDbEntity
  8
3-4
  6
Continuous
 62
     7
370
     5
100
AcDbLine
 10
907.999234586149
 20
937.9730554529141
 30
0.0
 11
1115.71506809544
 21
937.9730554529141
 31
0.0
  0
LINE
  5
6A
330
1F
100
AcDbEntity
  8
3-4
  6
Continuous
 62
     7
370
     5
100
AcDbLine
 10
1112.715107685811
 20
-62.02702702702709
 30
0.0
 11
1112.715107685811
 21
937.9730554529141
 31
0.0
  0
LINE
  5
6B
330
1F
100
AcDbEntity
  8
3-2
  6
Continuous
 62
    92
370
     5
100
AcDbLine
 10
840.5404580606
 20
34.63991732210729
 30
0.0
 11
840.5404580606
 21
91.30660598342502
 31
0.0
  0
LINE
  5
6C
330
1F
100
AcDbEntity
  8
3-2
  6
Continuous
 62
    92
370
     5
100
AcDbLine
 10
840.5404580606
 20
91.30660598342502
 30
0.0
 11
-59.45941821948878
 21
91.30660598342502
 31
0.0
  0
LINE
  5
6D
330
1F
100
AcDbEntity
  8
3-2
  6
Continuous
 62
    92
370
     5
100
AcDbLine
 10
857.2072621938344
 20
17.97311318887267
 30
0.0
 11
857.2072621938344
 21
107.973162676837
 31
0.0
  0
LINE
  5
6E
330
1F
100
AcDbEntity
  8
3-2
  6
Continuous
 62
    92
370
     5
100
AcDbLine
 10
857.2072621938344
 20
17.97311318887267
 30
0.0
 11
-76.12634607263516
 21
17.97311318887267
 31
0.0
  0
LINE
  5
6F
330
1F
100
AcDbEntity
  8
3-2
  6
Continuous
 62
    92
370
     5
100
AcDbLine
 10
-76.12634607263516
 20
17.97311318887267
 30
0.0
 11
-76.12634607263516
 21
107.973162676837
 31
0.0
  0
LINE
  5
70
330
1F
100
AcDbEntity
  8
3-2
  6
Continuous
 62
    92
370
     5
100
AcDbLine
 10
857.2072621938344
 20
107.973162676837
 30
0.0
 11
-76.12634607263516
 21
107.973162676837
 31
0.0
  0
LINE
  5
71
330
1F
100
AcDbEntity
  8
3-2
  6
Continuous
 62
    92
370
     5
100
AcDbLine
 10
857.2072621938344
 20
17.97311318887267
 30
0.0
 11
840.5404580606
 21
34.63991732210729
 31
0.0
  0
LINE
  5
72
330
1F
100
AcDbEntity
  8
3-2
  6
Continuous
 62
    92
370
     5
100
AcDbLine
 10
840.5404580606
 20
91.30660598342502
 30
0.0
 11
857.2072621938344
 21
107.973162676837
 31
0.0
  0
LINE
  5
73
330
1F
100
AcDbEntity
  8
3-2
  6
Continuous
 62
    92
370
     5
100
AcDbLine
 10
-59.45941821948878
 20
34.63991732210729
 30
0.0
 11
-59.45941821948878
 21
91.30660598342502
 31
0.0
  0
LINE
  5
74
330
1F
100
AcDbEntity
  8
3-2
  6
Continuous
 62
    92
370
     5
100
AcDbLine
 10
-76.12634607263516
 20
17.97311318887267
 30
0.0
 11
-59.45941821948878
 21
34.63991732210729
 31
0.0
  0
LINE
  5
75
330
1F
100
AcDbEntity
  8
3-2
  6
Continuous
 62
    92
370
     5
100
AcDbLine
 10
-59.45941821948878
 20
91.30660598342502
 30
0.0
 11
-76.12634607263516
 21
107.973162676837
 31
0.0
  0
LINE
  5
76
330
1F
100
AcDbEntity
  8
3-2
  6
Continuous
 62
    92
370
     5
100
AcDbLine
 10
-59.45941821948878
 20
34.63991732210729
 30
0.0
 11
840.5404580606
 21
34.63991732210729
 31
0.0
  0
LINE
  5
77
330
1F
100
AcDbEntity
  8
3-4
  6
Continuous
 62
     7
370
     5
100
AcDbLine
 10
1017.13677483636
 20
-62.02702702702709
 30
0.0
 11
1017.13677483636
 21
937.9730554529141
 31
0.0
  0
LINE
  5
78
330
1F
100
AcDbEntity
  8
3-4
  6
Continuous
 62
     7
370
     5
100
AcDbLine
 10
908.4772883234797
 20
62.97326165276615
 30
0.0
 11
1020.136735245989
 21
62.97326165276615
 31
0.0
  0
LINE
  5
79
330
1F
100
AcDbEntity
  8
3-4
  6
Continuous
 62
     7
370
     5
100
AcDbLine
 10
908.4772883234797
 20
312.9732204127956
 30
0.0
 11
1020.136735245989
 21
312.9732204127956
 31
0.0
  0
LINE
  5
7A
330
1F
100
AcDbEntity
  8
3-4
  6
Continuous
 62
     7
370
     5
100
AcDbLine
 10
908.4772883234797
 20
562.9733028927367
 30
0.0
 11
1020.136735245989
 21
562.9733028927367
 31
0.0
  0
LINE
  5
7B
330
1F
100
AcDbEntity
  8
3-4
  6
Continuous
 62
     7
370
     5
100
AcDbLine
 10
908.4772883234797
 20
812.973137932855
 30
0.0
 11
1020.136735245989
 21
812.973137932855
 31
0.0
  0
LINE
  5
7C
330
1F
100
AcDbEntity
  8
3-2
  6
JWW_CENTER1
 62
    92
370
     5
100
AcDbLine
 10
-95.54851635082343
 20
62.97326165276615
 30
0.0
 11
876.8480455553214
 21
62.97326165276615
 31
0.0
  0
LINE
  5
7D
330
1F
100
AcDbEntity
  8
D-2
  6
JWW_CENTER1
 62
    92
370
     5
100
AcDbLine
 10
-1469.261416873416
 20
452.8415494351773
 30
0.0
 11
-1252.878261256862
 21
452.8415494351773
 31
0.0
  0
LINE
  5
7E
330
1F
100
AcDbEntity
  8
D-4
  6
Continuous
 62
     7
370
     5
100
AcDbLine
 10
-1403.757662386507
 20
-361.5244767472549
 30
0.0
 11
-1318.757629394531
 21
-361.5244767472549
 31
0.0
  0
LINE
  5
7F
330
1F
100
AcDbEntity
  8
D-4
  6
Continuous
 62
     7
370
     5
100
AcDbLine
 10
-1428.757744866448
 20
-441.5244932432432
 30
0.0
 11
-1293.75754691459
 21
-441.5244932432432
 31
0.0
  0
LINE
  5
80
330
1F
100
AcDbEntity
  8
D-4
  6
Continuous
 62
     7
370
     5
100
AcDbLine
 10
-1428.757744866448
 20
-264.849490603885
 30
0.0
 11
-1428.757744866448
 21
-444.5244536528716
 31
0.0
  0
LINE
  5
81
330
1F
100
AcDbEntity
  8
D-4
  6
Continuous
 62
     7
370
     5
100
AcDbLine
 10
-1293.75754691459
 20
-264.849490603885
 30
0.0
 11
-1293.75754691459
 21
-444.5244536528716
 31
0.0
  0
LINE
  5
82
330
1F
100
AcDbEntity
  8
D-4
  6
Continuous
 62
     7
370
     5
100
AcDbLine
 10
-1337.141047297298
 20
-778.4071308857685
 30
0.0
 11
-1109.142571526605
 21
-778.4071308857685
 31
0.0
  0
LINE
  5
83
330
1F
100
AcDbEntity
  8
D-4
  6
Continuous
 62
     7
370
     5
100
AcDbLine
 10
-1304.716285499367
 20
-693.4070978937922
 30
0.0
 11
-1109.142571526605
 21
-693.4070978937922
 31
0.0
  0
LINE
  5
84
330
1F
100
AcDbEntity
  8
D-4
  6
Continuous
 62
     7
370
     5
100
AcDbLine
 10
-1112.142531936233
 20
-778.4071308857685
 30
0.0
 11
-1112.142531936233
 21
-693.4070978937922
 31
0.0
  0
LINE
  5
85
330
1F
100
AcDbEntity
  8
D-4
  6
Continuous
 62
     7
370
     5
100
AcDbLine
 10
-490.3793334960938
 20
-147.1584505648227
 30
0.0
 11
-490.3793334960938
 21
1052.841549435178
 31
0.0
  0
LINE
  5
86
330
1F
100
AcDbEntity
  8
D-4
  6
Continuous
 62
     7
370
     5
100
AcDbLine
 10
-560.5411426441088
 20
-147.1584505648227
 30
0.0
 11
-487.3793730864654
 21
-147.1584505648227
 31
0.0
  0
LINE
  5
87
330
1F
100
AcDbEntity
  8
D-4
  6
Continuous
 62
     7
370
     5
100
AcDbLine
 10
-559.6425649282094
 20
452.8415494351773
 30
0.0
 11
-487.3793730864654
 21
452.8415494351773
 31
0.0
  0
LINE
  5
88
330
1F
100
AcDbEntity
  8
D-4
  6
Continuous
 62
     7
370
     5
100
AcDbLine
 10
-560.5411426441088
 20
1052.841549435178
 30
0.0
 11
-487.3793730864654
 21
1052.841549435178
 31
0.0
  0
LINE
  5
89
330
1F
100
AcDbEntity
  8
D-4
  6
Continuous
 62
     7
370
     5
100
AcDbLine
 10
-1181.257918074324
 20
-222.1583268449112
 30
0.0
 11
-1181.257918074324
 21
1127.841301995355
 31
0.0
  0
LINE
  5
8A
330
1F
100
AcDbEntity
  8
D-4
  6
Continuous
 62
     7
370
     5
100
AcDbLine
 10
-1101.257901578336
 20
-247.1585330447634
 30
0.0
 11
-1101.257901578336
 21
1152.841631915118
 31
0.0
  0
LINE
  5
8B
330
1F
100
AcDbEntity
  8
D-4
  6
Continuous
 62
     7
370
     5
100
AcDbLine
 10
-1192.142548432221
 20
-778.4071308857685
 30
0.0
 11
-1192.142548432221
 21
-645.892713392103
 31
0.0
  0
LINE
  5
8C
330
1F
100
AcDbEntity
  8
D-4
  6
Continuous
 62
     7
370
     5
100
AcDbLine
 10
-1346.256359203442
 20
-791.021736763619
 30
0.0
 11
-1346.256359203442
 21
-874.0217136692356
 31
0.0
  0
LINE
  5
8D
330
1F
100
AcDbEntity
  8
D-4
  6
Continuous
 62
     7
370
     5
100
AcDbLine
 10
-1376.256210739548
 20
-791.021736763619
 30
0.0
 11
-1376.256210739548
 21
-874.0217136692356
 31
0.0
  0
LINE
  5
8E
330
1F
100
AcDbEntity
  8
D-2
  6
Continuous
 62
    92
370
     5
100
AcDbLine
 10
-1318.757629394531
 20
-222.1583268449112
 30
0.0
 11
-1318.757629394531
 21
452.841796875
 31
0.0
  0
LINE
  5
8F
330
1F
100
AcDbEntity
  8
D-2
  6
Continuous
 62
    92
370
     5
100
AcDbLine
 10
-1428.757744866448
 20
-247.1584093248521
 30
0.0
 11
-1293.75754691459
 21
-247.1584093248521
 31
0.0
  0
LINE
  5
90
330
1F
100
AcDbEntity
  8
D-2
  6
Continuous
 62
    92
370
     5
100
AcDbLine
 10
-1428.757744866448
 20
-247.1584093248521
 30
0.0
 11
-1428.757744866448
 21
1152.841631915118
 31
0.0
  0
LINE
  5
91
330
1F
100
AcDbEntity
  8
D-2
  6
Continuous
 62
    92
370
     5
100
AcDbLine
 10
-1428.757744866448
 20
1152.841631915118
 30
0.0
 11
-1293.75754691459
 21
1152.841631915118
 31
0.0
  0
LINE
  5
92
330
1F
100
AcDbEntity
  8
D-2
  6
Continuous
 62
    92
370
     5
100
AcDbLine
 10
-1293.75754691459
 20
-247.1584093248521
 30
0.0
 11
-1293.75754691459
 21
1152.841631915118
 31
0.0
  0
LINE
  5
93
330
1F
100
AcDbEntity
  8
D-2
  6
Continuous
 62
    92
370
     5
100
AcDbLine
 10
-1428.757744866448
 20
-247.1584093248521
 30
0.0
 11
-1403.757662386507
 21
-222.1583268449112
 31
0.0
  0
LINE
  5
94
330
1F
100
AcDbEntity
  8
D-2
  6
Continuous
 62
    92
370
     5
100
AcDbLine
 10
-1318.757629394531
 20
-222.1583268449112
 30
0.0
 11
-1293.75754691459
 21
-247.1584093248521
 31
0.0
  0
LINE
  5
95
330
1F
100
AcDbEntity
  8
D-2
  6
Continuous
 62
    92
370
     5
100
AcDbLine
 10
-631.5276687209669
 20
-247.1579144452069
 30
0.0
 11
-636.5276852169552
 21
-247.1579144452069
 31
0.0
  0
LINE
  5
96
330
1F
100
AcDbEntity
  8
D-2
  6
Continuous
 62
    92
370
     5
100
AcDbLine
 10
-636.5276852169552
 20
-247.1579144452069
 30
0.0
 11
-636.5276852169552
 21
1152.841879354941
 31
0.0
  0
LINE
  5
97
330
1F
100
AcDbEntity
  8
D-2
  6
Continuous
 62
    92
370
     5
100
AcDbLine
 10
-631.5276687209669
 20
-247.1579144452069
 30
0.0
 11
-631.5276687209669
 21
1152.841879354941
 31
0.0
  0
LINE
  5
98
330
1F
100
AcDbEntity
  8
D-2
  6
Continuous
 62
    92
370
     5
100
AcDbLine
 10
-631.5276687209669
 20
1152.841879354941
 30
0.0
 11
-636.5276852169552
 21
1152.841879354941
 31
0.0
  0
LINE
  5
99
330
1F
100
AcDbEntity
  8
D-2
  6
Continuous
 62
    92
370
     5
100
AcDbLine
 10
-586.5278914168073
 20
-162.1581288930531
 30
0.0
 11
-586.5278914168073
 21
-132.1580299171239
 31
0.0
  0
LINE
  5
9A
330
1F
100
AcDbEntity
  8
D-2
  6
Continuous
 62
    92
370
     5
100
AcDbLine
 10
-586.5278914168073
 20
-132.1580299171239
 30
0.0
 11
-571.5277182089314
 21
-132.1580299171239
 31
0.0
  0
LINE
  5
9B
330
1F
100
AcDbEntity
  8
D-2
  6
Continuous
 62
    92
370
     5
100
AcDbLine
 10
-586.5278914168073
 20
-162.1581288930531
 30
0.0
 11
-571.5277182089314
 21
-162.1581288930531
 31
0.0
  0
LINE
  5
9C
330
1F
100
AcDbEntity
  8
D-2
  6
Continuous
 62
    92
370
     5
100
AcDbLine
 10
-571.5277182089314
 20
-162.1581288930531
 30
0.0
 11
-571.5277182089314
 21
-132.1580299171239
 31
0.0
  0
LINE
  5
9D
330
1F
100
AcDbEntity
  8
D-2
  6
Continuous
 62
    92
370
     5
100
AcDbLine
 10
-611.5276027370144
 20
-132.1580299171239
 30
0.0
 11
-631.5276687209669
 21
-132.1580299171239
 31
0.0
  0
LINE
  5
9E
330
1F
100
AcDbEntity
  8
D-2
  6
Continuous
 62
    92
370
     5
100
AcDbLine
 10
-611.5276027370144
 20
-162.1581288930531
 30
0.0
 11
-611.5276027370144
 21
-132.1580299171239
 31
0.0
  0
LINE
  5
9F
330
1F
100
AcDbEntity
  8
D-2
  6
Continuous
 62
    92
370
     5
100
AcDbLine
 10
-611.5276027370144
 20
-162.1581288930531
 30
0.0
 11
-631.5276687209669
 21
-162.1581288930531
 31
0.0
  0
LINE
  5
A0
330
1F
100
AcDbEntity
  8
D-2
  6
Continuous
 62
    92
370
     5
100
AcDbLine
 10
-586.5278914168073
 20
-134.6580381651182
 30
0.0
 11
-611.5276027370144
 21
-134.6580381651182
 31
0.0
  0
LINE
  5
A1
330
1F
100
AcDbEntity
  8
D-2
  6
Continuous
 62
    92
370
     5
100
AcDbLine
 10
-586.5278914168073
 20
-159.6581206450591
 30
0.0
 11
-611.5276027370144
 21
-159.6581206450591
 31
0.0
  0
LINE
  5
A2
330
1F
100
AcDbEntity
  8
D-2
  6
JWW_DASHED1
 62
    92
370
     5
100
AcDbLine
 10
-631.5276687209669
 20
-132.1580299171239
 30
0.0
 11
-636.5276852169552
 21
-132.1580299171239
 31
0.0
  0
LINE
  5
A3
330
1F
100
AcDbEntity
  8
D-2
  6
JWW_DASHED1
 62
    92
370
     5
100
AcDbLine
 10
-631.5276687209669
 20
-162.1581288930531
 30
0.0
 11
-636.5276852169552
 21
-162.1581288930531
 31
0.0
  0
LINE
  5
A4
330
1F
100
AcDbEntity
  8
D-2
  6
Continuous
 62
    92
370
     5
100
AcDbLine
 10
-586.5278914168073
 20
437.8419948268584
 30
0.0
 11
-586.5278914168073
 21
467.8420938027872
 31
0.0
  0
LINE
  5
A5
330
1F
100
AcDbEntity
  8
D-2
  6
Continuous
 62
    92
370
     5
100
AcDbLine
 10
-586.5278914168073
 20
467.8420938027872
 30
0.0
 11
-571.5277182089314
 21
467.8420938027872
 31
0.0
  0
LINE
  5
A6
330
1F
100
AcDbEntity
  8
D-2
  6
Continuous
 62
    92
370
     5
100
AcDbLine
 10
-586.5278914168073
 20
437.8419948268584
 30
0.0
 11
-571.5277182089314
 21
437.8419948268584
 31
0.0
  0
LINE
  5
A7
330
1F
100
AcDbEntity
  8
D-2
  6
Continuous
 62
    92
370
     5
100
AcDbLine
 10
-571.5277182089314
 20
437.8419948268584
 30
0.0
 11
-571.5277182089314
 21
467.8420938027872
 31
0.0
  0
LINE
  5
A8
330
1F
100
AcDbEntity
  8
D-2
  6
Continuous
 62
    92
370
     5
100
AcDbLine
 10
-611.5276027370144
 20
467.8420938027872
 30
0.0
 11
-631.5276687209669
 21
467.8420938027872
 31
0.0
  0
LINE
  5
A9
330
1F
100
AcDbEntity
  8
D-2
  6
Continuous
 62
    92
370
     5
100
AcDbLine
 10
-611.5276027370144
 20
437.8419948268584
 30
0.0
 11
-611.5276027370144
 21
467.8420938027872
 31
0.0
  0
LINE
  5
AA
330
1F
100
AcDbEntity
  8
D-2
  6
Continuous
 62
    92
370
     5
100
AcDbLine
 10
-611.5276027370144
 20
437.8419948268584
 30
0.0
 11
-631.5276687209669
 21
437.8419948268584
 31
0.0
  0
LINE
  5
AB
330
1F
100
AcDbEntity
  8
D-2
  6
Continuous
 62
    92
370
     5
100
AcDbLine
 10
-586.5278914168073
 20
465.3419618348818
 30
0.0
 11
-611.5276027370144
 21
465.3419618348818
 31
0.0
  0
LINE
  5
AC
330
1F
100
AcDbEntity
  8
D-2
  6
Continuous
 62
    92
370
     5
100
AcDbLine
 10
-586.5278914168073
 20
440.3421267947635
 30
0.0
 11
-611.5276027370144
 21
440.3421267947635
 31
0.0
  0
LINE
  5
AD
330
1F
100
AcDbEntity
  8
D-2
  6
JWW_DASHED1
 62
    92
370
     5
100
AcDbLine
 10
-631.5276687209669
 20
467.8420938027872
 30
0.0
 11
-636.5276852169552
 21
467.8420938027872
 31
0.0
  0
LINE
  5
AE
330
1F
100
AcDbEntity
  8
D-2
  6
JWW_DASHED1
 62
    92
370
     5
100
AcDbLine
 10
-631.5276687209669
 20
437.8419948268584
 30
0.0
 11
-636.5276852169552
 21
437.8419948268584
 31
0.0
  0
LINE
  5
AF
330
1F
100
AcDbEntity
  8
D-2
  6
Continuous
 62
    92
370
     5
100
AcDbLine
 10
-586.5278914168073
 20
1037.841747387036
 30
0.0
 11
-586.5278914168073
 21
1067.842093802787
 31
0.0
  0
LINE
  5
B0
330
1F
100
AcDbEntity
  8
D-2
  6
Continuous
 62
    92
370
     5
100
AcDbLine
 10
-586.5278914168073
 20
1067.842093802787
 30
0.0
 11
-571.5277182089314
 21
1067.842093802787
 31
0.0
  0
LINE
  5
B1
330
1F
100
AcDbEntity
  8
D-2
  6
Continuous
 62
    92
370
     5
100
AcDbLine
 10
-586.5278914168073
 20
1037.841747387036
 30
0.0
 11
-571.5277182089314
 21
1037.841747387036
 31
0.0
  0
LINE
  5
B2
330
1F
100
AcDbEntity
  8
D-2
  6
Continuous
 62
    92
370
     5
100
AcDbLine
 10
-571.5277182089314
 20
1037.841747387036
 30
0.0
 11
-571.5277182089314
 21
1067.842093802787
 31
0.0
  0
LINE
  5
B3
330
1F
100
AcDbEntity
  8
D-2
  6
Continuous
 62
    92
370
     5
100
AcDbLine
 10
-611.5276027370144
 20
1067.842093802787
 30
0.0
 11
-631.5276687209669
 21
1067.842093802787
 31
0.0
  0
LINE
  5
B4
330
1F
100
AcDbEntity
  8
D-2
  6
Continuous
 62
    92
370
     5
100
AcDbLine
 10
-611.5276027370144
 20
1037.841747387036
 30
0.0
 11
-611.5276027370144
 21
1067.842093802787
 31
0.0
  0
LINE
  5
B5
330
1F
100
AcDbEntity
  8
D-2
  6
Continuous
 62
    92
370
     5
100
AcDbLine
 10
-611.5276027370144
 20
1037.841747387036
 30
0.0
 11
-631.5276687209669
 21
1037.841747387036
 31
0.0
  0
LINE
  5
B6
330
1F
100
AcDbEntity
  8
D-2
  6
Continuous
 62
    92
370
     5
100
AcDbLine
 10
-586.5278914168073
 20
1065.341714395059
 30
0.0
 11
-611.5276027370144
 21
1065.341714395059
 31
0.0
  0
LINE
  5
B7
330
1F
100
AcDbEntity
  8
D-2
  6
Continuous
 62
    92
370
     5
100
AcDbLine
 10
-586.5278914168073
 20
1040.341879354941
 30
0.0
 11
-611.5276027370144
 21
1040.341879354941
 31
0.0
  0
LINE
  5
B8
330
1F
100
AcDbEntity
  8
D-2
  6
JWW_DASHED1
 62
    92
370
     5
100
AcDbLine
 10
-631.5276687209669
 20
1067.842093802787
 30
0.0
 11
-636.5276852169552
 21
1067.842093802787
 31
0.0
  0
LINE
  5
B9
330
1F
100
AcDbEntity
  8
D-2
  6
JWW_DASHED1
 62
    92
370
     5
100
AcDbLine
 10
-631.5276687209669
 20
1037.841747387036
 30
0.0
 11
-636.5276852169552
 21
1037.841747387036
 31
0.0
  0
LINE
  5
BA
330
1F
100
AcDbEntity
  8
D-2
  6
Continuous
 62
    92
370
     5
100
AcDbLine
 10
-1428.757744866448
 20
1152.841631915118
 30
0.0
 11
-1403.757662386507
 21
1127.841301995355
 31
0.0
  0
LINE
  5
BB
330
1F
100
AcDbEntity
  8
D-2
  6
Continuous
 62
    92
370
     5
100
AcDbLine
 10
-1318.757629394531
 20
1127.841301995355
 30
0.0
 11
-1293.75754691459
 21
1152.841631915118
 31
0.0
  0
LINE
  5
BC
330
1F
100
AcDbEntity
  8
D-4
  6
Continuous
 62
     7
370
     5
100
AcDbLine
 10
-1281.147023793813
 20
1152.841631915118
 30
0.0
 11
-1098.257941168708
 21
1152.841631915118
 31
0.0
  0
LINE
  5
BD
330
1F
100
AcDbEntity
  8
D-4
  6
Continuous
 62
     7
370
     5
100
AcDbLine
 10
-1281.147023793813
 20
-247.1585330447634
 30
0.0
 11
-1098.257941168708
 21
-247.1585330447634
 31
0.0
  0
LINE
  5
BE
330
1F
100
AcDbEntity
  8
D-4
  6
Continuous
 62
     7
370
     5
100
AcDbLine
 10
-1307.997708707242
 20
1127.841301995355
 30
0.0
 11
-1178.257957664696
 21
1127.841301995355
 31
0.0
  0
LINE
  5
BF
330
1F
100
AcDbEntity
  8
D-4
  6
Continuous
 62
     7
370
     5
100
AcDbLine
 10
-1307.997708707242
 20
-222.1583268449112
 30
0.0
 11
-1178.257957664696
 21
-222.1583268449112
 31
0.0
  0
LINE
  5
C0
330
1F
100
AcDbEntity
  8
D-4
  6
Continuous
 62
     7
370
     5
100
AcDbLine
 10
-1403.757662386507
 20
-242.3516433303421
 30
0.0
 11
-1403.757662386507
 21
-364.5244371568833
 31
0.0
  0
LINE
  5
C1
330
1F
100
AcDbEntity
  8
D-4
  6
Continuous
 62
     7
370
     5
100
AcDbLine
 10
-1318.757629394531
 20
-242.3516433303421
 30
0.0
 11
-1318.757629394531
 21
-364.5244371568833
 31
0.0
  0
LINE
  5
C2
330
1F
100
AcDbEntity
  8
D-4
  6
Continuous
 62
     7
370
     5
100
AcDbLine
 10
-1280.688270362648
 20
-718.4069329339104
 30
0.0
 11
-1189.142588022593
 21
-718.4069329339104
 31
0.0
  0
LINE
  5
C3
330
1F
100
AcDbEntity
  8
D-2
  6
Continuous
 62
    92
370
     5
100
AcDbLine
 10
-1376.256334459459
 20
-763.4065865181587
 30
0.0
 11
-1346.25623548353
 21
-763.4065865181587
 31
0.0
  0
LINE
  5
C4
330
1F
100
AcDbEntity
  8
D-2
  6
Continuous
 62
    92
370
     5
100
AcDbLine
 10
-1346.25623548353
 20
-763.4065865181587
 30
0.0
 11
-1346.25623548353
 21
-778.4066360061233
 31
0.0
  0
LINE
  5
C5
330
1F
100
AcDbEntity
  8
D-2
  6
Continuous
 62
    92
370
     5
100
AcDbLine
 10
-1376.256334459459
 20
-763.4065865181587
 30
0.0
 11
-1376.256334459459
 21
-778.4066360061233
 31
0.0
  0
LINE
  5
C6
330
1F
100
AcDbEntity
  8
D-2
  6
Continuous
 62
    92
370
     5
100
AcDbLine
 10
-1376.256334459459
 20
-778.4066360061233
 30
0.0
 11
-1346.25623548353
 21
-778.4066360061233
 31
0.0
  0
LINE
  5
C7
330
1F
100
AcDbEntity
  8
D-2
  6
Continuous
 62
    92
370
     5
100
AcDbLine
 10
-1318.826788824958
 20
-693.4066030141469
 30
0.0
 11
-1403.826574377111
 21
-693.4066030141469
 31
0.0
  0
LINE
  5
C8
330
1F
100
AcDbEntity
  8
D-2
  6
Continuous
 62
    92
370
     5
100
AcDbLine
 10
-1318.826788824958
 20
-693.4066030141469
 30
0.0
 11
-1293.826458905194
 21
-713.4066689980996
 31
0.0
  0
LINE
  5
C9
330
1F
100
AcDbEntity
  8
D-2
  6
Continuous
 62
    92
370
     5
100
AcDbLine
 10
-1403.826574377111
 20
-693.4066030141469
 30
0.0
 11
-1428.826656857052
 21
-713.4066689980996
 31
0.0
  0
LINE
  5
CA
330
1F
100
AcDbEntity
  8
D-2
  6
Continuous
 62
    92
370
     5
100
AcDbLine
 10
-1428.826656857052
 20
-713.4066689980996
 30
0.0
 11
-1428.826656857052
 21
-718.4064380542651
 31
0.0
  0
LINE
  5
CB
330
1F
100
AcDbEntity
  8
D-2
  6
Continuous
 62
    92
370
     5
100
AcDbLine
 10
-1293.826458905194
 20
-713.4066689980996
 30
0.0
 11
-1293.826458905194
 21
-718.4064380542651
 31
0.0
  0
LINE
  5
CC
330
1F
100
AcDbEntity
  8
D-2
  6
JWW_DASHED1
 62
    92
370
     5
100
AcDbLine
 10
-1317.838514173353
 20
-713.4066689980996
 30
0.0
 11
-1311.58818425359
 21
-718.4064380542651
 31
0.0
  0
LINE
  5
CD
330
1F
100
AcDbEntity
  8
D-2
  6
Continuous
 62
    92
370
     5
100
AcDbLine
 10
-1293.826458905194
 20
-718.4064380542651
 30
0.0
 11
-1428.826656857052
 21
-718.4064380542651
 31
0.0
  0
LINE
  5
CE
330
1F
100
AcDbEntity
  8
D-2
  6
Continuous
 62
    92
370
     5
100
AcDbLine
 10
-1346.25623548353
 20
-738.4067514780405
 30
0.0
 11
-1346.25623548353
 21
-718.4066854940877
 31
0.0
  0
LINE
  5
CF
330
1F
100
AcDbEntity
  8
D-2
  6
Continuous
 62
    92
370
     5
100
AcDbLine
 10
-1376.256334459459
 20
-738.4067514780405
 30
0.0
 11
-1346.25623548353
 21
-738.4067514780405
 31
0.0
  0
LINE
  5
D0
330
1F
100
AcDbEntity
  8
D-2
  6
Continuous
 62
    92
370
     5
100
AcDbLine
 10
-1376.256334459459
 20
-738.4067514780405
 30
0.0
 11
-1376.256334459459
 21
-718.4066854940877
 31
0.0
  0
LINE
  5
D1
330
1F
100
AcDbEntity
  8
D-2
  6
Continuous
 62
    92
370
     5
100
AcDbLine
 10
-1348.756120011613
 20
-763.4065865181587
 30
0.0
 11
-1348.756120011613
 21
-738.4067514780405
 31
0.0
  0
LINE
  5
D2
330
1F
100
AcDbEntity
  8
D-2
  6
Continuous
 62
    92
370
     5
100
AcDbLine
 10
-1373.756449931377
 20
-763.4065865181587
 30
0.0
 11
-1373.756449931377
 21
-738.4067514780405
 31
0.0
  0
LINE
  5
D3
330
1F
100
AcDbEntity
  8
D-2
  6
JWW_DASHED1
 62
    92
370
     5
100
AcDbLine
 10
-1346.25623548353
 20
-718.4066854940877
 30
0.0
 11
-1346.25623548353
 21
-713.4066689980996
 31
0.0
  0
LINE
  5
D4
330
1F
100
AcDbEntity
  8
D-2
  6
JWW_DASHED1
 62
    92
370
     5
100
AcDbLine
 10
-1376.256334459459
 20
-718.4066854940877
 30
0.0
 11
-1376.256334459459
 21
-713.4066689980996
 31
0.0
  0
LINE
  5
D5
330
1F
100
AcDbEntity
  8
D-2
  6
JWW_DASHED1
 62
    92
370
     5
100
AcDbLine
 10
-1317.838514173353
 20
-713.4066689980996
 30
0.0
 11
-1404.814849028716
 21
-713.4066689980996
 31
0.0
  0
LINE
  5
D6
330
1F
100
AcDbEntity
  8
D-2
  6
JWW_DASHED1
 62
    92
370
     5
100
AcDbLine
 10
-1404.814849028716
 20
-713.4066689980996
 30
0.0
 11
-1411.064931508657
 21
-718.4064380542651
 31
0.0
  0
LINE
  5
D7
330
1F
100
AcDbEntity
  8
D-2
  6
Continuous
 62
    92
370
     5
100
AcDbLine
 10
-1403.757662386507
 20
1127.841301995355
 30
0.0
 11
-1403.757662386507
 21
452.841301995355
 31
0.0
  0
LINE
  5
D8
330
1F
100
AcDbEntity
  8
D-2
  6
Continuous
 62
    92
370
     5
100
AcDbLine
 10
-1318.757629394531
 20
1127.841301995355
 30
0.0
 11
-1318.757629394531
 21
452.841301995355
 31
0.0
  0
LINE
  5
D9
330
1F
100
AcDbEntity
  8
D-2
  6
Continuous
 62
    92
370
     5
100
AcDbLine
 10
-1403.757662386507
 20
1127.841301995355
 30
0.0
 11
-1318.757629394531
 21
1127.841301995355
 31
0.0
  0
LINE
  5
DA
330
1F
100
AcDbEntity
  8
D-2
  6
Continuous
 62
    92
370
     5
100
AcDbLine
 10
-1403.757662386507
 20
-222.1583268449112
 30
0.0
 11
-1403.757662386507
 21
452.841796875
 31
0.0
  0
LINE
  5
DB
330
1F
100
AcDbEntity
  8
D-2
  6
Continuous
 62
    92
370
     5
100
AcDbLine
 10
-1403.757662386507
 20
-222.1583268449112
 30
0.0
 11
-1318.757629394531
 21
-222.1583268449112
 31
0.0
  0
LINE
  5
DC
330
1F
100
AcDbEntity
  8
D-2
  6
JWW_CENTER1
 62
    92
370
     5
100
AcDbLine
 10
-1361.257645890519
 20
1181.974949192357
 30
0.0
 11
-1361.257645890519
 21
-276.6195843670819
 31
0.0
  0
LINE
  5
DD
330
1F
100
AcDbEntity
  8
D-2
  6
Continuous
 62
    92
370
     5
100
AcDbLine
 10
-1423.757852090372
 20
-235.0873050174197
 30
0.0
 11
-1423.757852090372
 21
-149.0851407437711
 31
0.0
  0
LINE
  5
DE
330
1F
100
AcDbEntity
  8
D-2
  6
Continuous
 62
    92
370
     5
100
AcDbLine
 10
-1418.757835594383
 20
-230.0872885214315
 30
0.0
 11
-1418.757835594383
 21
-149.0851407437711
 31
0.0
  0
LINE
  5
DF
330
1F
100
AcDbEntity
  8
D-2
  6
Continuous
 62
    92
370
     5
100
AcDbLine
 10
-1413.757819098395
 20
-225.0872720254434
 30
0.0
 11
-1413.757819098395
 21
-149.0851407437711
 31
0.0
  0
LINE
  5
E0
330
1F
100
AcDbEntity
  8
D-2
  6
Continuous
 62
    92
370
     5
100
AcDbLine
 10
-1408.757802602407
 20
-220.0872555294552
 30
0.0
 11
-1408.757802602407
 21
-149.0851407437711
 31
0.0
  0
LINE
  5
E1
330
1F
100
AcDbEntity
  8
D-2
  6
Continuous
 62
    92
370
     5
100
AcDbLine
 10
-1416.686764278927
 20
-242.1585165487753
 30
0.0
 11
-1330.684600005279
 21
-242.1581453890413
 31
0.0
  0
LINE
  5
E2
330
1F
100
AcDbEntity
  8
D-2
  6
Continuous
 62
    92
370
     5
100
AcDbLine
 10
-1411.686747782939
 20
-237.1583763328758
 30
0.0
 11
-1330.684600005279
 21
-237.1581288930531
 31
0.0
  0
LINE
  5
E3
330
1F
100
AcDbEntity
  8
D-2
  6
Continuous
 62
    92
370
     5
100
AcDbLine
 10
-1406.686731286951
 20
-232.1583598368876
 30
0.0
 11
-1330.684600005279
 21
-232.158112397065
 31
0.0
  0
LINE
  5
E4
330
1F
100
AcDbEntity
  8
D-2
  6
Continuous
 62
    92
370
     5
100
AcDbLine
 10
-1401.686714790963
 20
-227.1583433408995
 30
0.0
 11
-1330.684600005279
 21
-227.1580959010768
 31
0.0
  0
LINE
  5
E5
330
1F
100
AcDbEntity
  8
D-2
  6
Continuous
 62
    92
370
     5
100
AcDbLine
 10
-1383.757720122466
 20
-215.0872390334671
 30
0.0
 11
-1383.757720122466
 21
-120.3868226747255
 31
0.0
  0
LINE
  5
E6
330
1F
100
AcDbEntity
  8
D-2
  6
Continuous
 62
    92
370
     5
100
AcDbLine
 10
-1388.757736618454
 20
-215.0872390334671
 30
0.0
 11
-1388.757736618454
 21
-120.3868226747255
 31
0.0
  0
LINE
  5
E7
330
1F
100
AcDbEntity
  8
D-2
  6
Continuous
 62
    92
370
     5
100
AcDbLine
 10
-1393.757753114443
 20
-215.0872390334671
 30
0.0
 11
-1393.757753114443
 21
-120.3868226747255
 31
0.0
  0
LINE
  5
E8
330
1F
100
AcDbEntity
  8
D-2
  6
Continuous
 62
    92
370
     5
100
AcDbLine
 10
-1398.757769610431
 20
-215.0872390334671
 30
0.0
 11
-1398.757769610431
 21
-120.3868226747255
 31
0.0
  0
LINE
  5
E9
330
1F
100
AcDbEntity
  8
D-2
  6
JWW_CENTER1
 62
    92
370
     5
100
AcDbLine
 10
-1361.257645890519
 20
-672.6827755489865
 30
0.0
 11
-1361.257645890519
 21
-801.5985519821579
 31
0.0
  0
LINE
  5
EA
330
1F
100
AcDbEntity
  8
D-4
  6
Continuous
 62
     7
370
     5
100
AcDbLine
 10
-1423.757852090372
 20
-194.1949050490919
 30
0.0
 11
-1534.689825934333
 21
-360.1136985985008
 31
0.0
  0
LINE
  5
EB
330
1F
100
AcDbEntity
  8
D-4
  6
Continuous
 62
     7
370
     5
100
AcDbLine
 10
-1423.757852090372
 20
-194.1949050490919
 30
0.0
 11
-1434.821505159945
 21
-216.6135715793918
 31
0.0
  0
LINE
  5
EC
330
1F
100
AcDbEntity
  8
D-4
  6
Continuous
 62
     7
370
     5
100
AcDbLine
 10
-1423.757852090372
 20
-194.1949050490919
 30
0.0
 11
-1440.246870711043
 21
-212.986227499472
 31
0.0
  0
LINE
  5
ED
330
1F
100
AcDbEntity
  8
D-4
  6
Continuous
 62
     7
370
     5
100
AcDbLine
 10
-1370.923387682116
 20
-242.1582691089526
 30
0.0
 11
-1534.689825934333
 21
-360.1136985985008
 31
0.0
  0
LINE
  5
EE
330
1F
100
AcDbEntity
  8
D-4
  6
Continuous
 62
     7
370
     5
100
AcDbLine
 10
-1370.923387682116
 20
-242.1582691089526
 30
0.0
 11
-1389.128525192673
 21
-259.2922396273225
 31
0.0
  0
LINE
  5
EF
330
1F
100
AcDbEntity
  8
D-4
  6
Continuous
 62
     7
370
     5
100
AcDbLine
 10
-1370.923387682116
 20
-242.1582691089526
 30
0.0
 11
-1392.942810058594
 21
-253.9966562631967
 31
0.0
  0
LINE
  5
F0
330
1F
100
AcDbEntity
  8
D-2
  6
Continuous
 62
    92
370
     5
100
AcDbLine
 10
-636.5276852169552
 20
-247.1579144452069
 30
0.0
 11
-656.5277512009078
 21
-222.1579556851773
 31
0.0
  0
LINE
  5
F1
330
1F
100
AcDbEntity
  8
D-2
  6
Continuous
 62
    92
370
     5
100
AcDbLine
 10
-636.5276852169552
 20
1152.841879354941
 30
0.0
 11
-656.5277512009078
 21
1127.842539194468
 31
0.0
  0
LINE
  5
F2
330
1F
100
AcDbEntity
  8
D-2
  6
Continuous
 62
    92
370
     5
100
AcDbLine
 10
-656.5277512009078
 20
-222.1579556851773
 30
0.0
 11
-656.5277512009078
 21
1127.842539194468
 31
0.0
  0
LINE
  5
F3
330
1F
100
AcDbEntity
  8
D-4
  6
Continuous
 62
     7
370
     5
100
AcDbLine
 10
-1412.466059504329
 20
-700.3171023807009
 30
0.0
 11
-1427.685093235325
 21
-680.4830685177365
 31
0.0
  0
LINE
  5
F4
330
1F
100
AcDbEntity
  8
D-4
  6
Continuous
 62
     7
370
     5
100
AcDbLine
 10
-1412.466059504329
 20
-700.3171023807009
 30
0.0
 11
-1422.033196526605
 21
-677.2200795766469
 31
0.0
  0
LINE
  5
F5
330
1F
100
AcDbEntity
  8
D-4
  6
Continuous
 62
     7
370
     5
100
AcDbLine
 10
-1412.466059504329
 20
-700.3171023807009
 30
0.0
 11
-1470.594746357686
 21
-599.6353231894002
 31
0.0
  0
LINE
  5
F6
330
1F
100
AcDbEntity
  8
D-4
  6
Continuous
 62
     7
370
     5
100
AcDbLine
 10
-1663.451942237648
 20
-599.6353231894002
 30
0.0
 11
-1470.594746357686
 21
-599.6353231894002
 31
0.0
  0
LINE
  5
F7
330
1F
100
AcDbEntity
  8
D-4
  6
Continuous
 62
     7
370
     5
100
AcDbLine
 10
-1684.185543575802
 20
-360.1136985985008
 30
0.0
 11
-1534.689825934333
 21
-360.1136985985008
 31
0.0
  0
LINE
  5
F8
330
1F
100
AcDbEntity
  8
3-2
  6
Continuous
 62
    92
370
     5
100
AcDbLine
 10
840.5404580606
 20
284.639876082137
 30
0.0
 11
840.5404580606
 21
341.3065647434544
 31
0.0
  0
LINE
  5
F9
330
1F
100
AcDbEntity
  8
3-2
  6
Continuous
 62
    92
370
     5
100
AcDbLine
 10
840.5404580606
 20
341.3065647434544
 30
0.0
 11
-59.45941821948878
 21
341.3065647434544
 31
0.0
  0
LINE
  5
FA
330
1F
100
AcDbEntity
  8
3-2
  6
Continuous
 62
    92
370
     5
100
AcDbLine
 10
857.2072621938344
 20
267.9730719489021
 30
0.0
 11
857.2072621938344
 21
357.9731214368667
 31
0.0
  0
LINE
  5
FB
330
1F
100
AcDbEntity
  8
3-2
  6
Continuous
 62
    92
370
     5
100
AcDbLine
 10
857.2072621938344
 20
267.9730719489021
 30
0.0
 11
-76.12634607263516
 21
267.9730719489021
 31
0.0
  0
LINE
  5
FC
330
1F
100
AcDbEntity
  8
3-2
  6
Continuous
 62
    92
370
     5
100
AcDbLine
 10
-76.12634607263516
 20
267.9730719489021
 30
0.0
 11
-76.12634607263516
 21
357.9731214368667
 31
0.0
  0
LINE
  5
FD
330
1F
100
AcDbEntity
  8
3-2
  6
Continuous
 62
    92
370
     5
100
AcDbLine
 10
857.2072621938344
 20
357.9731214368667
 30
0.0
 11
-76.12634607263516
 21
357.9731214368667
 31
0.0
  0
LINE
  5
FE
330
1F
100
AcDbEntity
  8
3-2
  6
Continuous
 62
    92
370
     5
100
AcDbLine
 10
857.2072621938344
 20
267.9730719489021
 30
0.0
 11
840.5404580606
 21
284.639876082137
 31
0.0
  0
LINE
  5
FF
330
1F
100
AcDbEntity
  8
3-2
  6
Continuous
 62
    92
370
     5
100
AcDbLine
 10
840.5404580606
 20
341.3065647434544
 30
0.0
 11
857.2072621938344
 21
357.9731214368667
 31
0.0
  0
LINE
  5
100
330
1F
100
AcDbEntity
  8
3-2
  6
Continuous
 62
    92
370
     5
100
AcDbLine
 10
-59.45941821948878
 20
284.639876082137
 30
0.0
 11
-59.45941821948878
 21
341.3065647434544
 31
0.0
  0
LINE
  5
101
330
1F
100
AcDbEntity
  8
3-2
  6
Continuous
 62
    92
370
     5
100
AcDbLine
 10
-76.12634607263516
 20
267.9730719489021
 30
0.0
 11
-59.45941821948878
 21
284.639876082137
 31
0.0
  0
LINE
  5
102
330
1F
100
AcDbEntity
  8
3-2
  6
Continuous
 62
    92
370
     5
100
AcDbLine
 10
-59.45941821948878
 20
341.3065647434544
 30
0.0
 11
-76.12634607263516
 21
357.9731214368667
 31
0.0
  0
LINE
  5
103
330
1F
100
AcDbEntity
  8
3-2
  6
Continuous
 62
    92
370
     5
100
AcDbLine
 10
-59.45941821948878
 20
284.639876082137
 30
0.0
 11
840.5404580606
 21
284.639876082137
 31
0.0
  0
LINE
  5
104
330
1F
100
AcDbEntity
  8
3-2
  6
JWW_CENTER1
 62
    92
370
     5
100
AcDbLine
 10
-95.54851635082343
 20
312.9732204127956
 30
0.0
 11
876.8480455553214
 21
312.9732204127956
 31
0.0
  0
LINE
  5
105
330
1F
100
AcDbEntity
  8
3-2
  6
Continuous
 62
    92
370
     5
100
AcDbLine
 10
840.5404580606
 20
534.6399585620779
 30
0.0
 11
840.5404580606
 21
591.3066472233953
 31
0.0
  0
LINE
  5
106
330
1F
100
AcDbEntity
  8
3-2
  6
Continuous
 62
    92
370
     5
100
AcDbLine
 10
840.5404580606
 20
591.3066472233953
 30
0.0
 11
-59.45941821948878
 21
591.3066472233953
 31
0.0
  0
LINE
  5
107
330
1F
100
AcDbEntity
  8
3-2
  6
Continuous
 62
    92
370
     5
100
AcDbLine
 10
857.2072621938344
 20
517.9731544288429
 30
0.0
 11
857.2072621938344
 21
607.9732039168075
 31
0.0
  0
LINE
  5
108
330
1F
100
AcDbEntity
  8
3-2
  6
Continuous
 62
    92
370
     5
100
AcDbLine
 10
857.2072621938344
 20
517.9731544288429
 30
0.0
 11
-76.12634607263516
 21
517.9731544288429
 31
0.0
  0
LINE
  5
109
330
1F
100
AcDbEntity
  8
3-2
  6
Continuous
 62
    92
370
     5
100
AcDbLine
 10
-76.12634607263516
 20
517.9731544288429
 30
0.0
 11
-76.12634607263516
 21
607.9732039168075
 31
0.0
  0
LINE
  5
10A
330
1F
100
AcDbEntity
  8
3-2
  6
Continuous
 62
    92
370
     5
100
AcDbLine
 10
857.2072621938344
 20
607.9732039168075
 30
0.0
 11
-76.12634607263516
 21
607.9732039168075
 31
0.0
  0
LINE
  5
10B
330
1F
100
AcDbEntity
  8
3-2
  6
Continuous
 62
    92
370
     5
100
AcDbLine
 10
857.2072621938344
 20
517.9731544288429
 30
0.0
 11
840.5404580606
 21
534.6399585620779
 31
0.0
  0
LINE
  5
10C
330
1F
100
AcDbEntity
  8
3-2
  6
Continuous
 62
    92
370
     5
100
AcDbLine
 10
840.5404580606
 20
591.3066472233953
 30
0.0
 11
857.2072621938344
 21
607.9732039168075
 31
0.0
  0
LINE
  5
10D
330
1F
100
AcDbEntity
  8
3-2
  6
Continuous
 62
    92
370
     5
100
AcDbLine
 10
-59.45941821948878
 20
534.6399585620779
 30
0.0
 11
-59.45941821948878
 21
591.3066472233953
 31
0.0
  0
LINE
  5
10E
330
1F
100
AcDbEntity
  8
3-2
  6
Continuous
 62
    92
370
     5
100
AcDbLine
 10
-76.12634607263516
 20
517.9731544288429
 30
0.0
 11
-59.45941821948878
 21
534.6399585620779
 31
0.0
  0
LINE
  5
10F
330
1F
100
AcDbEntity
  8
3-2
  6
Continuous
 62
    92
370
     5
100
AcDbLine
 10
-59.45941821948878
 20
591.3066472233953
 30
0.0
 11
-76.12634607263516
 21
607.9732039168075
 31
0.0
  0
LINE
  5
110
330
1F
100
AcDbEntity
  8
3-2
  6
Continuous
 62
    92
370
     5
100
AcDbLine
 10
-59.45941821948878
 20
534.6399585620779
 30
0.0
 11
840.5404580606
 21
534.6399585620779
 31
0.0
  0
LINE
  5
111
330
1F
100
AcDbEntity
  8
3-2
  6
JWW_CENTER1
 62
    92
370
     5
100
AcDbLine
 10
-95.54851635082343
 20
562.9733028927367
 30
0.0
 11
876.8480455553214
 21
562.9733028927367
 31
0.0
  0
LINE
  5
112
330
1F
100
AcDbEntity
  8
3-2
  6
Continuous
 62
    92
370
     5
100
AcDbLine
 10
840.5404580606
 20
784.639793602196
 30
0.0
 11
840.5404580606
 21
841.3064822635135
 31
0.0
  0
LINE
  5
113
330
1F
100
AcDbEntity
  8
3-2
  6
Continuous
 62
    92
370
     5
100
AcDbLine
 10
840.5404580606
 20
841.3064822635135
 30
0.0
 11
-59.45941821948878
 21
841.3064822635135
 31
0.0
  0
LINE
  5
114
330
1F
100
AcDbEntity
  8
3-2
  6
Continuous
 62
    92
370
     5
100
AcDbLine
 10
857.2072621938344
 20
767.9732369087839
 30
0.0
 11
857.2072621938344
 21
857.9730389569258
 31
0.0
  0
LINE
  5
115
330
1F
100
AcDbEntity
  8
3-2
  6
Continuous
 62
    92
370
     5
100
AcDbLine
 10
857.2072621938344
 20
767.9732369087839
 30
0.0
 11
-76.12634607263516
 21
767.9732369087839
 31
0.0
  0
LINE
  5
116
330
1F
100
AcDbEntity
  8
3-2
  6
Continuous
 62
    92
370
     5
100
AcDbLine
 10
-76.12634607263516
 20
767.9732369087839
 30
0.0
 11
-76.12634607263516
 21
857.9730389569258
 31
0.0
  0
LINE
  5
117
330
1F
100
AcDbEntity
  8
3-2
  6
Continuous
 62
    92
370
     5
100
AcDbLine
 10
857.2072621938344
 20
857.9730389569258
 30
0.0
 11
-76.12634607263516
 21
857.9730389569258
 31
0.0
  0
LINE
  5
118
330
1F
100
AcDbEntity
  8
3-2
  6
Continuous
 62
    92
370
     5
100
AcDbLine
 10
857.2072621938344
 20
767.9732369087839
 30
0.0
 11
840.5404580606
 21
784.639793602196
 31
0.0
  0
LINE
  5
119
330
1F
100
AcDbEntity
  8
3-2
  6
Continuous
 62
    92
370
     5
100
AcDbLine
 10
840.5404580606
 20
841.3064822635135
 30
0.0
 11
857.2072621938344
 21
857.9730389569258
 31
0.0
  0
LINE
  5
11A
330
1F
100
AcDbEntity
  8
3-2
  6
Continuous
 62
    92
370
     5
100
AcDbLine
 10
-59.45941821948878
 20
784.639793602196
 30
0.0
 11
-59.45941821948878
 21
841.3064822635135
 31
0.0
  0
LINE
  5
11B
330
1F
100
AcDbEntity
  8
3-2
  6
Continuous
 62
    92
370
     5
100
AcDbLine
 10
-76.12634607263516
 20
767.9732369087839
 30
0.0
 11
-59.45941821948878
 21
784.639793602196
 31
0.0
  0
LINE
  5
11C
330
1F
100
AcDbEntity
  8
3-2
  6
Continuous
 62
    92
370
     5
100
AcDbLine
 10
-59.45941821948878
 20
841.3064822635135
 30
0.0
 11
-76.12634607263516
 21
857.9730389569258
 31
0.0
  0
LINE
  5
11D
330
1F
100
AcDbEntity
  8
3-2
  6
Continuous
 62
    92
370
     5
100
AcDbLine
 10
-59.45941821948878
 20
784.639793602196
 30
0.0
 11
840.5404580606
 21
784.639793602196
 31
0.0
  0
LINE
  5
11E
330
1F
100
AcDbEntity
  8
3-2
  6
JWW_CENTER1
 62
    92
370
     5
100
AcDbLine
 10
-95.54851635082343
 20
812.973137932855
 30
0.0
 11
876.8480455553214
 21
812.973137932855
 31
0.0
  0
LINE
  5
11F
330
1F
100
AcDbEntity
  8
D-4
  6
Continuous
 62
     7
370
     5
100
AcDbLine
 10
-1246.241430334143
 20
-871.0215058197846
 30
0.0
 11
-1376.256210739548
 21
-871.0215058197846
 31
0.0
  0
TEXT
  5
120
330
1F
100
AcDbEntity
  8
3-4
  6
Continuous
 62
    40
370
     9
100
AcDbText
 10
358.040474556588
 20
-251.1939249894425
 30
0.0
 40
30.48
  1
300
 41
1.083333333333333
  7
ＭＳ ゴシック
100
AcDbText
  0
TEXT
  5
121
330
1F
100
AcDbEntity
  8
3-4
  6
Continuous
 62
    40
370
     9
100
AcDbText
 10
1102.075091189823
 20
405.4730307089318
 30
0.0
 40
30.48
  1
300
 50
90.0
 41
1.083333333333333
  7
ＭＳ ゴシック
100
AcDbText
  0
TEXT
  5
122
330
1F
100
AcDbEntity
  8
3-4
  6
Continuous
 62
    40
370
     9
100
AcDbText
 10
145.9459459459461
 20
-457.7383783783784
 30
0.0
 40
30.48
  1
パターン例　Ｓ＝１：３
 41
1.113636363636364
  7
ＭＳ ゴシック
100
AcDbText
  0
TEXT
  5
123
330
1F
100
AcDbEntity
  8
D-4
  6
Continuous
 62
    40
370
     9
100
AcDbText
 10
-1451.351351351351
 20
-992.8735135135136
 30
0.0
 40
30.48
  1
Ｓ＝１：２
 41
1.1
  7
ＭＳ ゴシック
100
AcDbText
  0
TEXT
  5
124
330
1F
100
AcDbEntity
  8
3-4
  6
Continuous
 62
    40
370
     9
100
AcDbText
 10
1006.496758340372
 20
-43.27690330711562
 30
0.0
 40
30.48
  1
37.5
 50
90.0
 41
1.09375
  7
ＭＳ ゴシック
100
AcDbText
  0
TEXT
  5
125
330
1F
100
AcDbEntity
  8
3-4
  6
Continuous
 62
    40
370
     9
100
AcDbText
 10
1006.496758340372
 20
166.7232946447425
 30
0.0
 40
30.48
  1
75
 50
90.0
 41
1.0625
  7
ＭＳ ゴシック
100
AcDbText
  0
TEXT
  5
126
330
1F
100
AcDbEntity
  8
3-4
  6
Continuous
 62
    40
370
     9
100
AcDbText
 10
1006.496758340372
 20
416.7232534047722
 30
0.0
 40
30.48
  1
75
 50
90.0
 41
1.0625
  7
ＭＳ ゴシック
100
AcDbText
  0
TEXT
  5
127
330
1F
100
AcDbEntity
  8
3-4
  6
Continuous
 62
    40
370
     9
100
AcDbText
 10
1006.496758340372
 20
666.723335884713
 30
0.0
 40
30.48
  1
75
 50
90.0
 41
1.0625
  7
ＭＳ ゴシック
100
AcDbText
  0
TEXT
  5
128
330
1F
100
AcDbEntity
  8
3-4
  6
Continuous
 62
    40
370
     9
100
AcDbText
 10
1006.496758340372
 20
831.723137932855
 30
0.0
 40
30.48
  1
37.5
 50
90.0
 41
1.09375
  7
ＭＳ ゴシック
100
AcDbText
  0
TEXT
  5
129
330
1F
100
AcDbEntity
  8
D-4
  6
Continuous
 62
    40
370
     9
100
AcDbText
 10
-1207.782581424198
 20
-769.6571638777449
 30
0.0
 40
30.48
  1
12
 50
90.0
 41
1.0625
  7
ＭＳ ゴシック
100
AcDbText
  0
TEXT
  5
12A
330
1F
100
AcDbEntity
  8
D-4
  6
Continuous
 62
    40
370
     9
100
AcDbText
 10
-1207.782581424198
 20
-669.1354782516892
 30
0.0
 40
30.48
  1
5
 50
90.0
 41
1.000000206199857
  7
ＭＳ ゴシック
100
AcDbText
  0
TEXT
  5
12B
330
1F
100
AcDbEntity
  8
D-4
  6
Continuous
 62
    40
370
     9
100
AcDbText
 10
-1127.782564928209
 20
-757.1569989178631
 30
0.0
 40
30.48
  1
17
 50
90.0
 41
1.0625
  7
ＭＳ ゴシック
100
AcDbText
  0
TEXT
  5
12C
330
1F
100
AcDbEntity
  8
D-4
  6
Continuous
 62
    40
370
     9
100
AcDbText
 10
-506.01936648807
 20
120.3415659311656
 30
0.0
 40
30.48
  1
120
 50
90.0
 41
1.083333333333333
  7
ＭＳ ゴシック
100
AcDbText
  0
TEXT
  5
12D
330
1F
100
AcDbEntity
  8
D-4
  6
Continuous
 62
    40
370
     9
100
AcDbText
 10
-506.01936648807
 20
720.3415659311656
 30
0.0
 40
30.48
  1
120
 50
90.0
 41
1.083333333333333
  7
ＭＳ ゴシック
100
AcDbText
  0
TEXT
  5
12E
330
1F
100
AcDbEntity
  8
D-4
  6
Continuous
 62
    40
370
     9
100
AcDbText
 10
-1116.897934570313
 20
420.3415659311656
 30
0.0
 40
30.48
  1
280
 50
90.0
 41
1.083333333333333
  7
ＭＳ ゴシック
100
AcDbText
  0
TEXT
  5
12F
330
1F
100
AcDbEntity
  8
D-4
  6
Continuous
 62
    40
370
     9
100
AcDbText
 10
-1319.814197437183
 20
-855.3817202676308
 30
0.0
 40
30.48
  1
φ6
 41
1.083333333333333
  7
ＭＳ ゴシック
100
AcDbText
  0
TEXT
  5
130
330
1F
100
AcDbEntity
  8
D-4
  6
Continuous
 62
    40
370
     9
100
AcDbText
 10
-1382.507654138514
 20
-345.8844437552787
 30
0.0
 40
30.48
  1
17
 41
1.0625
  7
ＭＳ ゴシック
100
AcDbText
  0
TEXT
  5
131
330
1F
100
AcDbEntity
  8
D-4
  6
Continuous
 62
    40
370
     9
100
AcDbText
 10
-1382.507654138514
 20
-425.8844602512668
 30
0.0
 40
30.48
  1
27
 41
1.0625
  7
ＭＳ ゴシック
100
AcDbText
  0
TEXT
  5
132
330
1F
100
AcDbEntity
  8
D-4
  6
Continuous
 62
    40
370
     9
100
AcDbText
 10
-1196.897951066301
 20
420.3415659311656
 30
0.0
 40
30.48
  1
270
 50
90.0
 41
1.083333333333333
  7
ＭＳ ゴシック
100
AcDbText
  0
TEXT
  5
133
330
1F
100
AcDbEntity
  8
D-4
  6
Continuous
 62
     7
370
     5
100
AcDbText
 10
-1647.7098207216
 20
-584.1120459644213
 30
0.0
 40
22.86
  1
ＳＣＳ１３
 41
1.133333360826648
  7
ＭＳ ゴシック
100
AcDbText
  0
TEXT
  5
134
330
1F
100
AcDbEntity
  8
D-4
  6
Continuous
 62
     7
370
     5
100
AcDbText
 10
-1655.58805723448
 20
-631.9935074429898
 30
0.0
 40
22.86
  1
ＨＬ仕上げ
 41
1.133333360826646
  7
ＭＳ ゴシック
100
AcDbText
  0
TEXT
  5
135
330
1F
100
AcDbEntity
  8
D-4
  6
Continuous
 62
     7
370
     5
100
AcDbText
 10
-1677.830546611064
 20
-349.195771352407
 30
0.0
 40
22.86
  1
ＨＬ方向
 41
1.125
  7
ＭＳ ゴシック
100
AcDbText
  0
TEXT
  5
136
330
1F
100
AcDbEntity
  8
F-4
  6
Continuous
 62
     7
370
     5
100
AcDbText
 10
-814.756609942462
 20
-1320.836605645257
 30
0.0
 40
22.86
  1
ＪＩＳ型　床タイル用　ステンレス鋳鋼製　プレーンタイプ
 41
1.160493837343203
  7
ＭＳ ゴシック
100
AcDbText
  0
TEXT
  5
137
330
1F
100
AcDbEntity
  8
F-5
  6
Continuous
 62
     7
370
     5
100
AcDbText
 10
-499.0506146405193
 20
-1372.645679428513
 30
0.0
 40
22.86
  1
視覚障害者誘導用マーカー（線状突起）　ＪＭＰ－３
 41
1.159722222222222
  7
ＭＳ ゴシック
100
AcDbText
  0
ENDSEC
  0
SECTION
  2
OBJECTS
  0
DICTIONARY
  5
C
330
0
100
AcDbDictionary
281
     1
  3
ACAD_GROUP
350
D
  3
ACAD_LAYOUT
350
1A
  3
ACAD_MLEADERSTYLE
350
139
  3
ACAD_MLINESTYLE
350
17
  3
ACAD_PLOTSETTINGS
350
19
  3
ACAD_PLOTSTYLENAME
350
E
  3
ACAD_TABLESTYLE
350
138
  3
ACAD_VISUALSTYLE
350
2A
  0
DICTIONARY
  5
D
102
{ACAD_REACTORS
330
C
102
}
330
C
100
AcDbDictionary
281
     1
  0
DICTIONARY
  5
1A
102
{ACAD_REACTORS
330
C
102
}
330
C
100
AcDbDictionary
281
     1
  3
Layout1
350
1E
  3
Layout2
350
26
  3
Model
350
22
  0
DICTIONARY
  5
139
102
{ACAD_REACTORS
330
C
102
}
330
C
100
AcDbDictionary
281
     1
  0
DICTIONARY
  5
17
102
{ACAD_REACTORS
330
C
102
}
330
C
100
AcDbDictionary
281
     1
  3
Standard
350
18
  0
DICTIONARY
  5
19
102
{ACAD_REACTORS
330
C
102
}
330
C
100
AcDbDictionary
281
     1
  0
ACDBDICTIONARYWDFLT
  5
E
102
{ACAD_REACTORS
330
C
102
}
330
C
100
AcDbDictionary
281
     1
  3
Normal
350
F
100
AcDbDictionaryWithDefault
340
F
  0
DICTIONARY
  5
138
102
{ACAD_REACTORS
330
C
102
}
330
C
100
AcDbDictionary
281
     1
  0
DICTIONARY
  5
2A
102
{ACAD_REACTORS
330
C
102
}
330
C
100
AcDbDictionary
281
     1
  3
2dWireframe
350
2F
  3
3D Hidden
350
31
  3
3dWireframe
350
30
  3
Basic
350
32
  3
Brighten
350
36
  3
ColorChange
350
3A
  3
Conceptual
350
34
  3
Dim
350
35
  3
Facepattern
350
39
  3
Flat
350
2B
  3
FlatWithEdges
350
2C
  3
Gouraud
350
2D
  3
GouraudWithEdges
350
2E
  3
Linepattern
350
38
  3
Realistic
350
33
  3
Thicken
350
37
  0
LAYOUT
  5
1E
102
{ACAD_REACTORS
330
1A
102
}
330
1A
100
AcDbPlotSettings
  1

  2
none_device
  4

  6

 40
0.0
 41
0.0
 42
0.0
 43
0.0
 44
0.0
 45
0.0
 46
0.0
 47
0.0
 48
0.0
 49
0.0
140
0.0
141
0.0
142
1.0
143
1.0
 70
   688
 72
     0
 73
     0
 74
     5
  7

 75
    16
 76
     0
 77
     5
 78
   300
147
1.0
148
0.0
149
0.0
100
AcDbLayout
  1
Layout1
 70
     1
 71
     1
 10
0.0
 20
0.0
 11
420.0
 21
297.0
 12
0.0
 22
0.0
 32
0.0
 14
1.000000000000000E+20
 24
1.000000000000000E+20
 34
1.000000000000000E+20
 15
-1.000000000000000E+20
 25
-1.000000000000000E+20
 35
-1.000000000000000E+20
146
0.0
 13
0.0
 23
0.0
 33
0.0
 16
1.0
 26
0.0
 36
0.0
 17
0.0
 27
1.0
 37
0.0
 76
     0
330
1B
  0
LAYOUT
  5
26
102
{ACAD_REACTORS
330
1A
102
}
330
1A
100
AcDbPlotSettings
  1

  2
none_device
  4

  6

 40
0.0
 41
0.0
 42
0.0
 43
0.0
 44
0.0
 45
0.0
 46
0.0
 47
0.0
 48
0.0
 49
0.0
140
0.0
141
0.0
142
1.0
143
1.0
 70
   688
 72
     0
 73
     0
 74
     5
  7

 75
    16
 76
     0
 77
     5
 78
   300
147
1.0
148
0.0
149
0.0
100
AcDbLayout
  1
Layout2
 70
     1
 71
     2
 10
0.0
 20
0.0
 11
0.0
 21
0.0
 12
0.0
 22
0.0
 32
0.0
 14
0.0
 24
0.0
 34
0.0
 15
0.0
 25
0.0
 35
0.0
146
0.0
 13
0.0
 23
0.0
 33
0.0
 16
1.0
 26
0.0
 36
0.0
 17
0.0
 27
1.0
 37
0.0
 76
     0
330
23
  0
LAYOUT
  5
22
102
{ACAD_REACTORS
330
1A
102
}
330
1A
100
AcDbPlotSettings
  1

  2
none_device
  4

  6

 40
0.0
 41
0.0
 42
0.0
 43
0.0
 44
0.0
 45
0.0
 46
0.0
 47
0.0
 48
0.0
 49
0.0
140
0.0
141
0.0
142
1.0
143
1.0
 70
  1712
 72
     0
 73
     0
 74
     0
  7

 75
     0
 76
     0
 77
     5
 78
   300
147
1.0
148
0.0
149
0.0
100
AcDbLayout
  1
Model
 70
     1
 71
     0
 10
-2100.0
 20
-1485.0
 11
2100.0
 21
1485.0
 12
0.0
 22
0.0
 32
0.0
 14
-2100.0
 24
-1485.0
 34
0.0
 15
2100.0
 25
1485.0
 35
0.0
146
0.0
 13
0.0
 23
0.0
 33
0.0
 16
1.0
 26
0.0
 36
0.0
 17
0.0
 27
1.0
 37
0.0
 76
     0
330
1F
331
29
  0
MLINESTYLE
  5
18
102
{ACAD_REACTORS
330
17
102
}
330
17
100
AcDbMlineStyle
  2
Standard
 70
     0
  3

 62
   256
 51
90.0
 52
90.0
 71
     2
 49
0.5
 62
   256
  6
BYLAYER
 49
-0.5
 62
   256
  6
BYLAYER
  0
ACDBPLACEHOLDER
  5
F
102
{ACAD_REACTORS
330
E
102
}
330
E
  0
VISUALSTYLE
  5
2F
102
{ACAD_REACTORS
330
2A
102
}
330
2A
100
AcDbVisualStyle
  2
2dWireframe
 70
     4
 71
     0
 72
     2
 73
     0
 90
        0
 40
-0.6
 41
-30.0
 62
     5
 63
     7
421
 16777215
 74
     1
 91
        4
 64
     7
 65
   257
 75
     1
175
     1
 42
1.0
 92
        0
 66
   257
 43
1.0
 76
     1
 77
     6
 78
     2
 67
     7
 79
     5
170
     0
171
     0
290
     0
174
     0
 93
        1
 44
0.0
173
     0
291
     0
 45
0.0
1001
ACAD
1000
AcDbSavedByObjectVersion
1070
     0
  0
VISUALSTYLE
  5
31
102
{ACAD_REACTORS
330
2A
102
}
330
2A
100
AcDbVisualStyle
  2
3D Hidden
 70
     6
 71
     1
 72
     2
 73
     2
 90
        0
 40
-0.6
 41
-30.0
 62
     5
 63
     7
421
 16777215
 74
     2
 91
        2
 64
     7
 65
   257
 75
     2
175
     1
 42
40.0
 92
        0
 66
   257
 43
1.0
 76
     1
 77
     6
 78
     2
 67
     7
 79
     3
170
     0
171
     0
290
     0
174
     0
 93
        1
 44
0.0
173
     0
291
     0
 45
0.0
1001
ACAD
1000
AcDbSavedByObjectVersion
1070
     0
  0
VISUALSTYLE
  5
30
102
{ACAD_REACTORS
330
2A
102
}
330
2A
100
AcDbVisualStyle
  2
3dWireframe
 70
     5
 71
     0
 72
     2
 73
     0
 90
        0
 40
-0.6
 41
-30.0
 62
     5
 63
     7
421
 16777215
 74
     1
 91
        4
 64
     7
 65
   257
 75
     1
175
     1
 42
1.0
 92
        0
 66
   257
 43
1.0
 76
     1
 77
     6
 78
     2
 67
     7
 79
     5
170
     0
171
     0
290
     0
174
     0
 93
        1
 44
0.0
173
     0
291
     0
 45
0.0
1001
ACAD
1000
AcDbSavedByObjectVersion
1070
     0
  0
VISUALSTYLE
  5
32
102
{ACAD_REACTORS
330
2A
102
}
330
2A
100
AcDbVisualStyle
  2
Basic
 70
     7
 71
     1
 72
     0
 73
     1
 90
        0
 40
-0.6
 41
-30.0
 62
     5
 63
     7
421
 16777215
 74
     0
 91
        4
 64
     7
 65
   257
 75
     1
175
     1
 42
1.0
 92
        8
 66
     7
 43
1.0
 76
     1
 77
     6
 78
     2
 67
     7
 79
     5
170
     0
171
     0
290
     0
174
     0
 93
        1
 44
0.0
173
     0
291
     1
 45
0.0
1001
ACAD
1000
AcDbSavedByObjectVersion
1070
     0
  0
VISUALSTYLE
  5
36
102
{ACAD_REACTORS
330
2A
102
}
330
2A
100
AcDbVisualStyle
  2
Brighten
 70
    12
 71
     2
 72
     2
 73
     0
 90
        0
 40
-0.6
 41
-30.0
 62
     5
 63
     7
421
 16777215
 74
     1
 91
        4
 64
     7
 65
   257
 75
     1
175
     1
 42
1.0
 92
        8
 66
     7
 43
1.0
 76
     1
 77
     6
 78
     2
 67
     7
 79
     5
170
     0
171
     0
290
     0
174
     0
 93
        1
 44
50.0
173
     0
291
     1
 45
0.0
1001
ACAD
1000
AcDbSavedByObjectVersion
1070
     0
  0
VISUALSTYLE
  5
3A
102
{ACAD_REACTORS
330
2A
102
}
330
2A
100
AcDbVisualStyle
  2
ColorChange
 70
    16
 71
     2
 72
     2
 73
     3
 90
        0
 40
-0.6
 41
-30.0
 62
     5
 63
     8
421
  8421504
 74
     1
 91
        4
 64
     7
 65
   257
 75
     1
175
     1
 42
1.0
 92
        8
 66
     8
424
  8421504
 43
1.0
 76
     1
 77
     6
 78
     2
 67
     7
 79
     5
170
     0
171
     0
290
     0
174
     0
 93
        1
 44
0.0
173
     0
291
     1
 45
0.0
1001
ACAD
1000
AcDbSavedByObjectVersion
1070
     0
  0
VISUALSTYLE
  5
34
102
{ACAD_REACTORS
330
2A
102
}
330
2A
100
AcDbVisualStyle
  2
Conceptual
 70
     9
 71
     3
 72
     2
 73
     0
 90
        0
 40
-0.6
 41
-30.0
 62
     5
 63
     7
421
 16777215
 74
     2
 91
        2
 64
     7
 65
   257
 75
     1
175
     1
 42
40.0
 92
        8
 66
     7
 43
1.0
 76
     1
 77
     6
 78
     2
 67
     7
 79
     3
170
     0
171
     0
290
     0
174
     0
 93
        1
 44
0.0
173
     0
291
     0
 45
0.0
1001
ACAD
1000
AcDbSavedByObjectVersion
1070
     0
  0
VISUALSTYLE
  5
35
102
{ACAD_REACTORS
330
2A
102
}
330
2A
100
AcDbVisualStyle
  2
Dim
 70
    11
 71
     2
 72
     2
 73
     0
 90
        0
 40
-0.6
 41
-30.0
 62
     5
 63
     7
421
 16777215
 74
     1
 91
        4
 64
     7
 65
   257
 75
     1
175
     1
 42
1.0
 92
        8
 66
     7
 43
1.0
 76
     1
 77
     6
 78
     2
 67
     7
 79
     5
170
     0
171
     0
290
     0
174
     0
 93
        1
 44
-50.0
173
     0
291
     1
 45
0.0
1001
ACAD
1000
AcDbSavedByObjectVersion
1070
     0
  0
VISUALSTYLE
  5
39
102
{ACAD_REACTORS
330
2A
102
}
330
2A
100
AcDbVisualStyle
  2
Facepattern
 70
    15
 71
     2
 72
     2
 73
     0
 90
        0
 40
-0.6
 41
-30.0
 62
     5
 63
     7
421
 16777215
 74
     1
 91
        4
 64
     7
 65
   257
 75
     1
175
     1
 42
1.0
 92
        8
 66
     7
 43
1.0
 76
     1
 77
     6
 78
     2
 67
     7
 79
     5
170
     0
171
     0
290
     0
174
     0
 93
        1
 44
0.0
173
     0
291
     1
 45
0.0
1001
ACAD
1000
AcDbSavedByObjectVersion
1070
     0
  0
VISUALSTYLE
  5
2B
102
{ACAD_REACTORS
330
2A
102
}
330
2A
100
AcDbVisualStyle
  2
Flat
 70
     0
 71
     2
 72
     1
 73
     1
 90
        2
 40
-0.6
 41
30.0
 62
     5
 63
     7
421
 16777215
 74
     0
 91
        4
 64
     7
 65
   257
 75
     1
175
     1
 42
1.0
 92
        8
 66
     7
 43
1.0
 76
     1
 77
     6
 78
     2
 67
     7
 79
     5
170
     0
171
     0
290
     0
174
     0
 93
       13
 44
0.0
173
     0
291
     1
 45
0.0
1001
ACAD
1000
AcDbSavedByObjectVersion
1070
     0
  0
VISUALSTYLE
  5
2C
102
{ACAD_REACTORS
330
2A
102
}
330
2A
100
AcDbVisualStyle
  2
FlatWithEdges
 70
     1
 71
     2
 72
     1
 73
     1
 90
        2
 40
-0.6
 41
30.0
 62
     5
 63
     7
421
 16777215
 74
     1
 91
        4
 64
     7
 65
   257
 75
     1
175
     1
 42
1.0
 92
        0
 66
   257
 43
1.0
 76
     1
 77
     6
 78
     2
 67
     7
 79
     5
170
     0
171
     0
290
     0
174
     0
 93
       13
 44
0.0
173
     0
291
     1
 45
0.0
1001
ACAD
1000
AcDbSavedByObjectVersion
1070
     0
  0
VISUALSTYLE
  5
2D
102
{ACAD_REACTORS
330
2A
102
}
330
2A
100
AcDbVisualStyle
  2
Gouraud
 70
     2
 71
     2
 72
     2
 73
     1
 90
        2
 40
-0.6
 41
30.0
 62
     5
 63
     7
421
 16777215
 74
     0
 91
        4
 64
     7
 65
   257
 75
     1
175
     1
 42
1.0
 92
        0
 66
     7
 43
1.0
 76
     1
 77
     6
 78
     2
 67
     7
 79
     5
170
     0
171
     0
290
     0
174
     0
 93
       13
 44
0.0
173
     0
291
     1
 45
0.0
1001
ACAD
1000
AcDbSavedByObjectVersion
1070
     0
  0
VISUALSTYLE
  5
2E
102
{ACAD_REACTORS
330
2A
102
}
330
2A
100
AcDbVisualStyle
  2
GouraudWithEdges
 70
     3
 71
     2
 72
     2
 73
     1
 90
        2
 40
-0.6
 41
30.0
 62
     5
 63
     7
421
 16777215
 74
     1
 91
        4
 64
     7
 65
   257
 75
     1
175
     1
 42
1.0
 92
        0
 66
   257
 43
1.0
 76
     1
 77
     6
 78
     2
 67
     7
 79
     5
170
     0
171
     0
290
     0
174
     0
 93
       13
 44
0.0
173
     0
291
     1
 45
0.0
1001
ACAD
1000
AcDbSavedByObjectVersion
1070
     0
  0
VISUALSTYLE
  5
38
102
{ACAD_REACTORS
330
2A
102
}
330
2A
100
AcDbVisualStyle
  2
Linepattern
 70
    14
 71
     2
 72
     2
 73
     0
 90
        0
 40
-0.6
 41
-30.0
 62
     5
 63
     7
421
 16777215
 74
     1
 91
        4
 64
     7
 65
   257
 75
     7
175
     7
 42
1.0
 92
        8
 66
     7
 43
1.0
 76
     1
 77
     6
 78
     2
 67
     7
 79
     5
170
     0
171
     0
290
     0
174
     0
 93
        1
 44
0.0
173
     0
291
     1
 45
0.0
1001
ACAD
1000
AcDbSavedByObjectVersion
1070
     0
  0
VISUALSTYLE
  5
33
102
{ACAD_REACTORS
330
2A
102
}
330
2A
100
AcDbVisualStyle
  2
Realistic
 70
     8
 71
     2
 72
     2
 73
     0
 90
        0
 40
-0.6
 41
-30.0
 62
     5
 63
     7
421
 16777215
 74
     1
 91
        0
 64
     7
 65
   257
 75
     1
175
     1
 42
1.0
 92
        8
 66
     8
424
  7895160
 43
1.0
 76
     1
 77
     6
 78
     2
 67
     7
 79
     5
170
     0
171
     0
290
     0
174
     0
 93
       13
 44
0.0
173
     0
291
     0
 45
0.0
1001
ACAD
1000
AcDbSavedByObjectVersion
1070
     0
  0
VISUALSTYLE
  5
37
102
{ACAD_REACTORS
330
2A
102
}
330
2A
100
AcDbVisualStyle
  2
Thicken
 70
    13
 71
     2
 72
     2
 73
     0
 90
        0
 40
-0.6
 41
-30.0
 62
     5
 63
     7
421
 16777215
 74
     1
 91
        4
 64
     7
 65
   257
 75
     1
175
     1
 42
1.0
 92
       12
 66
     7
 43
1.0
 76
     1
 77
     6
 78
     2
 67
     7
 79
     5
170
     0
171
     0
290
     0
174
     0
 93
        1
 44
0.0
173
     0
291
     1
 45
0.0
1001
ACAD
1000
AcDbSavedByObjectVersion
1070
     0
  0
ENDSEC
  0
EOF
