  0
SECTION
  2
HEADER
  9
$ACADVER
  1
AC1015
  9
$ACADMAINTVER
 70
     6
  9
$DWGCODEPAGE
  3
ANSI_932
  9
$INSBASE
 10
0.0
 20
0.0
 30
0.0
  9
$EXTMIN
 10
-2100.0
 20
-1485.0
 30
0.0
  9
$EXTMAX
 10
2100.0
 20
1485.0
 30
0.0
  9
$LIMMIN
 10
-2100.0
 20
-1485.0
  9
$LIMMAX
 10
2100.0
 20
1485.0
  9
$ORTHOMODE
 70
     0
  9
$REGENMODE
 70
     1
  9
$FILLMODE
 70
     1
  9
$QTEXTMODE
 70
     0
  9
$MIRRTEXT
 70
     1
  9
$LTSCALE
 40
10.0
  9
$ATTMODE
 70
     1
  9
$TEXTSIZE
 40
2.5
  9
$TRACEWID
 40
1.0
  9
$TEXTSTYLE
  7
Standard
  9
$CLAYER
  8
0
  9
$CELTYPE
  6
ByLayer
  9
$CECOLOR
 62
   256
  9
$CELTSCALE
 40
1.0
  9
$DISPSILH
 70
     0
  9
$DIMSCALE
 40
1.0
  9
$DIMASZ
 40
2.5
  9
$DIMEXO
 40
0.625
  9
$DIMDLI
 40
3.75
  9
$DIMRND
 40
0.0
  9
$DIMDLE
 40
0.0
  9
$DIMEXE
 40
1.25
  9
$DIMTP
 40
0.0
  9
$DIMTM
 40
0.0
  9
$DIMTXT
 40
2.5
  9
$DIMCEN
 40
2.5
  9
$DIMTSZ
 40
0.0
  9
$DIMTOL
 70
     0
  9
$DIMLIM
 70
     0
  9
$DIMTIH
 70
     0
  9
$DIMTOH
 70
     0
  9
$DIMSE1
 70
     0
  9
$DIMSE2
 70
     0
  9
$DIMTAD
 70
     1
  9
$DIMZIN
 70
     8
  9
$DIMBLK
  1

  9
$DIMASO
 70
     1
  9
$DIMSHO
 70
     1
  9
$DIMPOST
  1

  9
$DIMAPOST
  1

  9
$DIMALT
 70
     0
  9
$DIMALTD
 70
     3
  9
$DIMALTF
 40
0.03937007874016
  9
$DIMLFAC
 40
1.0
  9
$DIMTOFL
 70
     1
  9
$DIMTVP
 40
0.0
  9
$DIMTIX
 70
     0
  9
$DIMSOXD
 70
     0
  9
$DIMSAH
 70
     0
  9
$DIMBLK1
  1

  9
$DIMBLK2
  1

  9
$DIMSTYLE
  2
ISO-25
  9
$DIMCLRD
 70
     0
  9
$DIMCLRE
 70
     0
  9
$DIMCLRT
 70
     0
  9
$DIMTFAC
 40
1.0
  9
$DIMGAP
 40
0.625
  9
$DIMJUST
 70
     0
  9
$DIMSD1
 70
     0
  9
$DIMSD2
 70
     0
  9
$DIMTOLJ
 70
     0
  9
$DIMTZIN
 70
     8
  9
$DIMALTZ
 70
     0
  9
$DIMALTTZ
 70
     0
  9
$DIMUPT
 70
     0
  9
$DIMDEC
 70
     2
  9
$DIMTDEC
 70
     2
  9
$DIMALTU
 70
     2
  9
$DIMALTTD
 70
     3
  9
$DIMTXSTY
  7
Standard
  9
$DIMAUNIT
 70
     0
  9
$DIMADEC
 70
     0
  9
$DIMALTRND
 40
0.0
  9
$DIMAZIN
 70
     0
  9
$DIMDSEP
 70
    44
  9
$DIMATFIT
 70
     3
  9
$DIMFRAC
 70
     0
  9
$DIMLDRBLK
  1

  9
$DIMLUNIT
 70
     2
  9
$DIMLWD
 70
    -2
  9
$DIMLWE
 70
    -2
  9
$DIMTMOVE
 70
     0
  9
$LUNITS
 70
     2
  9
$LUPREC
 70
     4
  9
$SKETCHINC
 40
1.0
  9
$FILLETRAD
 40
10.0
  9
$AUNITS
 70
     0
  9
$AUPREC
 70
     0
  9
$MENU
  1
.
  9
$ELEVATION
 40
0.0
  9
$PELEVATION
 40
0.0
  9
$THICKNESS
 40
0.0
  9
$LIMCHECK
 70
     0
  9
$CHAMFERA
 40
10.0
  9
$CHAMFERB
 40
10.0
  9
$CHAMFERC
 40
20.0
  9
$CHAMFERD
 40
0.0
  9
$SKPOLY
 70
     0
  9
$TDCREATE
 40
2456911.467505093
  9
$TDUCREATE
 40
2456911.092505093
  9
$TDUPDATE
 40
2456911.467505104
  9
$TDUUPDATE
 40
2456911.092505104
  9
$TDINDWG
 40
0.0000000116
  9
$TDUSRTIMER
 40
0.0000000116
  9
$USRTIMER
 70
     1
  9
$ANGBASE
 50
0.0
  9
$ANGDIR
 70
     0
  9
$PDMODE
 70
     0
  9
$PDSIZE
 40
0.0
  9
$PLINEWID
 40
0.0
  9
$SPLFRAME
 70
     0
  9
$SPLINETYPE
 70
     6
  9
$SPLINESEGS
 70
     8
  9
$HANDSEED
  5
FC
  9
$SURFTAB1
 70
     6
  9
$SURFTAB2
 70
     6
  9
$SURFTYPE
 70
     6
  9
$SURFU
 70
     6
  9
$SURFV
 70
     6
  9
$UCSBASE
  2

  9
$UCSNAME
  2

  9
$UCSORG
 10
0.0
 20
0.0
 30
0.0
  9
$UCSXDIR
 10
1.0
 20
0.0
 30
0.0
  9
$UCSYDIR
 10
0.0
 20
1.0
 30
0.0
  9
$UCSORTHOREF
  2

  9
$UCSORTHOVIEW
 70
     0
  9
$UCSORGTOP
 10
0.0
 20
0.0
 30
0.0
  9
$UCSORGBOTTOM
 10
0.0
 20
0.0
 30
0.0
  9
$UCSORGLEFT
 10
0.0
 20
0.0
 30
0.0
  9
$UCSORGRIGHT
 10
0.0
 20
0.0
 30
0.0
  9
$UCSORGFRONT
 10
0.0
 20
0.0
 30
0.0
  9
$UCSORGBACK
 10
0.0
 20
0.0
 30
0.0
  9
$PUCSBASE
  2

  9
$PUCSNAME
  2

  9
$PUCSORG
 10
0.0
 20
0.0
 30
0.0
  9
$PUCSXDIR
 10
1.0
 20
0.0
 30
0.0
  9
$PUCSYDIR
 10
0.0
 20
1.0
 30
0.0
  9
$PUCSORTHOREF
  2

  9
$PUCSORTHOVIEW
 70
     0
  9
$PUCSORGTOP
 10
0.0
 20
0.0
 30
0.0
  9
$PUCSORGBOTTOM
 10
0.0
 20
0.0
 30
0.0
  9
$PUCSORGLEFT
 10
0.0
 20
0.0
 30
0.0
  9
$PUCSORGRIGHT
 10
0.0
 20
0.0
 30
0.0
  9
$PUCSORGFRONT
 10
0.0
 20
0.0
 30
0.0
  9
$PUCSORGBACK
 10
0.0
 20
0.0
 30
0.0
  9
$USERI1
 70
     0
  9
$USERI2
 70
     0
  9
$USERI3
 70
     0
  9
$USERI4
 70
     0
  9
$USERI5
 70
     0
  9
$USERR1
 40
0.0
  9
$USERR2
 40
0.0
  9
$USERR3
 40
0.0
  9
$USERR4
 40
0.0
  9
$USERR5
 40
0.0
  9
$WORLDVIEW
 70
     1
  9
$SHADEDGE
 70
     3
  9
$SHADEDIF
 70
    70
  9
$TILEMODE
 70
     1
  9
$MAXACTVP
 70
    64
  9
$PINSBASE
 10
0.0
 20
0.0
 30
0.0
  9
$PLIMCHECK
 70
     0
  9
$PEXTMIN
 10
1.000000000000000E+20
 20
1.000000000000000E+20
 30
1.000000000000000E+20
  9
$PEXTMAX
 10
-1.000000000000000E+20
 20
-1.000000000000000E+20
 30
-1.000000000000000E+20
  9
$PLIMMIN
 10
0.0
 20
0.0
  9
$PLIMMAX
 10
420.0
 20
297.0
  9
$UNITMODE
 70
     0
  9
$VISRETAIN
 70
     1
  9
$PLINEGEN
 70
     0
  9
$PSLTSCALE
 70
     1
  9
$TREEDEPTH
 70
  3020
  9
$CMLSTYLE
  2
Standard
  9
$CMLJUST
 70
     0
  9
$CMLSCALE
 40
20.0
  9
$PROXYGRAPHICS
 70
     1
  9
$MEASUREMENT
 70
     1
  9
$CELWEIGHT
370
    -1
  9
$ENDCAPS
280
     0
  9
$JOINSTYLE
280
     0
  9
$LWDISPLAY
290
     0
  9
$INSUNITS
 70
     4
  9
$HYPERLINKBASE
  1

  9
$STYLESHEET
  1

  9
$XEDIT
290
     1
  9
$CEPSNTYPE
380
     0
  9
$PSTYLEMODE
290
     1
  9
$FINGERPRINTGUID
  2
{DA175DFC-F36D-4A15-8EBA-288DF07A98F6}
  9
$VERSIONGUID
  2
{FAEB1C32-E019-11D5-929B-00C0DF256EC4}
  9
$EXTNAMES
290
     1
  9
$PSVPSCALE
 40
0.0
  9
$OLESTARTUP
290
     0
  0
ENDSEC
  0
SECTION
  2
CLASSES
  0
CLASS
  1
ACDBDICTIONARYWDFLT
  2
AcDbDictionaryWithDefault
  3
ObjectDBX Classes
 90
        0
280
     0
281
     0
  0
CLASS
  1
VISUALSTYLE
  2
AcDbVisualStyle
  3
ObjectDBX Classes
 90
     4095
280
     0
281
     0
  0
CLASS
  1
DICTIONARYVAR
  2
AcDbDictionaryVar
  3
ObjectDBX Classes
 90
        0
280
     0
281
     0
  0
CLASS
  1
ACDBPLACEHOLDER
  2
AcDbPlaceHolder
  3
ObjectDBX Classes
 90
        0
280
     0
281
     0
  0
CLASS
  1
LAYOUT
  2
AcDbLayout
  3
ObjectDBX Classes
 90
        0
280
     0
281
     0
  0
ENDSEC
  0
SECTION
  2
TABLES
  0
TABLE
  2
VPORT
  5
8
330
0
100
AcDbSymbolTable
 70
     1
  0
VPORT
  5
29
330
8
100
AcDbSymbolTableRecord
100
AcDbViewportTableRecord
  2
*Active
 70
     0
 10
0.0
 20
0.0
 11
1.0
 21
1.0
 12
0.0
 22
0.0
 13
0.0
 23
0.0
 14
10.0
 24
10.0
 15
10.0
 25
10.0
 16
0.0
 26
0.0
 36
1.0
 17
0.0
 27
0.0
 37
0.0
 40
3267.0
 41
1.414141414141414
 42
50.0
 43
0.0
 44
0.0
 50
0.0
 51
0.0
 71
     0
 72
 10000
 73
     1
 74
     3
 75
     0
 76
     0
 77
     0
 78
     0
281
     0
 65
     1
110
0.0
120
0.0
130
0.0
111
1.0
121
0.0
131
0.0
112
0.0
122
1.0
132
0.0
 79
     0
146
0.0
  0
ENDTAB
  0
TABLE
  2
LTYPE
  5
5
330
0
100
AcDbSymbolTable
 70
     5
  0
LTYPE
  5
14
330
5
100
AcDbSymbolTableRecord
100
AcDbLinetypeTableRecord
  2
ByBlock
 70
     0
  3

 72
    65
 73
     0
 40
0.0
  0
LTYPE
  5
15
330
5
100
AcDbSymbolTableRecord
100
AcDbLinetypeTableRecord
  2
ByLayer
 70
     0
  3

 72
    65
 73
     0
 40
0.0
  0
LTYPE
  5
16
330
5
100
AcDbSymbolTableRecord
100
AcDbLinetypeTableRecord
  2
Continuous
 70
     0
  3
Solid line
 72
    65
 73
     0
 40
0.0
  0
LTYPE
  5
3C
330
5
100
AcDbSymbolTableRecord
100
AcDbLinetypeTableRecord
  2
JWW_CENTER2
 70
     0
  3
-------------  --  -------------
 72
    65
 73
     4
 40
13.54666666666667
 49
11.00666666666667
 74
     0
 49
-0.8466666666666667
 74
     0
 49
0.8466666666666667
 74
     0
 49
-0.8466666666666667
 74
     0
  0
LTYPE
  5
3D
330
5
100
AcDbSymbolTableRecord
100
AcDbLinetypeTableRecord
  2
JWW_CENTER1
 70
     0
  3
-----  --  ----------  --  -----
 72
    65
 73
     4
 40
6.773333333333333
 49
4.233333333333333
 74
     0
 49
-0.8466666666666667
 74
     0
 49
0.8466666666666667
 74
     0
 49
-0.8466666666666667
 74
     0
  0
LTYPE
  5
3E
330
5
100
AcDbSymbolTableRecord
100
AcDbLinetypeTableRecord
  2
JWW_DASHED2
 70
     0
  3
--    ----    ----    ----    --
 72
    65
 73
     2
 40
3.386666666666667
 49
1.693333333333333
 74
     0
 49
-1.693333333333333
 74
     0
  0
LTYPE
  5
3F
330
5
100
AcDbSymbolTableRecord
100
AcDbLinetypeTableRecord
  2
JWW_DASHED1
 70
     0
  3
-  --  --  --  --  --  --  --  -
 72
    65
 73
     2
 40
1.693333333333333
 49
0.8466666666666667
 74
     0
 49
-0.8466666666666667
 74
     0
  0
ENDTAB
  0
TABLE
  2
LAYER
  5
2
330
0
100
AcDbSymbolTable
 70
     6
  0
LAYER
  5
10
330
2
100
AcDbSymbolTableRecord
100
AcDbLayerTableRecord
  2
0
 70
     0
 62
     7
  6
Continuous
370
    -3
390
F
  0
LAYER
  5
40
330
2
100
AcDbSymbolTableRecord
100
AcDbLayerTableRecord
  2
A-5
 70
     0
 62
     7
  6
Continuous
370
    -3
390
F
  0
LAYER
  5
41
330
2
100
AcDbSymbolTableRecord
100
AcDbLayerTableRecord
  2
F-5
 70
     0
 62
     7
  6
Continuous
370
    -3
390
F
  0
LAYER
  5
42
330
2
100
AcDbSymbolTableRecord
100
AcDbLayerTableRecord
  2
A-F
 70
     0
 62
     7
  6
Continuous
370
    -3
390
F
  0
LAYER
  5
43
330
2
100
AcDbSymbolTableRecord
100
AcDbLayerTableRecord
  2
A-0
 70
     0
 62
     7
  6
Continuous
370
    -3
390
F
  0
LAYER
  5
44
330
2
100
AcDbSymbolTableRecord
100
AcDbLayerTableRecord
  2
A-4
 70
     0
 62
     7
  6
Continuous
370
    -3
390
F
  0
ENDTAB
  0
TABLE
  2
STYLE
  5
3
330
0
100
AcDbSymbolTable
 70
     2
  0
STYLE
  5
11
330
3
100
AcDbSymbolTableRecord
100
AcDbTextStyleTableRecord
  2
Standard
 70
     0
 40
0.0
 41
1.0
 50
0.0
 71
     0
 42
2.5
  3
txt
  4

1001
ACAD
1000

1071
        0
  0
STYLE
  5
3B
330
3
100
AcDbSymbolTableRecord
100
AcDbTextStyleTableRecord
  2
ＭＳ ゴシック
 70
     0
 40
1.0
 41
1.0
 50
0.0
 71
     0
 42
10.0
  3

  4

1001
ACAD
1000
MS Gothic
1071
    32817
  0
ENDTAB
  0
TABLE
  2
VIEW
  5
6
330
0
100
AcDbSymbolTable
 70
     0
  0
ENDTAB
  0
TABLE
  2
UCS
  5
7
330
0
100
AcDbSymbolTable
 70
     0
  0
ENDTAB
  0
TABLE
  2
APPID
  5
9
330
0
100
AcDbSymbolTable
 70
     1
  0
APPID
  5
12
330
9
100
AcDbSymbolTableRecord
100
AcDbRegAppTableRecord
  2
ACAD
 70
     0
  0
ENDTAB
  0
TABLE
  2
DIMSTYLE
  5
A
330
0
100
AcDbSymbolTable
 70
     1
100
AcDbDimStyleTable
  0
DIMSTYLE
105
27
330
A
100
AcDbSymbolTableRecord
100
AcDbDimStyleTableRecord
  2
ISO-25
 70
     0
 41
2.5
 42
0.625
 43
3.75
 44
1.25
 73
     0
 74
     0
 77
     1
 78
     8
140
2.5
141
2.5
143
0.03937007874016
147
0.625
171
     3
172
     1
271
     2
272
     2
274
     3
278
    44
283
     0
284
     8
340
11
  0
ENDTAB
  0
TABLE
  2
BLOCK_RECORD
  5
1
330
0
100
AcDbSymbolTable
 70
     1
  0
BLOCK_RECORD
  5
1F
330
1
100
AcDbSymbolTableRecord
100
AcDbBlockTableRecord
  2
*Model_Space
340
22
  0
BLOCK_RECORD
  5
1B
330
1
100
AcDbSymbolTableRecord
100
AcDbBlockTableRecord
  2
*Paper_Space
340
1E
  0
BLOCK_RECORD
  5
23
330
1
100
AcDbSymbolTableRecord
100
AcDbBlockTableRecord
  2
*Paper_Space0
340
26
  0
ENDTAB
  0
ENDSEC
  0
SECTION
  2
BLOCKS
  0
BLOCK
  5
20
330
1F
100
AcDbEntity
  8
0
100
AcDbBlockBegin
  2
*Model_Space
 70
     0
 10
0.0
 20
0.0
 30
0.0
  3
*Model_Space
  1

  0
ENDBLK
  5
21
330
1F
100
AcDbEntity
  8
0
100
AcDbBlockEnd
  0
BLOCK
  5
1C
330
1B
100
AcDbEntity
 67
     1
  8
0
100
AcDbBlockBegin
  2
*Paper_Space
 70
     0
 10
0.0
 20
0.0
 30
0.0
  3
*Paper_Space
  1

  0
ENDBLK
  5
1D
330
1B
100
AcDbEntity
 67
     1
  8
0
100
AcDbBlockEnd
  0
BLOCK
  5
24
330
23
100
AcDbEntity
  8
0
100
AcDbBlockBegin
  2
*Paper_Space0
 70
     0
 10
0.0
 20
0.0
 30
0.0
  3
*Paper_Space0
  1

  0
ENDBLK
  5
25
330
23
100
AcDbEntity
  8
0
100
AcDbBlockEnd
  0
ENDSEC
  0
SECTION
  2
ENTITIES
  0
CIRCLE
  5
45
330
1F
100
AcDbEntity
  8
A-5
  6
Continuous
 62
     7
370
     9
100
AcDbCircle
 10
711.9830292513853
 20
-140.2953295928895
 30
0.0
 40
3.0
  0
TEXT
  5
46
330
1F
100
AcDbEntity
  8
A-5
  6
Continuous
 62
     2
370
     9
100
AcDbText
 10
1410.388597793688
 20
-1113.078764454532
 30
0.0
 40
30.48
  1
本体質量：６．５ｋｇ
 41
1.1125
  7
ＭＳ ゴシック
100
AcDbText
  0
TEXT
  5
47
330
1F
100
AcDbEntity
  8
F-5
  6
Continuous
 62
     7
370
     9
100
AcDbText
 10
-735.7372525911801
 20
-1344.694601998124
 30
0.0
 40
22.86
  1
ステンレス製　自転車・バイク盗難防止用パイプ　JP-S20B
 41
1.163522012578616
  7
ＭＳ ゴシック
100
AcDbText
  0
LINE
  5
48
330
1F
100
AcDbEntity
  8
A-5
  6
JWW_CENTER2
 62
     4
370
     9
100
AcDbLine
 10
-1245.314329905964
 20
228.3534610328604
 30
0.0
 11
-1245.314329905964
 21
-266.875473118874
 31
0.0
  0
LINE
  5
49
330
1F
100
AcDbEntity
  8
A-F
  6
Continuous
 62
     7
370
     9
100
AcDbLine
 10
-1213.09608757
 20
306.1351795189246
 30
0.0
 11
-1198.815753922143
 21
295.1773564614921
 31
0.0
  0
LINE
  5
4A
330
1F
100
AcDbEntity
  8
A-F
  6
Continuous
 62
     7
370
     9
100
AcDbLine
 10
-1213.09608757
 20
306.1351795189246
 30
0.0
 11
-1202.138338744514
 21
291.8548829870413
 31
0.0
  0
LINE
  5
4B
330
1F
100
AcDbEntity
  8
A-F
  6
Continuous
 62
     7
370
     9
100
AcDbLine
 10
-1121.588142128691
 20
214.6272777434656
 30
0.0
 11
-1213.09608757
 21
306.1351795189246
 31
0.0
  0
ARC
  5
4C
330
1F
100
AcDbEntity
  8
A-0
  6
Continuous
 62
     3
370
     9
100
AcDbCircle
 10
-1135.314331967962
 20
228.3536094967539
 30
0.0
 40
131.3500058973158
100
AcDbArc
 50
89.99974060058597
 51
180.0
  0
ARC
  5
4D
330
1F
100
AcDbEntity
  8
A-0
  6
Continuous
 62
     3
370
     9
100
AcDbCircle
 10
-1135.314331967962
 20
228.353535264807
 30
0.0
 40
88.64999925768053
100
AcDbArc
 50
89.99971008300781
 51
180.0
  0
ARC
  5
4E
330
1F
100
AcDbEntity
  8
A-0
  6
Continuous
 62
     3
370
     9
100
AcDbCircle
 10
601.9856376794199
 20
228.3536094967539
 30
0.0
 40
131.3500058973158
100
AcDbArc
 50
0.0
 51
90.00025939941406
  0
ARC
  5
4F
330
1F
100
AcDbEntity
  8
A-0
  6
Continuous
 62
     3
370
     9
100
AcDbCircle
 10
601.9856376794199
 20
228.353535264807
 30
0.0
 40
88.64999925768053
100
AcDbArc
 50
0.0
 51
90.00028991699219
  0
LINE
  5
50
330
1F
100
AcDbEntity
  8
A-0
  6
Continuous
 62
     3
370
     9
100
AcDbLine
 10
-1135.313738112388
 20
359.7036246730631
 30
0.0
 11
-266.6643471442709
 21
359.6994959571372
 31
0.0
  0
LINE
  5
51
330
1F
100
AcDbEntity
  8
A-0
  6
Continuous
 62
     3
370
     9
100
AcDbLine
 10
-1135.313886576281
 20
317.0036273124213
 30
0.0
 11
-266.6643471442709
 21
316.9994985985933
 31
0.0
  0
LINE
  5
52
330
1F
100
AcDbEntity
  8
A-0
  6
Continuous
 62
     3
370
     9
100
AcDbLine
 10
601.9850438238457
 20
359.7036246730631
 30
0.0
 11
-266.6643471442709
 21
359.6994959571372
 31
0.0
  0
LINE
  5
53
330
1F
100
AcDbEntity
  8
A-0
  6
Continuous
 62
     3
370
     9
100
AcDbLine
 10
601.985192287739
 20
317.0036273124213
 30
0.0
 11
-266.6643471442709
 21
316.9994985985933
 31
0.0
  0
LINE
  5
54
330
1F
100
AcDbEntity
  8
A-5
  6
JWW_CENTER2
 62
     4
370
     9
100
AcDbLine
 10
-1135.313746072533
 20
338.3534589693016
 30
0.0
 11
601.9856376794199
 21
338.3534589693016
 31
0.0
  0
ARC
  5
55
330
1F
100
AcDbEntity
  8
A-0
  6
JWW_CENTER2
 62
     4
370
     9
100
AcDbCircle
 10
-1135.314331967962
 20
228.3534610328604
 30
0.0
 40
109.9999979380015
100
AcDbArc
 50
89.99969482421878
 51
180.0000000000001
  0
LINE
  5
56
330
1F
100
AcDbEntity
  8
A-5
  6
JWW_CENTER2
 62
     4
370
     9
100
AcDbLine
 10
711.9856356174214
 20
228.3534610328604
 30
0.0
 11
711.9856356174214
 21
-266.8367345603119
 31
0.0
  0
ARC
  5
57
330
1F
100
AcDbEntity
  8
A-0
  6
JWW_CENTER2
 62
     4
370
     9
100
AcDbCircle
 10
601.9856376794199
 20
228.3534610328604
 30
0.0
 40
109.9999979380015
100
AcDbArc
 50
0.0
 51
90.00030517578126
  0
LINE
  5
58
330
1F
100
AcDbEntity
  8
A-0
  6
Continuous
 62
     3
370
     9
100
AcDbLine
 10
690.6356554950871
 20
228.353535264807
 30
0.0
 11
690.6356554950871
 21
-240.2933110350114
 31
0.0
  0
LINE
  5
59
330
1F
100
AcDbEntity
  8
A-0
  6
Continuous
 62
     3
370
     9
100
AcDbLine
 10
733.335652855729
 20
228.3536094967539
 30
0.0
 11
733.335652855729
 21
-240.293088339171
 31
0.0
  0
LINE
  5
5A
330
1F
100
AcDbEntity
  8
A-5
  6
Continuous
 62
     3
370
     9
100
AcDbLine
 10
733.335652855729
 20
-240.293088339171
 30
0.0
 11
690.6356554950871
 21
-240.2933110350114
 31
0.0
  0
LINE
  5
5B
330
1F
100
AcDbEntity
  8
A-5
  6
Continuous
 62
     3
370
     9
100
AcDbLine
 10
-1266.664337865278
 20
228.3536094967539
 30
0.0
 11
-1266.664337865278
 21
-240.3028886369433
 31
0.0
  0
LINE
  5
5C
330
1F
100
AcDbEntity
  8
A-0
  6
Continuous
 62
     3
370
     9
100
AcDbLine
 10
-1223.964349783629
 20
228.353535264807
 30
0.0
 11
-1223.964349783629
 21
-240.3031113327353
 31
0.0
  0
LINE
  5
5D
330
1F
100
AcDbEntity
  8
A-5
  6
Continuous
 62
     3
370
     9
100
AcDbLine
 10
-1266.664337865278
 20
-240.3028886369433
 30
0.0
 11
-1223.964349783629
 21
-240.3031113327353
 31
0.0
  0
LINE
  5
5E
330
1F
100
AcDbEntity
  8
A-5
  6
Continuous
 62
     7
370
     9
100
AcDbLine
 10
-1397.731424937331
 20
359.7036246730631
 30
0.0
 11
-1397.731424937331
 21
-240.3028886369433
 31
0.0
  0
LINE
  5
5F
330
1F
100
AcDbEntity
  8
A-5
  6
Continuous
 62
     7
370
     9
100
AcDbLine
 10
-1397.731424937331
 20
359.7036246730631
 30
0.0
 11
-1394.468270131829
 21
334.9175031387179
 31
0.0
  0
LINE
  5
60
330
1F
100
AcDbEntity
  8
A-5
  6
Continuous
 62
     7
370
     9
100
AcDbLine
 10
-1397.731424937331
 20
359.7036246730631
 30
0.0
 11
-1400.994579742832
 21
334.9175031387179
 31
0.0
  0
LINE
  5
61
330
1F
100
AcDbEntity
  8
A-5
  6
Continuous
 62
     7
370
     9
100
AcDbLine
 10
-1400.994579742832
 20
-15.0824968612821
 30
0.0
 11
-1394.468270131829
 21
34.48974620740842
 31
0.0
  0
LINE
  5
62
330
1F
100
AcDbEntity
  8
A-5
  6
Continuous
 62
     7
370
     9
100
AcDbLine
 10
-1394.468270131829
 20
-15.0824968612821
 30
0.0
 11
-1400.994579742832
 21
34.48974620740842
 31
0.0
  0
LINE
  5
63
330
1F
100
AcDbEntity
  8
A-5
  6
Continuous
 62
     7
370
     9
100
AcDbLine
 10
-1439.887046149217
 20
9.70362467306316
 30
0.0
 11
974.9525289972203
 21
9.70362467306316
 31
0.0
  0
LINE
  5
64
330
1F
100
AcDbEntity
  8
A-5
  6
Continuous
 62
     7
370
     9
100
AcDbLine
 10
-1397.731424937331
 20
-240.3028886369433
 30
0.0
 11
-1394.468270131829
 21
-215.5167671025981
 31
0.0
  0
LINE
  5
65
330
1F
100
AcDbEntity
  8
A-5
  6
Continuous
 62
     7
370
     9
100
AcDbLine
 10
-1397.731424937331
 20
-240.3028886369433
 30
0.0
 11
-1400.994579742832
 21
-215.5167671025981
 31
0.0
  0
LINE
  5
66
330
1F
100
AcDbEntity
  8
A-5
  6
Continuous
 62
     7
370
     9
100
AcDbLine
 10
-1400.731424937331
 20
-240.3028886369433
 30
0.0
 11
-1279.700819598195
 21
-240.3028886369433
 31
0.0
  0
LINE
  5
67
330
1F
100
AcDbEntity
  8
A-F
  6
Continuous
 62
     7
370
     9
100
AcDbLine
 10
-1223.964349783629
 20
138.4782864028248
 30
0.0
 11
-1223.964349783629
 21
136.6783101570477
 31
0.0
  0
LINE
  5
68
330
1F
100
AcDbEntity
  8
A-5
  6
Continuous
 62
     7
370
     9
100
AcDbLine
 10
-1266.664337865278
 20
182.6161429287168
 30
0.0
 11
-1266.664337865278
 21
143.7858337332327
 31
0.0
  0
LINE
  5
69
330
1F
100
AcDbEntity
  8
A-5
  6
Continuous
 62
     7
370
     9
100
AcDbLine
 10
-1223.964349783629
 20
182.6161429287168
 30
0.0
 11
-1223.964349783629
 21
143.7858337332327
 31
0.0
  0
LINE
  5
6A
330
1F
100
AcDbEntity
  8
A-5
  6
Continuous
 62
     7
370
     9
100
AcDbLine
 10
-1068.381317736434
 20
146.7858337332326
 30
0.0
 11
-1316.664337865278
 21
146.7858337332326
 31
0.0
  0
LINE
  5
6B
330
1F
100
AcDbEntity
  8
A-5
  6
Continuous
 62
     7
370
     9
100
AcDbLine
 10
-1266.664337865278
 20
146.7858337332326
 30
0.0
 11
-1291.450459399623
 21
143.5226789277314
 31
0.0
  0
LINE
  5
6C
330
1F
100
AcDbEntity
  8
A-5
  6
Continuous
 62
     7
370
     9
100
AcDbLine
 10
-1266.664337865278
 20
146.7858337332326
 30
0.0
 11
-1291.450459399623
 21
150.0489885387339
 31
0.0
  0
LINE
  5
6D
330
1F
100
AcDbEntity
  8
A-5
  6
Continuous
 62
     7
370
     9
100
AcDbLine
 10
-1223.964349783629
 20
146.7858337332326
 30
0.0
 11
-1199.178228249284
 21
143.5226789277314
 31
0.0
  0
LINE
  5
6E
330
1F
100
AcDbEntity
  8
A-5
  6
Continuous
 62
     7
370
     9
100
AcDbLine
 10
-1223.964349783629
 20
146.7858337332326
 30
0.0
 11
-1199.178228249284
 21
150.0489885387339
 31
0.0
  0
LINE
  5
6F
330
1F
100
AcDbEntity
  8
A-5
  6
Continuous
 62
     7
370
     9
100
AcDbLine
 10
-1266.664337865278
 20
541.8221387085812
 30
0.0
 11
733.335652855729
 21
541.8221387085812
 31
0.0
  0
LINE
  5
70
330
1F
100
AcDbEntity
  8
A-5
  6
Continuous
 62
     7
370
     9
100
AcDbLine
 10
-1266.664337865278
 20
541.8221387085812
 30
0.0
 11
-1241.878216330933
 21
545.0852935140825
 31
0.0
  0
LINE
  5
71
330
1F
100
AcDbEntity
  8
A-5
  6
Continuous
 62
     7
370
     9
100
AcDbLine
 10
-1266.664337865278
 20
541.8221387085812
 30
0.0
 11
-1241.878216330933
 21
538.5589839030798
 31
0.0
  0
LINE
  5
72
330
1F
100
AcDbEntity
  8
A-5
  6
Continuous
 62
     7
370
     9
100
AcDbLine
 10
733.335652855729
 20
541.8221387085812
 30
0.0
 11
708.5495313213837
 21
545.0852935140825
 31
0.0
  0
LINE
  5
73
330
1F
100
AcDbEntity
  8
A-5
  6
Continuous
 62
     7
370
     9
100
AcDbLine
 10
733.335652855729
 20
541.8221387085812
 30
0.0
 11
708.5495313213837
 21
538.5589839030798
 31
0.0
  0
LINE
  5
74
330
1F
100
AcDbEntity
  8
A-5
  6
Continuous
 62
     7
370
     9
100
AcDbLine
 10
733.335652855729
 20
544.8221387085812
 30
0.0
 11
733.335652855729
 21
379.7022256822192
 31
0.0
  0
LINE
  5
75
330
1F
100
AcDbEntity
  8
A-5
  6
JWW_CENTER1
 62
     4
370
     9
100
AcDbLine
 10
-266.6976964205422
 20
285.6331674470109
 30
0.0
 11
-266.7614969923249
 21
395.1843311514574
 31
0.0
  0
LINE
  5
76
330
1F
100
AcDbEntity
  8
A-5
  6
Continuous
 62
     7
370
     9
100
AcDbLine
 10
702.2429507670822
 20
154.6183597020765
 30
0.0
 11
831.8885422425749
 21
154.6183597020765
 31
0.0
  0
LINE
  5
77
330
1F
100
AcDbEntity
  8
A-5
  6
Continuous
 62
     7
370
     9
100
AcDbLine
 10
731.335652855729
 20
154.6183597020765
 30
0.0
 11
706.5495313213837
 21
151.3552048965752
 31
0.0
  0
LINE
  5
78
330
1F
100
AcDbEntity
  8
A-5
  6
Continuous
 62
     7
370
     9
100
AcDbLine
 10
731.335652855729
 20
154.6183597020765
 30
0.0
 11
706.5495313213837
 21
157.8815145075778
 31
0.0
  0
LINE
  5
79
330
1F
100
AcDbEntity
  8
A-5
  6
Continuous
 62
     7
370
     9
100
AcDbLine
 10
733.335652855729
 20
154.6183597020765
 30
0.0
 11
758.1217743900743
 21
151.3552048965752
 31
0.0
  0
LINE
  5
7A
330
1F
100
AcDbEntity
  8
A-5
  6
Continuous
 62
     7
370
     9
100
AcDbLine
 10
733.335652855729
 20
154.6183597020765
 30
0.0
 11
758.1217743900743
 21
157.8815145075778
 31
0.0
  0
LINE
  5
7B
330
1F
100
AcDbEntity
  8
A-5
  6
Continuous
 62
     7
370
     9
100
AcDbLine
 10
731.335652855729
 20
157.6183597020765
 30
0.0
 11
731.335652855729
 21
142.8323968406681
 31
0.0
  0
LINE
  5
7C
330
1F
100
AcDbEntity
  8
A-5
  6
Continuous
 62
     7
370
     9
100
AcDbLine
 10
733.335652855729
 20
157.6183597020765
 30
0.0
 11
733.335652855729
 21
142.8323968406681
 31
0.0
  0
ARC
  5
7D
330
1F
100
AcDbEntity
  8
A-0
  6
Continuous
 62
     3
370
     9
100
AcDbCircle
 10
1313.799935502103
 20
338.353623672994
 30
0.0
 40
21.35000100006928
100
AcDbArc
 50
0.000396728515625
 51
180.0003967285156
  0
LINE
  5
7E
330
1F
100
AcDbEntity
  8
A-5
  6
Continuous
 62
     3
370
     9
100
AcDbLine
 10
1335.149934182424
 20
-240.2952407106577
 30
0.0
 11
1292.449936821782
 21
-240.295463406498
 31
0.0
  0
LINE
  5
7F
330
1F
100
AcDbEntity
  8
A-5
  6
Continuous
 62
     3
370
     9
100
AcDbLine
 10
1292.449936821782
 20
9.704371633620212
 30
0.0
 11
1292.449936821782
 21
-240.295463406498
 31
0.0
  0
LINE
  5
80
330
1F
100
AcDbEntity
  8
A-5
  6
Continuous
 62
     3
370
     9
100
AcDbLine
 10
1335.149934182424
 20
9.704371633620212
 30
0.0
 11
1335.149934182424
 21
-240.2952407106577
 31
0.0
  0
LINE
  5
81
330
1F
100
AcDbEntity
  8
A-5
  6
Continuous
 62
     3
370
     9
100
AcDbLine
 10
1292.449935502103
 20
338.3601584229707
 30
0.0
 11
1292.449935502103
 21
9.707712071225636
 31
0.0
  0
LINE
  5
82
330
1F
100
AcDbEntity
  8
A-5
  6
Continuous
 62
     3
370
     9
100
AcDbLine
 10
1335.149935502104
 20
338.3601584229707
 30
0.0
 11
1335.149935502104
 21
9.707712071225636
 31
0.0
  0
LINE
  5
83
330
1F
100
AcDbEntity
  8
A-5
  6
Continuous
 62
     7
370
     9
100
AcDbLine
 10
1155.066256954567
 20
9.70362467306316
 30
0.0
 11
1566.609038455088
 21
9.70362467306316
 31
0.0
  0
LINE
  5
84
330
1F
100
AcDbEntity
  8
A-5
  6
Continuous
 62
     4
370
     9
100
AcDbLine
 10
601.9850533299042
 20
357.7036246730858
 30
0.0
 11
-266.7396665173161
 21
357.6994955991194
 31
0.0
  0
ARC
  5
85
330
1F
100
AcDbEntity
  8
A-5
  6
Continuous
 62
     4
370
     9
100
AcDbCircle
 10
601.9856376794199
 20
228.3536094967539
 30
0.0
 40
129.3500058973158
100
AcDbArc
 50
0.0
 51
90.00025939941406
  0
LINE
  5
86
330
1F
100
AcDbEntity
  8
A-5
  6
Continuous
 62
     4
370
     9
100
AcDbLine
 10
601.9851827816871
 20
319.0036273123986
 30
0.0
 11
-266.6643566503231
 21
318.9994985985708
 31
0.0
  0
ARC
  5
87
330
1F
100
AcDbEntity
  8
A-5
  6
Continuous
 62
     4
370
     9
100
AcDbCircle
 10
601.9856376794199
 20
228.353535264807
 30
0.0
 40
90.64999925768052
100
AcDbArc
 50
0.0
 51
90.00028991699219
  0
LINE
  5
88
330
1F
100
AcDbEntity
  8
A-5
  6
Continuous
 62
     4
370
     9
100
AcDbLine
 10
731.335652855729
 20
228.3536094967539
 30
0.0
 11
731.335652855729
 21
-240.293088339171
 31
0.0
  0
LINE
  5
89
330
1F
100
AcDbEntity
  8
A-5
  6
Continuous
 62
     4
370
     9
100
AcDbLine
 10
692.6356554950871
 20
228.353535264807
 30
0.0
 11
692.6356554950871
 21
-240.2933110350114
 31
0.0
  0
LINE
  5
8A
330
1F
100
AcDbEntity
  8
A-5
  6
JWW_CENTER1
 62
     4
370
     9
100
AcDbLine
 10
1255.245616372838
 20
338.3534589693016
 30
0.0
 11
1369.357471843249
 21
338.3534589693016
 31
0.0
  0
LINE
  5
8B
330
1F
100
AcDbEntity
  8
A-0
  6
JWW_CENTER2
 62
     4
370
     9
100
AcDbLine
 10
1313.799935502103
 20
384.7003183054393
 30
0.0
 11
1313.799935502103
 21
-290.3870994110686
 31
0.0
  0
LINE
  5
8C
330
1F
100
AcDbEntity
  8
A-5
  6
Continuous
 62
     7
370
     9
100
AcDbLine
 10
1334.421023011877
 20
192.0621836471854
 30
0.0
 11
1454.392684940567
 21
399.8591975761536
 31
0.0
  0
LINE
  5
8D
330
1F
100
AcDbEntity
  8
A-5
  6
Continuous
 62
     7
370
     9
100
AcDbLine
 10
1334.421023011877
 20
192.0621836471854
 30
0.0
 11
1343.988108821004
 21
215.1591719599676
 31
0.0
  0
LINE
  5
8E
330
1F
100
AcDbEntity
  8
A-5
  6
Continuous
 62
     7
370
     9
100
AcDbLine
 10
1334.421023011877
 20
192.0621836471854
 30
0.0
 11
1349.640058737095
 21
211.8960171544663
 31
0.0
  0
LINE
  5
8F
330
1F
100
AcDbEntity
  8
A-5
  6
Continuous
 62
     7
370
     9
100
AcDbLine
 10
1454.392684940567
 20
399.8591975761536
 30
0.0
 11
1762.395088036964
 21
399.8591975761536
 31
0.0
  0
LINE
  5
90
330
1F
100
AcDbEntity
  8
A-5
  6
Continuous
 62
     7
370
     9
100
AcDbLine
 10
-1400.731424937331
 20
359.7036246730631
 30
0.0
 11
-1215.191360583151
 21
359.7036246730631
 31
0.0
  0
LINE
  5
91
330
1F
100
AcDbEntity
  8
A-5
  6
Continuous
 62
     7
370
     9
100
AcDbLine
 10
-1266.664337865278
 20
544.8221387085812
 30
0.0
 11
-1266.664337865278
 21
320.2182818954214
 31
0.0
  0
TEXT
  5
92
330
1F
100
AcDbEntity
  8
A-5
  6
Continuous
 62
     2
370
   211
100
AcDbText
 10
-1408.371424937331
 20
154.8900616376745
 30
0.0
 40
30.48
  1
350
 50
90.0
 41
1.083333333333333
  7
ＭＳ ゴシック
100
AcDbText
  0
TEXT
  5
93
330
1F
100
AcDbEntity
  8
A-5
  6
Continuous
 62
     2
370
   211
100
AcDbText
 10
-1408.371424937331
 20
-145.1131950173287
 30
0.0
 40
30.48
  1
250
 50
90.0
 41
1.083333333333333
  7
ＭＳ ゴシック
100
AcDbText
  0
TEXT
  5
94
330
1F
100
AcDbEntity
  8
A-5
  6
Continuous
 62
     2
370
   211
100
AcDbText
 10
-1198.264337261565
 20
154.4979306805534
 30
0.0
 40
30.48
  1
φ42.7
 41
1.104166666666667
  7
ＭＳ ゴシック
100
AcDbText
  0
TEXT
  5
95
330
1F
100
AcDbEntity
  8
A-F
  6
Continuous
 62
     2
370
     9
100
AcDbText
 10
-1179.762915895101
 20
285.7360512836635
 30
0.0
 40
30.48
  1
R110
 50
315.0000572847237
 41
1.093750000000003
  7
ＭＳ ゴシック
100
AcDbText
  0
TEXT
  5
96
330
1F
100
AcDbEntity
  8
A-5
  6
Continuous
 62
     2
370
   211
100
AcDbText
 10
-310.4143425047745
 20
555.1485756731926
 30
0.0
 40
30.48
  1
2000
 41
1.09375
  7
ＭＳ ゴシック
100
AcDbText
  0
TEXT
  5
97
330
1F
100
AcDbEntity
  8
A-5
  6
Continuous
 62
     2
370
   211
100
AcDbText
 10
762.627418969045
 20
164.2767238069663
 30
0.0
 40
30.48
  1
2.0
 41
1.083333333333333
  7
ＭＳ ゴシック
100
AcDbText
  0
TEXT
  5
98
330
1F
100
AcDbEntity
  8
A-5
  6
Continuous
 62
     2
370
     9
100
AcDbText
 10
833.7953857000982
 20
18.85936587416019
 30
0.0
 40
30.48
  1
G.L.
 41
1.09375
  7
ＭＳ ゴシック
100
AcDbText
  0
TEXT
  5
99
330
1F
100
AcDbEntity
  8
A-5
  6
Continuous
 62
     2
370
     9
100
AcDbText
 10
1449.094040296799
 20
18.47813370555269
 30
0.0
 40
30.48
  1
G.L.
 41
1.09375
  7
ＭＳ ゴシック
100
AcDbText
  0
TEXT
  5
9A
330
1F
100
AcDbEntity
  8
A-5
  6
Continuous
 62
     7
370
     9
100
AcDbText
 10
1461.463933238432
 20
408.913224856293
 30
0.0
 40
22.86
  1
本体：ＳＵＳ３０４
 41
1.148148148148148
  7
ＭＳ ゴシック
100
AcDbText
  0
TEXT
  5
9B
330
1F
100
AcDbEntity
  8
A-5
  6
Continuous
 62
     7
370
     9
100
AcDbText
 10
1461.757551640369
 20
368.2599717671903
 30
0.0
 40
22.86
  1
ヘアライン仕上
 41
1.142857142857143
  7
ＭＳ ゴシック
100
AcDbText
  0
LINE
  5
9C
330
1F
100
AcDbEntity
  8
A-5
  6
JWW_CENTER2
 62
     4
370
     9
100
AcDbLine
 10
-1231.281213311936
 20
-140.3051523549417
 30
0.0
 11
-1259.029642985656
 21
-140.3051523549417
 31
0.0
  0
LINE
  5
9D
330
1F
100
AcDbEntity
  8
A-5
  6
Continuous
 62
     7
370
     9
100
AcDbLine
 10
-1251.066942947721
 20
-140.3051298906134
 30
0.0
 11
-1248.180210846281
 21
-135.3051642228888
 31
0.0
  0
LINE
  5
9E
330
1F
100
AcDbEntity
  8
A-5
  6
Continuous
 62
     7
370
     9
100
AcDbLine
 10
-1251.066942947721
 20
-140.3051298906134
 30
0.0
 11
-1248.180210846281
 21
-145.3051966478155
 31
0.0
  0
LINE
  5
9F
330
1F
100
AcDbEntity
  8
A-5
  6
Continuous
 62
     7
370
     9
100
AcDbLine
 10
-1248.180210846281
 20
-145.3051966478155
 30
0.0
 11
-1242.453661697721
 21
-145.3051966478155
 31
0.0
  0
LINE
  5
A0
330
1F
100
AcDbEntity
  8
A-5
  6
Continuous
 62
     7
370
     9
100
AcDbLine
 10
-1239.566929596281
 20
-140.3051298906134
 30
0.0
 11
-1242.453661697721
 21
-145.3051966478155
 31
0.0
  0
LINE
  5
A1
330
1F
100
AcDbEntity
  8
A-5
  6
Continuous
 62
     7
370
     9
100
AcDbLine
 10
-1239.566929596281
 20
-140.3051298906134
 30
0.0
 11
-1242.453661697721
 21
-135.3051642228888
 31
0.0
  0
LINE
  5
A2
330
1F
100
AcDbEntity
  8
A-5
  6
Continuous
 62
     7
370
     9
100
AcDbLine
 10
-1248.180210846281
 20
-135.3051642228888
 30
0.0
 11
-1242.453661697721
 21
-135.3051642228888
 31
0.0
  0
CIRCLE
  5
A3
330
1F
100
AcDbEntity
  8
A-5
  6
Continuous
 62
     7
370
     9
100
AcDbCircle
 10
-1245.293478977671
 20
-140.3051298906134
 30
0.0
 40
4.999999046325684
  0
CIRCLE
  5
A4
330
1F
100
AcDbEntity
  8
A-5
  6
Continuous
 62
     7
370
     9
100
AcDbCircle
 10
-1245.316936272001
 20
-140.3051298906134
 30
0.0
 40
3.0
  0
CIRCLE
  5
A5
330
1F
100
AcDbEntity
  8
A-5
  6
Continuous
 62
     7
370
     9
100
AcDbCircle
 10
-1245.316936272001
 20
-140.3051298906134
 30
0.0
 40
2.458499908447266
  0
LINE
  5
A6
330
1F
100
AcDbEntity
  8
A-5
  6
JWW_CENTER2
 62
     4
370
     9
100
AcDbLine
 10
726.0187522114501
 20
-140.2953520572178
 30
0.0
 11
698.2703225377304
 21
-140.2953520572178
 31
0.0
  0
CIRCLE
  5
A7
330
1F
100
AcDbEntity
  8
A-5
  6
Continuous
 62
     7
370
     9
100
AcDbCircle
 10
711.9830292513853
 20
-140.2953295928895
 30
0.0
 40
2.458499908447266
  0
CIRCLE
  5
A8
330
1F
100
AcDbEntity
  8
A-5
  6
Continuous
 62
     4
370
     9
100
AcDbCircle
 10
711.9856356174214
 20
-140.2953520572178
 30
0.0
 40
4.0
  0
LINE
  5
A9
330
1F
100
AcDbEntity
  8
A-5
  6
JWW_DASHED2
 62
     7
370
     9
100
AcDbLine
 10
706.2330225756654
 20
-140.2953295928895
 30
0.0
 11
709.1197546771059
 21
-145.2953963500916
 31
0.0
  0
LINE
  5
AA
330
1F
100
AcDbEntity
  8
A-5
  6
JWW_DASHED2
 62
     7
370
     9
100
AcDbLine
 10
709.1197546771059
 20
-145.2953963500916
 30
0.0
 11
714.8463038256654
 21
-145.2953963500916
 31
0.0
  0
LINE
  5
AB
330
1F
100
AcDbEntity
  8
A-5
  6
JWW_DASHED2
 62
     7
370
     9
100
AcDbLine
 10
717.7330359271059
 20
-140.2953295928895
 30
0.0
 11
714.8463038256654
 21
-145.2953963500916
 31
0.0
  0
LINE
  5
AC
330
1F
100
AcDbEntity
  8
A-5
  6
JWW_DASHED2
 62
     7
370
     9
100
AcDbLine
 10
717.7330359271059
 20
-140.2953295928895
 30
0.0
 11
714.8463038256654
 21
-135.2953639251649
 31
0.0
  0
LINE
  5
AD
330
1F
100
AcDbEntity
  8
A-5
  6
JWW_DASHED2
 62
     7
370
     9
100
AcDbLine
 10
709.1197546771059
 20
-135.2953639251649
 30
0.0
 11
714.8463038256654
 21
-135.2953639251649
 31
0.0
  0
LINE
  5
AE
330
1F
100
AcDbEntity
  8
A-5
  6
JWW_DASHED2
 62
     7
370
     9
100
AcDbLine
 10
706.2330225756654
 20
-140.2953295928895
 30
0.0
 11
709.1197546771059
 21
-135.2953639251649
 31
0.0
  0
LINE
  5
AF
330
1F
100
AcDbEntity
  8
A-5
  6
Continuous
 62
     7
370
     9
100
AcDbLine
 10
1335.149934182424
 20
-146.0453586556129
 30
0.0
 11
1335.149934182424
 21
-134.5452217389111
 31
0.0
  0
LINE
  5
B0
330
1F
100
AcDbEntity
  8
A-5
  6
Continuous
 62
     7
370
     9
100
AcDbLine
 10
1339.659153790216
 20
-146.0453586556129
 30
0.0
 11
1335.149934182424
 21
-146.0453586556129
 31
0.0
  0
LINE
  5
B1
330
1F
100
AcDbEntity
  8
A-5
  6
Continuous
 62
     7
370
     9
100
AcDbLine
 10
1339.659153790216
 20
-134.5452217389111
 30
0.0
 11
1335.149934182424
 21
-134.5452217389111
 31
0.0
  0
LINE
  5
B2
330
1F
100
AcDbEntity
  8
A-5
  6
Continuous
 62
     7
370
     9
100
AcDbLine
 10
1339.659153790216
 20
-143.1586019648403
 30
0.0
 11
1335.149934182424
 21
-143.1586019648403
 31
0.0
  0
LINE
  5
B3
330
1F
100
AcDbEntity
  8
A-5
  6
Continuous
 62
     7
370
     9
100
AcDbLine
 10
1339.659153790216
 20
-137.4321021495952
 30
0.0
 11
1335.149934182424
 21
-137.4321021495952
 31
0.0
  0
LINE
  5
B4
330
1F
100
AcDbEntity
  8
A-5
  6
Continuous
 62
     7
370
     9
100
AcDbLine
 10
1340.149950678413
 20
-144.601918450271
 30
0.0
 11
1340.149950678413
 21
-135.9887856641645
 31
0.0
  0
ARC
  5
B5
330
1F
100
AcDbEntity
  8
A-5
  6
Continuous
 62
     7
370
     9
100
AcDbCircle
 10
1337.782013435749
 20
-144.601918450271
 30
0.0
 40
2.367928785246772
100
AcDbArc
 50
322.4427795410156
 51
37.55722045898439
  0
ARC
  5
B6
330
1F
100
AcDbEntity
  8
A-5
  6
Continuous
 62
     7
370
     9
100
AcDbCircle
 10
1331.551973581442
 20
-140.2953520572176
 30
0.0
 40
8.59791813669978
100
AcDbArc
 50
340.5480041503906
 51
19.4519958496094
  0
ARC
  5
B7
330
1F
100
AcDbEntity
  8
A-5
  6
Continuous
 62
     7
370
     9
100
AcDbCircle
 10
1337.782013435749
 20
-135.9887856641645
 30
0.0
 40
2.367928785246772
100
AcDbArc
 50
322.4427795410156
 51
37.55722045898439
  0
LINE
  5
B8
330
1F
100
AcDbEntity
  8
A-5
  6
Continuous
 62
     7
370
     9
100
AcDbLine
 10
1292.449936821781
 20
-146.0453586556129
 30
0.0
 11
1292.449936821781
 21
-134.5452217389111
 31
0.0
  0
LINE
  5
B9
330
1F
100
AcDbEntity
  8
A-5
  6
Continuous
 62
     7
370
     9
100
AcDbLine
 10
1287.940717213991
 20
-146.0453586556129
 30
0.0
 11
1292.449936821781
 21
-146.0453586556129
 31
0.0
  0
LINE
  5
BA
330
1F
100
AcDbEntity
  8
A-5
  6
Continuous
 62
     7
370
     9
100
AcDbLine
 10
1287.940717213991
 20
-134.5452217389111
 30
0.0
 11
1292.449936821781
 21
-134.5452217389111
 31
0.0
  0
LINE
  5
BB
330
1F
100
AcDbEntity
  8
A-5
  6
Continuous
 62
     7
370
     9
100
AcDbLine
 10
1287.940717213991
 20
-143.1586019648403
 30
0.0
 11
1292.449936821781
 21
-143.1586019648403
 31
0.0
  0
LINE
  5
BC
330
1F
100
AcDbEntity
  8
A-5
  6
Continuous
 62
     7
370
     9
100
AcDbLine
 10
1287.940717213991
 20
-137.4321021495952
 30
0.0
 11
1292.449936821781
 21
-137.4321021495952
 31
0.0
  0
LINE
  5
BD
330
1F
100
AcDbEntity
  8
A-5
  6
Continuous
 62
     7
370
     9
100
AcDbLine
 10
1287.449920325794
 20
-144.601918450271
 30
0.0
 11
1287.449920325794
 21
-135.9887856641645
 31
0.0
  0
ARC
  5
BE
330
1F
100
AcDbEntity
  8
A-5
  6
Continuous
 62
     7
370
     9
100
AcDbCircle
 10
1289.817857568456
 20
-144.601918450271
 30
0.0
 40
2.367928785246772
100
AcDbArc
 50
142.4427795410156
 51
217.5572204589844
  0
ARC
  5
BF
330
1F
100
AcDbEntity
  8
A-5
  6
Continuous
 62
     7
370
     9
100
AcDbCircle
 10
1296.047897422764
 20
-140.2953520572176
 30
0.0
 40
8.59791813669978
100
AcDbArc
 50
160.5480041503906
 51
199.4519958496094
  0
ARC
  5
C0
330
1F
100
AcDbEntity
  8
A-5
  6
Continuous
 62
     7
370
     9
100
AcDbCircle
 10
1289.817857568456
 20
-135.9887856641645
 30
0.0
 40
2.367928785246772
100
AcDbArc
 50
142.4427795410156
 51
217.5572204589844
  0
LINE
  5
C1
330
1F
100
AcDbEntity
  8
A-5
  6
Continuous
 62
     7
370
     9
100
AcDbLine
 10
1213.799935502103
 20
-142.755275053945
 30
0.0
 11
1213.799935502103
 21
-137.8354290604905
 31
0.0
  0
LINE
  5
C2
330
1F
100
AcDbEntity
  8
A-5
  6
Continuous
 62
     7
370
     9
100
AcDbLine
 10
1213.799935502103
 20
-137.8354290604905
 30
0.0
 11
1214.339911055049
 21
-137.2953916475895
 31
0.0
  0
LINE
  5
C3
330
1F
100
AcDbEntity
  8
A-5
  6
Continuous
 62
     7
370
     9
100
AcDbLine
 10
1214.339911055049
 20
-143.295312466846
 30
0.0
 11
1213.799935502103
 21
-142.755275053945
 31
0.0
  0
LINE
  5
C4
330
1F
100
AcDbEntity
  8
A-5
  6
Continuous
 62
     7
370
     9
100
AcDbLine
 10
1214.339911055049
 20
-143.295312466846
 30
0.0
 11
1214.339911055049
 21
-137.2953916475895
 31
0.0
  0
LINE
  5
C5
330
1F
100
AcDbEntity
  8
A-5
  6
Continuous
 62
     7
370
     9
100
AcDbLine
 10
1214.339911055049
 20
-137.2953916475895
 30
0.0
 11
1287.449920325794
 21
-137.2953916475895
 31
0.0
  0
LINE
  5
C6
330
1F
100
AcDbEntity
  8
A-5
  6
Continuous
 62
     7
370
     9
100
AcDbLine
 10
1214.339911055049
 20
-143.295312466846
 30
0.0
 11
1287.449920325794
 21
-143.295312466846
 31
0.0
  0
LINE
  5
C7
330
1F
100
AcDbEntity
  8
A-5
  6
Continuous
 62
     7
370
     9
100
AcDbLine
 10
1213.799935502103
 20
-142.755275053945
 30
0.0
 11
1287.449920325794
 21
-142.755275053945
 31
0.0
  0
LINE
  5
C8
330
1F
100
AcDbEntity
  8
A-5
  6
Continuous
 62
     7
370
     9
100
AcDbLine
 10
1213.799935502103
 20
-137.8354290604905
 30
0.0
 11
1287.449920325794
 21
-137.8354290604905
 31
0.0
  0
LINE
  5
C9
330
1F
100
AcDbEntity
  8
A-5
  6
Continuous
 62
     7
370
     9
100
AcDbLine
 10
1413.259959949157
 20
-143.295312466846
 30
0.0
 11
1413.259959949157
 21
-137.2953916475895
 31
0.0
  0
LINE
  5
CA
330
1F
100
AcDbEntity
  8
A-5
  6
Continuous
 62
     7
370
     9
100
AcDbLine
 10
1413.259959949157
 20
-137.2953916475895
 30
0.0
 11
1340.149950678413
 21
-137.2953916475895
 31
0.0
  0
LINE
  5
CB
330
1F
100
AcDbEntity
  8
A-5
  6
Continuous
 62
     7
370
     9
100
AcDbLine
 10
1413.799935502103
 20
-137.8354290604905
 30
0.0
 11
1413.259959949157
 21
-137.2953916475895
 31
0.0
  0
LINE
  5
CC
330
1F
100
AcDbEntity
  8
A-5
  6
Continuous
 62
     7
370
     9
100
AcDbLine
 10
1413.259959949157
 20
-143.295312466846
 30
0.0
 11
1413.799935502103
 21
-142.755275053945
 31
0.0
  0
LINE
  5
CD
330
1F
100
AcDbEntity
  8
A-5
  6
Continuous
 62
     7
370
     9
100
AcDbLine
 10
1413.259959949157
 20
-143.295312466846
 30
0.0
 11
1340.149950678413
 21
-143.295312466846
 31
0.0
  0
LINE
  5
CE
330
1F
100
AcDbEntity
  8
A-5
  6
Continuous
 62
     7
370
     9
100
AcDbLine
 10
1413.799935502103
 20
-142.755275053945
 30
0.0
 11
1340.149950678413
 21
-142.755275053945
 31
0.0
  0
LINE
  5
CF
330
1F
100
AcDbEntity
  8
A-5
  6
Continuous
 62
     7
370
     9
100
AcDbLine
 10
1413.799935502103
 20
-142.755275053945
 30
0.0
 11
1413.799935502103
 21
-137.8354290604905
 31
0.0
  0
LINE
  5
D0
330
1F
100
AcDbEntity
  8
A-5
  6
Continuous
 62
     7
370
     9
100
AcDbLine
 10
1413.799935502103
 20
-137.8354290604905
 30
0.0
 11
1340.149950678413
 21
-137.8354290604905
 31
0.0
  0
LINE
  5
D1
330
1F
100
AcDbEntity
  8
A-5
  6
JWW_CENTER2
 62
     4
370
     9
100
AcDbLine
 10
1204.632362989209
 20
-140.2953520572176
 30
0.0
 11
1423.461905764345
 21
-140.2953520572176
 31
0.0
  0
LINE
  5
D2
330
1F
100
AcDbEntity
  8
A-5
  6
JWW_DASHED1
 62
     7
370
     9
100
AcDbLine
 10
1335.149934182424
 20
-137.2953916475895
 30
0.0
 11
1292.449936821782
 21
-137.2953916475895
 31
0.0
  0
LINE
  5
D3
330
1F
100
AcDbEntity
  8
A-5
  6
JWW_DASHED1
 62
     7
370
     9
100
AcDbLine
 10
1335.149934182424
 20
-143.295312466846
 30
0.0
 11
1292.449936821782
 21
-143.295312466846
 31
0.0
  0
LINE
  5
D4
330
1F
100
AcDbEntity
  8
A-5
  6
Continuous
 62
     7
370
     9
100
AcDbLine
 10
577.7763045387671
 20
-464.5278597054047
 30
0.0
 11
1072.355241697339
 21
-464.5278597054047
 31
0.0
  0
LINE
  5
D5
330
1F
100
AcDbEntity
  8
A-5
  6
Continuous
 62
     7
370
     9
100
AcDbLine
 10
1141.376333752686
 20
-628.0148388144594
 30
0.0
 11
716.1197140875856
 21
-628.0148388144594
 31
0.0
  0
TEXT
  5
D6
330
1F
100
AcDbEntity
  8
A-5
  6
Continuous
 62
     7
370
     9
100
AcDbText
 10
739.5670902996761
 20
-620.9009667881809
 30
0.0
 40
22.86
  1
六角ナット：ＳＳ４００
 41
1.151515151515152
  7
ＭＳ ゴシック
100
AcDbText
  0
LINE
  5
D7
330
1F
100
AcDbEntity
  8
A-5
  6
Continuous
 62
     7
370
     9
100
AcDbLine
 10
1289.896451544423
 20
-144.8158254509317
 30
0.0
 11
1141.376333752686
 21
-628.0148388144594
 31
0.0
  0
LINE
  5
D8
330
1F
100
AcDbEntity
  8
A-5
  6
Continuous
 62
     7
370
     9
100
AcDbLine
 10
1260.016577538856
 20
-139.4888914116507
 30
0.0
 11
1244.797541813638
 21
-159.3227249189316
 31
0.0
  0
LINE
  5
D9
330
1F
100
AcDbEntity
  8
A-5
  6
Continuous
 62
     7
370
     9
100
AcDbLine
 10
1260.016577538856
 20
-139.4888914116507
 30
0.0
 11
1072.355241697339
 21
-464.5278597054047
 31
0.0
  0
LINE
  5
DA
330
1F
100
AcDbEntity
  8
A-5
  6
Continuous
 62
     7
370
     9
100
AcDbLine
 10
1260.016577538856
 20
-139.4888914116507
 30
0.0
 11
1250.449491729729
 21
-162.5858797244329
 31
0.0
  0
LINE
  5
DB
330
1F
100
AcDbEntity
  8
A-5
  6
Continuous
 62
     7
370
     9
100
AcDbLine
 10
1289.896451544423
 20
-144.8158254509317
 30
0.0
 11
1279.495075511114
 21
-167.5493112508198
 31
0.0
  0
LINE
  5
DC
330
1F
100
AcDbEntity
  8
A-5
  6
Continuous
 62
     7
370
     9
100
AcDbLine
 10
1289.896451544423
 20
-144.8158254509317
 30
0.0
 11
1285.733352891485
 21
-169.4667607193125
 31
0.0
  0
LINE
  5
DD
330
1F
100
AcDbEntity
  8
A-5
  6
Continuous
 62
     7
370
     9
100
AcDbLine
 10
1502.70810357332
 20
-240.2952407106577
 30
0.0
 11
1505.971258378821
 21
-215.5091191763124
 31
0.0
  0
LINE
  5
DE
330
1F
100
AcDbEntity
  8
A-5
  6
Continuous
 62
     7
370
     9
100
AcDbLine
 10
1502.70810357332
 20
-240.2952407106577
 30
0.0
 11
1499.444948767819
 21
-215.5091191763124
 31
0.0
  0
LINE
  5
DF
330
1F
100
AcDbEntity
  8
A-5
  6
Continuous
 62
     7
370
     9
100
AcDbLine
 10
1505.70810357332
 20
-240.2952407106577
 30
0.0
 11
1387.713456537416
 21
-240.2952407106577
 31
0.0
  0
LINE
  5
E0
330
1F
100
AcDbEntity
  8
A-5
  6
Continuous
 62
     7
370
     9
100
AcDbLine
 10
1502.70810357332
 20
-140.2953520572176
 30
0.0
 11
1502.70810357332
 21
-240.2952407106577
 31
0.0
  0
LINE
  5
E1
330
1F
100
AcDbEntity
  8
A-5
  6
Continuous
 62
     7
370
     9
100
AcDbLine
 10
1502.70810357332
 20
-140.2953520572176
 30
0.0
 11
1505.971258378821
 21
-165.0814735915629
 31
0.0
  0
LINE
  5
E2
330
1F
100
AcDbEntity
  8
A-5
  6
Continuous
 62
     7
370
     9
100
AcDbLine
 10
1502.70810357332
 20
-140.2953520572176
 30
0.0
 11
1499.444948767819
 21
-165.0814735915629
 31
0.0
  0
LINE
  5
E3
330
1F
100
AcDbEntity
  8
A-5
  6
Continuous
 62
     7
370
     9
100
AcDbLine
 10
1505.70810357332
 20
-140.2953520572176
 30
0.0
 11
1433.244332013561
 21
-140.2953520572176
 31
0.0
  0
TEXT
  5
E4
330
1F
100
AcDbEntity
  8
A-4
  6
Continuous
 62
     2
370
   211
100
AcDbText
 10
1492.06810357332
 20
-222.7952963839376
 30
0.0
 40
30.48
  1
100
 50
90.0
 41
1.083333333333333
  7
ＭＳ ゴシック
100
AcDbText
  0
TEXT
  5
E5
330
1F
100
AcDbEntity
  8
A-5
  6
Continuous
 62
     7
370
     9
100
AcDbText
 10
583.023192915533
 20
-413.4857368261033
 30
0.0
 40
22.86
  1
アンカー
 41
1.125
  7
ＭＳ ゴシック
100
AcDbText
  0
TEXT
  5
E6
330
1F
100
AcDbEntity
  8
A-5
  6
Continuous
 62
     7
370
     9
100
AcDbText
 10
583.023192915533
 20
-449.7931608043928
 30
0.0
 40
22.86
  1
全ネジボルト：ＳＳ４００
 41
1.152777777777778
  7
ＭＳ ゴシック
100
AcDbText
  0
TEXT
  5
E7
330
1F
100
AcDbEntity
  8
A-5
  6
Continuous
 62
     7
370
     9
100
AcDbText
 10
581.9925161570443
 20
-496.6655872423513
 30
0.0
 40
22.86
  1
ユニクロメッキ，Ｍ６×２００
 41
1.154761904761905
  7
ＭＳ ゴシック
100
AcDbText
  0
LINE
  5
E8
330
1F
100
AcDbEntity
  8
A-4
  6
Continuous
 62
     7
370
     9
100
AcDbLine
 10
-1491.736843002532
 20
-240.3028886369433
 30
0.0
 11
-1491.736843002532
 21
359.7036246730631
 31
0.0
  0
LINE
  5
E9
330
1F
100
AcDbEntity
  8
A-4
  6
Continuous
 62
     7
370
     9
100
AcDbLine
 10
-1491.736843002532
 20
-240.3028886369433
 30
0.0
 11
-1494.999997808033
 21
-215.5167671025981
 31
0.0
  0
LINE
  5
EA
330
1F
100
AcDbEntity
  8
A-4
  6
Continuous
 62
     7
370
     9
100
AcDbLine
 10
-1491.736843002532
 20
-240.3028886369433
 30
0.0
 11
-1488.47368819703
 21
-215.5167671025981
 31
0.0
  0
LINE
  5
EB
330
1F
100
AcDbEntity
  8
A-4
  6
Continuous
 62
     7
370
     9
100
AcDbLine
 10
-1491.736843002532
 20
359.7036246730631
 30
0.0
 11
-1494.999997808033
 21
334.9175031387179
 31
0.0
  0
LINE
  5
EC
330
1F
100
AcDbEntity
  8
A-4
  6
Continuous
 62
     7
370
     9
100
AcDbLine
 10
-1491.736843002532
 20
359.7036246730631
 30
0.0
 11
-1488.47368819703
 21
334.9175031387179
 31
0.0
  0
LINE
  5
ED
330
1F
100
AcDbEntity
  8
A-4
  6
Continuous
 62
     7
370
     9
100
AcDbLine
 10
-1494.736843002532
 20
-240.3028886369433
 30
0.0
 11
-1397.731424937331
 21
-240.3028886369433
 31
0.0
  0
LINE
  5
EE
330
1F
100
AcDbEntity
  8
A-4
  6
Continuous
 62
     7
370
     9
100
AcDbLine
 10
-1494.736843002532
 20
359.7036246730631
 30
0.0
 11
-1397.731424937331
 21
359.7036246730631
 31
0.0
  0
TEXT
  5
EF
330
1F
100
AcDbEntity
  8
A-4
  6
Continuous
 62
     2
370
   211
100
AcDbText
 10
-1502.376843002532
 20
27.20036801805993
 30
0.0
 40
30.48
  1
600
 50
90.0
 41
1.083333333333333
  7
ＭＳ ゴシック
100
AcDbText
  0
TEXT
  5
F0
330
1F
100
AcDbEntity
  8
A-5
  6
Continuous
 62
     7
370
     9
100
AcDbText
 10
743.6072652442558
 20
-657.2625412893992
 30
0.0
 40
22.86
  1
ユニクロメッキ，Ｍ６
 41
1.15
  7
ＭＳ ゴシック
100
AcDbText
  0
ENDSEC
  0
SECTION
  2
OBJECTS
  0
DICTIONARY
  5
C
330
0
100
AcDbDictionary
281
     1
  3
ACAD_GROUP
350
D
  3
ACAD_LAYOUT
350
1A
  3
ACAD_MLEADERSTYLE
350
F2
  3
ACAD_MLINESTYLE
350
17
  3
ACAD_PLOTSETTINGS
350
19
  3
ACAD_PLOTSTYLENAME
350
E
  3
ACAD_TABLESTYLE
350
F1
  3
ACAD_VISUALSTYLE
350
2A
  3
AcDbVariableDictionary
350
F3
  0
DICTIONARY
  5
D
102
{ACAD_REACTORS
330
C
102
}
330
C
100
AcDbDictionary
281
     1
  0
DICTIONARY
  5
1A
102
{ACAD_REACTORS
330
C
102
}
330
C
100
AcDbDictionary
281
     1
  3
Layout1
350
1E
  3
Layout2
350
26
  3
Model
350
22
  0
DICTIONARY
  5
F2
102
{ACAD_REACTORS
330
C
102
}
330
C
100
AcDbDictionary
281
     1
  0
DICTIONARY
  5
17
102
{ACAD_REACTORS
330
C
102
}
330
C
100
AcDbDictionary
281
     1
  3
Standard
350
18
  0
DICTIONARY
  5
19
102
{ACAD_REACTORS
330
C
102
}
330
C
100
AcDbDictionary
281
     1
  0
ACDBDICTIONARYWDFLT
  5
E
102
{ACAD_REACTORS
330
C
102
}
330
C
100
AcDbDictionary
281
     1
  3
Normal
350
F
100
AcDbDictionaryWithDefault
340
F
  0
DICTIONARY
  5
F1
102
{ACAD_REACTORS
330
C
102
}
330
C
100
AcDbDictionary
281
     1
  0
DICTIONARY
  5
2A
102
{ACAD_REACTORS
330
C
102
}
330
C
100
AcDbDictionary
281
     1
  3
2dWireframe
350
2F
  3
3D Hidden
350
31
  3
3dWireframe
350
30
  3
Basic
350
32
  3
Brighten
350
36
  3
ColorChange
350
3A
  3
Conceptual
350
34
  3
Dim
350
35
  3
Facepattern
350
39
  3
Flat
350
2B
  3
FlatWithEdges
350
2C
  3
Gouraud
350
2D
  3
GouraudWithEdges
350
2E
  3
Linepattern
350
38
  3
Realistic
350
33
  3
Thicken
350
37
  0
DICTIONARY
  5
F3
102
{ACAD_REACTORS
330
C
102
}
330
C
100
AcDbDictionary
281
     1
  3
PSOLHEIGHT
350
F5
  3
PSOLWIDTH
350
F4
  0
LAYOUT
  5
1E
102
{ACAD_REACTORS
330
1A
102
}
102
{ACAD_XDICTIONARY
360
F6
102
}
330
1A
100
AcDbPlotSettings
  1

  2
none_device
  4

  6

 40
0.0
 41
0.0
 42
0.0
 43
0.0
 44
0.0
 45
0.0
 46
0.0
 47
0.0
 48
0.0
 49
0.0
140
0.0
141
0.0
142
1.0
143
1.0
 70
   688
 72
     0
 73
     0
 74
     5
  7

 75
    16
147
1.0
148
0.0
149
0.0
100
AcDbLayout
  1
Layout1
 70
     1
 71
     1
 10
0.0
 20
0.0
 11
420.0
 21
297.0
 12
0.0
 22
0.0
 32
0.0
 14
1.000000000000000E+20
 24
1.000000000000000E+20
 34
1.000000000000000E+20
 15
-1.000000000000000E+20
 25
-1.000000000000000E+20
 35
-1.000000000000000E+20
146
0.0
 13
0.0
 23
0.0
 33
0.0
 16
1.0
 26
0.0
 36
0.0
 17
0.0
 27
1.0
 37
0.0
 76
     0
330
1B
  0
LAYOUT
  5
26
102
{ACAD_REACTORS
330
1A
102
}
102
{ACAD_XDICTIONARY
360
FA
102
}
330
1A
100
AcDbPlotSettings
  1

  2
none_device
  4

  6

 40
0.0
 41
0.0
 42
0.0
 43
0.0
 44
0.0
 45
0.0
 46
0.0
 47
0.0
 48
0.0
 49
0.0
140
0.0
141
0.0
142
1.0
143
1.0
 70
   688
 72
     0
 73
     0
 74
     5
  7

 75
    16
147
1.0
148
0.0
149
0.0
100
AcDbLayout
  1
Layout2
 70
     1
 71
     2
 10
0.0
 20
0.0
 11
0.0
 21
0.0
 12
0.0
 22
0.0
 32
0.0
 14
0.0
 24
0.0
 34
0.0
 15
0.0
 25
0.0
 35
0.0
146
0.0
 13
0.0
 23
0.0
 33
0.0
 16
1.0
 26
0.0
 36
0.0
 17
0.0
 27
1.0
 37
0.0
 76
     0
330
23
  0
LAYOUT
  5
22
102
{ACAD_REACTORS
330
1A
102
}
102
{ACAD_XDICTIONARY
360
F8
102
}
330
1A
100
AcDbPlotSettings
  1

  2
none_device
  4

  6

 40
0.0
 41
0.0
 42
0.0
 43
0.0
 44
0.0
 45
0.0
 46
0.0
 47
0.0
 48
0.0
 49
0.0
140
0.0
141
0.0
142
1.0
143
1.0
 70
  1712
 72
     0
 73
     0
 74
     0
  7

 75
     0
147
1.0
148
0.0
149
0.0
100
AcDbLayout
  1
Model
 70
     1
 71
     0
 10
-2100.0
 20
-1485.0
 11
2100.0
 21
1485.0
 12
0.0
 22
0.0
 32
0.0
 14
-2100.0
 24
-1485.0
 34
0.0
 15
2100.0
 25
1485.0
 35
0.0
146
0.0
 13
0.0
 23
0.0
 33
0.0
 16
1.0
 26
0.0
 36
0.0
 17
0.0
 27
1.0
 37
0.0
 76
     0
330
1F
331
29
  0
MLINESTYLE
  5
18
102
{ACAD_REACTORS
330
17
102
}
330
17
100
AcDbMlineStyle
  2
Standard
 70
     0
  3

 62
   256
 51
90.0
 52
90.0
 71
     2
 49
0.5
 62
   256
  6
BYLAYER
 49
-0.5
 62
   256
  6
BYLAYER
  0
ACDBPLACEHOLDER
  5
F
102
{ACAD_REACTORS
330
E
102
}
330
E
  0
VISUALSTYLE
  5
2F
102
{ACAD_REACTORS
330
2A
102
}
330
2A
100
AcDbVisualStyle
  2
2dWireframe
 70
     4
 71
     0
 72
     2
 73
     0
 90
        0
 40
-0.6
 41
-30.0
 62
     5
 63
     7
 74
     1
 91
        4
 64
     7
 65
   257
 75
     1
175
     1
 42
1.0
 92
        0
 66
   257
 43
1.0
 76
     1
 77
     6
 78
     2
 67
     7
 79
     5
170
     0
171
     0
290
     0
174
     0
 93
        1
 44
0.0
173
     0
291
     0
 45
0.0
1001
ACAD
1000
AcDbSavedByObjectVersion
1070
     0
  0
VISUALSTYLE
  5
31
102
{ACAD_REACTORS
330
2A
102
}
330
2A
100
AcDbVisualStyle
  2
3D Hidden
 70
     6
 71
     1
 72
     2
 73
     2
 90
        0
 40
-0.6
 41
-30.0
 62
     5
 63
     7
 74
     2
 91
        2
 64
     7
 65
   257
 75
     2
175
     1
 42
40.0
 92
        0
 66
   257
 43
1.0
 76
     1
 77
     6
 78
     2
 67
     7
 79
     3
170
     0
171
     0
290
     0
174
     0
 93
        1
 44
0.0
173
     0
291
     0
 45
0.0
1001
ACAD
1000
AcDbSavedByObjectVersion
1070
     0
  0
VISUALSTYLE
  5
30
102
{ACAD_REACTORS
330
2A
102
}
330
2A
100
AcDbVisualStyle
  2
3dWireframe
 70
     5
 71
     0
 72
     2
 73
     0
 90
        0
 40
-0.6
 41
-30.0
 62
     5
 63
     7
 74
     1
 91
        4
 64
     7
 65
   257
 75
     1
175
     1
 42
1.0
 92
        0
 66
   257
 43
1.0
 76
     1
 77
     6
 78
     2
 67
     7
 79
     5
170
     0
171
     0
290
     0
174
     0
 93
        1
 44
0.0
173
     0
291
     0
 45
0.0
1001
ACAD
1000
AcDbSavedByObjectVersion
1070
     0
  0
VISUALSTYLE
  5
32
102
{ACAD_REACTORS
330
2A
102
}
330
2A
100
AcDbVisualStyle
  2
Basic
 70
     7
 71
     1
 72
     0
 73
     1
 90
        0
 40
-0.6
 41
-30.0
 62
     5
 63
     7
 74
     0
 91
        4
 64
     7
 65
   257
 75
     1
175
     1
 42
1.0
 92
        8
 66
     7
 43
1.0
 76
     1
 77
     6
 78
     2
 67
     7
 79
     5
170
     0
171
     0
290
     0
174
     0
 93
        1
 44
0.0
173
     0
291
     1
 45
0.0
1001
ACAD
1000
AcDbSavedByObjectVersion
1070
     0
  0
VISUALSTYLE
  5
36
102
{ACAD_REACTORS
330
2A
102
}
330
2A
100
AcDbVisualStyle
  2
Brighten
 70
    12
 71
     2
 72
     2
 73
     0
 90
        0
 40
-0.6
 41
-30.0
 62
     5
 63
     7
 74
     1
 91
        4
 64
     7
 65
   257
 75
     1
175
     1
 42
1.0
 92
        8
 66
     7
 43
1.0
 76
     1
 77
     6
 78
     2
 67
     7
 79
     5
170
     0
171
     0
290
     0
174
     0
 93
        1
 44
50.0
173
     0
291
     1
 45
0.0
1001
ACAD
1000
AcDbSavedByObjectVersion
1070
     0
  0
VISUALSTYLE
  5
3A
102
{ACAD_REACTORS
330
2A
102
}
330
2A
100
AcDbVisualStyle
  2
ColorChange
 70
    16
 71
     2
 72
     2
 73
     3
 90
        0
 40
-0.6
 41
-30.0
 62
     5
 63
     8
 74
     1
 91
        4
 64
     7
 65
   257
 75
     1
175
     1
 42
1.0
 92
        8
 66
     8
 43
1.0
 76
     1
 77
     6
 78
     2
 67
     7
 79
     5
170
     0
171
     0
290
     0
174
     0
 93
        1
 44
0.0
173
     0
291
     1
 45
0.0
1001
ACAD
1000
AcDbSavedByObjectVersion
1070
     0
  0
VISUALSTYLE
  5
34
102
{ACAD_REACTORS
330
2A
102
}
330
2A
100
AcDbVisualStyle
  2
Conceptual
 70
     9
 71
     3
 72
     2
 73
     0
 90
        0
 40
-0.6
 41
-30.0
 62
     5
 63
     7
 74
     2
 91
        2
 64
     7
 65
   257
 75
     1
175
     1
 42
40.0
 92
        8
 66
     7
 43
1.0
 76
     1
 77
     6
 78
     2
 67
     7
 79
     3
170
     0
171
     0
290
     0
174
     0
 93
        1
 44
0.0
173
     0
291
     0
 45
0.0
1001
ACAD
1000
AcDbSavedByObjectVersion
1070
     0
  0
VISUALSTYLE
  5
35
102
{ACAD_REACTORS
330
2A
102
}
330
2A
100
AcDbVisualStyle
  2
Dim
 70
    11
 71
     2
 72
     2
 73
     0
 90
        0
 40
-0.6
 41
-30.0
 62
     5
 63
     7
 74
     1
 91
        4
 64
     7
 65
   257
 75
     1
175
     1
 42
1.0
 92
        8
 66
     7
 43
1.0
 76
     1
 77
     6
 78
     2
 67
     7
 79
     5
170
     0
171
     0
290
     0
174
     0
 93
        1
 44
-50.0
173
     0
291
     1
 45
0.0
1001
ACAD
1000
AcDbSavedByObjectVersion
1070
     0
  0
VISUALSTYLE
  5
39
102
{ACAD_REACTORS
330
2A
102
}
330
2A
100
AcDbVisualStyle
  2
Facepattern
 70
    15
 71
     2
 72
     2
 73
     0
 90
        0
 40
-0.6
 41
-30.0
 62
     5
 63
     7
 74
     1
 91
        4
 64
     7
 65
   257
 75
     1
175
     1
 42
1.0
 92
        8
 66
     7
 43
1.0
 76
     1
 77
     6
 78
     2
 67
     7
 79
     5
170
     0
171
     0
290
     0
174
     0
 93
        1
 44
0.0
173
     0
291
     1
 45
0.0
1001
ACAD
1000
AcDbSavedByObjectVersion
1070
     0
  0
VISUALSTYLE
  5
2B
102
{ACAD_REACTORS
330
2A
102
}
330
2A
100
AcDbVisualStyle
  2
Flat
 70
     0
 71
     2
 72
     1
 73
     1
 90
        2
 40
-0.6
 41
30.0
 62
     5
 63
     7
 74
     0
 91
        4
 64
     7
 65
   257
 75
     1
175
     1
 42
1.0
 92
        8
 66
     7
 43
1.0
 76
     1
 77
     6
 78
     2
 67
     7
 79
     5
170
     0
171
     0
290
     0
174
     0
 93
       13
 44
0.0
173
     0
291
     1
 45
0.0
1001
ACAD
1000
AcDbSavedByObjectVersion
1070
     0
  0
VISUALSTYLE
  5
2C
102
{ACAD_REACTORS
330
2A
102
}
330
2A
100
AcDbVisualStyle
  2
FlatWithEdges
 70
     1
 71
     2
 72
     1
 73
     1
 90
        2
 40
-0.6
 41
30.0
 62
     5
 63
     7
 74
     1
 91
        4
 64
     7
 65
   257
 75
     1
175
     1
 42
1.0
 92
        0
 66
   257
 43
1.0
 76
     1
 77
     6
 78
     2
 67
     7
 79
     5
170
     0
171
     0
290
     0
174
     0
 93
       13
 44
0.0
173
     0
291
     1
 45
0.0
1001
ACAD
1000
AcDbSavedByObjectVersion
1070
     0
  0
VISUALSTYLE
  5
2D
102
{ACAD_REACTORS
330
2A
102
}
330
2A
100
AcDbVisualStyle
  2
Gouraud
 70
     2
 71
     2
 72
     2
 73
     1
 90
        2
 40
-0.6
 41
30.0
 62
     5
 63
     7
 74
     0
 91
        4
 64
     7
 65
   257
 75
     1
175
     1
 42
1.0
 92
        0
 66
     7
 43
1.0
 76
     1
 77
     6
 78
     2
 67
     7
 79
     5
170
     0
171
     0
290
     0
174
     0
 93
       13
 44
0.0
173
     0
291
     1
 45
0.0
1001
ACAD
1000
AcDbSavedByObjectVersion
1070
     0
  0
VISUALSTYLE
  5
2E
102
{ACAD_REACTORS
330
2A
102
}
330
2A
100
AcDbVisualStyle
  2
GouraudWithEdges
 70
     3
 71
     2
 72
     2
 73
     1
 90
        2
 40
-0.6
 41
30.0
 62
     5
 63
     7
 74
     1
 91
        4
 64
     7
 65
   257
 75
     1
175
     1
 42
1.0
 92
        0
 66
   257
 43
1.0
 76
     1
 77
     6
 78
     2
 67
     7
 79
     5
170
     0
171
     0
290
     0
174
     0
 93
       13
 44
0.0
173
     0
291
     1
 45
0.0
1001
ACAD
1000
AcDbSavedByObjectVersion
1070
     0
  0
VISUALSTYLE
  5
38
102
{ACAD_REACTORS
330
2A
102
}
330
2A
100
AcDbVisualStyle
  2
Linepattern
 70
    14
 71
     2
 72
     2
 73
     0
 90
        0
 40
-0.6
 41
-30.0
 62
     5
 63
     7
 74
     1
 91
        4
 64
     7
 65
   257
 75
     7
175
     7
 42
1.0
 92
        8
 66
     7
 43
1.0
 76
     1
 77
     6
 78
     2
 67
     7
 79
     5
170
     0
171
     0
290
     0
174
     0
 93
        1
 44
0.0
173
     0
291
     1
 45
0.0
1001
ACAD
1000
AcDbSavedByObjectVersion
1070
     0
  0
VISUALSTYLE
  5
33
102
{ACAD_REACTORS
330
2A
102
}
330
2A
100
AcDbVisualStyle
  2
Realistic
 70
     8
 71
     2
 72
     2
 73
     0
 90
        0
 40
-0.6
 41
-30.0
 62
     5
 63
     7
 74
     1
 91
        0
 64
     7
 65
   257
 75
     1
175
     1
 42
1.0
 92
        8
 66
     8
 43
1.0
 76
     1
 77
     6
 78
     2
 67
     7
 79
     5
170
     0
171
     0
290
     0
174
     0
 93
       13
 44
0.0
173
     0
291
     0
 45
0.0
1001
ACAD
1000
AcDbSavedByObjectVersion
1070
     0
  0
VISUALSTYLE
  5
37
102
{ACAD_REACTORS
330
2A
102
}
330
2A
100
AcDbVisualStyle
  2
Thicken
 70
    13
 71
     2
 72
     2
 73
     0
 90
        0
 40
-0.6
 41
-30.0
 62
     5
 63
     7
 74
     1
 91
        4
 64
     7
 65
   257
 75
     1
175
     1
 42
1.0
 92
       12
 66
     7
 43
1.0
 76
     1
 77
     6
 78
     2
 67
     7
 79
     5
170
     0
171
     0
290
     0
174
     0
 93
        1
 44
0.0
173
     0
291
     1
 45
0.0
1001
ACAD
1000
AcDbSavedByObjectVersion
1070
     0
  0
DICTIONARYVAR
  5
F5
102
{ACAD_REACTORS
330
F3
102
}
330
F3
100
DictionaryVariables
280
     0
  1
80.000000
  0
DICTIONARYVAR
  5
F4
102
{ACAD_REACTORS
330
F3
102
}
330
F3
100
DictionaryVariables
280
     0
  1
5.000000
  0
DICTIONARY
  5
F6
330
1E
100
AcDbDictionary
280
     1
281
     1
  3
ACAD_XREC_ROUNDTRIP
360
F7
  0
DICTIONARY
  5
FA
330
26
100
AcDbDictionary
280
     1
281
     1
  3
ACAD_XREC_ROUNDTRIP
360
FB
  0
DICTIONARY
  5
F8
330
22
100
AcDbDictionary
280
     1
281
     1
  3
ACAD_XREC_ROUNDTRIP
360
F9
  0
XRECORD
  5
F7
102
{ACAD_REACTORS
330
F6
102
}
330
F6
100
AcDbXrecord
280
     1
102
SHADEPLOT
 70
     0
102
SHADEPLOTRESLEVEL
 70
     5
102
SHADEPLOTCUSTOMDPI
 70
   300
  0
XRECORD
  5
FB
102
{ACAD_REACTORS
330
FA
102
}
330
FA
100
AcDbXrecord
280
     1
102
SHADEPLOT
 70
     0
102
SHADEPLOTRESLEVEL
 70
     5
102
SHADEPLOTCUSTOMDPI
 70
   300
  0
XRECORD
  5
F9
102
{ACAD_REACTORS
330
F8
102
}
330
F8
100
AcDbXrecord
280
     1
102
SHADEPLOT
 70
     0
102
SHADEPLOTRESLEVEL
 70
     5
102
SHADEPLOTCUSTOMDPI
 70
   300
  0
ENDSEC
  0
EOF
