  0
SECTION
  2
HEADER
  9
$ACADVER
  1
AC1018
  9
$ACADMAINTVER
 70
     0
  9
$DWGCODEPAGE
  3
ANSI_932
  9
$INSBASE
 10
0.0
 20
0.0
 30
0.0
  9
$EXTMIN
 10
-630.0
 20
-445.5
 30
0.0
  9
$EXTMAX
 10
630.0
 20
445.5
 30
0.0
  9
$LIMMIN
 10
-630.0
 20
-445.5
  9
$LIMMAX
 10
630.0
 20
445.5
  9
$ORTHOMODE
 70
     0
  9
$REGENMODE
 70
     1
  9
$FILLMODE
 70
     1
  9
$QTEXTMODE
 70
     0
  9
$MIRRTEXT
 70
     1
  9
$LTSCALE
 40
3.0
  9
$ATTMODE
 70
     1
  9
$TEXTSIZE
 40
2.5
  9
$TRACEWID
 40
1.0
  9
$TEXTSTYLE
  7
Standard
  9
$CLAYER
  8
0
  9
$CELTYPE
  6
ByLayer
  9
$CECOLOR
 62
   256
  9
$CELTSCALE
 40
1.0
  9
$DISPSILH
 70
     0
  9
$DIMSCALE
 40
1.0
  9
$DIMASZ
 40
2.5
  9
$DIMEXO
 40
0.625
  9
$DIMDLI
 40
3.75
  9
$DIMRND
 40
0.0
  9
$DIMDLE
 40
0.0
  9
$DIMEXE
 40
1.25
  9
$DIMTP
 40
0.0
  9
$DIMTM
 40
0.0
  9
$DIMTXT
 40
2.5
  9
$DIMCEN
 40
2.5
  9
$DIMTSZ
 40
0.0
  9
$DIMTOL
 70
     0
  9
$DIMLIM
 70
     0
  9
$DIMTIH
 70
     0
  9
$DIMTOH
 70
     0
  9
$DIMSE1
 70
     0
  9
$DIMSE2
 70
     0
  9
$DIMTAD
 70
     1
  9
$DIMZIN
 70
     8
  9
$DIMBLK
  1

  9
$DIMASO
 70
     1
  9
$DIMSHO
 70
     1
  9
$DIMPOST
  1

  9
$DIMAPOST
  1

  9
$DIMALT
 70
     0
  9
$DIMALTD
 70
     3
  9
$DIMALTF
 40
0.03937007874016
  9
$DIMLFAC
 40
1.0
  9
$DIMTOFL
 70
     1
  9
$DIMTVP
 40
0.0
  9
$DIMTIX
 70
     0
  9
$DIMSOXD
 70
     0
  9
$DIMSAH
 70
     0
  9
$DIMBLK1
  1

  9
$DIMBLK2
  1

  9
$DIMSTYLE
  2
ISO-25
  9
$DIMCLRD
 70
     0
  9
$DIMCLRE
 70
     0
  9
$DIMCLRT
 70
     0
  9
$DIMTFAC
 40
1.0
  9
$DIMGAP
 40
0.625
  9
$DIMJUST
 70
     0
  9
$DIMSD1
 70
     0
  9
$DIMSD2
 70
     0
  9
$DIMTOLJ
 70
     0
  9
$DIMTZIN
 70
     8
  9
$DIMALTZ
 70
     0
  9
$DIMALTTZ
 70
     0
  9
$DIMUPT
 70
     0
  9
$DIMDEC
 70
     2
  9
$DIMTDEC
 70
     2
  9
$DIMALTU
 70
     2
  9
$DIMALTTD
 70
     3
  9
$DIMTXSTY
  7
Standard
  9
$DIMAUNIT
 70
     0
  9
$DIMADEC
 70
     0
  9
$DIMALTRND
 40
0.0
  9
$DIMAZIN
 70
     0
  9
$DIMDSEP
 70
    44
  9
$DIMATFIT
 70
     3
  9
$DIMFRAC
 70
     0
  9
$DIMLDRBLK
  1

  9
$DIMLUNIT
 70
     2
  9
$DIMLWD
 70
    -2
  9
$DIMLWE
 70
    -2
  9
$DIMTMOVE
 70
     0
  9
$LUNITS
 70
     2
  9
$LUPREC
 70
     4
  9
$SKETCHINC
 40
1.0
  9
$FILLETRAD
 40
10.0
  9
$AUNITS
 70
     0
  9
$AUPREC
 70
     0
  9
$MENU
  1
.
  9
$ELEVATION
 40
0.0
  9
$PELEVATION
 40
0.0
  9
$THICKNESS
 40
0.0
  9
$LIMCHECK
 70
     0
  9
$CHAMFERA
 40
0.0
  9
$CHAMFERB
 40
0.0
  9
$CHAMFERC
 40
0.0
  9
$CHAMFERD
 40
0.0
  9
$SKPOLY
 70
     0
  9
$TDCREATE
 40
2460059.592865567
  9
$TDUCREATE
 40
2460059.217865567
  9
$TDUPDATE
 40
2460059.592865706
  9
$TDUUPDATE
 40
2460059.217865706
  9
$TDINDWG
 40
0.0000000116
  9
$TDUSRTIMER
 40
0.0000000116
  9
$USRTIMER
 70
     1
  9
$ANGBASE
 50
0.0
  9
$ANGDIR
 70
     0
  9
$PDMODE
 70
     0
  9
$PDSIZE
 40
0.0
  9
$PLINEWID
 40
0.0
  9
$SPLFRAME
 70
     0
  9
$SPLINETYPE
 70
     6
  9
$SPLINESEGS
 70
     8
  9
$HANDSEED
  5
388
  9
$SURFTAB1
 70
     6
  9
$SURFTAB2
 70
     6
  9
$SURFTYPE
 70
     6
  9
$SURFU
 70
     6
  9
$SURFV
 70
     6
  9
$UCSBASE
  2

  9
$UCSNAME
  2

  9
$UCSORG
 10
0.0
 20
0.0
 30
0.0
  9
$UCSXDIR
 10
1.0
 20
0.0
 30
0.0
  9
$UCSYDIR
 10
0.0
 20
1.0
 30
0.0
  9
$UCSORTHOREF
  2

  9
$UCSORTHOVIEW
 70
     0
  9
$UCSORGTOP
 10
0.0
 20
0.0
 30
0.0
  9
$UCSORGBOTTOM
 10
0.0
 20
0.0
 30
0.0
  9
$UCSORGLEFT
 10
0.0
 20
0.0
 30
0.0
  9
$UCSORGRIGHT
 10
0.0
 20
0.0
 30
0.0
  9
$UCSORGFRONT
 10
0.0
 20
0.0
 30
0.0
  9
$UCSORGBACK
 10
0.0
 20
0.0
 30
0.0
  9
$PUCSBASE
  2

  9
$PUCSNAME
  2

  9
$PUCSORG
 10
0.0
 20
0.0
 30
0.0
  9
$PUCSXDIR
 10
1.0
 20
0.0
 30
0.0
  9
$PUCSYDIR
 10
0.0
 20
1.0
 30
0.0
  9
$PUCSORTHOREF
  2

  9
$PUCSORTHOVIEW
 70
     0
  9
$PUCSORGTOP
 10
0.0
 20
0.0
 30
0.0
  9
$PUCSORGBOTTOM
 10
0.0
 20
0.0
 30
0.0
  9
$PUCSORGLEFT
 10
0.0
 20
0.0
 30
0.0
  9
$PUCSORGRIGHT
 10
0.0
 20
0.0
 30
0.0
  9
$PUCSORGFRONT
 10
0.0
 20
0.0
 30
0.0
  9
$PUCSORGBACK
 10
0.0
 20
0.0
 30
0.0
  9
$USERI1
 70
     0
  9
$USERI2
 70
     0
  9
$USERI3
 70
     0
  9
$USERI4
 70
     0
  9
$USERI5
 70
     0
  9
$USERR1
 40
0.0
  9
$USERR2
 40
0.0
  9
$USERR3
 40
0.0
  9
$USERR4
 40
0.0
  9
$USERR5
 40
0.0
  9
$WORLDVIEW
 70
     1
  9
$SHADEDGE
 70
     3
  9
$SHADEDIF
 70
    70
  9
$TILEMODE
 70
     1
  9
$MAXACTVP
 70
    64
  9
$PINSBASE
 10
0.0
 20
0.0
 30
0.0
  9
$PLIMCHECK
 70
     0
  9
$PEXTMIN
 10
1.000000000000000E+20
 20
1.000000000000000E+20
 30
1.000000000000000E+20
  9
$PEXTMAX
 10
-1.000000000000000E+20
 20
-1.000000000000000E+20
 30
-1.000000000000000E+20
  9
$PLIMMIN
 10
0.0
 20
0.0
  9
$PLIMMAX
 10
420.0
 20
297.0
  9
$UNITMODE
 70
     0
  9
$VISRETAIN
 70
     1
  9
$PLINEGEN
 70
     0
  9
$PSLTSCALE
 70
     1
  9
$TREEDEPTH
 70
  3020
  9
$CMLSTYLE
  2
Standard
  9
$CMLJUST
 70
     0
  9
$CMLSCALE
 40
20.0
  9
$PROXYGRAPHICS
 70
     1
  9
$MEASUREMENT
 70
     1
  9
$CELWEIGHT
370
    -1
  9
$ENDCAPS
280
     0
  9
$JOINSTYLE
280
     0
  9
$LWDISPLAY
290
     0
  9
$INSUNITS
 70
     4
  9
$HYPERLINKBASE
  1

  9
$STYLESHEET
  1

  9
$XEDIT
290
     1
  9
$CEPSNTYPE
380
     0
  9
$PSTYLEMODE
290
     1
  9
$FINGERPRINTGUID
  2
{C172F90C-9B4E-401A-A38E-77B1B639870A}
  9
$VERSIONGUID
  2
{FAEB1C32-E019-11D5-929B-00C0DF256EC4}
  9
$EXTNAMES
290
     1
  9
$PSVPSCALE
 40
0.0
  9
$OLESTARTUP
290
     0
  9
$SORTENTS
280
   127
  9
$INDEXCTL
280
     0
  9
$HIDETEXT
280
     1
  9
$XCLIPFRAME
290
     0
  9
$HALOGAP
280
     0
  9
$OBSCOLOR
 70
   257
  9
$OBSLTYPE
280
     0
  9
$INTERSECTIONDISPLAY
280
     0
  9
$INTERSECTIONCOLOR
 70
   257
  9
$DIMASSOC
280
     2
  9
$PROJECTNAME
  1

  0
ENDSEC
  0
SECTION
  2
CLASSES
  0
CLASS
  1
ACDBDICTIONARYWDFLT
  2
AcDbDictionaryWithDefault
  3
ObjectDBX Classes
 90
        0
 91
        4
280
     0
281
     0
  0
CLASS
  1
VISUALSTYLE
  2
AcDbVisualStyle
  3
ObjectDBX Classes
 90
     4095
 91
        4
280
     0
281
     0
  0
CLASS
  1
MATERIAL
  2
AcDbMaterial
  3
ObjectDBX Classes
 90
     1153
 91
        4
280
     0
281
     0
  0
CLASS
  1
SCALE
  2
AcDbScale
  3
ObjectDBX Classes
 90
     1153
 91
        4
280
     0
281
     0
  0
CLASS
  1
TABLESTYLE
  2
AcDbTableStyle
  3
ObjectDBX Classes
 90
     4095
 91
        4
280
     0
281
     0
  0
CLASS
  1
MLEADERSTYLE
  2
AcDbMLeaderStyle
  3
ACDB_MLEADERSTYLE_CLASS
 90
     4095
 91
        4
280
     0
281
     0
  0
CLASS
  1
SUN
  2
AcDbSun
  3
SCENEOE
 90
     1153
 91
        4
280
     0
281
     0
  0
CLASS
  1
DICTIONARYVAR
  2
AcDbDictionaryVar
  3
ObjectDBX Classes
 90
        0
 91
        4
280
     0
281
     0
  0
CLASS
  1
CELLSTYLEMAP
  2
AcDbCellStyleMap
  3
ObjectDBX Classes
 90
     1152
 91
        4
280
     0
281
     0
  0
ENDSEC
  0
SECTION
  2
TABLES
  0
TABLE
  2
VPORT
  5
8
102
{ACAD_XDICTIONARY
360
33F
102
}
330
0
100
AcDbSymbolTable
 70
     1
  0
VPORT
  5
29
330
8
100
AcDbSymbolTableRecord
100
AcDbViewportTableRecord
  2
*Active
 70
     0
 10
0.0
 20
0.0
 11
1.0
 21
1.0
 12
0.0
 22
0.0
 13
0.0
 23
0.0
 14
10.0
 24
10.0
 15
10.0
 25
10.0
 16
0.0
 26
0.0
 36
1.0
 17
0.0
 27
0.0
 37
0.0
 40
980.1
 41
1.414141414141414
 42
50.0
 43
0.0
 44
0.0
 50
0.0
 51
0.0
 71
     0
 72
 10000
 73
     1
 74
     3
 75
     0
 76
     0
 77
     0
 78
     0
281
     0
 65
     1
110
0.0
120
0.0
130
0.0
111
1.0
121
0.0
131
0.0
112
0.0
122
1.0
132
0.0
 79
     0
146
0.0
  0
ENDTAB
  0
TABLE
  2
LTYPE
  5
5
330
0
100
AcDbSymbolTable
 70
     3
  0
LTYPE
  5
14
330
5
100
AcDbSymbolTableRecord
100
AcDbLinetypeTableRecord
  2
ByBlock
 70
     0
  3

 72
    65
 73
     0
 40
0.0
  0
LTYPE
  5
15
330
5
100
AcDbSymbolTableRecord
100
AcDbLinetypeTableRecord
  2
ByLayer
 70
     0
  3

 72
    65
 73
     0
 40
0.0
  0
LTYPE
  5
16
330
5
100
AcDbSymbolTableRecord
100
AcDbLinetypeTableRecord
  2
Continuous
 70
     0
  3
Solid line
 72
    65
 73
     0
 40
0.0
  0
LTYPE
  5
6F
330
5
100
AcDbSymbolTableRecord
100
AcDbLinetypeTableRecord
  2
JWW_CENTER1
 70
     0
  3
-----  --  ----------  --  -----
 72
    65
 73
     4
 40
6.773333333333333
 49
4.233333333333333
 74
     0
 49
-0.8466666666666667
 74
     0
 49
0.8466666666666667
 74
     0
 49
-0.8466666666666667
 74
     0
  0
LTYPE
  5
70
330
5
100
AcDbSymbolTableRecord
100
AcDbLinetypeTableRecord
  2
JWW_DASHED1
 70
     0
  3
-  --  --  --  --  --  --  --  -
 72
    65
 73
     2
 40
1.693333333333333
 49
0.8466666666666667
 74
     0
 49
-0.8466666666666667
 74
     0
  0
ENDTAB
  0
TABLE
  2
LAYER
  5
2
330
0
100
AcDbSymbolTable
 70
     8
  0
LAYER
  5
10
330
2
100
AcDbSymbolTableRecord
100
AcDbLayerTableRecord
  2
0
 70
     0
 62
     7
  6
Continuous
370
    -3
390
F
  0
LAYER
  5
71
330
2
100
AcDbSymbolTableRecord
100
AcDbLayerTableRecord
  2
通り芯
 70
     0
 62
     7
  6
Continuous
370
    -3
390
F
  0
LAYER
  5
72
330
2
100
AcDbSymbolTableRecord
100
AcDbLayerTableRecord
  2
仕上
 70
     0
 62
     7
  6
Continuous
370
    -3
390
F
  0
LAYER
  5
73
330
2
100
AcDbSymbolTableRecord
100
AcDbLayerTableRecord
  2
建具
 70
     0
 62
     7
  6
Continuous
370
    -3
390
F
  0
LAYER
  5
74
330
2
100
AcDbSymbolTableRecord
100
AcDbLayerTableRecord
  2
その他
 70
     0
 62
     7
  6
Continuous
370
    -3
390
F
  0
LAYER
  5
75
330
2
100
AcDbSymbolTableRecord
100
AcDbLayerTableRecord
  2
0-E
 70
     0
 62
     7
  6
Continuous
370
    -3
390
F
  0
LAYER
  5
76
330
2
100
AcDbSymbolTableRecord
100
AcDbLayerTableRecord
  2
躯体
 70
     0
 62
     7
  6
Continuous
370
    -3
390
F
  0
LAYER
  5
77
330
2
100
AcDbSymbolTableRecord
100
AcDbLayerTableRecord
  2
F-4ﾚｲﾔ
 70
     0
 62
     7
  6
Continuous
370
    -3
390
F
  0
ENDTAB
  0
TABLE
  2
STYLE
  5
3
330
0
100
AcDbSymbolTable
 70
     2
  0
STYLE
  5
11
330
3
100
AcDbSymbolTableRecord
100
AcDbTextStyleTableRecord
  2
Standard
 70
     0
 40
0.0
 41
1.0
 50
0.0
 71
     0
 42
2.5
  3
txt
  4

  0
STYLE
  5
6E
330
3
100
AcDbSymbolTableRecord
100
AcDbTextStyleTableRecord
  2
ＭＳ ゴシック
 70
     0
 40
1.0
 41
1.0
 50
0.0
 71
     0
 42
2.5
  3

  4

1001
ACAD
1000
MS Gothic
1071
    32817
  0
ENDTAB
  0
TABLE
  2
VIEW
  5
6
330
0
100
AcDbSymbolTable
 70
     0
  0
ENDTAB
  0
TABLE
  2
UCS
  5
7
330
0
100
AcDbSymbolTable
 70
     0
  0
ENDTAB
  0
TABLE
  2
APPID
  5
9
330
0
100
AcDbSymbolTable
 70
     2
  0
APPID
  5
12
330
9
100
AcDbSymbolTableRecord
100
AcDbRegAppTableRecord
  2
ACAD
 70
     0
  0
APPID
  5
37E
330
9
100
AcDbSymbolTableRecord
100
AcDbRegAppTableRecord
  2
ACAD_MLEADERVER
 70
     0
  0
ENDTAB
  0
TABLE
  2
DIMSTYLE
  5
A
330
0
100
AcDbSymbolTable
 70
     1
100
AcDbDimStyleTable
  0
DIMSTYLE
105
27
330
A
100
AcDbSymbolTableRecord
100
AcDbDimStyleTableRecord
  2
ISO-25
 70
     0
 41
2.5
 42
0.625
 43
3.75
 44
1.25
 73
     0
 74
     0
 77
     1
 78
     8
140
2.5
141
2.5
143
0.03937007874016
147
0.625
171
     3
172
     1
178
     0
271
     2
272
     2
274
     3
278
    44
283
     0
284
     8
340
11
  0
ENDTAB
  0
TABLE
  2
BLOCK_RECORD
  5
1
330
0
100
AcDbSymbolTable
 70
     1
  0
BLOCK_RECORD
  5
1F
330
1
100
AcDbSymbolTableRecord
100
AcDbBlockTableRecord
  2
*Model_Space
340
22
  0
BLOCK_RECORD
  5
1B
330
1
100
AcDbSymbolTableRecord
100
AcDbBlockTableRecord
  2
*Paper_Space
340
1E
  0
BLOCK_RECORD
  5
23
330
1
100
AcDbSymbolTableRecord
100
AcDbBlockTableRecord
  2
*Paper_Space0
340
26
  0
ENDTAB
  0
ENDSEC
  0
SECTION
  2
BLOCKS
  0
BLOCK
  5
20
330
1F
100
AcDbEntity
  8
0
100
AcDbBlockBegin
  2
*Model_Space
 70
     0
 10
0.0
 20
0.0
 30
0.0
  3
*Model_Space
  1

  0
ENDBLK
  5
21
330
1F
100
AcDbEntity
  8
0
100
AcDbBlockEnd
  0
BLOCK
  5
1C
330
1B
100
AcDbEntity
 67
     1
  8
0
100
AcDbBlockBegin
  2
*Paper_Space
 70
     0
 10
0.0
 20
0.0
 30
0.0
  3
*Paper_Space
  1

  0
ENDBLK
  5
1D
330
1B
100
AcDbEntity
 67
     1
  8
0
100
AcDbBlockEnd
  0
BLOCK
  5
24
330
23
100
AcDbEntity
  8
0
100
AcDbBlockBegin
  2
*Paper_Space0
 70
     0
 10
0.0
 20
0.0
 30
0.0
  3
*Paper_Space0
  1

  0
ENDBLK
  5
25
330
23
100
AcDbEntity
  8
0
100
AcDbBlockEnd
  0
ENDSEC
  0
SECTION
  2
ENTITIES
  0
LINE
  5
78
330
1F
100
AcDbEntity
  8
通り芯
  6
Continuous
 62
     3
370
     9
100
AcDbLine
 10
-7.340296978628118
 20
-120.4004182014083
 30
0.0
 11
-74.34027058504702
 21
-120.4004182014083
 31
0.0
  0
LINE
  5
79
330
1F
100
AcDbEntity
  8
通り芯
  6
JWW_CENTER1
 62
     3
370
     9
100
AcDbLine
 10
37.65970302137188
 20
271.0748551371158
 30
0.0
 11
37.65970302137188
 21
286.2836448594553
 31
0.0
  0
LINE
  5
7A
330
1F
100
AcDbEntity
  8
通り芯
  6
JWW_CENTER1
 62
     3
370
     9
100
AcDbLine
 10
-33.50861709317624
 20
356.9065828609333
 30
0.0
 11
-48.71740681551577
 21
356.9065828609333
 31
0.0
  0
LINE
  5
7B
330
1F
100
AcDbEntity
  8
通り芯
  6
JWW_CENTER1
 62
     3
370
     9
100
AcDbLine
 10
-119.3403077010205
 20
285.7382627463852
 30
0.0
 11
-119.3403077010205
 21
270.5294730240457
 31
0.0
  0
LINE
  5
7C
330
1F
100
AcDbEntity
  8
通り芯
  6
JWW_CENTER1
 62
     3
370
     9
100
AcDbLine
 10
-48.1719504704989
 20
199.9065350225677
 30
0.0
 11
-32.96316074815937
 21
199.9065350225677
 31
0.0
  0
LINE
  5
7D
330
1F
100
AcDbEntity
  8
仕上
  6
Continuous
 62
     6
370
     5
100
AcDbLine
 10
-46.58461163630335
 20
330.3514400716598
 30
0.0
 11
-47.21858957786796
 21
333.538811402952
 31
0.0
  0
LINE
  5
7E
330
1F
100
AcDbEntity
  8
仕上
  6
Continuous
 62
     6
370
     5
100
AcDbLine
 10
-35.09599304334515
 20
330.3514400716598
 30
0.0
 11
-34.46194086983374
 21
333.538811402952
 31
0.0
  0
LINE
  5
7F
330
1F
100
AcDbEntity
  8
仕上
  6
Continuous
 62
     6
370
     5
100
AcDbLine
 10
-66.02577292087898
 20
324.1990963216598
 30
0.0
 11
-67.83127944669187
 21
326.9012134167822
 31
0.0
  0
LINE
  5
80
330
1F
100
AcDbEntity
  8
仕上
  6
Continuous
 62
     6
370
     5
100
AcDbLine
 10
-55.41168089306015
 20
328.595631834223
 30
0.0
 11
-56.04565883462476
 21
331.7830031655153
 31
0.0
  0
LINE
  5
81
330
1F
100
AcDbEntity
  8
仕上
  6
Continuous
 62
     6
370
     5
100
AcDbLine
 10
-81.63270568982952
 20
311.0752592888261
 30
0.0
 11
-84.33482278495202
 21
312.8807286986656
 31
0.0
  0
LINE
  5
82
330
1F
100
AcDbEntity
  8
仕上
  6
Continuous
 62
     6
370
     5
100
AcDbLine
 10
-73.50902124488655
 20
319.1989066177957
 30
0.0
 11
-75.31452777069944
 21
321.901097944865
 31
0.0
  0
LINE
  5
83
330
1F
100
AcDbEntity
  8
仕上
  6
Continuous
 62
     6
370
     5
100
AcDbLine
 10
-91.02935667431014
 20
292.977956052973
 30
0.0
 11
-94.21669088962896
 21
293.6118968785643
 31
0.0
  0
LINE
  5
84
330
1F
100
AcDbEntity
  8
仕上
  6
Continuous
 62
     6
370
     5
100
AcDbLine
 10
-86.63285827772015
 20
303.5920851967653
 30
0.0
 11
-89.33497537284264
 21
305.3975546066048
 31
0.0
  0
LINE
  5
85
330
1F
100
AcDbEntity
  8
仕上
  6
Continuous
 62
     6
370
     5
100
AcDbLine
 10
-92.78516491174678
 20
272.6622310872848
 30
0.0
 11
-95.97253624303896
 21
272.0282160297467
 31
0.0
  0
LINE
  5
86
330
1F
100
AcDbEntity
  8
仕上
  6
Continuous
 62
     6
370
     5
100
AcDbLine
 10
-92.78516491174678
 20
284.1508125642695
 30
0.0
 11
-95.97253624303896
 21
284.7849018537543
 31
0.0
  0
LINE
  5
87
330
1F
100
AcDbEntity
  8
仕上
  6
Continuous
 62
     6
370
     5
100
AcDbLine
 10
-86.63285827772015
 20
253.2210326867358
 30
0.0
 11
-89.33497537284264
 21
251.4155632768963
 31
0.0
  0
LINE
  5
88
330
1F
100
AcDbEntity
  8
仕上
  6
Continuous
 62
     6
370
     5
100
AcDbLine
 10
-91.02935667431014
 20
263.835161830528
 30
0.0
 11
-94.21672800560232
 21
263.20114677299
 31
0.0
  0
LINE
  5
89
330
1F
100
AcDbEntity
  8
仕上
  6
Continuous
 62
     6
370
     5
100
AcDbLine
 10
-73.50902124488655
 20
237.6141370337585
 30
0.0
 11
-75.31452777069944
 21
234.9120199386361
 31
0.0
  0
LINE
  5
8A
330
1F
100
AcDbEntity
  8
仕上
  6
Continuous
 62
     6
370
     5
100
AcDbLine
 10
-81.63270568982952
 20
245.7377843627281
 30
0.0
 11
-84.33485990092538
 21
243.9323149528886
 31
0.0
  0
LINE
  5
8B
330
1F
100
AcDbEntity
  8
仕上
  6
Continuous
 62
     6
370
     5
100
AcDbLine
 10
-55.41168089306015
 20
228.217486049278
 30
0.0
 11
-56.04565883462476
 21
225.0301147179858
 31
0.0
  0
LINE
  5
8C
330
1F
100
AcDbEntity
  8
仕上
  6
Continuous
 62
     6
370
     5
100
AcDbLine
 10
-66.02577292087898
 20
232.6140215618413
 30
0.0
 11
-67.83131656266531
 21
229.911830234772
 31
0.0
  0
LINE
  5
8D
330
1F
100
AcDbEntity
  8
仕上
  6
Continuous
 62
     6
370
     5
100
AcDbLine
 10
-35.09599304334515
 20
226.4616778118413
 30
0.0
 11
-34.46197798580718
 21
223.2743064805491
 31
0.0
  0
LINE
  5
8E
330
1F
100
AcDbEntity
  8
仕上
  6
Continuous
 62
     6
370
     5
100
AcDbLine
 10
-46.58461163630335
 20
226.4616778118413
 30
0.0
 11
-47.2186266938414
 21
223.2743064805491
 31
0.0
  0
LINE
  5
8F
330
1F
100
AcDbEntity
  8
仕上
  6
Continuous
 62
     6
370
     5
100
AcDbLine
 10
-15.65479464279616
 20
232.6140215618413
 30
0.0
 11
-13.84928811698327
 21
229.911830234772
 31
0.0
  0
LINE
  5
90
330
1F
100
AcDbEntity
  8
仕上
  6
Continuous
 62
     6
370
     5
100
AcDbLine
 10
-26.26892378658843
 20
228.217486049278
 30
0.0
 11
-25.63490872905038
 21
225.0301147179858
 31
0.0
  0
LINE
  5
91
330
1F
100
AcDbEntity
  8
仕上
  6
Continuous
 62
     6
370
     5
100
AcDbLine
 10
-0.0478247578721778
 20
245.7377843627281
 30
0.0
 11
2.654218105303443
 21
243.9323149528886
 31
0.0
  0
LINE
  5
92
330
1F
100
AcDbEntity
  8
仕上
  6
Continuous
 62
     6
370
     5
100
AcDbLine
 10
-8.171546318788586
 20
237.6141370337585
 30
0.0
 11
-6.366076908949054
 21
234.9120199386361
 31
0.0
  0
LINE
  5
93
330
1F
100
AcDbEntity
  8
仕上
  6
Continuous
 62
     6
370
     5
100
AcDbLine
 10
9.34875199466157
 20
263.835161830528
 30
0.0
 11
12.53612332595384
 21
263.20114677299
 31
0.0
  0
LINE
  5
94
330
1F
100
AcDbEntity
  8
仕上
  6
Continuous
 62
     6
370
     5
100
AcDbLine
 10
4.952290714045006
 20
253.2210326867358
 30
0.0
 11
7.654407809167509
 21
251.4154890449495
 31
0.0
  0
LINE
  5
95
330
1F
100
AcDbEntity
  8
仕上
  6
Continuous
 62
     6
370
     5
100
AcDbLine
 10
11.10463446404501
 20
284.1508125642695
 30
0.0
 11
14.29200579533727
 21
284.7849018537543
 31
0.0
  0
LINE
  5
96
330
1F
100
AcDbEntity
  8
仕上
  6
Continuous
 62
     6
370
     5
100
AcDbLine
 10
11.10463446404501
 20
272.6622310872848
 30
0.0
 11
14.29200579533727
 21
272.0282160297467
 31
0.0
  0
LINE
  5
97
330
1F
100
AcDbEntity
  8
仕上
  6
Continuous
 62
     6
370
     5
100
AcDbLine
 10
4.952290714045006
 20
303.5920851967653
 30
0.0
 11
7.654407809167509
 21
305.3975546066048
 31
0.0
  0
LINE
  5
98
330
1F
100
AcDbEntity
  8
仕上
  6
Continuous
 62
     6
370
     5
100
AcDbLine
 10
9.34875199466157
 20
292.977956052973
 30
0.0
 11
12.53612332595384
 21
293.6118968785643
 31
0.0
  0
LINE
  5
99
330
1F
100
AcDbEntity
  8
仕上
  6
Continuous
 62
     6
370
     5
100
AcDbLine
 10
-8.171546318788586
 20
319.1989066177957
 30
0.0
 11
-6.366076908949054
 21
321.901097944865
 31
0.0
  0
LINE
  5
9A
330
1F
100
AcDbEntity
  8
仕上
  6
Continuous
 62
     6
370
     5
100
AcDbLine
 10
-0.0478247578721778
 20
311.0752592888261
 30
0.0
 11
2.65429233725024
 21
312.8807286986656
 31
0.0
  0
LINE
  5
9B
330
1F
100
AcDbEntity
  8
仕上
  6
Continuous
 62
     6
370
     5
100
AcDbLine
 10
-26.26892378658843
 20
328.595631834223
 30
0.0
 11
-25.63490872905038
 21
331.7830031655153
 31
0.0
  0
LINE
  5
9C
330
1F
100
AcDbEntity
  8
仕上
  6
Continuous
 62
     6
370
     5
100
AcDbLine
 10
-15.65479464279616
 20
324.1990963216598
 30
0.0
 11
-13.84925100100983
 21
326.9012134167822
 31
0.0
  0
LINE
  5
9D
330
1F
100
AcDbEntity
  8
建具
  6
Continuous
 62
     4
370
     9
100
AcDbLine
 10
-36.84029532902929
 20
279.1565614161487
 30
0.0
 11
-36.84029532902929
 21
277.6564822354055
 31
0.0
  0
LINE
  5
9E
330
1F
100
AcDbEntity
  8
建具
  6
Continuous
 62
     4
370
     9
100
AcDbLine
 10
-44.84027223464585
 20
279.1565614161487
 30
0.0
 11
-44.84027223464585
 21
277.6564822354055
 31
0.0
  0
LINE
  5
9F
330
1F
100
AcDbEntity
  8
建具
  6
Continuous
 62
     4
370
     9
100
AcDbLine
 10
-41.59028625623577
 20
282.4065845105322
 30
0.0
 11
-40.09028130743937
 21
282.4065845105322
 31
0.0
  0
LINE
  5
A0
330
1F
100
AcDbEntity
  8
建具
  6
Continuous
 62
     4
370
     9
100
AcDbLine
 10
-41.59028625623577
 20
274.4065333729689
 30
0.0
 11
-40.09028130743937
 21
274.4065333729689
 31
0.0
  0
LINE
  5
A1
330
1F
100
AcDbEntity
  8
建具
  6
Continuous
 62
     4
370
     9
100
AcDbLine
 10
-37.59029780342749
 20
277.6564822354055
 30
0.0
 11
-36.84029532902929
 21
277.6564822354055
 31
0.0
  0
LINE
  5
A2
330
1F
100
AcDbEntity
  8
建具
  6
Continuous
 62
     4
370
     9
100
AcDbLine
 10
-40.09028130743937
 20
275.1564987313936
 30
0.0
 11
-40.09028130743937
 21
274.4065333729689
 31
0.0
  0
LINE
  5
A3
330
1F
100
AcDbEntity
  8
建具
  6
Continuous
 62
     4
370
     9
100
AcDbLine
 10
-41.59028625623577
 20
275.1564987313936
 30
0.0
 11
-41.59028625623577
 21
274.4065333729689
 31
0.0
  0
LINE
  5
A4
330
1F
100
AcDbEntity
  8
建具
  6
Continuous
 62
     4
370
     9
100
AcDbLine
 10
-44.09026976024765
 20
277.6564822354055
 30
0.0
 11
-44.84027223464585
 21
277.6564822354055
 31
0.0
  0
LINE
  5
A5
330
1F
100
AcDbEntity
  8
建具
  6
Continuous
 62
     4
370
     9
100
AcDbLine
 10
-44.09026976024765
 20
279.1565614161487
 30
0.0
 11
-44.84027223464585
 21
279.1565614161487
 31
0.0
  0
LINE
  5
A6
330
1F
100
AcDbEntity
  8
建具
  6
Continuous
 62
     4
370
     9
100
AcDbLine
 10
-41.59028625623577
 20
281.6565449201605
 30
0.0
 11
-41.59028625623577
 21
282.4065845105322
 31
0.0
  0
LINE
  5
A7
330
1F
100
AcDbEntity
  8
建具
  6
Continuous
 62
     4
370
     9
100
AcDbLine
 10
-40.09028130743937
 20
281.6565449201605
 30
0.0
 11
-40.09028130743937
 21
282.4065845105322
 31
0.0
  0
LINE
  5
A8
330
1F
100
AcDbEntity
  8
建具
  6
Continuous
 62
     4
370
     9
100
AcDbLine
 10
-37.59029780342749
 20
279.1565614161487
 30
0.0
 11
-36.84029532902929
 21
279.1565614161487
 31
0.0
  0
LINE
  5
A9
330
1F
100
AcDbEntity
  8
通り芯
  6
Continuous
 62
     3
370
     9
100
AcDbLine
 10
34.90970632056954
 20
-31.40039675662364
 30
0.0
 11
34.90970632056954
 21
-23.40038273503374
 31
0.0
  0
LINE
  5
AA
330
1F
100
AcDbEntity
  8
通り芯
  6
Continuous
 62
     3
370
     9
100
AcDbLine
 10
40.40969972217422
 20
-31.40039675662364
 30
0.0
 11
40.40969972217422
 21
-23.40038273503374
 31
0.0
  0
LINE
  5
AB
330
1F
100
AcDbEntity
  8
通り芯
  6
Continuous
 62
     3
370
     9
100
AcDbLine
 10
41.98616357616493
 20
-23.40038273503374
 30
0.0
 11
40.40969972217422
 21
-23.40038273503374
 31
0.0
  0
LINE
  5
AC
330
1F
100
AcDbEntity
  8
通り芯
  6
Continuous
 62
     3
370
     9
100
AcDbLine
 10
33.33324246657884
 20
-23.40038273503374
 30
0.0
 11
34.90970632056954
 21
-23.40038273503374
 31
0.0
  0
LINE
  5
AD
330
1F
100
AcDbEntity
  8
通り芯
  6
Continuous
 62
     3
370
     9
100
AcDbLine
 10
42.84005366009657
 20
-20.81822446592473
 30
0.0
 11
42.47936063064134
 21
-22.98260533849655
 31
0.0
  0
LINE
  5
AE
330
1F
100
AcDbEntity
  8
通り芯
  6
Continuous
 62
     3
370
     9
100
AcDbLine
 10
32.47935238264719
 20
-20.81822446592473
 30
0.0
 11
32.84011964404922
 21
-22.98260533849655
 31
0.0
  0
LINE
  5
AF
330
1F
100
AcDbEntity
  8
通り芯
  6
Continuous
 62
     3
370
     9
100
AcDbLine
 10
32.47838736733891
 20
-30.62923817739014
 30
0.0
 11
32.39153598959399
 21
-30.2596001983466
 31
0.0
  0
LINE
  5
B0
330
1F
100
AcDbEntity
  8
通り芯
  6
Continuous
 62
     3
370
     9
100
AcDbLine
 10
-2.550257916128118
 20
-80.16399357487748
 30
0.0
 11
-7.340296978628118
 21
-120.4004182014083
 31
0.0
  0
LINE
  5
B1
330
1F
100
AcDbEntity
  8
通り芯
  6
Continuous
 62
     3
370
     9
100
AcDbLine
 10
10.80911708387188
 20
-36.76859133670176
 30
0.0
 11
26.49766787831868
 21
-27.71080918932002
 31
0.0
  0
LINE
  5
B2
330
1F
100
AcDbEntity
  8
通り芯
  6
Continuous
 62
     3
370
     9
100
AcDbLine
 10
-92.48968464754701
 20
-36.76859133670176
 30
0.0
 11
-108.1782354419938
 21
-27.71080918932002
 31
0.0
  0
LINE
  5
B3
330
1F
100
AcDbEntity
  8
通り芯
  6
Continuous
 62
     3
370
     9
100
AcDbLine
 10
-79.13030964754702
 20
-80.16399357487748
 30
0.0
 11
-74.34027058504702
 21
-120.4004182014083
 31
0.0
  0
LINE
  5
B4
330
1F
100
AcDbEntity
  8
通り芯
  6
Continuous
 62
     3
370
     9
100
AcDbLine
 10
-82.63450292774132
 20
-78.4004280990012
 30
0.0
 11
-81.11631115198117
 21
-78.4004280990012
 31
0.0
  0
LINE
  5
B5
330
1F
100
AcDbEntity
  8
通り芯
  6
Continuous
 62
     3
370
     9
100
AcDbLine
 10
-84.60944387210358
 20
-76.71599387840362
 30
0.0
 11
-90.5397598692531
 21
-39.60161646998936
 31
0.0
  0
LINE
  5
B6
330
1F
100
AcDbEntity
  8
通り芯
  6
Continuous
 62
     3
370
     9
100
AcDbLine
 10
0.953935364066183
 20
-78.4004280990012
 30
0.0
 11
-0.5642564116939752
 21
-78.4004280990012
 31
0.0
  0
LINE
  5
B7
330
1F
100
AcDbEntity
  8
通り芯
  6
Continuous
 62
     3
370
     9
100
AcDbLine
 10
2.928876308428443
 20
-76.71599387840362
 30
0.0
 11
8.859192305577977
 21
-39.60161646998936
 31
0.0
  0
LINE
  5
B8
330
1F
100
AcDbEntity
  8
通り芯
  6
Continuous
 62
     3
370
     9
100
AcDbLine
 10
-6.102293686028901
 20
-76.1640051220692
 30
0.0
 11
-11.36853068719023
 21
-120.4004182014083
 31
0.0
  0
LINE
  5
B9
330
1F
100
AcDbEntity
  8
通り芯
  6
Continuous
 62
     3
370
     9
100
AcDbLine
 10
-75.57827387764624
 20
-76.1640051220692
 30
0.0
 11
-70.312036876485
 21
-120.4004182014083
 31
0.0
  0
LINE
  5
BA
330
1F
100
AcDbEntity
  8
通り芯
  6
Continuous
 62
     3
370
     9
100
AcDbLine
 10
-0.4827497341179594
 20
-72.71600542559534
 30
0.0
 11
5.510366490016338
 21
-35.2090894825527
 31
0.0
  0
LINE
  5
BB
330
1F
100
AcDbEntity
  8
通り芯
  6
JWW_DASHED1
 62
     3
370
     9
100
AcDbLine
 10
12.08241766717001
 20
-31.41472352235424
 30
0.0
 11
5.510366490016338
 21
-35.2090894825527
 31
0.0
  0
LINE
  5
BC
330
1F
100
AcDbEntity
  8
通り芯
  6
Continuous
 62
     3
370
     9
100
AcDbLine
 10
20.10703957912102
 20
-31.40039675662364
 30
0.0
 11
35.6097135788043
 21
-31.40039675662364
 31
0.0
  0
LINE
  5
BD
330
1F
100
AcDbEntity
  8
通り芯
  6
Continuous
 62
     3
370
     9
100
AcDbLine
 10
-114.1589920469875
 20
-30.62923817739014
 30
0.0
 11
-114.0721035532691
 21
-30.2596001983466
 31
0.0
  0
LINE
  5
BE
330
1F
100
AcDbEntity
  8
通り芯
  6
Continuous
 62
     3
370
     9
100
AcDbLine
 10
40.91388310477564
 20
-31.40039675662364
 30
0.0
 11
39.70969246393946
 21
-31.40039675662364
 31
0.0
  0
LINE
  5
BF
330
1F
100
AcDbEntity
  8
通り芯
  6
Continuous
 62
     3
370
     9
100
AcDbLine
 10
42.89557915629587
 20
-29.67064393251049
 30
0.0
 11
44.15974921013876
 21
-20.4004099534142
 31
0.0
  0
LINE
  5
C0
330
1F
100
AcDbEntity
  8
通り芯
  6
Continuous
 62
     3
370
     9
100
AcDbLine
 10
-124.576146719971
 20
-29.67064393251049
 30
0.0
 11
-125.8402796578405
 21
-20.4004099534142
 31
0.0
  0
LINE
  5
C1
330
1F
100
AcDbEntity
  8
通り芯
  6
Continuous
 62
     3
370
     9
100
AcDbLine
 10
44.15974921013876
 20
-20.4004099534142
 30
0.0
 11
31.15973106455181
 21
-20.4004099534142
 31
0.0
  0
LINE
  5
C2
330
1F
100
AcDbEntity
  8
通り芯
  6
Continuous
 62
     3
370
     9
100
AcDbLine
 10
12.08241766717001
 20
-31.41472352235424
 30
0.0
 11
31.15973106455181
 21
-20.4004099534142
 31
0.0
  0
LINE
  5
C3
330
1F
100
AcDbEntity
  8
通り芯
  6
Continuous
 62
     3
370
     9
100
AcDbLine
 10
-112.8402986282269
 20
-20.4004099534142
 30
0.0
 11
-125.8402796578405
 21
-20.4004099534142
 31
0.0
  0
LINE
  5
C4
330
1F
100
AcDbEntity
  8
通り芯
  6
Continuous
 62
     3
370
     9
100
AcDbLine
 10
-77.56427538208038
 20
-74.40040253021951
 30
0.0
 11
-79.22287688519484
 21
-74.40040253021951
 31
0.0
  0
LINE
  5
C5
330
1F
100
AcDbEntity
  8
通り芯
  6
Continuous
 62
     3
370
     9
100
AcDbLine
 10
-2.457690678480304
 20
-74.40040253021951
 30
0.0
 11
-4.116329297568114
 21
-74.40040253021951
 31
0.0
  0
LINE
  5
C6
330
1F
100
AcDbEntity
  8
通り芯
  6
JWW_CENTER1
 62
     3
370
     9
100
AcDbLine
 10
-40.84028378183757
 20
20.04631377837419
 30
0.0
 11
-40.84028378183757
 21
-130.2960934481883
 31
0.0
  0
LINE
  5
C7
330
1F
100
AcDbEntity
  8
通り芯
  6
Continuous
 62
     3
370
     9
100
AcDbLine
 10
-115.98220289211
 20
282.442067381098
 30
0.0
 11
-117.9411839679123
 21
283.2068048969342
 31
0.0
  0
LINE
  5
C8
330
1F
100
AcDbEntity
  8
通り芯
  6
Continuous
 62
     3
370
     9
100
AcDbLine
 10
-120.4412045878976
 20
283.283783425756
 30
0.0
 11
-122.4822490808769
 21
282.6125781628759
 31
0.0
  0
LINE
  5
C9
330
1F
100
AcDbEntity
  8
通り芯
  6
Continuous
 62
     3
370
     9
100
AcDbLine
 10
-115.9822400080834
 20
274.3709762704561
 30
0.0
 11
-117.9412581998591
 21
273.60623875462
 31
0.0
  0
LINE
  5
CA
330
1F
100
AcDbEntity
  8
通り芯
  6
Continuous
 62
     3
370
     9
100
AcDbLine
 10
-120.4412045878976
 20
273.5291859938515
 30
0.0
 11
-122.4822861968502
 21
274.2005397206251
 31
0.0
  0
LINE
  5
CB
330
1F
100
AcDbEntity
  8
通り芯
  6
Continuous
 62
     3
370
     9
100
AcDbLine
 10
-36.03988936276031
 20
201.305213363995
 30
0.0
 11
-36.80458976262304
 21
203.2644913675845
 31
0.0
  0
LINE
  5
CC
330
1F
100
AcDbEntity
  8
通り芯
  6
Continuous
 62
     3
370
     9
100
AcDbLine
 10
-35.96298506588531
 20
198.805675251664
 30
0.0
 11
-36.63437590863234
 21
196.7644451788177
 31
0.0
  0
LINE
  5
CD
330
1F
100
AcDbEntity
  8
通り芯
  6
Continuous
 62
     3
370
     9
100
AcDbLine
 10
-45.64067820091483
 20
201.305213363995
 30
0.0
 11
-44.8759778010521
 21
203.2644913675845
 31
0.0
  0
LINE
  5
CE
330
1F
100
AcDbEntity
  8
通り芯
  6
Continuous
 62
     3
370
     9
100
AcDbLine
 10
-45.71758249778983
 20
198.805675251664
 30
0.0
 11
-45.0461916550428
 21
196.7644451788177
 31
0.0
  0
LINE
  5
CF
330
1F
100
AcDbEntity
  8
通り芯
  6
Continuous
 62
     3
370
     9
100
AcDbLine
 10
-35.96298506588531
 20
358.0075168637839
 30
0.0
 11
-36.63396763292499
 21
360.0481530810558
 31
0.0
  0
LINE
  5
D0
330
1F
100
AcDbEntity
  8
通り芯
  6
Continuous
 62
     3
370
     9
100
AcDbLine
 10
-36.04014917457405
 20
355.5070879680914
 30
0.0
 11
-36.80503515430382
 21
353.548106892289
 31
0.0
  0
LINE
  5
D1
330
1F
100
AcDbEntity
  8
通り芯
  6
Continuous
 62
     3
370
     9
100
AcDbLine
 10
-45.71754538181648
 20
358.0075168637839
 30
0.0
 11
-45.04656281477679
 21
360.0481530810558
 31
0.0
  0
LINE
  5
D2
330
1F
100
AcDbEntity
  8
通り芯
  6
Continuous
 62
     3
370
     9
100
AcDbLine
 10
-45.64041838910109
 20
355.5070879680914
 30
0.0
 11
-44.87553240937132
 21
353.548106892289
 31
0.0
  0
LINE
  5
D3
330
1F
100
AcDbEntity
  8
通り芯
  6
Continuous
 62
     3
370
     9
100
AcDbLine
 10
40.80142170538798
 20
282.6127266267695
 30
0.0
 11
38.76063702422243
 21
283.2838576577028
 31
0.0
  0
LINE
  5
D4
330
1F
100
AcDbEntity
  8
通り芯
  6
Continuous
 62
     3
370
     9
100
AcDbLine
 10
36.26065352021055
 20
283.2068048969342
 30
0.0
 11
34.30137551662102
 21
282.4419189172045
 31
0.0
  0
LINE
  5
D5
330
1F
100
AcDbEntity
  8
通り芯
  6
Continuous
 62
     3
370
     9
100
AcDbLine
 10
34.30144974856782
 20
274.3711247343498
 30
0.0
 11
36.26065352021055
 21
273.60623875462
 31
0.0
  0
LINE
  5
D6
330
1F
100
AcDbEntity
  8
通り芯
  6
Continuous
 62
     3
370
     9
100
AcDbLine
 10
38.76063702422243
 20
273.5292602257983
 30
0.0
 11
40.80149593733469
 21
274.2003912567315
 31
0.0
  0
LINE
  5
D7
330
1F
100
AcDbEntity
  8
仕上
  6
Continuous
 62
     6
370
     5
100
AcDbLine
 10
1.318636918648053
 20
270.7336108777197
 30
0.0
 11
-21.91002387104788
 21
276.9576626883194
 31
0.0
  0
LINE
  5
D8
330
1F
100
AcDbEntity
  8
仕上
  6
Continuous
 62
     6
370
     5
100
AcDbLine
 10
1.318636918648053
 20
286.0795070057814
 30
0.0
 11
-21.91002387104788
 21
279.8553809632349
 31
0.0
  0
LINE
  5
D9
330
1F
100
AcDbEntity
  8
仕上
  6
Continuous
 62
     6
370
     5
100
AcDbLine
 10
-0.493142206668665
 20
292.8409981111445
 30
0.0
 11
-23.7217287644178
 21
286.616872068598
 31
0.0
  0
LINE
  5
DA
330
1F
100
AcDbEntity
  8
仕上
  6
Continuous
 62
     6
370
     5
100
AcDbLine
 10
-8.166090270699442
 20
306.1309662408954
 30
0.0
 11
-25.17062501784898
 21
289.1264314937458
 31
0.0
  0
LINE
  5
DB
330
1F
100
AcDbEntity
  8
仕上
  6
Continuous
 62
     6
370
     5
100
AcDbLine
 10
-13.11583936671929
 20
311.0807524528886
 30
0.0
 11
-30.12037411386882
 21
294.0762177057392
 31
0.0
  0
LINE
  5
DC
330
1F
100
AcDbEntity
  8
仕上
  6
Continuous
 62
     6
370
     5
100
AcDbLine
 10
-26.40584461244359
 20
318.753663400946
 30
0.0
 11
-32.62993353901663
 21
295.5250768431969
 31
0.0
  0
LINE
  5
DD
330
1F
100
AcDbEntity
  8
仕上
  6
Continuous
 62
     6
370
     5
100
AcDbLine
 10
-33.16729860183335
 20
320.5654425262628
 30
0.0
 11
-39.39142464437984
 21
297.3368559685136
 31
0.0
  0
LINE
  5
DE
330
1F
100
AcDbEntity
  8
仕上
  6
Continuous
 62
     6
370
     5
100
AcDbLine
 10
-48.51326896184179
 20
320.5654425262628
 30
0.0
 11
-42.28918003526874
 21
297.3368559685136
 31
0.0
  0
LINE
  5
DF
330
1F
100
AcDbEntity
  8
仕上
  6
Continuous
 62
     6
370
     5
100
AcDbLine
 10
-55.27472295123155
 20
318.753663400946
 30
0.0
 11
-49.05063402465851
 21
295.5250768431969
 31
0.0
  0
LINE
  5
E0
330
1F
100
AcDbEntity
  8
仕上
  6
Continuous
 62
     6
370
     5
100
AcDbLine
 10
-68.56472819695585
 20
311.0807524528886
 30
0.0
 11
-51.56019344980632
 21
294.0762177057392
 31
0.0
  0
LINE
  5
E1
330
1F
100
AcDbEntity
  8
仕上
  6
Continuous
 62
     6
370
     5
100
AcDbLine
 10
-73.5144772929757
 20
306.1309662408954
 30
0.0
 11
-56.5099796617996
 21
289.1264314937458
 31
0.0
  0
LINE
  5
E2
330
1F
100
AcDbEntity
  8
仕上
  6
Continuous
 62
     6
370
     5
100
AcDbLine
 10
-81.18746247297992
 20
292.8409981111445
 30
0.0
 11
-57.95883879925734
 21
286.616872068598
 31
0.0
  0
LINE
  5
E3
330
1F
100
AcDbEntity
  8
仕上
  6
Continuous
 62
     6
370
     5
100
AcDbLine
 10
-82.9992044823232
 20
286.0795070057814
 30
0.0
 11
-59.7705808086007
 21
279.8553809632349
 31
0.0
  0
LINE
  5
E4
330
1F
100
AcDbEntity
  8
仕上
  6
Continuous
 62
     6
370
     5
100
AcDbLine
 10
-82.9992044823232
 20
270.7336108777197
 30
0.0
 11
-59.7705808086007
 21
276.9576626883194
 31
0.0
  0
LINE
  5
E5
330
1F
100
AcDbEntity
  8
仕上
  6
Continuous
 62
     6
370
     5
100
AcDbLine
 10
-81.18746247297992
 20
263.9721197723565
 30
0.0
 11
-57.95883879925734
 21
270.1961715829561
 31
0.0
  0
LINE
  5
E6
330
1F
100
AcDbEntity
  8
仕上
  6
Continuous
 62
     6
370
     5
100
AcDbLine
 10
-73.5144772929757
 20
250.6820774106589
 30
0.0
 11
-56.5099796617996
 21
267.6866863897552
 31
0.0
  0
LINE
  5
E7
330
1F
100
AcDbEntity
  8
仕上
  6
Continuous
 62
     6
370
     5
100
AcDbLine
 10
-68.56472819695585
 20
245.7323654306124
 30
0.0
 11
-51.56019344980632
 21
262.736900177762
 31
0.0
  0
LINE
  5
E8
330
1F
100
AcDbEntity
  8
仕上
  6
Continuous
 62
     6
370
     5
100
AcDbLine
 10
-55.27472295123155
 20
238.0593802506082
 30
0.0
 11
-49.05063402465851
 21
261.2880410403042
 31
0.0
  0
LINE
  5
E9
330
1F
100
AcDbEntity
  8
仕上
  6
Continuous
 62
     6
370
     5
100
AcDbLine
 10
-48.51326896184179
 20
236.2476753572383
 30
0.0
 11
-42.28918003526874
 21
259.4762619149874
 31
0.0
  0
LINE
  5
EA
330
1F
100
AcDbEntity
  8
仕上
  6
Continuous
 62
     6
370
     5
100
AcDbLine
 10
-33.16729860183335
 20
236.2476753572383
 30
0.0
 11
-39.39142464437984
 21
259.4762619149874
 31
0.0
  0
LINE
  5
EB
330
1F
100
AcDbEntity
  8
仕上
  6
Continuous
 62
     6
370
     5
100
AcDbLine
 10
-26.40584461244359
 20
238.0593802506082
 30
0.0
 11
-32.62993353901663
 21
261.2880410403042
 31
0.0
  0
LINE
  5
EC
330
1F
100
AcDbEntity
  8
仕上
  6
Continuous
 62
     6
370
     5
100
AcDbLine
 10
-13.11583936671929
 20
245.7323654306124
 30
0.0
 11
-30.12037411386882
 21
262.736900177762
 31
0.0
  0
LINE
  5
ED
330
1F
100
AcDbEntity
  8
仕上
  6
Continuous
 62
     6
370
     5
100
AcDbLine
 10
-0.493142206668665
 20
263.9721197723565
 30
0.0
 11
-23.7217287644178
 21
270.1961715829561
 31
0.0
  0
LINE
  5
EE
330
1F
100
AcDbEntity
  8
仕上
  6
Continuous
 62
     6
370
     5
100
AcDbLine
 10
-8.166090270699442
 20
250.6820774106589
 30
0.0
 11
-25.17062501784898
 21
267.6866863897552
 31
0.0
  0
LINE
  5
EF
330
1F
100
AcDbEntity
  8
通り芯
  6
JWW_DASHED1
 62
     3
370
     9
100
AcDbLine
 10
-34.50109822176577
 20
-28.59654477842473
 30
0.0
 11
-35.3402903802328
 21
-24.40039840622249
 31
0.0
  0
LINE
  5
F0
330
1F
100
AcDbEntity
  8
通り芯
  6
Continuous
 62
     3
370
     9
100
AcDbLine
 10
6.471373273166648
 20
-29.40040253021952
 30
0.0
 11
-35.3402903802328
 21
-24.40039840622249
 31
0.0
  0
LINE
  5
F1
330
1F
100
AcDbEntity
  8
通り芯
  6
JWW_DASHED1
 62
     3
370
     9
100
AcDbLine
 10
-33.52049420466273
 20
-29.40040253021952
 30
0.0
 11
6.471373273166648
 21
-29.40040253021952
 31
0.0
  0
LINE
  5
F2
330
1F
100
AcDbEntity
  8
通り芯
  6
Continuous
 62
     3
370
     9
100
AcDbLine
 10
9.579984508914151
 20
-29.74855036066717
 30
0.0
 11
9.903264637186965
 21
-30.57122591097333
 31
0.0
  0
LINE
  5
F3
330
1F
100
AcDbEntity
  8
通り芯
  6
JWW_DASHED1
 62
     3
370
     9
100
AcDbLine
 10
5.510366490016338
 20
-35.2090894825527
 30
0.0
 11
6.401743707077117
 21
-29.82152036436223
 31
0.0
  0
LINE
  5
F4
330
1F
100
AcDbEntity
  8
通り芯
  6
Continuous
 62
     3
370
     9
100
AcDbLine
 10
6.471373273166648
 20
-29.40040253021952
 30
0.0
 11
9.103638106359227
 21
-29.40040253021952
 31
0.0
  0
LINE
  5
F5
330
1F
100
AcDbEntity
  8
通り芯
  6
Continuous
 62
     3
370
     9
100
AcDbLine
 10
-35.3402903802328
 20
-24.40039840622249
 30
0.0
 11
-38.09028708103523
 21
-24.40039840622249
 31
0.0
  0
LINE
  5
F6
330
1F
100
AcDbEntity
  8
通り芯
  6
Continuous
 62
     3
370
     9
100
AcDbLine
 10
5.510366490016338
 20
-35.2090894825527
 30
0.0
 11
-38.09028708103523
 21
-34.73875586768786
 31
0.0
  0
LINE
  5
F7
330
1F
100
AcDbEntity
  8
通り芯
  6
Continuous
 62
     3
370
     9
100
AcDbLine
 10
-46.34027718344234
 20
-24.40039840622249
 30
0.0
 11
-43.59028048263991
 21
-24.40039840622249
 31
0.0
  0
LINE
  5
F8
330
1F
100
AcDbEntity
  8
通り芯
  6
Continuous
 62
     3
370
     9
100
AcDbLine
 10
-87.19089693771802
 20
-35.2090894825527
 30
0.0
 11
-43.59028048263991
 21
-34.73875586768786
 31
0.0
  0
LINE
  5
F9
330
1F
100
AcDbEntity
  8
通り芯
  6
Continuous
 62
     3
370
     9
100
AcDbLine
 10
-91.26058918856263
 20
-29.74855036066717
 30
0.0
 11
-91.58383220086209
 21
-30.57122591097333
 31
0.0
  0
LINE
  5
FA
330
1F
100
AcDbEntity
  8
通り芯
  6
JWW_DASHED1
 62
     3
370
     9
100
AcDbLine
 10
-47.17950645788272
 20
-28.59654477842473
 30
0.0
 11
-46.34027718344234
 21
-24.40039840622249
 31
0.0
  0
LINE
  5
FB
330
1F
100
AcDbEntity
  8
通り芯
  6
JWW_DASHED1
 62
     3
370
     9
100
AcDbLine
 10
-48.16007335901242
 20
-29.40040253021952
 30
0.0
 11
-88.54548150275185
 21
-29.40040253021952
 31
0.0
  0
LINE
  5
FC
330
1F
100
AcDbEntity
  8
通り芯
  6
Continuous
 62
     3
370
     9
100
AcDbLine
 10
-88.15201506878857
 20
-29.40040253021952
 30
0.0
 11
-90.78420567003435
 21
-29.40040253021952
 31
0.0
  0
LINE
  5
FD
330
1F
100
AcDbEntity
  8
通り芯
  6
Continuous
 62
     3
370
     9
100
AcDbLine
 10
-88.15201506878857
 20
-29.40040253021952
 30
0.0
 11
-46.34027718344234
 21
-24.40039840622249
 31
0.0
  0
LINE
  5
FE
330
1F
100
AcDbEntity
  8
通り芯
  6
Continuous
 62
     3
370
     9
100
AcDbLine
 10
-87.19089693771802
 20
-35.2090894825527
 30
0.0
 11
-81.19781782955718
 21
-72.71600542559534
 31
0.0
  0
LINE
  5
FF
330
1F
100
AcDbEntity
  8
通り芯
  6
JWW_DASHED1
 62
     3
370
     9
100
AcDbLine
 10
-88.05176482464795
 20
-29.82152036436223
 30
0.0
 11
-87.19089693771802
 21
-35.2090894825527
 31
0.0
  0
LINE
  5
100
330
1F
100
AcDbEntity
  8
通り芯
  6
Continuous
 62
     3
370
     9
100
AcDbLine
 10
-93.76294811487178
 20
-31.41472352235424
 30
0.0
 11
-112.8402986282269
 21
-20.4004099534142
 31
0.0
  0
LINE
  5
101
330
1F
100
AcDbEntity
  8
通り芯
  6
JWW_DASHED1
 62
     3
370
     9
100
AcDbLine
 10
-87.19089693771802
 20
-35.2090894825527
 30
0.0
 11
-93.76294811487178
 21
-31.41472352235424
 31
0.0
  0
LINE
  5
102
330
1F
100
AcDbEntity
  8
仕上
  6
Continuous
 62
     6
370
     5
100
AcDbLine
 10
28.65967332859321
 20
-20.68913511045598
 30
0.0
 11
28.65967332859321
 21
-19.84381881637874
 31
0.0
  0
LINE
  5
103
330
1F
100
AcDbEntity
  8
仕上
  6
Continuous
 62
     6
370
     5
100
AcDbLine
 10
-32.65094117995835
 20
9.913615925492003
 30
0.0
 11
-31.52966762368726
 21
14.39871015057654
 31
0.0
  0
LINE
  5
104
330
1F
100
AcDbEntity
  8
仕上
  6
Continuous
 62
     6
370
     5
100
AcDbLine
 10
22.15970137177305
 20
-25.30792107171026
 30
0.0
 11
22.15970137177305
 21
-24.44189406447838
 31
0.0
  0
LINE
  5
105
330
1F
100
AcDbEntity
  8
仕上
  6
Continuous
 62
     6
370
     5
100
AcDbLine
 10
23.86065220053149
 20
-22.88250355824952
 30
0.0
 11
22.65972776535415
 21
-23.57586705724655
 31
0.0
  0
LINE
  5
106
330
1F
100
AcDbEntity
  8
仕上
  6
Continuous
 62
     6
370
     5
100
AcDbLine
 10
17.65968652538368
 20
-26.46263612001049
 30
0.0
 11
18.8606851925079
 21
-25.76927262101346
 31
0.0
  0
LINE
  5
107
330
1F
100
AcDbEntity
  8
仕上
  6
Continuous
 62
     6
370
     5
100
AcDbLine
 10
17.15966013180267
 20
-27.32866312724233
 30
0.0
 11
17.15966013180267
 21
-28.19469013447416
 31
0.0
  0
LINE
  5
108
330
1F
100
AcDbEntity
  8
仕上
  6
Continuous
 62
     6
370
     5
100
AcDbLine
 10
15.52700269409149
 20
-19.84381881637874
 30
0.0
 11
28.65967332859321
 21
-19.84381881637874
 31
0.0
  0
LINE
  5
109
330
1F
100
AcDbEntity
  8
仕上
  6
Continuous
 62
     6
370
     5
100
AcDbLine
 10
5.879521961405715
 20
9.797591392658411
 30
0.0
 11
10.95438900374094
 21
-25.72670059952909
 31
0.0
  0
LINE
  5
10A
330
1F
100
AcDbEntity
  8
仕上
  6
Continuous
 62
     6
370
     5
100
AcDbLine
 10
10.51686590935751
 20
9.156116024467941
 30
0.0
 11
5.971124183745161
 21
9.156116024467941
 31
0.0
  0
LINE
  5
10B
330
1F
100
AcDbEntity
  8
仕上
  6
Continuous
 62
     6
370
     5
100
AcDbLine
 10
3.659689824581335
 20
15.15617293562716
 30
0.0
 11
4.627748642676806
 21
11.28393766324545
 31
0.0
  0
LINE
  5
10C
330
1F
100
AcDbEntity
  8
仕上
  6
Continuous
 62
     6
370
     5
100
AcDbLine
 10
-29.13746890641531
 20
5.413601079102712
 30
0.0
 11
-28.01619535014413
 21
9.898695304187164
 31
0.0
  0
LINE
  5
10D
330
1F
100
AcDbEntity
  8
仕上
  6
Continuous
 62
     6
370
     5
100
AcDbLine
 10
-110.3402780082417
 20
-20.68913511045598
 30
0.0
 11
-110.3402780082417
 21
-19.84381881637874
 31
0.0
  0
LINE
  5
10E
330
1F
100
AcDbEntity
  8
仕上
  6
Continuous
 62
     6
370
     5
100
AcDbLine
 10
-49.02962638371679
 20
9.913615925492003
 30
0.0
 11
-50.15089993998788
 21
14.39871015057654
 31
0.0
  0
LINE
  5
10F
330
1F
100
AcDbEntity
  8
仕上
  6
Continuous
 62
     6
370
     5
100
AcDbLine
 10
-103.8402689354482
 20
-25.30792107171026
 30
0.0
 11
-103.8402689354482
 21
-24.44189406447838
 31
0.0
  0
LINE
  5
110
330
1F
100
AcDbEntity
  8
仕上
  6
Continuous
 62
     6
370
     5
100
AcDbLine
 10
-105.5412197642066
 20
-22.88250355824952
 30
0.0
 11
-104.3402582130559
 21
-23.57586705724655
 31
0.0
  0
LINE
  5
111
330
1F
100
AcDbEntity
  8
仕上
  6
Continuous
 62
     6
370
     5
100
AcDbLine
 10
-99.34029120503226
 20
-26.46263612001049
 30
0.0
 11
-100.541252756183
 21
-25.76927262101346
 31
0.0
  0
LINE
  5
112
330
1F
100
AcDbEntity
  8
仕上
  6
Continuous
 62
     6
370
     5
100
AcDbLine
 10
-98.8403019274246
 20
-27.32866312724233
 30
0.0
 11
-98.8403019274246
 21
-28.19469013447416
 31
0.0
  0
LINE
  5
113
330
1F
100
AcDbEntity
  8
仕上
  6
Continuous
 62
     6
370
     5
100
AcDbLine
 10
-97.20757025776663
 20
-19.84381881637874
 30
0.0
 11
-110.3402780082417
 21
-19.84381881637874
 31
0.0
  0
LINE
  5
114
330
1F
100
AcDbEntity
  8
仕上
  6
Continuous
 62
     6
370
     5
100
AcDbLine
 10
-87.56008952508084
 20
9.797591392658411
 30
0.0
 11
-92.63499368338951
 21
-25.72670059952909
 31
0.0
  0
LINE
  5
115
330
1F
100
AcDbEntity
  8
仕上
  6
Continuous
 62
     6
370
     5
100
AcDbLine
 10
-92.19743347303263
 20
9.156116024467941
 30
0.0
 11
-87.65172886339373
 21
9.156116024467941
 31
0.0
  0
LINE
  5
116
330
1F
100
AcDbEntity
  8
仕上
  6
JWW_DASHED1
 62
     6
370
     5
100
AcDbLine
 10
-85.34029450422992
 20
15.15617293562716
 30
0.0
 11
-86.30831620635195
 21
11.28393766324545
 31
0.0
  0
LINE
  5
117
330
1F
100
AcDbEntity
  8
仕上
  6
Continuous
 62
     6
370
     5
100
AcDbLine
 10
-54.63454664211
 20
10.65615808923778
 30
0.0
 11
-86.57013228268218
 21
10.65615808923778
 31
0.0
  0
LINE
  5
118
330
1F
100
AcDbEntity
  8
仕上
  6
Continuous
 62
     6
370
     5
100
AcDbLine
 10
-52.54309865725983
 20
5.413601079102712
 30
0.0
 11
-53.66440932950437
 21
9.898695304187164
 31
0.0
  0
LINE
  5
119
330
1F
100
AcDbEntity
  8
仕上
  6
Continuous
 62
     6
370
     5
100
AcDbLine
 10
5.323153520210553
 20
15.15617293562716
 30
0.0
 11
-87.00379531583249
 21
15.15617293562716
 31
0.0
  0
LINE
  5
11A
330
1F
100
AcDbEntity
  8
仕上
  6
Continuous
 62
     6
370
     5
100
AcDbLine
 10
-48.05948907111124
 20
9.156153140441383
 30
0.0
 11
-33.6210784925639
 21
9.156153140441383
 31
0.0
  0
LINE
  5
11B
330
1F
100
AcDbEntity
  8
仕上
  6
Continuous
 62
     6
370
     5
100
AcDbLine
 10
-35.84027965784054
 20
9.156153140441383
 30
0.0
 11
-34.56820390166445
 21
5.339888755939661
 31
0.0
  0
LINE
  5
11C
330
1F
100
AcDbEntity
  8
仕上
  6
Continuous
 62
     6
370
     5
100
AcDbLine
 10
-45.8402879058346
 20
9.156153140441383
 30
0.0
 11
-47.11236366201069
 21
5.339888755939661
 31
0.0
  0
LINE
  5
11D
330
1F
100
AcDbEntity
  8
建具
  6
Continuous
 62
     4
370
     9
100
AcDbLine
 10
-44.84027223464585
 20
-39.59385923154973
 30
0.0
 11
-43.59028048263991
 21
-40.84385098355567
 31
0.0
  0
LINE
  5
11E
330
1F
100
AcDbEntity
  8
建具
  6
Continuous
 62
     4
370
     9
100
AcDbLine
 10
-38.09028708103523
 20
-40.84385098355567
 30
0.0
 11
-36.84029532902929
 21
-39.59385923154973
 31
0.0
  0
LINE
  5
11F
330
1F
100
AcDbEntity
  8
建具
  6
Continuous
 62
     4
370
     9
100
AcDbLine
 10
-44.84027223464585
 20
9.156153140441383
 30
0.0
 11
-44.84027223464585
 21
-39.59385923154973
 31
0.0
  0
LINE
  5
120
330
1F
100
AcDbEntity
  8
建具
  6
Continuous
 62
     4
370
     9
100
AcDbLine
 10
-44.84027223464585
 20
-39.59385923154973
 30
0.0
 11
-36.84029532902929
 21
-39.59385923154973
 31
0.0
  0
LINE
  5
121
330
1F
100
AcDbEntity
  8
建具
  6
Continuous
 62
     4
370
     9
100
AcDbLine
 10
-36.84029532902929
 20
9.156153140441383
 30
0.0
 11
-36.84029532902929
 21
-39.59385923154973
 31
0.0
  0
LINE
  5
122
330
1F
100
AcDbEntity
  8
建具
  6
Continuous
 62
     4
370
     9
100
AcDbLine
 10
-38.09028708103523
 20
9.156153140441383
 30
0.0
 11
-38.09028708103523
 21
-40.84385098355567
 31
0.0
  0
LINE
  5
123
330
1F
100
AcDbEntity
  8
建具
  6
Continuous
 62
     4
370
     9
100
AcDbLine
 10
-43.59028048263991
 20
-40.84385098355567
 30
0.0
 11
-38.09028708103523
 21
-40.84385098355567
 31
0.0
  0
LINE
  5
124
330
1F
100
AcDbEntity
  8
建具
  6
Continuous
 62
     4
370
     9
100
AcDbLine
 10
-43.59028048263991
 20
9.156153140441383
 30
0.0
 11
-43.59028048263991
 21
-40.84385098355567
 31
0.0
  0
LINE
  5
125
330
1F
100
AcDbEntity
  8
建具
  6
Continuous
 62
     4
370
     9
100
AcDbLine
 10
-47.62493525459936
 20
11.61761026406888
 30
0.0
 11
-47.84028213223874
 21
9.156153140441383
 31
0.0
  0
LINE
  5
126
330
1F
100
AcDbEntity
  8
建具
  6
Continuous
 62
     4
370
     9
100
AcDbLine
 10
-34.05563230907578
 20
11.61761026406888
 30
0.0
 11
-33.8402854314364
 21
9.156153140441383
 31
0.0
  0
LINE
  5
127
330
1F
100
AcDbEntity
  8
建具
  6
Continuous
 62
     4
370
     9
100
AcDbLine
 10
-40.09028130743937
 20
13.35615957387677
 30
0.0
 11
-41.59028625623577
 21
13.35615957387677
 31
0.0
  0
LINE
  5
128
330
1F
100
AcDbEntity
  8
建具
  6
Continuous
 62
     4
370
     9
100
AcDbLine
 10
-41.59028625623577
 20
14.35613812909217
 30
0.0
 11
-41.59028625623577
 21
13.35615957387677
 31
0.0
  0
LINE
  5
129
330
1F
100
AcDbEntity
  8
建具
  6
Continuous
 62
     4
370
     9
100
AcDbLine
 10
-40.09028130743937
 20
14.35613812909217
 30
0.0
 11
-40.09028130743937
 21
13.35615957387677
 31
0.0
  0
LINE
  5
12A
330
1F
100
AcDbEntity
  8
建具
  6
Continuous
 62
     4
370
     9
100
AcDbLine
 10
-37.04421048686288
 20
14.35613812909217
 30
0.0
 11
-40.09028130743937
 21
14.35613812909217
 31
0.0
  0
LINE
  5
12B
330
1F
100
AcDbEntity
  8
建具
  6
Continuous
 62
     4
370
     9
100
AcDbLine
 10
-41.59028625623577
 20
14.35613812909217
 30
0.0
 11
-44.63635707681226
 21
14.35613812909217
 31
0.0
  0
LINE
  5
12C
330
1F
100
AcDbEntity
  8
仕上
  6
Continuous
 62
     6
370
     5
100
AcDbLine
 10
-30.10760621902085
 20
4.656138294052006
 30
0.0
 11
-36.84029532902929
 21
4.656138294052006
 31
0.0
  0
LINE
  5
12D
330
1F
100
AcDbEntity
  8
仕上
  6
Continuous
 62
     6
370
     5
100
AcDbLine
 10
-44.84027223464585
 20
4.656138294052006
 30
0.0
 11
-51.57296134465429
 21
4.656138294052006
 31
0.0
  0
LINE
  5
12E
330
1F
100
AcDbEntity
  8
仕上
  6
Continuous
 62
     6
370
     5
100
AcDbLine
 10
-23.84777461006811
 20
11.43923089593122
 30
0.0
 11
-23.0217586221564
 21
15.15617293562716
 31
0.0
  0
LINE
  5
12F
330
1F
100
AcDbEntity
  8
仕上
  6
Continuous
 62
     6
370
     5
100
AcDbLine
 10
4.889564719007041
 20
10.65615808923778
 30
0.0
 11
-27.04605803753859
 21
10.65615808923778
 31
0.0
  0
LINE
  5
130
330
1F
100
AcDbEntity
  8
仕上
  6
JWW_DASHED1
 62
     6
370
     5
100
AcDbLine
 10
-57.83283006958038
 20
11.43923089593122
 30
0.0
 11
-58.65880894151874
 21
15.15617293562716
 31
0.0
  0
LINE
  5
131
330
1F
100
AcDbEntity
  8
仕上
  6
Continuous
 62
     6
370
     5
100
AcDbLine
 10
15.9386930709918
 20
-28.79723084657299
 30
0.0
 11
10.27293973220384
 21
10.86326522078341
 31
0.0
  0
LINE
  5
132
330
1F
100
AcDbEntity
  8
仕上
  6
Continuous
 62
     6
370
     5
100
AcDbLine
 10
-97.5663332566053
 20
-28.42647938832764
 30
0.0
 11
-91.95350729587896
 21
10.86326522078341
 31
0.0
  0
LINE
  5
133
330
1F
100
AcDbEntity
  8
仕上
  6
Continuous
 62
     6
370
     5
100
AcDbLine
 10
-107.5903184234127
 20
-23.43156015268573
 30
0.0
 11
-109.3402994530263
 21
-22.42118912491971
 31
0.0
  0
LINE
  5
134
330
1F
100
AcDbEntity
  8
仕上
  6
Continuous
 62
     6
370
     5
100
AcDbLine
 10
-102.5903142994157
 20
-26.31829209947627
 30
0.0
 11
-103.5902928546311
 21
-25.74095313331286
 31
0.0
  0
LINE
  5
135
330
1F
100
AcDbEntity
  8
仕上
  6
Continuous
 62
     6
370
     5
100
AcDbLine
 10
20.9097096197672
 20
-26.31829209947627
 30
0.0
 11
21.90968817498251
 21
-25.74095313331286
 31
0.0
  0
LINE
  5
136
330
1F
100
AcDbEntity
  8
仕上
  6
Continuous
 62
     6
370
     5
100
AcDbLine
 10
25.90975085973758
 20
-23.43152303671237
 30
0.0
 11
27.65969477337782
 21
-22.42118912491971
 31
0.0
  0
LINE
  5
137
330
1F
100
AcDbEntity
  8
通り芯
  6
Continuous
 62
     3
370
     9
100
AcDbLine
 10
-116.5902738842447
 20
-31.40039675662364
 30
0.0
 11
-116.5902738842447
 21
-23.40038273503374
 31
0.0
  0
LINE
  5
138
330
1F
100
AcDbEntity
  8
通り芯
  6
Continuous
 62
     3
370
     9
100
AcDbLine
 10
-122.0902672858494
 20
-31.40039675662364
 30
0.0
 11
-122.0902672858494
 21
-23.40038273503374
 31
0.0
  0
LINE
  5
139
330
1F
100
AcDbEntity
  8
通り芯
  6
Continuous
 62
     3
370
     9
100
AcDbLine
 10
-123.6667311398402
 20
-23.40038273503374
 30
0.0
 11
-122.0902672858494
 21
-23.40038273503374
 31
0.0
  0
LINE
  5
13A
330
1F
100
AcDbEntity
  8
通り芯
  6
Continuous
 62
     3
370
     9
100
AcDbLine
 10
-115.013810030254
 20
-23.40038273503374
 30
0.0
 11
-116.5902738842447
 21
-23.40038273503374
 31
0.0
  0
LINE
  5
13B
330
1F
100
AcDbEntity
  8
通り芯
  6
Continuous
 62
     3
370
     9
100
AcDbLine
 10
-124.5206212237717
 20
-20.81822446592473
 30
0.0
 11
-124.1599281943165
 21
-22.98260533849655
 31
0.0
  0
LINE
  5
13C
330
1F
100
AcDbEntity
  8
通り芯
  6
Continuous
 62
     3
370
     9
100
AcDbLine
 10
-114.1599199463223
 20
-20.81822446592473
 30
0.0
 11
-114.5206872077244
 21
-22.98260533849655
 31
0.0
  0
LINE
  5
13D
330
1F
100
AcDbEntity
  8
通り芯
  6
Continuous
 62
     3
370
     9
100
AcDbLine
 10
-115.1324697971987
 20
-31.40039675662364
 30
0.0
 11
-117.2902811424794
 21
-31.40039675662364
 31
0.0
  0
LINE
  5
13E
330
1F
100
AcDbEntity
  8
通り芯
  6
Continuous
 62
     3
370
     9
100
AcDbLine
 10
-121.3902600276146
 20
-31.40039675662364
 30
0.0
 11
-122.5945249003976
 21
-31.40039675662364
 31
0.0
  0
LINE
  5
13F
330
1F
100
AcDbEntity
  8
通り芯
  6
Continuous
 62
     3
370
     9
100
AcDbLine
 10
-73.54669395788272
 20
-74.40040253021951
 30
0.0
 11
-7.728789872156398
 21
-74.40040253021951
 31
0.0
  0
LINE
  5
140
330
1F
100
AcDbEntity
  8
その他
  6
Continuous
 62
     7
370
     9
100
AcDbLine
 10
-110.3402780082417
 20
45.15616056363607
 30
0.0
 11
28.65967332859321
 21
45.15616056363607
 31
0.0
  0
LINE
  5
141
330
1F
100
AcDbEntity
  8
その他
  6
Continuous
 62
     7
370
     9
100
AcDbLine
 10
-110.3402780082417
 20
-12.34383118836987
 30
0.0
 11
-110.3402780082417
 21
46.05614868652459
 31
0.0
  0
LINE
  5
142
330
1F
100
AcDbEntity
  8
その他
  6
Continuous
 62
     7
370
     9
100
AcDbLine
 10
28.65967332859321
 20
-12.34383118836987
 30
0.0
 11
28.65967332859321
 21
46.05614868652459
 31
0.0
  0
LINE
  5
143
330
1F
100
AcDbEntity
  8
その他
  6
Continuous
 62
     7
370
     9
100
AcDbLine
 10
-110.3402780082417
 20
45.15616056363607
 30
0.0
 11
-102.9044267822598
 21
46.1350943619363
 31
0.0
  0
LINE
  5
144
330
1F
100
AcDbEntity
  8
その他
  6
Continuous
 62
     7
370
     9
100
AcDbLine
 10
-110.3402780082417
 20
45.15616056363607
 30
0.0
 11
-102.9044267822598
 21
44.17722676533575
 31
0.0
  0
LINE
  5
145
330
1F
100
AcDbEntity
  8
その他
  6
Continuous
 62
     7
370
     9
100
AcDbLine
 10
28.65967332859321
 20
45.15616056363607
 30
0.0
 11
21.22385921858469
 21
46.1350943619363
 31
0.0
  0
LINE
  5
146
330
1F
100
AcDbEntity
  8
その他
  6
Continuous
 62
     7
370
     9
100
AcDbLine
 10
28.65967332859321
 20
45.15616056363607
 30
0.0
 11
21.22385921858469
 21
44.17722676533575
 31
0.0
  0
LINE
  5
147
330
1F
100
AcDbEntity
  8
その他
  6
Continuous
 62
     7
370
     9
100
AcDbLine
 10
-119.340270585047
 20
69.15616551243247
 30
0.0
 11
37.65970302137188
 21
69.15616551243247
 31
0.0
  0
LINE
  5
148
330
1F
100
AcDbEntity
  8
その他
  6
Continuous
 62
     7
370
     9
100
AcDbLine
 10
-119.340270585047
 20
-11.14023440310801
 30
0.0
 11
-119.340270585047
 21
70.05615363532098
 31
0.0
  0
LINE
  5
149
330
1F
100
AcDbEntity
  8
その他
  6
Continuous
 62
     7
370
     9
100
AcDbLine
 10
37.65970302137188
 20
-11.14023440310801
 30
0.0
 11
37.65970302137188
 21
70.05615363532098
 31
0.0
  0
LINE
  5
14A
330
1F
100
AcDbEntity
  8
その他
  6
Continuous
 62
     7
370
     9
100
AcDbLine
 10
-119.340270585047
 20
69.15616551243247
 30
0.0
 11
-111.9044193590652
 21
70.13509931073278
 31
0.0
  0
LINE
  5
14B
330
1F
100
AcDbEntity
  8
その他
  6
Continuous
 62
     7
370
     9
100
AcDbLine
 10
-119.340270585047
 20
69.15616551243247
 30
0.0
 11
-111.9044193590652
 21
68.17723171413223
 31
0.0
  0
LINE
  5
14C
330
1F
100
AcDbEntity
  8
その他
  6
Continuous
 62
     7
370
     9
100
AcDbLine
 10
37.65970302137188
 20
69.15616551243247
 30
0.0
 11
30.22388891136345
 21
70.13509931073278
 31
0.0
  0
LINE
  5
14D
330
1F
100
AcDbEntity
  8
その他
  6
Continuous
 62
     7
370
     9
100
AcDbLine
 10
37.65970302137188
 20
69.15616551243247
 30
0.0
 11
30.22388891136345
 21
68.17723171413223
 31
0.0
  0
LINE
  5
14E
330
1F
100
AcDbEntity
  8
その他
  6
Continuous
 62
     7
370
     9
100
AcDbLine
 10
-125.8402796578405
 20
93.15617046122895
 30
0.0
 11
44.15974921013876
 21
93.15617046122895
 31
0.0
  0
LINE
  5
14F
330
1F
100
AcDbEntity
  8
その他
  6
Continuous
 62
     7
370
     9
100
AcDbLine
 10
-125.8402796578405
 20
-12.90042232540534
 30
0.0
 11
-125.8402796578405
 21
94.05615858411747
 31
0.0
  0
LINE
  5
150
330
1F
100
AcDbEntity
  8
その他
  6
Continuous
 62
     7
370
     9
100
AcDbLine
 10
44.15974921013876
 20
-12.90042232540534
 30
0.0
 11
44.15974921013876
 21
94.05615858411747
 31
0.0
  0
LINE
  5
151
330
1F
100
AcDbEntity
  8
その他
  6
Continuous
 62
     7
370
     9
100
AcDbLine
 10
-125.8402796578405
 20
93.15617046122895
 30
0.0
 11
-118.4044284318587
 21
94.13510425952919
 31
0.0
  0
LINE
  5
152
330
1F
100
AcDbEntity
  8
その他
  6
Continuous
 62
     7
370
     9
100
AcDbLine
 10
-125.8402796578405
 20
93.15617046122895
 30
0.0
 11
-118.4044284318587
 21
92.17723666292872
 31
0.0
  0
LINE
  5
153
330
1F
100
AcDbEntity
  8
その他
  6
Continuous
 62
     7
370
     9
100
AcDbLine
 10
44.15974921013876
 20
93.15617046122895
 30
0.0
 11
36.72393510013032
 21
94.13510425952919
 31
0.0
  0
LINE
  5
154
330
1F
100
AcDbEntity
  8
その他
  6
Continuous
 62
     7
370
     9
100
AcDbLine
 10
44.15974921013876
 20
93.15617046122895
 30
0.0
 11
36.72393510013032
 21
92.17723666292872
 31
0.0
  0
LINE
  5
155
330
1F
100
AcDbEntity
  8
その他
  6
Continuous
 62
     7
370
     9
100
AcDbLine
 10
-74.34027058504702
 20
-150.4004058294172
 30
0.0
 11
-7.340296978628118
 21
-150.4004058294172
 31
0.0
  0
LINE
  5
156
330
1F
100
AcDbEntity
  8
その他
  6
Continuous
 62
     7
370
     9
100
AcDbLine
 10
-74.34027058504702
 20
-127.9004058294172
 30
0.0
 11
-74.34027058504702
 21
-151.300431068279
 31
0.0
  0
LINE
  5
157
330
1F
100
AcDbEntity
  8
その他
  6
Continuous
 62
     7
370
     9
100
AcDbLine
 10
-7.340296978628118
 20
-127.9004058294172
 30
0.0
 11
-7.340296978628118
 21
-151.300431068279
 31
0.0
  0
LINE
  5
158
330
1F
100
AcDbEntity
  8
その他
  6
Continuous
 62
     7
370
     9
100
AcDbLine
 10
-74.34027058504702
 20
-150.4004058294172
 30
0.0
 11
-66.90441935906523
 21
-149.4214720311168
 31
0.0
  0
LINE
  5
159
330
1F
100
AcDbEntity
  8
その他
  6
Continuous
 62
     7
370
     9
100
AcDbLine
 10
-74.34027058504702
 20
-150.4004058294172
 30
0.0
 11
-66.90441935906523
 21
-151.3793767436908
 31
0.0
  0
LINE
  5
15A
330
1F
100
AcDbEntity
  8
その他
  6
Continuous
 62
     7
370
     9
100
AcDbLine
 10
-7.340296978628118
 20
-150.4004058294172
 30
0.0
 11
-14.77614820460991
 21
-149.4214720311168
 31
0.0
  0
LINE
  5
15B
330
1F
100
AcDbEntity
  8
その他
  6
Continuous
 62
     7
370
     9
100
AcDbLine
 10
-7.340296978628118
 20
-150.4004058294172
 30
0.0
 11
-14.77614820460991
 21
-151.3793767436908
 31
0.0
  0
LINE
  5
15C
330
1F
100
AcDbEntity
  8
その他
  6
Continuous
 62
     7
370
     9
100
AcDbLine
 10
-79.34027470904405
 20
-174.4004107782136
 30
0.0
 11
-2.340329970604444
 21
-174.4004107782136
 31
0.0
  0
LINE
  5
15D
330
1F
100
AcDbEntity
  8
その他
  6
Continuous
 62
     7
370
     9
100
AcDbLine
 10
-79.34027470904405
 20
-85.90041572701003
 30
0.0
 11
-79.34027470904405
 21
-175.3004360170755
 31
0.0
  0
LINE
  5
15E
330
1F
100
AcDbEntity
  8
その他
  6
Continuous
 62
     7
370
     9
100
AcDbLine
 10
-2.340329970604444
 20
-85.90041572701003
 30
0.0
 11
-2.340329970604444
 21
-175.3004360170755
 31
0.0
  0
LINE
  5
15F
330
1F
100
AcDbEntity
  8
その他
  6
Continuous
 62
     7
370
     9
100
AcDbLine
 10
-79.34027470904405
 20
-174.4004107782136
 30
0.0
 11
-71.90442348306226
 21
-173.4214769799134
 31
0.0
  0
LINE
  5
160
330
1F
100
AcDbEntity
  8
その他
  6
Continuous
 62
     7
370
     9
100
AcDbLine
 10
-79.34027470904405
 20
-174.4004107782136
 30
0.0
 11
-71.90442348306226
 21
-175.3793816924873
 31
0.0
  0
LINE
  5
161
330
1F
100
AcDbEntity
  8
その他
  6
Continuous
 62
     7
370
     9
100
AcDbLine
 10
-2.340329970604444
 20
-174.4004107782136
 30
0.0
 11
-9.776181196586322
 21
-173.4214769799134
 31
0.0
  0
LINE
  5
162
330
1F
100
AcDbEntity
  8
その他
  6
Continuous
 62
     7
370
     9
100
AcDbLine
 10
-2.340329970604444
 20
-174.4004107782136
 30
0.0
 11
-9.776181196586322
 21
-175.3793816924873
 31
0.0
  0
LINE
  5
163
330
1F
100
AcDbEntity
  8
その他
  6
Continuous
 62
     7
370
     9
100
AcDbLine
 10
-84.34027883304108
 20
-198.40041572701
 30
0.0
 11
2.659711269365943
 21
-198.40041572701
 31
0.0
  0
LINE
  5
164
330
1F
100
AcDbEntity
  8
その他
  6
Continuous
 62
     7
370
     9
100
AcDbLine
 10
-84.34027883304108
 20
-85.90041572701003
 30
0.0
 11
-84.34027883304108
 21
-199.300440965872
 31
0.0
  0
LINE
  5
165
330
1F
100
AcDbEntity
  8
その他
  6
Continuous
 62
     7
370
     9
100
AcDbLine
 10
2.659711269365943
 20
-85.90041572701003
 30
0.0
 11
2.659711269365943
 21
-199.300440965872
 31
0.0
  0
LINE
  5
166
330
1F
100
AcDbEntity
  8
その他
  6
Continuous
 62
     7
370
     9
100
AcDbLine
 10
-84.34027883304108
 20
-198.40041572701
 30
0.0
 11
-76.90442760705929
 21
-197.4214819287099
 31
0.0
  0
LINE
  5
167
330
1F
100
AcDbEntity
  8
その他
  6
Continuous
 62
     7
370
     9
100
AcDbLine
 10
-84.34027883304108
 20
-198.40041572701
 30
0.0
 11
-76.90442760705929
 21
-199.3793866412838
 31
0.0
  0
LINE
  5
168
330
1F
100
AcDbEntity
  8
その他
  6
Continuous
 62
     7
370
     9
100
AcDbLine
 10
2.659711269365943
 20
-198.40041572701
 30
0.0
 11
-4.77613995661585
 21
-197.4214819287099
 31
0.0
  0
LINE
  5
169
330
1F
100
AcDbEntity
  8
その他
  6
Continuous
 62
     7
370
     9
100
AcDbLine
 10
2.659711269365943
 20
-198.40041572701
 30
0.0
 11
-4.77613995661585
 21
-199.3793866412838
 31
0.0
  0
LINE
  5
16A
330
1F
100
AcDbEntity
  8
その他
  6
Continuous
 62
     7
370
     9
100
AcDbLine
 10
-90.84028790583459
 20
-222.4004206758065
 30
0.0
 11
9.159683226186104
 21
-222.4004206758065
 31
0.0
  0
LINE
  5
16B
330
1F
100
AcDbEntity
  8
その他
  6
Continuous
 62
     7
370
     9
100
AcDbLine
 10
-90.84028790583459
 20
-45.22086349411311
 30
0.0
 11
-90.84028790583459
 21
-223.3004459146684
 31
0.0
  0
LINE
  5
16C
330
1F
100
AcDbEntity
  8
その他
  6
Continuous
 62
     7
370
     9
100
AcDbLine
 10
9.159683226186104
 20
-45.22086349411311
 30
0.0
 11
9.159683226186104
 21
-223.3004459146684
 31
0.0
  0
LINE
  5
16D
330
1F
100
AcDbEntity
  8
その他
  6
Continuous
 62
     7
370
     9
100
AcDbLine
 10
-90.84028790583459
 20
-222.4004206758065
 30
0.0
 11
-83.40443667985281
 21
-221.4214868775063
 31
0.0
  0
LINE
  5
16E
330
1F
100
AcDbEntity
  8
その他
  6
Continuous
 62
     7
370
     9
100
AcDbLine
 10
-90.84028790583459
 20
-222.4004206758065
 30
0.0
 11
-83.40443667985281
 21
-223.3793915900802
 31
0.0
  0
LINE
  5
16F
330
1F
100
AcDbEntity
  8
その他
  6
Continuous
 62
     7
370
     9
100
AcDbLine
 10
9.159683226186104
 20
-222.4004206758065
 30
0.0
 11
1.723869116177667
 21
-221.4214868775063
 31
0.0
  0
LINE
  5
170
330
1F
100
AcDbEntity
  8
その他
  6
Continuous
 62
     7
370
     9
100
AcDbLine
 10
9.159683226186104
 20
-222.4004206758065
 30
0.0
 11
1.723869116177667
 21
-223.3793915900802
 31
0.0
  0
LINE
  5
171
330
1F
100
AcDbEntity
  8
その他
  6
Continuous
 62
     7
370
     9
100
AcDbLine
 10
51.65977395412102
 20
-20.4004099534142
 30
0.0
 11
111.0597323842309
 21
-20.4004099534142
 31
0.0
  0
LINE
  5
172
330
1F
100
AcDbEntity
  8
その他
  6
Continuous
 62
     7
370
     9
100
AcDbLine
 10
86.15973931254585
 20
-20.4004099534142
 30
0.0
 11
85.18076839827218
 21
-12.96455872743237
 31
0.0
  0
LINE
  5
173
330
1F
100
AcDbEntity
  8
その他
  6
Continuous
 62
     7
370
     9
100
AcDbLine
 10
86.15973931254585
 20
-20.4004099534142
 30
0.0
 11
87.13871022681953
 21
-12.96455872743237
 31
0.0
  0
LINE
  5
174
330
1F
100
AcDbEntity
  8
その他
  6
Continuous
 62
     7
370
     9
100
AcDbLine
 10
86.15973931254585
 20
-31.40039675662364
 30
0.0
 11
85.18076839827218
 21
-38.83624798260549
 31
0.0
  0
LINE
  5
175
330
1F
100
AcDbEntity
  8
その他
  6
Continuous
 62
     7
370
     9
100
AcDbLine
 10
86.15973931254585
 20
-31.40039675662364
 30
0.0
 11
87.13871022681953
 21
-38.83624798260549
 31
0.0
  0
LINE
  5
176
330
1F
100
AcDbEntity
  8
その他
  6
Continuous
 62
     7
370
     9
100
AcDbLine
 10
110.1597442613424
 20
-120.4004182014083
 30
0.0
 11
110.1597442613424
 21
15.15617293562716
 31
0.0
  0
LINE
  5
177
330
1F
100
AcDbEntity
  8
その他
  6
Continuous
 62
     7
370
     9
100
AcDbLine
 10
0.1597277653541482
 20
-120.4004182014083
 30
0.0
 11
111.0597323842309
 21
-120.4004182014083
 31
0.0
  0
LINE
  5
178
330
1F
100
AcDbEntity
  8
その他
  6
Continuous
 62
     7
370
     9
100
AcDbLine
 10
110.1597442613424
 20
-120.4004182014083
 30
0.0
 11
109.1807733470687
 21
-112.9645669754264
 31
0.0
  0
LINE
  5
179
330
1F
100
AcDbEntity
  8
その他
  6
Continuous
 62
     7
370
     9
100
AcDbLine
 10
110.1597442613424
 20
-120.4004182014083
 30
0.0
 11
111.1387151756159
 21
-112.9645669754264
 31
0.0
  0
LINE
  5
17A
330
1F
100
AcDbEntity
  8
その他
  6
Continuous
 62
     7
370
     9
100
AcDbLine
 10
111.1387151756159
 20
-12.96455872743237
 30
0.0
 11
109.1807733470687
 21
-27.83626117939604
 31
0.0
  0
LINE
  5
17B
330
1F
100
AcDbEntity
  8
その他
  6
Continuous
 62
     7
370
     9
100
AcDbLine
 10
109.1807733470687
 20
-12.96455872743237
 30
0.0
 11
111.1387151756159
 21
-27.83626117939604
 31
0.0
  0
LINE
  5
17C
330
1F
100
AcDbEntity
  8
その他
  6
Continuous
 62
     7
370
     9
100
AcDbLine
 10
12.82317826419282
 20
15.15617293562716
 30
0.0
 11
111.0597323842309
 21
15.15617293562716
 31
0.0
  0
LINE
  5
17D
330
1F
100
AcDbEntity
  8
その他
  6
Continuous
 62
     7
370
     9
100
AcDbLine
 10
110.1597442613424
 20
15.15617293562716
 30
0.0
 11
109.1807733470687
 21
7.720321709645368
 31
0.0
  0
LINE
  5
17E
330
1F
100
AcDbEntity
  8
その他
  6
Continuous
 62
     7
370
     9
100
AcDbLine
 10
110.1597442613424
 20
15.15617293562716
 30
0.0
 11
111.1387151756159
 21
7.720321709645368
 31
0.0
  0
LINE
  5
17F
330
1F
100
AcDbEntity
  8
その他
  6
Continuous
 62
     7
370
     9
100
AcDbLine
 10
86.15973931254585
 20
-8.593410540671393
 30
0.0
 11
86.15973931254585
 21
-54.59624702583817
 31
0.0
  0
LINE
  5
180
330
1F
100
AcDbEntity
  8
0-E
  6
Continuous
 62
     7
370
     9
100
AcDbLine
 10
7.823137024222433
 20
14.48634096376271
 30
0.0
 11
10.69324101493189
 21
21.41544780497896
 31
0.0
  0
LINE
  5
181
330
1F
100
AcDbEntity
  8
0-E
  6
Continuous
 62
     7
370
     9
100
AcDbLine
 10
7.823137024222433
 20
14.48634096376271
 30
0.0
 11
12.38884714352142
 21
20.43647689070529
 31
0.0
  0
LINE
  5
182
330
1F
100
AcDbEntity
  8
0-E
  6
Continuous
 62
     7
370
     9
100
AcDbLine
 10
-46.13636202560866
 20
13.95424636916818
 30
0.0
 11
-50.70207214490765
 21
19.90438229611068
 31
0.0
  0
LINE
  5
183
330
1F
100
AcDbEntity
  8
0-E
  6
Continuous
 62
     7
370
     9
100
AcDbLine
 10
-46.13636202560866
 20
13.95424636916818
 30
0.0
 11
-49.00650313229156
 21
20.88335321038435
 31
0.0
  0
LINE
  5
184
330
1F
100
AcDbEntity
  8
0-E
  6
Continuous
 62
     7
370
     9
100
AcDbLine
 10
-125.8402796578405
 20
-20.4004099534142
 30
0.0
 11
-130.4059897771395
 21
-14.4502740264716
 31
0.0
  0
LINE
  5
185
330
1F
100
AcDbEntity
  8
0-E
  6
Continuous
 62
     7
370
     9
100
AcDbLine
 10
-125.8402796578405
 20
-20.4004099534142
 30
0.0
 11
-128.7104207645233
 21
-13.47130311219799
 31
0.0
  0
LINE
  5
186
330
1F
100
AcDbEntity
  8
0-E
  6
Continuous
 62
     7
370
     9
100
AcDbLine
 10
7.823137024222433
 20
14.48634096376271
 30
0.0
 11
22.57673644884235
 21
40.04028037069896
 31
0.0
  0
LINE
  5
187
330
1F
100
AcDbEntity
  8
0-E
  6
Continuous
 62
     7
370
     9
100
AcDbLine
 10
27.81142487261766
 20
49.1071188155892
 30
0.0
 11
61.90341145148172
 21
108.15618283322
 31
0.0
  0
LINE
  5
188
330
1F
100
AcDbEntity
  8
0-E
  6
Continuous
 62
     7
370
     9
100
AcDbLine
 10
-125.8402796578405
 20
-20.4004099534142
 30
0.0
 11
-163.6893677596142
 21
45.15616056363607
 31
0.0
  0
LINE
  5
189
330
1F
100
AcDbEntity
  8
0-E
  6
Continuous
 62
     7
370
     9
100
AcDbLine
 10
-46.13636202560866
 20
13.95424636916818
 30
0.0
 11
-109.1841154369791
 21
123.1561580892378
 31
0.0
  0
LINE
  5
18A
330
1F
100
AcDbEntity
  8
0-E
  6
Continuous
 62
     7
370
     9
100
AcDbLine
 10
61.90341145148172
 20
108.15618283322
 30
0.0
 11
207.0211515670856
 21
108.15618283322
 31
0.0
  0
LINE
  5
18B
330
1F
100
AcDbEntity
  8
0-E
  6
Continuous
 62
     7
370
     9
100
AcDbLine
 10
-163.6893677596142
 20
45.15616056363607
 30
0.0
 11
-250.7254717041348
 21
45.15616056363607
 31
0.0
  0
LINE
  5
18C
330
1F
100
AcDbEntity
  8
0-E
  6
Continuous
 62
     7
370
     9
100
AcDbLine
 10
-227.370616604895
 20
123.1561580892378
 30
0.0
 11
-109.1841154369791
 21
123.1561580892378
 31
0.0
  0
LINE
  5
18D
330
1F
100
AcDbEntity
  8
躯体
  6
Continuous
 62
     2
370
     9
100
AcDbLine
 10
-121.3402648114512
 20
-25.75041770652864
 30
0.0
 11
-117.3402392426695
 21
-25.75041770652864
 31
0.0
  0
LINE
  5
18E
330
1F
100
AcDbEntity
  8
躯体
  6
Continuous
 62
     2
370
     9
100
AcDbLine
 10
-123.5402399025091
 20
-21.65043882139348
 30
0.0
 11
-115.1402641516116
 21
-21.65043882139348
 31
0.0
  0
LINE
  5
18F
330
1F
100
AcDbEntity
  8
躯体
  6
Continuous
 62
     2
370
     9
100
AcDbLine
 10
-117.6114827762421
 20
-24.59959983543489
 30
0.0
 11
-117.9402560685774
 21
-25.75041770652864
 31
0.0
  0
LINE
  5
190
330
1F
100
AcDbEntity
  8
躯体
  6
Continuous
 62
     2
370
     9
100
AcDbLine
 10
-117.3402392426695
 20
-25.75041770652864
 30
0.0
 11
-117.7416484949394
 21
-25.05523552483526
 31
0.0
  0
LINE
  5
191
330
1F
100
AcDbEntity
  8
躯体
  6
Continuous
 62
     2
370
     9
100
AcDbLine
 10
-117.3570527786176
 20
-24.16719874537998
 30
0.0
 11
-115.1402641516116
 21
-21.95044723434749
 31
0.0
  0
LINE
  5
192
330
1F
100
AcDbEntity
  8
躯体
  6
Continuous
 62
     2
370
     9
100
AcDbLine
 10
-115.1402641516116
 20
-21.65043882139348
 30
0.0
 11
-115.1402641516116
 21
-21.95044723434749
 31
0.0
  0
LINE
  5
193
330
1F
100
AcDbEntity
  8
躯体
  6
Continuous
 62
     2
370
     9
100
AcDbLine
 10
-123.5402399025091
 20
-21.65043882139348
 30
0.0
 11
-123.5402399025091
 21
-21.95044723434749
 31
0.0
  0
LINE
  5
194
330
1F
100
AcDbEntity
  8
躯体
  6
Continuous
 62
     2
370
     9
100
AcDbLine
 10
-123.5402399025091
 20
-21.95044723434749
 30
0.0
 11
-115.1402641516116
 21
-21.95044723434749
 31
0.0
  0
LINE
  5
195
330
1F
100
AcDbEntity
  8
躯体
  6
Continuous
 62
     2
370
     9
100
AcDbLine
 10
-121.0690583938519
 20
-24.59959983543489
 30
0.0
 11
-120.7402479855433
 21
-25.75041770652864
 31
0.0
  0
LINE
  5
196
330
1F
100
AcDbEntity
  8
躯体
  6
Continuous
 62
     2
370
     9
100
AcDbLine
 10
-121.3402648114512
 20
-25.75041770652864
 30
0.0
 11
-120.9388555591813
 21
-25.05523552483526
 31
0.0
  0
LINE
  5
197
330
1F
100
AcDbEntity
  8
躯体
  6
Continuous
 62
     2
370
     9
100
AcDbLine
 10
-121.3234883914765
 20
-24.16719874537998
 30
0.0
 11
-123.5402399025091
 21
-21.95044723434749
 31
0.0
  0
LINE
  5
198
330
1F
100
AcDbEntity
  8
躯体
  6
Continuous
 62
     2
370
     9
100
AcDbLine
 10
-121.1788103271817
 20
-24.35044030603245
 30
0.0
 11
-117.5016937269389
 21
-24.35044030603245
 31
0.0
  0
LINE
  5
199
330
1F
100
AcDbEntity
  8
躯体
  6
Continuous
 62
     4
370
     9
100
AcDbLine
 10
-115.1324326812252
 20
-31.40039675662364
 30
0.0
 11
-112.8402243962801
 21
-31.40039675662364
 31
0.0
  0
LINE
  5
19A
330
1F
100
AcDbEntity
  8
躯体
  6
Continuous
 62
     4
370
     9
100
AcDbLine
 10
-112.8402243962801
 20
-34.40040665421659
 30
0.0
 11
-112.8402243962801
 21
-31.40039675662364
 31
0.0
  0
LINE
  5
19B
330
1F
100
AcDbEntity
  8
躯体
  6
Continuous
 62
     4
370
     9
100
AcDbLine
 10
-122.5944877844241
 20
-31.40039675662364
 30
0.0
 11
-137.8402450162654
 21
-31.40039675662364
 31
0.0
  0
LINE
  5
19C
330
1F
100
AcDbEntity
  8
躯体
  6
Continuous
 62
     4
370
     9
100
AcDbLine
 10
-137.8402450162654
 20
-34.40040665421659
 30
0.0
 11
-137.8402450162654
 21
-31.40039675662364
 31
0.0
  0
LINE
  5
19D
330
1F
100
AcDbEntity
  8
躯体
  6
Continuous
 62
     4
370
     9
100
AcDbLine
 10
-116.0902474906636
 20
-34.40040665421659
 30
0.0
 11
-116.0902474906636
 21
-31.40039675662364
 31
0.0
  0
LINE
  5
19E
330
1F
100
AcDbEntity
  8
躯体
  6
Continuous
 62
     4
370
     9
100
AcDbLine
 10
-122.5902565634571
 20
-34.40040665421659
 30
0.0
 11
-122.5902565634571
 21
-31.40039675662364
 31
0.0
  0
LINE
  5
19F
330
1F
100
AcDbEntity
  8
躯体
  6
Continuous
 62
     2
370
     9
100
AcDbLine
 10
-115.2902498001019
 20
-37.22511780946362
 30
0.0
 11
-115.2902498001019
 21
-34.40040665421659
 31
0.0
  0
LINE
  5
1A0
330
1F
100
AcDbEntity
  8
躯体
  6
Continuous
 62
     2
370
     9
100
AcDbLine
 10
-123.3902542540187
 20
-37.22515492543702
 30
0.0
 11
-123.3902542540187
 21
-34.40040665421659
 31
0.0
  0
LINE
  5
1A1
330
1F
100
AcDbEntity
  8
躯体
  6
Continuous
 62
     2
370
     9
100
AcDbLine
 10
-117.3109918556341
 20
-37.22511780946362
 30
0.0
 11
-117.3109918556341
 21
-34.40040665421659
 31
0.0
  0
LINE
  5
1A2
330
1F
100
AcDbEntity
  8
躯体
  6
Continuous
 62
     2
370
     9
100
AcDbLine
 10
-121.3695493144601
 20
-37.22511780946362
 30
0.0
 11
-121.3695493144601
 21
-34.40040665421659
 31
0.0
  0
LINE
  5
1A3
330
1F
100
AcDbEntity
  8
躯体
  6
Continuous
 62
     2
370
     9
100
AcDbLine
 10
-116.300620827868
 20
-37.60039741646317
 30
0.0
 11
-122.3799203422261
 21
-37.60039741646317
 31
0.0
  0
LINE
  5
1A4
330
1F
100
AcDbEntity
  8
躯体
  6
Continuous
 62
     4
370
     9
100
AcDbLine
 10
-112.8402243962801
 20
-34.40040665421659
 30
0.0
 11
-115.2902498001019
 21
-34.40040665421659
 31
0.0
  0
LINE
  5
1A5
330
1F
100
AcDbEntity
  8
躯体
  6
Continuous
 62
     4
370
     9
100
AcDbLine
 10
-123.3902542540187
 20
-34.40040665421659
 30
0.0
 11
-137.8402450162654
 21
-34.40040665421659
 31
0.0
  0
LINE
  5
1A6
330
1F
100
AcDbEntity
  8
躯体
  6
Continuous
 62
     2
370
     9
100
AcDbLine
 10
-123.3902542540187
 20
-34.40040665421659
 30
0.0
 11
-115.2902498001019
 21
-34.40040665421659
 31
0.0
  0
LINE
  5
1A7
330
1F
100
AcDbEntity
  8
躯体
  6
Continuous
 62
     2
370
     9
100
AcDbLine
 10
-117.9402560685774
 20
-25.75041770652864
 30
0.0
 11
-117.9402560685774
 21
-34.40040665421659
 31
0.0
  0
LINE
  5
1A8
330
1F
100
AcDbEntity
  8
躯体
  6
Continuous
 62
     2
370
     9
100
AcDbLine
 10
-117.3402392426695
 20
-25.75041770652864
 30
0.0
 11
-117.3402392426695
 21
-34.40040665421659
 31
0.0
  0
LINE
  5
1A9
330
1F
100
AcDbEntity
  8
躯体
  6
Continuous
 62
     2
370
     9
100
AcDbLine
 10
-120.7402479855433
 20
-25.75041770652864
 30
0.0
 11
-120.7402479855433
 21
-34.40040665421659
 31
0.0
  0
LINE
  5
1AA
330
1F
100
AcDbEntity
  8
躯体
  6
Continuous
 62
     2
370
     9
100
AcDbLine
 10
-121.3402648114512
 20
-25.75041770652864
 30
0.0
 11
-121.3402648114512
 21
-34.40040665421659
 31
0.0
  0
LINE
  5
1AB
330
1F
100
AcDbEntity
  8
躯体
  6
Continuous
 62
     2
370
     9
100
AcDbLine
 10
-117.3402392426695
 20
-41.05043849147373
 30
0.0
 11
-117.9402560685774
 21
-41.65045531738171
 31
0.0
  0
LINE
  5
1AC
330
1F
100
AcDbEntity
  8
躯体
  6
Continuous
 62
     2
370
     9
100
AcDbLine
 10
-120.7402479855433
 20
-41.65045531738171
 30
0.0
 11
-121.3402648114512
 21
-41.05043849147373
 31
0.0
  0
LINE
  5
1AD
330
1F
100
AcDbEntity
  8
躯体
  6
Continuous
 62
     2
370
     9
100
AcDbLine
 10
-117.9402560685774
 20
-37.60039741646317
 30
0.0
 11
-117.9402560685774
 21
-41.65045531738171
 31
0.0
  0
LINE
  5
1AE
330
1F
100
AcDbEntity
  8
躯体
  6
Continuous
 62
     2
370
     9
100
AcDbLine
 10
-120.7402479855433
 20
-41.65045531738171
 30
0.0
 11
-117.9402560685774
 21
-41.65045531738171
 31
0.0
  0
LINE
  5
1AF
330
1F
100
AcDbEntity
  8
躯体
  6
Continuous
 62
     2
370
     9
100
AcDbLine
 10
-120.7402479855433
 20
-37.60039741646317
 30
0.0
 11
-120.7402479855433
 21
-41.65045531738171
 31
0.0
  0
LINE
  5
1B0
330
1F
100
AcDbEntity
  8
躯体
  6
Continuous
 62
     2
370
     9
100
AcDbLine
 10
-121.3402648114512
 20
-37.60039741646317
 30
0.0
 11
-121.3402648114512
 21
-41.05043849147373
 31
0.0
  0
LINE
  5
1B1
330
1F
100
AcDbEntity
  8
躯体
  6
Continuous
 62
     2
370
     9
100
AcDbLine
 10
-121.3402648114512
 20
-41.05043849147373
 30
0.0
 11
-117.3402392426695
 21
-41.05043849147373
 31
0.0
  0
LINE
  5
1B2
330
1F
100
AcDbEntity
  8
躯体
  6
Continuous
 62
     2
370
     9
100
AcDbLine
 10
-117.3402392426695
 20
-37.60039741646317
 30
0.0
 11
-117.3402392426695
 21
-41.05043849147373
 31
0.0
  0
LINE
  5
1B3
330
1F
100
AcDbEntity
  8
躯体
  6
Continuous
 62
     4
370
     9
100
AcDbLine
 10
-137.8402821322387
 20
268.9065399713642
 30
0.0
 11
-137.8402821322387
 21
287.906577912137
 31
0.0
  0
LINE
  5
1B4
330
1F
100
AcDbEntity
  8
躯体
  6
Continuous
 62
     2
370
     9
100
AcDbLine
 10
-118.0908726886155
 20
277.8882343732855
 30
0.0
 11
-118.5894515592341
 21
277.6557399159376
 31
0.0
  0
LINE
  5
1B5
330
1F
100
AcDbEntity
  8
躯体
  6
Continuous
 62
     2
370
     9
100
AcDbLine
 10
-118.8219460165821
 20
277.1571239293455
 30
0.0
 11
-118.5894515592341
 21
277.6557399159376
 31
0.0
  0
LINE
  5
1B6
330
1F
100
AcDbEntity
  8
躯体
  6
Continuous
 62
     2
370
     9
100
AcDbLine
 10
-118.0908726886155
 20
278.9248835102155
 30
0.0
 11
-118.5894515592341
 21
279.1573779675634
 31
0.0
  0
LINE
  5
1B7
330
1F
100
AcDbEntity
  8
躯体
  6
Continuous
 62
     2
370
     9
100
AcDbLine
 10
-118.8219460165821
 20
279.6559939541555
 30
0.0
 11
-118.5894515592341
 21
279.1573779675634
 31
0.0
  0
LINE
  5
1B8
330
1F
100
AcDbEntity
  8
躯体
  6
Continuous
 62
     2
370
     9
100
AcDbLine
 10
-120.589705597452
 20
277.8882343732855
 30
0.0
 11
-120.0911267268334
 21
277.6557399159376
 31
0.0
  0
LINE
  5
1B9
330
1F
100
AcDbEntity
  8
躯体
  6
Continuous
 62
     2
370
     9
100
AcDbLine
 10
-119.858595153512
 20
277.1571239293455
 30
0.0
 11
-120.0911267268334
 21
277.6557399159376
 31
0.0
  0
LINE
  5
1BA
330
1F
100
AcDbEntity
  8
躯体
  6
Continuous
 62
     2
370
     9
100
AcDbLine
 10
-120.589705597452
 20
278.9248835102155
 30
0.0
 11
-120.0911267268334
 21
279.1573779675634
 31
0.0
  0
LINE
  5
1BB
330
1F
100
AcDbEntity
  8
躯体
  6
Continuous
 62
     2
370
     9
100
AcDbLine
 10
-119.858595153512
 20
279.6559939541555
 30
0.0
 11
-120.0911267268334
 21
279.1573779675634
 31
0.0
  0
LINE
  5
1BC
330
1F
100
AcDbEntity
  8
躯体
  6
Continuous
 62
     2
370
     9
100
AcDbLine
 10
-118.8420628741623
 20
280.8065891294089
 30
0.0
 11
-118.8219460165821
 21
279.6559939541555
 31
0.0
  0
LINE
  5
1BD
330
1F
100
AcDbEntity
  8
躯体
  6
Continuous
 62
     2
370
     9
100
AcDbLine
 10
-118.8420628741623
 20
280.8065891294089
 30
0.0
 11
-119.8385525278785
 21
280.8065891294089
 31
0.0
  0
LINE
  5
1BE
330
1F
100
AcDbEntity
  8
躯体
  6
Continuous
 62
     2
370
     9
100
AcDbLine
 10
-119.8385525278785
 20
280.8065891294089
 30
0.0
 11
-119.858595153512
 21
279.6559939541555
 31
0.0
  0
LINE
  5
1BF
330
1F
100
AcDbEntity
  8
躯体
  6
Continuous
 62
     2
370
     9
100
AcDbLine
 10
-121.7403007727054
 20
278.9047666526352
 30
0.0
 11
-120.589705597452
 21
278.9248835102155
 31
0.0
  0
LINE
  5
1C0
330
1F
100
AcDbEntity
  8
躯体
  6
Continuous
 62
     2
370
     9
100
AcDbLine
 10
-121.7403007727054
 20
277.908276998919
 30
0.0
 11
-120.589705597452
 21
277.8882343732855
 31
0.0
  0
LINE
  5
1C1
330
1F
100
AcDbEntity
  8
躯体
  6
Continuous
 62
     2
370
     9
100
AcDbLine
 10
-121.7403007727054
 20
278.9047666526352
 30
0.0
 11
-121.7403007727054
 21
277.908276998919
 31
0.0
  0
LINE
  5
1C2
330
1F
100
AcDbEntity
  8
躯体
  6
Continuous
 62
     2
370
     9
100
AcDbLine
 10
-119.8385525278785
 20
276.0065287540922
 30
0.0
 11
-119.858595153512
 21
277.1571239293455
 31
0.0
  0
LINE
  5
1C3
330
1F
100
AcDbEntity
  8
躯体
  6
Continuous
 62
     2
370
     9
100
AcDbLine
 10
-118.8420628741623
 20
276.0065287540922
 30
0.0
 11
-119.8385525278785
 21
276.0065287540922
 31
0.0
  0
LINE
  5
1C4
330
1F
100
AcDbEntity
  8
躯体
  6
Continuous
 62
     2
370
     9
100
AcDbLine
 10
-118.8420628741623
 20
276.0065287540922
 30
0.0
 11
-118.8219460165821
 21
277.1571239293455
 31
0.0
  0
LINE
  5
1C5
330
1F
100
AcDbEntity
  8
躯体
  6
Continuous
 62
     2
370
     9
100
AcDbLine
 10
-116.9402775133621
 20
277.908276998919
 30
0.0
 11
-118.0908726886155
 21
277.8882343732855
 31
0.0
  0
LINE
  5
1C6
330
1F
100
AcDbEntity
  8
躯体
  6
Continuous
 62
     2
370
     9
100
AcDbLine
 10
-116.9402775133621
 20
278.9047666526352
 30
0.0
 11
-116.9402775133621
 21
277.908276998919
 31
0.0
  0
LINE
  5
1C7
330
1F
100
AcDbEntity
  8
躯体
  6
Continuous
 62
     2
370
     9
100
AcDbLine
 10
-116.9402775133621
 20
278.9047666526352
 30
0.0
 11
-118.0908726886155
 21
278.9248835102155
 31
0.0
  0
LINE
  5
1C8
330
1F
100
AcDbEntity
  8
躯体
  6
Continuous
 62
     4
370
     9
100
AcDbLine
 10
-125.3077396715652
 20
287.906577912137
 30
0.0
 11
-137.8402821322387
 21
287.906577912137
 31
0.0
  0
LINE
  5
1C9
330
1F
100
AcDbEntity
  8
躯体
  6
Continuous
 62
     4
370
     9
100
AcDbLine
 10
-125.3077396715652
 20
268.9065399713642
 30
0.0
 11
-137.8402821322387
 21
268.9065399713642
 31
0.0
  0
LINE
  5
1CA
330
1F
100
AcDbEntity
  8
躯体
  6
Continuous
 62
     4
370
     9
100
AcDbLine
 10
-31.3403019274246
 20
181.4060780836952
 30
0.0
 11
-50.34033986819733
 21
181.4060780836952
 31
0.0
  0
LINE
  5
1CB
330
1F
100
AcDbEntity
  8
躯体
  6
Continuous
 62
     2
370
     9
100
AcDbLine
 10
-40.32199632934601
 20
201.1554875273185
 30
0.0
 11
-40.08950187199804
 21
200.6569086566998
 31
0.0
  0
LINE
  5
1CC
330
1F
100
AcDbEntity
  8
躯体
  6
Continuous
 62
     2
370
     9
100
AcDbLine
 10
-39.59088588540601
 20
200.4244141993519
 30
0.0
 11
-40.08950187199804
 21
200.6569086566998
 31
0.0
  0
LINE
  5
1CD
330
1F
100
AcDbEntity
  8
躯体
  6
Continuous
 62
     2
370
     9
100
AcDbLine
 10
-41.35864546627593
 20
201.1554875273185
 30
0.0
 11
-41.5911399236239
 21
200.6569086566998
 31
0.0
  0
LINE
  5
1CE
330
1F
100
AcDbEntity
  8
躯体
  6
Continuous
 62
     2
370
     9
100
AcDbLine
 10
-42.08975591021593
 20
200.4244141993519
 30
0.0
 11
-41.5911399236239
 21
200.6569086566998
 31
0.0
  0
LINE
  5
1CF
330
1F
100
AcDbEntity
  8
躯体
  6
Continuous
 62
     2
370
     9
100
AcDbLine
 10
-40.32199632934601
 20
198.656654618482
 30
0.0
 11
-40.08950187199804
 21
199.1552334891006
 31
0.0
  0
LINE
  5
1D0
330
1F
100
AcDbEntity
  8
躯体
  6
Continuous
 62
     2
370
     9
100
AcDbLine
 10
-39.59088588540601
 20
199.3877650624219
 30
0.0
 11
-40.08950187199804
 21
199.1552334891006
 31
0.0
  0
LINE
  5
1D1
330
1F
100
AcDbEntity
  8
躯体
  6
Continuous
 62
     2
370
     9
100
AcDbLine
 10
-41.35864546627593
 20
198.656654618482
 30
0.0
 11
-41.5911399236239
 21
199.1552334891006
 31
0.0
  0
LINE
  5
1D2
330
1F
100
AcDbEntity
  8
躯体
  6
Continuous
 62
     2
370
     9
100
AcDbLine
 10
-42.08975591021593
 20
199.3877650624219
 30
0.0
 11
-41.5911399236239
 21
199.1552334891006
 31
0.0
  0
LINE
  5
1D3
330
1F
100
AcDbEntity
  8
躯体
  6
Continuous
 62
     2
370
     9
100
AcDbLine
 10
-43.24035108546937
 20
200.4042973417716
 30
0.0
 11
-42.08975591021593
 21
200.4244141993519
 31
0.0
  0
LINE
  5
1D4
330
1F
100
AcDbEntity
  8
躯体
  6
Continuous
 62
     2
370
     9
100
AcDbLine
 10
-43.24035108546937
 20
200.4042973417716
 30
0.0
 11
-43.24035108546937
 21
199.4078076880554
 31
0.0
  0
LINE
  5
1D5
330
1F
100
AcDbEntity
  8
躯体
  6
Continuous
 62
     2
370
     9
100
AcDbLine
 10
-43.24035108546937
 20
199.4078076880554
 30
0.0
 11
-42.08975591021593
 21
199.3877650624219
 31
0.0
  0
LINE
  5
1D6
330
1F
100
AcDbEntity
  8
躯体
  6
Continuous
 62
     2
370
     9
100
AcDbLine
 10
-41.3385286086957
 20
197.5060594432286
 30
0.0
 11
-41.35864546627593
 21
198.656654618482
 31
0.0
  0
LINE
  5
1D7
330
1F
100
AcDbEntity
  8
躯体
  6
Continuous
 62
     2
370
     9
100
AcDbLine
 10
-40.34203895497944
 20
197.5060594432286
 30
0.0
 11
-40.32199632934601
 21
198.656654618482
 31
0.0
  0
LINE
  5
1D8
330
1F
100
AcDbEntity
  8
躯体
  6
Continuous
 62
     2
370
     9
100
AcDbLine
 10
-41.3385286086957
 20
197.5060594432286
 30
0.0
 11
-40.34203895497944
 21
197.5060594432286
 31
0.0
  0
LINE
  5
1D9
330
1F
100
AcDbEntity
  8
躯体
  6
Continuous
 62
     2
370
     9
100
AcDbLine
 10
-38.44029071015257
 20
199.4078076880554
 30
0.0
 11
-39.59088588540601
 21
199.3877650624219
 31
0.0
  0
LINE
  5
1DA
330
1F
100
AcDbEntity
  8
躯体
  6
Continuous
 62
     2
370
     9
100
AcDbLine
 10
-38.44029071015257
 20
200.4042973417716
 30
0.0
 11
-38.44029071015257
 21
199.4078076880554
 31
0.0
  0
LINE
  5
1DB
330
1F
100
AcDbEntity
  8
躯体
  6
Continuous
 62
     2
370
     9
100
AcDbLine
 10
-38.44029071015257
 20
200.4042973417716
 30
0.0
 11
-39.59088588540601
 21
200.4244141993519
 31
0.0
  0
LINE
  5
1DC
330
1F
100
AcDbEntity
  8
躯体
  6
Continuous
 62
     2
370
     9
100
AcDbLine
 10
-40.34203895497944
 20
202.3060827025719
 30
0.0
 11
-40.32199632934601
 21
201.1554875273185
 31
0.0
  0
LINE
  5
1DD
330
1F
100
AcDbEntity
  8
躯体
  6
Continuous
 62
     2
370
     9
100
AcDbLine
 10
-41.3385286086957
 20
202.3060827025719
 30
0.0
 11
-40.34203895497944
 21
202.3060827025719
 31
0.0
  0
LINE
  5
1DE
330
1F
100
AcDbEntity
  8
躯体
  6
Continuous
 62
     2
370
     9
100
AcDbLine
 10
-41.3385286086957
 20
202.3060827025719
 30
0.0
 11
-41.35864546627593
 21
201.1554875273185
 31
0.0
  0
LINE
  5
1DF
330
1F
100
AcDbEntity
  8
躯体
  6
Continuous
 62
     4
370
     9
100
AcDbLine
 10
-50.34033986819733
 20
193.9386205443687
 30
0.0
 11
-50.34033986819733
 21
181.4060780836952
 31
0.0
  0
LINE
  5
1E0
330
1F
100
AcDbEntity
  8
躯体
  6
Continuous
 62
     4
370
     9
100
AcDbLine
 10
-31.3403019274246
 20
193.9386205443687
 30
0.0
 11
-31.3403019274246
 21
181.4060780836952
 31
0.0
  0
LINE
  5
1E1
330
1F
100
AcDbEntity
  8
躯体
  6
Continuous
 62
     4
370
     9
100
AcDbLine
 10
56.1597145685636
 20
287.9056128968286
 30
0.0
 11
56.1597145685636
 21
268.9055749560558
 31
0.0
  0
LINE
  5
1E2
330
1F
100
AcDbEntity
  8
躯体
  6
Continuous
 62
     2
370
     9
100
AcDbLine
 10
36.41030512494032
 20
278.9239184949072
 30
0.0
 11
36.90884687958555
 21
279.1564129522552
 31
0.0
  0
LINE
  5
1E3
330
1F
100
AcDbEntity
  8
躯体
  6
Continuous
 62
     2
370
     9
100
AcDbLine
 10
37.14134133693352
 20
279.6550289388473
 30
0.0
 11
36.90884687958555
 21
279.1564129522552
 31
0.0
  0
LINE
  5
1E4
330
1F
100
AcDbEntity
  8
躯体
  6
Continuous
 62
     2
370
     9
100
AcDbLine
 10
36.41030512494032
 20
277.8872693579773
 30
0.0
 11
36.90884687958555
 21
277.6547749006293
 31
0.0
  0
LINE
  5
1E5
330
1F
100
AcDbEntity
  8
躯体
  6
Continuous
 62
     2
370
     9
100
AcDbLine
 10
37.14134133693352
 20
277.1561589140373
 30
0.0
 11
36.90884687958555
 21
277.6547749006293
 31
0.0
  0
LINE
  5
1E6
330
1F
100
AcDbEntity
  8
躯体
  6
Continuous
 62
     2
370
     9
100
AcDbLine
 10
38.90910091780344
 20
278.9239184949072
 30
0.0
 11
38.41055916315821
 21
279.1564129522552
 31
0.0
  0
LINE
  5
1E7
330
1F
100
AcDbEntity
  8
躯体
  6
Continuous
 62
     2
370
     9
100
AcDbLine
 10
38.17806470581024
 20
279.6550289388473
 30
0.0
 11
38.41055916315821
 21
279.1564129522552
 31
0.0
  0
LINE
  5
1E8
330
1F
100
AcDbEntity
  8
躯体
  6
Continuous
 62
     2
370
     9
100
AcDbLine
 10
38.90910091780344
 20
277.8872693579773
 30
0.0
 11
38.41055916315821
 21
277.6547749006293
 31
0.0
  0
LINE
  5
1E9
330
1F
100
AcDbEntity
  8
躯体
  6
Continuous
 62
     2
370
     9
100
AcDbLine
 10
38.17806470581024
 20
277.1561589140373
 30
0.0
 11
38.41055916315821
 21
277.6547749006293
 31
0.0
  0
LINE
  5
1EA
330
1F
100
AcDbEntity
  8
躯体
  6
Continuous
 62
     2
370
     9
100
AcDbLine
 10
37.16153242646055
 20
276.0055637387839
 30
0.0
 11
37.14134133693352
 21
277.1561589140373
 31
0.0
  0
LINE
  5
1EB
330
1F
100
AcDbEntity
  8
躯体
  6
Continuous
 62
     2
370
     9
100
AcDbLine
 10
37.16153242646055
 20
276.0055637387839
 30
0.0
 11
38.15802208017681
 21
276.0055637387839
 31
0.0
  0
LINE
  5
1EC
330
1F
100
AcDbEntity
  8
躯体
  6
Continuous
 62
     2
370
     9
100
AcDbLine
 10
38.15802208017681
 20
276.0055637387839
 30
0.0
 11
38.17806470581024
 21
277.1561589140373
 31
0.0
  0
LINE
  5
1ED
330
1F
100
AcDbEntity
  8
躯体
  6
Continuous
 62
     2
370
     9
100
AcDbLine
 10
40.05969609305689
 20
277.9073862155575
 30
0.0
 11
38.90910091780344
 21
277.8872693579773
 31
0.0
  0
LINE
  5
1EE
330
1F
100
AcDbEntity
  8
躯体
  6
Continuous
 62
     2
370
     9
100
AcDbLine
 10
40.05969609305689
 20
278.9038758692737
 30
0.0
 11
38.90910091780344
 21
278.9239184949072
 31
0.0
  0
LINE
  5
1EF
330
1F
100
AcDbEntity
  8
躯体
  6
Continuous
 62
     2
370
     9
100
AcDbLine
 10
40.05969609305689
 20
277.9073862155575
 30
0.0
 11
40.05969609305689
 21
278.9038758692737
 31
0.0
  0
LINE
  5
1F0
330
1F
100
AcDbEntity
  8
躯体
  6
Continuous
 62
     2
370
     9
100
AcDbLine
 10
38.15802208017681
 20
280.8056241141006
 30
0.0
 11
38.17806470581024
 21
279.6550289388473
 31
0.0
  0
LINE
  5
1F1
330
1F
100
AcDbEntity
  8
躯体
  6
Continuous
 62
     2
370
     9
100
AcDbLine
 10
37.16153242646055
 20
280.8056241141006
 30
0.0
 11
38.15802208017681
 21
280.8056241141006
 31
0.0
  0
LINE
  5
1F2
330
1F
100
AcDbEntity
  8
躯体
  6
Continuous
 62
     2
370
     9
100
AcDbLine
 10
37.16153242646055
 20
280.8056241141006
 30
0.0
 11
37.14134133693352
 21
279.6550289388473
 31
0.0
  0
LINE
  5
1F3
330
1F
100
AcDbEntity
  8
躯体
  6
Continuous
 62
     2
370
     9
100
AcDbLine
 10
35.25970994968696
 20
278.9038758692737
 30
0.0
 11
36.41030512494032
 21
278.9239184949072
 31
0.0
  0
LINE
  5
1F4
330
1F
100
AcDbEntity
  8
躯体
  6
Continuous
 62
     2
370
     9
100
AcDbLine
 10
35.25970994968696
 20
277.9073862155575
 30
0.0
 11
35.25970994968696
 21
278.9038758692737
 31
0.0
  0
LINE
  5
1F5
330
1F
100
AcDbEntity
  8
躯体
  6
Continuous
 62
     2
370
     9
100
AcDbLine
 10
35.25970994968696
 20
277.9073862155575
 30
0.0
 11
36.41030512494032
 21
277.8872693579773
 31
0.0
  0
LINE
  5
1F6
330
1F
100
AcDbEntity
  8
躯体
  6
Continuous
 62
     4
370
     9
100
AcDbLine
 10
43.62713499191665
 20
268.9055749560558
 30
0.0
 11
56.1597145685636
 21
268.9055749560558
 31
0.0
  0
LINE
  5
1F7
330
1F
100
AcDbEntity
  8
躯体
  6
Continuous
 62
     4
370
     9
100
AcDbLine
 10
43.62713499191665
 20
287.9056128968286
 30
0.0
 11
56.1597145685636
 21
287.9056128968286
 31
0.0
  0
LINE
  5
1F8
330
1F
100
AcDbEntity
  8
躯体
  6
Continuous
 62
     4
370
     9
100
AcDbLine
 10
-50.34026563625062
 20
375.4051840011361
 30
0.0
 11
-31.34022769547781
 21
375.4051840011361
 31
0.0
  0
LINE
  5
1F9
330
1F
100
AcDbEntity
  8
躯体
  6
Continuous
 62
     2
370
     9
100
AcDbLine
 10
-41.35857123432913
 20
355.6557745575128
 30
0.0
 11
-41.5910656916771
 21
356.1543905441048
 31
0.0
  0
LINE
  5
1FA
330
1F
100
AcDbEntity
  8
躯体
  6
Continuous
 62
     2
370
     9
100
AcDbLine
 10
-42.08968167826913
 20
356.3868850014528
 30
0.0
 11
-41.5910656916771
 21
356.1543905441048
 31
0.0
  0
LINE
  5
1FB
330
1F
100
AcDbEntity
  8
躯体
  6
Continuous
 62
     2
370
     9
100
AcDbLine
 10
-40.32192209739921
 20
355.6557745575128
 30
0.0
 11
-40.08942764005124
 21
356.1543905441048
 31
0.0
  0
LINE
  5
1FC
330
1F
100
AcDbEntity
  8
躯体
  6
Continuous
 62
     2
370
     9
100
AcDbLine
 10
-39.59081165345921
 20
356.3868850014528
 30
0.0
 11
-40.08942764005124
 21
356.1543905441048
 31
0.0
  0
LINE
  5
1FD
330
1F
100
AcDbEntity
  8
躯体
  6
Continuous
 62
     2
370
     9
100
AcDbLine
 10
-41.35857123432913
 20
358.1546445823227
 30
0.0
 11
-41.5910656916771
 21
357.6560285957307
 31
0.0
  0
LINE
  5
1FE
330
1F
100
AcDbEntity
  8
躯体
  6
Continuous
 62
     2
370
     9
100
AcDbLine
 10
-42.08968167826913
 20
357.4234599064359
 30
0.0
 11
-41.5910656916771
 21
357.6560285957307
 31
0.0
  0
LINE
  5
1FF
330
1F
100
AcDbEntity
  8
躯体
  6
Continuous
 62
     2
370
     9
100
AcDbLine
 10
-40.32192209739921
 20
358.1546445823227
 30
0.0
 11
-40.08942764005124
 21
357.6560285957307
 31
0.0
  0
LINE
  5
200
330
1F
100
AcDbEntity
  8
躯体
  6
Continuous
 62
     2
370
     9
100
AcDbLine
 10
-39.59081165345921
 20
357.4234599064359
 30
0.0
 11
-40.08942764005124
 21
357.6560285957307
 31
0.0
  0
LINE
  5
201
330
1F
100
AcDbEntity
  8
躯体
  6
Continuous
 62
     2
370
     9
100
AcDbLine
 10
-38.44021647820585
 20
356.4069276270862
 30
0.0
 11
-39.59081165345921
 21
356.3868850014528
 31
0.0
  0
LINE
  5
202
330
1F
100
AcDbEntity
  8
躯体
  6
Continuous
 62
     2
370
     9
100
AcDbLine
 10
-38.44021647820585
 20
356.4069276270862
 30
0.0
 11
-38.44021647820585
 21
357.4034172808025
 31
0.0
  0
LINE
  5
203
330
1F
100
AcDbEntity
  8
躯体
  6
Continuous
 62
     2
370
     9
100
AcDbLine
 10
-38.44021647820585
 20
357.4034172808025
 30
0.0
 11
-39.59081165345921
 21
357.4234599064359
 31
0.0
  0
LINE
  5
204
330
1F
100
AcDbEntity
  8
躯体
  6
Continuous
 62
     2
370
     9
100
AcDbLine
 10
-40.34203895497944
 20
359.3052397575761
 30
0.0
 11
-40.32192209739921
 21
358.1546445823227
 31
0.0
  0
LINE
  5
205
330
1F
100
AcDbEntity
  8
躯体
  6
Continuous
 62
     2
370
     9
100
AcDbLine
 10
-41.3385286086957
 20
359.3052397575761
 30
0.0
 11
-41.35857123432913
 21
358.1546445823227
 31
0.0
  0
LINE
  5
206
330
1F
100
AcDbEntity
  8
躯体
  6
Continuous
 62
     2
370
     9
100
AcDbLine
 10
-40.34203895497944
 20
359.3052397575761
 30
0.0
 11
-41.3385286086957
 21
359.3052397575761
 31
0.0
  0
LINE
  5
207
330
1F
100
AcDbEntity
  8
躯体
  6
Continuous
 62
     2
370
     9
100
AcDbLine
 10
-43.24027685352257
 20
357.4034172808025
 30
0.0
 11
-42.08968167826913
 21
357.4234599064359
 31
0.0
  0
LINE
  5
208
330
1F
100
AcDbEntity
  8
躯体
  6
Continuous
 62
     2
370
     9
100
AcDbLine
 10
-43.24027685352257
 20
356.4069276270862
 30
0.0
 11
-43.24027685352257
 21
357.4034172808025
 31
0.0
  0
LINE
  5
209
330
1F
100
AcDbEntity
  8
躯体
  6
Continuous
 62
     2
370
     9
100
AcDbLine
 10
-43.24027685352257
 20
356.4069276270862
 30
0.0
 11
-42.08968167826913
 21
356.3868850014528
 31
0.0
  0
LINE
  5
20A
330
1F
100
AcDbEntity
  8
躯体
  6
Continuous
 62
     2
370
     9
100
AcDbLine
 10
-41.3385286086957
 20
354.5051793822594
 30
0.0
 11
-41.35857123432913
 21
355.6557745575128
 31
0.0
  0
LINE
  5
20B
330
1F
100
AcDbEntity
  8
躯体
  6
Continuous
 62
     2
370
     9
100
AcDbLine
 10
-40.34203895497944
 20
354.5051793822594
 30
0.0
 11
-41.3385286086957
 21
354.5051793822594
 31
0.0
  0
LINE
  5
20C
330
1F
100
AcDbEntity
  8
躯体
  6
Continuous
 62
     2
370
     9
100
AcDbLine
 10
-40.34203895497944
 20
354.5051793822594
 30
0.0
 11
-40.32192209739921
 21
355.6557745575128
 31
0.0
  0
LINE
  5
20D
330
1F
100
AcDbEntity
  8
躯体
  6
Continuous
 62
     4
370
     9
100
AcDbLine
 10
-31.34022769547781
 20
362.8726786564359
 30
0.0
 11
-31.34022769547781
 21
375.4051840011361
 31
0.0
  0
LINE
  5
20E
330
1F
100
AcDbEntity
  8
躯体
  6
Continuous
 62
     4
370
     9
100
AcDbLine
 10
-50.34026563625062
 20
362.8726786564359
 30
0.0
 11
-50.34026563625062
 21
375.4051840011361
 31
0.0
  0
LINE
  5
20F
330
1F
100
AcDbEntity
  8
通り芯
  6
JWW_CENTER1
 62
     3
370
     9
100
AcDbLine
 10
63.70219998611007
 20
278.4065218257771
 30
0.0
 11
-145.3829531296522
 21
278.4065218257771
 31
0.0
  0
LINE
  5
210
330
1F
100
AcDbEntity
  8
通り芯
  6
JWW_CENTER1
 62
     3
370
     9
100
AcDbLine
 10
-40.84028378183757
 20
382.9487828978845
 30
0.0
 11
-40.84028378183757
 21
173.8636297821221
 31
0.0
  0
LINE
  5
211
330
1F
100
AcDbEntity
  8
通り芯
  6
JWW_CENTER1
 62
     3
370
     9
100
AcDbLine
 10
-119.340270585047
 20
-44.50226113320729
 30
0.0
 11
-119.340270585047
 21
-18.6402220311169
 31
0.0
  0
LINE
  5
212
330
1F
100
AcDbEntity
  8
躯体
  6
Continuous
 62
     2
370
     9
100
AcDbLine
 10
39.65973436374946
 20
-25.75041770652864
 30
0.0
 11
35.65967167899439
 21
-25.75041770652864
 31
0.0
  0
LINE
  5
213
330
1F
100
AcDbEntity
  8
躯体
  6
Continuous
 62
     2
370
     9
100
AcDbLine
 10
41.85967233883392
 20
-21.65043882139348
 30
0.0
 11
33.45973370390993
 21
-21.65043882139348
 31
0.0
  0
LINE
  5
214
330
1F
100
AcDbEntity
  8
躯体
  6
Continuous
 62
     2
370
     9
100
AcDbLine
 10
35.93091521256696
 20
-24.59959983543489
 30
0.0
 11
36.25968850490227
 21
-25.75041770652864
 31
0.0
  0
LINE
  5
215
330
1F
100
AcDbEntity
  8
躯体
  6
Continuous
 62
     2
370
     9
100
AcDbLine
 10
35.65967167899439
 20
-25.75041770652864
 30
0.0
 11
36.06111804723758
 21
-25.05523552483526
 31
0.0
  0
LINE
  5
216
330
1F
100
AcDbEntity
  8
躯体
  6
Continuous
 62
     2
370
     9
100
AcDbLine
 10
35.67644809896899
 20
-24.16719874537998
 30
0.0
 11
33.45973370390993
 21
-21.95044723434749
 31
0.0
  0
LINE
  5
217
330
1F
100
AcDbEntity
  8
躯体
  6
Continuous
 62
     2
370
     9
100
AcDbLine
 10
33.45973370390993
 20
-21.65043882139348
 30
0.0
 11
33.45973370390993
 21
-21.95044723434749
 31
0.0
  0
LINE
  5
218
330
1F
100
AcDbEntity
  8
躯体
  6
Continuous
 62
     2
370
     9
100
AcDbLine
 10
41.85967233883392
 20
-21.65043882139348
 30
0.0
 11
41.85967233883392
 21
-21.95044723434749
 31
0.0
  0
LINE
  5
219
330
1F
100
AcDbEntity
  8
躯体
  6
Continuous
 62
     2
370
     9
100
AcDbLine
 10
41.85967233883392
 20
-21.95044723434749
 30
0.0
 11
33.45973370390993
 21
-21.95044723434749
 31
0.0
  0
LINE
  5
21A
330
1F
100
AcDbEntity
  8
躯体
  6
Continuous
 62
     2
370
     9
100
AcDbLine
 10
39.38849083017681
 20
-24.59959983543489
 30
0.0
 11
39.0596433058947
 21
-25.75041770652864
 31
0.0
  0
LINE
  5
21B
330
1F
100
AcDbEntity
  8
躯体
  6
Continuous
 62
     2
370
     9
100
AcDbLine
 10
39.65973436374946
 20
-25.75041770652864
 30
0.0
 11
39.25828799550618
 21
-25.05523552483526
 31
0.0
  0
LINE
  5
21C
330
1F
100
AcDbEntity
  8
躯体
  6
Continuous
 62
     2
370
     9
100
AcDbLine
 10
39.64295794377477
 20
-24.16719874537998
 30
0.0
 11
41.85967233883392
 21
-21.95044723434749
 31
0.0
  0
LINE
  5
21D
330
1F
100
AcDbEntity
  8
躯体
  6
Continuous
 62
     2
370
     9
100
AcDbLine
 10
39.49820564753321
 20
-24.35044030603245
 30
0.0
 11
35.82112616326376
 21
-24.35044030603245
 31
0.0
  0
LINE
  5
21E
330
1F
100
AcDbEntity
  8
躯体
  6
Continuous
 62
     4
370
     9
100
AcDbLine
 10
33.45186511755008
 20
-31.40039675662364
 30
0.0
 11
31.15965683260501
 21
-31.40039675662364
 31
0.0
  0
LINE
  5
21F
330
1F
100
AcDbEntity
  8
躯体
  6
Continuous
 62
     4
370
     9
100
AcDbLine
 10
31.15965683260501
 20
-34.40040665421659
 30
0.0
 11
31.15965683260501
 21
-31.40039675662364
 31
0.0
  0
LINE
  5
220
330
1F
100
AcDbEntity
  8
躯体
  6
Continuous
 62
     4
370
     9
100
AcDbLine
 10
40.91395733672243
 20
-31.40039675662364
 30
0.0
 11
56.1597145685636
 21
-31.40039675662364
 31
0.0
  0
LINE
  5
221
330
1F
100
AcDbEntity
  8
躯体
  6
Continuous
 62
     4
370
     9
100
AcDbLine
 10
56.1597145685636
 20
-34.40040665421659
 30
0.0
 11
56.1597145685636
 21
-31.40039675662364
 31
0.0
  0
LINE
  5
222
330
1F
100
AcDbEntity
  8
躯体
  6
Continuous
 62
     4
370
     9
100
AcDbLine
 10
34.40967992698845
 20
-34.40040665421659
 30
0.0
 11
34.40967992698845
 21
-31.40039675662364
 31
0.0
  0
LINE
  5
223
330
1F
100
AcDbEntity
  8
躯体
  6
Continuous
 62
     4
370
     9
100
AcDbLine
 10
40.90965188380852
 20
-34.40040665421659
 30
0.0
 11
40.90965188380852
 21
-31.40039675662364
 31
0.0
  0
LINE
  5
224
330
1F
100
AcDbEntity
  8
躯体
  6
Continuous
 62
     2
370
     9
100
AcDbLine
 10
33.60968223642681
 20
-37.22511780946362
 30
0.0
 11
33.60968223642681
 21
-34.40040665421659
 31
0.0
  0
LINE
  5
225
330
1F
100
AcDbEntity
  8
躯体
  6
Continuous
 62
     2
370
     9
100
AcDbLine
 10
41.70972380631696
 20
-37.22515492543702
 30
0.0
 11
41.70972380631696
 21
-34.40040665421659
 31
0.0
  0
LINE
  5
226
330
1F
100
AcDbEntity
  8
躯体
  6
Continuous
 62
     2
370
     9
100
AcDbLine
 10
35.63042429195892
 20
-37.22511780946362
 30
0.0
 11
35.63042429195892
 21
-34.40040665421659
 31
0.0
  0
LINE
  5
227
330
1F
100
AcDbEntity
  8
躯体
  6
Continuous
 62
     2
370
     9
100
AcDbLine
 10
39.68898175078493
 20
-37.22511780946362
 30
0.0
 11
39.68898175078493
 21
-34.40040665421659
 31
0.0
  0
LINE
  5
228
330
1F
100
AcDbEntity
  8
躯体
  6
Continuous
 62
     2
370
     9
100
AcDbLine
 10
34.62005326419282
 20
-37.60039741646317
 30
0.0
 11
40.69935277855095
 21
-37.60039741646317
 31
0.0
  0
LINE
  5
229
330
1F
100
AcDbEntity
  8
躯体
  6
Continuous
 62
     4
370
     9
100
AcDbLine
 10
31.15965683260501
 20
-34.40040665421659
 30
0.0
 11
33.60968223642681
 21
-34.40040665421659
 31
0.0
  0
LINE
  5
22A
330
1F
100
AcDbEntity
  8
躯体
  6
Continuous
 62
     4
370
     9
100
AcDbLine
 10
41.70972380631696
 20
-34.40040665421659
 30
0.0
 11
56.1597145685636
 21
-34.40040665421659
 31
0.0
  0
LINE
  5
22B
330
1F
100
AcDbEntity
  8
躯体
  6
Continuous
 62
     2
370
     9
100
AcDbLine
 10
41.70972380631696
 20
-34.40040665421659
 30
0.0
 11
33.60968223642681
 21
-34.40040665421659
 31
0.0
  0
LINE
  5
22C
330
1F
100
AcDbEntity
  8
躯体
  6
Continuous
 62
     2
370
     9
100
AcDbLine
 10
36.25968850490227
 20
-25.75041770652864
 30
0.0
 11
36.25968850490227
 21
-34.40040665421659
 31
0.0
  0
LINE
  5
22D
330
1F
100
AcDbEntity
  8
躯体
  6
Continuous
 62
     2
370
     9
100
AcDbLine
 10
35.65967167899439
 20
-25.75041770652864
 30
0.0
 11
35.65967167899439
 21
-34.40040665421659
 31
0.0
  0
LINE
  5
22E
330
1F
100
AcDbEntity
  8
躯体
  6
Continuous
 62
     2
370
     9
100
AcDbLine
 10
39.0596433058947
 20
-25.75041770652864
 30
0.0
 11
39.0596433058947
 21
-34.40040665421659
 31
0.0
  0
LINE
  5
22F
330
1F
100
AcDbEntity
  8
躯体
  6
Continuous
 62
     2
370
     9
100
AcDbLine
 10
39.65973436374946
 20
-25.75041770652864
 30
0.0
 11
39.65973436374946
 21
-34.40040665421659
 31
0.0
  0
LINE
  5
230
330
1F
100
AcDbEntity
  8
躯体
  6
Continuous
 62
     2
370
     9
100
AcDbLine
 10
35.65967167899439
 20
-41.05043849147373
 30
0.0
 11
36.25968850490227
 21
-41.65045531738171
 31
0.0
  0
LINE
  5
231
330
1F
100
AcDbEntity
  8
躯体
  6
Continuous
 62
     2
370
     9
100
AcDbLine
 10
39.0596433058947
 20
-41.65045531738171
 30
0.0
 11
39.65973436374946
 21
-41.05043849147373
 31
0.0
  0
LINE
  5
232
330
1F
100
AcDbEntity
  8
躯体
  6
Continuous
 62
     2
370
     9
100
AcDbLine
 10
36.25968850490227
 20
-37.60039741646317
 30
0.0
 11
36.25968850490227
 21
-41.65045531738171
 31
0.0
  0
LINE
  5
233
330
1F
100
AcDbEntity
  8
躯体
  6
Continuous
 62
     2
370
     9
100
AcDbLine
 10
39.0596433058947
 20
-41.65045531738171
 30
0.0
 11
36.25968850490227
 21
-41.65045531738171
 31
0.0
  0
LINE
  5
234
330
1F
100
AcDbEntity
  8
躯体
  6
Continuous
 62
     2
370
     9
100
AcDbLine
 10
39.0596433058947
 20
-37.60039741646317
 30
0.0
 11
39.0596433058947
 21
-41.65045531738171
 31
0.0
  0
LINE
  5
235
330
1F
100
AcDbEntity
  8
躯体
  6
Continuous
 62
     2
370
     9
100
AcDbLine
 10
39.65973436374946
 20
-37.60039741646317
 30
0.0
 11
39.65973436374946
 21
-41.05043849147373
 31
0.0
  0
LINE
  5
236
330
1F
100
AcDbEntity
  8
躯体
  6
Continuous
 62
     2
370
     9
100
AcDbLine
 10
39.65973436374946
 20
-41.05043849147373
 30
0.0
 11
35.65967167899439
 21
-41.05043849147373
 31
0.0
  0
LINE
  5
237
330
1F
100
AcDbEntity
  8
躯体
  6
Continuous
 62
     2
370
     9
100
AcDbLine
 10
35.65967167899439
 20
-37.60039741646317
 30
0.0
 11
35.65967167899439
 21
-41.05043849147373
 31
0.0
  0
LINE
  5
238
330
1F
100
AcDbEntity
  8
通り芯
  6
JWW_CENTER1
 62
     3
370
     9
100
AcDbLine
 10
37.65970302137188
 20
-44.50226113320729
 30
0.0
 11
37.65970302137188
 21
-18.6402220311169
 31
0.0
  0
LINE
  5
239
330
1F
100
AcDbEntity
  8
0-E
  6
Continuous
 62
     7
370
     9
100
AcDbLine
 10
-137.8402450162654
 20
-34.40040665421659
 30
0.0
 11
-140.7103861229482
 21
-41.3295134954328
 31
0.0
  0
LINE
  5
23A
330
1F
100
AcDbEntity
  8
0-E
  6
Continuous
 62
     7
370
     9
100
AcDbLine
 10
-137.8402450162654
 20
-34.40040665421659
 30
0.0
 11
-142.4059551355644
 21
-40.3505425811591
 31
0.0
  0
LINE
  5
23B
330
1F
100
AcDbEntity
  8
0-E
  6
Continuous
 62
     7
370
     9
100
AcDbLine
 10
-137.8402450162654
 20
-34.40040665421659
 30
0.0
 11
-155.1607480449288
 21
-64.40039428222545
 31
0.0
  0
LINE
  5
23C
330
1F
100
AcDbEntity
  8
その他
  6
Continuous
 62
     7
370
     9
100
AcDbLine
 10
63.65973931254585
 20
-31.40039675662364
 30
0.0
 11
87.05972743543437
 21
-31.40039675662364
 31
0.0
  0
CIRCLE
  5
23D
330
1F
100
AcDbEntity
  8
通り芯
  6
Continuous
 62
     3
370
     9
100
AcDbCircle
 10
-40.84028378183757
 20
278.4065218257771
 30
0.0
 40
85.0000051549963
  0
CIRCLE
  5
23E
330
1F
100
AcDbEntity
  8
通り芯
  6
Continuous
 62
     3
370
     9
100
AcDbCircle
 10
-40.84028378183757
 20
278.4065218257771
 30
0.0
 40
72.00000092789934
  0
ARC
  5
23F
330
1F
100
AcDbEntity
  8
通り芯
  6
Continuous
 62
     3
370
     9
100
AcDbCircle
 10
28.49762498874946
 20
-31.17491721824739
 30
0.0
 40
4.000000051549963
100
AcDbArc
 50
13.22834777832031
 51
119.9998626708984
  0
ARC
  5
240
330
1F
100
AcDbEntity
  8
通り芯
  6
Continuous
 62
     3
370
     9
100
AcDbCircle
 10
-110.1782667843714
 20
-31.17491721824739
 30
0.0
 40
4.000000051549963
100
AcDbArc
 50
60.00013732910157
 51
166.7716522216797
  0
CIRCLE
  5
241
330
1F
100
AcDbEntity
  8
通り芯
  6
Continuous
 62
     3
370
     9
100
AcDbCircle
 10
37.65970302137188
 20
278.4065218257771
 30
0.0
 40
4.750000206199852
  0
CIRCLE
  5
242
330
1F
100
AcDbEntity
  8
通り芯
  6
Continuous
 62
     3
370
     9
100
AcDbCircle
 10
-40.84028378183757
 20
356.9065828609333
 30
0.0
 40
4.750000206199852
  0
CIRCLE
  5
243
330
1F
100
AcDbEntity
  8
通り芯
  6
Continuous
 62
     3
370
     9
100
AcDbCircle
 10
-119.3403077010205
 20
278.4065218257771
 30
0.0
 40
4.750000206199852
  0
CIRCLE
  5
244
330
1F
100
AcDbEntity
  8
通り芯
  6
Continuous
 62
     3
370
     9
100
AcDbCircle
 10
-40.84028378183757
 20
199.9065350225677
 30
0.0
 40
4.750000206199852
  0
CIRCLE
  5
245
330
1F
100
AcDbEntity
  8
仕上
  6
Continuous
 62
     6
370
     5
100
AcDbCircle
 10
-40.84028378183757
 20
278.4065218257771
 30
0.0
 40
69.49998030791411
  0
CIRCLE
  5
246
330
1F
100
AcDbEntity
  8
仕上
  6
Continuous
 62
     6
370
     5
100
AcDbCircle
 10
-40.84028378183757
 20
278.4065218257771
 30
0.0
 40
8.000000103099927
  0
CIRCLE
  5
247
330
1F
100
AcDbEntity
  8
仕上
  6
Continuous
 62
     6
370
     5
100
AcDbCircle
 10
-40.84028378183757
 20
278.4065218257771
 30
0.0
 40
9.500000412399704
  0
CIRCLE
  5
248
330
1F
100
AcDbEntity
  8
仕上
  6
Continuous
 62
     6
370
     5
100
AcDbCircle
 10
-40.84028378183757
 20
278.4065218257771
 30
0.0
 40
55.49997896761508
  0
CIRCLE
  5
249
330
1F
100
AcDbEntity
  8
仕上
  6
Continuous
 62
     6
370
     5
100
AcDbCircle
 10
-40.84028378183757
 20
278.4065218257771
 30
0.0
 40
50.49997484361803
  0
ARC
  5
24A
330
1F
100
AcDbEntity
  8
仕上
  6
Continuous
 62
     6
370
     5
100
AcDbCircle
 10
-45.60382203933335
 20
330.5465216278253
 30
0.0
 40
1.000000012887491
100
AcDbArc
 50
191.2503662109375
 51
275.2203826904297
  0
ARC
  5
24B
330
1F
100
AcDbEntity
  8
仕上
  6
Continuous
 62
     6
370
     5
100
AcDbCircle
 10
-36.07674552434179
 20
330.5465216278253
 30
0.0
 40
1.000000012887491
100
AcDbArc
 50
264.7796173095703
 51
348.7496337890624
  0
ARC
  5
24C
330
1F
100
AcDbEntity
  8
仕上
  6
Continuous
 62
     6
370
     5
100
AcDbCircle
 10
-40.84028378183757
 20
278.4065218257771
 30
0.0
 40
51.35712649371173
100
AcDbArc
 50
84.77993774414062
 51
95.22006225585938
  0
ARC
  5
24D
330
1F
100
AcDbEntity
  8
仕上
  6
Continuous
 62
     6
370
     5
100
AcDbCircle
 10
-65.19430088487812
 20
324.754722443387
 30
0.0
 40
1.000000012887491
100
AcDbArc
 50
213.7503662109375
 51
297.7203826904297
  0
ARC
  5
24E
330
1F
100
AcDbEntity
  8
仕上
  6
Continuous
 62
     6
370
     5
100
AcDbCircle
 10
-56.39247049003015
 20
328.4005502780575
 30
0.0
 40
1.000000012887491
100
AcDbArc
 50
287.2796173095703
 51
11.24963378906247
  0
ARC
  5
24F
330
1F
100
AcDbEntity
  8
仕上
  6
Continuous
 62
     6
370
     5
100
AcDbCircle
 10
-40.84028378183757
 20
278.4065218257771
 30
0.0
 40
51.35712649371173
100
AcDbArc
 50
107.2799377441406
 51
117.7200622558594
  0
ARC
  5
250
330
1F
100
AcDbEntity
  8
仕上
  6
Continuous
 62
     6
370
     5
100
AcDbCircle
 10
-81.07715380004913
 20
311.9068055567737
 30
0.0
 40
1.000000012887491
100
AcDbArc
 50
236.2503662109375
 51
320.2203826904297
  0
ARC
  5
251
330
1F
100
AcDbEntity
  8
仕上
  6
Continuous
 62
     6
370
     5
100
AcDbCircle
 10
-74.34049328088742
 20
318.6434289599621
 30
0.0
 40
1.000000012887491
100
AcDbArc
 50
309.7796173095703
 51
33.7496337890625
  0
ARC
  5
252
330
1F
100
AcDbEntity
  8
仕上
  6
Continuous
 62
     6
370
     5
100
AcDbCircle
 10
-40.84028378183757
 20
278.4065218257771
 30
0.0
 40
51.35712649371173
100
AcDbArc
 50
129.7799377441407
 51
140.2200622558594
  0
ARC
  5
253
330
1F
100
AcDbEntity
  8
仕上
  6
Continuous
 62
     6
370
     5
100
AcDbCircle
 10
-90.83427511814459
 20
293.9587085339697
 30
0.0
 40
1.000000012887491
100
AcDbArc
 50
258.7503662109375
 51
342.7203826904296
  0
ARC
  5
254
330
1F
100
AcDbEntity
  8
仕上
  6
Continuous
 62
     6
370
     5
100
AcDbCircle
 10
-87.1884101675006
 20
302.7605389288177
 30
0.0
 40
1.000000012887491
100
AcDbArc
 50
332.2796173095704
 51
56.24963378906248
  0
ARC
  5
255
330
1F
100
AcDbEntity
  8
仕上
  6
Continuous
 62
     6
370
     5
100
AcDbCircle
 10
-40.84028378183757
 20
278.4065218257771
 30
0.0
 40
51.35712649371173
100
AcDbArc
 50
152.2799377441407
 51
162.7200622558594
  0
ARC
  5
256
330
1F
100
AcDbEntity
  8
仕上
  6
Continuous
 62
     6
370
     5
100
AcDbCircle
 10
-92.98028358388568
 20
273.6430578002281
 30
0.0
 40
1.000000012887491
100
AcDbArc
 50
281.2503662109375
 51
5.22038269042966
  0
ARC
  5
257
330
1F
100
AcDbEntity
  8
仕上
  6
Continuous
 62
     6
370
     5
100
AcDbCircle
 10
-92.98028358388568
 20
283.1700600832729
 30
0.0
 40
1.000000012887491
100
AcDbArc
 50
354.7796173095703
 51
78.7496337890625
  0
ARC
  5
258
330
1F
100
AcDbEntity
  8
仕上
  6
Continuous
 62
     6
370
     5
100
AcDbCircle
 10
-40.84028378183757
 20
278.4065218257771
 30
0.0
 40
51.35712649371173
100
AcDbArc
 50
174.7799377441407
 51
185.2200622558594
  0
ARC
  5
259
330
1F
100
AcDbEntity
  8
仕上
  6
Continuous
 62
     6
370
     5
100
AcDbCircle
 10
-87.1884101675006
 20
254.0525047227366
 30
0.0
 40
1.000000012887491
100
AcDbArc
 50
303.7503662109375
 51
27.72038269042968
  0
ARC
  5
25A
330
1F
100
AcDbEntity
  8
仕上
  6
Continuous
 62
     6
370
     5
100
AcDbCircle
 10
-90.83427511814459
 20
262.8543351175845
 30
0.0
 40
1.000000012887491
100
AcDbArc
 50
17.27961730957031
 51
101.2496337890625
  0
ARC
  5
25B
330
1F
100
AcDbEntity
  8
仕上
  6
Continuous
 62
     6
370
     5
100
AcDbCircle
 10
-40.84028378183757
 20
278.4065218257771
 30
0.0
 40
51.35712649371173
100
AcDbArc
 50
197.2799377441407
 51
207.7200622558594
  0
ARC
  5
25C
330
1F
100
AcDbEntity
  8
仕上
  6
Continuous
 62
     6
370
     5
100
AcDbCircle
 10
-74.34049328088742
 20
238.169688923539
 30
0.0
 40
1.000000012887491
100
AcDbArc
 50
326.2503662109375
 51
50.22038269042966
  0
ARC
  5
25D
330
1F
100
AcDbEntity
  8
仕上
  6
Continuous
 62
     6
370
     5
100
AcDbCircle
 10
-81.07715380004913
 20
244.9063123267273
 30
0.0
 40
1.000000012887491
100
AcDbArc
 50
39.77961730957031
 51
123.7496337890625
  0
ARC
  5
25E
330
1F
100
AcDbEntity
  8
仕上
  6
Continuous
 62
     6
370
     5
100
AcDbCircle
 10
-40.84028378183757
 20
278.4065218257771
 30
0.0
 40
51.35712649371173
100
AcDbArc
 50
219.7799377441406
 51
230.2200622558594
  0
ARC
  5
25F
330
1F
100
AcDbEntity
  8
仕上
  6
Continuous
 62
     6
370
     5
100
AcDbCircle
 10
-56.39247049003015
 20
228.4125676054435
 30
0.0
 40
1.000000012887491
100
AcDbArc
 50
348.7503662109374
 51
72.72038269042969
  0
ARC
  5
260
330
1F
100
AcDbEntity
  8
仕上
  6
Continuous
 62
     6
370
     5
100
AcDbCircle
 10
-65.19430088487812
 20
232.0583954401141
 30
0.0
 40
1.000000012887491
100
AcDbArc
 50
62.27961730957031
 51
146.2496337890625
  0
ARC
  5
261
330
1F
100
AcDbEntity
  8
仕上
  6
Continuous
 62
     6
370
     5
100
AcDbCircle
 10
-40.84028378183757
 20
278.4065218257771
 30
0.0
 40
51.35712649371173
100
AcDbArc
 50
242.2799377441406
 51
252.7200622558594
  0
ARC
  5
262
330
1F
100
AcDbEntity
  8
仕上
  6
Continuous
 62
     6
370
     5
100
AcDbCircle
 10
-36.07674552434179
 20
226.2665962556758
 30
0.0
 40
1.000000012887491
100
AcDbArc
 50
11.2503662109375
 51
95.22038269042969
  0
ARC
  5
263
330
1F
100
AcDbEntity
  8
仕上
  6
Continuous
 62
     6
370
     5
100
AcDbCircle
 10
-45.60382203933335
 20
226.2665962556758
 30
0.0
 40
1.000000012887491
100
AcDbArc
 50
84.77961730957031
 51
168.7496337890625
  0
ARC
  5
264
330
1F
100
AcDbEntity
  8
仕上
  6
Continuous
 62
     6
370
     5
100
AcDbCircle
 10
-40.84028378183757
 20
278.4065218257771
 30
0.0
 40
51.35712649371173
100
AcDbArc
 50
264.7799377441406
 51
275.2200622558594
  0
ARC
  5
265
330
1F
100
AcDbEntity
  8
仕上
  6
Continuous
 62
     6
370
     5
100
AcDbCircle
 10
-16.48626667879702
 20
232.0583954401141
 30
0.0
 40
1.000000012887491
100
AcDbArc
 50
33.7503662109375
 51
117.7203826904297
  0
ARC
  5
266
330
1F
100
AcDbEntity
  8
仕上
  6
Continuous
 62
     6
370
     5
100
AcDbCircle
 10
-25.28809707364499
 20
228.4125676054435
 30
0.0
 40
1.000000012887491
100
AcDbArc
 50
107.2796173095703
 51
191.2496337890625
  0
ARC
  5
267
330
1F
100
AcDbEntity
  8
仕上
  6
Continuous
 62
     6
370
     5
100
AcDbCircle
 10
-40.84028378183757
 20
278.4065218257771
 30
0.0
 40
51.35712649371173
100
AcDbArc
 50
287.2799377441406
 51
297.7200622558594
  0
ARC
  5
268
330
1F
100
AcDbEntity
  8
仕上
  6
Continuous
 62
     6
370
     5
100
AcDbCircle
 10
-0.603376647652567
 20
244.9063123267273
 30
0.0
 40
1.000000012887491
100
AcDbArc
 50
56.25036621093751
 51
140.2203826904297
  0
ARC
  5
269
330
1F
100
AcDbEntity
  8
仕上
  6
Continuous
 62
     6
370
     5
100
AcDbCircle
 10
-7.340074282787725
 20
238.169688923539
 30
0.0
 40
1.000000012887491
100
AcDbArc
 50
129.7796173095703
 51
213.7496337890625
  0
ARC
  5
26A
330
1F
100
AcDbEntity
  8
仕上
  6
Continuous
 62
     6
370
     5
100
AcDbCircle
 10
-40.84028378183757
 20
278.4065218257771
 30
0.0
 40
51.35712649371173
100
AcDbArc
 50
309.7799377441406
 51
320.2200622558594
  0
ARC
  5
26B
330
1F
100
AcDbEntity
  8
仕上
  6
Continuous
 62
     6
370
     5
100
AcDbCircle
 10
9.153670438496022
 20
262.8543351175845
 30
0.0
 40
1.000000012887491
100
AcDbArc
 50
78.7503662109375
 51
162.7203826904297
  0
ARC
  5
26C
330
1F
100
AcDbEntity
  8
仕上
  6
Continuous
 62
     6
370
     5
100
AcDbCircle
 10
5.507842603825395
 20
254.0525047227366
 30
0.0
 40
1.000000012887491
100
AcDbArc
 50
152.2796173095703
 51
236.2496337890625
  0
ARC
  5
26D
330
1F
100
AcDbEntity
  8
仕上
  6
Continuous
 62
     6
370
     5
100
AcDbCircle
 10
-40.84028378183757
 20
278.4065218257771
 30
0.0
 40
51.35712649371173
100
AcDbArc
 50
332.2799377441406
 51
342.7200622558594
  0
ARC
  5
26E
330
1F
100
AcDbEntity
  8
仕上
  6
Continuous
 62
     6
370
     5
100
AcDbCircle
 10
11.29971602021055
 20
283.1700600832729
 30
0.0
 40
1.000000012887491
100
AcDbArc
 50
101.2503662109375
 51
185.2203826904297
  0
ARC
  5
26F
330
1F
100
AcDbEntity
  8
仕上
  6
Continuous
 62
     6
370
     5
100
AcDbCircle
 10
11.29971602021055
 20
273.6430578002281
 30
0.0
 40
1.000000012887491
100
AcDbArc
 50
174.7796173095703
 51
258.7496337890625
  0
ARC
  5
270
330
1F
100
AcDbEntity
  8
仕上
  6
Continuous
 62
     6
370
     5
100
AcDbCircle
 10
-40.84028378183757
 20
278.4065218257771
 30
0.0
 40
51.35712649371173
100
AcDbArc
 50
354.7799377441406
 51
5.220062255859387
  0
ARC
  5
271
330
1F
100
AcDbEntity
  8
仕上
  6
Continuous
 62
     6
370
     5
100
AcDbCircle
 10
5.507842603825395
 20
302.7605389288177
 30
0.0
 40
1.000000012887491
100
AcDbArc
 50
123.7503662109375
 51
207.7203826904297
  0
ARC
  5
272
330
1F
100
AcDbEntity
  8
仕上
  6
Continuous
 62
     6
370
     5
100
AcDbCircle
 10
9.153670438496022
 20
293.9587085339697
 30
0.0
 40
1.000000012887491
100
AcDbArc
 50
197.2796173095703
 51
281.2496337890625
  0
ARC
  5
273
330
1F
100
AcDbEntity
  8
仕上
  6
Continuous
 62
     6
370
     5
100
AcDbCircle
 10
-40.84028378183757
 20
278.4065218257771
 30
0.0
 40
51.35712649371173
100
AcDbArc
 50
17.27993774414062
 51
27.72006225585937
  0
ARC
  5
274
330
1F
100
AcDbEntity
  8
仕上
  6
Continuous
 62
     6
370
     5
100
AcDbCircle
 10
-7.340074282787725
 20
318.6434289599621
 30
0.0
 40
1.000000012887491
100
AcDbArc
 50
146.2503662109375
 51
230.2203826904297
  0
ARC
  5
275
330
1F
100
AcDbEntity
  8
仕上
  6
Continuous
 62
     6
370
     5
100
AcDbCircle
 10
-0.603376647652567
 20
311.9068055567737
 30
0.0
 40
1.000000012887491
100
AcDbArc
 50
219.7796173095703
 51
303.7496337890625
  0
ARC
  5
276
330
1F
100
AcDbEntity
  8
仕上
  6
Continuous
 62
     6
370
     5
100
AcDbCircle
 10
-40.84028378183757
 20
278.4065218257771
 30
0.0
 40
51.35712649371173
100
AcDbArc
 50
39.77993774414062
 51
50.22006225585938
  0
ARC
  5
277
330
1F
100
AcDbEntity
  8
仕上
  6
Continuous
 62
     6
370
     5
100
AcDbCircle
 10
-25.28809707364499
 20
328.4005502780575
 30
0.0
 40
1.000000012887491
100
AcDbArc
 50
168.7503662109375
 51
252.7203826904297
  0
ARC
  5
278
330
1F
100
AcDbEntity
  8
仕上
  6
Continuous
 62
     6
370
     5
100
AcDbCircle
 10
-16.48626667879702
 20
324.754722443387
 30
0.0
 40
1.000000012887491
100
AcDbArc
 50
242.2796173095703
 51
326.2496337890625
  0
ARC
  5
279
330
1F
100
AcDbEntity
  8
仕上
  6
Continuous
 62
     6
370
     5
100
AcDbCircle
 10
-40.84028378183757
 20
278.4065218257771
 30
0.0
 40
51.35712649371173
100
AcDbArc
 50
62.27993774414062
 51
72.72006225585938
  0
CIRCLE
  5
27A
330
1F
100
AcDbEntity
  8
建具
  6
Continuous
 62
     4
370
     9
100
AcDbCircle
 10
-40.84028378183757
 20
278.4065218257771
 30
0.0
 40
7.000000090212434
  0
ARC
  5
27B
330
1F
100
AcDbEntity
  8
建具
  6
Continuous
 62
     4
370
     9
100
AcDbCircle
 10
-37.59029780342749
 20
275.1564987313936
 30
0.0
 40
2.500000032218727
100
AcDbArc
 50
90.0
 51
180.0
  0
ARC
  5
27C
330
1F
100
AcDbEntity
  8
建具
  6
Continuous
 62
     4
370
     9
100
AcDbCircle
 10
-44.09026976024765
 20
275.1564987313936
 30
0.0
 40
2.500000032218727
100
AcDbArc
 50
0.0
 51
90.0
  0
ARC
  5
27D
330
1F
100
AcDbEntity
  8
建具
  6
Continuous
 62
     4
370
     9
100
AcDbCircle
 10
-44.09026976024765
 20
281.6565449201605
 30
0.0
 40
2.500000032218727
100
AcDbArc
 50
270.0
 51
0.0
  0
ARC
  5
27E
330
1F
100
AcDbEntity
  8
建具
  6
Continuous
 62
     4
370
     9
100
AcDbCircle
 10
-37.59029780342749
 20
281.6565449201605
 30
0.0
 40
2.500000032218727
100
AcDbArc
 50
180.0
 51
270.0
  0
ARC
  5
27F
330
1F
100
AcDbEntity
  8
通り芯
  6
Continuous
 62
     3
370
     9
100
AcDbCircle
 10
41.98616357616493
 20
-22.90039345742604
 30
0.0
 40
0.5000000064437454
100
AcDbArc
 50
270.0
 51
350.5370178222657
  0
ARC
  5
280
330
1F
100
AcDbEntity
  8
通り芯
  6
Continuous
 62
     3
370
     9
100
AcDbCircle
 10
33.33324246657884
 20
-22.90039345742604
 30
0.0
 40
0.5000000064437454
100
AcDbArc
 50
189.4629821777344
 51
270.0
  0
ARC
  5
281
330
1F
100
AcDbEntity
  8
通り芯
  6
Continuous
 62
     3
370
     9
100
AcDbCircle
 10
43.3332507145729
 20
-20.9003992310219
 30
0.0
 40
0.5000000064437454
100
AcDbArc
 50
90.0
 51
170.5370178222657
  0
ARC
  5
282
330
1F
100
AcDbEntity
  8
通り芯
  6
Continuous
 62
     3
370
     9
100
AcDbCircle
 10
31.98622956011766
 20
-20.9003992310219
 30
0.0
 40
0.5000000064437454
100
AcDbArc
 50
9.462982177734375
 51
90.00000000000001
  0
ARC
  5
283
330
1F
100
AcDbEntity
  8
通り芯
  6
Continuous
 62
     3
370
     9
100
AcDbCircle
 10
33.45186511755008
 20
-30.40041820140831
 30
0.0
 40
1.000000012887491
100
AcDbArc
 50
193.2265167236328
 51
269.9999999999999
  0
ARC
  5
284
330
1F
100
AcDbEntity
  8
通り芯
  6
Continuous
 62
     3
370
     9
100
AcDbCircle
 10
-0.5642564116939752
 20
-80.40042232540534
 30
0.0
 40
2.000000025774982
100
AcDbArc
 50
90.0
 51
173.2110443115234
  0
ARC
  5
285
330
1F
100
AcDbEntity
  8
通り芯
  6
Continuous
 62
     3
370
     9
100
AcDbCircle
 10
12.80914842624946
 20
-40.23273648160254
 30
0.0
 40
4.000000051549963
100
AcDbArc
 50
119.9998626708984
 51
170.9217071533203
  0
ARC
  5
286
330
1F
100
AcDbEntity
  8
通り芯
  6
Continuous
 62
     3
370
     9
100
AcDbCircle
 10
-94.48967887395115
 20
-40.23273648160254
 30
0.0
 40
4.000000051549963
100
AcDbArc
 50
9.078292846679688
 51
60.00013732910157
  0
ARC
  5
287
330
1F
100
AcDbEntity
  8
通り芯
  6
Continuous
 62
     3
370
     9
100
AcDbCircle
 10
-81.11631115198117
 20
-80.40042232540534
 30
0.0
 40
2.000000025774982
100
AcDbArc
 50
6.788955688476562
 51
90.0
  0
ARC
  5
288
330
1F
100
AcDbEntity
  8
通り芯
  6
Continuous
 62
     3
370
     9
100
AcDbCircle
 10
-82.63450292774132
 20
-76.40039675662362
 30
0.0
 40
2.000000025774982
100
AcDbArc
 50
189.0787963867188
 51
270.0
  0
ARC
  5
289
330
1F
100
AcDbEntity
  8
通り芯
  6
Continuous
 62
     3
370
     9
100
AcDbCircle
 10
0.953935364066183
 20
-76.40039675662362
 30
0.0
 40
2.000000025774982
100
AcDbArc
 50
270.0
 51
350.9212036132812
  0
ARC
  5
28A
330
1F
100
AcDbEntity
  8
通り芯
  6
Continuous
 62
     3
370
     9
100
AcDbCircle
 10
-2.457690678480304
 20
-72.40040830381534
 30
0.0
 40
2.000000025774982
100
AcDbArc
 50
270.0
 51
350.9212036132812
  0
ARC
  5
28B
330
1F
100
AcDbEntity
  8
通り芯
  6
Continuous
 62
     3
370
     9
100
AcDbCircle
 10
-4.116329297568114
 20
-76.40039675662362
 30
0.0
 40
2.000000025774982
100
AcDbArc
 50
90.0
 51
173.2110443115234
  0
ARC
  5
28C
330
1F
100
AcDbEntity
  8
通り芯
  6
Continuous
 62
     3
370
     9
100
AcDbCircle
 10
-77.56427538208038
 20
-76.40039675662362
 30
0.0
 40
2.000000025774982
100
AcDbArc
 50
6.788955688476562
 51
90.0
  0
ARC
  5
28D
330
1F
100
AcDbEntity
  8
通り芯
  6
Continuous
 62
     3
370
     9
100
AcDbCircle
 10
-79.22287688519484
 20
-72.40040830381534
 30
0.0
 40
2.000000025774982
100
AcDbArc
 50
189.0787963867188
 51
270.0
  0
ARC
  5
28E
330
1F
100
AcDbEntity
  8
通り芯
  6
Continuous
 62
     3
370
     9
100
AcDbCircle
 10
-115.1324697971987
 20
-30.40041820140831
 30
0.0
 40
1.000000012887491
100
AcDbArc
 50
270.0
 51
346.7734832763672
  0
ARC
  5
28F
330
1F
100
AcDbEntity
  8
通り芯
  6
Continuous
 62
     3
370
     9
100
AcDbCircle
 10
40.91388310477564
 20
-29.40040253021952
 30
0.0
 40
2.000000025774982
100
AcDbArc
 50
270.0
 51
352.2346954345703
  0
ARC
  5
290
330
1F
100
AcDbEntity
  8
通り芯
  6
Continuous
 62
     3
370
     9
100
AcDbCircle
 10
-122.5945249003976
 20
-29.40040253021952
 30
0.0
 40
2.000000025774982
100
AcDbArc
 50
187.765365600586
 51
270.0
  0
ARC
  5
291
330
1F
100
AcDbEntity
  8
通り芯
  6
Continuous
 62
     3
370
     9
100
AcDbCircle
 10
-119.3403077010205
 20
278.4065218257771
 30
0.0
 40
4.999999484500369
100
AcDbArc
 50
73.75076293945312
 51
102.7199249267578
  0
ARC
  5
292
330
1F
100
AcDbEntity
  8
通り芯
  6
Continuous
 62
     3
370
     9
100
AcDbCircle
 10
-119.3403077010205
 20
278.4065218257771
 30
0.0
 40
4.999999484500369
100
AcDbArc
 50
257.2802429199219
 51
286.2486877441406
  0
ARC
  5
293
330
1F
100
AcDbEntity
  8
通り芯
  6
Continuous
 62
     3
370
     9
100
AcDbCircle
 10
-40.84039512975772
 20
278.40622489799
 30
0.0
 40
75.25011681221628
100
AcDbArc
 50
183.0739746093749
 51
266.9258117675781
  0
ARC
  5
294
330
1F
100
AcDbEntity
  8
通り芯
  6
Continuous
 62
     3
370
     9
100
AcDbCircle
 10
-40.84039512975772
 20
278.40622489799
 30
0.0
 40
81.75011196651974
100
AcDbArc
 50
182.9489593505859
 51
267.0510101318359
  0
ARC
  5
295
330
1F
100
AcDbEntity
  8
通り芯
  6
Continuous
 62
     3
370
     9
100
AcDbCircle
 10
-40.84028378183757
 20
278.4060764340964
 30
0.0
 40
77.25023166553395
100
AcDbArc
 50
183.5623168945312
 51
266.4373016357422
  0
ARC
  5
296
330
1F
100
AcDbEntity
  8
通り芯
  6
Continuous
 62
     3
370
     9
100
AcDbCircle
 10
-40.84028378183757
 20
278.4065218257771
 30
0.0
 40
79.75021053004909
100
AcDbArc
 50
183.5062408447266
 51
266.4937591552734
  0
ARC
  5
297
330
1F
100
AcDbEntity
  8
通り芯
  6
Continuous
 62
     3
370
     9
100
AcDbCircle
 10
-40.84028378183757
 20
199.9065350225677
 30
0.0
 40
5.000000064437454
100
AcDbArc
 50
347.2804870605469
 51
16.24424743652343
  0
ARC
  5
298
330
1F
100
AcDbEntity
  8
通り芯
  6
Continuous
 62
     3
370
     9
100
AcDbCircle
 10
-40.84028378183757
 20
199.9065350225677
 30
0.0
 40
5.000000064437454
100
AcDbArc
 50
164.3641815185547
 51
192.7195129394531
  0
ARC
  5
299
330
1F
100
AcDbEntity
  8
通り芯
  6
Continuous
 62
     3
370
     9
100
AcDbCircle
 10
-40.84039512975772
 20
278.40622489799
 30
0.0
 40
81.75011196651974
100
AcDbArc
 50
272.9491577148439
 51
357.0509185791016
  0
ARC
  5
29A
330
1F
100
AcDbEntity
  8
通り芯
  6
Continuous
 62
     3
370
     9
100
AcDbCircle
 10
-40.84039512975772
 20
278.40622489799
 30
0.0
 40
75.25011681221628
100
AcDbArc
 50
273.0743560791016
 51
356.9261627197266
  0
ARC
  5
29B
330
1F
100
AcDbEntity
  8
通り芯
  6
Continuous
 62
     3
370
     9
100
AcDbCircle
 10
-40.84028378183757
 20
278.4065218257771
 30
0.0
 40
79.75021053004909
100
AcDbArc
 50
273.5062408447266
 51
356.4937591552734
  0
ARC
  5
29C
330
1F
100
AcDbEntity
  8
通り芯
  6
Continuous
 62
     3
370
     9
100
AcDbCircle
 10
-40.84028378183757
 20
278.4060764340964
 30
0.0
 40
77.25023166553395
100
AcDbArc
 50
273.5626983642578
 51
356.4376831054688
  0
ARC
  5
29D
330
1F
100
AcDbEntity
  8
通り芯
  6
Continuous
 62
     3
370
     9
100
AcDbCircle
 10
37.65970302137188
 20
278.4065218257771
 30
0.0
 40
5.000000064437454
100
AcDbArc
 50
77.28024291992189
 51
106.2494812011719
  0
ARC
  5
29E
330
1F
100
AcDbEntity
  8
通り芯
  6
Continuous
 62
     3
370
     9
100
AcDbCircle
 10
37.65970302137188
 20
278.4065218257771
 30
0.0
 40
5.000000064437454
100
AcDbArc
 50
253.7513122558594
 51
282.7197570800781
  0
ARC
  5
29F
330
1F
100
AcDbEntity
  8
通り芯
  6
Continuous
 62
     3
370
     9
100
AcDbCircle
 10
-40.84039512975772
 20
278.40622489799
 30
0.0
 40
81.75011196651974
100
AcDbArc
 50
2.949478149414062
 51
87.05056762695312
  0
ARC
  5
2A0
330
1F
100
AcDbEntity
  8
通り芯
  6
Continuous
 62
     3
370
     9
100
AcDbCircle
 10
-40.84039512975772
 20
278.40622489799
 30
0.0
 40
81.75011196651974
100
AcDbArc
 50
92.94926452636719
 51
177.0506591796875
  0
ARC
  5
2A1
330
1F
100
AcDbEntity
  8
通り芯
  6
Continuous
 62
     3
370
     9
100
AcDbCircle
 10
-40.84028378183757
 20
278.4065218257771
 30
0.0
 40
79.75021053004909
100
AcDbArc
 50
3.506210327148438
 51
86.49375915527342
  0
ARC
  5
2A2
330
1F
100
AcDbEntity
  8
通り芯
  6
Continuous
 62
     3
370
     9
100
AcDbCircle
 10
-40.84028378183757
 20
278.4065218257771
 30
0.0
 40
79.75021053004909
100
AcDbArc
 50
93.5062255859375
 51
176.4937896728515
  0
ARC
  5
2A3
330
1F
100
AcDbEntity
  8
通り芯
  6
Continuous
 62
     3
370
     9
100
AcDbCircle
 10
-40.84028378183757
 20
278.4060764340964
 30
0.0
 40
77.25023166553395
100
AcDbArc
 50
3.562911987304688
 51
86.43748474121094
  0
ARC
  5
2A4
330
1F
100
AcDbEntity
  8
通り芯
  6
Continuous
 62
     3
370
     9
100
AcDbCircle
 10
-40.84028378183757
 20
278.4060764340964
 30
0.0
 40
77.25023166553395
100
AcDbArc
 50
93.56251525878906
 51
176.4370880126953
  0
ARC
  5
2A5
330
1F
100
AcDbEntity
  8
通り芯
  6
Continuous
 62
     3
370
     9
100
AcDbCircle
 10
-40.84039512975772
 20
278.40622489799
 30
0.0
 40
75.25011681221628
100
AcDbArc
 50
3.074249267578125
 51
86.92601013183594
  0
ARC
  5
2A6
330
1F
100
AcDbEntity
  8
通り芯
  6
Continuous
 62
     3
370
     9
100
AcDbCircle
 10
-40.84039512975772
 20
278.40622489799
 30
0.0
 40
75.25011681221628
100
AcDbArc
 50
93.07386779785156
 51
176.9256439208984
  0
ARC
  5
2A7
330
1F
100
AcDbEntity
  8
通り芯
  6
Continuous
 62
     3
370
     9
100
AcDbCircle
 10
-40.84028378183757
 20
356.9065828609333
 30
0.0
 40
4.999999484500369
100
AcDbArc
 50
167.2799530029297
 51
196.2537994384765
  0
ARC
  5
2A8
330
1F
100
AcDbEntity
  8
通り芯
  6
Continuous
 62
     3
370
     9
100
AcDbCircle
 10
-40.84028378183757
 20
356.9065828609333
 30
0.0
 40
4.999999484500369
100
AcDbArc
 50
343.7462005615234
 51
12.72000122070309
  0
ARC
  5
2A9
330
1F
100
AcDbEntity
  8
通り芯
  6
Continuous
 62
     3
370
     9
100
AcDbCircle
 10
37.65970302137188
 20
278.4065218257771
 30
0.0
 40
5.249999922675055
100
AcDbArc
 50
129.7676086425781
 51
230.2324523925781
  0
ARC
  5
2AA
330
1F
100
AcDbEntity
  8
通り芯
  6
Continuous
 62
     3
370
     9
100
AcDbCircle
 10
37.65970302137188
 20
278.4065218257771
 30
0.0
 40
5.249999922675055
100
AcDbArc
 50
306.7574157714843
 51
53.24311828613277
  0
ARC
  5
2AB
330
1F
100
AcDbEntity
  8
通り芯
  6
Continuous
 62
     3
370
     9
100
AcDbCircle
 10
-40.84028378183757
 20
199.9065350225677
 30
0.0
 40
5.249999922675055
100
AcDbArc
 50
39.76197814941406
 51
140.2370758056641
  0
ARC
  5
2AC
330
1F
100
AcDbEntity
  8
通り芯
  6
Continuous
 62
     3
370
     9
100
AcDbCircle
 10
-40.84028378183757
 20
199.9065350225677
 30
0.0
 40
5.249999922675055
100
AcDbArc
 50
216.7624664306641
 51
323.2378082275391
  0
ARC
  5
2AD
330
1F
100
AcDbEntity
  8
通り芯
  6
Continuous
 62
     3
370
     9
100
AcDbCircle
 10
-119.3403077010205
 20
278.4065218257771
 30
0.0
 40
5.249999922675055
100
AcDbArc
 50
309.7644195556641
 51
50.23510742187503
  0
ARC
  5
2AE
330
1F
100
AcDbEntity
  8
通り芯
  6
Continuous
 62
     3
370
     9
100
AcDbCircle
 10
-119.3403077010205
 20
278.4065218257771
 30
0.0
 40
5.249999922675055
100
AcDbArc
 50
126.7600708007812
 51
233.2397155761719
  0
ARC
  5
2AF
330
1F
100
AcDbEntity
  8
通り芯
  6
Continuous
 62
     3
370
     9
100
AcDbCircle
 10
-40.84028378183757
 20
356.9065828609333
 30
0.0
 40
5.249999922675055
100
AcDbArc
 50
36.75459289550781
 51
143.2440338134766
  0
ARC
  5
2B0
330
1F
100
AcDbEntity
  8
通り芯
  6
Continuous
 62
     3
370
     9
100
AcDbCircle
 10
-40.84028378183757
 20
356.9065828609333
 30
0.0
 40
5.249999922675055
100
AcDbArc
 50
219.7696380615234
 51
320.2290802001953
  0
ARC
  5
2B1
330
1F
100
AcDbEntity
  8
仕上
  6
Continuous
 62
     6
370
     5
100
AcDbCircle
 10
1.706870000362585
 20
284.6305736363768
 30
0.0
 40
1.500000019331236
100
AcDbArc
 50
8.322830200195312
 51
105.0003051757812
  0
ARC
  5
2B2
330
1F
100
AcDbEntity
  8
仕上
  6
Continuous
 62
     6
370
     5
100
AcDbCircle
 10
1.706870000362585
 20
272.1824700151775
 30
0.0
 40
1.500000019331236
100
AcDbArc
 50
254.9996948242188
 51
351.6771697998047
  0
ARC
  5
2B3
330
1F
100
AcDbEntity
  8
仕上
  6
Continuous
 62
     6
370
     5
100
AcDbCircle
 10
-40.84028378183757
 20
278.4065218257771
 30
0.0
 40
44.49998288541227
100
AcDbArc
 50
351.6773834228516
 51
8.322616577148432
  0
ARC
  5
2B4
330
1F
100
AcDbEntity
  8
仕上
  6
Continuous
 62
     6
370
     5
100
AcDbCircle
 10
-21.52179078933335
 20
278.4065218257771
 30
0.0
 40
1.500000019331236
100
AcDbArc
 50
105.0003051757812
 51
254.9996948242187
  0
ARC
  5
2B5
330
1F
100
AcDbEntity
  8
仕上
  6
Continuous
 62
     6
370
     5
100
AcDbCircle
 10
-7.105427098982801
 20
305.0703401851521
 30
0.0
 40
1.500000019331236
100
AcDbArc
 50
38.32283020019531
 51
135.0003051757812
  0
ARC
  5
2B6
330
1F
100
AcDbEntity
  8
仕上
  6
Continuous
 62
     6
370
     5
100
AcDbCircle
 10
-0.8813010564363992
 20
294.2899314805491
 30
0.0
 40
1.500000019331236
100
AcDbArc
 50
284.9996948242188
 51
21.6771697998047
  0
ARC
  5
2B7
330
1F
100
AcDbEntity
  8
仕上
  6
Continuous
 62
     6
370
     5
100
AcDbCircle
 10
-40.84028378183757
 20
278.4065218257771
 30
0.0
 40
44.49998288541227
100
AcDbArc
 50
21.67738342285156
 51
38.32261657714844
  0
ARC
  5
2B8
330
1F
100
AcDbEntity
  8
仕上
  6
Continuous
 62
     6
370
     5
100
AcDbCircle
 10
-24.10996184613234
 20
288.0658054380027
 30
0.0
 40
1.500000019331236
100
AcDbArc
 50
135.0003051757812
 51
284.9996948242188
  0
ARC
  5
2B9
330
1F
100
AcDbEntity
  8
仕上
  6
Continuous
 62
     6
370
     5
100
AcDbCircle
 10
-24.95694835901242
 20
318.3655045511783
 30
0.0
 40
1.500000019331236
100
AcDbArc
 50
68.32283020019531
 51
165.0003051757812
  0
ARC
  5
2BA
330
1F
100
AcDbEntity
  8
仕上
  6
Continuous
 62
     6
370
     5
100
AcDbCircle
 10
-14.17650253843593
 20
312.1413785086319
 30
0.0
 40
1.500000019331236
100
AcDbArc
 50
314.9996948242187
 51
51.67716979980472
  0
ARC
  5
2BB
330
1F
100
AcDbEntity
  8
仕上
  6
Continuous
 62
     6
370
     5
100
AcDbCircle
 10
-40.84028378183757
 20
278.4065218257771
 30
0.0
 40
44.49998288541227
100
AcDbArc
 50
51.67738342285156
 51
68.32261657714844
  0
ARC
  5
2BC
330
1F
100
AcDbEntity
  8
仕上
  6
Continuous
 62
     6
370
     5
100
AcDbCircle
 10
-31.1810001696121
 20
295.1369179934292
 30
0.0
 40
1.500000019331236
100
AcDbArc
 50
165.0003051757813
 51
314.9996948242188
  0
ARC
  5
2BD
330
1F
100
AcDbEntity
  8
仕上
  6
Continuous
 62
     6
370
     5
100
AcDbCircle
 10
-47.06440982438406
 20
320.9536756079773
 30
0.0
 40
1.500000019331236
100
AcDbArc
 50
98.32283020019531
 51
195.0003051757813
  0
ARC
  5
2BE
330
1F
100
AcDbEntity
  8
仕上
  6
Continuous
 62
     6
370
     5
100
AcDbCircle
 10
-34.61619485526452
 20
320.9536756079773
 30
0.0
 40
1.500000019331236
100
AcDbArc
 50
344.9996948242189
 51
81.67716979980474
  0
ARC
  5
2BF
330
1F
100
AcDbEntity
  8
仕上
  6
Continuous
 62
     6
370
     5
100
AcDbCircle
 10
-40.84028378183757
 20
278.4065218257771
 30
0.0
 40
44.49998288541227
100
AcDbArc
 50
81.67738342285156
 51
98.32261657714844
  0
ARC
  5
2C0
330
1F
100
AcDbEntity
  8
仕上
  6
Continuous
 62
     6
370
     5
100
AcDbCircle
 10
-40.84028378183757
 20
297.7250890502281
 30
0.0
 40
1.500000019331236
100
AcDbArc
 50
195.0003051757812
 51
344.9996948242188
  0
ARC
  5
2C1
330
1F
100
AcDbEntity
  8
仕上
  6
Continuous
 62
     6
370
     5
100
AcDbCircle
 10
-67.50406502523921
 20
312.1413785086319
 30
0.0
 40
1.500000019331236
100
AcDbArc
 50
128.3228302001953
 51
225.0003051757812
  0
ARC
  5
2C2
330
1F
100
AcDbEntity
  8
仕上
  6
Continuous
 62
     6
370
     5
100
AcDbCircle
 10
-56.72361920466273
 20
318.3655045511783
 30
0.0
 40
1.500000019331236
100
AcDbArc
 50
14.99969482421875
 51
111.6771697998047
  0
ARC
  5
2C3
330
1F
100
AcDbEntity
  8
仕上
  6
Continuous
 62
     6
370
     5
100
AcDbCircle
 10
-40.84028378183757
 20
278.4065218257771
 30
0.0
 40
44.49998288541227
100
AcDbArc
 50
111.6773834228515
 51
128.3226165771484
  0
ARC
  5
2C4
330
1F
100
AcDbEntity
  8
仕上
  6
Continuous
 62
     6
370
     5
100
AcDbCircle
 10
-50.49956739406312
 20
295.1369179934292
 30
0.0
 40
1.500000019331236
100
AcDbArc
 50
225.0003051757812
 51
14.99969482421876
  0
ARC
  5
2C5
330
1F
100
AcDbEntity
  8
仕上
  6
Continuous
 62
     6
370
     5
100
AcDbCircle
 10
-80.79922939126538
 20
294.2899314805491
 30
0.0
 40
1.500000019331236
100
AcDbArc
 50
158.3228302001953
 51
255.0003051757812
  0
ARC
  5
2C6
330
1F
100
AcDbEntity
  8
仕上
  6
Continuous
 62
     6
370
     5
100
AcDbCircle
 10
-74.57514046469234
 20
305.0703401851521
 30
0.0
 40
1.500000019331236
100
AcDbArc
 50
44.99969482421875
 51
141.6771697998047
  0
ARC
  5
2C7
330
1F
100
AcDbEntity
  8
仕上
  6
Continuous
 62
     6
370
     5
100
AcDbCircle
 10
-40.84028378183757
 20
278.4065218257771
 30
0.0
 40
44.49998288541227
100
AcDbArc
 50
141.6773834228516
 51
158.3226165771484
  0
ARC
  5
2C8
330
1F
100
AcDbEntity
  8
仕上
  6
Continuous
 62
     6
370
     5
100
AcDbCircle
 10
-57.5706057175428
 20
288.0658054380027
 30
0.0
 40
1.500000019331236
100
AcDbArc
 50
255.0003051757812
 51
44.99969482421875
  0
ARC
  5
2C9
330
1F
100
AcDbEntity
  8
仕上
  6
Continuous
 62
     6
370
     5
100
AcDbCircle
 10
-83.38743756403773
 20
272.1824700151775
 30
0.0
 40
1.500000019331236
100
AcDbArc
 50
188.3228302001953
 51
285.0003051757812
  0
ARC
  5
2CA
330
1F
100
AcDbEntity
  8
仕上
  6
Continuous
 62
     6
370
     5
100
AcDbCircle
 10
-83.38743756403773
 20
284.6305736363768
 30
0.0
 40
1.500000019331236
100
AcDbArc
 50
74.99969482421875
 51
171.6771697998047
  0
ARC
  5
2CB
330
1F
100
AcDbEntity
  8
仕上
  6
Continuous
 62
     6
370
     5
100
AcDbCircle
 10
-40.84028378183757
 20
278.4065218257771
 30
0.0
 40
44.49998288541227
100
AcDbArc
 50
171.6773834228516
 51
188.3226165771485
  0
ARC
  5
2CC
330
1F
100
AcDbEntity
  8
仕上
  6
Continuous
 62
     6
370
     5
100
AcDbCircle
 10
-60.15881389031523
 20
278.4065218257771
 30
0.0
 40
1.500000019331236
100
AcDbArc
 50
285.0003051757811
 51
74.99969482421872
  0
ARC
  5
2CD
330
1F
100
AcDbEntity
  8
仕上
  6
Continuous
 62
     6
370
     5
100
AcDbCircle
 10
-74.57514046469234
 20
251.7427034664021
 30
0.0
 40
1.500000019331236
100
AcDbArc
 50
218.3228302001954
 51
315.0003051757813
  0
ARC
  5
2CE
330
1F
100
AcDbEntity
  8
仕上
  6
Continuous
 62
     6
370
     5
100
AcDbCircle
 10
-80.79922939126538
 20
262.523186402952
 30
0.0
 40
1.500000019331236
100
AcDbArc
 50
104.9996948242187
 51
201.6771697998047
  0
ARC
  5
2CF
330
1F
100
AcDbEntity
  8
仕上
  6
Continuous
 62
     6
370
     5
100
AcDbCircle
 10
-40.84028378183757
 20
278.4065218257771
 30
0.0
 40
44.49998288541227
100
AcDbArc
 50
201.6773834228515
 51
218.3226165771484
  0
ARC
  5
2D0
330
1F
100
AcDbEntity
  8
仕上
  6
Continuous
 62
     6
370
     5
100
AcDbCircle
 10
-57.5706057175428
 20
268.7472382135517
 30
0.0
 40
1.500000019331236
100
AcDbArc
 50
315.0003051757813
 51
104.9996948242187
  0
ARC
  5
2D1
330
1F
100
AcDbEntity
  8
仕上
  6
Continuous
 62
     6
370
     5
100
AcDbCircle
 10
-56.72361920466273
 20
238.4476133323227
 30
0.0
 40
1.500000019331236
100
AcDbArc
 50
248.3228302001953
 51
345.0003051757812
  0
ARC
  5
2D2
330
1F
100
AcDbEntity
  8
仕上
  6
Continuous
 62
     6
370
     5
100
AcDbCircle
 10
-67.50406502523921
 20
244.6716651429224
 30
0.0
 40
1.500000019331236
100
AcDbArc
 50
134.9996948242188
 51
231.6771697998047
  0
ARC
  5
2D3
330
1F
100
AcDbEntity
  8
仕上
  6
Continuous
 62
     6
370
     5
100
AcDbCircle
 10
-40.84028378183757
 20
278.4065218257771
 30
0.0
 40
44.49998288541227
100
AcDbArc
 50
231.6773834228516
 51
248.3226165771485
  0
ARC
  5
2D4
330
1F
100
AcDbEntity
  8
仕上
  6
Continuous
 62
     6
370
     5
100
AcDbCircle
 10
-50.49956739406312
 20
261.6761998900719
 30
0.0
 40
1.500000019331236
100
AcDbArc
 50
345.0003051757812
 51
134.9996948242188
  0
ARC
  5
2D5
330
1F
100
AcDbEntity
  8
仕上
  6
Continuous
 62
     6
370
     5
100
AcDbCircle
 10
-34.61619485526452
 20
235.8594422755237
 30
0.0
 40
1.500000019331236
100
AcDbArc
 50
278.3228302001953
 51
15.00030517578123
  0
ARC
  5
2D6
330
1F
100
AcDbEntity
  8
仕上
  6
Continuous
 62
     6
370
     5
100
AcDbCircle
 10
-47.06440982438406
 20
235.8594422755237
 30
0.0
 40
1.500000019331236
100
AcDbArc
 50
164.9996948242188
 51
261.6771697998046
  0
ARC
  5
2D7
330
1F
100
AcDbEntity
  8
仕上
  6
Continuous
 62
     6
370
     5
100
AcDbCircle
 10
-40.84028378183757
 20
278.4065218257771
 30
0.0
 40
44.49998288541227
100
AcDbArc
 50
261.6773834228516
 51
278.3226165771484
  0
ARC
  5
2D8
330
1F
100
AcDbEntity
  8
仕上
  6
Continuous
 62
     6
370
     5
100
AcDbCircle
 10
-40.84028378183757
 20
259.0879546013261
 30
0.0
 40
1.500000019331236
100
AcDbArc
 50
15.00030517578125
 51
164.9996948242188
  0
ARC
  5
2D9
330
1F
100
AcDbEntity
  8
仕上
  6
Continuous
 62
     6
370
     5
100
AcDbCircle
 10
-14.17650253843593
 20
244.6716651429224
 30
0.0
 40
1.500000019331236
100
AcDbArc
 50
308.3228302001953
 51
45.00030517578126
  0
ARC
  5
2DA
330
1F
100
AcDbEntity
  8
仕上
  6
Continuous
 62
     6
370
     5
100
AcDbCircle
 10
-24.95694835901242
 20
238.4476133323227
 30
0.0
 40
1.500000019331236
100
AcDbArc
 50
194.9996948242188
 51
291.6771697998047
  0
ARC
  5
2DB
330
1F
100
AcDbEntity
  8
仕上
  6
Continuous
 62
     6
370
     5
100
AcDbCircle
 10
-40.84028378183757
 20
278.4065218257771
 30
0.0
 40
44.49998288541227
100
AcDbArc
 50
291.6773834228516
 51
308.3226165771485
  0
ARC
  5
2DC
330
1F
100
AcDbEntity
  8
仕上
  6
Continuous
 62
     6
370
     5
100
AcDbCircle
 10
-31.1810001696121
 20
261.6761998900719
 30
0.0
 40
1.500000019331236
100
AcDbArc
 50
45.00030517578124
 51
194.9996948242188
  0
ARC
  5
2DD
330
1F
100
AcDbEntity
  8
仕上
  6
Continuous
 62
     6
370
     5
100
AcDbCircle
 10
-0.8813010564363992
 20
262.523186402952
 30
0.0
 40
1.500000019331236
100
AcDbArc
 50
338.3228302001952
 51
75.00030517578122
  0
ARC
  5
2DE
330
1F
100
AcDbEntity
  8
仕上
  6
Continuous
 62
     6
370
     5
100
AcDbCircle
 10
-7.105427098982801
 20
251.7427034664021
 30
0.0
 40
1.500000019331236
100
AcDbArc
 50
224.9996948242188
 51
321.6771697998047
  0
ARC
  5
2DF
330
1F
100
AcDbEntity
  8
仕上
  6
Continuous
 62
     6
370
     5
100
AcDbCircle
 10
-40.84028378183757
 20
278.4065218257771
 30
0.0
 40
44.49998288541227
100
AcDbArc
 50
321.6773834228516
 51
338.3226165771484
  0
ARC
  5
2E0
330
1F
100
AcDbEntity
  8
仕上
  6
Continuous
 62
     6
370
     5
100
AcDbCircle
 10
-24.10996184613234
 20
268.7472382135517
 30
0.0
 40
1.500000019331236
100
AcDbArc
 50
75.00030517578124
 51
224.9996948242188
  0
ARC
  5
2E1
330
1F
100
AcDbEntity
  8
通り芯
  6
JWW_DASHED1
 62
     3
370
     9
100
AcDbCircle
 10
-33.52049420466273
 20
-28.40042397500417
 30
0.0
 40
1.000000012887491
100
AcDbArc
 50
191.3095397949219
 51
270.0
  0
ARC
  5
2E2
330
1F
100
AcDbEntity
  8
通り芯
  6
Continuous
 62
     3
370
     9
100
AcDbCircle
 10
11.33237807679845
 20
-30.11566445351979
 30
0.0
 40
1.500000019331236
100
AcDbArc
 50
197.6806030273438
 51
300.0002136230469
  0
ARC
  5
2E3
330
1F
100
AcDbEntity
  8
通り芯
  6
Continuous
 62
     3
370
     9
100
AcDbCircle
 10
9.103638106359227
 20
-29.90042892380061
 30
0.0
 40
0.5000000064437454
100
AcDbArc
 50
17.68356323242188
 51
90.0
  0
ARC
  5
2E4
330
1F
100
AcDbEntity
  8
通り芯
  6
JWW_DASHED1
 62
     3
370
     9
100
AcDbCircle
 10
6.895534617127822
 20
-29.90042892380061
 30
0.0
 40
0.5000000064437454
100
AcDbArc
 50
90.0
 51
170.92333984375
  0
ARC
  5
2E5
330
1F
100
AcDbEntity
  8
通り芯
  6
Continuous
 62
     3
370
     9
100
AcDbCircle
 10
-93.01294564047357
 20
-30.11566445351979
 30
0.0
 40
1.500000019331236
100
AcDbArc
 50
239.9997863769531
 51
342.3193969726562
  0
ARC
  5
2E6
330
1F
100
AcDbEntity
  8
通り芯
  6
Continuous
 62
     3
370
     9
100
AcDbCircle
 10
-90.78420567003435
 20
-29.90042892380061
 30
0.0
 40
0.5000000064437454
100
AcDbArc
 50
90.0
 51
162.3164367675781
  0
ARC
  5
2E7
330
1F
100
AcDbEntity
  8
通り芯
  6
JWW_DASHED1
 62
     3
370
     9
100
AcDbCircle
 10
-88.54548150275185
 20
-29.90042892380061
 30
0.0
 40
0.5000000064437454
100
AcDbArc
 50
9.080932617187502
 51
90.0
  0
ARC
  5
2E8
330
1F
100
AcDbEntity
  8
通り芯
  6
JWW_DASHED1
 62
     3
370
     9
100
AcDbCircle
 10
-48.16007335901242
 20
-28.40042397500417
 30
0.0
 40
1.000000012887491
100
AcDbArc
 50
270.0
 51
348.6904602050782
  0
ARC
  5
2E9
330
1F
100
AcDbEntity
  8
仕上
  6
Continuous
 62
     6
370
     5
100
AcDbCircle
 10
26.65971621816243
 20
-20.68913511045598
 30
0.0
 40
2.000000025774982
100
AcDbArc
 50
300.0005493164062
 51
0.0
  0
ARC
  5
2EA
330
1F
100
AcDbEntity
  8
仕上
  6
Continuous
 62
     6
370
     5
100
AcDbCircle
 10
15.52700269409149
 20
-18.84384026116339
 30
0.0
 40
1.000000012887491
100
AcDbArc
 50
188.1296844482422
 51
270.0
  0
ARC
  5
2EB
330
1F
100
AcDbEntity
  8
仕上
  6
Continuous
 62
     6
370
     5
100
AcDbCircle
 10
-30.55953031108163
 20
14.15619438041177
 30
0.0
 40
1.000000012887491
100
AcDbArc
 50
90.0
 51
165.9647216796875
  0
ARC
  5
2EC
330
1F
100
AcDbEntity
  8
仕上
  6
Continuous
 62
     6
370
     5
100
AcDbCircle
 10
-33.6210784925639
 20
10.15613169565678
 30
0.0
 40
1.000000012887491
100
AcDbArc
 50
270.0
 51
345.9647216796874
  0
ARC
  5
2ED
330
1F
100
AcDbEntity
  8
仕上
  6
Continuous
 62
     6
370
     5
100
AcDbCircle
 10
21.65967497819196
 20
-25.30792107171026
 30
0.0
 40
0.5000000064437454
100
AcDbArc
 50
299.9995422363281
 51
0.0
  0
ARC
  5
2EE
330
1F
100
AcDbEntity
  8
仕上
  6
Continuous
 62
     6
370
     5
100
AcDbCircle
 10
24.36067859411258
 20
-23.74856768145473
 30
0.0
 40
1.000000012887491
100
AcDbArc
 50
30.00054931640625
 51
120.0005493164062
  0
ARC
  5
2EF
330
1F
100
AcDbEntity
  8
仕上
  6
Continuous
 62
     6
370
     5
100
AcDbCircle
 10
23.15967992698845
 20
-24.44189406447838
 30
0.0
 40
1.000000012887491
100
AcDbArc
 50
120.0005493164062
 51
180.0
  0
ARC
  5
2F0
330
1F
100
AcDbEntity
  8
仕上
  6
Continuous
 62
     6
370
     5
100
AcDbCircle
 10
25.65973766294704
 20
-22.99852809108311
 30
0.0
 40
0.5000000064437454
100
AcDbArc
 50
209.9995422363281
 51
299.9995422363281
  0
ARC
  5
2F1
330
1F
100
AcDbEntity
  8
仕上
  6
Continuous
 62
     6
370
     5
100
AcDbCircle
 10
19.36071158608891
 20
-26.6352996282453
 30
0.0
 40
1.000000012887491
100
AcDbArc
 50
29.99880981445312
 51
120.0005493164062
  0
ARC
  5
2F2
330
1F
100
AcDbEntity
  8
仕上
  6
Continuous
 62
     6
370
     5
100
AcDbCircle
 10
20.65969642297665
 20
-25.88529715384706
 30
0.0
 40
0.5000000064437454
100
AcDbArc
 50
209.9995422363281
 51
300.0015411376953
  0
ARC
  5
2F3
330
1F
100
AcDbEntity
  8
仕上
  6
Continuous
 62
     6
370
     5
100
AcDbCircle
 10
18.15971291896477
 20
-27.32866312724233
 30
0.0
 40
1.000000012887491
100
AcDbArc
 50
119.9996795654297
 51
180.0
  0
ARC
  5
2F4
330
1F
100
AcDbEntity
  8
仕上
  6
Continuous
 62
     6
370
     5
100
AcDbCircle
 10
16.65970797016837
 20
-28.19469013447416
 30
0.0
 40
0.5000000064437454
100
AcDbArc
 50
299.997802734375
 51
0.0
  0
ARC
  5
2F5
330
1F
100
AcDbEntity
  8
仕上
  6
Continuous
 62
     6
370
     5
100
AcDbCircle
 10
5.323153520210553
 20
10.15620592760349
 30
0.0
 40
5.000000064437454
100
AcDbArc
 50
8.130126953125
 51
90.0
  0
ARC
  5
2F6
330
1F
100
AcDbEntity
  8
仕上
  6
Continuous
 62
     6
370
     5
100
AcDbCircle
 10
4.889564719007041
 20
9.656179534022478
 30
0.0
 40
1.000000012887491
100
AcDbArc
 50
8.129684448242188
 51
90.0
  0
ARC
  5
2F7
330
1F
100
AcDbEntity
  8
仕上
  6
Continuous
 62
     6
370
     5
100
AcDbCircle
 10
14.91421797333555
 20
-25.16101604901174
 30
0.0
 40
4.000000051549963
100
AcDbArc
 50
188.1302490234375
 51
299.9253082275391
  0
ARC
  5
2F8
330
1F
100
AcDbEntity
  8
仕上
  6
Continuous
 62
     6
370
     5
100
AcDbCircle
 10
5.597885955282351
 20
11.52652766535693
 30
0.0
 40
1.000000012887491
100
AcDbArc
 50
194.0372161865234
 51
249.2573852539062
  0
ARC
  5
2F9
330
1F
100
AcDbEntity
  8
仕上
  6
Continuous
 62
     6
370
     5
100
AcDbCircle
 10
-27.04605803753859
 20
9.656179534022478
 30
0.0
 40
1.000000012887491
100
AcDbArc
 50
90.0
 51
165.9647216796875
  0
ARC
  5
2FA
330
1F
100
AcDbEntity
  8
仕上
  6
Continuous
 62
     6
370
     5
100
AcDbCircle
 10
-30.10760621902085
 20
5.656116849267399
 30
0.0
 40
1.000000012887491
100
AcDbArc
 50
270.0
 51
345.9649658203124
  0
ARC
  5
2FB
330
1F
100
AcDbEntity
  8
仕上
  6
Continuous
 62
     6
370
     5
100
AcDbCircle
 10
-108.3402837818376
 20
-20.68913511045598
 30
0.0
 40
2.000000025774982
100
AcDbArc
 50
180.0
 51
239.9994506835938
  0
ARC
  5
2FC
330
1F
100
AcDbEntity
  8
仕上
  6
Continuous
 62
     6
370
     5
100
AcDbCircle
 10
-97.20757025776663
 20
-18.84384026116339
 30
0.0
 40
1.000000012887491
100
AcDbArc
 50
270.0
 51
351.8703155517578
  0
ARC
  5
2FD
330
1F
100
AcDbEntity
  8
仕上
  6
Continuous
 62
     6
370
     5
100
AcDbCircle
 10
-51.12103725259351
 20
14.15619438041177
 30
0.0
 40
1.000000012887491
100
AcDbArc
 50
14.0352783203125
 51
90.0
  0
ARC
  5
2FE
330
1F
100
AcDbEntity
  8
仕上
  6
Continuous
 62
     6
370
     5
100
AcDbCircle
 10
-48.05948907111124
 20
10.15613169565678
 30
0.0
 40
1.000000012887491
100
AcDbArc
 50
194.0352783203125
 51
270.0
  0
ARC
  5
2FF
330
1F
100
AcDbEntity
  8
仕上
  6
Continuous
 62
     6
370
     5
100
AcDbCircle
 10
-103.3402796578405
 20
-25.30792107171026
 30
0.0
 40
0.5000000064437454
100
AcDbArc
 50
180.0
 51
240.0004577636719
  0
ARC
  5
300
330
1F
100
AcDbEntity
  8
仕上
  6
Continuous
 62
     6
370
     5
100
AcDbCircle
 10
-106.0412461577877
 20
-23.74856768145473
 30
0.0
 40
1.000000012887491
100
AcDbArc
 50
59.99945068359376
 51
149.9994506835938
  0
ARC
  5
301
330
1F
100
AcDbEntity
  8
仕上
  6
Continuous
 62
     6
370
     5
100
AcDbCircle
 10
-104.8402474906636
 20
-24.44189406447838
 30
0.0
 40
1.000000012887491
100
AcDbArc
 50
0.0
 51
59.99945068359376
  0
ARC
  5
302
330
1F
100
AcDbEntity
  8
仕上
  6
Continuous
 62
     6
370
     5
100
AcDbCircle
 10
-107.3403052266222
 20
-22.99852809108311
 30
0.0
 40
0.5000000064437454
100
AcDbArc
 50
240.0004577636719
 51
330.0004577636718
  0
ARC
  5
303
330
1F
100
AcDbEntity
  8
仕上
  6
Continuous
 62
     6
370
     5
100
AcDbCircle
 10
-101.0412420337907
 20
-26.6352996282453
 30
0.0
 40
1.000000012887491
100
AcDbArc
 50
59.99945068359376
 51
150.0011901855469
  0
ARC
  5
304
330
1F
100
AcDbEntity
  8
仕上
  6
Continuous
 62
     6
370
     5
100
AcDbCircle
 10
-102.3403011026251
 20
-25.88529715384706
 30
0.0
 40
0.5000000064437454
100
AcDbArc
 50
239.9984588623047
 51
330.0004577636718
  0
ARC
  5
305
330
1F
100
AcDbEntity
  8
仕上
  6
Continuous
 62
     6
370
     5
100
AcDbCircle
 10
-99.84028048263991
 20
-27.32866312724233
 30
0.0
 40
1.000000012887491
100
AcDbArc
 50
0.0
 51
60.00032043457033
  0
ARC
  5
306
330
1F
100
AcDbEntity
  8
仕上
  6
Continuous
 62
     6
370
     5
100
AcDbCircle
 10
-98.34027553384351
 20
-28.19469013447416
 30
0.0
 40
0.5000000064437454
100
AcDbArc
 50
180.0
 51
240.002197265625
  0
ARC
  5
307
330
1F
100
AcDbEntity
  8
仕上
  6
Continuous
 62
     6
370
     5
100
AcDbCircle
 10
-87.00379531583249
 20
10.15620592760349
 30
0.0
 40
5.000000064437454
100
AcDbArc
 50
90.0
 51
171.869873046875
  0
ARC
  5
308
330
1F
100
AcDbEntity
  8
仕上
  6
Continuous
 62
     6
370
     5
100
AcDbCircle
 10
-86.57013228268218
 20
9.656179534022478
 30
0.0
 40
1.000000012887491
100
AcDbArc
 50
90.0
 51
171.8703155517578
  0
ARC
  5
309
330
1F
100
AcDbEntity
  8
仕上
  6
Continuous
 62
     6
370
     5
100
AcDbCircle
 10
-96.5947855370107
 20
-25.16101604901174
 30
0.0
 40
4.000000051549963
100
AcDbArc
 50
240.0746917724609
 51
351.8697509765625
  0
ARC
  5
30A
330
1F
100
AcDbEntity
  8
仕上
  6
JWW_DASHED1
 62
     6
370
     5
100
AcDbCircle
 10
-87.27845351895748
 20
11.52652766535693
 30
0.0
 40
1.000000012887491
100
AcDbArc
 50
290.7426147460938
 51
345.9627838134765
  0
ARC
  5
30B
330
1F
100
AcDbEntity
  8
仕上
  6
Continuous
 62
     6
370
     5
100
AcDbCircle
 10
-54.63454664211
 20
9.656179534022478
 30
0.0
 40
1.000000012887491
100
AcDbArc
 50
14.0352783203125
 51
90.0
  0
ARC
  5
30C
330
1F
100
AcDbEntity
  8
仕上
  6
Continuous
 62
     6
370
     5
100
AcDbCircle
 10
-51.57296134465429
 20
5.656116849267399
 30
0.0
 40
1.000000012887491
100
AcDbArc
 50
194.0350341796875
 51
270.0
  0
ARC
  5
30D
330
1F
100
AcDbEntity
  8
仕上
  6
Continuous
 62
     6
370
     5
100
AcDbCircle
 10
-33.61951962168132
 20
5.656116849267399
 30
0.0
 40
1.000000012887491
100
AcDbArc
 50
198.4343109130859
 51
270.0
  0
ARC
  5
30E
330
1F
100
AcDbEntity
  8
仕上
  6
Continuous
 62
     6
370
     5
100
AcDbCircle
 10
-48.06104794199382
 20
5.656116849267399
 30
0.0
 40
1.000000012887491
100
AcDbArc
 50
270.0
 51
341.5656890869141
  0
ARC
  5
30F
330
1F
100
AcDbEntity
  8
建具
  6
Continuous
 62
     4
370
     9
100
AcDbCircle
 10
-44.63635707681226
 20
11.35616534747263
 30
0.0
 40
3.000000038662472
100
AcDbArc
 50
90.0
 51
174.9998626708984
  0
ARC
  5
310
330
1F
100
AcDbEntity
  8
建具
  6
Continuous
 62
     4
370
     9
100
AcDbCircle
 10
-37.04421048686288
 20
11.35616534747263
 30
0.0
 40
3.000000038662472
100
AcDbArc
 50
5.000137329101562
 51
90.0
  0
ARC
  5
311
330
1F
100
AcDbEntity
  8
仕上
  6
Continuous
 62
     6
370
     5
100
AcDbCircle
 10
-24.82392471036374
 20
11.65613664445318
 30
0.0
 40
1.000000012887491
100
AcDbArc
 50
270.0
 51
347.4729309082031
  0
ARC
  5
312
330
1F
100
AcDbEntity
  8
仕上
  6
JWW_DASHED1
 62
     6
370
     5
100
AcDbCircle
 10
-56.8566428533114
 20
11.65613664445318
 30
0.0
 40
1.000000012887491
100
AcDbArc
 50
192.5270690917969
 51
270.0
  0
ARC
  5
313
330
1F
100
AcDbEntity
  8
通り芯
  6
Continuous
 62
     3
370
     9
100
AcDbCircle
 10
-123.6667311398402
 20
-22.90039345742604
 30
0.0
 40
0.5000000064437454
100
AcDbArc
 50
189.4629821777344
 51
270.0
  0
ARC
  5
314
330
1F
100
AcDbEntity
  8
通り芯
  6
Continuous
 62
     3
370
     9
100
AcDbCircle
 10
-115.013810030254
 20
-22.90039345742604
 30
0.0
 40
0.5000000064437454
100
AcDbArc
 50
270.0
 51
350.5370178222657
  0
ARC
  5
315
330
1F
100
AcDbEntity
  8
通り芯
  6
Continuous
 62
     3
370
     9
100
AcDbCircle
 10
-125.013818278248
 20
-20.9003992310219
 30
0.0
 40
0.5000000064437454
100
AcDbArc
 50
9.462982177734375
 51
90.00000000000001
  0
ARC
  5
316
330
1F
100
AcDbEntity
  8
通り芯
  6
Continuous
 62
     3
370
     9
100
AcDbCircle
 10
-113.6667971237928
 20
-20.9003992310219
 30
0.0
 40
0.5000000064437454
100
AcDbArc
 50
90.0
 51
170.5370178222657
  0
ARC
  5
317
330
1F
100
AcDbEntity
  8
躯体
  6
Continuous
 62
     2
370
     9
100
AcDbCircle
 10
-116.6499563694643
 20
-24.87429515453331
 30
0.0
 40
1.000000012887491
100
AcDbArc
 50
135.0
 51
164.0547027587891
  0
ARC
  5
318
330
1F
100
AcDbEntity
  8
躯体
  6
Continuous
 62
     2
370
     9
100
AcDbCircle
 10
-122.0305848006298
 20
-24.87429515453331
 30
0.0
 40
1.000000012887491
100
AcDbArc
 50
15.94529724121094
 51
45.00000000000001
  0
ARC
  5
319
330
1F
100
AcDbEntity
  8
躯体
  6
Continuous
 62
     2
370
     9
100
AcDbCircle
 10
-116.300620827868
 20
-36.05273555782721
 30
0.0
 40
1.547662293588793
100
AcDbArc
 50
229.2452850341797
 51
310.7545318603516
  0
ARC
  5
31A
330
1F
100
AcDbEntity
  8
躯体
  6
Continuous
 62
     2
370
     9
100
AcDbCircle
 10
-122.3799203422261
 20
-36.05277267380061
 30
0.0
 40
1.547653884501071
100
AcDbArc
 50
229.2448577880859
 51
310.7551422119141
  0
ARC
  5
31B
330
1F
100
AcDbEntity
  8
躯体
  6
Continuous
 62
     2
370
     9
100
AcDbCircle
 10
-119.340270585047
 20
-31.92633009963463
 30
0.0
 40
5.674093993934425
100
AcDbArc
 50
249.0444793701172
 51
290.9555206298828
  0
CIRCLE
  5
31C
330
1F
100
AcDbEntity
  8
躯体
  6
Continuous
 62
     2
370
     9
100
AcDbCircle
 10
-119.3403077010205
 20
278.4065218257771
 30
0.0
 40
4.199999764158919
  0
CIRCLE
  5
31D
330
1F
100
AcDbEntity
  8
躯体
  6
Continuous
 62
     2
370
     9
100
AcDbCircle
 10
-40.84028378183757
 20
199.9060525149135
 30
0.0
 40
4.199999764158919
  0
CIRCLE
  5
31E
330
1F
100
AcDbEntity
  8
躯体
  6
Continuous
 62
     2
370
     9
100
AcDbCircle
 10
37.65977725331868
 20
278.4056310424156
 30
0.0
 40
4.199999764158919
  0
CIRCLE
  5
31F
330
1F
100
AcDbEntity
  8
躯体
  6
Continuous
 62
     2
370
     9
100
AcDbCircle
 10
-40.84028378183757
 20
356.9051724539444
 30
0.0
 40
4.199999764158919
  0
ARC
  5
320
330
1F
100
AcDbEntity
  8
躯体
  6
Continuous
 62
     2
370
     9
100
AcDbCircle
 10
34.96938880578915
 20
-24.87429515453331
 30
0.0
 40
1.000000012887491
100
AcDbArc
 50
15.94529724121094
 51
45.00000000000001
  0
ARC
  5
321
330
1F
100
AcDbEntity
  8
躯体
  6
Continuous
 62
     2
370
     9
100
AcDbCircle
 10
40.3500172369547
 20
-24.87429515453331
 30
0.0
 40
1.000000012887491
100
AcDbArc
 50
135.0
 51
164.0547027587891
  0
ARC
  5
322
330
1F
100
AcDbEntity
  8
躯体
  6
Continuous
 62
     2
370
     9
100
AcDbCircle
 10
34.62005326419282
 20
-36.05273555782721
 30
0.0
 40
1.547662293588793
100
AcDbArc
 50
229.2454681396484
 51
310.7547149658203
  0
ARC
  5
323
330
1F
100
AcDbEntity
  8
躯体
  6
Continuous
 62
     2
370
     9
100
AcDbCircle
 10
40.69935277855095
 20
-36.05277267380061
 30
0.0
 40
1.547653884501071
100
AcDbArc
 50
229.2448577880859
 51
310.7551422119141
  0
ARC
  5
324
330
1F
100
AcDbEntity
  8
躯体
  6
Continuous
 62
     2
370
     9
100
AcDbCircle
 10
37.65970302137188
 20
-31.92633009963463
 30
0.0
 40
5.674093993934425
100
AcDbArc
 50
249.0444793701172
 51
290.9555206298828
  0
TEXT
  5
325
330
1F
100
AcDbEntity
  8
0-E
  6
Continuous
 62
     6
370
     5
100
AcDbText
 10
63.7658855527803
 20
95.65252146946372
 30
0.0
 40
6.858000000000001
  1
ナイロンコーティング（色：グリーン）
 41
0.8962962962962957
  7
ＭＳ ゴシック
100
AcDbText
  0
TEXT
  5
326
330
1F
100
AcDbEntity
  8
0-E
  6
Continuous
 62
     7
370
     9
100
AcDbText
 10
-195.1393366646764
 20
112.2331918004393
 30
0.0
 40
6.858000000000001
  1
Ｍ８×５０
 41
1.133333333333333
  7
ＭＳ ゴシック
100
AcDbText
  0
TEXT
  5
327
330
1F
100
AcDbEntity
  8
0-E
  6
Continuous
 62
     7
370
     9
100
AcDbText
 10
-247.9011626385996
 20
50.20119123297724
 30
0.0
 40
6.858000000000001
  1
本体：ＦＣ１５０
 41
1.145833333333333
  7
ＭＳ ゴシック
100
AcDbText
  0
TEXT
  5
328
330
1F
100
AcDbEntity
  8
0-E
  6
Continuous
 62
     7
370
     9
100
AcDbText
 10
-234.4856831332153
 20
34.3144782565731
 30
0.0
 40
6.858000000000001
  1
樹脂系塗装
 41
1.133333333333332
  7
ＭＳ ゴシック
100
AcDbText
  0
TEXT
  5
329
330
1F
100
AcDbEntity
  8
その他
  6
Continuous
 62
     2
370
     9
100
AcDbText
 10
81.46772969361308
 20
-52.78431703618936
 30
0.0
 40
9.144
  1
11
 50
90.00000250447809
 41
1.062500000000001
  7
ＭＳ ゴシック
100
AcDbText
  0
TEXT
  5
32A
330
1F
100
AcDbEntity
  8
その他
  6
Continuous
 62
     2
370
     9
100
AcDbText
 10
105.4677347899355
 20
-80.15041415137095
 30
0.0
 40
9.144
  1
100
 50
90.00000250447805
 41
1.083333333333335
  7
ＭＳ ゴシック
100
AcDbText
  0
TEXT
  5
32B
330
1F
100
AcDbEntity
  8
その他
  6
Continuous
 62
     2
370
     9
100
AcDbText
 10
105.4677346424096
 20
-8.997118582853165
 30
0.0
 40
9.144
  1
35
 50
90.00000250447869
 41
1.062500000000001
  7
ＭＳ ゴシック
100
AcDbText
  0
TEXT
  5
32C
330
1F
100
AcDbEntity
  8
その他
  6
Continuous
 62
     2
370
     9
100
AcDbText
 10
-57.34030233982425
 20
97.84818035882185
 30
0.0
 40
9.144
  1
φ170
 41
1.1
  7
ＭＳ ゴシック
100
AcDbText
  0
TEXT
  5
32D
330
1F
100
AcDbEntity
  8
その他
  6
Continuous
 62
     2
370
     9
100
AcDbText
 10
-57.34033945579769
 20
49.84817046122896
 30
0.0
 40
9.144
  1
φ139
 41
1.1
  7
ＭＳ ゴシック
100
AcDbText
  0
TEXT
  5
32E
330
1F
100
AcDbEntity
  8
その他
  6
Continuous
 62
     2
370
     9
100
AcDbText
 10
-53.96530233982429
 20
-145.7084330477977
 30
0.0
 40
9.144
  1
φ67
 41
1.09375
  7
ＭＳ ゴシック
100
AcDbText
  0
TEXT
  5
32F
330
1F
100
AcDbEntity
  8
その他
  6
Continuous
 62
     2
370
     9
100
AcDbText
 10
-53.96530233982429
 20
-169.7084379965941
 30
0.0
 40
9.144
  1
φ77
 41
1.09375
  7
ＭＳ ゴシック
100
AcDbText
  0
TEXT
  5
330
330
1F
100
AcDbEntity
  8
その他
  6
Continuous
 62
     2
370
     9
100
AcDbText
 10
-53.96530233982429
 20
-193.7084429453905
 30
0.0
 40
9.144
  1
φ87
 41
1.09375
  7
ＭＳ ゴシック
100
AcDbText
  0
TEXT
  5
331
330
1F
100
AcDbEntity
  8
その他
  6
Continuous
 62
     2
370
     9
100
AcDbText
 10
-57.34033945579769
 20
-217.708447894187
 30
0.0
 40
9.144
  1
φ100
 41
1.1
  7
ＭＳ ゴシック
100
AcDbText
  0
TEXT
  5
332
330
1F
100
AcDbEntity
  8
その他
  6
Continuous
 62
     2
370
     9
100
AcDbText
 10
-50.59028378183757
 20
73.84817541002545
 30
0.0
 40
9.144
  1
157
 41
1.083333333333333
  7
ＭＳ ゴシック
100
AcDbText
  0
TEXT
  5
333
330
1F
100
AcDbEntity
  8
0-E
  6
Continuous
 62
     7
370
     9
100
AcDbText
 10
-225.446336489819
 20
129.0704448554963
 30
0.0
 40
6.858000000000001
  1
丸小ねじ：ＳＵＳ３０４
 41
1.151515151515151
  7
ＭＳ ゴシック
100
AcDbText
  0
LINE
  5
334
330
1F
100
AcDbEntity
  8
0-E
  6
Continuous
 62
     7
370
     9
100
AcDbLine
 10
-119.340270585047
 20
-41.65045531738171
 30
0.0
 11
-122.2104116917298
 21
-48.57956215859792
 31
0.0
  0
LINE
  5
335
330
1F
100
AcDbEntity
  8
0-E
  6
Continuous
 62
     7
370
     9
100
AcDbLine
 10
-119.340270585047
 20
-41.65045531738171
 30
0.0
 11
-123.905980704346
 21
-47.60059124432422
 31
0.0
  0
LINE
  5
336
330
1F
100
AcDbEntity
  8
0-E
  6
Continuous
 62
     7
370
     9
100
AcDbLine
 10
-119.340270585047
 20
-41.65045531738171
 30
0.0
 11
-150.7485842693377
 21
-96.60640538546642
 31
0.0
  0
LINE
  5
337
330
1F
100
AcDbEntity
  8
0-E
  6
Continuous
 62
     7
370
     9
100
AcDbLine
 10
-285.6563557374436
 20
-96.60640538546642
 30
0.0
 11
-150.7485842693377
 21
-96.60640538546642
 31
0.0
  0
TEXT
  5
338
330
1F
100
AcDbEntity
  8
0-E
  6
Continuous
 62
     7
370
     9
100
AcDbText
 10
-269.9524700033907
 20
-91.89140995155594
 30
0.0
 40
6.858000000000001
  1
皿小ねじ：ＳＳ４００
 41
1.15
  7
ＭＳ ゴシック
100
AcDbText
  0
TEXT
  5
339
330
1F
100
AcDbEntity
  8
0-E
  6
Continuous
 62
     7
370
     9
100
AcDbText
 10
-250.1698611971632
 20
-59.68539884831499
 30
0.0
 40
6.858000000000001
  1
アンカー：ＳＰＣＣ
 41
1.148148148148148
  7
ＭＳ ゴシック
100
AcDbText
  0
LINE
  5
33A
330
1F
100
AcDbEntity
  8
0-E
  6
Continuous
 62
     7
370
     9
100
AcDbLine
 10
-251.3835736061033
 20
-64.40039428222545
 30
0.0
 11
-155.1607480449288
 21
-64.40039428222545
 31
0.0
  0
TEXT
  5
33B
330
1F
100
AcDbEntity
  8
0-E
  6
Continuous
 62
     7
370
     9
100
AcDbText
 10
-285.7024700033907
 20
-107.6693731259119
 30
0.0
 40
6.858000000000001
  1
Ｍ４×１５，電気亜鉛めっき
 41
1.153846153846154
  7
ＭＳ ゴシック
100
AcDbText
  0
TEXT
  5
33C
330
1F
100
AcDbEntity
  8
0-E
  6
Continuous
 62
     7
370
     9
100
AcDbText
 10
77.46228150928368
 20
113.0349710577239
 30
0.0
 40
6.858000000000001
  1
ストレーナー：ＡＣ２Ｂ
 41
1.151515151515151
  7
ＭＳ ゴシック
100
AcDbText
  0
TEXT
  5
33D
330
1F
100
AcDbEntity
  8
F-4ﾚｲﾔ
  6
Continuous
 62
     2
370
     9
100
AcDbText
 10
-34.71725253276325
 20
-331.1817830658107
 30
0.0
 40
9.144
  1
鋳鉄製ルーフドレン　アルミ鋳物製ストレーナー付　たて引き用
 41
0.6991379310344827
  7
ＭＳ ゴシック
100
AcDbText
  0
TEXT
  5
33E
330
1F
100
AcDbEntity
  8
F-4ﾚｲﾔ
  6
Continuous
 62
     2
370
     9
100
AcDbText
 10
-34.71725253276325
 20
-344.7686058991612
 30
0.0
 40
9.144
  1
後付型　差し込み式　シート防水用　　ＫＷＢ－７５／１００Ｃ
 41
0.6991379310344827
  7
ＭＳ ゴシック
100
AcDbText
  0
ENDSEC
  0
SECTION
  2
OBJECTS
  0
DICTIONARY
  5
C
330
0
100
AcDbDictionary
281
     1
  3
ACAD_DETAILVIEWSTYLE
350
384
  3
ACAD_GROUP
350
D
  3
ACAD_LAYOUT
350
1A
  3
ACAD_MATERIAL
350
43
  3
ACAD_MLEADERSTYLE
350
6B
  3
ACAD_MLINESTYLE
350
17
  3
ACAD_PLOTSETTINGS
350
19
  3
ACAD_PLOTSTYLENAME
350
E
  3
ACAD_SCALELIST
350
47
  3
ACAD_SECTIONVIEWSTYLE
350
385
  3
ACAD_TABLESTYLE
350
69
  3
ACAD_VISUALSTYLE
350
2A
  3
ACDB_RECOMPOSE_DATA
350
381
  3
AcDbVariableDictionary
350
341
  0
DICTIONARY
  5
33F
330
8
100
AcDbDictionary
280
     1
281
     1
  3
ACAD_XREC_ROUNDTRIP
360
340
  0
DICTIONARY
  5
384
102
{ACAD_REACTORS
330
C
102
}
330
C
100
AcDbDictionary
281
     1
  0
DICTIONARY
  5
D
102
{ACAD_REACTORS
330
C
102
}
330
C
100
AcDbDictionary
281
     1
  0
DICTIONARY
  5
1A
102
{ACAD_REACTORS
330
C
102
}
330
C
100
AcDbDictionary
281
     1
  3
Layout1
350
1E
  3
Layout2
350
26
  3
Model
350
22
  0
DICTIONARY
  5
43
102
{ACAD_REACTORS
330
C
102
}
330
C
100
AcDbDictionary
281
     1
  3
ByBlock
350
45
  3
ByLayer
350
44
  3
Global
350
46
  0
DICTIONARY
  5
6B
102
{ACAD_REACTORS
330
C
102
}
330
C
100
AcDbDictionary
281
     1
  3
Standard
350
6C
  0
DICTIONARY
  5
17
102
{ACAD_REACTORS
330
C
102
}
330
C
100
AcDbDictionary
281
     1
  3
Standard
350
18
  0
DICTIONARY
  5
19
102
{ACAD_REACTORS
330
C
102
}
330
C
100
AcDbDictionary
281
     1
  0
ACDBDICTIONARYWDFLT
  5
E
102
{ACAD_REACTORS
330
C
102
}
330
C
100
AcDbDictionary
281
     1
  3
Normal
350
F
100
AcDbDictionaryWithDefault
340
F
  0
DICTIONARY
  5
47
102
{ACAD_REACTORS
330
C
102
}
330
C
100
AcDbDictionary
281
     1
  3
A0
350
48
  3
A1
350
49
  3
A2
350
4A
  3
A3
350
4B
  3
A4
350
4C
  3
A5
350
4D
  3
A6
350
4E
  3
A7
350
4F
  3
A8
350
50
  3
A9
350
51
  3
B0
350
52
  3
B1
350
53
  3
B2
350
54
  3
B3
350
55
  3
B4
350
56
  3
B5
350
57
  3
B6
350
58
  3
B7
350
59
  3
B8
350
5A
  3
B9
350
5B
  3
C0
350
5C
  3
C1
350
5D
  3
C2
350
5E
  3
C3
350
5F
  3
C4
350
60
  3
C5
350
61
  3
C6
350
62
  3
C7
350
63
  3
C8
350
64
  3
C9
350
65
  3
D0
350
66
  3
D1
350
67
  3
D2
350
68
  0
DICTIONARY
  5
385
102
{ACAD_REACTORS
330
C
102
}
330
C
100
AcDbDictionary
281
     1
  0
DICTIONARY
  5
69
102
{ACAD_REACTORS
330
C
102
}
330
C
100
AcDbDictionary
281
     1
  3
Standard
350
6A
  0
DICTIONARY
  5
2A
102
{ACAD_REACTORS
330
C
102
}
330
C
100
AcDbDictionary
281
     1
  3
2dWireframe
350
2F
  3
Basic
350
32
  3
Brighten
350
36
  3
ColorChange
350
3A
  3
Conceptual
350
34
  3
Dim
350
35
  3
EdgeColorOff
350
3D
  3
Facepattern
350
39
  3
Flat
350
2B
  3
FlatWithEdges
350
2C
  3
Gouraud
350
2D
  3
GouraudWithEdges
350
2E
  3
Hidden
350
31
  3
JitterOff
350
3B
  3
Linepattern
350
38
  3
OverhangOff
350
3C
  3
Realistic
350
33
  3
Shaded
350
42
  3
Shaded with edges
350
41
  3
Shades of Gray
350
3E
  3
Sketchy
350
3F
  3
Thicken
350
37
  3
Wireframe
350
30
  3
X-Ray
350
40
  0
XRECORD
  5
381
102
{ACAD_REACTORS
330
C
102
}
330
C
100
AcDbXrecord
280
     1
 90
        1
330
6A
  0
DICTIONARY
  5
341
102
{ACAD_REACTORS
330
C
102
}
330
C
100
AcDbDictionary
281
     1
  3
CANNOSCALE
350
342
  3
CENTEREXE
350
386
  3
CENTERLTYPEFILE
350
387
  3
CMLEADERSTYLE
350
383
  3
CTABLESTYLE
350
382
  3
MSLTSCALE
350
343
  3
XCLIPFRAME
350
344
  0
XRECORD
  5
340
102
{ACAD_REACTORS
330
33F
102
}
330
33F
100
AcDbXrecord
280
     1
102
VTR_0.000_0.000_1.000_1.000_VISUALSTYLE
340
2F
102
VTR_0.000_0.000_1.000_1.000_GRIDDISPLAY
 70
     3
102
VTR_0.000_0.000_1.000_1.000_GRIDMAJOR
 70
     5
102
VTR_0.000_0.000_1.000_1.000_DEFAULTLIGHTING
280
     1
102
VTR_0.000_0.000_1.000_1.000_DEFAULTLIGHTINGTYPE
 70
     1
102
VTR_0.000_0.000_1.000_1.000_BRIGHTNESS
141
0.0
102
VTR_0.000_0.000_1.000_1.000_CONTRAST
142
0.0
  0
LAYOUT
  5
1E
102
{ACAD_REACTORS
330
1A
102
}
330
1A
100
AcDbPlotSettings
  1

  2
none_device
  4

  6

 40
0.0
 41
0.0
 42
0.0
 43
0.0
 44
0.0
 45
0.0
 46
0.0
 47
0.0
 48
0.0
 49
0.0
140
0.0
141
0.0
142
1.0
143
1.0
 70
   688
 72
     1
 73
     0
 74
     5
  7

 75
    16
 76
     0
 77
     5
 78
   300
147
1.0
148
0.0
149
0.0
100
AcDbLayout
  1
Layout1
 70
     1
 71
     1
 10
0.0
 20
0.0
 11
420.0
 21
297.0
 12
0.0
 22
0.0
 32
0.0
 14
1.000000000000000E+20
 24
1.000000000000000E+20
 34
1.000000000000000E+20
 15
-1.000000000000000E+20
 25
-1.000000000000000E+20
 35
-1.000000000000000E+20
146
0.0
 13
0.0
 23
0.0
 33
0.0
 16
1.0
 26
0.0
 36
0.0
 17
0.0
 27
1.0
 37
0.0
 76
     0
330
1B
  0
LAYOUT
  5
26
102
{ACAD_REACTORS
330
1A
102
}
330
1A
100
AcDbPlotSettings
  1

  2
none_device
  4

  6

 40
0.0
 41
0.0
 42
0.0
 43
0.0
 44
0.0
 45
0.0
 46
0.0
 47
0.0
 48
0.0
 49
0.0
140
0.0
141
0.0
142
1.0
143
1.0
 70
   688
 72
     1
 73
     0
 74
     5
  7

 75
    16
 76
     0
 77
     5
 78
   300
147
1.0
148
0.0
149
0.0
100
AcDbLayout
  1
Layout2
 70
     1
 71
     2
 10
0.0
 20
0.0
 11
0.0
 21
0.0
 12
0.0
 22
0.0
 32
0.0
 14
0.0
 24
0.0
 34
0.0
 15
0.0
 25
0.0
 35
0.0
146
0.0
 13
0.0
 23
0.0
 33
0.0
 16
1.0
 26
0.0
 36
0.0
 17
0.0
 27
1.0
 37
0.0
 76
     0
330
23
  0
LAYOUT
  5
22
102
{ACAD_REACTORS
330
1A
102
}
330
1A
100
AcDbPlotSettings
  1

  2
none_device
  4
Letter_(8.50_x_11.00_Inches)
  6

 40
6.35
 41
6.35
 42
6.35000508
 43
6.35000508
 44
215.9
 45
279.4
 46
0.0
 47
0.0
 48
0.0
 49
0.0
140
0.0
141
0.0
142
1.0
143
1.0
 70
  1712
 72
     1
 73
     0
 74
     0
  7

 75
     0
 76
     0
 77
     5
 78
   300
147
1.0
148
0.0
149
0.0
100
AcDbLayout
  1
Model
 70
     1
 71
     0
 10
-630.0
 20
-445.5
 11
630.0
 21
445.5
 12
0.0
 22
0.0
 32
0.0
 14
-630.0
 24
-445.5
 34
0.0
 15
630.0
 25
445.5
 35
0.0
146
0.0
 13
0.0
 23
0.0
 33
0.0
 16
1.0
 26
0.0
 36
0.0
 17
0.0
 27
1.0
 37
0.0
 76
     0
330
1F
331
29
  0
MATERIAL
  5
45
102
{ACAD_REACTORS
330
43
102
}
102
{ACAD_XDICTIONARY
360
377
102
}
330
43
100
AcDbMaterial
  1
ByBlock
  0
MATERIAL
  5
44
102
{ACAD_REACTORS
330
43
102
}
102
{ACAD_XDICTIONARY
360
375
102
}
330
43
100
AcDbMaterial
  1
ByLayer
  0
MATERIAL
  5
46
102
{ACAD_REACTORS
330
43
102
}
102
{ACAD_XDICTIONARY
360
379
102
}
330
43
100
AcDbMaterial
  1
Global
  0
MLEADERSTYLE
  5
6C
102
{ACAD_REACTORS
330
6B
102
}
102
{ACAD_XDICTIONARY
360
37F
102
}
330
6B
100
AcDbMLeaderStyle
170
     2
171
     1
172
     0
 90
        2
 40
0.0
 41
0.0
173
     1
 91
-1056964608
340
14
 92
       -2
290
     1
 42
2.0
291
     1
 43
8.0
  3
Standard
341
0
 44
4.0
300

342
11
174
     1
178
     6
175
     1
176
     0
 93
-1056964608
 45
4.0
292
     0
297
     0
 46
4.0
343
0
 94
-1056964608
 47
1.0
 49
1.0
140
1.0
293
     1
141
0.0
294
     1
177
     0
142
1.0
295
     0
296
     0
143
3.75
1001
ACAD_MLEADERVER
1070
     2
  0
MLINESTYLE
  5
18
102
{ACAD_REACTORS
330
17
102
}
330
17
100
AcDbMlineStyle
  2
Standard
 70
     0
  3

 62
   256
 51
90.0
 52
90.0
 71
     2
 49
0.5
 62
   256
  6
BYLAYER
 49
-0.5
 62
   256
  6
BYLAYER
  0
ACDBPLACEHOLDER
  5
F
102
{ACAD_REACTORS
330
E
102
}
330
E
  0
SCALE
  5
48
102
{ACAD_REACTORS
330
47
102
}
330
47
100
AcDbScale
 70
     0
300
1:1
140
1.0
141
1.0
290
     1
  0
SCALE
  5
49
102
{ACAD_REACTORS
330
47
102
}
330
47
100
AcDbScale
 70
     0
300
1:2
140
1.0
141
2.0
290
     0
  0
SCALE
  5
4A
102
{ACAD_REACTORS
330
47
102
}
330
47
100
AcDbScale
 70
     0
300
1:4
140
1.0
141
4.0
290
     0
  0
SCALE
  5
4B
102
{ACAD_REACTORS
330
47
102
}
330
47
100
AcDbScale
 70
     0
300
1:5
140
1.0
141
5.0
290
     0
  0
SCALE
  5
4C
102
{ACAD_REACTORS
330
47
102
}
330
47
100
AcDbScale
 70
     0
300
1:8
140
1.0
141
8.0
290
     0
  0
SCALE
  5
4D
102
{ACAD_REACTORS
330
47
102
}
330
47
100
AcDbScale
 70
     0
300
1:10
140
1.0
141
10.0
290
     0
  0
SCALE
  5
4E
102
{ACAD_REACTORS
330
47
102
}
330
47
100
AcDbScale
 70
     0
300
1:16
140
1.0
141
16.0
290
     0
  0
SCALE
  5
4F
102
{ACAD_REACTORS
330
47
102
}
330
47
100
AcDbScale
 70
     0
300
1:20
140
1.0
141
20.0
290
     0
  0
SCALE
  5
50
102
{ACAD_REACTORS
330
47
102
}
330
47
100
AcDbScale
 70
     0
300
1:30
140
1.0
141
30.0
290
     0
  0
SCALE
  5
51
102
{ACAD_REACTORS
330
47
102
}
330
47
100
AcDbScale
 70
     0
300
1:40
140
1.0
141
40.0
290
     0
  0
SCALE
  5
52
102
{ACAD_REACTORS
330
47
102
}
330
47
100
AcDbScale
 70
     0
300
1:50
140
1.0
141
50.0
290
     0
  0
SCALE
  5
53
102
{ACAD_REACTORS
330
47
102
}
330
47
100
AcDbScale
 70
     0
300
1:100
140
1.0
141
100.0
290
     0
  0
SCALE
  5
54
102
{ACAD_REACTORS
330
47
102
}
330
47
100
AcDbScale
 70
     0
300
2:1
140
2.0
141
1.0
290
     0
  0
SCALE
  5
55
102
{ACAD_REACTORS
330
47
102
}
330
47
100
AcDbScale
 70
     0
300
4:1
140
4.0
141
1.0
290
     0
  0
SCALE
  5
56
102
{ACAD_REACTORS
330
47
102
}
330
47
100
AcDbScale
 70
     0
300
8:1
140
8.0
141
1.0
290
     0
  0
SCALE
  5
57
102
{ACAD_REACTORS
330
47
102
}
330
47
100
AcDbScale
 70
     0
300
10:1
140
10.0
141
1.0
290
     0
  0
SCALE
  5
58
102
{ACAD_REACTORS
330
47
102
}
330
47
100
AcDbScale
 70
     0
300
100:1
140
100.0
141
1.0
290
     0
  0
SCALE
  5
59
102
{ACAD_REACTORS
330
47
102
}
330
47
100
AcDbScale
 70
     0
300
1/128" = 1'-0"
140
0.0078125
141
12.0
290
     0
  0
SCALE
  5
5A
102
{ACAD_REACTORS
330
47
102
}
330
47
100
AcDbScale
 70
     0
300
1/64" = 1'-0"
140
0.015625
141
12.0
290
     0
  0
SCALE
  5
5B
102
{ACAD_REACTORS
330
47
102
}
330
47
100
AcDbScale
 70
     0
300
1/32" = 1'-0"
140
0.03125
141
12.0
290
     0
  0
SCALE
  5
5C
102
{ACAD_REACTORS
330
47
102
}
330
47
100
AcDbScale
 70
     0
300
1/16" = 1'-0"
140
0.0625
141
12.0
290
     0
  0
SCALE
  5
5D
102
{ACAD_REACTORS
330
47
102
}
330
47
100
AcDbScale
 70
     0
300
3/32" = 1'-0"
140
0.09375
141
12.0
290
     0
  0
SCALE
  5
5E
102
{ACAD_REACTORS
330
47
102
}
330
47
100
AcDbScale
 70
     0
300
1/8" = 1'-0"
140
0.125
141
12.0
290
     0
  0
SCALE
  5
5F
102
{ACAD_REACTORS
330
47
102
}
330
47
100
AcDbScale
 70
     0
300
3/16" = 1'-0"
140
0.1875
141
12.0
290
     0
  0
SCALE
  5
60
102
{ACAD_REACTORS
330
47
102
}
330
47
100
AcDbScale
 70
     0
300
1/4" = 1'-0"
140
0.25
141
12.0
290
     0
  0
SCALE
  5
61
102
{ACAD_REACTORS
330
47
102
}
330
47
100
AcDbScale
 70
     0
300
3/8" = 1'-0"
140
0.375
141
12.0
290
     0
  0
SCALE
  5
62
102
{ACAD_REACTORS
330
47
102
}
330
47
100
AcDbScale
 70
     0
300
1/2" = 1'-0"
140
0.5
141
12.0
290
     0
  0
SCALE
  5
63
102
{ACAD_REACTORS
330
47
102
}
330
47
100
AcDbScale
 70
     0
300
3/4" = 1'-0"
140
0.75
141
12.0
290
     0
  0
SCALE
  5
64
102
{ACAD_REACTORS
330
47
102
}
330
47
100
AcDbScale
 70
     0
300
1" = 1'-0"
140
1.0
141
12.0
290
     0
  0
SCALE
  5
65
102
{ACAD_REACTORS
330
47
102
}
330
47
100
AcDbScale
 70
     0
300
1-1/2" = 1'-0"
140
1.5
141
12.0
290
     0
  0
SCALE
  5
66
102
{ACAD_REACTORS
330
47
102
}
330
47
100
AcDbScale
 70
     0
300
3" = 1'-0"
140
3.0
141
12.0
290
     0
  0
SCALE
  5
67
102
{ACAD_REACTORS
330
47
102
}
330
47
100
AcDbScale
 70
     0
300
6" = 1'-0"
140
6.0
141
12.0
290
     0
  0
SCALE
  5
68
102
{ACAD_REACTORS
330
47
102
}
330
47
100
AcDbScale
 70
     0
300
1'-0" = 1'-0"
140
12.0
141
12.0
290
     0
  0
TABLESTYLE
  5
6A
102
{ACAD_REACTORS
330
69
102
}
102
{ACAD_XDICTIONARY
360
37B
102
}
330
69
100
AcDbTableStyle
  3
Standard
 70
     0
 71
     0
 40
0.06
 41
0.06
280
     0
281
     0
  7
Standard
140
4.5
170
     2
 62
     0
 63
   257
283
     0
274
    -2
284
     1
 64
     0
275
    -2
285
     1
 65
     0
276
    -2
286
     1
 66
     0
277
    -2
287
     1
 67
     0
278
    -2
288
     1
 68
     0
279
    -2
289
     1
 69
     0
  7
Standard
140
6.0
170
     5
 62
     0
 63
   257
283
     0
274
    -2
284
     1
 64
     0
275
    -2
285
     1
 65
     0
276
    -2
286
     1
 66
     0
277
    -2
287
     1
 67
     0
278
    -2
288
     1
 68
     0
279
    -2
289
     1
 69
     0
  7
Standard
140
4.5
170
     5
 62
     0
 63
   257
283
     0
274
    -2
284
     1
 64
     0
275
    -2
285
     1
 65
     0
276
    -2
286
     1
 66
     0
277
    -2
287
     1
 67
     0
278
    -2
288
     1
 68
     0
279
    -2
289
     1
 69
     0
  0
VISUALSTYLE
  5
2F
102
{ACAD_REACTORS
330
2A
102
}
102
{ACAD_XDICTIONARY
360
34D
102
}
330
2A
100
AcDbVisualStyle
  2
2dWireframe
 70
     4
 71
     0
 72
     2
 73
     0
 90
        0
 40
0.6
 41
30.0
 62
     5
 63
     7
421
 16777215
 74
     1
 91
        4
 64
     7
 65
   257
 75
     1
175
     1
 42
1.0
 92
        0
 66
   257
 43
1.0
 76
     1
 77
     6
 78
     2
 67
     7
 79
     5
170
     0
171
     0
290
     0
174
     0
 93
        1
 44
0.0
173
     0
291
     0
 45
0.0
1001
ACAD
1000
AcDbSavedByObjectVersion
1070
     0
  0
VISUALSTYLE
  5
32
102
{ACAD_REACTORS
330
2A
102
}
102
{ACAD_XDICTIONARY
360
353
102
}
330
2A
100
AcDbVisualStyle
  2
Basic
 70
     7
 71
     1
 72
     0
 73
     1
 90
        0
 40
0.6
 41
30.0
 62
     5
 63
     7
421
 16777215
 74
     0
 91
        4
 64
     7
 65
   257
 75
     1
175
     1
 42
1.0
 92
        8
 66
     7
 43
1.0
 76
     1
 77
     6
 78
     2
 67
     7
 79
     5
170
     0
171
     0
290
     0
174
     0
 93
        1
 44
0.0
173
     0
291
     1
 45
0.0
1001
ACAD
1000
AcDbSavedByObjectVersion
1070
     0
  0
VISUALSTYLE
  5
36
102
{ACAD_REACTORS
330
2A
102
}
102
{ACAD_XDICTIONARY
360
35B
102
}
330
2A
100
AcDbVisualStyle
  2
Brighten
 70
    12
 71
     2
 72
     2
 73
     0
 90
        0
 40
0.6
 41
30.0
 62
     5
 63
     7
421
 16777215
 74
     1
 91
        4
 64
     7
 65
   257
 75
     1
175
     1
 42
1.0
 92
        8
 66
     7
 43
1.0
 76
     1
 77
     6
 78
     2
 67
     7
 79
     5
170
     0
171
     0
290
     0
174
     0
 93
        1
 44
50.0
173
     0
291
     1
 45
0.0
1001
ACAD
1000
AcDbSavedByObjectVersion
1070
     0
  0
VISUALSTYLE
  5
3A
102
{ACAD_REACTORS
330
2A
102
}
102
{ACAD_XDICTIONARY
360
363
102
}
330
2A
100
AcDbVisualStyle
  2
ColorChange
 70
    16
 71
     2
 72
     2
 73
     3
 90
        0
 40
0.6
 41
30.0
 62
     5
 63
     8
421
  8421504
 74
     1
 91
        4
 64
     7
 65
   257
 75
     1
175
     1
 42
1.0
 92
        8
 66
     8
424
  8421504
 43
1.0
 76
     1
 77
     6
 78
     2
 67
     7
 79
     5
170
     0
171
     0
290
     0
174
     0
 93
        1
 44
0.0
173
     0
291
     1
 45
0.0
1001
ACAD
1000
AcDbSavedByObjectVersion
1070
     0
  0
VISUALSTYLE
  5
34
102
{ACAD_REACTORS
330
2A
102
}
102
{ACAD_XDICTIONARY
360
357
102
}
330
2A
100
AcDbVisualStyle
  2
Conceptual
 70
     9
 71
     3
 72
     2
 73
     0
 90
        0
 40
0.6
 41
30.0
 62
     5
 63
     7
421
 16777215
 74
     2
 91
        2
 64
     7
 65
   257
 75
     1
175
     1
 42
179.0
 92
        8
 66
     7
 43
1.0
 76
     1
 77
     6
 78
     2
 67
     7
 79
     3
170
     0
171
     0
290
     0
174
     0
 93
        1
 44
0.0
173
     0
291
     0
 45
0.0
1001
ACAD
1000
AcDbSavedByObjectVersion
1070
     0
  0
VISUALSTYLE
  5
35
102
{ACAD_REACTORS
330
2A
102
}
102
{ACAD_XDICTIONARY
360
359
102
}
330
2A
100
AcDbVisualStyle
  2
Dim
 70
    11
 71
     2
 72
     2
 73
     0
 90
        0
 40
0.6
 41
30.0
 62
     5
 63
     7
421
 16777215
 74
     1
 91
        4
 64
     7
 65
   257
 75
     1
175
     1
 42
1.0
 92
        8
 66
     7
 43
1.0
 76
     1
 77
     6
 78
     2
 67
     7
 79
     5
170
     0
171
     0
290
     0
174
     0
 93
        1
 44
-50.0
173
     0
291
     1
 45
0.0
1001
ACAD
1000
AcDbSavedByObjectVersion
1070
     0
  0
VISUALSTYLE
  5
3D
102
{ACAD_REACTORS
330
2A
102
}
102
{ACAD_XDICTIONARY
360
369
102
}
330
2A
100
AcDbVisualStyle
  2
EdgeColorOff
 70
    22
 71
     2
 72
     2
 73
     0
 90
        0
 40
0.6
 41
30.0
 62
     5
 63
     7
421
 16777215
 74
     1
 91
        4
 64
     7
 65
   257
 75
     1
175
     1
 42
1.0
 92
        8
 66
     7
 43
1.0
 76
     1
 77
     6
 78
     2
 67
     7
 79
     5
170
     0
171
     0
290
     0
174
     0
 93
        1
 44
0.0
173
     0
291
     1
 45
0.0
1001
ACAD
1000
AcDbSavedByObjectVersion
1070
     0
  0
VISUALSTYLE
  5
39
102
{ACAD_REACTORS
330
2A
102
}
102
{ACAD_XDICTIONARY
360
361
102
}
330
2A
100
AcDbVisualStyle
  2
Facepattern
 70
    15
 71
     2
 72
     2
 73
     0
 90
        0
 40
0.6
 41
30.0
 62
     5
 63
     7
421
 16777215
 74
     1
 91
        4
 64
     7
 65
   257
 75
     1
175
     1
 42
1.0
 92
        8
 66
     7
 43
1.0
 76
     1
 77
     6
 78
     2
 67
     7
 79
     5
170
     0
171
     0
290
     0
174
     0
 93
        1
 44
0.0
173
     0
291
     1
 45
0.0
1001
ACAD
1000
AcDbSavedByObjectVersion
1070
     0
  0
VISUALSTYLE
  5
2B
102
{ACAD_REACTORS
330
2A
102
}
102
{ACAD_XDICTIONARY
360
345
102
}
330
2A
100
AcDbVisualStyle
  2
Flat
 70
     0
 71
     2
 72
     1
 73
     1
 90
        2
 40
0.6
 41
30.0
 62
     5
 63
     7
421
 16777215
 74
     0
 91
        0
 64
     7
 65
   257
 75
     1
175
     1
 42
1.0
 92
        8
 66
     7
 43
1.0
 76
     1
 77
     6
 78
     2
 67
     7
 79
     5
170
     0
171
     0
290
     0
174
     0
 93
       13
 44
0.0
173
     0
291
     1
 45
0.0
1001
ACAD
1000
AcDbSavedByObjectVersion
1070
     0
  0
VISUALSTYLE
  5
2C
102
{ACAD_REACTORS
330
2A
102
}
102
{ACAD_XDICTIONARY
360
347
102
}
330
2A
100
AcDbVisualStyle
  2
FlatWithEdges
 70
     1
 71
     2
 72
     1
 73
     1
 90
        2
 40
0.6
 41
30.0
 62
     5
 63
     7
421
 16777215
 74
     1
 91
        0
 64
     7
 65
   257
 75
     1
175
     1
 42
1.0
 92
        0
 66
   257
 43
1.0
 76
     1
 77
     6
 78
     2
 67
     7
 79
     5
170
     0
171
     0
290
     0
174
     0
 93
       13
 44
0.0
173
     0
291
     1
 45
0.0
1001
ACAD
1000
AcDbSavedByObjectVersion
1070
     0
  0
VISUALSTYLE
  5
2D
102
{ACAD_REACTORS
330
2A
102
}
102
{ACAD_XDICTIONARY
360
349
102
}
330
2A
100
AcDbVisualStyle
  2
Gouraud
 70
     2
 71
     2
 72
     2
 73
     1
 90
        2
 40
0.6
 41
30.0
 62
     5
 63
     7
421
 16777215
 74
     0
 91
        0
 64
     7
 65
   257
 75
     1
175
     1
 42
1.0
 92
        0
 66
     7
 43
1.0
 76
     1
 77
     6
 78
     2
 67
     7
 79
     5
170
     0
171
     0
290
     0
174
     0
 93
       13
 44
0.0
173
     0
291
     1
 45
0.0
1001
ACAD
1000
AcDbSavedByObjectVersion
1070
     0
  0
VISUALSTYLE
  5
2E
102
{ACAD_REACTORS
330
2A
102
}
102
{ACAD_XDICTIONARY
360
34B
102
}
330
2A
100
AcDbVisualStyle
  2
GouraudWithEdges
 70
     3
 71
     2
 72
     2
 73
     1
 90
        2
 40
0.6
 41
30.0
 62
     5
 63
     7
421
 16777215
 74
     1
 91
        0
 64
     7
 65
   257
 75
     1
175
     1
 42
1.0
 92
        0
 66
   257
 43
1.0
 76
     1
 77
     6
 78
     2
 67
     7
 79
     5
170
     0
171
     0
290
     0
174
     0
 93
       13
 44
0.0
173
     0
291
     1
 45
0.0
1001
ACAD
1000
AcDbSavedByObjectVersion
1070
     0
  0
VISUALSTYLE
  5
31
102
{ACAD_REACTORS
330
2A
102
}
102
{ACAD_XDICTIONARY
360
351
102
}
330
2A
100
AcDbVisualStyle
  2
Hidden
 70
     6
 71
     1
 72
     2
 73
     2
 90
        0
 40
0.6
 41
30.0
 62
     5
 63
     7
421
 16777215
 74
     2
 91
        2
 64
     7
 65
   257
 75
     2
175
     1
 42
40.0
 92
        0
 66
   257
 43
1.0
 76
     1
 77
     6
 78
     2
 67
     7
 79
     3
170
     0
171
     0
290
     0
174
     0
 93
        1
 44
0.0
173
     0
291
     0
 45
0.0
1001
ACAD
1000
AcDbSavedByObjectVersion
1070
     0
  0
VISUALSTYLE
  5
3B
102
{ACAD_REACTORS
330
2A
102
}
102
{ACAD_XDICTIONARY
360
365
102
}
330
2A
100
AcDbVisualStyle
  2
JitterOff
 70
    20
 71
     2
 72
     2
 73
     0
 90
        0
 40
0.6
 41
30.0
 62
     5
 63
     7
421
 16777215
 74
     1
 91
        4
 64
     7
 65
   257
 75
     1
175
     1
 42
1.0
 92
       10
 66
     7
 43
1.0
 76
     1
 77
     6
 78
     2
 67
     7
 79
     5
170
     0
171
     0
290
     0
174
     0
 93
        1
 44
0.0
173
     0
291
     1
 45
0.0
1001
ACAD
1000
AcDbSavedByObjectVersion
1070
     0
  0
VISUALSTYLE
  5
38
102
{ACAD_REACTORS
330
2A
102
}
102
{ACAD_XDICTIONARY
360
35F
102
}
330
2A
100
AcDbVisualStyle
  2
Linepattern
 70
    14
 71
     2
 72
     2
 73
     0
 90
        0
 40
0.6
 41
30.0
 62
     5
 63
     7
421
 16777215
 74
     1
 91
        4
 64
     7
 65
   257
 75
     7
175
     7
 42
1.0
 92
        8
 66
     7
 43
1.0
 76
     1
 77
     6
 78
     2
 67
     7
 79
     5
170
     0
171
     0
290
     0
174
     0
 93
        1
 44
0.0
173
     0
291
     1
 45
0.0
1001
ACAD
1000
AcDbSavedByObjectVersion
1070
     0
  0
VISUALSTYLE
  5
3C
102
{ACAD_REACTORS
330
2A
102
}
102
{ACAD_XDICTIONARY
360
367
102
}
330
2A
100
AcDbVisualStyle
  2
OverhangOff
 70
    21
 71
     2
 72
     2
 73
     0
 90
        0
 40
0.6
 41
30.0
 62
     5
 63
     7
421
 16777215
 74
     1
 91
        4
 64
     7
 65
   257
 75
     1
175
     1
 42
1.0
 92
        9
 66
     7
 43
1.0
 76
     1
 77
     6
 78
     2
 67
     7
 79
     5
170
     0
171
     0
290
     0
174
     0
 93
        1
 44
0.0
173
     0
291
     1
 45
0.0
1001
ACAD
1000
AcDbSavedByObjectVersion
1070
     0
  0
VISUALSTYLE
  5
33
102
{ACAD_REACTORS
330
2A
102
}
102
{ACAD_XDICTIONARY
360
355
102
}
330
2A
100
AcDbVisualStyle
  2
Realistic
 70
     8
 71
     2
 72
     3
 73
     0
 90
        2
 40
0.6
 41
30.0
 62
     5
 63
     7
421
 16777215
 74
     0
 91
        0
 64
     7
 65
   257
 75
     1
175
     1
 42
1.0
 92
        8
 66
   257
 43
1.0
 76
     1
 77
     6
 78
     2
 67
     7
 79
     3
170
     0
171
     0
290
     0
174
     0
 93
       13
 44
0.0
173
     0
291
     0
 45
0.0
1001
ACAD
1000
AcDbSavedByObjectVersion
1070
     0
  0
VISUALSTYLE
  5
42
102
{ACAD_REACTORS
330
2A
102
}
102
{ACAD_XDICTIONARY
360
373
102
}
330
2A
100
AcDbVisualStyle
  2
Shaded
 70
    27
 71
     2
 72
     2
 73
     1
 90
        2
 40
0.6
 41
30.0
 62
     5
 63
     7
421
 16777215
 74
     0
 91
        4
 64
     7
 65
   257
 75
     1
175
     1
 42
1.0
 92
        8
 66
   257
 43
1.0
 76
     1
 77
     6
 78
     2
 67
     8
425
  7895160
 79
     3
170
     0
171
     0
290
     0
174
     0
 93
        5
 44
0.0
173
     0
291
     0
 45
0.0
1001
ACAD
1000
AcDbSavedByObjectVersion
1070
     0
  0
VISUALSTYLE
  5
41
102
{ACAD_REACTORS
330
2A
102
}
102
{ACAD_XDICTIONARY
360
371
102
}
330
2A
100
AcDbVisualStyle
  2
Shaded with edges
 70
    26
 71
     2
 72
     2
 73
     1
 90
        2
 40
0.6
 41
30.0
 62
     5
 63
     7
421
 16777215
 74
     1
 91
       10
 64
     7
 65
   257
 75
     2
175
     1
 42
1.0
 92
        8
 66
   257
 43
1.0
 76
     1
 77
     6
 78
     2
 67
     7
 79
     3
170
     0
171
     0
290
     0
174
     0
 93
        5
 44
0.0
173
     0
291
     0
 45
0.0
1001
ACAD
1000
AcDbSavedByObjectVersion
1070
     0
  0
VISUALSTYLE
  5
3E
102
{ACAD_REACTORS
330
2A
102
}
102
{ACAD_XDICTIONARY
360
36B
102
}
330
2A
100
AcDbVisualStyle
  2
Shades of Gray
 70
    23
 71
     2
 72
     2
 73
     3
 90
        0
 40
0.6
 41
30.0
 62
     5
 63
     7
421
 16777215
 74
     2
 91
        2
 64
     7
 65
     7
 75
     1
175
     1
 42
40.0
 92
        8
 66
     7
 43
1.0
 76
     1
 77
     6
 78
     2
 67
     7
 79
     3
170
     0
171
     0
290
     0
174
     0
 93
        1
 44
0.0
173
     0
291
     0
 45
0.0
1001
ACAD
1000
AcDbSavedByObjectVersion
1070
     0
  0
VISUALSTYLE
  5
3F
102
{ACAD_REACTORS
330
2A
102
}
102
{ACAD_XDICTIONARY
360
36D
102
}
330
2A
100
AcDbVisualStyle
  2
Sketchy
 70
    24
 71
     1
 72
     2
 73
     2
 90
        0
 40
0.6
 41
30.0
 62
     5
 63
     7
421
 16777215
 74
     2
 91
        2
 64
     7
 65
     7
 75
     1
175
     1
 42
40.0
 92
       11
 66
     7
 43
1.0
 76
     1
 77
     6
 78
     2
 67
     7
 79
     6
170
     0
171
     0
290
     0
174
     0
 93
        1
 44
0.0
173
     0
291
     0
 45
0.0
1001
ACAD
1000
AcDbSavedByObjectVersion
1070
     0
  0
VISUALSTYLE
  5
37
102
{ACAD_REACTORS
330
2A
102
}
102
{ACAD_XDICTIONARY
360
35D
102
}
330
2A
100
AcDbVisualStyle
  2
Thicken
 70
    13
 71
     2
 72
     2
 73
     0
 90
        0
 40
0.6
 41
30.0
 62
     5
 63
     7
421
 16777215
 74
     1
 91
        4
 64
     7
 65
   257
 75
     1
175
     1
 42
1.0
 92
       12
 66
     7
 43
1.0
 76
     1
 77
     6
 78
     2
 67
     7
 79
     5
170
     0
171
     0
290
     0
174
     0
 93
        1
 44
0.0
173
     0
291
     1
 45
0.0
1001
ACAD
1000
AcDbSavedByObjectVersion
1070
     0
  0
VISUALSTYLE
  5
30
102
{ACAD_REACTORS
330
2A
102
}
102
{ACAD_XDICTIONARY
360
34F
102
}
330
2A
100
AcDbVisualStyle
  2
Wireframe
 70
     5
 71
     0
 72
     2
 73
     0
 90
        0
 40
0.6
 41
30.0
 62
     5
 63
     7
421
 16777215
 74
     1
 91
        4
 64
     7
 65
   257
 75
     1
175
     1
 42
1.0
 92
        0
 66
   257
 43
1.0
 76
     1
 77
     6
 78
     2
 67
     7
 79
     3
170
     0
171
     0
290
     0
174
     0
 93
        1
 44
0.0
173
     0
291
     0
 45
0.0
1001
ACAD
1000
AcDbSavedByObjectVersion
1070
     0
  0
VISUALSTYLE
  5
40
102
{ACAD_REACTORS
330
2A
102
}
102
{ACAD_XDICTIONARY
360
36F
102
}
330
2A
100
AcDbVisualStyle
  2
X-Ray
 70
    25
 71
     2
 72
     2
 73
     1
 90
        1
 40
0.5
 41
30.0
 62
     5
 63
     7
421
 16777215
 74
     1
 91
        0
 64
     7
 65
   257
 75
     1
175
     1
 42
1.0
 92
        8
 66
     7
 43
1.0
 76
     1
 77
     6
 78
     2
 67
     7
 79
     3
170
     0
171
     0
290
     0
174
     0
 93
       13
 44
0.0
173
     0
291
     0
 45
0.0
1001
ACAD
1000
AcDbSavedByObjectVersion
1070
     0
  0
DICTIONARYVAR
  5
342
102
{ACAD_REACTORS
330
341
102
}
330
341
100
DictionaryVariables
280
     0
  1
1:1
  0
DICTIONARYVAR
  5
386
102
{ACAD_REACTORS
330
341
102
}
330
341
100
DictionaryVariables
280
     0
  1
3.500000
  0
DICTIONARYVAR
  5
387
102
{ACAD_REACTORS
330
341
102
}
330
341
100
DictionaryVariables
280
     0
  1
acadiso.lin
  0
DICTIONARYVAR
  5
383
102
{ACAD_REACTORS
330
341
102
}
330
341
100
DictionaryVariables
280
     0
  1
Standard
  0
DICTIONARYVAR
  5
382
102
{ACAD_REACTORS
330
341
102
}
330
341
100
DictionaryVariables
280
     0
  1
Standard
  0
DICTIONARYVAR
  5
343
102
{ACAD_REACTORS
330
341
102
}
330
341
100
DictionaryVariables
280
     0
  1
1
  0
DICTIONARYVAR
  5
344
102
{ACAD_REACTORS
330
341
102
}
330
341
100
DictionaryVariables
280
     0
  1
2
  0
DICTIONARY
  5
377
330
45
100
AcDbDictionary
280
     1
281
     1
  3
ACAD_XREC_ROUNDTRIP
360
378
  0
DICTIONARY
  5
375
330
44
100
AcDbDictionary
280
     1
281
     1
  3
ACAD_XREC_ROUNDTRIP
360
376
  0
DICTIONARY
  5
379
330
46
100
AcDbDictionary
280
     1
281
     1
  3
ACAD_XREC_ROUNDTRIP
360
37A
  0
DICTIONARY
  5
37F
330
6C
100
AcDbDictionary
280
     1
281
     1
  3
ACAD_XREC_ROUNDTRIP
360
380
  0
DICTIONARY
  5
37B
330
6A
100
AcDbDictionary
280
     1
281
     1
  3
ACAD_ROUNDTRIP_2008_TABLESTYLE_CELLSTYLEMAP
360
37D
  3
ACAD_XREC_ROUNDTRIP
360
37C
  0
DICTIONARY
  5
34D
330
2F
100
AcDbDictionary
280
     1
281
     1
  3
ACAD_XREC_ROUNDTRIP
360
34E
  0
DICTIONARY
  5
353
330
32
100
AcDbDictionary
280
     1
281
     1
  3
ACAD_XREC_ROUNDTRIP
360
354
  0
DICTIONARY
  5
35B
330
36
100
AcDbDictionary
280
     1
281
     1
  3
ACAD_XREC_ROUNDTRIP
360
35C
  0
DICTIONARY
  5
363
330
3A
100
AcDbDictionary
280
     1
281
     1
  3
ACAD_XREC_ROUNDTRIP
360
364
  0
DICTIONARY
  5
357
330
34
100
AcDbDictionary
280
     1
281
     1
  3
ACAD_XREC_ROUNDTRIP
360
358
  0
DICTIONARY
  5
359
330
35
100
AcDbDictionary
280
     1
281
     1
  3
ACAD_XREC_ROUNDTRIP
360
35A
  0
DICTIONARY
  5
369
330
3D
100
AcDbDictionary
280
     1
281
     1
  3
ACAD_XREC_ROUNDTRIP
360
36A
  0
DICTIONARY
  5
361
330
39
100
AcDbDictionary
280
     1
281
     1
  3
ACAD_XREC_ROUNDTRIP
360
362
  0
DICTIONARY
  5
345
330
2B
100
AcDbDictionary
280
     1
281
     1
  3
ACAD_XREC_ROUNDTRIP
360
346
  0
DICTIONARY
  5
347
330
2C
100
AcDbDictionary
280
     1
281
     1
  3
ACAD_XREC_ROUNDTRIP
360
348
  0
DICTIONARY
  5
349
330
2D
100
AcDbDictionary
280
     1
281
     1
  3
ACAD_XREC_ROUNDTRIP
360
34A
  0
DICTIONARY
  5
34B
330
2E
100
AcDbDictionary
280
     1
281
     1
  3
ACAD_XREC_ROUNDTRIP
360
34C
  0
DICTIONARY
  5
351
330
31
100
AcDbDictionary
280
     1
281
     1
  3
ACAD_XREC_ROUNDTRIP
360
352
  0
DICTIONARY
  5
365
330
3B
100
AcDbDictionary
280
     1
281
     1
  3
ACAD_XREC_ROUNDTRIP
360
366
  0
DICTIONARY
  5
35F
330
38
100
AcDbDictionary
280
     1
281
     1
  3
ACAD_XREC_ROUNDTRIP
360
360
  0
DICTIONARY
  5
367
330
3C
100
AcDbDictionary
280
     1
281
     1
  3
ACAD_XREC_ROUNDTRIP
360
368
  0
DICTIONARY
  5
355
330
33
100
AcDbDictionary
280
     1
281
     1
  3
ACAD_XREC_ROUNDTRIP
360
356
  0
DICTIONARY
  5
373
330
42
100
AcDbDictionary
280
     1
281
     1
  3
ACAD_XREC_ROUNDTRIP
360
374
  0
DICTIONARY
  5
371
330
41
100
AcDbDictionary
280
     1
281
     1
  3
ACAD_XREC_ROUNDTRIP
360
372
  0
DICTIONARY
  5
36B
330
3E
100
AcDbDictionary
280
     1
281
     1
  3
ACAD_XREC_ROUNDTRIP
360
36C
  0
DICTIONARY
  5
36D
330
3F
100
AcDbDictionary
280
     1
281
     1
  3
ACAD_XREC_ROUNDTRIP
360
36E
  0
DICTIONARY
  5
35D
330
37
100
AcDbDictionary
280
     1
281
     1
  3
ACAD_XREC_ROUNDTRIP
360
35E
  0
DICTIONARY
  5
34F
330
30
100
AcDbDictionary
280
     1
281
     1
  3
ACAD_XREC_ROUNDTRIP
360
350
  0
DICTIONARY
  5
36F
330
40
100
AcDbDictionary
280
     1
281
     1
  3
ACAD_XREC_ROUNDTRIP
360
370
  0
XRECORD
  5
378
102
{ACAD_REACTORS
330
377
102
}
330
377
100
AcDbXrecord
280
     1
102
MATERIAL
148
0.0
149
0.0
149
0.0
 93
        0
 94
      127
282
     0
 72
     1
 77
     1
171
     1
175
     1
179
     1
273
     0
  0
XRECORD
  5
376
102
{ACAD_REACTORS
330
375
102
}
330
375
100
AcDbXrecord
280
     1
102
MATERIAL
148
0.0
149
0.0
149
0.0
 93
        0
 94
      127
282
     0
 72
     1
 77
     1
171
     1
175
     1
179
     1
273
     0
  0
XRECORD
  5
37A
102
{ACAD_REACTORS
330
379
102
}
330
379
100
AcDbXrecord
280
     1
102
MATERIAL
148
0.0
149
0.0
149
0.0
 93
        0
 94
      127
282
     0
 72
     1
 77
     1
171
     1
175
     1
179
     1
273
     0
  0
XRECORD
  5
380
102
{ACAD_REACTORS
330
37F
102
}
330
37F
100
AcDbXrecord
280
     1
102
ACAD_ROUNDTRIP_2010_MLEADER_STYLE
  0
CELLSTYLEMAP
  5
37D
102
{ACAD_REACTORS
330
37B
102
}
330
37B
100
AcDbCellStyleMap
 90
        3
300
CELLSTYLE
  1
TABLEFORMAT_BEGIN
 90
        5
170
     1
 91
        0
 92
    32768
 62
   257
 93
        1
300
CONTENTFORMAT
  1
CONTENTFORMAT_BEGIN
 90
        0
 91
        0
 92
        4
 93
        0
300

 40
0.0
140
1.0
 94
        5
 62
     0
340
11
144
6.0
309
CONTENTFORMAT_END
171
     1
301
MARGIN
  1
CELLMARGIN_BEGIN
 40
1.5
 40
1.5
 40
1.5
 40
1.5
 40
1.5
 40
1.5
309
CELLMARGIN_END
 94
        6
 95
        1
302
GRIDFORMAT
  1
GRIDFORMAT_BEGIN
 90
        0
 91
        1
 62
     0
 92
       -2
340
14
 93
        0
 40
0.045
309
GRIDFORMAT_END
 95
        2
302
GRIDFORMAT
  1
GRIDFORMAT_BEGIN
 90
        0
 91
        1
 62
     0
 92
       -2
340
14
 93
        0
 40
0.045
309
GRIDFORMAT_END
 95
        4
302
GRIDFORMAT
  1
GRIDFORMAT_BEGIN
 90
        0
 91
        1
 62
     0
 92
       -2
340
14
 93
        0
 40
0.045
309
GRIDFORMAT_END
 95
        8
302
GRIDFORMAT
  1
GRIDFORMAT_BEGIN
 90
        0
 91
        1
 62
     0
 92
       -2
340
14
 93
        0
 40
0.045
309
GRIDFORMAT_END
 95
       16
302
GRIDFORMAT
  1
GRIDFORMAT_BEGIN
 90
        0
 91
        1
 62
     0
 92
       -2
340
14
 93
        0
 40
0.045
309
GRIDFORMAT_END
 95
       32
302
GRIDFORMAT
  1
GRIDFORMAT_BEGIN
 90
        0
 91
        1
 62
     0
 92
       -2
340
14
 93
        0
 40
0.045
309
GRIDFORMAT_END
309
TABLEFORMAT_END
  1
CELLSTYLE_BEGIN
 90
        1
 91
        1
300
_TITLE
309
CELLSTYLE_END
300
CELLSTYLE
  1
TABLEFORMAT_BEGIN
 90
        5
170
     1
 91
        0
 92
        0
 62
   257
 93
        1
300
CONTENTFORMAT
  1
CONTENTFORMAT_BEGIN
 90
        0
 91
        0
 92
        4
 93
        0
300

 40
0.0
140
1.0
 94
        5
 62
     0
340
11
144
4.5
309
CONTENTFORMAT_END
171
     1
301
MARGIN
  1
CELLMARGIN_BEGIN
 40
1.5
 40
1.5
 40
1.5
 40
1.5
 40
1.5
 40
1.5
309
CELLMARGIN_END
 94
        6
 95
        1
302
GRIDFORMAT
  1
GRIDFORMAT_BEGIN
 90
        0
 91
        1
 62
     0
 92
       -2
340
14
 93
        0
 40
0.045
309
GRIDFORMAT_END
 95
        2
302
GRIDFORMAT
  1
GRIDFORMAT_BEGIN
 90
        0
 91
        1
 62
     0
 92
       -2
340
14
 93
        0
 40
0.045
309
GRIDFORMAT_END
 95
        4
302
GRIDFORMAT
  1
GRIDFORMAT_BEGIN
 90
        0
 91
        1
 62
     0
 92
       -2
340
14
 93
        0
 40
0.045
309
GRIDFORMAT_END
 95
        8
302
GRIDFORMAT
  1
GRIDFORMAT_BEGIN
 90
        0
 91
        1
 62
     0
 92
       -2
340
14
 93
        0
 40
0.045
309
GRIDFORMAT_END
 95
       16
302
GRIDFORMAT
  1
GRIDFORMAT_BEGIN
 90
        0
 91
        1
 62
     0
 92
       -2
340
14
 93
        0
 40
0.045
309
GRIDFORMAT_END
 95
       32
302
GRIDFORMAT
  1
GRIDFORMAT_BEGIN
 90
        0
 91
        1
 62
     0
 92
       -2
340
14
 93
        0
 40
0.045
309
GRIDFORMAT_END
309
TABLEFORMAT_END
  1
CELLSTYLE_BEGIN
 90
        2
 91
        1
300
_HEADER
309
CELLSTYLE_END
300
CELLSTYLE
  1
TABLEFORMAT_BEGIN
 90
        5
170
     1
 91
        0
 92
        0
 62
   257
 93
        1
300
CONTENTFORMAT
  1
CONTENTFORMAT_BEGIN
 90
        0
 91
        0
 92
        4
 93
        0
300

 40
0.0
140
1.0
 94
        2
 62
     0
340
11
144
4.5
309
CONTENTFORMAT_END
171
     1
301
MARGIN
  1
CELLMARGIN_BEGIN
 40
1.5
 40
1.5
 40
1.5
 40
1.5
 40
1.5
 40
1.5
309
CELLMARGIN_END
 94
        6
 95
        1
302
GRIDFORMAT
  1
GRIDFORMAT_BEGIN
 90
        0
 91
        1
 62
     0
 92
       -2
340
14
 93
        0
 40
0.045
309
GRIDFORMAT_END
 95
        2
302
GRIDFORMAT
  1
GRIDFORMAT_BEGIN
 90
        0
 91
        1
 62
     0
 92
       -2
340
14
 93
        0
 40
0.045
309
GRIDFORMAT_END
 95
        4
302
GRIDFORMAT
  1
GRIDFORMAT_BEGIN
 90
        0
 91
        1
 62
     0
 92
       -2
340
14
 93
        0
 40
0.045
309
GRIDFORMAT_END
 95
        8
302
GRIDFORMAT
  1
GRIDFORMAT_BEGIN
 90
        0
 91
        1
 62
     0
 92
       -2
340
14
 93
        0
 40
0.045
309
GRIDFORMAT_END
 95
       16
302
GRIDFORMAT
  1
GRIDFORMAT_BEGIN
 90
        0
 91
        1
 62
     0
 92
       -2
340
14
 93
        0
 40
0.045
309
GRIDFORMAT_END
 95
       32
302
GRIDFORMAT
  1
GRIDFORMAT_BEGIN
 90
        0
 91
        1
 62
     0
 92
       -2
340
14
 93
        0
 40
0.045
309
GRIDFORMAT_END
309
TABLEFORMAT_END
  1
CELLSTYLE_BEGIN
 90
        3
 91
        2
300
_DATA
309
CELLSTYLE_END
  0
XRECORD
  5
37C
102
{ACAD_REACTORS
330
37B
102
}
330
37B
100
AcDbXrecord
280
     1
102
ACAD_ROUNDTRIP_PRE2007_TABLESTYLE
 90
        4
 91
        0
  1

 92
        4
 93
        0
  2

 94
        4
 95
        0
  3

  0
XRECORD
  5
34E
102
{ACAD_REACTORS
330
34D
102
}
330
34D
100
AcDbXrecord
280
     1
102
RTVSPropertyOp0
 70
     1
102
RTVSPropertyOp1
 70
     1
102
RTVSPropertyOp2
 70
     1
102
RTVSPropertyOp3
 70
     1
102
RTVSPropertyOp4
 70
     1
102
RTVSPropertyOp5
 70
     1
102
RTVSPropertyOp6
 70
     1
102
RTVSPropertyOp7
 70
     1
102
RTVSPropertyOp8
 70
     1
102
RTVSPropertyOp9
 70
     1
102
RTVSPropertyOp10
 70
     1
102
RTVSPropertyOp11
 70
     1
102
RTVSPropertyOp12
 70
     1
102
RTVSPropertyOp13
 70
     1
102
RTVSPropertyOp14
 70
     1
102
RTVSPropertyOp15
 70
     1
102
RTVSPropertyOp16
 70
     1
102
RTVSPropertyOp17
 70
     1
102
RTVSPropertyOp18
 70
     1
102
RTVSPropertyOp19
 70
     1
102
RTVSPropertyOp20
 70
     1
102
RTVSPropertyOp21
 70
     1
102
RTVSPropertyOp22
 70
     1
102
RTVSPropertyOp23
 70
     1
102
RTVSPropertyOp24
 70
     1
102
RTVSPropertyOp25
 70
     1
102
RTVSPropertyOp26
 70
     1
102
RTVSPropertyOp27
 70
     1
102
RTVSPropertyOp28
 70
     1
102
RTVSPropertyOp29
 70
     1
102
RTVSPropertyOp30
 70
     1
102
RTVSPropertyOp31
 70
     1
102
RTVSPropertyOp32
 70
     1
102
RTVSPropertyOp33
 70
     1
102
RTVSPropertyOp34
 70
     1
102
RTVSPropertyOp35
 70
     1
102
RTVSPropertyOp36
 70
     1
102
RTVSPropertyOp37
 70
     1
102
RTVSPropertyOp38
 70
     1
102
RTVSPropertyOp39
 70
     1
102
RTVSPropertyOp40
 70
     1
102
RTVSPropertyOp41
 70
     1
102
RTVSPropertyOp42
 70
     1
102
RTVSPropertyOp43
 70
     1
102
RTVSPropertyOp44
 70
     1
102
RTVSPropertyOp45
 70
     1
102
RTVSPropertyOp46
 70
     1
102
RTVSPropertyOp47
 70
     1
102
RTVSPropertyOp48
 70
     1
102
RTVSPropertyOp49
 70
     1
102
RTVSPropertyOp50
 70
     1
102
RTVSPropertyOp51
 70
     0
102
RTVSPropertyOp52
 70
     0
102
RTVSPropertyOp53
 70
     1
102
RTVSPropertyOp54
 70
     1
102
RTVSPropertyOp55
 70
     1
102
RTVSPropertyOp56
 70
     1
102
RTVSPropertyOp57
 70
     1
102
RTVSPost2010Prop28
280
     1
102
RTVSPost2010PropOp28
 70
     1
102
RTVSPost2010Prop29
280
     1
102
RTVSPost2010PropOp29
 70
     1
102
RTVSPost2010Prop30
280
     0
102
RTVSPost2010PropOp30
 70
     1
102
RTVSPost2010Prop31
280
     0
102
RTVSPost2010PropOp31
 70
     1
102
RTVSPost2010Prop32
280
     0
102
RTVSPost2010PropOp32
 70
     1
102
RTVSPost2010Prop33
280
     0
102
RTVSPost2010PropOp33
 70
     1
102
RTVSPost2010Prop34
280
     0
102
RTVSPost2010PropOp34
 70
     1
102
RTVSPost2010Prop35
280
     0
102
RTVSPost2010PropOp35
 70
     1
102
RTVSPost2010Prop36
280
     0
102
RTVSPost2010PropOp36
 70
     1
102
RTVSPost2010Prop37
 90
       50
102
RTVSPost2010PropOp37
 70
     1
102
RTVSPost2010Prop38
140
0.0
102
RTVSPost2010PropOp38
 70
     1
102
RTVSPost2010Prop39
140
1.0
102
RTVSPost2010PropOp39
 70
     1
102
RTVSPost2010Prop40
 90
        0
102
RTVSPost2010PropOp40
 70
     1
102
RTVSPost2010Prop41ColorIndex
 90
       18
102
RTVSPost2010Prop41ColorRGB
 90
        0
102
RTVSPost2010PropOp41
 70
     1
102
RTVSPost2010Prop42
 90
       50
102
RTVSPost2010PropOp42
 70
     1
102
RTVSPost2010Prop43
 90
        3
102
RTVSPost2010PropOp43
 70
     1
102
RTVSPost2010Prop44ColorIndex
 90
        5
102
RTVSPost2010Prop44ColorRGB
 90
      255
102
RTVSPost2010PropOp44
 70
     1
102
RTVSPost2010Prop45
280
     0
102
RTVSPost2010PropOp45
 70
     1
102
RTVSPost2010Prop46
 90
       50
102
RTVSPost2010PropOp46
 70
     1
102
RTVSPost2010Prop47
 90
       50
102
RTVSPost2010PropOp47
 70
     1
102
RTVSPost2010Prop48
 90
       50
102
RTVSPost2010PropOp48
 70
     1
102
RTVSPost2010Prop49
280
     0
102
RTVSPost2010PropOp49
 70
     1
102
RTVSPost2010Prop50
 90
       50
102
RTVSPost2010PropOp50
 70
     1
102
RTVSPost2010Prop51ColorIndex
 90
      256
102
RTVSPost2010Prop51ColorRGB
 90
-16777216
102
RTVSPost2010PropOp51
 70
     0
102
RTVSPost2010Prop52
140
1.0
102
RTVSPost2010PropOp52
 70
     0
102
RTVSPost2010Prop53
 90
        2
102
RTVSPost2010PropOp53
 70
     1
102
RTVSPost2010Prop54
  1
strokes_ogs.tif
102
RTVSPost2010PropOp54
 70
     1
102
RTVSPost2010Prop55
280
     0
102
RTVSPost2010PropOp55
 70
     1
102
RTVSPost2010Prop56
140
1.0
102
RTVSPost2010PropOp56
 70
     1
102
RTVSPost2010Prop57
140
1.0
102
RTVSPost2010PropOp57
 70
     1
  0
XRECORD
  5
354
102
{ACAD_REACTORS
330
353
102
}
330
353
100
AcDbXrecord
280
     1
102
RTVSPropertyOp0
 70
     1
102
RTVSPropertyOp1
 70
     1
102
RTVSPropertyOp2
 70
     1
102
RTVSPropertyOp3
 70
     1
102
RTVSPropertyOp4
 70
     1
102
RTVSPropertyOp5
 70
     1
102
RTVSPropertyOp6
 70
     1
102
RTVSPropertyOp7
 70
     1
102
RTVSPropertyOp8
 70
     1
102
RTVSPropertyOp9
 70
     1
102
RTVSPropertyOp10
 70
     1
102
RTVSPropertyOp11
 70
     1
102
RTVSPropertyOp12
 70
     1
102
RTVSPropertyOp13
 70
     1
102
RTVSPropertyOp14
 70
     1
102
RTVSPropertyOp15
 70
     1
102
RTVSPropertyOp16
 70
     1
102
RTVSPropertyOp17
 70
     1
102
RTVSPropertyOp18
 70
     1
102
RTVSPropertyOp19
 70
     1
102
RTVSPropertyOp20
 70
     1
102
RTVSPropertyOp21
 70
     1
102
RTVSPropertyOp22
 70
     1
102
RTVSPropertyOp23
 70
     1
102
RTVSPropertyOp24
 70
     1
102
RTVSPropertyOp25
 70
     1
102
RTVSPropertyOp26
 70
     1
102
RTVSPropertyOp27
 70
     1
102
RTVSPropertyOp28
 70
     1
102
RTVSPropertyOp29
 70
     1
102
RTVSPropertyOp30
 70
     1
102
RTVSPropertyOp31
 70
     1
102
RTVSPropertyOp32
 70
     1
102
RTVSPropertyOp33
 70
     1
102
RTVSPropertyOp34
 70
     1
102
RTVSPropertyOp35
 70
     1
102
RTVSPropertyOp36
 70
     1
102
RTVSPropertyOp37
 70
     1
102
RTVSPropertyOp38
 70
     1
102
RTVSPropertyOp39
 70
     1
102
RTVSPropertyOp40
 70
     1
102
RTVSPropertyOp41
 70
     1
102
RTVSPropertyOp42
 70
     1
102
RTVSPropertyOp43
 70
     1
102
RTVSPropertyOp44
 70
     1
102
RTVSPropertyOp45
 70
     1
102
RTVSPropertyOp46
 70
     1
102
RTVSPropertyOp47
 70
     1
102
RTVSPropertyOp48
 70
     1
102
RTVSPropertyOp49
 70
     1
102
RTVSPropertyOp50
 70
     1
102
RTVSPropertyOp51
 70
     0
102
RTVSPropertyOp52
 70
     0
102
RTVSPropertyOp53
 70
     1
102
RTVSPropertyOp54
 70
     1
102
RTVSPropertyOp55
 70
     1
102
RTVSPropertyOp56
 70
     1
102
RTVSPropertyOp57
 70
     1
102
RTVSPost2010Prop28
280
     0
102
RTVSPost2010PropOp28
 70
     1
102
RTVSPost2010Prop29
280
     1
102
RTVSPost2010PropOp29
 70
     1
102
RTVSPost2010Prop30
280
     1
102
RTVSPost2010PropOp30
 70
     1
102
RTVSPost2010Prop31
280
     0
102
RTVSPost2010PropOp31
 70
     1
102
RTVSPost2010Prop32
280
     0
102
RTVSPost2010PropOp32
 70
     1
102
RTVSPost2010Prop33
280
     0
102
RTVSPost2010PropOp33
 70
     1
102
RTVSPost2010Prop34
280
     0
102
RTVSPost2010PropOp34
 70
     1
102
RTVSPost2010Prop35
280
     0
102
RTVSPost2010PropOp35
 70
     1
102
RTVSPost2010Prop36
280
     0
102
RTVSPost2010PropOp36
 70
     1
102
RTVSPost2010Prop37
 90
       50
102
RTVSPost2010PropOp37
 70
     1
102
RTVSPost2010Prop38
140
0.0
102
RTVSPost2010PropOp38
 70
     1
102
RTVSPost2010Prop39
140
1.0
102
RTVSPost2010PropOp39
 70
     1
102
RTVSPost2010Prop40
 90
        0
102
RTVSPost2010PropOp40
 70
     1
102
RTVSPost2010Prop41ColorIndex
 90
       18
102
RTVSPost2010Prop41ColorRGB
 90
        0
102
RTVSPost2010PropOp41
 70
     1
102
RTVSPost2010Prop42
 90
       50
102
RTVSPost2010PropOp42
 70
     1
102
RTVSPost2010Prop43
 90
        3
102
RTVSPost2010PropOp43
 70
     1
102
RTVSPost2010Prop44ColorIndex
 90
        5
102
RTVSPost2010Prop44ColorRGB
 90
      255
102
RTVSPost2010PropOp44
 70
     1
102
RTVSPost2010Prop45
280
     0
102
RTVSPost2010PropOp45
 70
     1
102
RTVSPost2010Prop46
 90
       50
102
RTVSPost2010PropOp46
 70
     1
102
RTVSPost2010Prop47
 90
       50
102
RTVSPost2010PropOp47
 70
     1
102
RTVSPost2010Prop48
 90
       50
102
RTVSPost2010PropOp48
 70
     1
102
RTVSPost2010Prop49
280
     0
102
RTVSPost2010PropOp49
 70
     1
102
RTVSPost2010Prop50
 90
       50
102
RTVSPost2010PropOp50
 70
     1
102
RTVSPost2010Prop51ColorIndex
 90
      256
102
RTVSPost2010Prop51ColorRGB
 90
-16777216
102
RTVSPost2010PropOp51
 70
     0
102
RTVSPost2010Prop52
140
1.0
102
RTVSPost2010PropOp52
 70
     0
102
RTVSPost2010Prop53
 90
        2
102
RTVSPost2010PropOp53
 70
     1
102
RTVSPost2010Prop54
  1
strokes_ogs.tif
102
RTVSPost2010PropOp54
 70
     1
102
RTVSPost2010Prop55
280
     0
102
RTVSPost2010PropOp55
 70
     1
102
RTVSPost2010Prop56
140
1.0
102
RTVSPost2010PropOp56
 70
     1
102
RTVSPost2010Prop57
140
1.0
102
RTVSPost2010PropOp57
 70
     1
  0
XRECORD
  5
35C
102
{ACAD_REACTORS
330
35B
102
}
330
35B
100
AcDbXrecord
280
     1
102
RTVSPropertyOp0
 70
     1
102
RTVSPropertyOp1
 70
     1
102
RTVSPropertyOp2
 70
     1
102
RTVSPropertyOp3
 70
     1
102
RTVSPropertyOp4
 70
     1
102
RTVSPropertyOp5
 70
     1
102
RTVSPropertyOp6
 70
     1
102
RTVSPropertyOp7
 70
     1
102
RTVSPropertyOp8
 70
     1
102
RTVSPropertyOp9
 70
     1
102
RTVSPropertyOp10
 70
     1
102
RTVSPropertyOp11
 70
     1
102
RTVSPropertyOp12
 70
     1
102
RTVSPropertyOp13
 70
     1
102
RTVSPropertyOp14
 70
     1
102
RTVSPropertyOp15
 70
     1
102
RTVSPropertyOp16
 70
     1
102
RTVSPropertyOp17
 70
     1
102
RTVSPropertyOp18
 70
     1
102
RTVSPropertyOp19
 70
     1
102
RTVSPropertyOp20
 70
     1
102
RTVSPropertyOp21
 70
     1
102
RTVSPropertyOp22
 70
     1
102
RTVSPropertyOp23
 70
     1
102
RTVSPropertyOp24
 70
     1
102
RTVSPropertyOp25
 70
     1
102
RTVSPropertyOp26
 70
     1
102
RTVSPropertyOp27
 70
     1
102
RTVSPropertyOp28
 70
     1
102
RTVSPropertyOp29
 70
     1
102
RTVSPropertyOp30
 70
     1
102
RTVSPropertyOp31
 70
     1
102
RTVSPropertyOp32
 70
     1
102
RTVSPropertyOp33
 70
     1
102
RTVSPropertyOp34
 70
     1
102
RTVSPropertyOp35
 70
     1
102
RTVSPropertyOp36
 70
     1
102
RTVSPropertyOp37
 70
     1
102
RTVSPropertyOp38
 70
     1
102
RTVSPropertyOp39
 70
     1
102
RTVSPropertyOp40
 70
     1
102
RTVSPropertyOp41
 70
     1
102
RTVSPropertyOp42
 70
     1
102
RTVSPropertyOp43
 70
     1
102
RTVSPropertyOp44
 70
     1
102
RTVSPropertyOp45
 70
     1
102
RTVSPropertyOp46
 70
     1
102
RTVSPropertyOp47
 70
     1
102
RTVSPropertyOp48
 70
     1
102
RTVSPropertyOp49
 70
     1
102
RTVSPropertyOp50
 70
     1
102
RTVSPropertyOp51
 70
     0
102
RTVSPropertyOp52
 70
     0
102
RTVSPropertyOp53
 70
     1
102
RTVSPropertyOp54
 70
     1
102
RTVSPropertyOp55
 70
     1
102
RTVSPropertyOp56
 70
     1
102
RTVSPropertyOp57
 70
     1
102
RTVSPost2010Prop28
280
     0
102
RTVSPost2010PropOp28
 70
     1
102
RTVSPost2010Prop29
280
     1
102
RTVSPost2010PropOp29
 70
     1
102
RTVSPost2010Prop30
280
     1
102
RTVSPost2010PropOp30
 70
     1
102
RTVSPost2010Prop31
280
     0
102
RTVSPost2010PropOp31
 70
     1
102
RTVSPost2010Prop32
280
     0
102
RTVSPost2010PropOp32
 70
     1
102
RTVSPost2010Prop33
280
     0
102
RTVSPost2010PropOp33
 70
     1
102
RTVSPost2010Prop34
280
     0
102
RTVSPost2010PropOp34
 70
     1
102
RTVSPost2010Prop35
280
     0
102
RTVSPost2010PropOp35
 70
     1
102
RTVSPost2010Prop36
280
     0
102
RTVSPost2010PropOp36
 70
     1
102
RTVSPost2010Prop37
 90
       50
102
RTVSPost2010PropOp37
 70
     1
102
RTVSPost2010Prop38
140
0.0
102
RTVSPost2010PropOp38
 70
     1
102
RTVSPost2010Prop39
140
1.0
102
RTVSPost2010PropOp39
 70
     1
102
RTVSPost2010Prop40
 90
        0
102
RTVSPost2010PropOp40
 70
     1
102
RTVSPost2010Prop41ColorIndex
 90
       18
102
RTVSPost2010Prop41ColorRGB
 90
        0
102
RTVSPost2010PropOp41
 70
     1
102
RTVSPost2010Prop42
 90
       50
102
RTVSPost2010PropOp42
 70
     1
102
RTVSPost2010Prop43
 90
        3
102
RTVSPost2010PropOp43
 70
     1
102
RTVSPost2010Prop44ColorIndex
 90
        5
102
RTVSPost2010Prop44ColorRGB
 90
      255
102
RTVSPost2010PropOp44
 70
     1
102
RTVSPost2010Prop45
280
     0
102
RTVSPost2010PropOp45
 70
     1
102
RTVSPost2010Prop46
 90
       50
102
RTVSPost2010PropOp46
 70
     1
102
RTVSPost2010Prop47
 90
       50
102
RTVSPost2010PropOp47
 70
     1
102
RTVSPost2010Prop48
 90
       50
102
RTVSPost2010PropOp48
 70
     1
102
RTVSPost2010Prop49
280
     0
102
RTVSPost2010PropOp49
 70
     1
102
RTVSPost2010Prop50
 90
       50
102
RTVSPost2010PropOp50
 70
     1
102
RTVSPost2010Prop51ColorIndex
 90
      256
102
RTVSPost2010Prop51ColorRGB
 90
-16777216
102
RTVSPost2010PropOp51
 70
     0
102
RTVSPost2010Prop52
140
1.0
102
RTVSPost2010PropOp52
 70
     0
102
RTVSPost2010Prop53
 90
        2
102
RTVSPost2010PropOp53
 70
     1
102
RTVSPost2010Prop54
  1
strokes_ogs.tif
102
RTVSPost2010PropOp54
 70
     1
102
RTVSPost2010Prop55
280
     0
102
RTVSPost2010PropOp55
 70
     1
102
RTVSPost2010Prop56
140
1.0
102
RTVSPost2010PropOp56
 70
     1
102
RTVSPost2010Prop57
140
1.0
102
RTVSPost2010PropOp57
 70
     1
  0
XRECORD
  5
364
102
{ACAD_REACTORS
330
363
102
}
330
363
100
AcDbXrecord
280
     1
102
RTVSPropertyOp0
 70
     1
102
RTVSPropertyOp1
 70
     1
102
RTVSPropertyOp2
 70
     1
102
RTVSPropertyOp3
 70
     1
102
RTVSPropertyOp4
 70
     1
102
RTVSPropertyOp5
 70
     1
102
RTVSPropertyOp6
 70
     1
102
RTVSPropertyOp7
 70
     1
102
RTVSPropertyOp8
 70
     1
102
RTVSPropertyOp9
 70
     1
102
RTVSPropertyOp10
 70
     1
102
RTVSPropertyOp11
 70
     1
102
RTVSPropertyOp12
 70
     1
102
RTVSPropertyOp13
 70
     1
102
RTVSPropertyOp14
 70
     1
102
RTVSPropertyOp15
 70
     1
102
RTVSPropertyOp16
 70
     1
102
RTVSPropertyOp17
 70
     1
102
RTVSPropertyOp18
 70
     1
102
RTVSPropertyOp19
 70
     1
102
RTVSPropertyOp20
 70
     1
102
RTVSPropertyOp21
 70
     1
102
RTVSPropertyOp22
 70
     1
102
RTVSPropertyOp23
 70
     1
102
RTVSPropertyOp24
 70
     1
102
RTVSPropertyOp25
 70
     1
102
RTVSPropertyOp26
 70
     1
102
RTVSPropertyOp27
 70
     1
102
RTVSPropertyOp28
 70
     1
102
RTVSPropertyOp29
 70
     1
102
RTVSPropertyOp30
 70
     1
102
RTVSPropertyOp31
 70
     1
102
RTVSPropertyOp32
 70
     1
102
RTVSPropertyOp33
 70
     1
102
RTVSPropertyOp34
 70
     1
102
RTVSPropertyOp35
 70
     1
102
RTVSPropertyOp36
 70
     1
102
RTVSPropertyOp37
 70
     1
102
RTVSPropertyOp38
 70
     1
102
RTVSPropertyOp39
 70
     1
102
RTVSPropertyOp40
 70
     1
102
RTVSPropertyOp41
 70
     1
102
RTVSPropertyOp42
 70
     1
102
RTVSPropertyOp43
 70
     1
102
RTVSPropertyOp44
 70
     1
102
RTVSPropertyOp45
 70
     1
102
RTVSPropertyOp46
 70
     1
102
RTVSPropertyOp47
 70
     1
102
RTVSPropertyOp48
 70
     1
102
RTVSPropertyOp49
 70
     1
102
RTVSPropertyOp50
 70
     1
102
RTVSPropertyOp51
 70
     0
102
RTVSPropertyOp52
 70
     0
102
RTVSPropertyOp53
 70
     1
102
RTVSPropertyOp54
 70
     1
102
RTVSPropertyOp55
 70
     1
102
RTVSPropertyOp56
 70
     1
102
RTVSPropertyOp57
 70
     1
102
RTVSPost2010Prop28
280
     0
102
RTVSPost2010PropOp28
 70
     1
102
RTVSPost2010Prop29
280
     1
102
RTVSPost2010PropOp29
 70
     1
102
RTVSPost2010Prop30
280
     1
102
RTVSPost2010PropOp30
 70
     1
102
RTVSPost2010Prop31
280
     0
102
RTVSPost2010PropOp31
 70
     1
102
RTVSPost2010Prop32
280
     0
102
RTVSPost2010PropOp32
 70
     1
102
RTVSPost2010Prop33
280
     0
102
RTVSPost2010PropOp33
 70
     1
102
RTVSPost2010Prop34
280
     0
102
RTVSPost2010PropOp34
 70
     1
102
RTVSPost2010Prop35
280
     0
102
RTVSPost2010PropOp35
 70
     1
102
RTVSPost2010Prop36
280
     0
102
RTVSPost2010PropOp36
 70
     1
102
RTVSPost2010Prop37
 90
       50
102
RTVSPost2010PropOp37
 70
     1
102
RTVSPost2010Prop38
140
0.0
102
RTVSPost2010PropOp38
 70
     1
102
RTVSPost2010Prop39
140
1.0
102
RTVSPost2010PropOp39
 70
     1
102
RTVSPost2010Prop40
 90
        0
102
RTVSPost2010PropOp40
 70
     1
102
RTVSPost2010Prop41ColorIndex
 90
       18
102
RTVSPost2010Prop41ColorRGB
 90
        0
102
RTVSPost2010PropOp41
 70
     1
102
RTVSPost2010Prop42
 90
       50
102
RTVSPost2010PropOp42
 70
     1
102
RTVSPost2010Prop43
 90
        3
102
RTVSPost2010PropOp43
 70
     1
102
RTVSPost2010Prop44ColorIndex
 90
        5
102
RTVSPost2010Prop44ColorRGB
 90
      255
102
RTVSPost2010PropOp44
 70
     1
102
RTVSPost2010Prop45
280
     0
102
RTVSPost2010PropOp45
 70
     1
102
RTVSPost2010Prop46
 90
       50
102
RTVSPost2010PropOp46
 70
     1
102
RTVSPost2010Prop47
 90
       50
102
RTVSPost2010PropOp47
 70
     1
102
RTVSPost2010Prop48
 90
       50
102
RTVSPost2010PropOp48
 70
     1
102
RTVSPost2010Prop49
280
     0
102
RTVSPost2010PropOp49
 70
     1
102
RTVSPost2010Prop50
 90
       50
102
RTVSPost2010PropOp50
 70
     1
102
RTVSPost2010Prop51ColorIndex
 90
      256
102
RTVSPost2010Prop51ColorRGB
 90
-16777216
102
RTVSPost2010PropOp51
 70
     0
102
RTVSPost2010Prop52
140
1.0
102
RTVSPost2010PropOp52
 70
     0
102
RTVSPost2010Prop53
 90
        2
102
RTVSPost2010PropOp53
 70
     1
102
RTVSPost2010Prop54
  1
strokes_ogs.tif
102
RTVSPost2010PropOp54
 70
     1
102
RTVSPost2010Prop55
280
     0
102
RTVSPost2010PropOp55
 70
     1
102
RTVSPost2010Prop56
140
1.0
102
RTVSPost2010PropOp56
 70
     1
102
RTVSPost2010Prop57
140
1.0
102
RTVSPost2010PropOp57
 70
     1
  0
XRECORD
  5
358
102
{ACAD_REACTORS
330
357
102
}
330
357
100
AcDbXrecord
280
     1
102
RTVSPropertyOp0
 70
     1
102
RTVSPropertyOp1
 70
     1
102
RTVSPropertyOp2
 70
     1
102
RTVSPropertyOp3
 70
     1
102
RTVSPropertyOp4
 70
     1
102
RTVSPropertyOp5
 70
     1
102
RTVSPropertyOp6
 70
     1
102
RTVSPropertyOp7
 70
     1
102
RTVSPropertyOp8
 70
     1
102
RTVSPropertyOp9
 70
     1
102
RTVSPropertyOp10
 70
     1
102
RTVSPropertyOp11
 70
     1
102
RTVSPropertyOp12
 70
     1
102
RTVSPropertyOp13
 70
     1
102
RTVSPropertyOp14
 70
     1
102
RTVSPropertyOp15
 70
     1
102
RTVSPropertyOp16
 70
     1
102
RTVSPropertyOp17
 70
     1
102
RTVSPropertyOp18
 70
     1
102
RTVSPropertyOp19
 70
     1
102
RTVSPropertyOp20
 70
     1
102
RTVSPropertyOp21
 70
     1
102
RTVSPropertyOp22
 70
     1
102
RTVSPropertyOp23
 70
     1
102
RTVSPropertyOp24
 70
     1
102
RTVSPropertyOp25
 70
     1
102
RTVSPropertyOp26
 70
     1
102
RTVSPropertyOp27
 70
     1
102
RTVSPropertyOp28
 70
     1
102
RTVSPropertyOp29
 70
     1
102
RTVSPropertyOp30
 70
     1
102
RTVSPropertyOp31
 70
     1
102
RTVSPropertyOp32
 70
     1
102
RTVSPropertyOp33
 70
     1
102
RTVSPropertyOp34
 70
     1
102
RTVSPropertyOp35
 70
     1
102
RTVSPropertyOp36
 70
     1
102
RTVSPropertyOp37
 70
     1
102
RTVSPropertyOp38
 70
     1
102
RTVSPropertyOp39
 70
     1
102
RTVSPropertyOp40
 70
     1
102
RTVSPropertyOp41
 70
     1
102
RTVSPropertyOp42
 70
     1
102
RTVSPropertyOp43
 70
     1
102
RTVSPropertyOp44
 70
     1
102
RTVSPropertyOp45
 70
     1
102
RTVSPropertyOp46
 70
     1
102
RTVSPropertyOp47
 70
     1
102
RTVSPropertyOp48
 70
     1
102
RTVSPropertyOp49
 70
     1
102
RTVSPropertyOp50
 70
     1
102
RTVSPropertyOp51
 70
     0
102
RTVSPropertyOp52
 70
     0
102
RTVSPropertyOp53
 70
     1
102
RTVSPropertyOp54
 70
     1
102
RTVSPropertyOp55
 70
     1
102
RTVSPropertyOp56
 70
     1
102
RTVSPropertyOp57
 70
     1
102
RTVSPost2010Prop28
280
     0
102
RTVSPost2010PropOp28
 70
     1
102
RTVSPost2010Prop29
280
     1
102
RTVSPost2010PropOp29
 70
     1
102
RTVSPost2010Prop30
280
     1
102
RTVSPost2010PropOp30
 70
     1
102
RTVSPost2010Prop31
280
     0
102
RTVSPost2010PropOp31
 70
     1
102
RTVSPost2010Prop32
280
     0
102
RTVSPost2010PropOp32
 70
     1
102
RTVSPost2010Prop33
280
     0
102
RTVSPost2010PropOp33
 70
     1
102
RTVSPost2010Prop34
280
     0
102
RTVSPost2010PropOp34
 70
     1
102
RTVSPost2010Prop35
280
     0
102
RTVSPost2010PropOp35
 70
     1
102
RTVSPost2010Prop36
280
     0
102
RTVSPost2010PropOp36
 70
     1
102
RTVSPost2010Prop37
 90
       50
102
RTVSPost2010PropOp37
 70
     1
102
RTVSPost2010Prop38
140
0.0
102
RTVSPost2010PropOp38
 70
     1
102
RTVSPost2010Prop39
140
1.0
102
RTVSPost2010PropOp39
 70
     1
102
RTVSPost2010Prop40
 90
        0
102
RTVSPost2010PropOp40
 70
     1
102
RTVSPost2010Prop41ColorIndex
 90
       18
102
RTVSPost2010Prop41ColorRGB
 90
        0
102
RTVSPost2010PropOp41
 70
     1
102
RTVSPost2010Prop42
 90
       50
102
RTVSPost2010PropOp42
 70
     1
102
RTVSPost2010Prop43
 90
        3
102
RTVSPost2010PropOp43
 70
     1
102
RTVSPost2010Prop44ColorIndex
 90
        5
102
RTVSPost2010Prop44ColorRGB
 90
      255
102
RTVSPost2010PropOp44
 70
     1
102
RTVSPost2010Prop45
280
     0
102
RTVSPost2010PropOp45
 70
     1
102
RTVSPost2010Prop46
 90
       50
102
RTVSPost2010PropOp46
 70
     1
102
RTVSPost2010Prop47
 90
       50
102
RTVSPost2010PropOp47
 70
     1
102
RTVSPost2010Prop48
 90
       50
102
RTVSPost2010PropOp48
 70
     1
102
RTVSPost2010Prop49
280
     0
102
RTVSPost2010PropOp49
 70
     1
102
RTVSPost2010Prop50
 90
       50
102
RTVSPost2010PropOp50
 70
     1
102
RTVSPost2010Prop51ColorIndex
 90
      256
102
RTVSPost2010Prop51ColorRGB
 90
-16777216
102
RTVSPost2010PropOp51
 70
     0
102
RTVSPost2010Prop52
140
1.0
102
RTVSPost2010PropOp52
 70
     0
102
RTVSPost2010Prop53
 90
        2
102
RTVSPost2010PropOp53
 70
     1
102
RTVSPost2010Prop54
  1
strokes_ogs.tif
102
RTVSPost2010PropOp54
 70
     1
102
RTVSPost2010Prop55
280
     0
102
RTVSPost2010PropOp55
 70
     1
102
RTVSPost2010Prop56
140
1.0
102
RTVSPost2010PropOp56
 70
     1
102
RTVSPost2010Prop57
140
1.0
102
RTVSPost2010PropOp57
 70
     1
  0
XRECORD
  5
35A
102
{ACAD_REACTORS
330
359
102
}
330
359
100
AcDbXrecord
280
     1
102
RTVSPropertyOp0
 70
     1
102
RTVSPropertyOp1
 70
     1
102
RTVSPropertyOp2
 70
     1
102
RTVSPropertyOp3
 70
     1
102
RTVSPropertyOp4
 70
     1
102
RTVSPropertyOp5
 70
     1
102
RTVSPropertyOp6
 70
     1
102
RTVSPropertyOp7
 70
     1
102
RTVSPropertyOp8
 70
     1
102
RTVSPropertyOp9
 70
     1
102
RTVSPropertyOp10
 70
     1
102
RTVSPropertyOp11
 70
     1
102
RTVSPropertyOp12
 70
     1
102
RTVSPropertyOp13
 70
     1
102
RTVSPropertyOp14
 70
     1
102
RTVSPropertyOp15
 70
     1
102
RTVSPropertyOp16
 70
     1
102
RTVSPropertyOp17
 70
     1
102
RTVSPropertyOp18
 70
     1
102
RTVSPropertyOp19
 70
     1
102
RTVSPropertyOp20
 70
     1
102
RTVSPropertyOp21
 70
     1
102
RTVSPropertyOp22
 70
     1
102
RTVSPropertyOp23
 70
     1
102
RTVSPropertyOp24
 70
     1
102
RTVSPropertyOp25
 70
     1
102
RTVSPropertyOp26
 70
     1
102
RTVSPropertyOp27
 70
     1
102
RTVSPropertyOp28
 70
     1
102
RTVSPropertyOp29
 70
     1
102
RTVSPropertyOp30
 70
     1
102
RTVSPropertyOp31
 70
     1
102
RTVSPropertyOp32
 70
     1
102
RTVSPropertyOp33
 70
     1
102
RTVSPropertyOp34
 70
     1
102
RTVSPropertyOp35
 70
     1
102
RTVSPropertyOp36
 70
     1
102
RTVSPropertyOp37
 70
     1
102
RTVSPropertyOp38
 70
     1
102
RTVSPropertyOp39
 70
     1
102
RTVSPropertyOp40
 70
     1
102
RTVSPropertyOp41
 70
     1
102
RTVSPropertyOp42
 70
     1
102
RTVSPropertyOp43
 70
     1
102
RTVSPropertyOp44
 70
     1
102
RTVSPropertyOp45
 70
     1
102
RTVSPropertyOp46
 70
     1
102
RTVSPropertyOp47
 70
     1
102
RTVSPropertyOp48
 70
     1
102
RTVSPropertyOp49
 70
     1
102
RTVSPropertyOp50
 70
     1
102
RTVSPropertyOp51
 70
     0
102
RTVSPropertyOp52
 70
     0
102
RTVSPropertyOp53
 70
     1
102
RTVSPropertyOp54
 70
     1
102
RTVSPropertyOp55
 70
     1
102
RTVSPropertyOp56
 70
     1
102
RTVSPropertyOp57
 70
     1
102
RTVSPost2010Prop28
280
     0
102
RTVSPost2010PropOp28
 70
     1
102
RTVSPost2010Prop29
280
     1
102
RTVSPost2010PropOp29
 70
     1
102
RTVSPost2010Prop30
280
     1
102
RTVSPost2010PropOp30
 70
     1
102
RTVSPost2010Prop31
280
     0
102
RTVSPost2010PropOp31
 70
     1
102
RTVSPost2010Prop32
280
     0
102
RTVSPost2010PropOp32
 70
     1
102
RTVSPost2010Prop33
280
     0
102
RTVSPost2010PropOp33
 70
     1
102
RTVSPost2010Prop34
280
     0
102
RTVSPost2010PropOp34
 70
     1
102
RTVSPost2010Prop35
280
     0
102
RTVSPost2010PropOp35
 70
     1
102
RTVSPost2010Prop36
280
     0
102
RTVSPost2010PropOp36
 70
     1
102
RTVSPost2010Prop37
 90
       50
102
RTVSPost2010PropOp37
 70
     1
102
RTVSPost2010Prop38
140
0.0
102
RTVSPost2010PropOp38
 70
     1
102
RTVSPost2010Prop39
140
1.0
102
RTVSPost2010PropOp39
 70
     1
102
RTVSPost2010Prop40
 90
        0
102
RTVSPost2010PropOp40
 70
     1
102
RTVSPost2010Prop41ColorIndex
 90
       18
102
RTVSPost2010Prop41ColorRGB
 90
        0
102
RTVSPost2010PropOp41
 70
     1
102
RTVSPost2010Prop42
 90
       50
102
RTVSPost2010PropOp42
 70
     1
102
RTVSPost2010Prop43
 90
        3
102
RTVSPost2010PropOp43
 70
     1
102
RTVSPost2010Prop44ColorIndex
 90
        5
102
RTVSPost2010Prop44ColorRGB
 90
      255
102
RTVSPost2010PropOp44
 70
     1
102
RTVSPost2010Prop45
280
     0
102
RTVSPost2010PropOp45
 70
     1
102
RTVSPost2010Prop46
 90
       50
102
RTVSPost2010PropOp46
 70
     1
102
RTVSPost2010Prop47
 90
       50
102
RTVSPost2010PropOp47
 70
     1
102
RTVSPost2010Prop48
 90
       50
102
RTVSPost2010PropOp48
 70
     1
102
RTVSPost2010Prop49
280
     0
102
RTVSPost2010PropOp49
 70
     1
102
RTVSPost2010Prop50
 90
       50
102
RTVSPost2010PropOp50
 70
     1
102
RTVSPost2010Prop51ColorIndex
 90
      256
102
RTVSPost2010Prop51ColorRGB
 90
-16777216
102
RTVSPost2010PropOp51
 70
     0
102
RTVSPost2010Prop52
140
1.0
102
RTVSPost2010PropOp52
 70
     0
102
RTVSPost2010Prop53
 90
        2
102
RTVSPost2010PropOp53
 70
     1
102
RTVSPost2010Prop54
  1
strokes_ogs.tif
102
RTVSPost2010PropOp54
 70
     1
102
RTVSPost2010Prop55
280
     0
102
RTVSPost2010PropOp55
 70
     1
102
RTVSPost2010Prop56
140
1.0
102
RTVSPost2010PropOp56
 70
     1
102
RTVSPost2010Prop57
140
1.0
102
RTVSPost2010PropOp57
 70
     1
  0
XRECORD
  5
36A
102
{ACAD_REACTORS
330
369
102
}
330
369
100
AcDbXrecord
280
     1
102
RTVSPropertyOp0
 70
     0
102
RTVSPropertyOp1
 70
     0
102
RTVSPropertyOp2
 70
     0
102
RTVSPropertyOp3
 70
     0
102
RTVSPropertyOp4
 70
     0
102
RTVSPropertyOp5
 70
     0
102
RTVSPropertyOp6
 70
     0
102
RTVSPropertyOp7
 70
     0
102
RTVSPropertyOp8
 70
     0
102
RTVSPropertyOp9
 70
     0
102
RTVSPropertyOp10
 70
     0
102
RTVSPropertyOp11
 70
     0
102
RTVSPropertyOp12
 70
     0
102
RTVSPropertyOp13
 70
     0
102
RTVSPropertyOp14
 70
     2
102
RTVSPropertyOp15
 70
     0
102
RTVSPropertyOp16
 70
     0
102
RTVSPropertyOp17
 70
     0
102
RTVSPropertyOp18
 70
     0
102
RTVSPropertyOp19
 70
     0
102
RTVSPropertyOp20
 70
     0
102
RTVSPropertyOp21
 70
     0
102
RTVSPropertyOp22
 70
     0
102
RTVSPropertyOp23
 70
     0
102
RTVSPropertyOp24
 70
     0
102
RTVSPropertyOp25
 70
     0
102
RTVSPropertyOp26
 70
     0
102
RTVSPropertyOp27
 70
     0
102
RTVSPropertyOp28
 70
     0
102
RTVSPropertyOp29
 70
     0
102
RTVSPropertyOp30
 70
     0
102
RTVSPropertyOp31
 70
     0
102
RTVSPropertyOp32
 70
     0
102
RTVSPropertyOp33
 70
     0
102
RTVSPropertyOp34
 70
     0
102
RTVSPropertyOp35
 70
     0
102
RTVSPropertyOp36
 70
     0
102
RTVSPropertyOp37
 70
     0
102
RTVSPropertyOp38
 70
     0
102
RTVSPropertyOp39
 70
     0
102
RTVSPropertyOp40
 70
     0
102
RTVSPropertyOp41
 70
     0
102
RTVSPropertyOp42
 70
     0
102
RTVSPropertyOp43
 70
     0
102
RTVSPropertyOp44
 70
     0
102
RTVSPropertyOp45
 70
     0
102
RTVSPropertyOp46
 70
     0
102
RTVSPropertyOp47
 70
     0
102
RTVSPropertyOp48
 70
     0
102
RTVSPropertyOp49
 70
     0
102
RTVSPropertyOp50
 70
     0
102
RTVSPropertyOp51
 70
     0
102
RTVSPropertyOp52
 70
     0
102
RTVSPropertyOp53
 70
     0
102
RTVSPropertyOp54
 70
     0
102
RTVSPropertyOp55
 70
     0
102
RTVSPropertyOp56
 70
     0
102
RTVSPropertyOp57
 70
     0
102
RTVSPost2010Prop28
280
     0
102
RTVSPost2010PropOp28
 70
     0
102
RTVSPost2010Prop29
280
     1
102
RTVSPost2010PropOp29
 70
     0
102
RTVSPost2010Prop30
280
     1
102
RTVSPost2010PropOp30
 70
     0
102
RTVSPost2010Prop31
280
     0
102
RTVSPost2010PropOp31
 70
     0
102
RTVSPost2010Prop32
280
     0
102
RTVSPost2010PropOp32
 70
     0
102
RTVSPost2010Prop33
280
     0
102
RTVSPost2010PropOp33
 70
     0
102
RTVSPost2010Prop34
280
     0
102
RTVSPost2010PropOp34
 70
     0
102
RTVSPost2010Prop35
280
     0
102
RTVSPost2010PropOp35
 70
     0
102
RTVSPost2010Prop36
280
     0
102
RTVSPost2010PropOp36
 70
     0
102
RTVSPost2010Prop37
 90
       50
102
RTVSPost2010PropOp37
 70
     0
102
RTVSPost2010Prop38
140
0.0
102
RTVSPost2010PropOp38
 70
     0
102
RTVSPost2010Prop39
140
1.0
102
RTVSPost2010PropOp39
 70
     0
102
RTVSPost2010Prop40
 90
        0
102
RTVSPost2010PropOp40
 70
     0
102
RTVSPost2010Prop41ColorIndex
 90
       18
102
RTVSPost2010Prop41ColorRGB
 90
        0
102
RTVSPost2010PropOp41
 70
     0
102
RTVSPost2010Prop42
 90
       50
102
RTVSPost2010PropOp42
 70
     0
102
RTVSPost2010Prop43
 90
        3
102
RTVSPost2010PropOp43
 70
     0
102
RTVSPost2010Prop44ColorIndex
 90
        5
102
RTVSPost2010Prop44ColorRGB
 90
      255
102
RTVSPost2010PropOp44
 70
     0
102
RTVSPost2010Prop45
280
     0
102
RTVSPost2010PropOp45
 70
     0
102
RTVSPost2010Prop46
 90
       50
102
RTVSPost2010PropOp46
 70
     0
102
RTVSPost2010Prop47
 90
       50
102
RTVSPost2010PropOp47
 70
     0
102
RTVSPost2010Prop48
 90
       50
102
RTVSPost2010PropOp48
 70
     0
102
RTVSPost2010Prop49
280
     0
102
RTVSPost2010PropOp49
 70
     0
102
RTVSPost2010Prop50
 90
       50
102
RTVSPost2010PropOp50
 70
     0
102
RTVSPost2010Prop51ColorIndex
 90
      256
102
RTVSPost2010Prop51ColorRGB
 90
-16777216
102
RTVSPost2010PropOp51
 70
     0
102
RTVSPost2010Prop52
140
1.0
102
RTVSPost2010PropOp52
 70
     0
102
RTVSPost2010Prop53
 90
        2
102
RTVSPost2010PropOp53
 70
     0
102
RTVSPost2010Prop54
  1
strokes_ogs.tif
102
RTVSPost2010PropOp54
 70
     0
102
RTVSPost2010Prop55
280
     0
102
RTVSPost2010PropOp55
 70
     0
102
RTVSPost2010Prop56
140
1.0
102
RTVSPost2010PropOp56
 70
     0
102
RTVSPost2010Prop57
140
1.0
102
RTVSPost2010PropOp57
 70
     0
  0
XRECORD
  5
362
102
{ACAD_REACTORS
330
361
102
}
330
361
100
AcDbXrecord
280
     1
102
RTVSPropertyOp0
 70
     1
102
RTVSPropertyOp1
 70
     1
102
RTVSPropertyOp2
 70
     1
102
RTVSPropertyOp3
 70
     1
102
RTVSPropertyOp4
 70
     1
102
RTVSPropertyOp5
 70
     1
102
RTVSPropertyOp6
 70
     1
102
RTVSPropertyOp7
 70
     1
102
RTVSPropertyOp8
 70
     1
102
RTVSPropertyOp9
 70
     1
102
RTVSPropertyOp10
 70
     1
102
RTVSPropertyOp11
 70
     1
102
RTVSPropertyOp12
 70
     1
102
RTVSPropertyOp13
 70
     1
102
RTVSPropertyOp14
 70
     1
102
RTVSPropertyOp15
 70
     1
102
RTVSPropertyOp16
 70
     1
102
RTVSPropertyOp17
 70
     1
102
RTVSPropertyOp18
 70
     1
102
RTVSPropertyOp19
 70
     1
102
RTVSPropertyOp20
 70
     1
102
RTVSPropertyOp21
 70
     1
102
RTVSPropertyOp22
 70
     1
102
RTVSPropertyOp23
 70
     1
102
RTVSPropertyOp24
 70
     1
102
RTVSPropertyOp25
 70
     1
102
RTVSPropertyOp26
 70
     1
102
RTVSPropertyOp27
 70
     1
102
RTVSPropertyOp28
 70
     1
102
RTVSPropertyOp29
 70
     1
102
RTVSPropertyOp30
 70
     1
102
RTVSPropertyOp31
 70
     1
102
RTVSPropertyOp32
 70
     1
102
RTVSPropertyOp33
 70
     1
102
RTVSPropertyOp34
 70
     1
102
RTVSPropertyOp35
 70
     1
102
RTVSPropertyOp36
 70
     1
102
RTVSPropertyOp37
 70
     1
102
RTVSPropertyOp38
 70
     1
102
RTVSPropertyOp39
 70
     1
102
RTVSPropertyOp40
 70
     1
102
RTVSPropertyOp41
 70
     1
102
RTVSPropertyOp42
 70
     1
102
RTVSPropertyOp43
 70
     1
102
RTVSPropertyOp44
 70
     1
102
RTVSPropertyOp45
 70
     1
102
RTVSPropertyOp46
 70
     1
102
RTVSPropertyOp47
 70
     1
102
RTVSPropertyOp48
 70
     1
102
RTVSPropertyOp49
 70
     1
102
RTVSPropertyOp50
 70
     1
102
RTVSPropertyOp51
 70
     0
102
RTVSPropertyOp52
 70
     0
102
RTVSPropertyOp53
 70
     1
102
RTVSPropertyOp54
 70
     1
102
RTVSPropertyOp55
 70
     1
102
RTVSPropertyOp56
 70
     1
102
RTVSPropertyOp57
 70
     1
102
RTVSPost2010Prop28
280
     0
102
RTVSPost2010PropOp28
 70
     1
102
RTVSPost2010Prop29
280
     1
102
RTVSPost2010PropOp29
 70
     1
102
RTVSPost2010Prop30
280
     1
102
RTVSPost2010PropOp30
 70
     1
102
RTVSPost2010Prop31
280
     0
102
RTVSPost2010PropOp31
 70
     1
102
RTVSPost2010Prop32
280
     0
102
RTVSPost2010PropOp32
 70
     1
102
RTVSPost2010Prop33
280
     0
102
RTVSPost2010PropOp33
 70
     1
102
RTVSPost2010Prop34
280
     0
102
RTVSPost2010PropOp34
 70
     1
102
RTVSPost2010Prop35
280
     0
102
RTVSPost2010PropOp35
 70
     1
102
RTVSPost2010Prop36
280
     0
102
RTVSPost2010PropOp36
 70
     1
102
RTVSPost2010Prop37
 90
       50
102
RTVSPost2010PropOp37
 70
     1
102
RTVSPost2010Prop38
140
0.0
102
RTVSPost2010PropOp38
 70
     1
102
RTVSPost2010Prop39
140
1.0
102
RTVSPost2010PropOp39
 70
     1
102
RTVSPost2010Prop40
 90
        0
102
RTVSPost2010PropOp40
 70
     1
102
RTVSPost2010Prop41ColorIndex
 90
       18
102
RTVSPost2010Prop41ColorRGB
 90
        0
102
RTVSPost2010PropOp41
 70
     1
102
RTVSPost2010Prop42
 90
       50
102
RTVSPost2010PropOp42
 70
     1
102
RTVSPost2010Prop43
 90
        3
102
RTVSPost2010PropOp43
 70
     1
102
RTVSPost2010Prop44ColorIndex
 90
        5
102
RTVSPost2010Prop44ColorRGB
 90
      255
102
RTVSPost2010PropOp44
 70
     1
102
RTVSPost2010Prop45
280
     0
102
RTVSPost2010PropOp45
 70
     1
102
RTVSPost2010Prop46
 90
       50
102
RTVSPost2010PropOp46
 70
     1
102
RTVSPost2010Prop47
 90
       50
102
RTVSPost2010PropOp47
 70
     1
102
RTVSPost2010Prop48
 90
       50
102
RTVSPost2010PropOp48
 70
     1
102
RTVSPost2010Prop49
280
     0
102
RTVSPost2010PropOp49
 70
     1
102
RTVSPost2010Prop50
 90
       50
102
RTVSPost2010PropOp50
 70
     1
102
RTVSPost2010Prop51ColorIndex
 90
      256
102
RTVSPost2010Prop51ColorRGB
 90
-16777216
102
RTVSPost2010PropOp51
 70
     0
102
RTVSPost2010Prop52
140
1.0
102
RTVSPost2010PropOp52
 70
     0
102
RTVSPost2010Prop53
 90
        2
102
RTVSPost2010PropOp53
 70
     1
102
RTVSPost2010Prop54
  1
strokes_ogs.tif
102
RTVSPost2010PropOp54
 70
     1
102
RTVSPost2010Prop55
280
     0
102
RTVSPost2010PropOp55
 70
     1
102
RTVSPost2010Prop56
140
1.0
102
RTVSPost2010PropOp56
 70
     1
102
RTVSPost2010Prop57
140
1.0
102
RTVSPost2010PropOp57
 70
     1
  0
XRECORD
  5
346
102
{ACAD_REACTORS
330
345
102
}
330
345
100
AcDbXrecord
280
     1
102
RTVSPropertyOp0
 70
     1
102
RTVSPropertyOp1
 70
     1
102
RTVSPropertyOp2
 70
     1
102
RTVSPropertyOp3
 70
     1
102
RTVSPropertyOp4
 70
     1
102
RTVSPropertyOp5
 70
     1
102
RTVSPropertyOp6
 70
     1
102
RTVSPropertyOp7
 70
     1
102
RTVSPropertyOp8
 70
     1
102
RTVSPropertyOp9
 70
     1
102
RTVSPropertyOp10
 70
     1
102
RTVSPropertyOp11
 70
     1
102
RTVSPropertyOp12
 70
     1
102
RTVSPropertyOp13
 70
     1
102
RTVSPropertyOp14
 70
     1
102
RTVSPropertyOp15
 70
     1
102
RTVSPropertyOp16
 70
     1
102
RTVSPropertyOp17
 70
     1
102
RTVSPropertyOp18
 70
     1
102
RTVSPropertyOp19
 70
     1
102
RTVSPropertyOp20
 70
     1
102
RTVSPropertyOp21
 70
     1
102
RTVSPropertyOp22
 70
     1
102
RTVSPropertyOp23
 70
     1
102
RTVSPropertyOp24
 70
     1
102
RTVSPropertyOp25
 70
     1
102
RTVSPropertyOp26
 70
     1
102
RTVSPropertyOp27
 70
     1
102
RTVSPropertyOp28
 70
     1
102
RTVSPropertyOp29
 70
     1
102
RTVSPropertyOp30
 70
     1
102
RTVSPropertyOp31
 70
     1
102
RTVSPropertyOp32
 70
     1
102
RTVSPropertyOp33
 70
     1
102
RTVSPropertyOp34
 70
     1
102
RTVSPropertyOp35
 70
     1
102
RTVSPropertyOp36
 70
     1
102
RTVSPropertyOp37
 70
     1
102
RTVSPropertyOp38
 70
     1
102
RTVSPropertyOp39
 70
     1
102
RTVSPropertyOp40
 70
     1
102
RTVSPropertyOp41
 70
     1
102
RTVSPropertyOp42
 70
     1
102
RTVSPropertyOp43
 70
     1
102
RTVSPropertyOp44
 70
     1
102
RTVSPropertyOp45
 70
     1
102
RTVSPropertyOp46
 70
     1
102
RTVSPropertyOp47
 70
     1
102
RTVSPropertyOp48
 70
     1
102
RTVSPropertyOp49
 70
     1
102
RTVSPropertyOp50
 70
     1
102
RTVSPropertyOp51
 70
     0
102
RTVSPropertyOp52
 70
     0
102
RTVSPropertyOp53
 70
     1
102
RTVSPropertyOp54
 70
     1
102
RTVSPropertyOp55
 70
     1
102
RTVSPropertyOp56
 70
     1
102
RTVSPropertyOp57
 70
     1
102
RTVSPost2010Prop28
280
     0
102
RTVSPost2010PropOp28
 70
     1
102
RTVSPost2010Prop29
280
     1
102
RTVSPost2010PropOp29
 70
     1
102
RTVSPost2010Prop30
280
     1
102
RTVSPost2010PropOp30
 70
     1
102
RTVSPost2010Prop31
280
     0
102
RTVSPost2010PropOp31
 70
     1
102
RTVSPost2010Prop32
280
     0
102
RTVSPost2010PropOp32
 70
     1
102
RTVSPost2010Prop33
280
     0
102
RTVSPost2010PropOp33
 70
     1
102
RTVSPost2010Prop34
280
     0
102
RTVSPost2010PropOp34
 70
     1
102
RTVSPost2010Prop35
280
     0
102
RTVSPost2010PropOp35
 70
     1
102
RTVSPost2010Prop36
280
     0
102
RTVSPost2010PropOp36
 70
     1
102
RTVSPost2010Prop37
 90
       50
102
RTVSPost2010PropOp37
 70
     1
102
RTVSPost2010Prop38
140
0.0
102
RTVSPost2010PropOp38
 70
     1
102
RTVSPost2010Prop39
140
1.0
102
RTVSPost2010PropOp39
 70
     1
102
RTVSPost2010Prop40
 90
        0
102
RTVSPost2010PropOp40
 70
     1
102
RTVSPost2010Prop41ColorIndex
 90
       18
102
RTVSPost2010Prop41ColorRGB
 90
        0
102
RTVSPost2010PropOp41
 70
     1
102
RTVSPost2010Prop42
 90
       50
102
RTVSPost2010PropOp42
 70
     1
102
RTVSPost2010Prop43
 90
        3
102
RTVSPost2010PropOp43
 70
     1
102
RTVSPost2010Prop44ColorIndex
 90
        5
102
RTVSPost2010Prop44ColorRGB
 90
      255
102
RTVSPost2010PropOp44
 70
     1
102
RTVSPost2010Prop45
280
     0
102
RTVSPost2010PropOp45
 70
     1
102
RTVSPost2010Prop46
 90
       50
102
RTVSPost2010PropOp46
 70
     1
102
RTVSPost2010Prop47
 90
       50
102
RTVSPost2010PropOp47
 70
     1
102
RTVSPost2010Prop48
 90
       50
102
RTVSPost2010PropOp48
 70
     1
102
RTVSPost2010Prop49
280
     0
102
RTVSPost2010PropOp49
 70
     1
102
RTVSPost2010Prop50
 90
       50
102
RTVSPost2010PropOp50
 70
     1
102
RTVSPost2010Prop51ColorIndex
 90
      256
102
RTVSPost2010Prop51ColorRGB
 90
-16777216
102
RTVSPost2010PropOp51
 70
     0
102
RTVSPost2010Prop52
140
1.0
102
RTVSPost2010PropOp52
 70
     0
102
RTVSPost2010Prop53
 90
        2
102
RTVSPost2010PropOp53
 70
     1
102
RTVSPost2010Prop54
  1
strokes_ogs.tif
102
RTVSPost2010PropOp54
 70
     1
102
RTVSPost2010Prop55
280
     0
102
RTVSPost2010PropOp55
 70
     1
102
RTVSPost2010Prop56
140
1.0
102
RTVSPost2010PropOp56
 70
     1
102
RTVSPost2010Prop57
140
1.0
102
RTVSPost2010PropOp57
 70
     1
  0
XRECORD
  5
348
102
{ACAD_REACTORS
330
347
102
}
330
347
100
AcDbXrecord
280
     1
102
RTVSPropertyOp0
 70
     1
102
RTVSPropertyOp1
 70
     1
102
RTVSPropertyOp2
 70
     1
102
RTVSPropertyOp3
 70
     1
102
RTVSPropertyOp4
 70
     1
102
RTVSPropertyOp5
 70
     1
102
RTVSPropertyOp6
 70
     1
102
RTVSPropertyOp7
 70
     1
102
RTVSPropertyOp8
 70
     1
102
RTVSPropertyOp9
 70
     1
102
RTVSPropertyOp10
 70
     1
102
RTVSPropertyOp11
 70
     1
102
RTVSPropertyOp12
 70
     1
102
RTVSPropertyOp13
 70
     1
102
RTVSPropertyOp14
 70
     1
102
RTVSPropertyOp15
 70
     1
102
RTVSPropertyOp16
 70
     1
102
RTVSPropertyOp17
 70
     1
102
RTVSPropertyOp18
 70
     1
102
RTVSPropertyOp19
 70
     1
102
RTVSPropertyOp20
 70
     1
102
RTVSPropertyOp21
 70
     1
102
RTVSPropertyOp22
 70
     1
102
RTVSPropertyOp23
 70
     1
102
RTVSPropertyOp24
 70
     1
102
RTVSPropertyOp25
 70
     1
102
RTVSPropertyOp26
 70
     1
102
RTVSPropertyOp27
 70
     1
102
RTVSPropertyOp28
 70
     1
102
RTVSPropertyOp29
 70
     1
102
RTVSPropertyOp30
 70
     1
102
RTVSPropertyOp31
 70
     1
102
RTVSPropertyOp32
 70
     1
102
RTVSPropertyOp33
 70
     1
102
RTVSPropertyOp34
 70
     1
102
RTVSPropertyOp35
 70
     1
102
RTVSPropertyOp36
 70
     1
102
RTVSPropertyOp37
 70
     1
102
RTVSPropertyOp38
 70
     1
102
RTVSPropertyOp39
 70
     1
102
RTVSPropertyOp40
 70
     1
102
RTVSPropertyOp41
 70
     1
102
RTVSPropertyOp42
 70
     1
102
RTVSPropertyOp43
 70
     1
102
RTVSPropertyOp44
 70
     1
102
RTVSPropertyOp45
 70
     1
102
RTVSPropertyOp46
 70
     1
102
RTVSPropertyOp47
 70
     1
102
RTVSPropertyOp48
 70
     1
102
RTVSPropertyOp49
 70
     1
102
RTVSPropertyOp50
 70
     1
102
RTVSPropertyOp51
 70
     0
102
RTVSPropertyOp52
 70
     0
102
RTVSPropertyOp53
 70
     1
102
RTVSPropertyOp54
 70
     1
102
RTVSPropertyOp55
 70
     1
102
RTVSPropertyOp56
 70
     1
102
RTVSPropertyOp57
 70
     1
102
RTVSPost2010Prop28
280
     0
102
RTVSPost2010PropOp28
 70
     1
102
RTVSPost2010Prop29
280
     1
102
RTVSPost2010PropOp29
 70
     1
102
RTVSPost2010Prop30
280
     1
102
RTVSPost2010PropOp30
 70
     1
102
RTVSPost2010Prop31
280
     0
102
RTVSPost2010PropOp31
 70
     1
102
RTVSPost2010Prop32
280
     0
102
RTVSPost2010PropOp32
 70
     1
102
RTVSPost2010Prop33
280
     0
102
RTVSPost2010PropOp33
 70
     1
102
RTVSPost2010Prop34
280
     0
102
RTVSPost2010PropOp34
 70
     1
102
RTVSPost2010Prop35
280
     0
102
RTVSPost2010PropOp35
 70
     1
102
RTVSPost2010Prop36
280
     0
102
RTVSPost2010PropOp36
 70
     1
102
RTVSPost2010Prop37
 90
       50
102
RTVSPost2010PropOp37
 70
     1
102
RTVSPost2010Prop38
140
0.0
102
RTVSPost2010PropOp38
 70
     1
102
RTVSPost2010Prop39
140
1.0
102
RTVSPost2010PropOp39
 70
     1
102
RTVSPost2010Prop40
 90
        0
102
RTVSPost2010PropOp40
 70
     1
102
RTVSPost2010Prop41ColorIndex
 90
       18
102
RTVSPost2010Prop41ColorRGB
 90
        0
102
RTVSPost2010PropOp41
 70
     1
102
RTVSPost2010Prop42
 90
       50
102
RTVSPost2010PropOp42
 70
     1
102
RTVSPost2010Prop43
 90
        3
102
RTVSPost2010PropOp43
 70
     1
102
RTVSPost2010Prop44ColorIndex
 90
        5
102
RTVSPost2010Prop44ColorRGB
 90
      255
102
RTVSPost2010PropOp44
 70
     1
102
RTVSPost2010Prop45
280
     0
102
RTVSPost2010PropOp45
 70
     1
102
RTVSPost2010Prop46
 90
       50
102
RTVSPost2010PropOp46
 70
     1
102
RTVSPost2010Prop47
 90
       50
102
RTVSPost2010PropOp47
 70
     1
102
RTVSPost2010Prop48
 90
       50
102
RTVSPost2010PropOp48
 70
     1
102
RTVSPost2010Prop49
280
     0
102
RTVSPost2010PropOp49
 70
     1
102
RTVSPost2010Prop50
 90
       50
102
RTVSPost2010PropOp50
 70
     1
102
RTVSPost2010Prop51ColorIndex
 90
      256
102
RTVSPost2010Prop51ColorRGB
 90
-16777216
102
RTVSPost2010PropOp51
 70
     0
102
RTVSPost2010Prop52
140
1.0
102
RTVSPost2010PropOp52
 70
     0
102
RTVSPost2010Prop53
 90
        2
102
RTVSPost2010PropOp53
 70
     1
102
RTVSPost2010Prop54
  1
strokes_ogs.tif
102
RTVSPost2010PropOp54
 70
     1
102
RTVSPost2010Prop55
280
     0
102
RTVSPost2010PropOp55
 70
     1
102
RTVSPost2010Prop56
140
1.0
102
RTVSPost2010PropOp56
 70
     1
102
RTVSPost2010Prop57
140
1.0
102
RTVSPost2010PropOp57
 70
     1
  0
XRECORD
  5
34A
102
{ACAD_REACTORS
330
349
102
}
330
349
100
AcDbXrecord
280
     1
102
RTVSPropertyOp0
 70
     1
102
RTVSPropertyOp1
 70
     1
102
RTVSPropertyOp2
 70
     1
102
RTVSPropertyOp3
 70
     1
102
RTVSPropertyOp4
 70
     1
102
RTVSPropertyOp5
 70
     1
102
RTVSPropertyOp6
 70
     1
102
RTVSPropertyOp7
 70
     1
102
RTVSPropertyOp8
 70
     1
102
RTVSPropertyOp9
 70
     1
102
RTVSPropertyOp10
 70
     1
102
RTVSPropertyOp11
 70
     1
102
RTVSPropertyOp12
 70
     1
102
RTVSPropertyOp13
 70
     1
102
RTVSPropertyOp14
 70
     1
102
RTVSPropertyOp15
 70
     1
102
RTVSPropertyOp16
 70
     1
102
RTVSPropertyOp17
 70
     1
102
RTVSPropertyOp18
 70
     1
102
RTVSPropertyOp19
 70
     1
102
RTVSPropertyOp20
 70
     1
102
RTVSPropertyOp21
 70
     1
102
RTVSPropertyOp22
 70
     1
102
RTVSPropertyOp23
 70
     1
102
RTVSPropertyOp24
 70
     1
102
RTVSPropertyOp25
 70
     1
102
RTVSPropertyOp26
 70
     1
102
RTVSPropertyOp27
 70
     1
102
RTVSPropertyOp28
 70
     1
102
RTVSPropertyOp29
 70
     1
102
RTVSPropertyOp30
 70
     1
102
RTVSPropertyOp31
 70
     1
102
RTVSPropertyOp32
 70
     1
102
RTVSPropertyOp33
 70
     1
102
RTVSPropertyOp34
 70
     1
102
RTVSPropertyOp35
 70
     1
102
RTVSPropertyOp36
 70
     1
102
RTVSPropertyOp37
 70
     1
102
RTVSPropertyOp38
 70
     1
102
RTVSPropertyOp39
 70
     1
102
RTVSPropertyOp40
 70
     1
102
RTVSPropertyOp41
 70
     1
102
RTVSPropertyOp42
 70
     1
102
RTVSPropertyOp43
 70
     1
102
RTVSPropertyOp44
 70
     1
102
RTVSPropertyOp45
 70
     1
102
RTVSPropertyOp46
 70
     1
102
RTVSPropertyOp47
 70
     1
102
RTVSPropertyOp48
 70
     1
102
RTVSPropertyOp49
 70
     1
102
RTVSPropertyOp50
 70
     1
102
RTVSPropertyOp51
 70
     0
102
RTVSPropertyOp52
 70
     0
102
RTVSPropertyOp53
 70
     1
102
RTVSPropertyOp54
 70
     1
102
RTVSPropertyOp55
 70
     1
102
RTVSPropertyOp56
 70
     1
102
RTVSPropertyOp57
 70
     1
102
RTVSPost2010Prop28
280
     0
102
RTVSPost2010PropOp28
 70
     1
102
RTVSPost2010Prop29
280
     1
102
RTVSPost2010PropOp29
 70
     1
102
RTVSPost2010Prop30
280
     1
102
RTVSPost2010PropOp30
 70
     1
102
RTVSPost2010Prop31
280
     0
102
RTVSPost2010PropOp31
 70
     1
102
RTVSPost2010Prop32
280
     0
102
RTVSPost2010PropOp32
 70
     1
102
RTVSPost2010Prop33
280
     0
102
RTVSPost2010PropOp33
 70
     1
102
RTVSPost2010Prop34
280
     0
102
RTVSPost2010PropOp34
 70
     1
102
RTVSPost2010Prop35
280
     0
102
RTVSPost2010PropOp35
 70
     1
102
RTVSPost2010Prop36
280
     0
102
RTVSPost2010PropOp36
 70
     1
102
RTVSPost2010Prop37
 90
       50
102
RTVSPost2010PropOp37
 70
     1
102
RTVSPost2010Prop38
140
0.0
102
RTVSPost2010PropOp38
 70
     1
102
RTVSPost2010Prop39
140
1.0
102
RTVSPost2010PropOp39
 70
     1
102
RTVSPost2010Prop40
 90
        0
102
RTVSPost2010PropOp40
 70
     1
102
RTVSPost2010Prop41ColorIndex
 90
       18
102
RTVSPost2010Prop41ColorRGB
 90
        0
102
RTVSPost2010PropOp41
 70
     1
102
RTVSPost2010Prop42
 90
       50
102
RTVSPost2010PropOp42
 70
     1
102
RTVSPost2010Prop43
 90
        3
102
RTVSPost2010PropOp43
 70
     1
102
RTVSPost2010Prop44ColorIndex
 90
        5
102
RTVSPost2010Prop44ColorRGB
 90
      255
102
RTVSPost2010PropOp44
 70
     1
102
RTVSPost2010Prop45
280
     0
102
RTVSPost2010PropOp45
 70
     1
102
RTVSPost2010Prop46
 90
       50
102
RTVSPost2010PropOp46
 70
     1
102
RTVSPost2010Prop47
 90
       50
102
RTVSPost2010PropOp47
 70
     1
102
RTVSPost2010Prop48
 90
       50
102
RTVSPost2010PropOp48
 70
     1
102
RTVSPost2010Prop49
280
     0
102
RTVSPost2010PropOp49
 70
     1
102
RTVSPost2010Prop50
 90
       50
102
RTVSPost2010PropOp50
 70
     1
102
RTVSPost2010Prop51ColorIndex
 90
      256
102
RTVSPost2010Prop51ColorRGB
 90
-16777216
102
RTVSPost2010PropOp51
 70
     0
102
RTVSPost2010Prop52
140
1.0
102
RTVSPost2010PropOp52
 70
     0
102
RTVSPost2010Prop53
 90
        2
102
RTVSPost2010PropOp53
 70
     1
102
RTVSPost2010Prop54
  1
strokes_ogs.tif
102
RTVSPost2010PropOp54
 70
     1
102
RTVSPost2010Prop55
280
     0
102
RTVSPost2010PropOp55
 70
     1
102
RTVSPost2010Prop56
140
1.0
102
RTVSPost2010PropOp56
 70
     1
102
RTVSPost2010Prop57
140
1.0
102
RTVSPost2010PropOp57
 70
     1
  0
XRECORD
  5
34C
102
{ACAD_REACTORS
330
34B
102
}
330
34B
100
AcDbXrecord
280
     1
102
RTVSPropertyOp0
 70
     1
102
RTVSPropertyOp1
 70
     1
102
RTVSPropertyOp2
 70
     1
102
RTVSPropertyOp3
 70
     1
102
RTVSPropertyOp4
 70
     1
102
RTVSPropertyOp5
 70
     1
102
RTVSPropertyOp6
 70
     1
102
RTVSPropertyOp7
 70
     1
102
RTVSPropertyOp8
 70
     1
102
RTVSPropertyOp9
 70
     1
102
RTVSPropertyOp10
 70
     1
102
RTVSPropertyOp11
 70
     1
102
RTVSPropertyOp12
 70
     1
102
RTVSPropertyOp13
 70
     1
102
RTVSPropertyOp14
 70
     1
102
RTVSPropertyOp15
 70
     1
102
RTVSPropertyOp16
 70
     1
102
RTVSPropertyOp17
 70
     1
102
RTVSPropertyOp18
 70
     1
102
RTVSPropertyOp19
 70
     1
102
RTVSPropertyOp20
 70
     1
102
RTVSPropertyOp21
 70
     1
102
RTVSPropertyOp22
 70
     1
102
RTVSPropertyOp23
 70
     1
102
RTVSPropertyOp24
 70
     1
102
RTVSPropertyOp25
 70
     1
102
RTVSPropertyOp26
 70
     1
102
RTVSPropertyOp27
 70
     1
102
RTVSPropertyOp28
 70
     1
102
RTVSPropertyOp29
 70
     1
102
RTVSPropertyOp30
 70
     1
102
RTVSPropertyOp31
 70
     1
102
RTVSPropertyOp32
 70
     1
102
RTVSPropertyOp33
 70
     1
102
RTVSPropertyOp34
 70
     1
102
RTVSPropertyOp35
 70
     1
102
RTVSPropertyOp36
 70
     1
102
RTVSPropertyOp37
 70
     1
102
RTVSPropertyOp38
 70
     1
102
RTVSPropertyOp39
 70
     1
102
RTVSPropertyOp40
 70
     1
102
RTVSPropertyOp41
 70
     1
102
RTVSPropertyOp42
 70
     1
102
RTVSPropertyOp43
 70
     1
102
RTVSPropertyOp44
 70
     1
102
RTVSPropertyOp45
 70
     1
102
RTVSPropertyOp46
 70
     1
102
RTVSPropertyOp47
 70
     1
102
RTVSPropertyOp48
 70
     1
102
RTVSPropertyOp49
 70
     1
102
RTVSPropertyOp50
 70
     1
102
RTVSPropertyOp51
 70
     0
102
RTVSPropertyOp52
 70
     0
102
RTVSPropertyOp53
 70
     1
102
RTVSPropertyOp54
 70
     1
102
RTVSPropertyOp55
 70
     1
102
RTVSPropertyOp56
 70
     1
102
RTVSPropertyOp57
 70
     1
102
RTVSPost2010Prop28
280
     0
102
RTVSPost2010PropOp28
 70
     1
102
RTVSPost2010Prop29
280
     1
102
RTVSPost2010PropOp29
 70
     1
102
RTVSPost2010Prop30
280
     1
102
RTVSPost2010PropOp30
 70
     1
102
RTVSPost2010Prop31
280
     0
102
RTVSPost2010PropOp31
 70
     1
102
RTVSPost2010Prop32
280
     0
102
RTVSPost2010PropOp32
 70
     1
102
RTVSPost2010Prop33
280
     0
102
RTVSPost2010PropOp33
 70
     1
102
RTVSPost2010Prop34
280
     0
102
RTVSPost2010PropOp34
 70
     1
102
RTVSPost2010Prop35
280
     0
102
RTVSPost2010PropOp35
 70
     1
102
RTVSPost2010Prop36
280
     0
102
RTVSPost2010PropOp36
 70
     1
102
RTVSPost2010Prop37
 90
       50
102
RTVSPost2010PropOp37
 70
     1
102
RTVSPost2010Prop38
140
0.0
102
RTVSPost2010PropOp38
 70
     1
102
RTVSPost2010Prop39
140
1.0
102
RTVSPost2010PropOp39
 70
     1
102
RTVSPost2010Prop40
 90
        0
102
RTVSPost2010PropOp40
 70
     1
102
RTVSPost2010Prop41ColorIndex
 90
       18
102
RTVSPost2010Prop41ColorRGB
 90
        0
102
RTVSPost2010PropOp41
 70
     1
102
RTVSPost2010Prop42
 90
       50
102
RTVSPost2010PropOp42
 70
     1
102
RTVSPost2010Prop43
 90
        3
102
RTVSPost2010PropOp43
 70
     1
102
RTVSPost2010Prop44ColorIndex
 90
        5
102
RTVSPost2010Prop44ColorRGB
 90
      255
102
RTVSPost2010PropOp44
 70
     1
102
RTVSPost2010Prop45
280
     0
102
RTVSPost2010PropOp45
 70
     1
102
RTVSPost2010Prop46
 90
       50
102
RTVSPost2010PropOp46
 70
     1
102
RTVSPost2010Prop47
 90
       50
102
RTVSPost2010PropOp47
 70
     1
102
RTVSPost2010Prop48
 90
       50
102
RTVSPost2010PropOp48
 70
     1
102
RTVSPost2010Prop49
280
     0
102
RTVSPost2010PropOp49
 70
     1
102
RTVSPost2010Prop50
 90
       50
102
RTVSPost2010PropOp50
 70
     1
102
RTVSPost2010Prop51ColorIndex
 90
      256
102
RTVSPost2010Prop51ColorRGB
 90
-16777216
102
RTVSPost2010PropOp51
 70
     0
102
RTVSPost2010Prop52
140
1.0
102
RTVSPost2010PropOp52
 70
     0
102
RTVSPost2010Prop53
 90
        2
102
RTVSPost2010PropOp53
 70
     1
102
RTVSPost2010Prop54
  1
strokes_ogs.tif
102
RTVSPost2010PropOp54
 70
     1
102
RTVSPost2010Prop55
280
     0
102
RTVSPost2010PropOp55
 70
     1
102
RTVSPost2010Prop56
140
1.0
102
RTVSPost2010PropOp56
 70
     1
102
RTVSPost2010Prop57
140
1.0
102
RTVSPost2010PropOp57
 70
     1
  0
XRECORD
  5
352
102
{ACAD_REACTORS
330
351
102
}
330
351
100
AcDbXrecord
280
     1
102
RTVSPropertyOp0
 70
     1
102
RTVSPropertyOp1
 70
     1
102
RTVSPropertyOp2
 70
     1
102
RTVSPropertyOp3
 70
     1
102
RTVSPropertyOp4
 70
     1
102
RTVSPropertyOp5
 70
     1
102
RTVSPropertyOp6
 70
     1
102
RTVSPropertyOp7
 70
     1
102
RTVSPropertyOp8
 70
     1
102
RTVSPropertyOp9
 70
     1
102
RTVSPropertyOp10
 70
     1
102
RTVSPropertyOp11
 70
     1
102
RTVSPropertyOp12
 70
     1
102
RTVSPropertyOp13
 70
     1
102
RTVSPropertyOp14
 70
     1
102
RTVSPropertyOp15
 70
     1
102
RTVSPropertyOp16
 70
     1
102
RTVSPropertyOp17
 70
     1
102
RTVSPropertyOp18
 70
     1
102
RTVSPropertyOp19
 70
     1
102
RTVSPropertyOp20
 70
     1
102
RTVSPropertyOp21
 70
     1
102
RTVSPropertyOp22
 70
     1
102
RTVSPropertyOp23
 70
     1
102
RTVSPropertyOp24
 70
     1
102
RTVSPropertyOp25
 70
     1
102
RTVSPropertyOp26
 70
     1
102
RTVSPropertyOp27
 70
     1
102
RTVSPropertyOp28
 70
     1
102
RTVSPropertyOp29
 70
     1
102
RTVSPropertyOp30
 70
     1
102
RTVSPropertyOp31
 70
     1
102
RTVSPropertyOp32
 70
     1
102
RTVSPropertyOp33
 70
     1
102
RTVSPropertyOp34
 70
     1
102
RTVSPropertyOp35
 70
     1
102
RTVSPropertyOp36
 70
     1
102
RTVSPropertyOp37
 70
     1
102
RTVSPropertyOp38
 70
     1
102
RTVSPropertyOp39
 70
     1
102
RTVSPropertyOp40
 70
     1
102
RTVSPropertyOp41
 70
     1
102
RTVSPropertyOp42
 70
     1
102
RTVSPropertyOp43
 70
     1
102
RTVSPropertyOp44
 70
     1
102
RTVSPropertyOp45
 70
     1
102
RTVSPropertyOp46
 70
     1
102
RTVSPropertyOp47
 70
     1
102
RTVSPropertyOp48
 70
     1
102
RTVSPropertyOp49
 70
     1
102
RTVSPropertyOp50
 70
     1
102
RTVSPropertyOp51
 70
     0
102
RTVSPropertyOp52
 70
     0
102
RTVSPropertyOp53
 70
     1
102
RTVSPropertyOp54
 70
     1
102
RTVSPropertyOp55
 70
     1
102
RTVSPropertyOp56
 70
     1
102
RTVSPropertyOp57
 70
     1
102
RTVSPost2010Prop28
280
     0
102
RTVSPost2010PropOp28
 70
     1
102
RTVSPost2010Prop29
280
     1
102
RTVSPost2010PropOp29
 70
     1
102
RTVSPost2010Prop30
280
     1
102
RTVSPost2010PropOp30
 70
     1
102
RTVSPost2010Prop31
280
     0
102
RTVSPost2010PropOp31
 70
     1
102
RTVSPost2010Prop32
280
     0
102
RTVSPost2010PropOp32
 70
     1
102
RTVSPost2010Prop33
280
     0
102
RTVSPost2010PropOp33
 70
     1
102
RTVSPost2010Prop34
280
     0
102
RTVSPost2010PropOp34
 70
     1
102
RTVSPost2010Prop35
280
     0
102
RTVSPost2010PropOp35
 70
     1
102
RTVSPost2010Prop36
280
     0
102
RTVSPost2010PropOp36
 70
     1
102
RTVSPost2010Prop37
 90
       50
102
RTVSPost2010PropOp37
 70
     1
102
RTVSPost2010Prop38
140
0.0
102
RTVSPost2010PropOp38
 70
     1
102
RTVSPost2010Prop39
140
1.0
102
RTVSPost2010PropOp39
 70
     1
102
RTVSPost2010Prop40
 90
        0
102
RTVSPost2010PropOp40
 70
     1
102
RTVSPost2010Prop41ColorIndex
 90
       18
102
RTVSPost2010Prop41ColorRGB
 90
        0
102
RTVSPost2010PropOp41
 70
     1
102
RTVSPost2010Prop42
 90
       50
102
RTVSPost2010PropOp42
 70
     1
102
RTVSPost2010Prop43
 90
        3
102
RTVSPost2010PropOp43
 70
     1
102
RTVSPost2010Prop44ColorIndex
 90
        5
102
RTVSPost2010Prop44ColorRGB
 90
      255
102
RTVSPost2010PropOp44
 70
     1
102
RTVSPost2010Prop45
280
     0
102
RTVSPost2010PropOp45
 70
     1
102
RTVSPost2010Prop46
 90
       50
102
RTVSPost2010PropOp46
 70
     1
102
RTVSPost2010Prop47
 90
       50
102
RTVSPost2010PropOp47
 70
     1
102
RTVSPost2010Prop48
 90
       50
102
RTVSPost2010PropOp48
 70
     1
102
RTVSPost2010Prop49
280
     0
102
RTVSPost2010PropOp49
 70
     1
102
RTVSPost2010Prop50
 90
       50
102
RTVSPost2010PropOp50
 70
     1
102
RTVSPost2010Prop51ColorIndex
 90
      256
102
RTVSPost2010Prop51ColorRGB
 90
-16777216
102
RTVSPost2010PropOp51
 70
     0
102
RTVSPost2010Prop52
140
1.0
102
RTVSPost2010PropOp52
 70
     0
102
RTVSPost2010Prop53
 90
        2
102
RTVSPost2010PropOp53
 70
     1
102
RTVSPost2010Prop54
  1
strokes_ogs.tif
102
RTVSPost2010PropOp54
 70
     1
102
RTVSPost2010Prop55
280
     0
102
RTVSPost2010PropOp55
 70
     1
102
RTVSPost2010Prop56
140
1.0
102
RTVSPost2010PropOp56
 70
     1
102
RTVSPost2010Prop57
140
1.0
102
RTVSPost2010PropOp57
 70
     1
  0
XRECORD
  5
366
102
{ACAD_REACTORS
330
365
102
}
330
365
100
AcDbXrecord
280
     1
102
RTVSPropertyOp0
 70
     0
102
RTVSPropertyOp1
 70
     0
102
RTVSPropertyOp2
 70
     0
102
RTVSPropertyOp3
 70
     0
102
RTVSPropertyOp4
 70
     0
102
RTVSPropertyOp5
 70
     0
102
RTVSPropertyOp6
 70
     0
102
RTVSPropertyOp7
 70
     0
102
RTVSPropertyOp8
 70
     0
102
RTVSPropertyOp9
 70
     0
102
RTVSPropertyOp10
 70
     0
102
RTVSPropertyOp11
 70
     0
102
RTVSPropertyOp12
 70
     0
102
RTVSPropertyOp13
 70
     0
102
RTVSPropertyOp14
 70
     2
102
RTVSPropertyOp15
 70
     0
102
RTVSPropertyOp16
 70
     0
102
RTVSPropertyOp17
 70
     0
102
RTVSPropertyOp18
 70
     0
102
RTVSPropertyOp19
 70
     0
102
RTVSPropertyOp20
 70
     0
102
RTVSPropertyOp21
 70
     0
102
RTVSPropertyOp22
 70
     0
102
RTVSPropertyOp23
 70
     0
102
RTVSPropertyOp24
 70
     0
102
RTVSPropertyOp25
 70
     0
102
RTVSPropertyOp26
 70
     0
102
RTVSPropertyOp27
 70
     0
102
RTVSPropertyOp28
 70
     0
102
RTVSPropertyOp29
 70
     0
102
RTVSPropertyOp30
 70
     0
102
RTVSPropertyOp31
 70
     0
102
RTVSPropertyOp32
 70
     0
102
RTVSPropertyOp33
 70
     0
102
RTVSPropertyOp34
 70
     0
102
RTVSPropertyOp35
 70
     0
102
RTVSPropertyOp36
 70
     0
102
RTVSPropertyOp37
 70
     0
102
RTVSPropertyOp38
 70
     0
102
RTVSPropertyOp39
 70
     0
102
RTVSPropertyOp40
 70
     0
102
RTVSPropertyOp41
 70
     0
102
RTVSPropertyOp42
 70
     0
102
RTVSPropertyOp43
 70
     0
102
RTVSPropertyOp44
 70
     0
102
RTVSPropertyOp45
 70
     0
102
RTVSPropertyOp46
 70
     0
102
RTVSPropertyOp47
 70
     0
102
RTVSPropertyOp48
 70
     0
102
RTVSPropertyOp49
 70
     0
102
RTVSPropertyOp50
 70
     0
102
RTVSPropertyOp51
 70
     0
102
RTVSPropertyOp52
 70
     0
102
RTVSPropertyOp53
 70
     0
102
RTVSPropertyOp54
 70
     0
102
RTVSPropertyOp55
 70
     0
102
RTVSPropertyOp56
 70
     0
102
RTVSPropertyOp57
 70
     0
102
RTVSPost2010Prop28
280
     0
102
RTVSPost2010PropOp28
 70
     0
102
RTVSPost2010Prop29
280
     1
102
RTVSPost2010PropOp29
 70
     0
102
RTVSPost2010Prop30
280
     1
102
RTVSPost2010PropOp30
 70
     0
102
RTVSPost2010Prop31
280
     0
102
RTVSPost2010PropOp31
 70
     0
102
RTVSPost2010Prop32
280
     0
102
RTVSPost2010PropOp32
 70
     0
102
RTVSPost2010Prop33
280
     0
102
RTVSPost2010PropOp33
 70
     0
102
RTVSPost2010Prop34
280
     0
102
RTVSPost2010PropOp34
 70
     0
102
RTVSPost2010Prop35
280
     0
102
RTVSPost2010PropOp35
 70
     0
102
RTVSPost2010Prop36
280
     0
102
RTVSPost2010PropOp36
 70
     0
102
RTVSPost2010Prop37
 90
       50
102
RTVSPost2010PropOp37
 70
     0
102
RTVSPost2010Prop38
140
0.0
102
RTVSPost2010PropOp38
 70
     0
102
RTVSPost2010Prop39
140
1.0
102
RTVSPost2010PropOp39
 70
     0
102
RTVSPost2010Prop40
 90
        0
102
RTVSPost2010PropOp40
 70
     0
102
RTVSPost2010Prop41ColorIndex
 90
       18
102
RTVSPost2010Prop41ColorRGB
 90
        0
102
RTVSPost2010PropOp41
 70
     0
102
RTVSPost2010Prop42
 90
       50
102
RTVSPost2010PropOp42
 70
     0
102
RTVSPost2010Prop43
 90
        3
102
RTVSPost2010PropOp43
 70
     0
102
RTVSPost2010Prop44ColorIndex
 90
        5
102
RTVSPost2010Prop44ColorRGB
 90
      255
102
RTVSPost2010PropOp44
 70
     0
102
RTVSPost2010Prop45
280
     0
102
RTVSPost2010PropOp45
 70
     0
102
RTVSPost2010Prop46
 90
       50
102
RTVSPost2010PropOp46
 70
     0
102
RTVSPost2010Prop47
 90
       50
102
RTVSPost2010PropOp47
 70
     0
102
RTVSPost2010Prop48
 90
       50
102
RTVSPost2010PropOp48
 70
     0
102
RTVSPost2010Prop49
280
     0
102
RTVSPost2010PropOp49
 70
     0
102
RTVSPost2010Prop50
 90
       50
102
RTVSPost2010PropOp50
 70
     0
102
RTVSPost2010Prop51ColorIndex
 90
      256
102
RTVSPost2010Prop51ColorRGB
 90
-16777216
102
RTVSPost2010PropOp51
 70
     0
102
RTVSPost2010Prop52
140
1.0
102
RTVSPost2010PropOp52
 70
     0
102
RTVSPost2010Prop53
 90
        2
102
RTVSPost2010PropOp53
 70
     0
102
RTVSPost2010Prop54
  1
strokes_ogs.tif
102
RTVSPost2010PropOp54
 70
     0
102
RTVSPost2010Prop55
280
     0
102
RTVSPost2010PropOp55
 70
     0
102
RTVSPost2010Prop56
140
1.0
102
RTVSPost2010PropOp56
 70
     0
102
RTVSPost2010Prop57
140
1.0
102
RTVSPost2010PropOp57
 70
     0
  0
XRECORD
  5
360
102
{ACAD_REACTORS
330
35F
102
}
330
35F
100
AcDbXrecord
280
     1
102
RTVSPropertyOp0
 70
     1
102
RTVSPropertyOp1
 70
     1
102
RTVSPropertyOp2
 70
     1
102
RTVSPropertyOp3
 70
     1
102
RTVSPropertyOp4
 70
     1
102
RTVSPropertyOp5
 70
     1
102
RTVSPropertyOp6
 70
     1
102
RTVSPropertyOp7
 70
     1
102
RTVSPropertyOp8
 70
     1
102
RTVSPropertyOp9
 70
     1
102
RTVSPropertyOp10
 70
     1
102
RTVSPropertyOp11
 70
     1
102
RTVSPropertyOp12
 70
     1
102
RTVSPropertyOp13
 70
     1
102
RTVSPropertyOp14
 70
     1
102
RTVSPropertyOp15
 70
     1
102
RTVSPropertyOp16
 70
     1
102
RTVSPropertyOp17
 70
     1
102
RTVSPropertyOp18
 70
     1
102
RTVSPropertyOp19
 70
     1
102
RTVSPropertyOp20
 70
     1
102
RTVSPropertyOp21
 70
     1
102
RTVSPropertyOp22
 70
     1
102
RTVSPropertyOp23
 70
     1
102
RTVSPropertyOp24
 70
     1
102
RTVSPropertyOp25
 70
     1
102
RTVSPropertyOp26
 70
     1
102
RTVSPropertyOp27
 70
     1
102
RTVSPropertyOp28
 70
     1
102
RTVSPropertyOp29
 70
     1
102
RTVSPropertyOp30
 70
     1
102
RTVSPropertyOp31
 70
     1
102
RTVSPropertyOp32
 70
     1
102
RTVSPropertyOp33
 70
     1
102
RTVSPropertyOp34
 70
     1
102
RTVSPropertyOp35
 70
     1
102
RTVSPropertyOp36
 70
     1
102
RTVSPropertyOp37
 70
     1
102
RTVSPropertyOp38
 70
     1
102
RTVSPropertyOp39
 70
     1
102
RTVSPropertyOp40
 70
     1
102
RTVSPropertyOp41
 70
     1
102
RTVSPropertyOp42
 70
     1
102
RTVSPropertyOp43
 70
     1
102
RTVSPropertyOp44
 70
     1
102
RTVSPropertyOp45
 70
     1
102
RTVSPropertyOp46
 70
     1
102
RTVSPropertyOp47
 70
     1
102
RTVSPropertyOp48
 70
     1
102
RTVSPropertyOp49
 70
     1
102
RTVSPropertyOp50
 70
     1
102
RTVSPropertyOp51
 70
     0
102
RTVSPropertyOp52
 70
     0
102
RTVSPropertyOp53
 70
     1
102
RTVSPropertyOp54
 70
     1
102
RTVSPropertyOp55
 70
     1
102
RTVSPropertyOp56
 70
     1
102
RTVSPropertyOp57
 70
     1
102
RTVSPost2010Prop28
280
     0
102
RTVSPost2010PropOp28
 70
     1
102
RTVSPost2010Prop29
280
     1
102
RTVSPost2010PropOp29
 70
     1
102
RTVSPost2010Prop30
280
     1
102
RTVSPost2010PropOp30
 70
     1
102
RTVSPost2010Prop31
280
     0
102
RTVSPost2010PropOp31
 70
     1
102
RTVSPost2010Prop32
280
     0
102
RTVSPost2010PropOp32
 70
     1
102
RTVSPost2010Prop33
280
     0
102
RTVSPost2010PropOp33
 70
     1
102
RTVSPost2010Prop34
280
     0
102
RTVSPost2010PropOp34
 70
     1
102
RTVSPost2010Prop35
280
     0
102
RTVSPost2010PropOp35
 70
     1
102
RTVSPost2010Prop36
280
     0
102
RTVSPost2010PropOp36
 70
     1
102
RTVSPost2010Prop37
 90
       50
102
RTVSPost2010PropOp37
 70
     1
102
RTVSPost2010Prop38
140
0.0
102
RTVSPost2010PropOp38
 70
     1
102
RTVSPost2010Prop39
140
1.0
102
RTVSPost2010PropOp39
 70
     1
102
RTVSPost2010Prop40
 90
        0
102
RTVSPost2010PropOp40
 70
     1
102
RTVSPost2010Prop41ColorIndex
 90
       18
102
RTVSPost2010Prop41ColorRGB
 90
        0
102
RTVSPost2010PropOp41
 70
     1
102
RTVSPost2010Prop42
 90
       50
102
RTVSPost2010PropOp42
 70
     1
102
RTVSPost2010Prop43
 90
        3
102
RTVSPost2010PropOp43
 70
     1
102
RTVSPost2010Prop44ColorIndex
 90
        5
102
RTVSPost2010Prop44ColorRGB
 90
      255
102
RTVSPost2010PropOp44
 70
     1
102
RTVSPost2010Prop45
280
     0
102
RTVSPost2010PropOp45
 70
     1
102
RTVSPost2010Prop46
 90
       50
102
RTVSPost2010PropOp46
 70
     1
102
RTVSPost2010Prop47
 90
       50
102
RTVSPost2010PropOp47
 70
     1
102
RTVSPost2010Prop48
 90
       50
102
RTVSPost2010PropOp48
 70
     1
102
RTVSPost2010Prop49
280
     0
102
RTVSPost2010PropOp49
 70
     1
102
RTVSPost2010Prop50
 90
       50
102
RTVSPost2010PropOp50
 70
     1
102
RTVSPost2010Prop51ColorIndex
 90
      256
102
RTVSPost2010Prop51ColorRGB
 90
-16777216
102
RTVSPost2010PropOp51
 70
     0
102
RTVSPost2010Prop52
140
1.0
102
RTVSPost2010PropOp52
 70
     0
102
RTVSPost2010Prop53
 90
        2
102
RTVSPost2010PropOp53
 70
     1
102
RTVSPost2010Prop54
  1
strokes_ogs.tif
102
RTVSPost2010PropOp54
 70
     1
102
RTVSPost2010Prop55
280
     0
102
RTVSPost2010PropOp55
 70
     1
102
RTVSPost2010Prop56
140
1.0
102
RTVSPost2010PropOp56
 70
     1
102
RTVSPost2010Prop57
140
1.0
102
RTVSPost2010PropOp57
 70
     1
  0
XRECORD
  5
368
102
{ACAD_REACTORS
330
367
102
}
330
367
100
AcDbXrecord
280
     1
102
RTVSPropertyOp0
 70
     0
102
RTVSPropertyOp1
 70
     0
102
RTVSPropertyOp2
 70
     0
102
RTVSPropertyOp3
 70
     0
102
RTVSPropertyOp4
 70
     0
102
RTVSPropertyOp5
 70
     0
102
RTVSPropertyOp6
 70
     0
102
RTVSPropertyOp7
 70
     0
102
RTVSPropertyOp8
 70
     0
102
RTVSPropertyOp9
 70
     0
102
RTVSPropertyOp10
 70
     0
102
RTVSPropertyOp11
 70
     0
102
RTVSPropertyOp12
 70
     0
102
RTVSPropertyOp13
 70
     0
102
RTVSPropertyOp14
 70
     2
102
RTVSPropertyOp15
 70
     0
102
RTVSPropertyOp16
 70
     0
102
RTVSPropertyOp17
 70
     0
102
RTVSPropertyOp18
 70
     0
102
RTVSPropertyOp19
 70
     0
102
RTVSPropertyOp20
 70
     0
102
RTVSPropertyOp21
 70
     0
102
RTVSPropertyOp22
 70
     0
102
RTVSPropertyOp23
 70
     0
102
RTVSPropertyOp24
 70
     0
102
RTVSPropertyOp25
 70
     0
102
RTVSPropertyOp26
 70
     0
102
RTVSPropertyOp27
 70
     0
102
RTVSPropertyOp28
 70
     0
102
RTVSPropertyOp29
 70
     0
102
RTVSPropertyOp30
 70
     0
102
RTVSPropertyOp31
 70
     0
102
RTVSPropertyOp32
 70
     0
102
RTVSPropertyOp33
 70
     0
102
RTVSPropertyOp34
 70
     0
102
RTVSPropertyOp35
 70
     0
102
RTVSPropertyOp36
 70
     0
102
RTVSPropertyOp37
 70
     0
102
RTVSPropertyOp38
 70
     0
102
RTVSPropertyOp39
 70
     0
102
RTVSPropertyOp40
 70
     0
102
RTVSPropertyOp41
 70
     0
102
RTVSPropertyOp42
 70
     0
102
RTVSPropertyOp43
 70
     0
102
RTVSPropertyOp44
 70
     0
102
RTVSPropertyOp45
 70
     0
102
RTVSPropertyOp46
 70
     0
102
RTVSPropertyOp47
 70
     0
102
RTVSPropertyOp48
 70
     0
102
RTVSPropertyOp49
 70
     0
102
RTVSPropertyOp50
 70
     0
102
RTVSPropertyOp51
 70
     0
102
RTVSPropertyOp52
 70
     0
102
RTVSPropertyOp53
 70
     0
102
RTVSPropertyOp54
 70
     0
102
RTVSPropertyOp55
 70
     0
102
RTVSPropertyOp56
 70
     0
102
RTVSPropertyOp57
 70
     0
102
RTVSPost2010Prop28
280
     0
102
RTVSPost2010PropOp28
 70
     0
102
RTVSPost2010Prop29
280
     1
102
RTVSPost2010PropOp29
 70
     0
102
RTVSPost2010Prop30
280
     1
102
RTVSPost2010PropOp30
 70
     0
102
RTVSPost2010Prop31
280
     0
102
RTVSPost2010PropOp31
 70
     0
102
RTVSPost2010Prop32
280
     0
102
RTVSPost2010PropOp32
 70
     0
102
RTVSPost2010Prop33
280
     0
102
RTVSPost2010PropOp33
 70
     0
102
RTVSPost2010Prop34
280
     0
102
RTVSPost2010PropOp34
 70
     0
102
RTVSPost2010Prop35
280
     0
102
RTVSPost2010PropOp35
 70
     0
102
RTVSPost2010Prop36
280
     0
102
RTVSPost2010PropOp36
 70
     0
102
RTVSPost2010Prop37
 90
       50
102
RTVSPost2010PropOp37
 70
     0
102
RTVSPost2010Prop38
140
0.0
102
RTVSPost2010PropOp38
 70
     0
102
RTVSPost2010Prop39
140
1.0
102
RTVSPost2010PropOp39
 70
     0
102
RTVSPost2010Prop40
 90
        0
102
RTVSPost2010PropOp40
 70
     0
102
RTVSPost2010Prop41ColorIndex
 90
       18
102
RTVSPost2010Prop41ColorRGB
 90
        0
102
RTVSPost2010PropOp41
 70
     0
102
RTVSPost2010Prop42
 90
       50
102
RTVSPost2010PropOp42
 70
     0
102
RTVSPost2010Prop43
 90
        3
102
RTVSPost2010PropOp43
 70
     0
102
RTVSPost2010Prop44ColorIndex
 90
        5
102
RTVSPost2010Prop44ColorRGB
 90
      255
102
RTVSPost2010PropOp44
 70
     0
102
RTVSPost2010Prop45
280
     0
102
RTVSPost2010PropOp45
 70
     0
102
RTVSPost2010Prop46
 90
       50
102
RTVSPost2010PropOp46
 70
     0
102
RTVSPost2010Prop47
 90
       50
102
RTVSPost2010PropOp47
 70
     0
102
RTVSPost2010Prop48
 90
       50
102
RTVSPost2010PropOp48
 70
     0
102
RTVSPost2010Prop49
280
     0
102
RTVSPost2010PropOp49
 70
     0
102
RTVSPost2010Prop50
 90
       50
102
RTVSPost2010PropOp50
 70
     0
102
RTVSPost2010Prop51ColorIndex
 90
      256
102
RTVSPost2010Prop51ColorRGB
 90
-16777216
102
RTVSPost2010PropOp51
 70
     0
102
RTVSPost2010Prop52
140
1.0
102
RTVSPost2010PropOp52
 70
     0
102
RTVSPost2010Prop53
 90
        2
102
RTVSPost2010PropOp53
 70
     0
102
RTVSPost2010Prop54
  1
strokes_ogs.tif
102
RTVSPost2010PropOp54
 70
     0
102
RTVSPost2010Prop55
280
     0
102
RTVSPost2010PropOp55
 70
     0
102
RTVSPost2010Prop56
140
1.0
102
RTVSPost2010PropOp56
 70
     0
102
RTVSPost2010Prop57
140
1.0
102
RTVSPost2010PropOp57
 70
     0
  0
XRECORD
  5
356
102
{ACAD_REACTORS
330
355
102
}
330
355
100
AcDbXrecord
280
     1
102
RTVSPropertyOp0
 70
     1
102
RTVSPropertyOp1
 70
     1
102
RTVSPropertyOp2
 70
     1
102
RTVSPropertyOp3
 70
     1
102
RTVSPropertyOp4
 70
     1
102
RTVSPropertyOp5
 70
     1
102
RTVSPropertyOp6
 70
     1
102
RTVSPropertyOp7
 70
     1
102
RTVSPropertyOp8
 70
     1
102
RTVSPropertyOp9
 70
     1
102
RTVSPropertyOp10
 70
     1
102
RTVSPropertyOp11
 70
     1
102
RTVSPropertyOp12
 70
     1
102
RTVSPropertyOp13
 70
     1
102
RTVSPropertyOp14
 70
     1
102
RTVSPropertyOp15
 70
     1
102
RTVSPropertyOp16
 70
     1
102
RTVSPropertyOp17
 70
     1
102
RTVSPropertyOp18
 70
     1
102
RTVSPropertyOp19
 70
     1
102
RTVSPropertyOp20
 70
     1
102
RTVSPropertyOp21
 70
     1
102
RTVSPropertyOp22
 70
     1
102
RTVSPropertyOp23
 70
     1
102
RTVSPropertyOp24
 70
     1
102
RTVSPropertyOp25
 70
     1
102
RTVSPropertyOp26
 70
     1
102
RTVSPropertyOp27
 70
     1
102
RTVSPropertyOp28
 70
     1
102
RTVSPropertyOp29
 70
     1
102
RTVSPropertyOp30
 70
     1
102
RTVSPropertyOp31
 70
     1
102
RTVSPropertyOp32
 70
     1
102
RTVSPropertyOp33
 70
     1
102
RTVSPropertyOp34
 70
     1
102
RTVSPropertyOp35
 70
     1
102
RTVSPropertyOp36
 70
     1
102
RTVSPropertyOp37
 70
     1
102
RTVSPropertyOp38
 70
     1
102
RTVSPropertyOp39
 70
     1
102
RTVSPropertyOp40
 70
     1
102
RTVSPropertyOp41
 70
     1
102
RTVSPropertyOp42
 70
     1
102
RTVSPropertyOp43
 70
     1
102
RTVSPropertyOp44
 70
     1
102
RTVSPropertyOp45
 70
     1
102
RTVSPropertyOp46
 70
     1
102
RTVSPropertyOp47
 70
     1
102
RTVSPropertyOp48
 70
     1
102
RTVSPropertyOp49
 70
     1
102
RTVSPropertyOp50
 70
     1
102
RTVSPropertyOp51
 70
     0
102
RTVSPropertyOp52
 70
     0
102
RTVSPropertyOp53
 70
     1
102
RTVSPropertyOp54
 70
     1
102
RTVSPropertyOp55
 70
     1
102
RTVSPropertyOp56
 70
     1
102
RTVSPropertyOp57
 70
     1
102
RTVSPost2010Prop28
280
     0
102
RTVSPost2010PropOp28
 70
     1
102
RTVSPost2010Prop29
280
     1
102
RTVSPost2010PropOp29
 70
     1
102
RTVSPost2010Prop30
280
     1
102
RTVSPost2010PropOp30
 70
     1
102
RTVSPost2010Prop31
280
     0
102
RTVSPost2010PropOp31
 70
     1
102
RTVSPost2010Prop32
280
     0
102
RTVSPost2010PropOp32
 70
     1
102
RTVSPost2010Prop33
280
     0
102
RTVSPost2010PropOp33
 70
     1
102
RTVSPost2010Prop34
280
     0
102
RTVSPost2010PropOp34
 70
     1
102
RTVSPost2010Prop35
280
     0
102
RTVSPost2010PropOp35
 70
     1
102
RTVSPost2010Prop36
280
     0
102
RTVSPost2010PropOp36
 70
     1
102
RTVSPost2010Prop37
 90
       50
102
RTVSPost2010PropOp37
 70
     1
102
RTVSPost2010Prop38
140
0.0
102
RTVSPost2010PropOp38
 70
     1
102
RTVSPost2010Prop39
140
1.0
102
RTVSPost2010PropOp39
 70
     1
102
RTVSPost2010Prop40
 90
        0
102
RTVSPost2010PropOp40
 70
     1
102
RTVSPost2010Prop41ColorIndex
 90
       18
102
RTVSPost2010Prop41ColorRGB
 90
        0
102
RTVSPost2010PropOp41
 70
     1
102
RTVSPost2010Prop42
 90
       50
102
RTVSPost2010PropOp42
 70
     1
102
RTVSPost2010Prop43
 90
        3
102
RTVSPost2010PropOp43
 70
     1
102
RTVSPost2010Prop44ColorIndex
 90
        5
102
RTVSPost2010Prop44ColorRGB
 90
      255
102
RTVSPost2010PropOp44
 70
     1
102
RTVSPost2010Prop45
280
     0
102
RTVSPost2010PropOp45
 70
     1
102
RTVSPost2010Prop46
 90
       50
102
RTVSPost2010PropOp46
 70
     1
102
RTVSPost2010Prop47
 90
       50
102
RTVSPost2010PropOp47
 70
     1
102
RTVSPost2010Prop48
 90
       50
102
RTVSPost2010PropOp48
 70
     1
102
RTVSPost2010Prop49
280
     0
102
RTVSPost2010PropOp49
 70
     1
102
RTVSPost2010Prop50
 90
       50
102
RTVSPost2010PropOp50
 70
     1
102
RTVSPost2010Prop51ColorIndex
 90
      256
102
RTVSPost2010Prop51ColorRGB
 90
-16777216
102
RTVSPost2010PropOp51
 70
     0
102
RTVSPost2010Prop52
140
1.0
102
RTVSPost2010PropOp52
 70
     0
102
RTVSPost2010Prop53
 90
        2
102
RTVSPost2010PropOp53
 70
     1
102
RTVSPost2010Prop54
  1
strokes_ogs.tif
102
RTVSPost2010PropOp54
 70
     1
102
RTVSPost2010Prop55
280
     0
102
RTVSPost2010PropOp55
 70
     1
102
RTVSPost2010Prop56
140
1.0
102
RTVSPost2010PropOp56
 70
     1
102
RTVSPost2010Prop57
140
1.0
102
RTVSPost2010PropOp57
 70
     1
  0
XRECORD
  5
374
102
{ACAD_REACTORS
330
373
102
}
330
373
100
AcDbXrecord
280
     1
102
RTVSPropertyOp0
 70
     1
102
RTVSPropertyOp1
 70
     1
102
RTVSPropertyOp2
 70
     1
102
RTVSPropertyOp3
 70
     1
102
RTVSPropertyOp4
 70
     1
102
RTVSPropertyOp5
 70
     1
102
RTVSPropertyOp6
 70
     1
102
RTVSPropertyOp7
 70
     1
102
RTVSPropertyOp8
 70
     1
102
RTVSPropertyOp9
 70
     1
102
RTVSPropertyOp10
 70
     1
102
RTVSPropertyOp11
 70
     1
102
RTVSPropertyOp12
 70
     1
102
RTVSPropertyOp13
 70
     1
102
RTVSPropertyOp14
 70
     1
102
RTVSPropertyOp15
 70
     1
102
RTVSPropertyOp16
 70
     1
102
RTVSPropertyOp17
 70
     1
102
RTVSPropertyOp18
 70
     1
102
RTVSPropertyOp19
 70
     1
102
RTVSPropertyOp20
 70
     1
102
RTVSPropertyOp21
 70
     1
102
RTVSPropertyOp22
 70
     1
102
RTVSPropertyOp23
 70
     1
102
RTVSPropertyOp24
 70
     1
102
RTVSPropertyOp25
 70
     1
102
RTVSPropertyOp26
 70
     1
102
RTVSPropertyOp27
 70
     1
102
RTVSPropertyOp28
 70
     1
102
RTVSPropertyOp29
 70
     1
102
RTVSPropertyOp30
 70
     1
102
RTVSPropertyOp31
 70
     1
102
RTVSPropertyOp32
 70
     1
102
RTVSPropertyOp33
 70
     1
102
RTVSPropertyOp34
 70
     1
102
RTVSPropertyOp35
 70
     1
102
RTVSPropertyOp36
 70
     1
102
RTVSPropertyOp37
 70
     1
102
RTVSPropertyOp38
 70
     1
102
RTVSPropertyOp39
 70
     1
102
RTVSPropertyOp40
 70
     1
102
RTVSPropertyOp41
 70
     1
102
RTVSPropertyOp42
 70
     1
102
RTVSPropertyOp43
 70
     1
102
RTVSPropertyOp44
 70
     1
102
RTVSPropertyOp45
 70
     1
102
RTVSPropertyOp46
 70
     1
102
RTVSPropertyOp47
 70
     1
102
RTVSPropertyOp48
 70
     1
102
RTVSPropertyOp49
 70
     1
102
RTVSPropertyOp50
 70
     1
102
RTVSPropertyOp51
 70
     0
102
RTVSPropertyOp52
 70
     0
102
RTVSPropertyOp53
 70
     1
102
RTVSPropertyOp54
 70
     1
102
RTVSPropertyOp55
 70
     1
102
RTVSPropertyOp56
 70
     1
102
RTVSPropertyOp57
 70
     1
102
RTVSPost2010Prop28
280
     0
102
RTVSPost2010PropOp28
 70
     1
102
RTVSPost2010Prop29
280
     1
102
RTVSPost2010PropOp29
 70
     1
102
RTVSPost2010Prop30
280
     1
102
RTVSPost2010PropOp30
 70
     1
102
RTVSPost2010Prop31
280
     0
102
RTVSPost2010PropOp31
 70
     1
102
RTVSPost2010Prop32
280
     0
102
RTVSPost2010PropOp32
 70
     1
102
RTVSPost2010Prop33
280
     0
102
RTVSPost2010PropOp33
 70
     1
102
RTVSPost2010Prop34
280
     0
102
RTVSPost2010PropOp34
 70
     1
102
RTVSPost2010Prop35
280
     0
102
RTVSPost2010PropOp35
 70
     1
102
RTVSPost2010Prop36
280
     0
102
RTVSPost2010PropOp36
 70
     1
102
RTVSPost2010Prop37
 90
       50
102
RTVSPost2010PropOp37
 70
     1
102
RTVSPost2010Prop38
140
0.0
102
RTVSPost2010PropOp38
 70
     1
102
RTVSPost2010Prop39
140
1.0
102
RTVSPost2010PropOp39
 70
     1
102
RTVSPost2010Prop40
 90
        0
102
RTVSPost2010PropOp40
 70
     1
102
RTVSPost2010Prop41ColorIndex
 90
       18
102
RTVSPost2010Prop41ColorRGB
 90
        0
102
RTVSPost2010PropOp41
 70
     1
102
RTVSPost2010Prop42
 90
       50
102
RTVSPost2010PropOp42
 70
     1
102
RTVSPost2010Prop43
 90
        3
102
RTVSPost2010PropOp43
 70
     1
102
RTVSPost2010Prop44ColorIndex
 90
        5
102
RTVSPost2010Prop44ColorRGB
 90
      255
102
RTVSPost2010PropOp44
 70
     1
102
RTVSPost2010Prop45
280
     0
102
RTVSPost2010PropOp45
 70
     1
102
RTVSPost2010Prop46
 90
       50
102
RTVSPost2010PropOp46
 70
     1
102
RTVSPost2010Prop47
 90
       50
102
RTVSPost2010PropOp47
 70
     1
102
RTVSPost2010Prop48
 90
       50
102
RTVSPost2010PropOp48
 70
     1
102
RTVSPost2010Prop49
280
     0
102
RTVSPost2010PropOp49
 70
     1
102
RTVSPost2010Prop50
 90
       50
102
RTVSPost2010PropOp50
 70
     1
102
RTVSPost2010Prop51ColorIndex
 90
      256
102
RTVSPost2010Prop51ColorRGB
 90
-16777216
102
RTVSPost2010PropOp51
 70
     0
102
RTVSPost2010Prop52
140
1.0
102
RTVSPost2010PropOp52
 70
     0
102
RTVSPost2010Prop53
 90
        2
102
RTVSPost2010PropOp53
 70
     1
102
RTVSPost2010Prop54
  1
strokes_ogs.tif
102
RTVSPost2010PropOp54
 70
     1
102
RTVSPost2010Prop55
280
     0
102
RTVSPost2010PropOp55
 70
     1
102
RTVSPost2010Prop56
140
1.0
102
RTVSPost2010PropOp56
 70
     1
102
RTVSPost2010Prop57
140
1.0
102
RTVSPost2010PropOp57
 70
     1
  0
XRECORD
  5
372
102
{ACAD_REACTORS
330
371
102
}
330
371
100
AcDbXrecord
280
     1
102
RTVSPropertyOp0
 70
     1
102
RTVSPropertyOp1
 70
     1
102
RTVSPropertyOp2
 70
     1
102
RTVSPropertyOp3
 70
     1
102
RTVSPropertyOp4
 70
     1
102
RTVSPropertyOp5
 70
     1
102
RTVSPropertyOp6
 70
     1
102
RTVSPropertyOp7
 70
     1
102
RTVSPropertyOp8
 70
     1
102
RTVSPropertyOp9
 70
     1
102
RTVSPropertyOp10
 70
     1
102
RTVSPropertyOp11
 70
     1
102
RTVSPropertyOp12
 70
     1
102
RTVSPropertyOp13
 70
     1
102
RTVSPropertyOp14
 70
     1
102
RTVSPropertyOp15
 70
     1
102
RTVSPropertyOp16
 70
     1
102
RTVSPropertyOp17
 70
     1
102
RTVSPropertyOp18
 70
     1
102
RTVSPropertyOp19
 70
     1
102
RTVSPropertyOp20
 70
     1
102
RTVSPropertyOp21
 70
     1
102
RTVSPropertyOp22
 70
     1
102
RTVSPropertyOp23
 70
     1
102
RTVSPropertyOp24
 70
     1
102
RTVSPropertyOp25
 70
     1
102
RTVSPropertyOp26
 70
     1
102
RTVSPropertyOp27
 70
     1
102
RTVSPropertyOp28
 70
     1
102
RTVSPropertyOp29
 70
     1
102
RTVSPropertyOp30
 70
     1
102
RTVSPropertyOp31
 70
     1
102
RTVSPropertyOp32
 70
     1
102
RTVSPropertyOp33
 70
     1
102
RTVSPropertyOp34
 70
     1
102
RTVSPropertyOp35
 70
     1
102
RTVSPropertyOp36
 70
     1
102
RTVSPropertyOp37
 70
     1
102
RTVSPropertyOp38
 70
     1
102
RTVSPropertyOp39
 70
     1
102
RTVSPropertyOp40
 70
     1
102
RTVSPropertyOp41
 70
     1
102
RTVSPropertyOp42
 70
     1
102
RTVSPropertyOp43
 70
     1
102
RTVSPropertyOp44
 70
     1
102
RTVSPropertyOp45
 70
     1
102
RTVSPropertyOp46
 70
     1
102
RTVSPropertyOp47
 70
     1
102
RTVSPropertyOp48
 70
     1
102
RTVSPropertyOp49
 70
     1
102
RTVSPropertyOp50
 70
     1
102
RTVSPropertyOp51
 70
     0
102
RTVSPropertyOp52
 70
     0
102
RTVSPropertyOp53
 70
     1
102
RTVSPropertyOp54
 70
     1
102
RTVSPropertyOp55
 70
     1
102
RTVSPropertyOp56
 70
     1
102
RTVSPropertyOp57
 70
     1
102
RTVSPost2010Prop28
280
     0
102
RTVSPost2010PropOp28
 70
     1
102
RTVSPost2010Prop29
280
     1
102
RTVSPost2010PropOp29
 70
     1
102
RTVSPost2010Prop30
280
     1
102
RTVSPost2010PropOp30
 70
     1
102
RTVSPost2010Prop31
280
     0
102
RTVSPost2010PropOp31
 70
     1
102
RTVSPost2010Prop32
280
     0
102
RTVSPost2010PropOp32
 70
     1
102
RTVSPost2010Prop33
280
     0
102
RTVSPost2010PropOp33
 70
     1
102
RTVSPost2010Prop34
280
     0
102
RTVSPost2010PropOp34
 70
     1
102
RTVSPost2010Prop35
280
     0
102
RTVSPost2010PropOp35
 70
     1
102
RTVSPost2010Prop36
280
     0
102
RTVSPost2010PropOp36
 70
     1
102
RTVSPost2010Prop37
 90
       50
102
RTVSPost2010PropOp37
 70
     1
102
RTVSPost2010Prop38
140
0.0
102
RTVSPost2010PropOp38
 70
     1
102
RTVSPost2010Prop39
140
1.0
102
RTVSPost2010PropOp39
 70
     1
102
RTVSPost2010Prop40
 90
        0
102
RTVSPost2010PropOp40
 70
     1
102
RTVSPost2010Prop41ColorIndex
 90
       18
102
RTVSPost2010Prop41ColorRGB
 90
        0
102
RTVSPost2010PropOp41
 70
     1
102
RTVSPost2010Prop42
 90
       50
102
RTVSPost2010PropOp42
 70
     1
102
RTVSPost2010Prop43
 90
        3
102
RTVSPost2010PropOp43
 70
     1
102
RTVSPost2010Prop44ColorIndex
 90
        5
102
RTVSPost2010Prop44ColorRGB
 90
      255
102
RTVSPost2010PropOp44
 70
     1
102
RTVSPost2010Prop45
280
     0
102
RTVSPost2010PropOp45
 70
     1
102
RTVSPost2010Prop46
 90
       50
102
RTVSPost2010PropOp46
 70
     1
102
RTVSPost2010Prop47
 90
       50
102
RTVSPost2010PropOp47
 70
     1
102
RTVSPost2010Prop48
 90
       50
102
RTVSPost2010PropOp48
 70
     1
102
RTVSPost2010Prop49
280
     0
102
RTVSPost2010PropOp49
 70
     1
102
RTVSPost2010Prop50
 90
       50
102
RTVSPost2010PropOp50
 70
     1
102
RTVSPost2010Prop51ColorIndex
 90
      256
102
RTVSPost2010Prop51ColorRGB
 90
-16777216
102
RTVSPost2010PropOp51
 70
     0
102
RTVSPost2010Prop52
140
1.0
102
RTVSPost2010PropOp52
 70
     0
102
RTVSPost2010Prop53
 90
        2
102
RTVSPost2010PropOp53
 70
     1
102
RTVSPost2010Prop54
  1
strokes_ogs.tif
102
RTVSPost2010PropOp54
 70
     1
102
RTVSPost2010Prop55
280
     0
102
RTVSPost2010PropOp55
 70
     1
102
RTVSPost2010Prop56
140
1.0
102
RTVSPost2010PropOp56
 70
     1
102
RTVSPost2010Prop57
140
1.0
102
RTVSPost2010PropOp57
 70
     1
  0
XRECORD
  5
36C
102
{ACAD_REACTORS
330
36B
102
}
330
36B
100
AcDbXrecord
280
     1
102
RTVSPropertyOp0
 70
     1
102
RTVSPropertyOp1
 70
     1
102
RTVSPropertyOp2
 70
     1
102
RTVSPropertyOp3
 70
     1
102
RTVSPropertyOp4
 70
     1
102
RTVSPropertyOp5
 70
     1
102
RTVSPropertyOp6
 70
     1
102
RTVSPropertyOp7
 70
     1
102
RTVSPropertyOp8
 70
     1
102
RTVSPropertyOp9
 70
     1
102
RTVSPropertyOp10
 70
     1
102
RTVSPropertyOp11
 70
     1
102
RTVSPropertyOp12
 70
     1
102
RTVSPropertyOp13
 70
     1
102
RTVSPropertyOp14
 70
     1
102
RTVSPropertyOp15
 70
     1
102
RTVSPropertyOp16
 70
     1
102
RTVSPropertyOp17
 70
     1
102
RTVSPropertyOp18
 70
     1
102
RTVSPropertyOp19
 70
     1
102
RTVSPropertyOp20
 70
     1
102
RTVSPropertyOp21
 70
     1
102
RTVSPropertyOp22
 70
     1
102
RTVSPropertyOp23
 70
     1
102
RTVSPropertyOp24
 70
     1
102
RTVSPropertyOp25
 70
     1
102
RTVSPropertyOp26
 70
     1
102
RTVSPropertyOp27
 70
     1
102
RTVSPropertyOp28
 70
     1
102
RTVSPropertyOp29
 70
     1
102
RTVSPropertyOp30
 70
     1
102
RTVSPropertyOp31
 70
     1
102
RTVSPropertyOp32
 70
     1
102
RTVSPropertyOp33
 70
     1
102
RTVSPropertyOp34
 70
     1
102
RTVSPropertyOp35
 70
     1
102
RTVSPropertyOp36
 70
     1
102
RTVSPropertyOp37
 70
     1
102
RTVSPropertyOp38
 70
     1
102
RTVSPropertyOp39
 70
     1
102
RTVSPropertyOp40
 70
     1
102
RTVSPropertyOp41
 70
     1
102
RTVSPropertyOp42
 70
     1
102
RTVSPropertyOp43
 70
     1
102
RTVSPropertyOp44
 70
     1
102
RTVSPropertyOp45
 70
     1
102
RTVSPropertyOp46
 70
     1
102
RTVSPropertyOp47
 70
     1
102
RTVSPropertyOp48
 70
     1
102
RTVSPropertyOp49
 70
     1
102
RTVSPropertyOp50
 70
     1
102
RTVSPropertyOp51
 70
     0
102
RTVSPropertyOp52
 70
     0
102
RTVSPropertyOp53
 70
     1
102
RTVSPropertyOp54
 70
     1
102
RTVSPropertyOp55
 70
     1
102
RTVSPropertyOp56
 70
     1
102
RTVSPropertyOp57
 70
     1
102
RTVSPost2010Prop28
280
     0
102
RTVSPost2010PropOp28
 70
     1
102
RTVSPost2010Prop29
280
     1
102
RTVSPost2010PropOp29
 70
     1
102
RTVSPost2010Prop30
280
     1
102
RTVSPost2010PropOp30
 70
     1
102
RTVSPost2010Prop31
280
     0
102
RTVSPost2010PropOp31
 70
     1
102
RTVSPost2010Prop32
280
     0
102
RTVSPost2010PropOp32
 70
     1
102
RTVSPost2010Prop33
280
     0
102
RTVSPost2010PropOp33
 70
     1
102
RTVSPost2010Prop34
280
     0
102
RTVSPost2010PropOp34
 70
     1
102
RTVSPost2010Prop35
280
     0
102
RTVSPost2010PropOp35
 70
     1
102
RTVSPost2010Prop36
280
     0
102
RTVSPost2010PropOp36
 70
     1
102
RTVSPost2010Prop37
 90
       50
102
RTVSPost2010PropOp37
 70
     1
102
RTVSPost2010Prop38
140
0.0
102
RTVSPost2010PropOp38
 70
     1
102
RTVSPost2010Prop39
140
1.0
102
RTVSPost2010PropOp39
 70
     1
102
RTVSPost2010Prop40
 90
        0
102
RTVSPost2010PropOp40
 70
     1
102
RTVSPost2010Prop41ColorIndex
 90
       18
102
RTVSPost2010Prop41ColorRGB
 90
        0
102
RTVSPost2010PropOp41
 70
     1
102
RTVSPost2010Prop42
 90
       50
102
RTVSPost2010PropOp42
 70
     1
102
RTVSPost2010Prop43
 90
        3
102
RTVSPost2010PropOp43
 70
     1
102
RTVSPost2010Prop44ColorIndex
 90
        5
102
RTVSPost2010Prop44ColorRGB
 90
      255
102
RTVSPost2010PropOp44
 70
     1
102
RTVSPost2010Prop45
280
     0
102
RTVSPost2010PropOp45
 70
     1
102
RTVSPost2010Prop46
 90
       50
102
RTVSPost2010PropOp46
 70
     1
102
RTVSPost2010Prop47
 90
       50
102
RTVSPost2010PropOp47
 70
     1
102
RTVSPost2010Prop48
 90
       50
102
RTVSPost2010PropOp48
 70
     1
102
RTVSPost2010Prop49
280
     0
102
RTVSPost2010PropOp49
 70
     1
102
RTVSPost2010Prop50
 90
       50
102
RTVSPost2010PropOp50
 70
     1
102
RTVSPost2010Prop51ColorIndex
 90
      256
102
RTVSPost2010Prop51ColorRGB
 90
-16777216
102
RTVSPost2010PropOp51
 70
     0
102
RTVSPost2010Prop52
140
1.0
102
RTVSPost2010PropOp52
 70
     0
102
RTVSPost2010Prop53
 90
        2
102
RTVSPost2010PropOp53
 70
     1
102
RTVSPost2010Prop54
  1
strokes_ogs.tif
102
RTVSPost2010PropOp54
 70
     1
102
RTVSPost2010Prop55
280
     0
102
RTVSPost2010PropOp55
 70
     1
102
RTVSPost2010Prop56
140
1.0
102
RTVSPost2010PropOp56
 70
     1
102
RTVSPost2010Prop57
140
1.0
102
RTVSPost2010PropOp57
 70
     1
  0
XRECORD
  5
36E
102
{ACAD_REACTORS
330
36D
102
}
330
36D
100
AcDbXrecord
280
     1
102
RTVSPropertyOp0
 70
     1
102
RTVSPropertyOp1
 70
     1
102
RTVSPropertyOp2
 70
     1
102
RTVSPropertyOp3
 70
     1
102
RTVSPropertyOp4
 70
     1
102
RTVSPropertyOp5
 70
     1
102
RTVSPropertyOp6
 70
     1
102
RTVSPropertyOp7
 70
     1
102
RTVSPropertyOp8
 70
     1
102
RTVSPropertyOp9
 70
     1
102
RTVSPropertyOp10
 70
     1
102
RTVSPropertyOp11
 70
     1
102
RTVSPropertyOp12
 70
     1
102
RTVSPropertyOp13
 70
     1
102
RTVSPropertyOp14
 70
     1
102
RTVSPropertyOp15
 70
     1
102
RTVSPropertyOp16
 70
     1
102
RTVSPropertyOp17
 70
     1
102
RTVSPropertyOp18
 70
     1
102
RTVSPropertyOp19
 70
     1
102
RTVSPropertyOp20
 70
     1
102
RTVSPropertyOp21
 70
     1
102
RTVSPropertyOp22
 70
     1
102
RTVSPropertyOp23
 70
     1
102
RTVSPropertyOp24
 70
     1
102
RTVSPropertyOp25
 70
     1
102
RTVSPropertyOp26
 70
     1
102
RTVSPropertyOp27
 70
     1
102
RTVSPropertyOp28
 70
     1
102
RTVSPropertyOp29
 70
     1
102
RTVSPropertyOp30
 70
     1
102
RTVSPropertyOp31
 70
     1
102
RTVSPropertyOp32
 70
     1
102
RTVSPropertyOp33
 70
     1
102
RTVSPropertyOp34
 70
     1
102
RTVSPropertyOp35
 70
     1
102
RTVSPropertyOp36
 70
     1
102
RTVSPropertyOp37
 70
     1
102
RTVSPropertyOp38
 70
     1
102
RTVSPropertyOp39
 70
     1
102
RTVSPropertyOp40
 70
     1
102
RTVSPropertyOp41
 70
     1
102
RTVSPropertyOp42
 70
     1
102
RTVSPropertyOp43
 70
     1
102
RTVSPropertyOp44
 70
     1
102
RTVSPropertyOp45
 70
     1
102
RTVSPropertyOp46
 70
     1
102
RTVSPropertyOp47
 70
     1
102
RTVSPropertyOp48
 70
     1
102
RTVSPropertyOp49
 70
     1
102
RTVSPropertyOp50
 70
     1
102
RTVSPropertyOp51
 70
     0
102
RTVSPropertyOp52
 70
     0
102
RTVSPropertyOp53
 70
     1
102
RTVSPropertyOp54
 70
     1
102
RTVSPropertyOp55
 70
     1
102
RTVSPropertyOp56
 70
     1
102
RTVSPropertyOp57
 70
     1
102
RTVSPost2010Prop28
280
     0
102
RTVSPost2010PropOp28
 70
     1
102
RTVSPost2010Prop29
280
     1
102
RTVSPost2010PropOp29
 70
     1
102
RTVSPost2010Prop30
280
     1
102
RTVSPost2010PropOp30
 70
     1
102
RTVSPost2010Prop31
280
     0
102
RTVSPost2010PropOp31
 70
     1
102
RTVSPost2010Prop32
280
     0
102
RTVSPost2010PropOp32
 70
     1
102
RTVSPost2010Prop33
280
     0
102
RTVSPost2010PropOp33
 70
     1
102
RTVSPost2010Prop34
280
     0
102
RTVSPost2010PropOp34
 70
     1
102
RTVSPost2010Prop35
280
     0
102
RTVSPost2010PropOp35
 70
     1
102
RTVSPost2010Prop36
280
     0
102
RTVSPost2010PropOp36
 70
     1
102
RTVSPost2010Prop37
 90
       50
102
RTVSPost2010PropOp37
 70
     1
102
RTVSPost2010Prop38
140
0.0
102
RTVSPost2010PropOp38
 70
     1
102
RTVSPost2010Prop39
140
1.0
102
RTVSPost2010PropOp39
 70
     1
102
RTVSPost2010Prop40
 90
        0
102
RTVSPost2010PropOp40
 70
     1
102
RTVSPost2010Prop41ColorIndex
 90
       18
102
RTVSPost2010Prop41ColorRGB
 90
        0
102
RTVSPost2010PropOp41
 70
     1
102
RTVSPost2010Prop42
 90
       50
102
RTVSPost2010PropOp42
 70
     1
102
RTVSPost2010Prop43
 90
        3
102
RTVSPost2010PropOp43
 70
     1
102
RTVSPost2010Prop44ColorIndex
 90
        5
102
RTVSPost2010Prop44ColorRGB
 90
      255
102
RTVSPost2010PropOp44
 70
     1
102
RTVSPost2010Prop45
280
     0
102
RTVSPost2010PropOp45
 70
     1
102
RTVSPost2010Prop46
 90
       50
102
RTVSPost2010PropOp46
 70
     1
102
RTVSPost2010Prop47
 90
       50
102
RTVSPost2010PropOp47
 70
     1
102
RTVSPost2010Prop48
 90
       50
102
RTVSPost2010PropOp48
 70
     1
102
RTVSPost2010Prop49
280
     0
102
RTVSPost2010PropOp49
 70
     1
102
RTVSPost2010Prop50
 90
       50
102
RTVSPost2010PropOp50
 70
     1
102
RTVSPost2010Prop51ColorIndex
 90
      256
102
RTVSPost2010Prop51ColorRGB
 90
-16777216
102
RTVSPost2010PropOp51
 70
     0
102
RTVSPost2010Prop52
140
1.0
102
RTVSPost2010PropOp52
 70
     0
102
RTVSPost2010Prop53
 90
        2
102
RTVSPost2010PropOp53
 70
     1
102
RTVSPost2010Prop54
  1
strokes_ogs.tif
102
RTVSPost2010PropOp54
 70
     1
102
RTVSPost2010Prop55
280
     0
102
RTVSPost2010PropOp55
 70
     1
102
RTVSPost2010Prop56
140
1.0
102
RTVSPost2010PropOp56
 70
     1
102
RTVSPost2010Prop57
140
1.0
102
RTVSPost2010PropOp57
 70
     1
  0
XRECORD
  5
35E
102
{ACAD_REACTORS
330
35D
102
}
330
35D
100
AcDbXrecord
280
     1
102
RTVSPropertyOp0
 70
     1
102
RTVSPropertyOp1
 70
     1
102
RTVSPropertyOp2
 70
     1
102
RTVSPropertyOp3
 70
     1
102
RTVSPropertyOp4
 70
     1
102
RTVSPropertyOp5
 70
     1
102
RTVSPropertyOp6
 70
     1
102
RTVSPropertyOp7
 70
     1
102
RTVSPropertyOp8
 70
     1
102
RTVSPropertyOp9
 70
     1
102
RTVSPropertyOp10
 70
     1
102
RTVSPropertyOp11
 70
     1
102
RTVSPropertyOp12
 70
     1
102
RTVSPropertyOp13
 70
     1
102
RTVSPropertyOp14
 70
     1
102
RTVSPropertyOp15
 70
     1
102
RTVSPropertyOp16
 70
     1
102
RTVSPropertyOp17
 70
     1
102
RTVSPropertyOp18
 70
     1
102
RTVSPropertyOp19
 70
     1
102
RTVSPropertyOp20
 70
     1
102
RTVSPropertyOp21
 70
     1
102
RTVSPropertyOp22
 70
     1
102
RTVSPropertyOp23
 70
     1
102
RTVSPropertyOp24
 70
     1
102
RTVSPropertyOp25
 70
     1
102
RTVSPropertyOp26
 70
     1
102
RTVSPropertyOp27
 70
     1
102
RTVSPropertyOp28
 70
     1
102
RTVSPropertyOp29
 70
     1
102
RTVSPropertyOp30
 70
     1
102
RTVSPropertyOp31
 70
     1
102
RTVSPropertyOp32
 70
     1
102
RTVSPropertyOp33
 70
     1
102
RTVSPropertyOp34
 70
     1
102
RTVSPropertyOp35
 70
     1
102
RTVSPropertyOp36
 70
     1
102
RTVSPropertyOp37
 70
     1
102
RTVSPropertyOp38
 70
     1
102
RTVSPropertyOp39
 70
     1
102
RTVSPropertyOp40
 70
     1
102
RTVSPropertyOp41
 70
     1
102
RTVSPropertyOp42
 70
     1
102
RTVSPropertyOp43
 70
     1
102
RTVSPropertyOp44
 70
     1
102
RTVSPropertyOp45
 70
     1
102
RTVSPropertyOp46
 70
     1
102
RTVSPropertyOp47
 70
     1
102
RTVSPropertyOp48
 70
     1
102
RTVSPropertyOp49
 70
     1
102
RTVSPropertyOp50
 70
     1
102
RTVSPropertyOp51
 70
     0
102
RTVSPropertyOp52
 70
     0
102
RTVSPropertyOp53
 70
     1
102
RTVSPropertyOp54
 70
     1
102
RTVSPropertyOp55
 70
     1
102
RTVSPropertyOp56
 70
     1
102
RTVSPropertyOp57
 70
     1
102
RTVSPost2010Prop28
280
     0
102
RTVSPost2010PropOp28
 70
     1
102
RTVSPost2010Prop29
280
     1
102
RTVSPost2010PropOp29
 70
     1
102
RTVSPost2010Prop30
280
     1
102
RTVSPost2010PropOp30
 70
     1
102
RTVSPost2010Prop31
280
     0
102
RTVSPost2010PropOp31
 70
     1
102
RTVSPost2010Prop32
280
     0
102
RTVSPost2010PropOp32
 70
     1
102
RTVSPost2010Prop33
280
     0
102
RTVSPost2010PropOp33
 70
     1
102
RTVSPost2010Prop34
280
     0
102
RTVSPost2010PropOp34
 70
     1
102
RTVSPost2010Prop35
280
     0
102
RTVSPost2010PropOp35
 70
     1
102
RTVSPost2010Prop36
280
     0
102
RTVSPost2010PropOp36
 70
     1
102
RTVSPost2010Prop37
 90
       50
102
RTVSPost2010PropOp37
 70
     1
102
RTVSPost2010Prop38
140
0.0
102
RTVSPost2010PropOp38
 70
     1
102
RTVSPost2010Prop39
140
1.0
102
RTVSPost2010PropOp39
 70
     1
102
RTVSPost2010Prop40
 90
        0
102
RTVSPost2010PropOp40
 70
     1
102
RTVSPost2010Prop41ColorIndex
 90
       18
102
RTVSPost2010Prop41ColorRGB
 90
        0
102
RTVSPost2010PropOp41
 70
     1
102
RTVSPost2010Prop42
 90
       50
102
RTVSPost2010PropOp42
 70
     1
102
RTVSPost2010Prop43
 90
        3
102
RTVSPost2010PropOp43
 70
     1
102
RTVSPost2010Prop44ColorIndex
 90
        5
102
RTVSPost2010Prop44ColorRGB
 90
      255
102
RTVSPost2010PropOp44
 70
     1
102
RTVSPost2010Prop45
280
     0
102
RTVSPost2010PropOp45
 70
     1
102
RTVSPost2010Prop46
 90
       50
102
RTVSPost2010PropOp46
 70
     1
102
RTVSPost2010Prop47
 90
       50
102
RTVSPost2010PropOp47
 70
     1
102
RTVSPost2010Prop48
 90
       50
102
RTVSPost2010PropOp48
 70
     1
102
RTVSPost2010Prop49
280
     0
102
RTVSPost2010PropOp49
 70
     1
102
RTVSPost2010Prop50
 90
       50
102
RTVSPost2010PropOp50
 70
     1
102
RTVSPost2010Prop51ColorIndex
 90
      256
102
RTVSPost2010Prop51ColorRGB
 90
-16777216
102
RTVSPost2010PropOp51
 70
     0
102
RTVSPost2010Prop52
140
1.0
102
RTVSPost2010PropOp52
 70
     0
102
RTVSPost2010Prop53
 90
        2
102
RTVSPost2010PropOp53
 70
     1
102
RTVSPost2010Prop54
  1
strokes_ogs.tif
102
RTVSPost2010PropOp54
 70
     1
102
RTVSPost2010Prop55
280
     0
102
RTVSPost2010PropOp55
 70
     1
102
RTVSPost2010Prop56
140
1.0
102
RTVSPost2010PropOp56
 70
     1
102
RTVSPost2010Prop57
140
1.0
102
RTVSPost2010PropOp57
 70
     1
  0
XRECORD
  5
350
102
{ACAD_REACTORS
330
34F
102
}
330
34F
100
AcDbXrecord
280
     1
102
RTVSPropertyOp0
 70
     1
102
RTVSPropertyOp1
 70
     1
102
RTVSPropertyOp2
 70
     1
102
RTVSPropertyOp3
 70
     1
102
RTVSPropertyOp4
 70
     1
102
RTVSPropertyOp5
 70
     1
102
RTVSPropertyOp6
 70
     1
102
RTVSPropertyOp7
 70
     1
102
RTVSPropertyOp8
 70
     1
102
RTVSPropertyOp9
 70
     1
102
RTVSPropertyOp10
 70
     1
102
RTVSPropertyOp11
 70
     1
102
RTVSPropertyOp12
 70
     1
102
RTVSPropertyOp13
 70
     1
102
RTVSPropertyOp14
 70
     1
102
RTVSPropertyOp15
 70
     1
102
RTVSPropertyOp16
 70
     1
102
RTVSPropertyOp17
 70
     1
102
RTVSPropertyOp18
 70
     1
102
RTVSPropertyOp19
 70
     1
102
RTVSPropertyOp20
 70
     1
102
RTVSPropertyOp21
 70
     1
102
RTVSPropertyOp22
 70
     1
102
RTVSPropertyOp23
 70
     1
102
RTVSPropertyOp24
 70
     1
102
RTVSPropertyOp25
 70
     1
102
RTVSPropertyOp26
 70
     1
102
RTVSPropertyOp27
 70
     1
102
RTVSPropertyOp28
 70
     1
102
RTVSPropertyOp29
 70
     1
102
RTVSPropertyOp30
 70
     1
102
RTVSPropertyOp31
 70
     1
102
RTVSPropertyOp32
 70
     1
102
RTVSPropertyOp33
 70
     1
102
RTVSPropertyOp34
 70
     1
102
RTVSPropertyOp35
 70
     1
102
RTVSPropertyOp36
 70
     1
102
RTVSPropertyOp37
 70
     1
102
RTVSPropertyOp38
 70
     1
102
RTVSPropertyOp39
 70
     1
102
RTVSPropertyOp40
 70
     1
102
RTVSPropertyOp41
 70
     1
102
RTVSPropertyOp42
 70
     1
102
RTVSPropertyOp43
 70
     1
102
RTVSPropertyOp44
 70
     1
102
RTVSPropertyOp45
 70
     1
102
RTVSPropertyOp46
 70
     1
102
RTVSPropertyOp47
 70
     1
102
RTVSPropertyOp48
 70
     1
102
RTVSPropertyOp49
 70
     1
102
RTVSPropertyOp50
 70
     1
102
RTVSPropertyOp51
 70
     0
102
RTVSPropertyOp52
 70
     0
102
RTVSPropertyOp53
 70
     1
102
RTVSPropertyOp54
 70
     1
102
RTVSPropertyOp55
 70
     1
102
RTVSPropertyOp56
 70
     1
102
RTVSPropertyOp57
 70
     1
102
RTVSPost2010Prop28
280
     0
102
RTVSPost2010PropOp28
 70
     1
102
RTVSPost2010Prop29
280
     1
102
RTVSPost2010PropOp29
 70
     1
102
RTVSPost2010Prop30
280
     1
102
RTVSPost2010PropOp30
 70
     1
102
RTVSPost2010Prop31
280
     0
102
RTVSPost2010PropOp31
 70
     1
102
RTVSPost2010Prop32
280
     0
102
RTVSPost2010PropOp32
 70
     1
102
RTVSPost2010Prop33
280
     0
102
RTVSPost2010PropOp33
 70
     1
102
RTVSPost2010Prop34
280
     0
102
RTVSPost2010PropOp34
 70
     1
102
RTVSPost2010Prop35
280
     0
102
RTVSPost2010PropOp35
 70
     1
102
RTVSPost2010Prop36
280
     0
102
RTVSPost2010PropOp36
 70
     1
102
RTVSPost2010Prop37
 90
       50
102
RTVSPost2010PropOp37
 70
     1
102
RTVSPost2010Prop38
140
0.0
102
RTVSPost2010PropOp38
 70
     1
102
RTVSPost2010Prop39
140
1.0
102
RTVSPost2010PropOp39
 70
     1
102
RTVSPost2010Prop40
 90
        0
102
RTVSPost2010PropOp40
 70
     1
102
RTVSPost2010Prop41ColorIndex
 90
       18
102
RTVSPost2010Prop41ColorRGB
 90
        0
102
RTVSPost2010PropOp41
 70
     1
102
RTVSPost2010Prop42
 90
       50
102
RTVSPost2010PropOp42
 70
     1
102
RTVSPost2010Prop43
 90
        3
102
RTVSPost2010PropOp43
 70
     1
102
RTVSPost2010Prop44ColorIndex
 90
        5
102
RTVSPost2010Prop44ColorRGB
 90
      255
102
RTVSPost2010PropOp44
 70
     1
102
RTVSPost2010Prop45
280
     0
102
RTVSPost2010PropOp45
 70
     1
102
RTVSPost2010Prop46
 90
       50
102
RTVSPost2010PropOp46
 70
     1
102
RTVSPost2010Prop47
 90
       50
102
RTVSPost2010PropOp47
 70
     1
102
RTVSPost2010Prop48
 90
       50
102
RTVSPost2010PropOp48
 70
     1
102
RTVSPost2010Prop49
280
     0
102
RTVSPost2010PropOp49
 70
     1
102
RTVSPost2010Prop50
 90
       50
102
RTVSPost2010PropOp50
 70
     1
102
RTVSPost2010Prop51ColorIndex
 90
      256
102
RTVSPost2010Prop51ColorRGB
 90
-16777216
102
RTVSPost2010PropOp51
 70
     0
102
RTVSPost2010Prop52
140
1.0
102
RTVSPost2010PropOp52
 70
     0
102
RTVSPost2010Prop53
 90
        2
102
RTVSPost2010PropOp53
 70
     1
102
RTVSPost2010Prop54
  1
strokes_ogs.tif
102
RTVSPost2010PropOp54
 70
     1
102
RTVSPost2010Prop55
280
     0
102
RTVSPost2010PropOp55
 70
     1
102
RTVSPost2010Prop56
140
1.0
102
RTVSPost2010PropOp56
 70
     1
102
RTVSPost2010Prop57
140
1.0
102
RTVSPost2010PropOp57
 70
     1
  0
XRECORD
  5
370
102
{ACAD_REACTORS
330
36F
102
}
330
36F
100
AcDbXrecord
280
     1
102
RTVSPropertyOp0
 70
     1
102
RTVSPropertyOp1
 70
     1
102
RTVSPropertyOp2
 70
     1
102
RTVSPropertyOp3
 70
     1
102
RTVSPropertyOp4
 70
     1
102
RTVSPropertyOp5
 70
     1
102
RTVSPropertyOp6
 70
     1
102
RTVSPropertyOp7
 70
     1
102
RTVSPropertyOp8
 70
     1
102
RTVSPropertyOp9
 70
     1
102
RTVSPropertyOp10
 70
     1
102
RTVSPropertyOp11
 70
     1
102
RTVSPropertyOp12
 70
     1
102
RTVSPropertyOp13
 70
     1
102
RTVSPropertyOp14
 70
     1
102
RTVSPropertyOp15
 70
     1
102
RTVSPropertyOp16
 70
     1
102
RTVSPropertyOp17
 70
     1
102
RTVSPropertyOp18
 70
     1
102
RTVSPropertyOp19
 70
     1
102
RTVSPropertyOp20
 70
     1
102
RTVSPropertyOp21
 70
     1
102
RTVSPropertyOp22
 70
     1
102
RTVSPropertyOp23
 70
     1
102
RTVSPropertyOp24
 70
     1
102
RTVSPropertyOp25
 70
     1
102
RTVSPropertyOp26
 70
     1
102
RTVSPropertyOp27
 70
     1
102
RTVSPropertyOp28
 70
     1
102
RTVSPropertyOp29
 70
     1
102
RTVSPropertyOp30
 70
     1
102
RTVSPropertyOp31
 70
     1
102
RTVSPropertyOp32
 70
     1
102
RTVSPropertyOp33
 70
     1
102
RTVSPropertyOp34
 70
     1
102
RTVSPropertyOp35
 70
     1
102
RTVSPropertyOp36
 70
     1
102
RTVSPropertyOp37
 70
     1
102
RTVSPropertyOp38
 70
     1
102
RTVSPropertyOp39
 70
     1
102
RTVSPropertyOp40
 70
     1
102
RTVSPropertyOp41
 70
     1
102
RTVSPropertyOp42
 70
     1
102
RTVSPropertyOp43
 70
     1
102
RTVSPropertyOp44
 70
     1
102
RTVSPropertyOp45
 70
     1
102
RTVSPropertyOp46
 70
     1
102
RTVSPropertyOp47
 70
     1
102
RTVSPropertyOp48
 70
     1
102
RTVSPropertyOp49
 70
     1
102
RTVSPropertyOp50
 70
     1
102
RTVSPropertyOp51
 70
     0
102
RTVSPropertyOp52
 70
     0
102
RTVSPropertyOp53
 70
     1
102
RTVSPropertyOp54
 70
     1
102
RTVSPropertyOp55
 70
     1
102
RTVSPropertyOp56
 70
     1
102
RTVSPropertyOp57
 70
     1
102
RTVSPost2010Prop28
280
     0
102
RTVSPost2010PropOp28
 70
     1
102
RTVSPost2010Prop29
280
     1
102
RTVSPost2010PropOp29
 70
     1
102
RTVSPost2010Prop30
280
     1
102
RTVSPost2010PropOp30
 70
     1
102
RTVSPost2010Prop31
280
     0
102
RTVSPost2010PropOp31
 70
     1
102
RTVSPost2010Prop32
280
     0
102
RTVSPost2010PropOp32
 70
     1
102
RTVSPost2010Prop33
280
     0
102
RTVSPost2010PropOp33
 70
     1
102
RTVSPost2010Prop34
280
     0
102
RTVSPost2010PropOp34
 70
     1
102
RTVSPost2010Prop35
280
     0
102
RTVSPost2010PropOp35
 70
     1
102
RTVSPost2010Prop36
280
     0
102
RTVSPost2010PropOp36
 70
     1
102
RTVSPost2010Prop37
 90
       50
102
RTVSPost2010PropOp37
 70
     1
102
RTVSPost2010Prop38
140
0.0
102
RTVSPost2010PropOp38
 70
     1
102
RTVSPost2010Prop39
140
1.0
102
RTVSPost2010PropOp39
 70
     1
102
RTVSPost2010Prop40
 90
        0
102
RTVSPost2010PropOp40
 70
     1
102
RTVSPost2010Prop41ColorIndex
 90
       18
102
RTVSPost2010Prop41ColorRGB
 90
        0
102
RTVSPost2010PropOp41
 70
     1
102
RTVSPost2010Prop42
 90
       50
102
RTVSPost2010PropOp42
 70
     1
102
RTVSPost2010Prop43
 90
        3
102
RTVSPost2010PropOp43
 70
     1
102
RTVSPost2010Prop44ColorIndex
 90
        5
102
RTVSPost2010Prop44ColorRGB
 90
      255
102
RTVSPost2010PropOp44
 70
     1
102
RTVSPost2010Prop45
280
     0
102
RTVSPost2010PropOp45
 70
     1
102
RTVSPost2010Prop46
 90
       50
102
RTVSPost2010PropOp46
 70
     1
102
RTVSPost2010Prop47
 90
       50
102
RTVSPost2010PropOp47
 70
     1
102
RTVSPost2010Prop48
 90
       50
102
RTVSPost2010PropOp48
 70
     1
102
RTVSPost2010Prop49
280
     0
102
RTVSPost2010PropOp49
 70
     1
102
RTVSPost2010Prop50
 90
       50
102
RTVSPost2010PropOp50
 70
     1
102
RTVSPost2010Prop51ColorIndex
 90
      256
102
RTVSPost2010Prop51ColorRGB
 90
-16777216
102
RTVSPost2010PropOp51
 70
     0
102
RTVSPost2010Prop52
140
1.0
102
RTVSPost2010PropOp52
 70
     0
102
RTVSPost2010Prop53
 90
        2
102
RTVSPost2010PropOp53
 70
     1
102
RTVSPost2010Prop54
  1
strokes_ogs.tif
102
RTVSPost2010PropOp54
 70
     1
102
RTVSPost2010Prop55
280
     0
102
RTVSPost2010PropOp55
 70
     1
102
RTVSPost2010Prop56
140
1.0
102
RTVSPost2010PropOp56
 70
     1
102
RTVSPost2010Prop57
140
1.0
102
RTVSPost2010PropOp57
 70
     1
  0
ENDSEC
  0
EOF
