  0
SECTION
  2
HEADER
  9
$ACADVER
  1
AC1018
  9
$ACADMAINTVER
 70
     0
  9
$DWGCODEPAGE
  3
ANSI_932
  9
$INSBASE
 10
0.0
 20
0.0
 30
0.0
  9
$EXTMIN
 10
-1260.0
 20
-891.0
 30
0.0
  9
$EXTMAX
 10
1260.0
 20
891.0
 30
0.0
  9
$LIMMIN
 10
-1260.0
 20
-891.0
  9
$LIMMAX
 10
1260.0
 20
891.0
  9
$ORTHOMODE
 70
     0
  9
$REGENMODE
 70
     1
  9
$FILLMODE
 70
     1
  9
$QTEXTMODE
 70
     0
  9
$MIRRTEXT
 70
     1
  9
$LTSCALE
 40
6.0
  9
$ATTMODE
 70
     1
  9
$TEXTSIZE
 40
2.5
  9
$TRACEWID
 40
1.0
  9
$TEXTSTYLE
  7
Standard
  9
$CLAYER
  8
0
  9
$CELTYPE
  6
ByLayer
  9
$CECOLOR
 62
   256
  9
$CELTSCALE
 40
1.0
  9
$DISPSILH
 70
     0
  9
$DIMSCALE
 40
1.0
  9
$DIMASZ
 40
2.5
  9
$DIMEXO
 40
0.625
  9
$DIMDLI
 40
3.75
  9
$DIMRND
 40
0.0
  9
$DIMDLE
 40
0.0
  9
$DIMEXE
 40
1.25
  9
$DIMTP
 40
0.0
  9
$DIMTM
 40
0.0
  9
$DIMTXT
 40
2.5
  9
$DIMCEN
 40
2.5
  9
$DIMTSZ
 40
0.0
  9
$DIMTOL
 70
     0
  9
$DIMLIM
 70
     0
  9
$DIMTIH
 70
     0
  9
$DIMTOH
 70
     0
  9
$DIMSE1
 70
     0
  9
$DIMSE2
 70
     0
  9
$DIMTAD
 70
     1
  9
$DIMZIN
 70
     8
  9
$DIMBLK
  1

  9
$DIMASO
 70
     1
  9
$DIMSHO
 70
     1
  9
$DIMPOST
  1

  9
$DIMAPOST
  1

  9
$DIMALT
 70
     0
  9
$DIMALTD
 70
     3
  9
$DIMALTF
 40
0.03937007874016
  9
$DIMLFAC
 40
1.0
  9
$DIMTOFL
 70
     1
  9
$DIMTVP
 40
0.0
  9
$DIMTIX
 70
     0
  9
$DIMSOXD
 70
     0
  9
$DIMSAH
 70
     0
  9
$DIMBLK1
  1

  9
$DIMBLK2
  1

  9
$DIMSTYLE
  2
ISO-25
  9
$DIMCLRD
 70
     0
  9
$DIMCLRE
 70
     0
  9
$DIMCLRT
 70
     0
  9
$DIMTFAC
 40
1.0
  9
$DIMGAP
 40
0.625
  9
$DIMJUST
 70
     0
  9
$DIMSD1
 70
     0
  9
$DIMSD2
 70
     0
  9
$DIMTOLJ
 70
     0
  9
$DIMTZIN
 70
     8
  9
$DIMALTZ
 70
     0
  9
$DIMALTTZ
 70
     0
  9
$DIMUPT
 70
     0
  9
$DIMDEC
 70
     2
  9
$DIMTDEC
 70
     2
  9
$DIMALTU
 70
     2
  9
$DIMALTTD
 70
     3
  9
$DIMTXSTY
  7
Standard
  9
$DIMAUNIT
 70
     0
  9
$DIMADEC
 70
     0
  9
$DIMALTRND
 40
0.0
  9
$DIMAZIN
 70
     0
  9
$DIMDSEP
 70
    44
  9
$DIMATFIT
 70
     3
  9
$DIMFRAC
 70
     0
  9
$DIMLDRBLK
  1

  9
$DIMLUNIT
 70
     2
  9
$DIMLWD
 70
    -2
  9
$DIMLWE
 70
    -2
  9
$DIMTMOVE
 70
     0
  9
$LUNITS
 70
     2
  9
$LUPREC
 70
     4
  9
$SKETCHINC
 40
1.0
  9
$FILLETRAD
 40
10.0
  9
$AUNITS
 70
     0
  9
$AUPREC
 70
     0
  9
$MENU
  1
.
  9
$ELEVATION
 40
0.0
  9
$PELEVATION
 40
0.0
  9
$THICKNESS
 40
0.0
  9
$LIMCHECK
 70
     0
  9
$CHAMFERA
 40
10.0
  9
$CHAMFERB
 40
10.0
  9
$CHAMFERC
 40
20.0
  9
$CHAMFERD
 40
0.0
  9
$SKPOLY
 70
     0
  9
$TDCREATE
 40
2457422.384288114
  9
$TDUCREATE
 40
2457422.009288114
  9
$TDUPDATE
 40
2457422.384288125
  9
$TDUUPDATE
 40
2457422.009288125
  9
$TDINDWG
 40
0.0000000116
  9
$TDUSRTIMER
 40
0.0000000116
  9
$USRTIMER
 70
     1
  9
$ANGBASE
 50
0.0
  9
$ANGDIR
 70
     0
  9
$PDMODE
 70
     0
  9
$PDSIZE
 40
0.0
  9
$PLINEWID
 40
0.0
  9
$SPLFRAME
 70
     0
  9
$SPLINETYPE
 70
     6
  9
$SPLINESEGS
 70
     8
  9
$HANDSEED
  5
4E9
  9
$SURFTAB1
 70
     6
  9
$SURFTAB2
 70
     6
  9
$SURFTYPE
 70
     6
  9
$SURFU
 70
     6
  9
$SURFV
 70
     6
  9
$UCSBASE
  2

  9
$UCSNAME
  2

  9
$UCSORG
 10
0.0
 20
0.0
 30
0.0
  9
$UCSXDIR
 10
1.0
 20
0.0
 30
0.0
  9
$UCSYDIR
 10
0.0
 20
1.0
 30
0.0
  9
$UCSORTHOREF
  2

  9
$UCSORTHOVIEW
 70
     0
  9
$UCSORGTOP
 10
0.0
 20
0.0
 30
0.0
  9
$UCSORGBOTTOM
 10
0.0
 20
0.0
 30
0.0
  9
$UCSORGLEFT
 10
0.0
 20
0.0
 30
0.0
  9
$UCSORGRIGHT
 10
0.0
 20
0.0
 30
0.0
  9
$UCSORGFRONT
 10
0.0
 20
0.0
 30
0.0
  9
$UCSORGBACK
 10
0.0
 20
0.0
 30
0.0
  9
$PUCSBASE
  2

  9
$PUCSNAME
  2

  9
$PUCSORG
 10
0.0
 20
0.0
 30
0.0
  9
$PUCSXDIR
 10
1.0
 20
0.0
 30
0.0
  9
$PUCSYDIR
 10
0.0
 20
1.0
 30
0.0
  9
$PUCSORTHOREF
  2

  9
$PUCSORTHOVIEW
 70
     0
  9
$PUCSORGTOP
 10
0.0
 20
0.0
 30
0.0
  9
$PUCSORGBOTTOM
 10
0.0
 20
0.0
 30
0.0
  9
$PUCSORGLEFT
 10
0.0
 20
0.0
 30
0.0
  9
$PUCSORGRIGHT
 10
0.0
 20
0.0
 30
0.0
  9
$PUCSORGFRONT
 10
0.0
 20
0.0
 30
0.0
  9
$PUCSORGBACK
 10
0.0
 20
0.0
 30
0.0
  9
$USERI1
 70
     0
  9
$USERI2
 70
     0
  9
$USERI3
 70
     0
  9
$USERI4
 70
     0
  9
$USERI5
 70
     0
  9
$USERR1
 40
0.0
  9
$USERR2
 40
0.0
  9
$USERR3
 40
0.0
  9
$USERR4
 40
0.0
  9
$USERR5
 40
0.0
  9
$WORLDVIEW
 70
     1
  9
$SHADEDGE
 70
     3
  9
$SHADEDIF
 70
    70
  9
$TILEMODE
 70
     1
  9
$MAXACTVP
 70
    64
  9
$PINSBASE
 10
0.0
 20
0.0
 30
0.0
  9
$PLIMCHECK
 70
     0
  9
$PEXTMIN
 10
1.000000000000000E+20
 20
1.000000000000000E+20
 30
1.000000000000000E+20
  9
$PEXTMAX
 10
-1.000000000000000E+20
 20
-1.000000000000000E+20
 30
-1.000000000000000E+20
  9
$PLIMMIN
 10
0.0
 20
0.0
  9
$PLIMMAX
 10
420.0
 20
297.0
  9
$UNITMODE
 70
     0
  9
$VISRETAIN
 70
     1
  9
$PLINEGEN
 70
     0
  9
$PSLTSCALE
 70
     1
  9
$TREEDEPTH
 70
  3020
  9
$CMLSTYLE
  2
Standard
  9
$CMLJUST
 70
     0
  9
$CMLSCALE
 40
20.0
  9
$PROXYGRAPHICS
 70
     1
  9
$MEASUREMENT
 70
     1
  9
$CELWEIGHT
370
    -1
  9
$ENDCAPS
280
     0
  9
$JOINSTYLE
280
     0
  9
$LWDISPLAY
290
     0
  9
$INSUNITS
 70
     4
  9
$HYPERLINKBASE
  1

  9
$STYLESHEET
  1

  9
$XEDIT
290
     1
  9
$CEPSNTYPE
380
     0
  9
$PSTYLEMODE
290
     1
  9
$FINGERPRINTGUID
  2
{354AB309-F062-4628-991B-74BE3041286A}
  9
$VERSIONGUID
  2
{FAEB1C32-E019-11D5-929B-00C0DF256EC4}
  9
$EXTNAMES
290
     1
  9
$PSVPSCALE
 40
0.0
  9
$OLESTARTUP
290
     0
  9
$SORTENTS
280
   127
  9
$INDEXCTL
280
     0
  9
$HIDETEXT
280
     1
  9
$XCLIPFRAME
290
     0
  9
$HALOGAP
280
     0
  9
$OBSCOLOR
 70
   257
  9
$OBSLTYPE
280
     0
  9
$INTERSECTIONDISPLAY
280
     0
  9
$INTERSECTIONCOLOR
 70
   257
  9
$DIMASSOC
280
     2
  9
$PROJECTNAME
  1

  0
ENDSEC
  0
SECTION
  2
CLASSES
  0
CLASS
  1
ACDBDICTIONARYWDFLT
  2
AcDbDictionaryWithDefault
  3
ObjectDBX Classes
 90
        0
 91
        4
280
     0
281
     0
  0
CLASS
  1
VISUALSTYLE
  2
AcDbVisualStyle
  3
ObjectDBX Classes
 90
     4095
 91
        4
280
     0
281
     0
  0
ENDSEC
  0
SECTION
  2
TABLES
  0
TABLE
  2
VPORT
  5
8
330
0
100
AcDbSymbolTable
 70
     1
  0
VPORT
  5
29
330
8
100
AcDbSymbolTableRecord
100
AcDbViewportTableRecord
  2
*Active
 70
     0
 10
0.0
 20
0.0
 11
1.0
 21
1.0
 12
0.0
 22
0.0
 13
0.0
 23
0.0
 14
10.0
 24
10.0
 15
10.0
 25
10.0
 16
0.0
 26
0.0
 36
1.0
 17
0.0
 27
0.0
 37
0.0
 40
1960.2
 41
1.414141414141414
 42
50.0
 43
0.0
 44
0.0
 50
0.0
 51
0.0
 71
     0
 72
 10000
 73
     1
 74
     3
 75
     0
 76
     0
 77
     0
 78
     0
281
     0
 65
     1
110
0.0
120
0.0
130
0.0
111
1.0
121
0.0
131
0.0
112
0.0
122
1.0
132
0.0
 79
     0
146
0.0
  0
ENDTAB
  0
TABLE
  2
LTYPE
  5
5
330
0
100
AcDbSymbolTable
 70
     3
  0
LTYPE
  5
14
330
5
100
AcDbSymbolTableRecord
100
AcDbLinetypeTableRecord
  2
ByBlock
 70
     0
  3

 72
    65
 73
     0
 40
0.0
  0
LTYPE
  5
15
330
5
100
AcDbSymbolTableRecord
100
AcDbLinetypeTableRecord
  2
ByLayer
 70
     0
  3

 72
    65
 73
     0
 40
0.0
  0
LTYPE
  5
16
330
5
100
AcDbSymbolTableRecord
100
AcDbLinetypeTableRecord
  2
Continuous
 70
     0
  3
Solid line
 72
    65
 73
     0
 40
0.0
  0
LTYPE
  5
3C
330
5
100
AcDbSymbolTableRecord
100
AcDbLinetypeTableRecord
  2
JWW_CENTER1
 70
     0
  3
-----  --  ----------  --  -----
 72
    65
 73
     4
 40
6.773333333333333
 49
4.233333333333333
 74
     0
 49
-0.8466666666666667
 74
     0
 49
0.8466666666666667
 74
     0
 49
-0.8466666666666667
 74
     0
  0
LTYPE
  5
3D
330
5
100
AcDbSymbolTableRecord
100
AcDbLinetypeTableRecord
  2
JWW_DASHED1
 70
     0
  3
-  --  --  --  --  --  --  --  -
 72
    65
 73
     2
 40
1.693333333333333
 49
0.8466666666666667
 74
     0
 49
-0.8466666666666667
 74
     0
  0
ENDTAB
  0
TABLE
  2
LAYER
  5
2
330
0
100
AcDbSymbolTable
 70
     7
  0
LAYER
  5
10
330
2
100
AcDbSymbolTableRecord
100
AcDbLayerTableRecord
  2
0
 70
     0
 62
     7
  6
Continuous
370
    -3
390
F
  0
LAYER
  5
3E
330
2
100
AcDbSymbolTableRecord
100
AcDbLayerTableRecord
  2
その他
 70
     0
 62
     7
  6
Continuous
370
    -3
390
F
  0
LAYER
  5
3F
330
2
100
AcDbSymbolTableRecord
100
AcDbLayerTableRecord
  2
躯体
 70
     0
 62
     7
  6
Continuous
370
    -3
390
F
  0
LAYER
  5
40
330
2
100
AcDbSymbolTableRecord
100
AcDbLayerTableRecord
  2
仕上
 70
     0
 62
     7
  6
Continuous
370
    -3
390
F
  0
LAYER
  5
41
330
2
100
AcDbSymbolTableRecord
100
AcDbLayerTableRecord
  2
建具
 70
     0
 62
     7
  6
Continuous
370
    -3
390
F
  0
LAYER
  5
42
330
2
100
AcDbSymbolTableRecord
100
AcDbLayerTableRecord
  2
0-E
 70
     0
 62
     7
  6
Continuous
370
    -3
390
F
  0
LAYER
  5
43
330
2
100
AcDbSymbolTableRecord
100
AcDbLayerTableRecord
  2
F-5ﾚｲﾔ
 70
     0
 62
     7
  6
Continuous
370
    -3
390
F
  0
ENDTAB
  0
TABLE
  2
STYLE
  5
3
330
0
100
AcDbSymbolTable
 70
     2
  0
STYLE
  5
11
330
3
100
AcDbSymbolTableRecord
100
AcDbTextStyleTableRecord
  2
Standard
 70
     0
 40
0.0
 41
1.0
 50
0.0
 71
     0
 42
2.5
  3
txt
  4

1001
ACAD
1000

1071
        0
  0
STYLE
  5
3B
330
3
100
AcDbSymbolTableRecord
100
AcDbTextStyleTableRecord
  2
ＭＳ ゴシック
 70
     0
 40
1.0
 41
1.0
 50
0.0
 71
     0
 42
10.0
  3

  4

1001
ACAD
1000
MS Gothic
1071
    32817
  0
ENDTAB
  0
TABLE
  2
VIEW
  5
6
330
0
100
AcDbSymbolTable
 70
     0
  0
ENDTAB
  0
TABLE
  2
UCS
  5
7
330
0
100
AcDbSymbolTable
 70
     0
  0
ENDTAB
  0
TABLE
  2
APPID
  5
9
330
0
100
AcDbSymbolTable
 70
     1
  0
APPID
  5
12
330
9
100
AcDbSymbolTableRecord
100
AcDbRegAppTableRecord
  2
ACAD
 70
     0
  0
ENDTAB
  0
TABLE
  2
DIMSTYLE
  5
A
330
0
100
AcDbSymbolTable
 70
     1
100
AcDbDimStyleTable
  0
DIMSTYLE
105
27
330
A
100
AcDbSymbolTableRecord
100
AcDbDimStyleTableRecord
  2
ISO-25
 70
     0
 41
2.5
 42
0.625
 43
3.75
 44
1.25
 73
     0
 74
     0
 77
     1
 78
     8
140
2.5
141
2.5
143
0.03937007874016
147
0.625
171
     3
172
     1
271
     2
272
     2
274
     3
278
    44
283
     0
284
     8
340
11
  0
ENDTAB
  0
TABLE
  2
BLOCK_RECORD
  5
1
330
0
100
AcDbSymbolTable
 70
     1
  0
BLOCK_RECORD
  5
1F
330
1
100
AcDbSymbolTableRecord
100
AcDbBlockTableRecord
  2
*Model_Space
340
22
  0
BLOCK_RECORD
  5
1B
330
1
100
AcDbSymbolTableRecord
100
AcDbBlockTableRecord
  2
*Paper_Space
340
1E
  0
BLOCK_RECORD
  5
23
330
1
100
AcDbSymbolTableRecord
100
AcDbBlockTableRecord
  2
*Paper_Space0
340
26
  0
ENDTAB
  0
ENDSEC
  0
SECTION
  2
BLOCKS
  0
BLOCK
  5
20
330
1F
100
AcDbEntity
  8
0
100
AcDbBlockBegin
  2
*Model_Space
 70
     0
 10
0.0
 20
0.0
 30
0.0
  3
*Model_Space
  1

  0
ENDBLK
  5
21
330
1F
100
AcDbEntity
  8
0
100
AcDbBlockEnd
  0
BLOCK
  5
1C
330
1B
100
AcDbEntity
 67
     1
  8
0
100
AcDbBlockBegin
  2
*Paper_Space
 70
     0
 10
0.0
 20
0.0
 30
0.0
  3
*Paper_Space
  1

  0
ENDBLK
  5
1D
330
1B
100
AcDbEntity
 67
     1
  8
0
100
AcDbBlockEnd
  0
BLOCK
  5
24
330
23
100
AcDbEntity
  8
0
100
AcDbBlockBegin
  2
*Paper_Space0
 70
     0
 10
0.0
 20
0.0
 30
0.0
  3
*Paper_Space0
  1

  0
ENDBLK
  5
25
330
23
100
AcDbEntity
  8
0
100
AcDbBlockEnd
  0
ENDSEC
  0
SECTION
  2
ENTITIES
  0
LINE
  5
44
330
1F
100
AcDbEntity
  8
その他
  6
Continuous
 62
     7
370
     9
100
AcDbLine
 10
79.2048933699325
 20
490.7286319735303
 30
0.0
 11
143.5190066775761
 21
576.8264069946451
 31
0.0
  0
LINE
  5
45
330
1F
100
AcDbEntity
  8
その他
  6
Continuous
 62
     7
370
     9
100
AcDbLine
 10
143.5190066775761
 20
576.8264069946451
 30
0.0
 11
494.7698809649494
 21
576.8264069946451
 31
0.0
  0
LINE
  5
46
330
1F
100
AcDbEntity
  8
その他
  6
Continuous
 62
     7
370
     9
100
AcDbLine
 10
439.9999175200592
 20
-1.71058855803642
 30
0.0
 11
439.9999175200592
 21
548.2894196899576
 31
0.0
  0
LINE
  5
47
330
1F
100
AcDbEntity
  8
その他
  6
Continuous
 62
     7
370
     9
100
AcDbLine
 10
27.27029336465375
 20
-1.71058855803642
 30
0.0
 11
442.1000877586572
 21
-1.71058855803642
 31
0.0
  0
LINE
  5
48
330
1F
100
AcDbEntity
  8
その他
  6
Continuous
 62
     7
370
     9
100
AcDbLine
 10
27.27029336465375
 20
548.2894196899576
 30
0.0
 11
442.1000877586572
 21
548.2894196899576
 31
0.0
  0
LINE
  5
49
330
1F
100
AcDbEntity
  8
その他
  6
Continuous
 62
     7
370
     9
100
AcDbLine
 10
439.9999175200592
 20
-1.71058855803642
 30
0.0
 11
437.7156520534206
 21
15.63971859726342
 31
0.0
  0
LINE
  5
4A
330
1F
100
AcDbEntity
  8
その他
  6
Continuous
 62
     7
370
     9
100
AcDbLine
 10
439.9999175200592
 20
-1.71058855803642
 30
0.0
 11
442.2841829866977
 21
15.63971859726342
 31
0.0
  0
LINE
  5
4B
330
1F
100
AcDbEntity
  8
その他
  6
Continuous
 62
     7
370
     9
100
AcDbLine
 10
439.9999175200592
 20
548.2894196899576
 30
0.0
 11
437.7156520534206
 21
530.9391867666047
 31
0.0
  0
LINE
  5
4C
330
1F
100
AcDbEntity
  8
その他
  6
Continuous
 62
     7
370
     9
100
AcDbLine
 10
439.9999175200592
 20
548.2894196899576
 30
0.0
 11
442.2841829866977
 21
530.9391867666047
 31
0.0
  0
LINE
  5
4D
330
1F
100
AcDbEntity
  8
その他
  6
Continuous
 62
     7
370
     9
100
AcDbLine
 10
8.749868032094696
 20
-8.205809670261885
 30
0.0
 11
19.40319164379235
 21
-22.08948491044345
 31
0.0
  0
LINE
  5
4E
330
1F
100
AcDbEntity
  8
その他
  6
Continuous
 62
     7
370
     9
100
AcDbLine
 10
8.749868032094696
 20
-8.205809670261885
 30
0.0
 11
15.44692580764359
 21
-24.37375037708205
 31
0.0
  0
LINE
  5
4F
330
1F
100
AcDbEntity
  8
その他
  6
Continuous
 62
     7
370
     9
100
AcDbLine
 10
8.749868032094696
 20
-8.205809670261885
 30
0.0
 11
36.17693926837001
 21
-55.71069248276189
 31
0.0
  0
LINE
  5
50
330
1F
100
AcDbEntity
  8
その他
  6
Continuous
 62
     7
370
     9
100
AcDbLine
 10
36.17693926837001
 20
-55.71069248276189
 30
0.0
 11
192.8847359322214
 21
-55.71069248276189
 31
0.0
  0
LINE
  5
51
330
1F
100
AcDbEntity
  8
躯体
  6
Continuous
 62
     2
370
     9
100
AcDbLine
 10
-254.210864917652
 20
-348.8024695625761
 30
0.0
 11
-250.4997129698057
 21
-301.48969902837
 31
0.0
  0
LINE
  5
52
330
1F
100
AcDbEntity
  8
躯体
  6
Continuous
 62
     2
370
     9
100
AcDbLine
 10
294.1225618929477
 20
-353.348359752082
 30
0.0
 11
294.9999835040119
 21
-359.4896429420103
 31
0.0
  0
LINE
  5
53
330
1F
100
AcDbEntity
  8
躯体
  6
Continuous
 62
     2
370
     9
100
AcDbLine
 10
278.9697430584883
 20
295.2895747522466
 30
0.0
 11
267.9272955817145
 21
295.2895747522466
 31
0.0
  0
LINE
  5
54
330
1F
100
AcDbEntity
  8
躯体
  6
Continuous
 62
     2
370
     9
100
AcDbLine
 10
281.1405821104308
 20
293.2893207140286
 30
0.0
 11
266.0922818570523
 21
293.2893207140286
 31
0.0
  0
LINE
  5
55
330
1F
100
AcDbEntity
  8
躯体
  6
Continuous
 62
     2
370
     9
100
AcDbLine
 10
-278.9695945945945
 20
295.2895747522466
 30
0.0
 11
-267.9271471178209
 21
295.2895747522466
 31
0.0
  0
LINE
  5
56
330
1F
100
AcDbEntity
  8
躯体
  6
Continuous
 62
     2
370
     9
100
AcDbLine
 10
-281.1405821104307
 20
293.2893207140286
 30
0.0
 11
-266.0918364653716
 21
293.2893207140286
 31
0.0
  0
LINE
  5
57
330
1F
100
AcDbEntity
  8
躯体
  6
Continuous
 62
     2
370
     9
100
AcDbLine
 10
22.00027053420609
 20
552.2590472765286
 30
0.0
 11
22.00027053420609
 21
541.2167482636486
 31
0.0
  0
LINE
  5
58
330
1F
100
AcDbEntity
  8
躯体
  6
Continuous
 62
     2
370
     9
100
AcDbLine
 10
20.00001649598829
 20
554.4300347923648
 30
0.0
 11
20.00001649598829
 21
539.3814376111992
 31
0.0
  0
LINE
  5
59
330
1F
100
AcDbEntity
  8
躯体
  6
Continuous
 62
     2
370
     9
100
AcDbLine
 10
-21.99997360641891
 20
552.2590472765286
 30
0.0
 11
-21.99997360641891
 21
541.2167482636486
 31
0.0
  0
LINE
  5
5A
330
1F
100
AcDbEntity
  8
躯体
  6
Continuous
 62
     2
370
     9
100
AcDbLine
 10
-19.99986803209453
 20
554.4300347923648
 30
0.0
 11
-19.99986803209453
 21
539.3814376111992
 31
0.0
  0
LINE
  5
5B
330
1F
100
AcDbEntity
  8
躯体
  6
Continuous
 62
     2
370
     9
100
AcDbLine
 10
5.000115471917354
 20
540.7893207140286
 30
0.0
 11
-4.999967008023589
 21
540.7893207140286
 31
0.0
  0
LINE
  5
5C
330
1F
100
AcDbEntity
  8
躯体
  6
Continuous
 62
     2
370
     9
100
AcDbLine
 10
5.000115471917354
 20
555.7895186658867
 30
0.0
 11
-4.999967008023589
 21
555.7895186658867
 31
0.0
  0
LINE
  5
5D
330
1F
100
AcDbEntity
  8
躯体
  6
Continuous
 62
     2
370
     9
100
AcDbLine
 10
5.000115471917354
 20
539.2895384610724
 30
0.0
 11
-4.999967008023589
 21
539.2895384610724
 31
0.0
  0
LINE
  5
5E
330
1F
100
AcDbEntity
  8
躯体
  6
Continuous
 62
     2
370
     9
100
AcDbLine
 10
5.000115471917354
 20
557.2893009188429
 30
0.0
 11
-4.999967008023589
 21
557.2893009188429
 31
0.0
  0
LINE
  5
5F
330
1F
100
AcDbEntity
  8
躯体
  6
Continuous
 62
     2
370
     9
100
AcDbLine
 10
283.9999967008023
 20
278.2893454580109
 30
0.0
 11
283.9999967008023
 21
273.2893784499872
 31
0.0
  0
LINE
  5
60
330
1F
100
AcDbEntity
  8
躯体
  6
Continuous
 62
     2
370
     9
100
AcDbLine
 10
282.5002144478464
 20
278.2893454580109
 30
0.0
 11
282.5002144478464
 21
268.2894856739105
 31
0.0
  0
LINE
  5
61
330
1F
100
AcDbEntity
  8
躯体
  6
Continuous
 62
     2
370
     9
100
AcDbLine
 10
267.5003134237753
 20
278.2893454580109
 30
0.0
 11
267.5003134237753
 21
268.2894856739105
 31
0.0
  0
LINE
  5
62
330
1F
100
AcDbEntity
  8
躯体
  6
Continuous
 62
     2
370
     9
100
AcDbLine
 10
266.0002342430322
 20
278.2893454580109
 30
0.0
 11
266.0002342430322
 21
273.2893784499872
 31
0.0
  0
LINE
  5
63
330
1F
100
AcDbEntity
  8
仕上
  6
Continuous
 62
     3
370
     9
100
AcDbLine
 10
-19.99986803209453
 20
332.28959784663
 30
0.0
 11
-19.99986803209453
 21
314.2895384610725
 31
0.0
  0
LINE
  5
64
330
1F
100
AcDbEntity
  8
仕上
  6
Continuous
 62
     3
370
     9
100
AcDbLine
 10
-65.99992081925672
 20
332.28959784663
 30
0.0
 11
-65.99992081925672
 21
314.2895384610725
 31
0.0
  0
LINE
  5
65
330
1F
100
AcDbEntity
  8
仕上
  6
Continuous
 62
     3
370
     9
100
AcDbLine
 10
-65.99992081925672
 20
314.2895384610725
 30
0.0
 11
-25.9998878272803
 21
314.2895384610725
 31
0.0
  0
LINE
  5
66
330
1F
100
AcDbEntity
  8
仕上
  6
Continuous
 62
     3
370
     9
100
AcDbLine
 10
-25.9998878272803
 20
332.28959784663
 30
0.0
 11
-25.9998878272803
 21
314.2895384610725
 31
0.0
  0
LINE
  5
67
330
1F
100
AcDbEntity
  8
仕上
  6
Continuous
 62
     3
370
     9
100
AcDbLine
 10
-65.99992081925672
 20
332.28959784663
 30
0.0
 11
-25.9998878272803
 21
332.28959784663
 31
0.0
  0
LINE
  5
68
330
1F
100
AcDbEntity
  8
仕上
  6
Continuous
 62
     3
370
     9
100
AcDbLine
 10
-111.9998251425253
 20
314.2895384610725
 30
0.0
 11
-71.9997921505489
 21
314.2895384610725
 31
0.0
  0
LINE
  5
69
330
1F
100
AcDbEntity
  8
仕上
  6
Continuous
 62
     3
370
     9
100
AcDbLine
 10
-71.9997921505489
 20
332.28959784663
 30
0.0
 11
-71.9997921505489
 21
314.2895384610725
 31
0.0
  0
LINE
  5
6A
330
1F
100
AcDbEntity
  8
仕上
  6
Continuous
 62
     3
370
     9
100
AcDbLine
 10
-111.9998251425253
 20
332.28959784663
 30
0.0
 11
-71.9997921505489
 21
332.28959784663
 31
0.0
  0
LINE
  5
6B
330
1F
100
AcDbEntity
  8
仕上
  6
Continuous
 62
     3
370
     9
100
AcDbLine
 10
-41.99969317461984
 20
339.2895219650844
 30
0.0
 11
-41.99969317461984
 21
357.2898782784289
 31
0.0
  0
LINE
  5
6C
330
1F
100
AcDbEntity
  8
仕上
  6
Continuous
 62
     3
370
     9
100
AcDbLine
 10
-36.99987463048984
 20
339.2895219650844
 30
0.0
 11
-36.99987463048984
 21
357.2898782784289
 31
0.0
  0
LINE
  5
6D
330
1F
100
AcDbEntity
  8
仕上
  6
Continuous
 62
     3
370
     9
100
AcDbLine
 10
-49.99981854412999
 20
339.2895219650844
 30
0.0
 11
-49.99981854412999
 21
357.2898782784289
 31
0.0
  0
LINE
  5
6E
330
1F
100
AcDbEntity
  8
仕上
  6
Continuous
 62
     3
370
     9
100
AcDbLine
 10
-55.00008247994077
 20
339.2895219650844
 30
0.0
 11
-55.00008247994077
 21
357.2898782784289
 31
0.0
  0
LINE
  5
6F
330
1F
100
AcDbEntity
  8
仕上
  6
Continuous
 62
     3
370
     9
100
AcDbLine
 10
-49.99981854412999
 20
357.2898782784289
 30
0.0
 11
-41.99969317461984
 21
357.2898782784289
 31
0.0
  0
LINE
  5
70
330
1F
100
AcDbEntity
  8
仕上
  6
Continuous
 62
     3
370
     9
100
AcDbLine
 10
-49.99981854412999
 20
339.2895219650844
 30
0.0
 11
-41.99969317461984
 21
339.2895219650844
 31
0.0
  0
LINE
  5
71
330
1F
100
AcDbEntity
  8
仕上
  6
Continuous
 62
     3
370
     9
100
AcDbLine
 10
-82.99977895375844
 20
357.2898782784289
 30
0.0
 11
-55.00008247994077
 21
357.2898782784289
 31
0.0
  0
LINE
  5
72
330
1F
100
AcDbEntity
  8
仕上
  6
Continuous
 62
     3
370
     9
100
AcDbLine
 10
-82.99977895375844
 20
339.2895219650844
 30
0.0
 11
-55.00008247994077
 21
339.2895219650844
 31
0.0
  0
LINE
  5
73
330
1F
100
AcDbEntity
  8
仕上
  6
Continuous
 62
     3
370
     9
100
AcDbLine
 10
-4.000062684754994
 20
339.2895219650844
 30
0.0
 11
-4.000062684754994
 21
357.2898782784289
 31
0.0
  0
LINE
  5
74
330
1F
100
AcDbEntity
  8
仕上
  6
Continuous
 62
     3
370
     9
100
AcDbLine
 10
-8.999881228885158
 20
339.2895219650844
 30
0.0
 11
-8.999881228885158
 21
357.2898782784289
 31
0.0
  0
LINE
  5
75
330
1F
100
AcDbEntity
  8
仕上
  6
Continuous
 62
     3
370
     9
100
AcDbLine
 10
-36.99987463048984
 20
357.2898782784289
 30
0.0
 11
-8.999881228885158
 21
357.2898782784289
 31
0.0
  0
LINE
  5
76
330
1F
100
AcDbEntity
  8
仕上
  6
Continuous
 62
     3
370
     9
100
AcDbLine
 10
-36.99987463048984
 20
339.2895219650844
 30
0.0
 11
-8.999881228885158
 21
339.2895219650844
 31
0.0
  0
LINE
  5
77
330
1F
100
AcDbEntity
  8
仕上
  6
Continuous
 62
     3
370
     9
100
AcDbLine
 10
-19.99986803209453
 20
382.2892679268666
 30
0.0
 11
-19.99986803209453
 21
364.2898023968834
 31
0.0
  0
LINE
  5
78
330
1F
100
AcDbEntity
  8
仕上
  6
Continuous
 62
     3
370
     9
100
AcDbLine
 10
-65.99992081925672
 20
382.2892679268666
 30
0.0
 11
-65.99992081925672
 21
364.2898023968834
 31
0.0
  0
LINE
  5
79
330
1F
100
AcDbEntity
  8
仕上
  6
Continuous
 62
     3
370
     9
100
AcDbLine
 10
-65.99992081925672
 20
364.2898023968834
 30
0.0
 11
-25.9998878272803
 21
364.2898023968834
 31
0.0
  0
LINE
  5
7A
330
1F
100
AcDbEntity
  8
仕上
  6
Continuous
 62
     3
370
     9
100
AcDbLine
 10
-25.9998878272803
 20
382.2892679268666
 30
0.0
 11
-25.9998878272803
 21
364.2898023968834
 31
0.0
  0
LINE
  5
7B
330
1F
100
AcDbEntity
  8
仕上
  6
Continuous
 62
     3
370
     9
100
AcDbLine
 10
-65.99992081925672
 20
382.2892679268666
 30
0.0
 11
-25.9998878272803
 21
382.2892679268666
 31
0.0
  0
LINE
  5
7C
330
1F
100
AcDbEntity
  8
仕上
  6
Continuous
 62
     3
370
     9
100
AcDbLine
 10
-111.9998251425253
 20
364.2898023968834
 30
0.0
 11
-71.9997921505489
 21
364.2898023968834
 31
0.0
  0
LINE
  5
7D
330
1F
100
AcDbEntity
  8
仕上
  6
Continuous
 62
     3
370
     9
100
AcDbLine
 10
-71.9997921505489
 20
382.2892679268666
 30
0.0
 11
-71.9997921505489
 21
364.2898023968834
 31
0.0
  0
LINE
  5
7E
330
1F
100
AcDbEntity
  8
仕上
  6
Continuous
 62
     3
370
     9
100
AcDbLine
 10
-41.99969317461984
 20
389.2896374370015
 30
0.0
 11
-41.99969317461984
 21
407.2896968225591
 31
0.0
  0
LINE
  5
7F
330
1F
100
AcDbEntity
  8
仕上
  6
Continuous
 62
     3
370
     9
100
AcDbLine
 10
-36.99987463048984
 20
389.2896374370015
 30
0.0
 11
-36.99987463048984
 21
407.2896968225591
 31
0.0
  0
LINE
  5
80
330
1F
100
AcDbEntity
  8
仕上
  6
Continuous
 62
     3
370
     9
100
AcDbLine
 10
-49.99981854412999
 20
389.2896374370015
 30
0.0
 11
-49.99981854412999
 21
407.2896968225591
 31
0.0
  0
LINE
  5
81
330
1F
100
AcDbEntity
  8
仕上
  6
Continuous
 62
     3
370
     9
100
AcDbLine
 10
-55.00008247994077
 20
389.2896374370015
 30
0.0
 11
-55.00008247994077
 21
407.2896968225591
 31
0.0
  0
LINE
  5
82
330
1F
100
AcDbEntity
  8
仕上
  6
Continuous
 62
     3
370
     9
100
AcDbLine
 10
-49.99981854412999
 20
407.2896968225591
 30
0.0
 11
-41.99969317461984
 21
407.2896968225591
 31
0.0
  0
LINE
  5
83
330
1F
100
AcDbEntity
  8
仕上
  6
Continuous
 62
     3
370
     9
100
AcDbLine
 10
-49.99981854412999
 20
389.2896374370015
 30
0.0
 11
-41.99969317461984
 21
389.2896374370015
 31
0.0
  0
LINE
  5
84
330
1F
100
AcDbEntity
  8
仕上
  6
Continuous
 62
     3
370
     9
100
AcDbLine
 10
-82.99977895375844
 20
389.2896374370015
 30
0.0
 11
-55.00008247994077
 21
389.2896374370015
 31
0.0
  0
LINE
  5
85
330
1F
100
AcDbEntity
  8
仕上
  6
Continuous
 62
     3
370
     9
100
AcDbLine
 10
-4.000062684754994
 20
389.2896374370015
 30
0.0
 11
-4.000062684754994
 21
407.2896968225591
 31
0.0
  0
LINE
  5
86
330
1F
100
AcDbEntity
  8
仕上
  6
Continuous
 62
     3
370
     9
100
AcDbLine
 10
-8.999881228885158
 20
389.2896374370015
 30
0.0
 11
-8.999881228885158
 21
407.2896968225591
 31
0.0
  0
LINE
  5
87
330
1F
100
AcDbEntity
  8
仕上
  6
Continuous
 62
     3
370
     9
100
AcDbLine
 10
-36.99987463048984
 20
407.2896968225591
 30
0.0
 11
-8.999881228885158
 21
407.2896968225591
 31
0.0
  0
LINE
  5
88
330
1F
100
AcDbEntity
  8
仕上
  6
Continuous
 62
     3
370
     9
100
AcDbLine
 10
-36.99987463048984
 20
389.2896374370015
 30
0.0
 11
-8.999881228885158
 21
389.2896374370015
 31
0.0
  0
LINE
  5
89
330
1F
100
AcDbEntity
  8
仕上
  6
Continuous
 62
     3
370
     9
100
AcDbLine
 10
-19.99986803209453
 20
414.2896209410134
 30
0.0
 11
20.00001649598829
 21
414.2896209410134
 31
0.0
  0
LINE
  5
8A
330
1F
100
AcDbEntity
  8
仕上
  6
Continuous
 62
     3
370
     9
100
AcDbLine
 10
-4.000062684754994
 20
407.2896968225591
 30
0.0
 11
3.999914220861569
 21
407.2896968225591
 31
0.0
  0
LINE
  5
8B
330
1F
100
AcDbEntity
  8
仕上
  6
Continuous
 62
     3
370
     9
100
AcDbLine
 10
-4.000062684754994
 20
389.2896374370015
 30
0.0
 11
3.999914220861569
 21
389.2896374370015
 31
0.0
  0
LINE
  5
8C
330
1F
100
AcDbEntity
  8
仕上
  6
Continuous
 62
     3
370
     9
100
AcDbLine
 10
-19.99986803209453
 20
314.2895384610725
 30
0.0
 11
20.00001649598829
 21
314.2895384610725
 31
0.0
  0
LINE
  5
8D
330
1F
100
AcDbEntity
  8
仕上
  6
Continuous
 62
     3
370
     9
100
AcDbLine
 10
-111.9998251425253
 20
332.28959784663
 30
0.0
 11
-111.9998251425253
 21
314.2895384610725
 31
0.0
  0
LINE
  5
8E
330
1F
100
AcDbEntity
  8
仕上
  6
Continuous
 62
     3
370
     9
100
AcDbLine
 10
-117.9998449377111
 20
332.28959784663
 30
0.0
 11
-117.9998449377111
 21
314.2895384610725
 31
0.0
  0
LINE
  5
8F
330
1F
100
AcDbEntity
  8
仕上
  6
Continuous
 62
     3
370
     9
100
AcDbLine
 10
-87.99989442567562
 20
339.2895219650844
 30
0.0
 11
-87.99989442567562
 21
357.2898782784289
 31
0.0
  0
LINE
  5
90
330
1F
100
AcDbEntity
  8
仕上
  6
Continuous
 62
     3
370
     9
100
AcDbLine
 10
-82.99977895375844
 20
339.2895219650844
 30
0.0
 11
-82.99977895375844
 21
357.2898782784289
 31
0.0
  0
LINE
  5
91
330
1F
100
AcDbEntity
  8
仕上
  6
Continuous
 62
     3
370
     9
100
AcDbLine
 10
-95.99972286739859
 20
339.2895219650844
 30
0.0
 11
-95.99972286739859
 21
357.2898782784289
 31
0.0
  0
LINE
  5
92
330
1F
100
AcDbEntity
  8
仕上
  6
Continuous
 62
     3
370
     9
100
AcDbLine
 10
-100.9998383393158
 20
339.2895219650844
 30
0.0
 11
-100.9998383393158
 21
357.2898782784289
 31
0.0
  0
LINE
  5
93
330
1F
100
AcDbEntity
  8
仕上
  6
Continuous
 62
     3
370
     9
100
AcDbLine
 10
-95.99972286739859
 20
357.2898782784289
 30
0.0
 11
-87.99989442567562
 21
357.2898782784289
 31
0.0
  0
LINE
  5
94
330
1F
100
AcDbEntity
  8
仕上
  6
Continuous
 62
     3
370
     9
100
AcDbLine
 10
-95.99972286739859
 20
339.2895219650844
 30
0.0
 11
-87.99989442567562
 21
339.2895219650844
 31
0.0
  0
LINE
  5
95
330
1F
100
AcDbEntity
  8
仕上
  6
Continuous
 62
     3
370
     9
100
AcDbLine
 10
-128.9998317409206
 20
357.2898782784289
 30
0.0
 11
-100.9998383393158
 21
357.2898782784289
 31
0.0
  0
LINE
  5
96
330
1F
100
AcDbEntity
  8
仕上
  6
Continuous
 62
     3
370
     9
100
AcDbLine
 10
-128.9998317409206
 20
339.2895219650844
 30
0.0
 11
-100.9998383393158
 21
339.2895219650844
 31
0.0
  0
LINE
  5
97
330
1F
100
AcDbEntity
  8
仕上
  6
Continuous
 62
     3
370
     9
100
AcDbLine
 10
-82.99977895375844
 20
289.2895549570608
 30
0.0
 11
-82.99977895375844
 21
307.2894658787245
 31
0.0
  0
LINE
  5
98
330
1F
100
AcDbEntity
  8
仕上
  6
Continuous
 62
     3
370
     9
100
AcDbLine
 10
-95.99972286739859
 20
389.2896374370015
 30
0.0
 11
-87.99989442567562
 21
389.2896374370015
 31
0.0
  0
LINE
  5
99
330
1F
100
AcDbEntity
  8
仕上
  6
Continuous
 62
     3
370
     9
100
AcDbLine
 10
-128.9998317409206
 20
339.2895219650844
 30
0.0
 11
-128.9998317409206
 21
357.2898782784289
 31
0.0
  0
LINE
  5
9A
330
1F
100
AcDbEntity
  8
仕上
  6
Continuous
 62
     3
370
     9
100
AcDbLine
 10
-157.9997294657939
 20
332.28959784663
 30
0.0
 11
-117.9998449377111
 21
332.28959784663
 31
0.0
  0
LINE
  5
9B
330
1F
100
AcDbEntity
  8
仕上
  6
Continuous
 62
     3
370
     9
100
AcDbLine
 10
-141.9999241184544
 20
339.2895219650844
 30
0.0
 11
-133.9997987489442
 21
339.2895219650844
 31
0.0
  0
LINE
  5
9C
330
1F
100
AcDbEntity
  8
仕上
  6
Continuous
 62
     3
370
     9
100
AcDbLine
 10
-133.9997987489442
 20
339.2895219650844
 30
0.0
 11
-133.9997987489442
 21
357.2898782784289
 31
0.0
  0
LINE
  5
9D
330
1F
100
AcDbEntity
  8
仕上
  6
Continuous
 62
     3
370
     9
100
AcDbLine
 10
-157.9997294657939
 20
364.2898023968834
 30
0.0
 11
-117.9998449377111
 21
364.2898023968834
 31
0.0
  0
LINE
  5
9E
330
1F
100
AcDbEntity
  8
仕上
  6
Continuous
 62
     3
370
     9
100
AcDbLine
 10
-117.9998449377111
 20
382.2892679268666
 30
0.0
 11
-117.9998449377111
 21
364.2898023968834
 31
0.0
  0
LINE
  5
9F
330
1F
100
AcDbEntity
  8
仕上
  6
Continuous
 62
     3
370
     9
100
AcDbLine
 10
-87.99989442567562
 20
389.2896374370015
 30
0.0
 11
-87.99989442567562
 21
407.2896968225591
 31
0.0
  0
LINE
  5
A0
330
1F
100
AcDbEntity
  8
仕上
  6
Continuous
 62
     3
370
     9
100
AcDbLine
 10
-95.99972286739859
 20
389.2896374370015
 30
0.0
 11
-95.99972286739859
 21
407.2896968225591
 31
0.0
  0
LINE
  5
A1
330
1F
100
AcDbEntity
  8
仕上
  6
Continuous
 62
     3
370
     9
100
AcDbLine
 10
-100.9998383393158
 20
389.2896374370015
 30
0.0
 11
-100.9998383393158
 21
407.2896968225591
 31
0.0
  0
LINE
  5
A2
330
1F
100
AcDbEntity
  8
仕上
  6
Continuous
 62
     3
370
     9
100
AcDbLine
 10
-128.9998317409206
 20
389.2896374370015
 30
0.0
 11
-100.9998383393158
 21
389.2896374370015
 31
0.0
  0
LINE
  5
A3
330
1F
100
AcDbEntity
  8
仕上
  6
Continuous
 62
     3
370
     9
100
AcDbLine
 10
-65.99992081925672
 20
414.2896209410134
 30
0.0
 11
-25.9998878272803
 21
414.2896209410134
 31
0.0
  0
LINE
  5
A4
330
1F
100
AcDbEntity
  8
仕上
  6
Continuous
 62
     3
370
     9
100
AcDbLine
 10
-25.9998878272803
 20
432.2896803265709
 30
0.0
 11
-25.9998878272803
 21
414.2896209410134
 31
0.0
  0
LINE
  5
A5
330
1F
100
AcDbEntity
  8
仕上
  6
Continuous
 62
     3
370
     9
100
AcDbLine
 10
-19.99986803209453
 20
432.2896803265709
 30
0.0
 11
-19.99986803209453
 21
414.2896209410134
 31
0.0
  0
LINE
  5
A6
330
1F
100
AcDbEntity
  8
仕上
  6
Continuous
 62
     3
370
     9
100
AcDbLine
 10
-82.99977895375844
 20
389.2896374370015
 30
0.0
 11
-82.99977895375844
 21
407.2896968225591
 31
0.0
  0
LINE
  5
A7
330
1F
100
AcDbEntity
  8
仕上
  6
Continuous
 62
     3
370
     9
100
AcDbLine
 10
-82.99977895375844
 20
407.2896968225591
 30
0.0
 11
-55.00008247994077
 21
407.2896968225591
 31
0.0
  0
LINE
  5
A8
330
1F
100
AcDbEntity
  8
仕上
  6
Continuous
 62
     3
370
     9
100
AcDbLine
 10
-111.9998251425253
 20
382.2892679268666
 30
0.0
 11
-71.9997921505489
 21
382.2892679268666
 31
0.0
  0
LINE
  5
A9
330
1F
100
AcDbEntity
  8
仕上
  6
Continuous
 62
     3
370
     9
100
AcDbLine
 10
-111.9998251425253
 20
382.2892679268666
 30
0.0
 11
-111.9998251425253
 21
364.2898023968834
 31
0.0
  0
LINE
  5
AA
330
1F
100
AcDbEntity
  8
仕上
  6
Continuous
 62
     3
370
     9
100
AcDbLine
 10
-203.999782252956
 20
282.2895566066595
 30
0.0
 11
-203.999782252956
 21
273.2893784499872
 31
0.0
  0
LINE
  5
AB
330
1F
100
AcDbEntity
  8
仕上
  6
Continuous
 62
     3
370
     9
100
AcDbLine
 10
-19.99986803209453
 20
382.2892679268666
 30
0.0
 11
20.00001649598829
 21
382.2892679268666
 31
0.0
  0
LINE
  5
AC
330
1F
100
AcDbEntity
  8
仕上
  6
Continuous
 62
     3
370
     9
100
AcDbLine
 10
-19.99986803209453
 20
332.28959784663
 30
0.0
 11
20.00001649598829
 21
332.28959784663
 31
0.0
  0
LINE
  5
AD
330
1F
100
AcDbEntity
  8
仕上
  6
Continuous
 62
     3
370
     9
100
AcDbLine
 10
-4.000062684754994
 20
357.2894328867483
 30
0.0
 11
3.999914220861569
 21
357.2894328867483
 31
0.0
  0
LINE
  5
AE
330
1F
100
AcDbEntity
  8
仕上
  6
Continuous
 62
     3
370
     9
100
AcDbLine
 10
-4.000062684754994
 20
339.2895219650844
 30
0.0
 11
3.999914220861569
 21
339.2895219650844
 31
0.0
  0
LINE
  5
AF
330
1F
100
AcDbEntity
  8
仕上
  6
Continuous
 62
     3
370
     9
100
AcDbLine
 10
-65.99992081925672
 20
432.2896803265709
 30
0.0
 11
-65.99992081925672
 21
414.2896209410134
 31
0.0
  0
LINE
  5
B0
330
1F
100
AcDbEntity
  8
仕上
  6
Continuous
 62
     3
370
     9
100
AcDbLine
 10
-65.99992081925672
 20
432.2896803265709
 30
0.0
 11
-25.9998878272803
 21
432.2896803265709
 31
0.0
  0
LINE
  5
B1
330
1F
100
AcDbEntity
  8
仕上
  6
Continuous
 62
     3
370
     9
100
AcDbLine
 10
-111.9998251425253
 20
414.2896209410134
 30
0.0
 11
-71.9997921505489
 21
414.2896209410134
 31
0.0
  0
LINE
  5
B2
330
1F
100
AcDbEntity
  8
仕上
  6
Continuous
 62
     3
370
     9
100
AcDbLine
 10
-71.9997921505489
 20
432.2896803265709
 30
0.0
 11
-71.9997921505489
 21
414.2896209410134
 31
0.0
  0
LINE
  5
B3
330
1F
100
AcDbEntity
  8
仕上
  6
Continuous
 62
     3
370
     9
100
AcDbLine
 10
-95.99972286739859
 20
407.2896968225591
 30
0.0
 11
-87.99989442567562
 21
407.2896968225591
 31
0.0
  0
LINE
  5
B4
330
1F
100
AcDbEntity
  8
仕上
  6
Continuous
 62
     3
370
     9
100
AcDbLine
 10
-128.9998317409206
 20
407.2896968225591
 30
0.0
 11
-100.9998383393158
 21
407.2896968225591
 31
0.0
  0
LINE
  5
B5
330
1F
100
AcDbEntity
  8
仕上
  6
Continuous
 62
     3
370
     9
100
AcDbLine
 10
-128.9998317409206
 20
389.289488973108
 30
0.0
 11
-128.9998317409206
 21
407.2896968225591
 31
0.0
  0
LINE
  5
B6
330
1F
100
AcDbEntity
  8
仕上
  6
Continuous
 62
     3
370
     9
100
AcDbLine
 10
-141.9999241184544
 20
389.289488973108
 30
0.0
 11
-133.9997987489442
 21
389.289488973108
 31
0.0
  0
LINE
  5
B7
330
1F
100
AcDbEntity
  8
仕上
  6
Continuous
 62
     3
370
     9
100
AcDbLine
 10
-133.9997987489442
 20
389.289488973108
 30
0.0
 11
-133.9997987489442
 21
407.2896968225591
 31
0.0
  0
LINE
  5
B8
330
1F
100
AcDbEntity
  8
仕上
  6
Continuous
 62
     3
370
     9
100
AcDbLine
 10
-157.9997294657939
 20
414.2896209410134
 30
0.0
 11
-117.9998449377111
 21
414.2896209410134
 31
0.0
  0
LINE
  5
B9
330
1F
100
AcDbEntity
  8
仕上
  6
Continuous
 62
     3
370
     9
100
AcDbLine
 10
-117.9998449377111
 20
432.2896803265709
 30
0.0
 11
-117.9998449377111
 21
414.2896209410134
 31
0.0
  0
LINE
  5
BA
330
1F
100
AcDbEntity
  8
仕上
  6
Continuous
 62
     3
370
     9
100
AcDbLine
 10
-111.9998251425253
 20
432.2896803265709
 30
0.0
 11
-71.9997921505489
 21
432.2896803265709
 31
0.0
  0
LINE
  5
BB
330
1F
100
AcDbEntity
  8
仕上
  6
Continuous
 62
     3
370
     9
100
AcDbLine
 10
-111.9998251425253
 20
432.2896803265709
 30
0.0
 11
-111.9998251425253
 21
414.2896209410134
 31
0.0
  0
LINE
  5
BC
330
1F
100
AcDbEntity
  8
仕上
  6
Continuous
 62
     3
370
     9
100
AcDbLine
 10
-19.99986803209453
 20
432.2896803265709
 30
0.0
 11
20.00001649598829
 21
432.2896803265709
 31
0.0
  0
LINE
  5
BD
330
1F
100
AcDbEntity
  8
仕上
  6
Continuous
 62
     3
370
     9
100
AcDbLine
 10
-41.99969317461984
 20
439.2896044450253
 30
0.0
 11
-41.99969317461984
 21
457.289515366689
 31
0.0
  0
LINE
  5
BE
330
1F
100
AcDbEntity
  8
仕上
  6
Continuous
 62
     3
370
     9
100
AcDbLine
 10
-36.99987463048984
 20
439.2896044450253
 30
0.0
 11
-36.99987463048984
 21
457.289515366689
 31
0.0
  0
LINE
  5
BF
330
1F
100
AcDbEntity
  8
仕上
  6
Continuous
 62
     3
370
     9
100
AcDbLine
 10
-49.99981854412999
 20
439.2896044450253
 30
0.0
 11
-49.99981854412999
 21
457.289515366689
 31
0.0
  0
LINE
  5
C0
330
1F
100
AcDbEntity
  8
仕上
  6
Continuous
 62
     3
370
     9
100
AcDbLine
 10
-55.00008247994077
 20
439.2896044450253
 30
0.0
 11
-55.00008247994077
 21
457.289515366689
 31
0.0
  0
LINE
  5
C1
330
1F
100
AcDbEntity
  8
仕上
  6
Continuous
 62
     3
370
     9
100
AcDbLine
 10
-49.99981854412999
 20
457.289515366689
 30
0.0
 11
-41.99969317461984
 21
457.289515366689
 31
0.0
  0
LINE
  5
C2
330
1F
100
AcDbEntity
  8
仕上
  6
Continuous
 62
     3
370
     9
100
AcDbLine
 10
-49.99981854412999
 20
439.2896044450253
 30
0.0
 11
-41.99969317461984
 21
439.2896044450253
 31
0.0
  0
LINE
  5
C3
330
1F
100
AcDbEntity
  8
仕上
  6
Continuous
 62
     3
370
     9
100
AcDbLine
 10
-82.99977895375844
 20
457.289515366689
 30
0.0
 11
-55.00008247994077
 21
457.289515366689
 31
0.0
  0
LINE
  5
C4
330
1F
100
AcDbEntity
  8
仕上
  6
Continuous
 62
     3
370
     9
100
AcDbLine
 10
-82.99977895375844
 20
439.2896044450253
 30
0.0
 11
-55.00008247994077
 21
439.2896044450253
 31
0.0
  0
LINE
  5
C5
330
1F
100
AcDbEntity
  8
仕上
  6
Continuous
 62
     3
370
     9
100
AcDbLine
 10
-4.000062684754994
 20
439.2896044450253
 30
0.0
 11
-4.000062684754994
 21
457.289515366689
 31
0.0
  0
LINE
  5
C6
330
1F
100
AcDbEntity
  8
仕上
  6
Continuous
 62
     3
370
     9
100
AcDbLine
 10
-8.999881228885158
 20
439.2896044450253
 30
0.0
 11
-8.999881228885158
 21
457.289515366689
 31
0.0
  0
LINE
  5
C7
330
1F
100
AcDbEntity
  8
仕上
  6
Continuous
 62
     3
370
     9
100
AcDbLine
 10
-36.99987463048984
 20
457.289515366689
 30
0.0
 11
-8.999881228885158
 21
457.289515366689
 31
0.0
  0
LINE
  5
C8
330
1F
100
AcDbEntity
  8
仕上
  6
Continuous
 62
     3
370
     9
100
AcDbLine
 10
-36.99987463048984
 20
439.2896044450253
 30
0.0
 11
-8.999881228885158
 21
439.2896044450253
 31
0.0
  0
LINE
  5
C9
330
1F
100
AcDbEntity
  8
仕上
  6
Continuous
 62
     3
370
     9
100
AcDbLine
 10
-87.99989442567562
 20
439.2896044450253
 30
0.0
 11
-87.99989442567562
 21
457.289515366689
 31
0.0
  0
LINE
  5
CA
330
1F
100
AcDbEntity
  8
仕上
  6
Continuous
 62
     3
370
     9
100
AcDbLine
 10
-82.99977895375844
 20
439.2896044450253
 30
0.0
 11
-82.99977895375844
 21
457.289515366689
 31
0.0
  0
LINE
  5
CB
330
1F
100
AcDbEntity
  8
仕上
  6
Continuous
 62
     3
370
     9
100
AcDbLine
 10
-95.99972286739859
 20
439.2896044450253
 30
0.0
 11
-95.99972286739859
 21
457.289515366689
 31
0.0
  0
LINE
  5
CC
330
1F
100
AcDbEntity
  8
仕上
  6
Continuous
 62
     3
370
     9
100
AcDbLine
 10
-100.9998383393158
 20
439.2896044450253
 30
0.0
 11
-100.9998383393158
 21
457.289515366689
 31
0.0
  0
LINE
  5
CD
330
1F
100
AcDbEntity
  8
仕上
  6
Continuous
 62
     3
370
     9
100
AcDbLine
 10
-95.99972286739859
 20
457.289515366689
 30
0.0
 11
-87.99989442567562
 21
457.289515366689
 31
0.0
  0
LINE
  5
CE
330
1F
100
AcDbEntity
  8
仕上
  6
Continuous
 62
     3
370
     9
100
AcDbLine
 10
-95.99972286739859
 20
439.2896044450253
 30
0.0
 11
-87.99989442567562
 21
439.2896044450253
 31
0.0
  0
LINE
  5
CF
330
1F
100
AcDbEntity
  8
仕上
  6
Continuous
 62
     3
370
     9
100
AcDbLine
 10
-128.9998317409206
 20
439.2896044450253
 30
0.0
 11
-100.9998383393158
 21
439.2896044450253
 31
0.0
  0
LINE
  5
D0
330
1F
100
AcDbEntity
  8
仕上
  6
Continuous
 62
     3
370
     9
100
AcDbLine
 10
-128.9998317409206
 20
439.2896044450253
 30
0.0
 11
-128.9998317409206
 21
457.289515366689
 31
0.0
  0
LINE
  5
D1
330
1F
100
AcDbEntity
  8
仕上
  6
Continuous
 62
     3
370
     9
100
AcDbLine
 10
-19.99986803209453
 20
464.2897364129306
 30
0.0
 11
20.00001649598829
 21
464.2897364129306
 31
0.0
  0
LINE
  5
D2
330
1F
100
AcDbEntity
  8
仕上
  6
Continuous
 62
     3
370
     9
100
AcDbLine
 10
-4.000062684754994
 20
457.289515366689
 30
0.0
 11
3.999914220861569
 21
457.289515366689
 31
0.0
  0
LINE
  5
D3
330
1F
100
AcDbEntity
  8
仕上
  6
Continuous
 62
     3
370
     9
100
AcDbLine
 10
-4.000062684754994
 20
439.2897529089189
 30
0.0
 11
3.999914220861569
 21
439.2897529089189
 31
0.0
  0
LINE
  5
D4
330
1F
100
AcDbEntity
  8
仕上
  6
Continuous
 62
     3
370
     9
100
AcDbLine
 10
-157.9997294657939
 20
332.28959784663
 30
0.0
 11
-157.9997294657939
 21
314.2895384610725
 31
0.0
  0
LINE
  5
D5
330
1F
100
AcDbEntity
  8
仕上
  6
Continuous
 62
     3
370
     9
100
AcDbLine
 10
-163.9997492609797
 20
332.28959784663
 30
0.0
 11
-163.9997492609797
 21
314.2895384610725
 31
0.0
  0
LINE
  5
D6
330
1F
100
AcDbEntity
  8
仕上
  6
Continuous
 62
     3
370
     9
100
AcDbLine
 10
-141.9999241184544
 20
339.2895219650844
 30
0.0
 11
-141.9999241184544
 21
357.2898782784289
 31
0.0
  0
LINE
  5
D7
330
1F
100
AcDbEntity
  8
仕上
  6
Continuous
 62
     3
370
     9
100
AcDbLine
 10
-146.999891126478
 20
339.2895219650844
 30
0.0
 11
-146.999891126478
 21
357.2898782784289
 31
0.0
  0
LINE
  5
D8
330
1F
100
AcDbEntity
  8
仕上
  6
Continuous
 62
     3
370
     9
100
AcDbLine
 10
-141.9999241184544
 20
357.2898782784289
 30
0.0
 11
-133.9997987489442
 21
357.2898782784289
 31
0.0
  0
LINE
  5
D9
330
1F
100
AcDbEntity
  8
仕上
  6
Continuous
 62
     3
370
     9
100
AcDbLine
 10
-174.9995876002955
 20
357.2898782784289
 30
0.0
 11
-146.999891126478
 21
357.2898782784289
 31
0.0
  0
LINE
  5
DA
330
1F
100
AcDbEntity
  8
仕上
  6
Continuous
 62
     3
370
     9
100
AcDbLine
 10
-174.9995876002955
 20
339.2895219650844
 30
0.0
 11
-146.999891126478
 21
339.2895219650844
 31
0.0
  0
LINE
  5
DB
330
1F
100
AcDbEntity
  8
仕上
  6
Continuous
 62
     3
370
     9
100
AcDbLine
 10
-174.9995876002955
 20
339.2895219650844
 30
0.0
 11
-174.9995876002955
 21
357.2898782784289
 31
0.0
  0
LINE
  5
DC
330
1F
100
AcDbEntity
  8
仕上
  6
Continuous
 62
     3
370
     9
100
AcDbLine
 10
-187.9996799778294
 20
339.2895219650844
 30
0.0
 11
-179.9995546083192
 21
339.2895219650844
 31
0.0
  0
LINE
  5
DD
330
1F
100
AcDbEntity
  8
仕上
  6
Continuous
 62
     3
370
     9
100
AcDbLine
 10
-179.9995546083192
 20
339.2895219650844
 30
0.0
 11
-179.9995546083192
 21
357.2898782784289
 31
0.0
  0
LINE
  5
DE
330
1F
100
AcDbEntity
  8
仕上
  6
Continuous
 62
     3
370
     9
100
AcDbLine
 10
-163.9997492609797
 20
382.2892679268666
 30
0.0
 11
-163.9997492609797
 21
364.2898023968834
 31
0.0
  0
LINE
  5
DF
330
1F
100
AcDbEntity
  8
仕上
  6
Continuous
 62
     3
370
     9
100
AcDbLine
 10
-157.9997294657939
 20
382.2892679268666
 30
0.0
 11
-117.9998449377111
 21
382.2892679268666
 31
0.0
  0
LINE
  5
E0
330
1F
100
AcDbEntity
  8
仕上
  6
Continuous
 62
     3
370
     9
100
AcDbLine
 10
-157.9997294657939
 20
382.2892679268666
 30
0.0
 11
-157.9997294657939
 21
364.2898023968834
 31
0.0
  0
LINE
  5
E1
330
1F
100
AcDbEntity
  8
仕上
  6
Continuous
 62
     3
370
     9
100
AcDbLine
 10
-203.9996337890625
 20
314.2895384610725
 30
0.0
 11
-163.9997492609797
 21
314.2895384610725
 31
0.0
  0
LINE
  5
E2
330
1F
100
AcDbEntity
  8
仕上
  6
Continuous
 62
     3
370
     9
100
AcDbLine
 10
-203.9996337890625
 20
332.28959784663
 30
0.0
 11
-163.9997492609797
 21
332.28959784663
 31
0.0
  0
LINE
  5
E3
330
1F
100
AcDbEntity
  8
仕上
  6
Continuous
 62
     3
370
     9
100
AcDbLine
 10
-203.9996337890625
 20
332.28959784663
 30
0.0
 11
-203.9996337890625
 21
314.2895384610725
 31
0.0
  0
LINE
  5
E4
330
1F
100
AcDbEntity
  8
仕上
  6
Continuous
 62
     3
370
     9
100
AcDbLine
 10
-209.9995051203547
 20
332.28959784663
 30
0.0
 11
-209.9995051203547
 21
314.2895384610725
 31
0.0
  0
LINE
  5
E5
330
1F
100
AcDbEntity
  8
仕上
  6
Continuous
 62
     3
370
     9
100
AcDbLine
 10
-187.9996799778294
 20
339.2895219650844
 30
0.0
 11
-187.9996799778294
 21
357.2898782784289
 31
0.0
  0
LINE
  5
E6
330
1F
100
AcDbEntity
  8
仕上
  6
Continuous
 62
     3
370
     9
100
AcDbLine
 10
-192.9999439136402
 20
339.2895219650844
 30
0.0
 11
-192.9999439136402
 21
357.2898782784289
 31
0.0
  0
LINE
  5
E7
330
1F
100
AcDbEntity
  8
仕上
  6
Continuous
 62
     3
370
     9
100
AcDbLine
 10
-187.9996799778294
 20
357.2898782784289
 30
0.0
 11
-179.9995546083192
 21
357.2898782784289
 31
0.0
  0
LINE
  5
E8
330
1F
100
AcDbEntity
  8
仕上
  6
Continuous
 62
     3
370
     9
100
AcDbLine
 10
-141.9999241184544
 20
389.289488973108
 30
0.0
 11
-141.9999241184544
 21
407.2896968225591
 31
0.0
  0
LINE
  5
E9
330
1F
100
AcDbEntity
  8
仕上
  6
Continuous
 62
     3
370
     9
100
AcDbLine
 10
-146.999891126478
 20
389.289488973108
 30
0.0
 11
-146.999891126478
 21
407.2896968225591
 31
0.0
  0
LINE
  5
EA
330
1F
100
AcDbEntity
  8
仕上
  6
Continuous
 62
     3
370
     9
100
AcDbLine
 10
-141.9999241184544
 20
407.2896968225591
 30
0.0
 11
-133.9997987489442
 21
407.2896968225591
 31
0.0
  0
LINE
  5
EB
330
1F
100
AcDbEntity
  8
仕上
  6
Continuous
 62
     3
370
     9
100
AcDbLine
 10
-174.9995876002955
 20
407.2896968225591
 30
0.0
 11
-146.999891126478
 21
407.2896968225591
 31
0.0
  0
LINE
  5
EC
330
1F
100
AcDbEntity
  8
仕上
  6
Continuous
 62
     3
370
     9
100
AcDbLine
 10
-174.9995876002955
 20
389.289488973108
 30
0.0
 11
-146.999891126478
 21
389.289488973108
 31
0.0
  0
LINE
  5
ED
330
1F
100
AcDbEntity
  8
仕上
  6
Continuous
 62
     3
370
     9
100
AcDbLine
 10
-157.9997294657939
 20
432.2896803265709
 30
0.0
 11
-157.9997294657939
 21
414.2896209410134
 31
0.0
  0
LINE
  5
EE
330
1F
100
AcDbEntity
  8
仕上
  6
Continuous
 62
     3
370
     9
100
AcDbLine
 10
-157.9997294657939
 20
432.2896803265709
 30
0.0
 11
-117.9998449377111
 21
432.2896803265709
 31
0.0
  0
LINE
  5
EF
330
1F
100
AcDbEntity
  8
仕上
  6
Continuous
 62
     3
370
     9
100
AcDbLine
 10
-174.9995876002955
 20
389.289488973108
 30
0.0
 11
-174.9995876002955
 21
407.2896968225591
 31
0.0
  0
LINE
  5
F0
330
1F
100
AcDbEntity
  8
仕上
  6
Continuous
 62
     3
370
     9
100
AcDbLine
 10
-187.9996799778294
 20
389.289488973108
 30
0.0
 11
-179.9995546083192
 21
389.289488973108
 31
0.0
  0
LINE
  5
F1
330
1F
100
AcDbEntity
  8
仕上
  6
Continuous
 62
     3
370
     9
100
AcDbLine
 10
-192.9999439136402
 20
289.2895549570608
 30
0.0
 11
-192.9999439136402
 21
307.2894658787245
 31
0.0
  0
LINE
  5
F2
330
1F
100
AcDbEntity
  8
仕上
  6
Continuous
 62
     3
370
     9
100
AcDbLine
 10
-220.9996403874577
 20
307.2894658787245
 30
0.0
 11
-192.9999439136402
 21
307.2894658787245
 31
0.0
  0
LINE
  5
F3
330
1F
100
AcDbEntity
  8
仕上
  6
Continuous
 62
     3
370
     9
100
AcDbLine
 10
-220.9996403874577
 20
289.2895549570608
 30
0.0
 11
-192.9999439136402
 21
289.2895549570608
 31
0.0
  0
LINE
  5
F4
330
1F
100
AcDbEntity
  8
仕上
  6
Continuous
 62
     3
370
     9
100
AcDbLine
 10
-220.9996403874577
 20
289.2895549570608
 30
0.0
 11
-220.9996403874577
 21
307.2894658787245
 31
0.0
  0
LINE
  5
F5
330
1F
100
AcDbEntity
  8
仕上
  6
Continuous
 62
     3
370
     9
100
AcDbLine
 10
-209.9995051203547
 20
282.2895566066595
 30
0.0
 11
-209.9995051203547
 21
273.2893784499872
 31
0.0
  0
LINE
  5
F6
330
1F
100
AcDbEntity
  8
仕上
  6
Continuous
 62
     3
370
     9
100
AcDbLine
 10
-72.00008907833609
 20
282.2895566066595
 30
0.0
 11
-72.00008907833609
 21
273.2893784499872
 31
0.0
  0
LINE
  5
F7
330
1F
100
AcDbEntity
  8
仕上
  6
Continuous
 62
     3
370
     9
100
AcDbLine
 10
-217.126662795608
 20
332.28959784663
 30
0.0
 11
-209.9995051203547
 21
332.28959784663
 31
0.0
  0
LINE
  5
F8
330
1F
100
AcDbEntity
  8
仕上
  6
Continuous
 62
     3
370
     9
100
AcDbLine
 10
-221.2327287003801
 20
314.2895384610725
 30
0.0
 11
-209.9995051203547
 21
314.2895384610725
 31
0.0
  0
LINE
  5
F9
330
1F
100
AcDbEntity
  8
仕上
  6
Continuous
 62
     3
370
     9
100
AcDbLine
 10
-224.8197648331926
 20
282.2895566066595
 30
0.0
 11
-209.9995051203547
 21
282.2895566066595
 31
0.0
  0
LINE
  5
FA
330
1F
100
AcDbEntity
  8
仕上
  6
Continuous
 62
     3
370
     9
100
AcDbLine
 10
-215.1022091427365
 20
339.2895219650844
 30
0.0
 11
-192.9999439136402
 21
339.2895219650844
 31
0.0
  0
LINE
  5
FB
330
1F
100
AcDbEntity
  8
仕上
  6
Continuous
 62
     3
370
     9
100
AcDbLine
 10
-208.7316234691723
 20
357.2898782784289
 30
0.0
 11
-192.9999439136402
 21
357.2898782784289
 31
0.0
  0
LINE
  5
FC
330
1F
100
AcDbEntity
  8
仕上
  6
Continuous
 62
     3
370
     9
100
AcDbLine
 10
-203.9996337890625
 20
364.2898023968834
 30
0.0
 11
-163.9997492609797
 21
364.2898023968834
 31
0.0
  0
LINE
  5
FD
330
1F
100
AcDbEntity
  8
仕上
  6
Continuous
 62
     3
370
     9
100
AcDbLine
 10
-203.9996337890625
 20
368.2055375900844
 30
0.0
 11
-203.9996337890625
 21
364.2898023968834
 31
0.0
  0
LINE
  5
FE
330
1F
100
AcDbEntity
  8
仕上
  6
Continuous
 62
     3
370
     9
100
AcDbLine
 10
-196.8347662848395
 20
382.2892679268666
 30
0.0
 11
-163.9997492609797
 21
382.2892679268666
 31
0.0
  0
LINE
  5
FF
330
1F
100
AcDbEntity
  8
仕上
  6
Continuous
 62
     3
370
     9
100
AcDbLine
 10
-187.9996799778294
 20
389.289488973108
 30
0.0
 11
-187.9996799778294
 21
396.9061321054983
 31
0.0
  0
LINE
  5
100
330
1F
100
AcDbEntity
  8
仕上
  6
Continuous
 62
     3
370
     9
100
AcDbLine
 10
-175.3395699165962
 20
414.2896209410134
 30
0.0
 11
-163.9997492609797
 21
414.2896209410134
 31
0.0
  0
LINE
  5
101
330
1F
100
AcDbEntity
  8
仕上
  6
Continuous
 62
     3
370
     9
100
AcDbLine
 10
-163.9997492609797
 20
427.3320255282178
 30
0.0
 11
-163.9997492609797
 21
414.2896209410134
 31
0.0
  0
LINE
  5
102
330
1F
100
AcDbEntity
  8
仕上
  6
Continuous
 62
     3
370
     9
100
AcDbLine
 10
-128.9998317409206
 20
457.289515366689
 30
0.0
 11
-100.9998383393158
 21
457.289515366689
 31
0.0
  0
LINE
  5
103
330
1F
100
AcDbEntity
  8
仕上
  6
Continuous
 62
     3
370
     9
100
AcDbLine
 10
-111.9998251425253
 20
468.433215218885
 30
0.0
 11
-111.9998251425253
 21
464.2897364129306
 31
0.0
  0
LINE
  5
104
330
1F
100
AcDbEntity
  8
仕上
  6
Continuous
 62
     3
370
     9
100
AcDbLine
 10
-179.9995546083192
 20
389.289488973108
 30
0.0
 11
-179.9995546083192
 21
407.2896968225591
 31
0.0
  0
LINE
  5
105
330
1F
100
AcDbEntity
  8
仕上
  6
Continuous
 62
     3
370
     9
100
AcDbLine
 10
-180.7454372096705
 20
407.2896968225591
 30
0.0
 11
-179.9995546083192
 21
407.2896968225591
 31
0.0
  0
LINE
  5
106
330
1F
100
AcDbEntity
  8
仕上
  6
Continuous
 62
     3
370
     9
100
AcDbLine
 10
-141.9999241184544
 20
439.2896044450253
 30
0.0
 11
-133.9997987489442
 21
439.2896044450253
 31
0.0
  0
LINE
  5
107
330
1F
100
AcDbEntity
  8
仕上
  6
Continuous
 62
     3
370
     9
100
AcDbLine
 10
-146.999891126478
 20
439.2896044450253
 30
0.0
 11
-151.8845016891892
 21
439.2896044450253
 31
0.0
  0
LINE
  5
108
330
1F
100
AcDbEntity
  8
仕上
  6
Continuous
 62
     3
370
     9
100
AcDbLine
 10
-146.999891126478
 20
439.2896044450253
 30
0.0
 11
-146.999891126478
 21
443.6305402294425
 31
0.0
  0
LINE
  5
109
330
1F
100
AcDbEntity
  8
仕上
  6
Continuous
 62
     3
370
     9
100
AcDbLine
 10
-141.9999241184544
 20
439.2896044450253
 30
0.0
 11
-141.9999241184544
 21
447.8203397701942
 31
0.0
  0
LINE
  5
10A
330
1F
100
AcDbEntity
  8
仕上
  6
Continuous
 62
     3
370
     9
100
AcDbLine
 10
-133.9997987489442
 20
439.2896044450253
 30
0.0
 11
-133.9997987489442
 21
454.0353352832855
 31
0.0
  0
LINE
  5
10B
330
1F
100
AcDbEntity
  8
仕上
  6
Continuous
 62
     3
370
     9
100
AcDbLine
 10
-25.9998878272803
 20
472.6007451755995
 30
0.0
 11
-25.9998878272803
 21
464.2897364129306
 31
0.0
  0
LINE
  5
10C
330
1F
100
AcDbEntity
  8
仕上
  6
Continuous
 62
     3
370
     9
100
AcDbLine
 10
-19.99986803209453
 20
473.2919930641131
 30
0.0
 11
-19.99986803209453
 21
464.2897364129306
 31
0.0
  0
LINE
  5
10D
330
1F
100
AcDbEntity
  8
仕上
  6
Continuous
 62
     3
370
     9
100
AcDbLine
 10
-62.60945088154563
 20
464.2897364129306
 30
0.0
 11
-25.9998878272803
 21
464.2897364129306
 31
0.0
  0
LINE
  5
10E
330
1F
100
AcDbEntity
  8
仕上
  6
Continuous
 62
     3
370
     9
100
AcDbLine
 10
-111.9998251425253
 20
464.2897364129306
 30
0.0
 11
-86.69148213154563
 21
464.2897364129306
 31
0.0
  0
LINE
  5
10F
330
1F
100
AcDbEntity
  8
仕上
  6
Continuous
 62
     3
370
     9
100
AcDbLine
 10
-79.59802576013516
 20
465.4565141525844
 30
0.0
 11
-88.39970769108953
 21
486.7058543130573
 31
0.0
  0
LINE
  5
110
330
1F
100
AcDbEntity
  8
仕上
  6
Continuous
 62
     3
370
     9
100
AcDbLine
 10
-86.69148213154563
 20
464.2897364129306
 30
0.0
 11
-92.52893396326016
 21
478.382968438902
 31
0.0
  0
LINE
  5
111
330
1F
100
AcDbEntity
  8
仕上
  6
Continuous
 62
     3
370
     9
100
AcDbLine
 10
20.00001649598829
 20
332.28959784663
 30
0.0
 11
20.00001649598829
 21
314.2895384610725
 31
0.0
  0
LINE
  5
112
330
1F
100
AcDbEntity
  8
仕上
  6
Continuous
 62
     3
370
     9
100
AcDbLine
 10
66.00006928315031
 20
332.28959784663
 30
0.0
 11
66.00006928315031
 21
314.2895384610725
 31
0.0
  0
LINE
  5
113
330
1F
100
AcDbEntity
  8
仕上
  6
Continuous
 62
     3
370
     9
100
AcDbLine
 10
66.00006928315031
 20
314.2895384610725
 30
0.0
 11
26.00018475506766
 21
314.2895384610725
 31
0.0
  0
LINE
  5
114
330
1F
100
AcDbEntity
  8
仕上
  6
Continuous
 62
     3
370
     9
100
AcDbLine
 10
26.00018475506766
 20
332.28959784663
 30
0.0
 11
26.00018475506766
 21
314.2895384610725
 31
0.0
  0
LINE
  5
115
330
1F
100
AcDbEntity
  8
仕上
  6
Continuous
 62
     3
370
     9
100
AcDbLine
 10
66.00006928315031
 20
332.28959784663
 30
0.0
 11
26.00018475506766
 21
332.28959784663
 31
0.0
  0
LINE
  5
116
330
1F
100
AcDbEntity
  8
仕上
  6
Continuous
 62
     3
370
     9
100
AcDbLine
 10
112.0001220703125
 20
314.2895384610725
 30
0.0
 11
72.00008907833626
 21
314.2895384610725
 31
0.0
  0
LINE
  5
117
330
1F
100
AcDbEntity
  8
仕上
  6
Continuous
 62
     3
370
     9
100
AcDbLine
 10
72.00008907833626
 20
332.28959784663
 30
0.0
 11
72.00008907833626
 21
314.2895384610725
 31
0.0
  0
LINE
  5
118
330
1F
100
AcDbEntity
  8
仕上
  6
Continuous
 62
     3
370
     9
100
AcDbLine
 10
41.9998416385136
 20
339.2895219650844
 30
0.0
 11
41.9998416385136
 21
357.2898782784289
 31
0.0
  0
LINE
  5
119
330
1F
100
AcDbEntity
  8
仕上
  6
Continuous
 62
     3
370
     9
100
AcDbLine
 10
37.00002309438344
 20
339.2895219650844
 30
0.0
 11
37.00002309438344
 21
357.2898782784289
 31
0.0
  0
LINE
  5
11A
330
1F
100
AcDbEntity
  8
仕上
  6
Continuous
 62
     3
370
     9
100
AcDbLine
 10
49.99996700802376
 20
339.2895219650844
 30
0.0
 11
49.99996700802376
 21
357.2898782784289
 31
0.0
  0
LINE
  5
11B
330
1F
100
AcDbEntity
  8
仕上
  6
Continuous
 62
     3
370
     9
100
AcDbLine
 10
55.00008247994094
 20
339.2895219650844
 30
0.0
 11
55.00008247994094
 21
357.2898782784289
 31
0.0
  0
LINE
  5
11C
330
1F
100
AcDbEntity
  8
仕上
  6
Continuous
 62
     3
370
     9
100
AcDbLine
 10
49.99996700802376
 20
357.2898782784289
 30
0.0
 11
41.9998416385136
 21
357.2898782784289
 31
0.0
  0
LINE
  5
11D
330
1F
100
AcDbEntity
  8
仕上
  6
Continuous
 62
     3
370
     9
100
AcDbLine
 10
49.99996700802376
 20
339.2895219650844
 30
0.0
 11
41.9998416385136
 21
339.2895219650844
 31
0.0
  0
LINE
  5
11E
330
1F
100
AcDbEntity
  8
仕上
  6
Continuous
 62
     3
370
     9
100
AcDbLine
 10
83.00007588154563
 20
357.2898782784289
 30
0.0
 11
55.00008247994094
 21
357.2898782784289
 31
0.0
  0
LINE
  5
11F
330
1F
100
AcDbEntity
  8
仕上
  6
Continuous
 62
     3
370
     9
100
AcDbLine
 10
83.00007588154563
 20
339.2895219650844
 30
0.0
 11
55.00008247994094
 21
339.2895219650844
 31
0.0
  0
LINE
  5
120
330
1F
100
AcDbEntity
  8
仕上
  6
Continuous
 62
     3
370
     9
100
AcDbLine
 10
3.999914220861569
 20
339.2895219650844
 30
0.0
 11
3.999914220861569
 21
357.2898782784289
 31
0.0
  0
LINE
  5
121
330
1F
100
AcDbEntity
  8
仕上
  6
Continuous
 62
     3
370
     9
100
AcDbLine
 10
37.00002309438344
 20
357.2898782784289
 30
0.0
 11
8.999881228885158
 21
357.2898782784289
 31
0.0
  0
LINE
  5
122
330
1F
100
AcDbEntity
  8
仕上
  6
Continuous
 62
     3
370
     9
100
AcDbLine
 10
66.00006928315031
 20
382.2892679268666
 30
0.0
 11
66.00006928315031
 21
364.2898023968834
 31
0.0
  0
LINE
  5
123
330
1F
100
AcDbEntity
  8
仕上
  6
Continuous
 62
     3
370
     9
100
AcDbLine
 10
66.00006928315031
 20
382.2892679268666
 30
0.0
 11
26.00018475506766
 21
382.2892679268666
 31
0.0
  0
LINE
  5
124
330
1F
100
AcDbEntity
  8
仕上
  6
Continuous
 62
     3
370
     9
100
AcDbLine
 10
112.0001220703125
 20
364.2898023968834
 30
0.0
 11
72.00008907833626
 21
364.2898023968834
 31
0.0
  0
LINE
  5
125
330
1F
100
AcDbEntity
  8
仕上
  6
Continuous
 62
     3
370
     9
100
AcDbLine
 10
72.00008907833626
 20
382.2892679268666
 30
0.0
 11
72.00008907833626
 21
364.2898023968834
 31
0.0
  0
LINE
  5
126
330
1F
100
AcDbEntity
  8
仕上
  6
Continuous
 62
     3
370
     9
100
AcDbLine
 10
41.9998416385136
 20
389.2896374370015
 30
0.0
 11
41.9998416385136
 21
407.2896968225591
 31
0.0
  0
LINE
  5
127
330
1F
100
AcDbEntity
  8
仕上
  6
Continuous
 62
     3
370
     9
100
AcDbLine
 10
37.00002309438344
 20
389.2896374370015
 30
0.0
 11
37.00002309438344
 21
407.2896968225591
 31
0.0
  0
LINE
  5
128
330
1F
100
AcDbEntity
  8
仕上
  6
Continuous
 62
     3
370
     9
100
AcDbLine
 10
49.99996700802376
 20
389.2896374370015
 30
0.0
 11
49.99996700802376
 21
407.2896968225591
 31
0.0
  0
LINE
  5
129
330
1F
100
AcDbEntity
  8
仕上
  6
Continuous
 62
     3
370
     9
100
AcDbLine
 10
55.00008247994094
 20
389.2896374370015
 30
0.0
 11
55.00008247994094
 21
407.2896968225591
 31
0.0
  0
LINE
  5
12A
330
1F
100
AcDbEntity
  8
仕上
  6
Continuous
 62
     3
370
     9
100
AcDbLine
 10
49.99996700802376
 20
407.2896968225591
 30
0.0
 11
41.9998416385136
 21
407.2896968225591
 31
0.0
  0
LINE
  5
12B
330
1F
100
AcDbEntity
  8
仕上
  6
Continuous
 62
     3
370
     9
100
AcDbLine
 10
49.99996700802376
 20
389.2896374370015
 30
0.0
 11
41.9998416385136
 21
389.2896374370015
 31
0.0
  0
LINE
  5
12C
330
1F
100
AcDbEntity
  8
仕上
  6
Continuous
 62
     3
370
     9
100
AcDbLine
 10
83.00007588154563
 20
389.2896374370015
 30
0.0
 11
55.00008247994094
 21
389.2896374370015
 31
0.0
  0
LINE
  5
12D
330
1F
100
AcDbEntity
  8
仕上
  6
Continuous
 62
     3
370
     9
100
AcDbLine
 10
3.999914220861569
 20
389.2896374370015
 30
0.0
 11
3.999914220861569
 21
407.2896968225591
 31
0.0
  0
LINE
  5
12E
330
1F
100
AcDbEntity
  8
仕上
  6
Continuous
 62
     3
370
     9
100
AcDbLine
 10
8.999881228885158
 20
389.2896374370015
 30
0.0
 11
8.999881228885158
 21
407.2896968225591
 31
0.0
  0
LINE
  5
12F
330
1F
100
AcDbEntity
  8
仕上
  6
Continuous
 62
     3
370
     9
100
AcDbLine
 10
37.00002309438344
 20
407.2896968225591
 30
0.0
 11
8.999881228885158
 21
407.2896968225591
 31
0.0
  0
LINE
  5
130
330
1F
100
AcDbEntity
  8
仕上
  6
Continuous
 62
     3
370
     9
100
AcDbLine
 10
37.00002309438344
 20
389.2896374370015
 30
0.0
 11
8.999881228885158
 21
389.2896374370015
 31
0.0
  0
LINE
  5
131
330
1F
100
AcDbEntity
  8
仕上
  6
Continuous
 62
     3
370
     9
100
AcDbLine
 10
112.0001220703125
 20
332.28959784663
 30
0.0
 11
112.0001220703125
 21
314.2895384610725
 31
0.0
  0
LINE
  5
132
330
1F
100
AcDbEntity
  8
仕上
  6
Continuous
 62
     3
370
     9
100
AcDbLine
 10
117.9999934016049
 20
332.28959784663
 30
0.0
 11
117.9999934016049
 21
314.2895384610725
 31
0.0
  0
LINE
  5
133
330
1F
100
AcDbEntity
  8
仕上
  6
Continuous
 62
     3
370
     9
100
AcDbLine
 10
88.00004288956939
 20
339.2895219650844
 30
0.0
 11
88.00004288956939
 21
357.2898782784289
 31
0.0
  0
LINE
  5
134
330
1F
100
AcDbEntity
  8
仕上
  6
Continuous
 62
     3
370
     9
100
AcDbLine
 10
83.00007588154563
 20
339.2895219650844
 30
0.0
 11
83.00007588154563
 21
357.2898782784289
 31
0.0
  0
LINE
  5
135
330
1F
100
AcDbEntity
  8
仕上
  6
Continuous
 62
     3
370
     9
100
AcDbLine
 10
96.00001979518578
 20
339.2895219650844
 30
0.0
 11
96.00001979518578
 21
357.2898782784289
 31
0.0
  0
LINE
  5
136
330
1F
100
AcDbEntity
  8
仕上
  6
Continuous
 62
     3
370
     9
100
AcDbLine
 10
100.9999868032095
 20
339.2895219650844
 30
0.0
 11
100.9999868032095
 21
357.2898782784289
 31
0.0
  0
LINE
  5
137
330
1F
100
AcDbEntity
  8
仕上
  6
Continuous
 62
     3
370
     9
100
AcDbLine
 10
96.00001979518578
 20
357.2898782784289
 30
0.0
 11
88.00004288956939
 21
357.2898782784289
 31
0.0
  0
LINE
  5
138
330
1F
100
AcDbEntity
  8
仕上
  6
Continuous
 62
     3
370
     9
100
AcDbLine
 10
96.00001979518578
 20
339.2895219650844
 30
0.0
 11
88.00004288956939
 21
339.2895219650844
 31
0.0
  0
LINE
  5
139
330
1F
100
AcDbEntity
  8
仕上
  6
Continuous
 62
     3
370
     9
100
AcDbLine
 10
128.9999802048142
 20
357.2898782784289
 30
0.0
 11
100.9999868032095
 21
357.2898782784289
 31
0.0
  0
LINE
  5
13A
330
1F
100
AcDbEntity
  8
仕上
  6
Continuous
 62
     3
370
     9
100
AcDbLine
 10
128.9999802048142
 20
339.2895219650844
 30
0.0
 11
100.9999868032095
 21
339.2895219650844
 31
0.0
  0
LINE
  5
13B
330
1F
100
AcDbEntity
  8
仕上
  6
Continuous
 62
     3
370
     9
100
AcDbLine
 10
188.0002738334038
 20
289.2895549570608
 30
0.0
 11
188.0002738334038
 21
307.2894658787245
 31
0.0
  0
LINE
  5
13C
330
1F
100
AcDbEntity
  8
仕上
  6
Continuous
 62
     3
370
     9
100
AcDbLine
 10
83.00007588154563
 20
289.2895549570608
 30
0.0
 11
83.00007588154563
 21
307.2894658787245
 31
0.0
  0
LINE
  5
13D
330
1F
100
AcDbEntity
  8
仕上
  6
Continuous
 62
     3
370
     9
100
AcDbLine
 10
180.0001484638936
 20
289.2895549570608
 30
0.0
 11
180.0001484638936
 21
307.2894658787245
 31
0.0
  0
LINE
  5
13E
330
1F
100
AcDbEntity
  8
仕上
  6
Continuous
 62
     3
370
     9
100
AcDbLine
 10
180.0001484638936
 20
307.2894658787245
 30
0.0
 11
188.0002738334038
 21
307.2894658787245
 31
0.0
  0
LINE
  5
13F
330
1F
100
AcDbEntity
  8
仕上
  6
Continuous
 62
     3
370
     9
100
AcDbLine
 10
147.0001880542653
 20
307.2894658787245
 30
0.0
 11
174.9998845280828
 21
307.2894658787245
 31
0.0
  0
LINE
  5
140
330
1F
100
AcDbEntity
  8
仕上
  6
Continuous
 62
     3
370
     9
100
AcDbLine
 10
96.00001979518578
 20
389.2896374370015
 30
0.0
 11
88.00004288956939
 21
389.2896374370015
 31
0.0
  0
LINE
  5
141
330
1F
100
AcDbEntity
  8
仕上
  6
Continuous
 62
     3
370
     9
100
AcDbLine
 10
128.9999802048142
 20
339.2895219650844
 30
0.0
 11
128.9999802048142
 21
357.2898782784289
 31
0.0
  0
LINE
  5
142
330
1F
100
AcDbEntity
  8
仕上
  6
Continuous
 62
     3
370
     9
100
AcDbLine
 10
157.9998779296875
 20
332.28959784663
 30
0.0
 11
117.9999934016049
 21
332.28959784663
 31
0.0
  0
LINE
  5
143
330
1F
100
AcDbEntity
  8
仕上
  6
Continuous
 62
     3
370
     9
100
AcDbLine
 10
157.9998779296875
 20
314.2895384610725
 30
0.0
 11
117.9999934016049
 21
314.2895384610725
 31
0.0
  0
LINE
  5
144
330
1F
100
AcDbEntity
  8
仕上
  6
Continuous
 62
     3
370
     9
100
AcDbLine
 10
101.0001352671031
 20
307.2894658787245
 30
0.0
 11
129.0001286687078
 21
307.2894658787245
 31
0.0
  0
LINE
  5
145
330
1F
100
AcDbEntity
  8
仕上
  6
Continuous
 62
     3
370
     9
100
AcDbLine
 10
142.000072582348
 20
339.2895219650844
 30
0.0
 11
133.9999472128378
 21
339.2895219650844
 31
0.0
  0
LINE
  5
146
330
1F
100
AcDbEntity
  8
仕上
  6
Continuous
 62
     3
370
     9
100
AcDbLine
 10
133.9999472128378
 20
339.2895219650844
 30
0.0
 11
133.9999472128378
 21
357.2898782784289
 31
0.0
  0
LINE
  5
147
330
1F
100
AcDbEntity
  8
仕上
  6
Continuous
 62
     3
370
     9
100
AcDbLine
 10
157.9998779296875
 20
364.2898023968834
 30
0.0
 11
117.9999934016049
 21
364.2898023968834
 31
0.0
  0
LINE
  5
148
330
1F
100
AcDbEntity
  8
仕上
  6
Continuous
 62
     3
370
     9
100
AcDbLine
 10
117.9999934016049
 20
382.2892679268666
 30
0.0
 11
117.9999934016049
 21
364.2898023968834
 31
0.0
  0
LINE
  5
149
330
1F
100
AcDbEntity
  8
仕上
  6
Continuous
 62
     3
370
     9
100
AcDbLine
 10
88.00004288956939
 20
389.2896374370015
 30
0.0
 11
88.00004288956939
 21
407.2896968225591
 31
0.0
  0
LINE
  5
14A
330
1F
100
AcDbEntity
  8
仕上
  6
Continuous
 62
     3
370
     9
100
AcDbLine
 10
96.00001979518578
 20
389.2896374370015
 30
0.0
 11
96.00001979518578
 21
407.2896968225591
 31
0.0
  0
LINE
  5
14B
330
1F
100
AcDbEntity
  8
仕上
  6
Continuous
 62
     3
370
     9
100
AcDbLine
 10
100.9999868032095
 20
389.2896374370015
 30
0.0
 11
100.9999868032095
 21
407.2896968225591
 31
0.0
  0
LINE
  5
14C
330
1F
100
AcDbEntity
  8
仕上
  6
Continuous
 62
     3
370
     9
100
AcDbLine
 10
128.9999802048142
 20
389.2896374370015
 30
0.0
 11
100.9999868032095
 21
389.2896374370015
 31
0.0
  0
LINE
  5
14D
330
1F
100
AcDbEntity
  8
仕上
  6
Continuous
 62
     3
370
     9
100
AcDbLine
 10
66.00006928315031
 20
414.2896209410134
 30
0.0
 11
26.00018475506766
 21
414.2896209410134
 31
0.0
  0
LINE
  5
14E
330
1F
100
AcDbEntity
  8
仕上
  6
Continuous
 62
     3
370
     9
100
AcDbLine
 10
26.00018475506766
 20
432.2896803265709
 30
0.0
 11
26.00018475506766
 21
414.2896209410134
 31
0.0
  0
LINE
  5
14F
330
1F
100
AcDbEntity
  8
仕上
  6
Continuous
 62
     3
370
     9
100
AcDbLine
 10
20.00001649598829
 20
432.2896803265709
 30
0.0
 11
20.00001649598829
 21
414.2896209410134
 31
0.0
  0
LINE
  5
150
330
1F
100
AcDbEntity
  8
仕上
  6
Continuous
 62
     3
370
     9
100
AcDbLine
 10
83.00007588154563
 20
389.2896374370015
 30
0.0
 11
83.00007588154563
 21
407.2896968225591
 31
0.0
  0
LINE
  5
151
330
1F
100
AcDbEntity
  8
仕上
  6
Continuous
 62
     3
370
     9
100
AcDbLine
 10
83.00007588154563
 20
407.2896968225591
 30
0.0
 11
55.00008247994094
 21
407.2896968225591
 31
0.0
  0
LINE
  5
152
330
1F
100
AcDbEntity
  8
仕上
  6
Continuous
 62
     3
370
     9
100
AcDbLine
 10
112.0001220703125
 20
382.2892679268666
 30
0.0
 11
72.00008907833626
 21
382.2892679268666
 31
0.0
  0
LINE
  5
153
330
1F
100
AcDbEntity
  8
仕上
  6
Continuous
 62
     3
370
     9
100
AcDbLine
 10
112.0001220703125
 20
382.2892679268666
 30
0.0
 11
112.0001220703125
 21
364.2898023968834
 31
0.0
  0
LINE
  5
154
330
1F
100
AcDbEntity
  8
仕上
  6
Continuous
 62
     3
370
     9
100
AcDbLine
 10
204.0002276446369
 20
282.2895566066595
 30
0.0
 11
204.0002276446369
 21
273.2893784499872
 31
0.0
  0
LINE
  5
155
330
1F
100
AcDbEntity
  8
仕上
  6
Continuous
 62
     3
370
     9
100
AcDbLine
 10
66.00006928315031
 20
432.2896803265709
 30
0.0
 11
66.00006928315031
 21
414.2896209410134
 31
0.0
  0
LINE
  5
156
330
1F
100
AcDbEntity
  8
仕上
  6
Continuous
 62
     3
370
     9
100
AcDbLine
 10
66.00006928315031
 20
432.2896803265709
 30
0.0
 11
26.00018475506766
 21
432.2896803265709
 31
0.0
  0
LINE
  5
157
330
1F
100
AcDbEntity
  8
仕上
  6
Continuous
 62
     3
370
     9
100
AcDbLine
 10
112.0001220703125
 20
414.2896209410134
 30
0.0
 11
72.00008907833626
 21
414.2896209410134
 31
0.0
  0
LINE
  5
158
330
1F
100
AcDbEntity
  8
仕上
  6
Continuous
 62
     3
370
     9
100
AcDbLine
 10
72.00008907833626
 20
432.2896803265709
 30
0.0
 11
72.00008907833626
 21
414.2896209410134
 31
0.0
  0
LINE
  5
159
330
1F
100
AcDbEntity
  8
仕上
  6
Continuous
 62
     3
370
     9
100
AcDbLine
 10
96.00001979518578
 20
407.2896968225591
 30
0.0
 11
88.00004288956939
 21
407.2896968225591
 31
0.0
  0
LINE
  5
15A
330
1F
100
AcDbEntity
  8
仕上
  6
Continuous
 62
     3
370
     9
100
AcDbLine
 10
128.9999802048142
 20
407.2896968225591
 30
0.0
 11
100.9999868032095
 21
407.2896968225591
 31
0.0
  0
LINE
  5
15B
330
1F
100
AcDbEntity
  8
仕上
  6
Continuous
 62
     3
370
     9
100
AcDbLine
 10
128.9999802048142
 20
389.289488973108
 30
0.0
 11
128.9999802048142
 21
407.2896968225591
 31
0.0
  0
LINE
  5
15C
330
1F
100
AcDbEntity
  8
仕上
  6
Continuous
 62
     3
370
     9
100
AcDbLine
 10
142.000072582348
 20
389.289488973108
 30
0.0
 11
133.9999472128378
 21
389.289488973108
 31
0.0
  0
LINE
  5
15D
330
1F
100
AcDbEntity
  8
仕上
  6
Continuous
 62
     3
370
     9
100
AcDbLine
 10
133.9999472128378
 20
389.289488973108
 30
0.0
 11
133.9999472128378
 21
407.2896968225591
 31
0.0
  0
LINE
  5
15E
330
1F
100
AcDbEntity
  8
仕上
  6
Continuous
 62
     3
370
     9
100
AcDbLine
 10
157.9998779296875
 20
414.2896209410134
 30
0.0
 11
117.9999934016049
 21
414.2896209410134
 31
0.0
  0
LINE
  5
15F
330
1F
100
AcDbEntity
  8
仕上
  6
Continuous
 62
     3
370
     9
100
AcDbLine
 10
117.9999934016049
 20
432.2896803265709
 30
0.0
 11
117.9999934016049
 21
414.2896209410134
 31
0.0
  0
LINE
  5
160
330
1F
100
AcDbEntity
  8
仕上
  6
Continuous
 62
     3
370
     9
100
AcDbLine
 10
112.0001220703125
 20
432.2896803265709
 30
0.0
 11
72.00008907833626
 21
432.2896803265709
 31
0.0
  0
LINE
  5
161
330
1F
100
AcDbEntity
  8
仕上
  6
Continuous
 62
     3
370
     9
100
AcDbLine
 10
112.0001220703125
 20
432.2896803265709
 30
0.0
 11
112.0001220703125
 21
414.2896209410134
 31
0.0
  0
LINE
  5
162
330
1F
100
AcDbEntity
  8
仕上
  6
Continuous
 62
     3
370
     9
100
AcDbLine
 10
41.9998416385136
 20
439.2896044450253
 30
0.0
 11
41.9998416385136
 21
457.289515366689
 31
0.0
  0
LINE
  5
163
330
1F
100
AcDbEntity
  8
仕上
  6
Continuous
 62
     3
370
     9
100
AcDbLine
 10
37.00002309438344
 20
439.2896044450253
 30
0.0
 11
37.00002309438344
 21
457.289515366689
 31
0.0
  0
LINE
  5
164
330
1F
100
AcDbEntity
  8
仕上
  6
Continuous
 62
     3
370
     9
100
AcDbLine
 10
49.99996700802376
 20
439.2896044450253
 30
0.0
 11
49.99996700802376
 21
457.289515366689
 31
0.0
  0
LINE
  5
165
330
1F
100
AcDbEntity
  8
仕上
  6
Continuous
 62
     3
370
     9
100
AcDbLine
 10
55.00008247994094
 20
439.2896044450253
 30
0.0
 11
55.00008247994094
 21
457.289515366689
 31
0.0
  0
LINE
  5
166
330
1F
100
AcDbEntity
  8
仕上
  6
Continuous
 62
     3
370
     9
100
AcDbLine
 10
49.99996700802376
 20
457.289515366689
 30
0.0
 11
41.9998416385136
 21
457.289515366689
 31
0.0
  0
LINE
  5
167
330
1F
100
AcDbEntity
  8
仕上
  6
Continuous
 62
     3
370
     9
100
AcDbLine
 10
49.99996700802376
 20
439.2896044450253
 30
0.0
 11
41.9998416385136
 21
439.2896044450253
 31
0.0
  0
LINE
  5
168
330
1F
100
AcDbEntity
  8
仕上
  6
Continuous
 62
     3
370
     9
100
AcDbLine
 10
83.00007588154563
 20
457.289515366689
 30
0.0
 11
55.00008247994094
 21
457.289515366689
 31
0.0
  0
LINE
  5
169
330
1F
100
AcDbEntity
  8
仕上
  6
Continuous
 62
     3
370
     9
100
AcDbLine
 10
83.00007588154563
 20
439.2896044450253
 30
0.0
 11
55.00008247994094
 21
439.2896044450253
 31
0.0
  0
LINE
  5
16A
330
1F
100
AcDbEntity
  8
仕上
  6
Continuous
 62
     3
370
     9
100
AcDbLine
 10
3.999914220861569
 20
439.2896044450253
 30
0.0
 11
3.999914220861569
 21
457.289515366689
 31
0.0
  0
LINE
  5
16B
330
1F
100
AcDbEntity
  8
仕上
  6
Continuous
 62
     3
370
     9
100
AcDbLine
 10
8.999881228885158
 20
439.2896044450253
 30
0.0
 11
8.999881228885158
 21
457.289515366689
 31
0.0
  0
LINE
  5
16C
330
1F
100
AcDbEntity
  8
仕上
  6
Continuous
 62
     3
370
     9
100
AcDbLine
 10
37.00002309438344
 20
457.289515366689
 30
0.0
 11
8.999881228885158
 21
457.289515366689
 31
0.0
  0
LINE
  5
16D
330
1F
100
AcDbEntity
  8
仕上
  6
Continuous
 62
     3
370
     9
100
AcDbLine
 10
37.00002309438344
 20
439.2896044450253
 30
0.0
 11
8.999881228885158
 21
439.2896044450253
 31
0.0
  0
LINE
  5
16E
330
1F
100
AcDbEntity
  8
仕上
  6
Continuous
 62
     3
370
     9
100
AcDbLine
 10
88.00004288956939
 20
439.2896044450253
 30
0.0
 11
88.00004288956939
 21
457.289515366689
 31
0.0
  0
LINE
  5
16F
330
1F
100
AcDbEntity
  8
仕上
  6
Continuous
 62
     3
370
     9
100
AcDbLine
 10
83.00007588154563
 20
439.2896044450253
 30
0.0
 11
83.00007588154563
 21
457.289515366689
 31
0.0
  0
LINE
  5
170
330
1F
100
AcDbEntity
  8
仕上
  6
Continuous
 62
     3
370
     9
100
AcDbLine
 10
96.00001979518578
 20
439.2896044450253
 30
0.0
 11
96.00001979518578
 21
457.289515366689
 31
0.0
  0
LINE
  5
171
330
1F
100
AcDbEntity
  8
仕上
  6
Continuous
 62
     3
370
     9
100
AcDbLine
 10
100.9999868032095
 20
439.2896044450253
 30
0.0
 11
100.9999868032095
 21
457.289515366689
 31
0.0
  0
LINE
  5
172
330
1F
100
AcDbEntity
  8
仕上
  6
Continuous
 62
     3
370
     9
100
AcDbLine
 10
96.00001979518578
 20
457.289515366689
 30
0.0
 11
88.00004288956939
 21
457.289515366689
 31
0.0
  0
LINE
  5
173
330
1F
100
AcDbEntity
  8
仕上
  6
Continuous
 62
     3
370
     9
100
AcDbLine
 10
96.00001979518578
 20
439.2896044450253
 30
0.0
 11
88.00004288956939
 21
439.2896044450253
 31
0.0
  0
LINE
  5
174
330
1F
100
AcDbEntity
  8
仕上
  6
Continuous
 62
     3
370
     9
100
AcDbLine
 10
128.9999802048142
 20
439.2896044450253
 30
0.0
 11
100.9999868032095
 21
439.2896044450253
 31
0.0
  0
LINE
  5
175
330
1F
100
AcDbEntity
  8
仕上
  6
Continuous
 62
     3
370
     9
100
AcDbLine
 10
128.9999802048142
 20
439.2896044450253
 30
0.0
 11
128.9999802048142
 21
457.289515366689
 31
0.0
  0
LINE
  5
176
330
1F
100
AcDbEntity
  8
仕上
  6
Continuous
 62
     3
370
     9
100
AcDbLine
 10
157.9998779296875
 20
332.28959784663
 30
0.0
 11
157.9998779296875
 21
314.2895384610725
 31
0.0
  0
LINE
  5
177
330
1F
100
AcDbEntity
  8
仕上
  6
Continuous
 62
     3
370
     9
100
AcDbLine
 10
163.9998977248733
 20
332.28959784663
 30
0.0
 11
163.9998977248733
 21
314.2895384610725
 31
0.0
  0
LINE
  5
178
330
1F
100
AcDbEntity
  8
仕上
  6
Continuous
 62
     3
370
     9
100
AcDbLine
 10
142.000072582348
 20
339.2895219650844
 30
0.0
 11
142.000072582348
 21
357.2898782784289
 31
0.0
  0
LINE
  5
179
330
1F
100
AcDbEntity
  8
仕上
  6
Continuous
 62
     3
370
     9
100
AcDbLine
 10
146.9998911264781
 20
339.2895219650844
 30
0.0
 11
146.9998911264781
 21
357.2898782784289
 31
0.0
  0
LINE
  5
17A
330
1F
100
AcDbEntity
  8
仕上
  6
Continuous
 62
     3
370
     9
100
AcDbLine
 10
142.000072582348
 20
357.2898782784289
 30
0.0
 11
133.9999472128378
 21
357.2898782784289
 31
0.0
  0
LINE
  5
17B
330
1F
100
AcDbEntity
  8
仕上
  6
Continuous
 62
     3
370
     9
100
AcDbLine
 10
174.9998845280828
 20
357.2898782784289
 30
0.0
 11
146.9998911264781
 21
357.2898782784289
 31
0.0
  0
LINE
  5
17C
330
1F
100
AcDbEntity
  8
仕上
  6
Continuous
 62
     3
370
     9
100
AcDbLine
 10
174.9998845280828
 20
339.2895219650844
 30
0.0
 11
146.9998911264781
 21
339.2895219650844
 31
0.0
  0
LINE
  5
17D
330
1F
100
AcDbEntity
  8
仕上
  6
Continuous
 62
     3
370
     9
100
AcDbLine
 10
174.9998845280828
 20
339.2895219650844
 30
0.0
 11
174.9998845280828
 21
357.2898782784289
 31
0.0
  0
LINE
  5
17E
330
1F
100
AcDbEntity
  8
仕上
  6
Continuous
 62
     3
370
     9
100
AcDbLine
 10
188.0002738334038
 20
339.2895219650844
 30
0.0
 11
180.0001484638936
 21
339.2895219650844
 31
0.0
  0
LINE
  5
17F
330
1F
100
AcDbEntity
  8
仕上
  6
Continuous
 62
     3
370
     9
100
AcDbLine
 10
180.0001484638936
 20
339.2895219650844
 30
0.0
 11
180.0001484638936
 21
357.2898782784289
 31
0.0
  0
LINE
  5
180
330
1F
100
AcDbEntity
  8
仕上
  6
Continuous
 62
     3
370
     9
100
AcDbLine
 10
163.9998977248733
 20
382.2892679268666
 30
0.0
 11
163.9998977248733
 21
364.2898023968834
 31
0.0
  0
LINE
  5
181
330
1F
100
AcDbEntity
  8
仕上
  6
Continuous
 62
     3
370
     9
100
AcDbLine
 10
157.9998779296875
 20
382.2892679268666
 30
0.0
 11
117.9999934016049
 21
382.2892679268666
 31
0.0
  0
LINE
  5
182
330
1F
100
AcDbEntity
  8
仕上
  6
Continuous
 62
     3
370
     9
100
AcDbLine
 10
157.9998779296875
 20
382.2892679268666
 30
0.0
 11
157.9998779296875
 21
364.2898023968834
 31
0.0
  0
LINE
  5
183
330
1F
100
AcDbEntity
  8
仕上
  6
Continuous
 62
     3
370
     9
100
AcDbLine
 10
203.9999307168497
 20
314.2895384610725
 30
0.0
 11
163.9998977248733
 21
314.2895384610725
 31
0.0
  0
LINE
  5
184
330
1F
100
AcDbEntity
  8
仕上
  6
Continuous
 62
     3
370
     9
100
AcDbLine
 10
203.9999307168497
 20
332.28959784663
 30
0.0
 11
163.9998977248733
 21
332.28959784663
 31
0.0
  0
LINE
  5
185
330
1F
100
AcDbEntity
  8
仕上
  6
Continuous
 62
     3
370
     9
100
AcDbLine
 10
203.9999307168497
 20
332.28959784663
 30
0.0
 11
203.9999307168497
 21
314.2895384610725
 31
0.0
  0
LINE
  5
186
330
1F
100
AcDbEntity
  8
仕上
  6
Continuous
 62
     3
370
     9
100
AcDbLine
 10
209.9999505120355
 20
332.28959784663
 30
0.0
 11
209.9999505120355
 21
314.2895384610725
 31
0.0
  0
LINE
  5
187
330
1F
100
AcDbEntity
  8
仕上
  6
Continuous
 62
     3
370
     9
100
AcDbLine
 10
188.0002738334038
 20
339.2895219650844
 30
0.0
 11
188.0002738334038
 21
357.2898782784289
 31
0.0
  0
LINE
  5
188
330
1F
100
AcDbEntity
  8
仕上
  6
Continuous
 62
     3
370
     9
100
AcDbLine
 10
192.9999439136403
 20
339.2895219650844
 30
0.0
 11
192.9999439136403
 21
357.2898782784289
 31
0.0
  0
LINE
  5
189
330
1F
100
AcDbEntity
  8
仕上
  6
Continuous
 62
     3
370
     9
100
AcDbLine
 10
188.0002738334038
 20
357.2898782784289
 30
0.0
 11
180.0001484638936
 21
357.2898782784289
 31
0.0
  0
LINE
  5
18A
330
1F
100
AcDbEntity
  8
仕上
  6
Continuous
 62
     3
370
     9
100
AcDbLine
 10
142.000072582348
 20
389.289488973108
 30
0.0
 11
142.000072582348
 21
407.2896968225591
 31
0.0
  0
LINE
  5
18B
330
1F
100
AcDbEntity
  8
仕上
  6
Continuous
 62
     3
370
     9
100
AcDbLine
 10
146.9998911264781
 20
389.289488973108
 30
0.0
 11
146.9998911264781
 21
407.2896968225591
 31
0.0
  0
LINE
  5
18C
330
1F
100
AcDbEntity
  8
仕上
  6
Continuous
 62
     3
370
     9
100
AcDbLine
 10
142.000072582348
 20
407.2896968225591
 30
0.0
 11
133.9999472128378
 21
407.2896968225591
 31
0.0
  0
LINE
  5
18D
330
1F
100
AcDbEntity
  8
仕上
  6
Continuous
 62
     3
370
     9
100
AcDbLine
 10
174.9998845280828
 20
407.2896968225591
 30
0.0
 11
146.9998911264781
 21
407.2896968225591
 31
0.0
  0
LINE
  5
18E
330
1F
100
AcDbEntity
  8
仕上
  6
Continuous
 62
     3
370
     9
100
AcDbLine
 10
174.9998845280828
 20
389.289488973108
 30
0.0
 11
146.9998911264781
 21
389.289488973108
 31
0.0
  0
LINE
  5
18F
330
1F
100
AcDbEntity
  8
仕上
  6
Continuous
 62
     3
370
     9
100
AcDbLine
 10
157.9998779296875
 20
432.2896803265709
 30
0.0
 11
157.9998779296875
 21
414.2896209410134
 31
0.0
  0
LINE
  5
190
330
1F
100
AcDbEntity
  8
仕上
  6
Continuous
 62
     3
370
     9
100
AcDbLine
 10
157.9998779296875
 20
432.2896803265709
 30
0.0
 11
117.9999934016049
 21
432.2896803265709
 31
0.0
  0
LINE
  5
191
330
1F
100
AcDbEntity
  8
仕上
  6
Continuous
 62
     3
370
     9
100
AcDbLine
 10
174.9998845280828
 20
389.289488973108
 30
0.0
 11
174.9998845280828
 21
407.2896968225591
 31
0.0
  0
LINE
  5
192
330
1F
100
AcDbEntity
  8
仕上
  6
Continuous
 62
     3
370
     9
100
AcDbLine
 10
188.0002738334038
 20
389.289488973108
 30
0.0
 11
180.0001484638936
 21
389.289488973108
 31
0.0
  0
LINE
  5
193
330
1F
100
AcDbEntity
  8
仕上
  6
Continuous
 62
     3
370
     9
100
AcDbLine
 10
96.00016825907937
 20
289.2895549570608
 30
0.0
 11
96.00016825907937
 21
307.2894658787245
 31
0.0
  0
LINE
  5
194
330
1F
100
AcDbEntity
  8
仕上
  6
Continuous
 62
     3
370
     9
100
AcDbLine
 10
88.00004288956939
 20
289.2895549570608
 30
0.0
 11
88.00004288956939
 21
307.2894658787245
 31
0.0
  0
LINE
  5
195
330
1F
100
AcDbEntity
  8
仕上
  6
Continuous
 62
     3
370
     9
100
AcDbLine
 10
192.9999439136403
 20
289.2895549570608
 30
0.0
 11
192.9999439136403
 21
307.2894658787245
 31
0.0
  0
LINE
  5
196
330
1F
100
AcDbEntity
  8
仕上
  6
Continuous
 62
     3
370
     9
100
AcDbLine
 10
88.00004288956939
 20
307.2894658787245
 30
0.0
 11
96.00016825907937
 21
307.2894658787245
 31
0.0
  0
LINE
  5
197
330
1F
100
AcDbEntity
  8
仕上
  6
Continuous
 62
     3
370
     9
100
AcDbLine
 10
88.00004288956939
 20
289.2895549570608
 30
0.0
 11
96.00016825907937
 21
289.2895549570608
 31
0.0
  0
LINE
  5
198
330
1F
100
AcDbEntity
  8
仕上
  6
Continuous
 62
     3
370
     9
100
AcDbLine
 10
220.999937315245
 20
307.2894658787245
 30
0.0
 11
192.9999439136403
 21
307.2894658787245
 31
0.0
  0
LINE
  5
199
330
1F
100
AcDbEntity
  8
仕上
  6
Continuous
 62
     3
370
     9
100
AcDbLine
 10
220.999937315245
 20
289.2895549570608
 30
0.0
 11
192.9999439136403
 21
289.2895549570608
 31
0.0
  0
LINE
  5
19A
330
1F
100
AcDbEntity
  8
仕上
  6
Continuous
 62
     3
370
     9
100
AcDbLine
 10
220.999937315245
 20
289.2895549570608
 30
0.0
 11
220.999937315245
 21
307.2894658787245
 31
0.0
  0
LINE
  5
19B
330
1F
100
AcDbEntity
  8
仕上
  6
Continuous
 62
     3
370
     9
100
AcDbLine
 10
209.9999505120355
 20
282.2895566066595
 30
0.0
 11
209.9999505120355
 21
273.2893784499872
 31
0.0
  0
LINE
  5
19C
330
1F
100
AcDbEntity
  8
仕上
  6
Continuous
 62
     3
370
     9
100
AcDbLine
 10
72.00008907833626
 20
282.2895566066595
 30
0.0
 11
72.00008907833626
 21
273.2893784499872
 31
0.0
  0
LINE
  5
19D
330
1F
100
AcDbEntity
  8
仕上
  6
Continuous
 62
     3
370
     9
100
AcDbLine
 10
217.1268112595017
 20
332.28959784663
 30
0.0
 11
209.9999505120355
 21
332.28959784663
 31
0.0
  0
LINE
  5
19E
330
1F
100
AcDbEntity
  8
仕上
  6
Continuous
 62
     3
370
     9
100
AcDbLine
 10
221.2333225559544
 20
314.2895384610725
 30
0.0
 11
209.9999505120355
 21
314.2895384610725
 31
0.0
  0
LINE
  5
19F
330
1F
100
AcDbEntity
  8
仕上
  6
Continuous
 62
     3
370
     9
100
AcDbLine
 10
224.8202102248734
 20
282.2895566066595
 30
0.0
 11
209.9999505120355
 21
282.2895566066595
 31
0.0
  0
LINE
  5
1A0
330
1F
100
AcDbEntity
  8
仕上
  6
Continuous
 62
     3
370
     9
100
AcDbLine
 10
215.1023576066302
 20
339.2895219650844
 30
0.0
 11
192.9999439136403
 21
339.2895219650844
 31
0.0
  0
LINE
  5
1A1
330
1F
100
AcDbEntity
  8
仕上
  6
Continuous
 62
     3
370
     9
100
AcDbLine
 10
208.7317719330659
 20
357.2898782784289
 30
0.0
 11
192.9999439136403
 21
357.2898782784289
 31
0.0
  0
LINE
  5
1A2
330
1F
100
AcDbEntity
  8
仕上
  6
Continuous
 62
     3
370
     9
100
AcDbLine
 10
203.9999307168497
 20
364.2898023968834
 30
0.0
 11
163.9998977248733
 21
364.2898023968834
 31
0.0
  0
LINE
  5
1A3
330
1F
100
AcDbEntity
  8
仕上
  6
Continuous
 62
     3
370
     9
100
AcDbLine
 10
203.9999307168497
 20
368.2055375900844
 30
0.0
 11
203.9999307168497
 21
364.2898023968834
 31
0.0
  0
LINE
  5
1A4
330
1F
100
AcDbEntity
  8
仕上
  6
Continuous
 62
     3
370
     9
100
AcDbLine
 10
196.8350632126267
 20
382.2892679268666
 30
0.0
 11
163.9998977248733
 21
382.2892679268666
 31
0.0
  0
LINE
  5
1A5
330
1F
100
AcDbEntity
  8
仕上
  6
Continuous
 62
     3
370
     9
100
AcDbLine
 10
188.0002738334038
 20
389.289488973108
 30
0.0
 11
188.0002738334038
 21
396.9061321054983
 31
0.0
  0
LINE
  5
1A6
330
1F
100
AcDbEntity
  8
仕上
  6
Continuous
 62
     3
370
     9
100
AcDbLine
 10
175.3398668443834
 20
414.2896209410134
 30
0.0
 11
163.9998977248733
 21
414.2896209410134
 31
0.0
  0
LINE
  5
1A7
330
1F
100
AcDbEntity
  8
仕上
  6
Continuous
 62
     3
370
     9
100
AcDbLine
 10
163.9998977248733
 20
427.3320255282178
 30
0.0
 11
163.9998977248733
 21
414.2896209410134
 31
0.0
  0
LINE
  5
1A8
330
1F
100
AcDbEntity
  8
仕上
  6
Continuous
 62
     3
370
     9
100
AcDbLine
 10
128.9999802048142
 20
457.289515366689
 30
0.0
 11
100.9999868032095
 21
457.289515366689
 31
0.0
  0
LINE
  5
1A9
330
1F
100
AcDbEntity
  8
仕上
  6
Continuous
 62
     3
370
     9
100
AcDbLine
 10
112.0001220703125
 20
468.433215218885
 30
0.0
 11
112.0001220703125
 21
464.2897364129306
 31
0.0
  0
LINE
  5
1AA
330
1F
100
AcDbEntity
  8
仕上
  6
Continuous
 62
     3
370
     9
100
AcDbLine
 10
180.0001484638936
 20
389.289488973108
 30
0.0
 11
180.0001484638936
 21
407.2896968225591
 31
0.0
  0
LINE
  5
1AB
330
1F
100
AcDbEntity
  8
仕上
  6
Continuous
 62
     3
370
     9
100
AcDbLine
 10
180.746031065245
 20
407.2896968225591
 30
0.0
 11
180.0001484638936
 21
407.2896968225591
 31
0.0
  0
LINE
  5
1AC
330
1F
100
AcDbEntity
  8
仕上
  6
Continuous
 62
     3
370
     9
100
AcDbLine
 10
142.000072582348
 20
439.2896044450253
 30
0.0
 11
133.9999472128378
 21
439.2896044450253
 31
0.0
  0
LINE
  5
1AD
330
1F
100
AcDbEntity
  8
仕上
  6
Continuous
 62
     3
370
     9
100
AcDbLine
 10
146.9998911264781
 20
439.2896044450253
 30
0.0
 11
151.88494708087
 21
439.2896044450253
 31
0.0
  0
LINE
  5
1AE
330
1F
100
AcDbEntity
  8
仕上
  6
Continuous
 62
     3
370
     9
100
AcDbLine
 10
146.9998911264781
 20
439.2896044450253
 30
0.0
 11
146.9998911264781
 21
443.6305402294425
 31
0.0
  0
LINE
  5
1AF
330
1F
100
AcDbEntity
  8
仕上
  6
Continuous
 62
     3
370
     9
100
AcDbLine
 10
142.000072582348
 20
439.2896044450253
 30
0.0
 11
142.000072582348
 21
447.8203397701942
 31
0.0
  0
LINE
  5
1B0
330
1F
100
AcDbEntity
  8
仕上
  6
Continuous
 62
     3
370
     9
100
AcDbLine
 10
133.9999472128378
 20
439.2896044450253
 30
0.0
 11
133.9999472128378
 21
454.0353352832855
 31
0.0
  0
LINE
  5
1B1
330
1F
100
AcDbEntity
  8
仕上
  6
Continuous
 62
     3
370
     9
100
AcDbLine
 10
26.00018475506766
 20
472.6007451755995
 30
0.0
 11
26.00018475506766
 21
464.2897364129306
 31
0.0
  0
LINE
  5
1B2
330
1F
100
AcDbEntity
  8
仕上
  6
Continuous
 62
     3
370
     9
100
AcDbLine
 10
20.00001649598829
 20
473.2919930641131
 30
0.0
 11
20.00001649598829
 21
464.2897364129306
 31
0.0
  0
LINE
  5
1B3
330
1F
100
AcDbEntity
  8
仕上
  6
Continuous
 62
     3
370
     9
100
AcDbLine
 10
62.60945088154563
 20
464.2897364129306
 30
0.0
 11
26.00018475506766
 21
464.2897364129306
 31
0.0
  0
LINE
  5
1B4
330
1F
100
AcDbEntity
  8
仕上
  6
Continuous
 62
     3
370
     9
100
AcDbLine
 10
112.0001220703125
 20
464.2897364129306
 30
0.0
 11
86.69163059543922
 21
464.2897364129306
 31
0.0
  0
LINE
  5
1B5
330
1F
100
AcDbEntity
  8
仕上
  6
Continuous
 62
     3
370
     9
100
AcDbLine
 10
79.59832268792235
 20
465.4565141525844
 30
0.0
 11
88.40015308277032
 21
486.7058543130573
 31
0.0
  0
LINE
  5
1B6
330
1F
100
AcDbEntity
  8
仕上
  6
Continuous
 62
     3
370
     9
100
AcDbLine
 10
86.69163059543922
 20
464.2897364129306
 30
0.0
 11
92.52923089104735
 21
478.382968438902
 31
0.0
  0
LINE
  5
1B7
330
1F
100
AcDbEntity
  8
仕上
  6
Continuous
 62
     3
370
     9
100
AcDbLine
 10
174.9998845280828
 20
292.2895648546536
 30
0.0
 11
174.9998845280828
 21
307.2894658787245
 31
0.0
  0
LINE
  5
1B8
330
1F
100
AcDbEntity
  8
仕上
  6
Continuous
 62
     3
370
     9
100
AcDbLine
 10
101.0001352671031
 20
292.2895648546536
 30
0.0
 11
101.0001352671031
 21
307.2894658787245
 31
0.0
  0
LINE
  5
1B9
330
1F
100
AcDbEntity
  8
仕上
  6
Continuous
 62
     3
370
     9
100
AcDbLine
 10
26.00018475506766
 20
382.2892679268666
 30
0.0
 11
26.00018475506766
 21
364.2898023968834
 31
0.0
  0
LINE
  5
1BA
330
1F
100
AcDbEntity
  8
仕上
  6
Continuous
 62
     3
370
     9
100
AcDbLine
 10
-17.00000659839515
 20
129.7893009188428
 30
0.0
 11
17.00000659839532
 21
129.7893009188428
 31
0.0
  0
LINE
  5
1BB
330
1F
100
AcDbEntity
  8
仕上
  6
Continuous
 62
     3
370
     9
100
AcDbLine
 10
17.00000659839532
 20
129.7893009188428
 30
0.0
 11
17.00000659839532
 21
116.789579701043
 31
0.0
  0
LINE
  5
1BC
330
1F
100
AcDbEntity
  8
仕上
  6
Continuous
 62
     3
370
     9
100
AcDbLine
 10
-17.00000659839515
 20
129.7893009188428
 30
0.0
 11
-17.00000659839515
 21
116.789579701043
 31
0.0
  0
LINE
  5
1BD
330
1F
100
AcDbEntity
  8
仕上
  6
Continuous
 62
     3
370
     9
100
AcDbLine
 10
-17.00000659839515
 20
116.789579701043
 30
0.0
 11
17.00000659839532
 21
116.789579701043
 31
0.0
  0
LINE
  5
1BE
330
1F
100
AcDbEntity
  8
仕上
  6
Continuous
 62
     3
370
     9
100
AcDbLine
 10
20.00001649598829
 20
382.2892679268666
 30
0.0
 11
20.00001649598829
 21
364.2898023968834
 31
0.0
  0
LINE
  5
1BF
330
1F
100
AcDbEntity
  8
仕上
  6
Continuous
 62
     3
370
     9
100
AcDbLine
 10
-19.99986803209453
 20
364.2898023968834
 30
0.0
 11
20.00001649598829
 21
364.2898023968834
 31
0.0
  0
LINE
  5
1C0
330
1F
100
AcDbEntity
  8
仕上
  6
Continuous
 62
     3
370
     9
100
AcDbLine
 10
66.00006928315031
 20
364.2898023968834
 30
0.0
 11
26.00018475506766
 21
364.2898023968834
 31
0.0
  0
LINE
  5
1C1
330
1F
100
AcDbEntity
  8
仕上
  6
Continuous
 62
     3
370
     9
100
AcDbLine
 10
133.9999472128378
 20
307.2894658787245
 30
0.0
 11
142.000072582348
 21
307.2894658787245
 31
0.0
  0
LINE
  5
1C2
330
1F
100
AcDbEntity
  8
仕上
  6
Continuous
 62
     3
370
     9
100
AcDbLine
 10
147.0001880542653
 20
294.9975462735725
 30
0.0
 11
147.0001880542653
 21
307.2894658787245
 31
0.0
  0
LINE
  5
1C3
330
1F
100
AcDbEntity
  8
仕上
  6
Continuous
 62
     3
370
     9
100
AcDbLine
 10
142.000072582348
 20
296.4465538749239
 30
0.0
 11
142.000072582348
 21
307.2894658787245
 31
0.0
  0
LINE
  5
1C4
330
1F
100
AcDbEntity
  8
仕上
  6
Continuous
 62
     3
370
     9
100
AcDbLine
 10
133.9999472128378
 20
296.4465538749239
 30
0.0
 11
133.9999472128378
 21
307.2894658787245
 31
0.0
  0
LINE
  5
1C5
330
1F
100
AcDbEntity
  8
仕上
  6
Continuous
 62
     3
370
     9
100
AcDbLine
 10
129.0001286687078
 20
294.9976947374661
 30
0.0
 11
129.0001286687078
 21
307.2894658787245
 31
0.0
  0
LINE
  5
1C6
330
1F
100
AcDbEntity
  8
仕上
  6
JWW_CENTER1
 62
     3
370
     9
100
AcDbLine
 10
320.7373871674409
 20
273.2893784499872
 30
0.0
 11
-320.7372387035473
 21
273.2893784499872
 31
0.0
  0
LINE
  5
1C7
330
1F
100
AcDbEntity
  8
仕上
  6
JWW_CENTER1
 62
     3
370
     9
100
AcDbLine
 10
16.77033295502531
 20
548.2894196899576
 30
0.0
 11
-16.77033295502531
 21
548.2894196899576
 31
0.0
  0
LINE
  5
1C8
330
1F
100
AcDbEntity
  8
仕上
  6
Continuous
 62
     3
370
     9
100
AcDbLine
 10
112.0001220703125
 20
332.28959784663
 30
0.0
 11
72.00008907833626
 21
332.28959784663
 31
0.0
  0
LINE
  5
1C9
330
1F
100
AcDbEntity
  8
仕上
  6
Continuous
 62
     3
370
     9
100
AcDbLine
 10
37.00002309438344
 20
339.2895219650844
 30
0.0
 11
8.999881228885158
 21
339.2895219650844
 31
0.0
  0
LINE
  5
1CA
330
1F
100
AcDbEntity
  8
仕上
  6
Continuous
 62
     3
370
     9
100
AcDbLine
 10
8.999881228885158
 20
339.2895219650844
 30
0.0
 11
8.999881228885158
 21
357.2898782784289
 31
0.0
  0
LINE
  5
1CB
330
1F
100
AcDbEntity
  8
建具
  6
Continuous
 62
     4
370
     9
100
AcDbLine
 10
-232.4996535842483
 20
-320.9896891307772
 30
0.0
 11
-232.4996535842483
 21
-345.9897468667358
 31
0.0
  0
LINE
  5
1CC
330
1F
100
AcDbEntity
  8
建具
  6
Continuous
 62
     4
370
     9
100
AcDbLine
 10
-237.7186048353041
 20
-322.9896462412079
 30
0.0
 11
-234.7671426309121
 21
-343.9896041764381
 31
0.0
  0
LINE
  5
1CD
330
1F
100
AcDbEntity
  8
建具
  6
Continuous
 62
     4
370
     9
100
AcDbLine
 10
-235.857313001478
 20
-320.9896891307772
 30
0.0
 11
-232.4996535842483
 21
-320.9896891307772
 31
0.0
  0
LINE
  5
1CE
330
1F
100
AcDbEntity
  8
建具
  6
Continuous
 62
     4
370
     9
100
AcDbLine
 10
-239.9718413481841
 20
-340.8247622409967
 30
0.0
 11
-241.7988380225929
 21
-327.824669863463
 31
0.0
  0
LINE
  5
1CF
330
1F
100
AcDbEntity
  8
建具
  6
Continuous
 62
     4
370
     9
100
AcDbLine
 10
-234.030019399282
 20
-345.9897468667358
 30
0.0
 11
-232.4996535842483
 21
-345.9897468667358
 31
0.0
  0
LINE
  5
1D0
330
1F
100
AcDbEntity
  8
建具
  6
Continuous
 62
     4
370
     9
100
AcDbLine
 10
-237.863208667652
 20
-322.9896462412079
 30
0.0
 11
-237.7186048353041
 21
-322.9896462412079
 31
0.0
  0
LINE
  5
1D1
330
1F
100
AcDbEntity
  8
建具
  6
Continuous
 62
     4
370
     9
100
AcDbLine
 10
-235.0523417704814
 20
-343.9896041764381
 30
0.0
 11
-234.7671426309121
 21
-343.9896041764381
 31
0.0
  0
LINE
  5
1D2
330
1F
100
AcDbEntity
  8
建具
  6
Continuous
 62
     4
370
     9
100
AcDbLine
 10
-235.5477657833615
 20
-343.5592815808933
 30
0.0
 11
-238.3584842166385
 21
-323.5593022008785
 31
0.0
  0
LINE
  5
1D3
330
1F
100
AcDbEntity
  8
建具
  6
Continuous
 62
     4
370
     9
100
AcDbLine
 10
232.4996535842484
 20
-320.9896891307772
 30
0.0
 11
232.4996535842484
 21
-345.9897468667358
 31
0.0
  0
LINE
  5
1D4
330
1F
100
AcDbEntity
  8
建具
  6
Continuous
 62
     4
370
     9
100
AcDbLine
 10
237.7184563714105
 20
-322.9896462412079
 30
0.0
 11
234.7672910948058
 21
-343.9896041764381
 31
0.0
  0
LINE
  5
1D5
330
1F
100
AcDbEntity
  8
建具
  6
Continuous
 62
     4
370
     9
100
AcDbLine
 10
235.8573130014781
 20
-320.9896891307772
 30
0.0
 11
232.4996535842484
 21
-320.9896891307772
 31
0.0
  0
LINE
  5
1D6
330
1F
100
AcDbEntity
  8
建具
  6
Continuous
 62
     4
370
     9
100
AcDbLine
 10
239.9718413481842
 20
-340.8247622409967
 30
0.0
 11
241.7991349503802
 21
-327.824669863463
 31
0.0
  0
LINE
  5
1D7
330
1F
100
AcDbEntity
  8
建具
  6
Continuous
 62
     4
370
     9
100
AcDbLine
 10
235.291368639147
 20
-345.9897468667358
 30
0.0
 11
232.4996535842484
 21
-345.9897468667358
 31
0.0
  0
LINE
  5
1D8
330
1F
100
AcDbEntity
  8
建具
  6
Continuous
 62
     4
370
     9
100
AcDbLine
 10
237.8633571315456
 20
-322.9896462412079
 30
0.0
 11
237.7184563714105
 21
-322.9896462412079
 31
0.0
  0
LINE
  5
1D9
330
1F
100
AcDbEntity
  8
建具
  6
Continuous
 62
     4
370
     9
100
AcDbLine
 10
235.0526386982686
 20
-343.9896041764381
 30
0.0
 11
234.7672910948058
 21
-343.9896041764381
 31
0.0
  0
LINE
  5
1DA
330
1F
100
AcDbEntity
  8
建具
  6
Continuous
 62
     4
370
     9
100
AcDbLine
 10
235.5479142472552
 20
-343.5592815808933
 30
0.0
 11
238.3586326805322
 21
-323.5593022008785
 31
0.0
  0
LINE
  5
1DB
330
1F
100
AcDbEntity
  8
仕上
  6
JWW_CENTER1
 62
     3
370
     9
100
AcDbLine
 10
275.0001154719174
 20
289.7661240554559
 30
0.0
 11
275.0001154719174
 21
256.8127070764653
 31
0.0
  0
LINE
  5
1DC
330
1F
100
AcDbEntity
  8
躯体
  6
Continuous
 62
     2
370
     9
100
AcDbLine
 10
-283.9998482369087
 20
278.2893454580109
 30
0.0
 11
-283.9998482369087
 21
273.2893784499872
 31
0.0
  0
LINE
  5
1DD
330
1F
100
AcDbEntity
  8
躯体
  6
Continuous
 62
     2
370
     9
100
AcDbLine
 10
-282.4999175200591
 20
278.2893454580109
 30
0.0
 11
-282.4999175200591
 21
268.2894856739105
 31
0.0
  0
LINE
  5
1DE
330
1F
100
AcDbEntity
  8
躯体
  6
Continuous
 62
     2
370
     9
100
AcDbLine
 10
-267.5000164959881
 20
278.2893454580109
 30
0.0
 11
-267.5000164959881
 21
268.2894856739105
 31
0.0
  0
LINE
  5
1DF
330
1F
100
AcDbEntity
  8
躯体
  6
Continuous
 62
     2
370
     9
100
AcDbLine
 10
-265.9999373152449
 20
278.2893454580109
 30
0.0
 11
-265.9999373152449
 21
273.2893784499872
 31
0.0
  0
LINE
  5
1E0
330
1F
100
AcDbEntity
  8
仕上
  6
JWW_CENTER1
 62
     3
370
     9
100
AcDbLine
 10
-274.9999670080236
 20
289.7661240554559
 30
0.0
 11
-274.9999670080236
 21
256.8127070764653
 31
0.0
  0
LINE
  5
1E1
330
1F
100
AcDbEntity
  8
躯体
  6
Continuous
 62
     2
370
     9
100
AcDbLine
 10
5.000115471917354
 20
5.78943618594576
 30
0.0
 11
-4.999967008023589
 21
5.78943618594576
 31
0.0
  0
LINE
  5
1E2
330
1F
100
AcDbEntity
  8
躯体
  6
Continuous
 62
     2
370
     9
100
AcDbLine
 10
5.000115471917354
 20
-9.2106133020186
 30
0.0
 11
-4.999967008023589
 21
-9.2106133020186
 31
0.0
  0
LINE
  5
1E3
330
1F
100
AcDbEntity
  8
仕上
  6
JWW_CENTER1
 62
     3
370
     9
100
AcDbLine
 10
16.77033295502531
 20
-1.71058855803642
 30
0.0
 11
-16.77033295502531
 21
-1.71058855803642
 31
0.0
  0
LINE
  5
1E4
330
1F
100
AcDbEntity
  8
躯体
  6
Continuous
 62
     2
370
     9
100
AcDbLine
 10
284.808531065245
 20
-352.4892734318751
 30
0.0
 11
258.1987535631334
 21
-352.4897188235559
 31
0.0
  0
LINE
  5
1E5
330
1F
100
AcDbEntity
  8
躯体
  6
Continuous
 62
     2
370
     9
100
AcDbLine
 10
266.1694830817145
 20
-353.2801405929816
 30
0.0
 11
267.5003134237753
 21
-359.4895687100635
 31
0.0
  0
LINE
  5
1E6
330
1F
100
AcDbEntity
  8
躯体
  6
Continuous
 62
     2
370
     9
100
AcDbLine
 10
284.808531065245
 20
-352.4897188235559
 30
0.0
 11
293.1326046505491
 21
-352.4897188235559
 31
0.0
  0
LINE
  5
1E7
330
1F
100
AcDbEntity
  8
躯体
  6
Continuous
 62
     2
370
     9
100
AcDbLine
 10
283.83074786212
 20
-353.2802890568751
 30
0.0
 11
282.5002144478464
 21
-359.4896429420103
 31
0.0
  0
LINE
  5
1E8
330
1F
100
AcDbEntity
  8
躯体
  6
JWW_DASHED1
 62
     2
370
     9
100
AcDbLine
 10
282.2932557801944
 20
-354.1967566719511
 30
0.0
 11
283.7072259026605
 21
-352.7826380855913
 31
0.0
  0
LINE
  5
1E9
330
1F
100
AcDbEntity
  8
躯体
  6
JWW_DASHED1
 62
     2
370
     9
100
AcDbLine
 10
267.4145012932855
 20
-354.4897501659334
 30
0.0
 11
281.5859737911741
 21
-354.4897501659334
 31
0.0
  0
LINE
  5
1EA
330
1F
100
AcDbEntity
  8
躯体
  6
JWW_DASHED1
 62
     2
370
     9
100
AcDbLine
 10
265.2929522540119
 20
-352.7826380855913
 30
0.0
 11
266.7072193042653
 21
-354.1967566719511
 31
0.0
  0
LINE
  5
1EB
330
1F
100
AcDbEntity
  8
躯体
  6
Continuous
 62
     2
370
     9
100
AcDbLine
 10
-294.1224134290541
 20
-353.348359752082
 30
0.0
 11
-294.9999835040118
 21
-359.4896429420103
 31
0.0
  0
LINE
  5
1EC
330
1F
100
AcDbEntity
  8
躯体
  6
Continuous
 62
     2
370
     9
100
AcDbLine
 10
-284.8083826013514
 20
-352.4892734318751
 30
0.0
 11
-258.1984566353462
 21
-352.4897188235559
 31
0.0
  0
LINE
  5
1ED
330
1F
100
AcDbEntity
  8
躯体
  6
Continuous
 62
     2
370
     9
100
AcDbLine
 10
-266.1691861539273
 20
-353.2801405929816
 30
0.0
 11
-267.5000164959881
 21
-359.4895687100635
 31
0.0
  0
LINE
  5
1EE
330
1F
100
AcDbEntity
  8
躯体
  6
Continuous
 62
     2
370
     9
100
AcDbLine
 10
-284.8083826013514
 20
-352.4897188235559
 30
0.0
 11
-293.1327531144426
 21
-352.4897188235559
 31
0.0
  0
LINE
  5
1EF
330
1F
100
AcDbEntity
  8
躯体
  6
Continuous
 62
     2
370
     9
100
AcDbLine
 10
-283.8304509343327
 20
-353.2802890568751
 30
0.0
 11
-282.4999175200591
 21
-359.4896429420103
 31
0.0
  0
LINE
  5
1F0
330
1F
100
AcDbEntity
  8
躯体
  6
JWW_DASHED1
 62
     2
370
     9
100
AcDbLine
 10
-282.2926619246199
 20
-354.1967566719511
 30
0.0
 11
-283.7070774387669
 21
-352.7826380855913
 31
0.0
  0
LINE
  5
1F1
330
1F
100
AcDbEntity
  8
躯体
  6
JWW_DASHED1
 62
     2
370
     9
100
AcDbLine
 10
-267.4142043654983
 20
-354.4897501659334
 30
0.0
 11
-281.5856768633868
 21
-354.4897501659334
 31
0.0
  0
LINE
  5
1F2
330
1F
100
AcDbEntity
  8
躯体
  6
JWW_DASHED1
 62
     2
370
     9
100
AcDbLine
 10
-265.2926553262246
 20
-352.7826380855913
 30
0.0
 11
-266.7070708403716
 21
-354.1967566719511
 31
0.0
  0
LINE
  5
1F3
330
1F
100
AcDbEntity
  8
躯体
  6
JWW_CENTER1
 62
     2
370
     9
100
AcDbLine
 10
275.0001154719174
 20
-340.1473957265331
 30
0.0
 11
275.0001154719174
 21
-373.1008869374706
 31
0.0
  0
LINE
  5
1F4
330
1F
100
AcDbEntity
  8
躯体
  6
JWW_CENTER1
 62
     2
370
     9
100
AcDbLine
 10
-274.9999670080236
 20
-340.1473957265331
 30
0.0
 11
-274.9999670080236
 21
-373.1008869374706
 31
0.0
  0
LINE
  5
1F5
330
1F
100
AcDbEntity
  8
仕上
  6
JWW_CENTER1
 62
     3
370
     9
100
AcDbLine
 10
0.0
 20
594.0266913854814
 30
0.0
 11
0.0
 21
-30.17059733390221
 31
0.0
  0
LINE
  5
1F6
330
1F
100
AcDbEntity
  8
仕上
  6
Continuous
 62
     3
370
     9
100
AcDbLine
 10
-243.0005047772381
 20
-302.4890094960643
 30
0.0
 11
-241.5951455605996
 21
-312.4890919760052
 31
0.0
  0
LINE
  5
1F7
330
1F
100
AcDbEntity
  8
仕上
  6
Continuous
 62
     3
370
     9
100
AcDbLine
 10
-225.0
 20
-301.8871368714866
 30
0.0
 11
-221.9996931746199
 21
-306.7934973946074
 31
0.0
  0
LINE
  5
1F8
330
1F
100
AcDbEntity
  8
仕上
  6
Continuous
 62
     3
370
     9
100
AcDbLine
 10
-113.0049257020692
 20
-304.2119329810728
 30
0.0
 11
-112.6202557538006
 21
-323.713259258522
 31
0.0
  0
LINE
  5
1F9
330
1F
100
AcDbEntity
  8
仕上
  6
Continuous
 62
     3
370
     9
100
AcDbLine
 10
-162.9950940931166
 20
-305.1977332344511
 30
0.0
 11
-162.610424144848
 21
-324.6990595119005
 31
0.0
  0
LINE
  5
1FA
330
1F
100
AcDbEntity
  8
仕上
  6
Continuous
 62
     3
370
     9
100
AcDbLine
 10
-132.1334591427364
 20
-348.5975893894342
 30
0.0
 11
-142.1316115920608
 21
-348.7948979040035
 31
0.0
  0
LINE
  5
1FB
330
1F
100
AcDbEntity
  8
仕上
  6
Continuous
 62
     3
370
     9
100
AcDbLine
 10
-131.4419143264358
 20
-354.5851382175592
 30
0.0
 11
-142.5863564980997
 21
-354.8050132439528
 31
0.0
  0
LINE
  5
1FC
330
1F
100
AcDbEntity
  8
仕上
  6
Continuous
 62
     3
370
     9
100
AcDbLine
 10
-241.3034140097128
 20
-312.4890919760052
 30
0.0
 11
-241.5951455605996
 21
-312.4890919760052
 31
0.0
  0
LINE
  5
1FD
330
1F
100
AcDbEntity
  8
仕上
  6
JWW_CENTER1
 62
     3
370
     9
100
AcDbLine
 10
-138.1861836201436
 20
-295.2610448370694
 30
0.0
 11
-136.8148226351352
 21
-364.8019779821285
 31
0.0
  0
LINE
  5
1FE
330
1F
100
AcDbEntity
  8
仕上
  6
Continuous
 62
     3
370
     9
100
AcDbLine
 10
-184.1382825696791
 20
-300.693041775414
 30
0.0
 11
-187.0386731946791
 21
-305.7716204150888
 31
0.0
  0
LINE
  5
1FF
330
1F
100
AcDbEntity
  8
仕上
  6
Continuous
 62
     3
370
     9
100
AcDbLine
 10
-177.1143073004645
 20
-300.5116188974579
 30
0.0
 11
-177.0166180584881
 21
-305.4741730042991
 31
0.0
  0
LINE
  5
200
330
1F
100
AcDbEntity
  8
仕上
  6
Continuous
 62
     3
370
     9
100
AcDbLine
 10
-170.0924105257601
 20
-300.3374707502873
 30
0.0
 11
-169.9936820365287
 21
-305.3365469749494
 31
0.0
  0
LINE
  5
201
330
1F
100
AcDbEntity
  8
仕上
  6
Continuous
 62
     3
370
     9
100
AcDbLine
 10
-98.85809821051515
 20
-298.9687821153633
 30
0.0
 11
-95.66018594277875
 21
-303.9248038108869
 31
0.0
  0
LINE
  5
202
330
1F
100
AcDbEntity
  8
仕上
  6
Continuous
 62
     3
370
     9
100
AcDbLine
 10
-106.1046208562078
 20
-299.0750822631674
 30
0.0
 11
-106.006337758657
 21
-304.074010023936
 31
0.0
  0
LINE
  5
203
330
1F
100
AcDbEntity
  8
仕上
  6
Continuous
 62
     3
370
     9
100
AcDbLine
 10
-168.7566808752111
 20
-317.3395558431927
 30
0.0
 11
-168.6094046927787
 21
-324.817236771191
 31
0.0
  0
LINE
  5
204
330
1F
100
AcDbEntity
  8
仕上
  6
Continuous
 62
     3
370
     9
100
AcDbLine
 10
-106.7686998521959
 20
-316.1159164322975
 30
0.0
 11
-106.6212752058698
 21
-323.594933535338
 31
0.0
  0
LINE
  5
205
330
1F
100
AcDbEntity
  8
仕上
  6
Continuous
 62
     3
370
     9
100
AcDbLine
 10
-73.5651954444678
 20
-329.3398923613515
 30
0.0
 11
-74.61127203864015
 21
-314.3753257439528
 31
0.0
  0
LINE
  5
206
330
1F
100
AcDbEntity
  8
仕上
  6
Continuous
 62
     3
370
     9
100
AcDbLine
 10
-66.43492002744921
 20
-329.3398923613515
 30
0.0
 11
-65.3751847550675
 21
-314.1829165378717
 31
0.0
  0
LINE
  5
207
330
1F
100
AcDbEntity
  8
仕上
  6
Continuous
 62
     3
370
     9
100
AcDbLine
 10
-220.4865491712416
 20
-330.2701671185306
 30
0.0
 11
-168.0164399018159
 21
-330.2701671185306
 31
0.0
  0
LINE
  5
208
330
1F
100
AcDbEntity
  8
仕上
  6
Continuous
 62
     3
370
     9
100
AcDbLine
 10
-238.8047666807432
 20
-320.9898375946707
 30
0.0
 11
-239.8180327544341
 21
-313.7802082265331
 31
0.0
  0
LINE
  5
209
330
1F
100
AcDbEntity
  8
仕上
  6
Continuous
 62
     3
370
     9
100
AcDbLine
 10
-232.4999505120355
 20
-320.9898375946707
 30
0.0
 11
-238.8047666807432
 21
-320.9898375946707
 31
0.0
  0
LINE
  5
20A
330
1F
100
AcDbEntity
  8
仕上
  6
Continuous
 62
     3
370
     9
100
AcDbLine
 10
-232.4999505120355
 20
-345.9897468667358
 30
0.0
 11
-232.4999505120355
 21
-320.9898375946707
 31
0.0
  0
LINE
  5
20B
330
1F
100
AcDbEntity
  8
仕上
  6
Continuous
 62
     3
370
     9
100
AcDbLine
 10
-232.4999505120355
 20
-345.9897468667358
 30
0.0
 11
-235.2912201752534
 21
-345.9897468667358
 31
0.0
  0
LINE
  5
20C
330
1F
100
AcDbEntity
  8
仕上
  6
Continuous
 62
     3
370
     9
100
AcDbLine
 10
-234.3775733741554
 20
-352.4897188235559
 30
0.0
 11
-235.2912201752534
 21
-345.9897468667358
 31
0.0
  0
LINE
  5
20D
330
1F
100
AcDbEntity
  8
仕上
  6
Continuous
 62
     3
370
     9
100
AcDbLine
 10
-226.7401452966638
 20
-352.4897188235559
 30
0.0
 11
-234.3775733741554
 21
-352.4897188235559
 31
0.0
  0
LINE
  5
20E
330
1F
100
AcDbEntity
  8
仕上
  6
Continuous
 62
     3
370
     9
100
AcDbLine
 10
-224.2085389833192
 20
-317.3526206658278
 30
0.0
 11
-226.7401452966638
 21
-352.4897188235559
 31
0.0
  0
LINE
  5
20F
330
1F
100
AcDbEntity
  8
仕上
  6
Continuous
 62
     3
370
     9
100
AcDbLine
 10
243.0008017050253
 20
-302.4890094960643
 30
0.0
 11
241.5951455605997
 21
-312.4890919760052
 31
0.0
  0
LINE
  5
210
330
1F
100
AcDbEntity
  8
仕上
  6
Continuous
 62
     3
370
     9
100
AcDbLine
 10
225.0001484638936
 20
-301.8871368714866
 30
0.0
 11
221.9999901024072
 21
-306.7934973946074
 31
0.0
  0
LINE
  5
211
330
1F
100
AcDbEntity
  8
仕上
  6
Continuous
 62
     3
370
     9
100
AcDbLine
 10
241.3035624736064
 20
-312.4890919760052
 30
0.0
 11
241.5951455605997
 21
-312.4890919760052
 31
0.0
  0
LINE
  5
212
330
1F
100
AcDbEntity
  8
仕上
  6
Continuous
 62
     3
370
     9
100
AcDbLine
 10
73.56504698057438
 20
-329.3398923613515
 30
0.0
 11
74.61142050253375
 21
-314.3753257439528
 31
0.0
  0
LINE
  5
213
330
1F
100
AcDbEntity
  8
仕上
  6
Continuous
 62
     3
370
     9
100
AcDbLine
 10
66.43492002744938
 20
-329.3398923613515
 30
0.0
 11
65.37533321896126
 21
-314.1829165378717
 31
0.0
  0
LINE
  5
214
330
1F
100
AcDbEntity
  8
仕上
  6
Continuous
 62
     3
370
     9
100
AcDbLine
 10
220.4868460990288
 20
-330.2701671185306
 30
0.0
 11
168.0164399018159
 21
-330.2701671185306
 31
0.0
  0
LINE
  5
215
330
1F
100
AcDbEntity
  8
仕上
  6
Continuous
 62
     3
370
     9
100
AcDbLine
 10
238.8049151446369
 20
-320.9898375946707
 30
0.0
 11
239.8180327544342
 21
-313.7802082265331
 31
0.0
  0
LINE
  5
216
330
1F
100
AcDbEntity
  8
仕上
  6
Continuous
 62
     3
370
     9
100
AcDbLine
 10
232.5002474398227
 20
-320.9898375946707
 30
0.0
 11
238.8049151446369
 21
-320.9898375946707
 31
0.0
  0
LINE
  5
217
330
1F
100
AcDbEntity
  8
仕上
  6
Continuous
 62
     3
370
     9
100
AcDbLine
 10
232.5002474398227
 20
-345.9897468667358
 30
0.0
 11
232.5002474398227
 21
-320.9898375946707
 31
0.0
  0
LINE
  5
218
330
1F
100
AcDbEntity
  8
仕上
  6
Continuous
 62
     3
370
     9
100
AcDbLine
 10
232.5002474398227
 20
-345.9897468667358
 30
0.0
 11
235.291368639147
 21
-345.9897468667358
 31
0.0
  0
LINE
  5
219
330
1F
100
AcDbEntity
  8
仕上
  6
Continuous
 62
     3
370
     9
100
AcDbLine
 10
234.3777218380491
 20
-352.4897188235559
 30
0.0
 11
235.291368639147
 21
-345.9897468667358
 31
0.0
  0
LINE
  5
21A
330
1F
100
AcDbEntity
  8
仕上
  6
Continuous
 62
     3
370
     9
100
AcDbLine
 10
226.7401452966639
 20
-352.4897188235559
 30
0.0
 11
234.3777218380491
 21
-352.4897188235559
 31
0.0
  0
LINE
  5
21B
330
1F
100
AcDbEntity
  8
仕上
  6
Continuous
 62
     3
370
     9
100
AcDbLine
 10
224.2091328388936
 20
-317.3526206658278
 30
0.0
 11
226.7401452966639
 21
-352.4897188235559
 31
0.0
  0
LINE
  5
21C
330
1F
100
AcDbEntity
  8
建具
  6
Continuous
 62
     4
370
     9
100
AcDbLine
 10
-169.0102572054476
 20
-304.3160804024199
 30
0.0
 11
-168.9903630437077
 21
-305.3158362617949
 31
0.0
  0
LINE
  5
21D
330
1F
100
AcDbEntity
  8
建具
  6
Continuous
 62
     4
370
     9
100
AcDbLine
 10
-107.0219792546453
 20
-303.0938513985136
 30
0.0
 11
-107.0025304845861
 21
-304.0936072578886
 31
0.0
  0
LINE
  5
21E
330
1F
100
AcDbEntity
  8
建具
  6
Continuous
 62
     4
370
     9
100
AcDbLine
 10
-162.5388645481419
 20
-318.1911447367738
 30
0.0
 11
-112.9485094225084
 21
-317.2132130697552
 31
0.0
  0
LINE
  5
21F
330
1F
100
AcDbEntity
  8
建具
  6
Continuous
 62
     4
370
     9
100
AcDbLine
 10
-118.1024334881756
 20
-299.3115110136953
 30
0.0
 11
-158.0945978937922
 21
-300.1000769844511
 31
0.0
  0
LINE
  5
220
330
1F
100
AcDbEntity
  8
建具
  6
Continuous
 62
     4
370
     9
100
AcDbLine
 10
-118.1024334881756
 20
-299.3115110136953
 30
0.0
 11
-118.0826877903294
 21
-300.3112668730703
 31
0.0
  0
LINE
  5
221
330
1F
100
AcDbEntity
  8
建具
  6
Continuous
 62
     4
370
     9
100
AcDbLine
 10
-158.0945978937922
 20
-300.1000769844511
 30
0.0
 11
-158.0748521959459
 21
-301.0998328438261
 31
0.0
  0
LINE
  5
222
330
1F
100
AcDbEntity
  8
建具
  6
Continuous
 62
     4
370
     9
100
AcDbLine
 10
-112.8768013619087
 20
-310.7081191086066
 30
0.0
 11
-112.9485094225084
 21
-317.2132130697552
 31
0.0
  0
LINE
  5
223
330
1F
100
AcDbEntity
  8
建具
  6
Continuous
 62
     4
370
     9
100
AcDbLine
 10
-162.8669697529561
 20
-311.694587449506
 30
0.0
 11
-162.5388645481419
 21
-318.1911447367738
 31
0.0
  0
LINE
  5
224
330
1F
100
AcDbEntity
  8
仕上
  6
Continuous
 62
     3
370
     9
100
AcDbLine
 10
-107.0025304845861
 20
-304.0936072578886
 30
0.0
 11
-106.006337758657
 21
-304.074010023936
 31
0.0
  0
LINE
  5
225
330
1F
100
AcDbEntity
  8
仕上
  6
Continuous
 62
     3
370
     9
100
AcDbLine
 10
-177.0166180584881
 20
-305.4741730042991
 30
0.0
 11
-168.9903630437077
 21
-305.3158362617949
 31
0.0
  0
LINE
  5
226
330
1F
100
AcDbEntity
  8
仕上
  6
Continuous
 62
     3
370
     9
100
AcDbLine
 10
-118.1024334881756
 20
-299.3115110136953
 30
0.0
 11
-106.0731465107686
 21
-299.0743399436994
 31
0.0
  0
LINE
  5
227
330
1F
100
AcDbEntity
  8
仕上
  6
Continuous
 62
     3
370
     9
100
AcDbLine
 10
-170.092113597973
 20
-300.3365799669258
 30
0.0
 11
-158.0945978937922
 21
-300.1000769844511
 31
0.0
  0
LINE
  5
228
330
1F
100
AcDbEntity
  8
仕上
  6
Continuous
 62
     3
370
     9
100
AcDbLine
 10
113.0050741659628
 20
-304.2119329810728
 30
0.0
 11
112.6201072899072
 21
-323.713259258522
 31
0.0
  0
LINE
  5
229
330
1F
100
AcDbEntity
  8
仕上
  6
Continuous
 62
     3
370
     9
100
AcDbLine
 10
162.9953910209038
 20
-305.1977332344511
 30
0.0
 11
162.6102756809544
 21
-324.6990595119005
 31
0.0
  0
LINE
  5
22A
330
1F
100
AcDbEntity
  8
仕上
  6
Continuous
 62
     3
370
     9
100
AcDbLine
 10
132.1334591427366
 20
-348.5975893894342
 30
0.0
 11
142.1316115920608
 21
-348.7948979040035
 31
0.0
  0
LINE
  5
22B
330
1F
100
AcDbEntity
  8
仕上
  6
Continuous
 62
     3
370
     9
100
AcDbLine
 10
131.4419143264358
 20
-354.5851382175592
 30
0.0
 11
142.5865049619933
 21
-354.8050132439528
 31
0.0
  0
LINE
  5
22C
330
1F
100
AcDbEntity
  8
仕上
  6
JWW_CENTER1
 62
     3
370
     9
100
AcDbLine
 10
138.1861836201436
 20
-295.2610448370694
 30
0.0
 11
136.8152680268159
 21
-364.8019779821285
 31
0.0
  0
LINE
  5
22D
330
1F
100
AcDbEntity
  8
仕上
  6
Continuous
 62
     3
370
     9
100
AcDbLine
 10
184.1384310335727
 20
-300.693041775414
 30
0.0
 11
187.0385247307855
 21
-305.7716204150888
 31
0.0
  0
LINE
  5
22E
330
1F
100
AcDbEntity
  8
仕上
  6
Continuous
 62
     3
370
     9
100
AcDbLine
 10
177.1146042282517
 20
-300.5116188974579
 30
0.0
 11
177.0169149862753
 21
-305.4741730042991
 31
0.0
  0
LINE
  5
22F
330
1F
100
AcDbEntity
  8
仕上
  6
Continuous
 62
     3
370
     9
100
AcDbLine
 10
170.0925589896538
 20
-300.3374707502873
 30
0.0
 11
169.9939789643159
 21
-305.3365469749494
 31
0.0
  0
LINE
  5
230
330
1F
100
AcDbEntity
  8
仕上
  6
Continuous
 62
     3
370
     9
100
AcDbLine
 10
98.85824667440875
 20
-298.9687821153633
 30
0.0
 11
95.66033440667235
 21
-303.9248038108869
 31
0.0
  0
LINE
  5
231
330
1F
100
AcDbEntity
  8
仕上
  6
Continuous
 62
     3
370
     9
100
AcDbLine
 10
106.1047693201014
 20
-299.0750822631674
 30
0.0
 11
106.0063377586572
 21
-304.074010023936
 31
0.0
  0
LINE
  5
232
330
1F
100
AcDbEntity
  8
仕上
  6
Continuous
 62
     3
370
     9
100
AcDbLine
 10
168.7572747307855
 20
-317.3395558431927
 30
0.0
 11
168.6097016205659
 21
-324.817236771191
 31
0.0
  0
LINE
  5
233
330
1F
100
AcDbEntity
  8
仕上
  6
Continuous
 62
     3
370
     9
100
AcDbLine
 10
106.7689967799831
 20
-316.1159164322975
 30
0.0
 11
106.6214236697636
 21
-323.594933535338
 31
0.0
  0
LINE
  5
234
330
1F
100
AcDbEntity
  8
建具
  6
Continuous
 62
     4
370
     9
100
AcDbLine
 10
169.0105541332348
 20
-304.3160804024199
 30
0.0
 11
168.990659971495
 21
-305.3158362617949
 31
0.0
  0
LINE
  5
235
330
1F
100
AcDbEntity
  8
建具
  6
Continuous
 62
     4
370
     9
100
AcDbLine
 10
107.0224246463261
 20
-303.0938513985136
 30
0.0
 11
107.0026789484799
 21
-304.0936072578886
 31
0.0
  0
LINE
  5
236
330
1F
100
AcDbEntity
  8
建具
  6
Continuous
 62
     4
370
     9
100
AcDbLine
 10
162.5387160842483
 20
-318.1911447367738
 30
0.0
 11
112.9489548141892
 21
-317.2132130697552
 31
0.0
  0
LINE
  5
237
330
1F
100
AcDbEntity
  8
建具
  6
Continuous
 62
     4
370
     9
100
AcDbLine
 10
118.1025819520694
 20
-299.3115110136953
 30
0.0
 11
158.0948948215794
 21
-300.1000769844511
 31
0.0
  0
LINE
  5
238
330
1F
100
AcDbEntity
  8
建具
  6
Continuous
 62
     4
370
     9
100
AcDbLine
 10
118.1025819520694
 20
-299.3115110136953
 30
0.0
 11
118.082836254223
 21
-300.3112668730703
 31
0.0
  0
LINE
  5
239
330
1F
100
AcDbEntity
  8
建具
  6
Continuous
 62
     4
370
     9
100
AcDbLine
 10
158.0948948215794
 20
-300.1000769844511
 30
0.0
 11
158.0751491237331
 21
-301.0998328438261
 31
0.0
  0
LINE
  5
23A
330
1F
100
AcDbEntity
  8
建具
  6
Continuous
 62
     4
370
     9
100
AcDbLine
 10
112.8768013619089
 20
-310.7081191086066
 30
0.0
 11
112.9489548141892
 21
-317.2132130697552
 31
0.0
  0
LINE
  5
23B
330
1F
100
AcDbEntity
  8
建具
  6
Continuous
 62
     4
370
     9
100
AcDbLine
 10
162.8671182168497
 20
-311.694587449506
 30
0.0
 11
162.5387160842483
 21
-318.1911447367738
 31
0.0
  0
LINE
  5
23C
330
1F
100
AcDbEntity
  8
仕上
  6
Continuous
 62
     3
370
     9
100
AcDbLine
 10
107.0026789484799
 20
-304.0936072578886
 30
0.0
 11
106.0063377586572
 21
-304.074010023936
 31
0.0
  0
LINE
  5
23D
330
1F
100
AcDbEntity
  8
仕上
  6
Continuous
 62
     3
370
     9
100
AcDbLine
 10
177.0169149862753
 20
-305.4741730042991
 30
0.0
 11
168.990659971495
 21
-305.3158362617949
 31
0.0
  0
LINE
  5
23E
330
1F
100
AcDbEntity
  8
仕上
  6
Continuous
 62
     3
370
     9
100
AcDbLine
 10
118.1025819520694
 20
-299.3115110136953
 30
0.0
 11
106.0732949746622
 21
-299.0743399436994
 31
0.0
  0
LINE
  5
23F
330
1F
100
AcDbEntity
  8
仕上
  6
Continuous
 62
     3
370
     9
100
AcDbLine
 10
170.0925589896538
 20
-300.3365799669258
 30
0.0
 11
158.0948948215794
 21
-300.1000769844511
 31
0.0
  0
LINE
  5
240
330
1F
100
AcDbEntity
  8
仕上
  6
Continuous
 62
     3
370
     9
100
AcDbLine
 10
-73.49526895059125
 20
211.7894724771198
 30
0.0
 11
-73.49526895059125
 21
273.2893784499872
 31
0.0
  0
LINE
  5
241
330
1F
100
AcDbEntity
  8
仕上
  6
Continuous
 62
     3
370
     9
100
AcDbLine
 10
-78.49538442250844
 20
199.7894328867483
 30
0.0
 11
-207.0150839315878
 21
199.7894328867483
 31
0.0
  0
LINE
  5
242
330
1F
100
AcDbEntity
  8
仕上
  6
Continuous
 62
     3
370
     9
100
AcDbLine
 10
-78.49538442250844
 20
206.7894312371494
 30
0.0
 11
-212.2907483899916
 21
206.7894312371494
 31
0.0
  0
LINE
  5
243
330
1F
100
AcDbEntity
  8
仕上
  6
Continuous
 62
     3
370
     9
100
AcDbLine
 10
-73.49526895059125
 20
194.7893174148309
 30
0.0
 11
-73.49526895059125
 21
66.6781905408867
 31
0.0
  0
LINE
  5
244
330
1F
100
AcDbEntity
  8
仕上
  6
Continuous
 62
     3
370
     9
100
AcDbLine
 10
-66.49519636824328
 20
194.7893174148309
 30
0.0
 11
-66.49519636824328
 21
60.99714542105983
 31
0.0
  0
LINE
  5
245
330
1F
100
AcDbEntity
  8
仕上
  6
Continuous
 62
     3
370
     9
100
AcDbLine
 10
-79.94617359058282
 20
208.2356180245226
 30
0.0
 11
-210.5604017103041
 21
208.2356180245226
 31
0.0
  0
LINE
  5
246
330
1F
100
AcDbEntity
  8
仕上
  6
Continuous
 62
     3
370
     9
100
AcDbLine
 10
-74.94635504645265
 20
213.2355850325464
 30
0.0
 11
-74.94635504645265
 21
273.2893784499872
 31
0.0
  0
LINE
  5
247
330
1F
100
AcDbEntity
  8
仕上
  6
Continuous
 62
     3
370
     9
100
AcDbLine
 10
-79.94617359058282
 20
198.3479969439695
 30
0.0
 11
-203.8418166701858
 21
198.3479969439695
 31
0.0
  0
LINE
  5
248
330
1F
100
AcDbEntity
  8
仕上
  6
Continuous
 62
     3
370
     9
100
AcDbLine
 10
-74.94635504645265
 20
193.3481041678926
 30
0.0
 11
-74.94635504645265
 21
69.44941757847124
 31
0.0
  0
LINE
  5
249
330
1F
100
AcDbEntity
  8
仕上
  6
Continuous
 62
     3
370
     9
100
AcDbLine
 10
-65.05895666173984
 20
193.3481041678926
 30
0.0
 11
-65.05895666173984
 21
62.73046137861905
 31
0.0
  0
LINE
  5
24A
330
1F
100
AcDbEntity
  8
仕上
  6
Continuous
 62
     3
370
     9
100
AcDbLine
 10
-60.05869272592906
 20
198.3479969439695
 30
0.0
 11
60.05884118982266
 21
198.3479969439695
 31
0.0
  0
LINE
  5
24B
330
1F
100
AcDbEntity
  8
仕上
  6
Continuous
 62
     3
370
     9
100
AcDbLine
 10
-60.05869272592906
 20
208.2356180245226
 30
0.0
 11
60.05884118982266
 21
208.2356180245226
 31
0.0
  0
LINE
  5
24C
330
1F
100
AcDbEntity
  8
仕上
  6
Continuous
 62
     3
370
     9
100
AcDbLine
 10
-61.49537782411312
 20
206.7894312371494
 30
0.0
 11
61.49537782411329
 21
206.7894312371494
 31
0.0
  0
LINE
  5
24D
330
1F
100
AcDbEntity
  8
仕上
  6
Continuous
 62
     3
370
     9
100
AcDbLine
 10
-61.49537782411312
 20
199.7894328867483
 30
0.0
 11
61.49537782411329
 21
199.7894328867483
 31
0.0
  0
LINE
  5
24E
330
1F
100
AcDbEntity
  8
仕上
  6
Continuous
 62
     3
370
     9
100
AcDbLine
 10
73.49526895059125
 20
211.7894724771198
 30
0.0
 11
73.49526895059125
 21
273.2893784499872
 31
0.0
  0
LINE
  5
24F
330
1F
100
AcDbEntity
  8
仕上
  6
Continuous
 62
     3
370
     9
100
AcDbLine
 10
78.49538442250844
 20
199.7894328867483
 30
0.0
 11
207.0152323954814
 21
199.7894328867483
 31
0.0
  0
LINE
  5
250
330
1F
100
AcDbEntity
  8
仕上
  6
Continuous
 62
     3
370
     9
100
AcDbLine
 10
78.49538442250844
 20
206.7894312371494
 30
0.0
 11
212.2910453177788
 21
206.7894312371494
 31
0.0
  0
LINE
  5
251
330
1F
100
AcDbEntity
  8
仕上
  6
Continuous
 62
     3
370
     9
100
AcDbLine
 10
73.49526895059125
 20
194.7893174148309
 30
0.0
 11
73.49526895059125
 21
66.6781905408867
 31
0.0
  0
LINE
  5
252
330
1F
100
AcDbEntity
  8
仕上
  6
Continuous
 62
     3
370
     9
100
AcDbLine
 10
66.49549329603047
 20
194.7893174148309
 30
0.0
 11
66.49549329603047
 21
60.99714542105983
 31
0.0
  0
LINE
  5
253
330
1F
100
AcDbEntity
  8
仕上
  6
Continuous
 62
     3
370
     9
100
AcDbLine
 10
79.94647051837
 20
208.2356180245226
 30
0.0
 11
210.5605501741977
 21
208.2356180245226
 31
0.0
  0
LINE
  5
254
330
1F
100
AcDbEntity
  8
仕上
  6
Continuous
 62
     3
370
     9
100
AcDbLine
 10
74.94635504645282
 20
213.2355850325464
 30
0.0
 11
74.94635504645282
 21
273.2893784499872
 31
0.0
  0
LINE
  5
255
330
1F
100
AcDbEntity
  8
仕上
  6
Continuous
 62
     3
370
     9
100
AcDbLine
 10
79.94647051837
 20
198.3479969439695
 30
0.0
 11
203.8422620618666
 21
198.3479969439695
 31
0.0
  0
LINE
  5
256
330
1F
100
AcDbEntity
  8
仕上
  6
Continuous
 62
     3
370
     9
100
AcDbLine
 10
74.94635504645282
 20
193.3481041678926
 30
0.0
 11
74.94635504645282
 21
69.44941757847124
 31
0.0
  0
LINE
  5
257
330
1F
100
AcDbEntity
  8
仕上
  6
Continuous
 62
     3
370
     9
100
AcDbLine
 10
65.05880819784625
 20
193.3481041678926
 30
0.0
 11
65.05880819784625
 21
62.73046137861905
 31
0.0
  0
LINE
  5
258
330
1F
100
AcDbEntity
  8
建具
  6
Continuous
 62
     4
370
     9
100
AcDbLine
 10
-168.9903630437077
 20
-305.3158362617949
 30
0.0
 11
-162.9950940931166
 21
-305.1977332344511
 31
0.0
  0
LINE
  5
259
330
1F
100
AcDbEntity
  8
建具
  6
Continuous
 62
     4
370
     9
100
AcDbLine
 10
-113.0049257020692
 20
-304.2119329810728
 30
0.0
 11
-107.0025304845861
 21
-304.0936072578886
 31
0.0
  0
LINE
  5
25A
330
1F
100
AcDbEntity
  8
建具
  6
Continuous
 62
     4
370
     9
100
AcDbLine
 10
-110.0806323902027
 20
-300.1533755222467
 30
0.0
 11
-118.0826877903294
 21
-300.3110441772299
 31
0.0
  0
LINE
  5
25B
330
1F
100
AcDbEntity
  8
建具
  6
Continuous
 62
     4
370
     9
100
AcDbLine
 10
-158.0748521959459
 20
-301.0998328438261
 30
0.0
 11
-166.0699297930743
 21
-301.2575014988092
 31
0.0
  0
LINE
  5
25C
330
1F
100
AcDbEntity
  8
建具
  6
Continuous
 62
     4
370
     9
100
AcDbLine
 10
168.990659971495
 20
-305.3158362617949
 30
0.0
 11
162.9953910209038
 21
-305.1977332344511
 31
0.0
  0
LINE
  5
25D
330
1F
100
AcDbEntity
  8
建具
  6
Continuous
 62
     4
370
     9
100
AcDbLine
 10
113.0050741659628
 20
-304.2119329810728
 30
0.0
 11
107.0026789484799
 21
-304.0936072578886
 31
0.0
  0
LINE
  5
25E
330
1F
100
AcDbEntity
  8
建具
  6
Continuous
 62
     4
370
     9
100
AcDbLine
 10
110.0809293179898
 20
-300.1533755222467
 30
0.0
 11
118.082836254223
 21
-300.3110441772299
 31
0.0
  0
LINE
  5
25F
330
1F
100
AcDbEntity
  8
建具
  6
Continuous
 62
     4
370
     9
100
AcDbLine
 10
158.0751491237331
 20
-301.0998328438261
 30
0.0
 11
166.0703751847552
 21
-301.2575014988092
 31
0.0
  0
LINE
  5
260
330
1F
100
AcDbEntity
  8
仕上
  6
Continuous
 62
     3
370
     9
100
AcDbLine
 10
180.0001484638936
 20
289.2895549570608
 30
0.0
 11
188.0002738334038
 21
289.2895549570608
 31
0.0
  0
LINE
  5
261
330
1F
100
AcDbEntity
  8
仕上
  6
JWW_DASHED1
 62
     3
370
     9
100
AcDbLine
 10
117.9999934016049
 20
278.2893454580109
 30
0.0
 11
129.9222379117398
 21
278.2893454580109
 31
0.0
  0
LINE
  5
262
330
1F
100
AcDbEntity
  8
仕上
  6
JWW_DASHED1
 62
     3
370
     9
100
AcDbLine
 10
146.0776334195523
 20
278.2893454580109
 30
0.0
 11
157.9998779296875
 21
278.2893454580109
 31
0.0
  0
LINE
  5
263
330
1F
100
AcDbEntity
  8
仕上
  6
JWW_CENTER1
 62
     3
370
     9
100
AcDbLine
 10
138.000009897593
 20
238.98167383375
 30
0.0
 11
138.000009897593
 21
297.5092584251773
 31
0.0
  0
LINE
  5
264
330
1F
100
AcDbEntity
  8
仕上
  6
Continuous
 62
     3
370
     9
100
AcDbLine
 10
124.1708951383023
 20
292.2895648546536
 30
0.0
 11
101.0001352671031
 21
292.2895648546536
 31
0.0
  0
LINE
  5
265
330
1F
100
AcDbEntity
  8
仕上
  6
Continuous
 62
     3
370
     9
100
AcDbLine
 10
151.829273120777
 20
292.2895648546536
 30
0.0
 11
174.9998845280828
 21
292.2895648546536
 31
0.0
  0
LINE
  5
266
330
1F
100
AcDbEntity
  8
仕上
  6
Continuous
 62
     3
370
     9
100
AcDbLine
 10
177.0243381809544
 20
273.2893784499872
 30
0.0
 11
184.0487588418497
 21
273.2893784499872
 31
0.0
  0
LINE
  5
267
330
1F
100
AcDbEntity
  8
仕上
  6
Continuous
 62
     3
370
     9
100
AcDbLine
 10
126.6753325591217
 20
285.2894922723056
 30
0.0
 11
106.0001022751267
 21
285.2894922723056
 31
0.0
  0
LINE
  5
268
330
1F
100
AcDbEntity
  8
仕上
  6
Continuous
 62
     3
370
     9
100
AcDbLine
 10
106.0001022751267
 20
273.2893784499872
 30
0.0
 11
106.0001022751267
 21
285.2894922723056
 31
0.0
  0
LINE
  5
269
330
1F
100
AcDbEntity
  8
仕上
  6
Continuous
 62
     3
370
     9
100
AcDbLine
 10
149.3246872360642
 20
285.2894922723056
 30
0.0
 11
170.0002144478464
 21
285.2894922723056
 31
0.0
  0
LINE
  5
26A
330
1F
100
AcDbEntity
  8
仕上
  6
Continuous
 62
     3
370
     9
100
AcDbLine
 10
170.0002144478464
 20
278.2893454580109
 30
0.0
 11
170.0002144478464
 21
285.2894922723056
 31
0.0
  0
LINE
  5
26B
330
1F
100
AcDbEntity
  8
仕上
  6
Continuous
 62
     3
370
     9
100
AcDbLine
 10
170.0002144478464
 20
278.2893454580109
 30
0.0
 11
177.0243381809544
 21
278.2893454580109
 31
0.0
  0
LINE
  5
26C
330
1F
100
AcDbEntity
  8
仕上
  6
Continuous
 62
     3
370
     9
100
AcDbLine
 10
177.0243381809544
 20
273.2893784499872
 30
0.0
 11
177.0243381809544
 21
278.2893454580109
 31
0.0
  0
LINE
  5
26D
330
1F
100
AcDbEntity
  8
仕上
  6
Continuous
 62
     3
370
     9
100
AcDbLine
 10
184.0487588418497
 20
282.2895566066595
 30
0.0
 11
204.0002276446369
 21
282.2895566066595
 31
0.0
  0
LINE
  5
26E
330
1F
100
AcDbEntity
  8
建具
  6
Continuous
 62
     4
370
     9
100
AcDbLine
 10
106.9998581345017
 20
282.2895566066595
 30
0.0
 11
106.9998581345017
 21
273.2893784499872
 31
0.0
  0
LINE
  5
26F
330
1F
100
AcDbEntity
  8
建具
  6
Continuous
 62
     4
370
     9
100
AcDbLine
 10
109.0001121727197
 20
284.2895137170903
 30
0.0
 11
127.0800451330238
 21
284.2895137170903
 31
0.0
  0
LINE
  5
270
330
1F
100
AcDbEntity
  8
建具
  6
Continuous
 62
     4
370
     9
100
AcDbLine
 10
166.9967898807011
 20
284.2895137170903
 30
0.0
 11
148.9199746621622
 21
284.2895137170903
 31
0.0
  0
LINE
  5
271
330
1F
100
AcDbEntity
  8
建具
  6
Continuous
 62
     4
370
     9
100
AcDbLine
 10
168.9965985272383
 20
282.2895566066595
 30
0.0
 11
168.9965985272383
 21
273.2893784499872
 31
0.0
  0
LINE
  5
272
330
1F
100
AcDbEntity
  8
仕上
  6
Continuous
 62
     3
370
     9
100
AcDbLine
 10
184.0487588418497
 20
273.2893784499872
 30
0.0
 11
184.0487588418497
 21
282.2895566066595
 31
0.0
  0
LINE
  5
273
330
1F
100
AcDbEntity
  8
仕上
  6
Continuous
 62
     3
370
     9
100
AcDbLine
 10
72.00008907833626
 20
282.2895566066595
 30
0.0
 11
99.00017815667235
 21
282.2895566066595
 31
0.0
  0
LINE
  5
274
330
1F
100
AcDbEntity
  8
仕上
  6
Continuous
 62
     3
370
     9
100
AcDbLine
 10
99.00017815667235
 20
273.2893784499872
 30
0.0
 11
99.00017815667235
 21
282.2895566066595
 31
0.0
  0
LINE
  5
275
330
1F
100
AcDbEntity
  8
仕上
  6
Continuous
 62
     3
370
     9
100
AcDbLine
 10
-180.0
 20
289.2895549570608
 30
0.0
 11
-180.0
 21
307.2894658787245
 31
0.0
  0
LINE
  5
276
330
1F
100
AcDbEntity
  8
仕上
  6
Continuous
 62
     3
370
     9
100
AcDbLine
 10
-147.0000395903716
 20
307.2894658787245
 30
0.0
 11
-174.9997360641891
 21
307.2894658787245
 31
0.0
  0
LINE
  5
277
330
1F
100
AcDbEntity
  8
仕上
  6
Continuous
 62
     3
370
     9
100
AcDbLine
 10
-157.9997294657939
 20
314.2895384610725
 30
0.0
 11
-117.9998449377111
 21
314.2895384610725
 31
0.0
  0
LINE
  5
278
330
1F
100
AcDbEntity
  8
仕上
  6
Continuous
 62
     3
370
     9
100
AcDbLine
 10
-100.9999868032094
 20
307.2894658787245
 30
0.0
 11
-128.9998317409206
 21
307.2894658787245
 31
0.0
  0
LINE
  5
279
330
1F
100
AcDbEntity
  8
仕上
  6
Continuous
 62
     3
370
     9
100
AcDbLine
 10
-96.00001979518578
 20
289.2895549570608
 30
0.0
 11
-96.00001979518578
 21
307.2894658787245
 31
0.0
  0
LINE
  5
27A
330
1F
100
AcDbEntity
  8
仕上
  6
Continuous
 62
     3
370
     9
100
AcDbLine
 10
-87.99989442567562
 20
289.2895549570608
 30
0.0
 11
-87.99989442567562
 21
307.2894658787245
 31
0.0
  0
LINE
  5
27B
330
1F
100
AcDbEntity
  8
仕上
  6
Continuous
 62
     3
370
     9
100
AcDbLine
 10
-87.99989442567562
 20
307.2894658787245
 30
0.0
 11
-96.00001979518578
 21
307.2894658787245
 31
0.0
  0
LINE
  5
27C
330
1F
100
AcDbEntity
  8
仕上
  6
Continuous
 62
     3
370
     9
100
AcDbLine
 10
-87.99989442567562
 20
289.2895549570608
 30
0.0
 11
-96.00001979518578
 21
289.2895549570608
 31
0.0
  0
LINE
  5
27D
330
1F
100
AcDbEntity
  8
仕上
  6
Continuous
 62
     3
370
     9
100
AcDbLine
 10
-174.9997360641891
 20
292.2895648546536
 30
0.0
 11
-174.9997360641891
 21
307.2894658787245
 31
0.0
  0
LINE
  5
27E
330
1F
100
AcDbEntity
  8
仕上
  6
Continuous
 62
     3
370
     9
100
AcDbLine
 10
-100.9999868032094
 20
292.2895648546536
 30
0.0
 11
-100.9999868032094
 21
307.2894658787245
 31
0.0
  0
LINE
  5
27F
330
1F
100
AcDbEntity
  8
仕上
  6
Continuous
 62
     3
370
     9
100
AcDbLine
 10
-133.9997987489442
 20
307.2894658787245
 30
0.0
 11
-141.9999241184544
 21
307.2894658787245
 31
0.0
  0
LINE
  5
280
330
1F
100
AcDbEntity
  8
仕上
  6
Continuous
 62
     3
370
     9
100
AcDbLine
 10
-147.0000395903716
 20
294.9975462735725
 30
0.0
 11
-147.0000395903716
 21
307.2894658787245
 31
0.0
  0
LINE
  5
281
330
1F
100
AcDbEntity
  8
仕上
  6
Continuous
 62
     3
370
     9
100
AcDbLine
 10
-141.9999241184544
 20
296.4465538749239
 30
0.0
 11
-141.9999241184544
 21
307.2894658787245
 31
0.0
  0
LINE
  5
282
330
1F
100
AcDbEntity
  8
仕上
  6
Continuous
 62
     3
370
     9
100
AcDbLine
 10
-133.9997987489442
 20
296.4465538749239
 30
0.0
 11
-133.9997987489442
 21
307.2894658787245
 31
0.0
  0
LINE
  5
283
330
1F
100
AcDbEntity
  8
仕上
  6
Continuous
 62
     3
370
     9
100
AcDbLine
 10
-128.9998317409206
 20
294.9976947374661
 30
0.0
 11
-128.9998317409206
 21
307.2894658787245
 31
0.0
  0
LINE
  5
284
330
1F
100
AcDbEntity
  8
仕上
  6
JWW_DASHED1
 62
     3
370
     9
100
AcDbLine
 10
-117.9998449377111
 20
278.2893454580109
 30
0.0
 11
-129.9220894478462
 21
278.2893454580109
 31
0.0
  0
LINE
  5
285
330
1F
100
AcDbEntity
  8
仕上
  6
JWW_DASHED1
 62
     3
370
     9
100
AcDbLine
 10
-146.0777818834459
 20
278.2893454580109
 30
0.0
 11
-157.9997294657939
 21
278.2893454580109
 31
0.0
  0
LINE
  5
286
330
1F
100
AcDbEntity
  8
仕上
  6
JWW_CENTER1
 62
     3
370
     9
100
AcDbLine
 10
-137.9998614336992
 20
238.98167383375
 30
0.0
 11
-137.9998614336992
 21
297.5092584251773
 31
0.0
  0
LINE
  5
287
330
1F
100
AcDbEntity
  8
仕上
  6
Continuous
 62
     3
370
     9
100
AcDbLine
 10
-124.1705982105152
 20
292.2895648546536
 30
0.0
 11
-100.9999868032094
 21
292.2895648546536
 31
0.0
  0
LINE
  5
288
330
1F
100
AcDbEntity
  8
仕上
  6
Continuous
 62
     3
370
     9
100
AcDbLine
 10
-151.8291246568834
 20
292.2895648546536
 30
0.0
 11
-174.9997360641891
 21
292.2895648546536
 31
0.0
  0
LINE
  5
289
330
1F
100
AcDbEntity
  8
仕上
  6
Continuous
 62
     3
370
     9
100
AcDbLine
 10
-177.0241897170608
 20
273.2893784499872
 30
0.0
 11
-184.0481649862753
 21
273.2893784499872
 31
0.0
  0
LINE
  5
28A
330
1F
100
AcDbEntity
  8
仕上
  6
Continuous
 62
     3
370
     9
100
AcDbLine
 10
-126.675184095228
 20
285.2894922723056
 30
0.0
 11
-105.9998053473395
 21
285.2894922723056
 31
0.0
  0
LINE
  5
28B
330
1F
100
AcDbEntity
  8
仕上
  6
Continuous
 62
     3
370
     9
100
AcDbLine
 10
-105.9998053473395
 20
273.2893784499872
 30
0.0
 11
-105.9998053473395
 21
285.2894922723056
 31
0.0
  0
LINE
  5
28C
330
1F
100
AcDbEntity
  8
仕上
  6
Continuous
 62
     3
370
     9
100
AcDbLine
 10
-149.3245387721706
 20
285.2894922723056
 30
0.0
 11
-169.9999175200591
 21
285.2894922723056
 31
0.0
  0
LINE
  5
28D
330
1F
100
AcDbEntity
  8
仕上
  6
Continuous
 62
     3
370
     9
100
AcDbLine
 10
-169.9999175200591
 20
278.2893454580109
 30
0.0
 11
-169.9999175200591
 21
285.2894922723056
 31
0.0
  0
LINE
  5
28E
330
1F
100
AcDbEntity
  8
仕上
  6
Continuous
 62
     3
370
     9
100
AcDbLine
 10
-169.9999175200591
 20
278.2893454580109
 30
0.0
 11
-177.0241897170608
 21
278.2893454580109
 31
0.0
  0
LINE
  5
28F
330
1F
100
AcDbEntity
  8
仕上
  6
Continuous
 62
     3
370
     9
100
AcDbLine
 10
-177.0241897170608
 20
273.2893784499872
 30
0.0
 11
-177.0241897170608
 21
278.2893454580109
 31
0.0
  0
LINE
  5
290
330
1F
100
AcDbEntity
  8
建具
  6
Continuous
 62
     4
370
     9
100
AcDbLine
 10
-106.9998581345017
 20
282.2895566066595
 30
0.0
 11
-106.9998581345017
 21
273.2893784499872
 31
0.0
  0
LINE
  5
291
330
1F
100
AcDbEntity
  8
建具
  6
Continuous
 62
     4
370
     9
100
AcDbLine
 10
-108.9999637088259
 20
284.2895137170903
 30
0.0
 11
-127.0797482052364
 21
284.2895137170903
 31
0.0
  0
LINE
  5
292
330
1F
100
AcDbEntity
  8
建具
  6
Continuous
 62
     4
370
     9
100
AcDbLine
 10
-166.9964929529138
 20
284.2895137170903
 30
0.0
 11
-148.9199746621622
 21
284.2895137170903
 31
0.0
  0
LINE
  5
293
330
1F
100
AcDbEntity
  8
建具
  6
Continuous
 62
     4
370
     9
100
AcDbLine
 10
-168.9964500633445
 20
282.2895566066595
 30
0.0
 11
-168.9964500633445
 21
273.2893784499872
 31
0.0
  0
LINE
  5
294
330
1F
100
AcDbEntity
  8
仕上
  6
Continuous
 62
     3
370
     9
100
AcDbLine
 10
-187.9996799778294
 20
289.2895549570608
 30
0.0
 11
-187.9996799778294
 21
307.2894658787245
 31
0.0
  0
LINE
  5
295
330
1F
100
AcDbEntity
  8
仕上
  6
Continuous
 62
     3
370
     9
100
AcDbLine
 10
-180.0
 20
307.2894658787245
 30
0.0
 11
-187.9996799778294
 21
307.2894658787245
 31
0.0
  0
LINE
  5
296
330
1F
100
AcDbEntity
  8
仕上
  6
Continuous
 62
     3
370
     9
100
AcDbLine
 10
-180.0
 20
289.2895549570608
 30
0.0
 11
-187.9996799778294
 21
289.2895549570608
 31
0.0
  0
LINE
  5
297
330
1F
100
AcDbEntity
  8
仕上
  6
Continuous
 62
     3
370
     9
100
AcDbLine
 10
-184.0481649862753
 20
282.2895566066595
 30
0.0
 11
-203.999782252956
 21
282.2895566066595
 31
0.0
  0
LINE
  5
298
330
1F
100
AcDbEntity
  8
仕上
  6
Continuous
 62
     3
370
     9
100
AcDbLine
 10
-184.0481649862753
 20
273.2893784499872
 30
0.0
 11
-184.0481649862753
 21
282.2895566066595
 31
0.0
  0
LINE
  5
299
330
1F
100
AcDbEntity
  8
仕上
  6
Continuous
 62
     3
370
     9
100
AcDbLine
 10
-72.00008907833609
 20
282.2895566066595
 30
0.0
 11
-99.00002969277875
 21
282.2895566066595
 31
0.0
  0
LINE
  5
29A
330
1F
100
AcDbEntity
  8
仕上
  6
Continuous
 62
     3
370
     9
100
AcDbLine
 10
-99.00002969277875
 20
273.2893784499872
 30
0.0
 11
-99.00002969277875
 21
282.2895566066595
 31
0.0
  0
LINE
  5
29B
330
1F
100
AcDbEntity
  8
躯体
  6
Continuous
 62
     2
370
     9
100
AcDbLine
 10
-253.1251484638936
 20
-327.0305364966978
 30
0.0
 11
-284.4142109638936
 21
-352.4897188235559
 31
0.0
  0
LINE
  5
29C
330
1F
100
AcDbEntity
  8
躯体
  6
Continuous
 62
     2
370
     9
100
AcDbLine
 10
253.1254453916808
 20
-327.0305364966978
 30
0.0
 11
284.4142109638936
 21
-352.4897188235559
 31
0.0
  0
LINE
  5
29D
330
1F
100
AcDbEntity
  8
躯体
  6
Continuous
 62
     2
370
     9
100
AcDbLine
 10
254.2107164537584
 20
-348.8024695625761
 30
0.0
 11
250.500009897593
 21
-301.48969902837
 31
0.0
  0
LINE
  5
29E
330
1F
100
AcDbEntity
  8
躯体
  6
Continuous
 62
     2
370
     9
100
AcDbLine
 10
250.500009897593
 20
-301.48969902837
 30
0.0
 11
245.5003398173564
 21
-301.48969902837
 31
0.0
  0
LINE
  5
29F
330
1F
100
AcDbEntity
  8
躯体
  6
Continuous
 62
     2
370
     9
100
AcDbLine
 10
245.5003398173564
 20
-301.48969902837
 30
0.0
 11
238.3325030352619
 21
-352.4897188235559
 31
0.0
  0
LINE
  5
2A0
330
1F
100
AcDbEntity
  8
躯体
  6
Continuous
 62
     2
370
     9
100
AcDbLine
 10
-250.4997129698057
 20
-301.48969902837
 30
0.0
 11
-245.4998944256756
 21
-301.48969902837
 31
0.0
  0
LINE
  5
2A1
330
1F
100
AcDbEntity
  8
躯体
  6
Continuous
 62
     2
370
     9
100
AcDbLine
 10
-245.4998944256756
 20
-301.48969902837
 30
0.0
 11
-238.3323545713682
 21
-352.4897188235559
 31
0.0
  0
LINE
  5
2A2
330
1F
100
AcDbEntity
  8
建具
  6
Continuous
 62
     4
370
     9
100
AcDbLine
 10
-107.6413706186655
 20
-304.1062266888431
 30
0.0
 11
-111.5648259343328
 21
-300.182697141229
 31
0.0
  0
LINE
  5
2A3
330
1F
100
AcDbEntity
  8
建具
  6
Continuous
 62
     4
370
     9
100
AcDbLine
 10
-110.9697826488597
 20
-304.1717734978591
 30
0.0
 11
-114.893237964527
 21
-300.248243950245
 31
0.0
  0
LINE
  5
2A4
330
1F
100
AcDbEntity
  8
建具
  6
Continuous
 62
     4
370
     9
100
AcDbLine
 10
-112.9782022012247
 20
-305.5573127847045
 30
0.0
 11
-119.2022540118242
 21
-299.3332609741049
 31
0.0
  0
LINE
  5
2A5
330
1F
100
AcDbEntity
  8
建具
  6
Continuous
 62
     4
370
     9
100
AcDbLine
 10
-112.9100572740709
 20
-309.0195650149622
 30
0.0
 11
-122.5308145059122
 21
-299.3988820150677
 31
0.0
  0
LINE
  5
2A6
330
1F
100
AcDbEntity
  8
建具
  6
Continuous
 62
     4
370
     9
100
AcDbLine
 10
-112.8958047402872
 20
-312.4279248518498
 30
0.0
 11
-125.8592265361064
 21
-299.4645030560306
 31
0.0
  0
LINE
  5
2A7
330
1F
100
AcDbEntity
  8
建具
  6
Continuous
 62
     4
370
     9
100
AcDbLine
 10
-112.9329207136823
 20
-315.7849161815584
 30
0.0
 11
-129.1877870301942
 21
-299.5301240969934
 31
0.0
  0
LINE
  5
2A8
330
1F
100
AcDbEntity
  8
建具
  6
Continuous
 62
     4
370
     9
100
AcDbLine
 10
-114.8608728357262
 20
-317.2509228987248
 30
0.0
 11
-132.5160505964948
 21
-299.5957451379562
 31
0.0
  0
LINE
  5
2A9
330
1F
100
AcDbEntity
  8
建具
  6
Continuous
 62
     4
370
     9
100
AcDbLine
 10
-118.1894333298142
 20
-317.3164697077408
 30
0.0
 11
-135.8444626266892
 21
-299.6612919469723
 31
0.0
  0
LINE
  5
2AA
330
1F
100
AcDbEntity
  8
建具
  6
Continuous
 62
     4
370
     9
100
AcDbLine
 10
-121.5176968961148
 20
-317.3821649806505
 30
0.0
 11
-139.1728746568834
 21
-299.7269872198819
 31
0.0
  0
LINE
  5
2AB
330
1F
100
AcDbEntity
  8
建具
  6
Continuous
 62
     4
370
     9
100
AcDbLine
 10
-124.8461089263091
 20
-317.4477860216133
 30
0.0
 11
-142.5011382231841
 21
-299.7926082608447
 31
0.0
  0
LINE
  5
2AC
330
1F
100
AcDbEntity
  8
建具
  6
Continuous
 62
     4
370
     9
100
AcDbLine
 10
-128.1745209565033
 20
-317.5134070625761
 30
0.0
 11
-145.8298471811655
 21
-299.8582293018075
 31
0.0
  0
LINE
  5
2AD
330
1F
100
AcDbEntity
  8
建具
  6
Continuous
 62
     4
370
     9
100
AcDbLine
 10
-131.5027845228041
 20
-317.579028103539
 30
0.0
 11
-149.1582592113598
 21
-299.9238503427704
 31
0.0
  0
LINE
  5
2AE
330
1F
100
AcDbEntity
  8
建具
  6
Continuous
 62
     4
370
     9
100
AcDbLine
 10
-134.8314934807855
 20
-317.6447976083954
 30
0.0
 11
-152.4866712415541
 21
-299.9894713837332
 31
0.0
  0
LINE
  5
2AF
330
1F
100
AcDbEntity
  8
建具
  6
Continuous
 62
     4
370
     9
100
AcDbLine
 10
-138.1599055109797
 20
-317.7104186493582
 30
0.0
 11
-155.8149348078547
 21
-300.055092424696
 31
0.0
  0
LINE
  5
2B0
330
1F
100
AcDbEntity
  8
建具
  6
Continuous
 62
     4
370
     9
100
AcDbLine
 10
-141.4883175411739
 20
-317.7759654583743
 30
0.0
 11
-158.1625943570523
 21
-301.1016144105491
 31
0.0
  0
LINE
  5
2B1
330
1F
100
AcDbEntity
  8
建具
  6
Continuous
 62
     4
370
     9
100
AcDbLine
 10
-144.8165811074747
 20
-317.8416607312839
 30
0.0
 11
-161.4910063872466
 21
-301.1670869876184
 31
0.0
  0
LINE
  5
2B2
330
1F
100
AcDbEntity
  8
建具
  6
Continuous
 62
     4
370
     9
100
AcDbLine
 10
-148.1449931376689
 20
-317.9072817722467
 30
0.0
 11
-164.8191214896538
 21
-301.2328564924748
 31
0.0
  0
LINE
  5
2B3
330
1F
100
AcDbEntity
  8
建具
  6
Continuous
 62
     4
370
     9
100
AcDbLine
 10
-151.4734051678631
 20
-317.9729028132095
 30
0.0
 11
-162.9698552312078
 21
-306.4763042859714
 31
0.0
  0
LINE
  5
2B4
330
1F
100
AcDbEntity
  8
建具
  6
Continuous
 62
     4
370
     9
100
AcDbLine
 10
-164.2243751319678
 20
-305.2219328491049
 30
0.0
 11
-167.6810599662162
 21
-301.7649510870694
 31
0.0
  0
LINE
  5
2B5
330
1F
100
AcDbEntity
  8
建具
  6
Continuous
 62
     4
370
     9
100
AcDbLine
 10
-154.8016687341637
 20
-318.0385238541725
 30
0.0
 11
-162.9015618401605
 21
-309.9386307481758
 31
0.0
  0
LINE
  5
2B6
330
1F
100
AcDbEntity
  8
建具
  6
Continuous
 62
     4
370
     9
100
AcDbLine
 10
-167.5527871621621
 20
-305.2874796581209
 30
0.0
 11
-168.9839790962837
 21
-303.856361955946
 31
0.0
  0
LINE
  5
2B7
330
1F
100
AcDbEntity
  8
建具
  6
Continuous
 62
     4
370
     9
100
AcDbLine
 10
-158.1300807643581
 20
-318.1041448951353
 30
0.0
 11
-162.7778914168073
 21
-313.456334242686
 31
0.0
  0
LINE
  5
2B8
330
1F
100
AcDbEntity
  8
建具
  6
Continuous
 62
     4
370
     9
100
AcDbLine
 10
-161.4586412584459
 20
-318.1699143999916
 30
0.0
 11
-162.5973593222128
 21
-317.0308994084376
 31
0.0
  0
LINE
  5
2B9
330
1F
100
AcDbEntity
  8
建具
  6
Continuous
 62
     4
370
     9
100
AcDbLine
 10
168.4814288165119
 20
-305.3058149489781
 30
0.0
 11
164.400156381968
 21
-301.2245425144342
 31
0.0
  0
LINE
  5
2BA
330
1F
100
AcDbEntity
  8
建具
  6
Continuous
 62
     4
370
     9
100
AcDbLine
 10
165.0189538904139
 20
-305.2375215579309
 30
0.0
 11
160.9379783836572
 21
-301.1563233553338
 31
0.0
  0
LINE
  5
2BB
330
1F
100
AcDbEntity
  8
建具
  6
Continuous
 62
     4
370
     9
100
AcDbLine
 10
162.9677767366977
 20
-306.5805259392653
 30
0.0
 11
156.45525958087
 21
-300.0677118556505
 31
0.0
  0
LINE
  5
2BC
330
1F
100
AcDbEntity
  8
建具
  6
Continuous
 62
     4
370
     9
100
AcDbLine
 10
162.902452623522
 20
-309.908789505566
 30
0.0
 11
152.992784654772
 21
-299.9994184646031
 31
0.0
  0
LINE
  5
2BD
330
1F
100
AcDbEntity
  8
建具
  6
Continuous
 62
     4
370
     9
100
AcDbLine
 10
162.7914016311233
 20
-313.1920685121116
 30
0.0
 11
149.5306066564613
 21
-299.9311993055027
 31
0.0
  0
LINE
  5
2BE
330
1F
100
AcDbEntity
  8
建具
  6
Continuous
 62
     4
370
     9
100
AcDbLine
 10
162.6280913481842
 20
-316.4228655322763
 30
0.0
 11
146.0681317303633
 21
-299.8629801464022
 31
0.0
  0
LINE
  5
2BF
330
1F
100
AcDbEntity
  8
建具
  6
Continuous
 62
     4
370
     9
100
AcDbLine
 10
160.9715312236064
 20
-318.1601157830153
 30
0.0
 11
142.6059537320523
 21
-299.7946867553549
 31
0.0
  0
LINE
  5
2C0
330
1F
100
AcDbEntity
  8
建具
  6
Continuous
 62
     4
370
     9
100
AcDbLine
 10
157.5090562975084
 20
-318.0919708558616
 30
0.0
 11
139.1434788059544
 21
-299.7263933643075
 31
0.0
  0
LINE
  5
2C1
330
1F
100
AcDbEntity
  8
建具
  6
Continuous
 62
     4
370
     9
100
AcDbLine
 10
154.0465813714105
 20
-318.0235290009207
 30
0.0
 11
135.6814492715372
 21
-299.6580999732603
 31
0.0
  0
LINE
  5
2C2
330
1F
100
AcDbEntity
  8
建具
  6
Continuous
 62
     4
370
     9
100
AcDbLine
 10
150.5845518369933
 20
-317.955384073767
 30
0.0
 11
132.2189743454392
 21
-299.589806582213
 31
0.0
  0
LINE
  5
2C3
330
1F
100
AcDbEntity
  8
建具
  6
Continuous
 62
     4
370
     9
100
AcDbLine
 10
147.1220769108953
 20
-317.8871649146665
 30
0.0
 11
128.7567963471284
 21
-299.5215874231125
 31
0.0
  0
LINE
  5
2C4
330
1F
100
AcDbEntity
  8
建具
  6
Continuous
 62
     4
370
     9
100
AcDbLine
 10
143.6598989125845
 20
-317.8187230597256
 30
0.0
 11
125.2944698849241
 21
-299.4533682640119
 31
0.0
  0
LINE
  5
2C5
330
1F
100
AcDbEntity
  8
建具
  6
Continuous
 62
     4
370
     9
100
AcDbLine
 10
140.1975724503802
 20
-317.7505781325719
 30
0.0
 11
121.8319949588261
 21
-299.3850748729647
 31
0.0
  0
LINE
  5
2C6
330
1F
100
AcDbEntity
  8
建具
  6
Continuous
 62
     4
370
     9
100
AcDbLine
 10
136.7352459881758
 20
-317.6823589734714
 30
0.0
 11
118.3696684966217
 21
-299.3167814819174
 31
0.0
  0
LINE
  5
2C7
330
1F
100
AcDbEntity
  8
建具
  6
Continuous
 62
     4
370
     9
100
AcDbLine
 10
133.2727710620778
 20
-317.6139171185306
 30
0.0
 11
115.9275859111064
 21
-300.2685835036656
 31
0.0
  0
LINE
  5
2C8
330
1F
100
AcDbEntity
  8
建具
  6
Continuous
 62
     4
370
     9
100
AcDbLine
 10
129.8107415276605
 20
-317.54569795943
 30
0.0
 11
112.465259448902
 21
-300.2003643445652
 31
0.0
  0
LINE
  5
2C9
330
1F
100
AcDbEntity
  8
建具
  6
Continuous
 62
     4
370
     9
100
AcDbLine
 10
126.3482666015625
 20
-317.4774788003295
 30
0.0
 11
109.1525845914273
 21
-300.2816483263008
 31
0.0
  0
LINE
  5
2CA
330
1F
100
AcDbEntity
  8
建具
  6
Continuous
 62
     4
370
     9
100
AcDbLine
 10
122.8860886032517
 20
-317.4091854092822
 30
0.0
 11
112.9407893000424
 21
-307.4640345699663
 31
0.0
  0
LINE
  5
2CB
330
1F
100
AcDbEntity
  8
建具
  6
Continuous
 62
     4
370
     9
100
AcDbLine
 10
109.6218789590372
 20
-304.1452726928549
 30
0.0
 11
107.3217278557855
 21
-301.8451215896031
 31
0.0
  0
LINE
  5
2CC
330
1F
100
AcDbEntity
  8
建具
  6
Continuous
 62
     4
370
     9
100
AcDbLine
 10
119.4236136771538
 20
-317.340892018235
 30
0.0
 11
112.8778406091639
 21
-310.795118950245
 31
0.0
  0
LINE
  5
2CD
330
1F
100
AcDbEntity
  8
建具
  6
Continuous
 62
     4
370
     9
100
AcDbLine
 10
115.9612872149494
 20
-317.2725986271876
 30
0.0
 11
112.915698902027
 21
-314.2270103142653
 31
0.0
  0
LINE
  5
2CE
330
1F
100
AcDbEntity
  8
躯体
  6
Continuous
 62
     2
370
     9
100
AcDbLine
 10
-238.3323545713682
 20
-352.4897188235559
 30
0.0
 11
-226.0000527871621
 21
-352.4897188235559
 31
0.0
  0
LINE
  5
2CF
330
1F
100
AcDbEntity
  8
躯体
  6
Continuous
 62
     2
370
     9
100
AcDbLine
 10
-226.0000527871621
 20
-352.4897188235559
 30
0.0
 11
-225.0
 21
-359.4896429420103
 31
0.0
  0
LINE
  5
2D0
330
1F
100
AcDbEntity
  8
躯体
  6
Continuous
 62
     2
370
     9
100
AcDbLine
 10
225.9999043232686
 20
-352.4897188235559
 30
0.0
 11
225.0001484638936
 21
-359.4896429420103
 31
0.0
  0
LINE
  5
2D1
330
1F
100
AcDbEntity
  8
躯体
  6
Continuous
 62
     2
370
     9
100
AcDbLine
 10
238.3325030352619
 20
-352.4897188235559
 30
0.0
 11
225.9999043232686
 21
-352.4897188235559
 31
0.0
  0
LINE
  5
2D2
330
1F
100
AcDbEntity
  8
建具
  6
Continuous
 62
     4
370
     9
100
AcDbLine
 10
-3.500333218961089
 20
-330.6053985902366
 30
0.0
 11
-3.500333218961089
 21
-353.2692284968033
 31
0.0
  0
LINE
  5
2D3
330
1F
100
AcDbEntity
  8
建具
  6
Continuous
 62
     4
370
     9
100
AcDbLine
 10
3.499887827280475
 20
-330.6053985902366
 30
0.0
 11
3.499887827280475
 21
-353.2692284968033
 31
0.0
  0
LINE
  5
2D4
330
1F
100
AcDbEntity
  8
建具
  6
Continuous
 62
     4
370
     9
100
AcDbLine
 10
-1.000349714949209
 20
-316.2691311704731
 30
0.0
 11
-1.000349714949209
 21
-325.2690123993582
 31
0.0
  0
LINE
  5
2D5
330
1F
100
AcDbEntity
  8
建具
  6
Continuous
 62
     4
370
     9
100
AcDbLine
 10
0.999755859375
 20
-316.2691311704731
 30
0.0
 11
0.999755859375
 21
-325.2690123993582
 31
0.0
  0
LINE
  5
2D6
330
1F
100
AcDbEntity
  8
建具
  6
Continuous
 62
     4
370
     9
100
AcDbLine
 10
-9.000178156672177
 20
-417.7691443672636
 30
0.0
 11
-9.000178156672177
 21
-441.7692235480069
 31
0.0
  0
LINE
  5
2D7
330
1F
100
AcDbEntity
  8
建具
  6
Continuous
 62
     4
370
     9
100
AcDbLine
 10
3.999765756967975
 20
-417.7691443672636
 30
0.0
 11
3.999765756967975
 21
-441.7692235480069
 31
0.0
  0
LINE
  5
2D8
330
1F
100
AcDbEntity
  8
建具
  6
Continuous
 62
     4
370
     9
100
AcDbLine
 10
-4.000359612542184
 20
-417.7691443672636
 30
0.0
 11
-4.000359612542184
 21
-441.7692235480069
 31
0.0
  0
LINE
  5
2D9
330
1F
100
AcDbEntity
  8
建具
  6
Continuous
 62
     4
370
     9
100
AcDbLine
 10
8.999732764991563
 20
-417.7691443672636
 30
0.0
 11
8.999732764991563
 21
-441.7692235480069
 31
0.0
  0
LINE
  5
2DA
330
1F
100
AcDbEntity
  8
建具
  6
Continuous
 62
     4
370
     9
100
AcDbLine
 10
-9.000178156672177
 20
-464.1807390674325
 30
0.0
 11
8.999584301097968
 21
-459.3577410205575
 31
0.0
  0
LINE
  5
2DB
330
1F
100
AcDbEntity
  8
建具
  6
Continuous
 62
     4
370
     9
100
AcDbLine
 10
-207.0000890783361
 20
-501.7283712332899
 30
0.0
 11
-213.0002573374155
 21
-501.7283712332899
 31
0.0
  0
LINE
  5
2DC
330
1F
100
AcDbEntity
  8
建具
  6
Continuous
 62
     4
370
     9
100
AcDbLine
 10
-206.0001847550675
 20
-502.7282013246116
 30
0.0
 11
-214.0003101245777
 21
-502.7282013246116
 31
0.0
  0
LINE
  5
2DD
330
1F
100
AcDbEntity
  8
建具
  6
Continuous
 62
     4
370
     9
100
AcDbLine
 10
-206.0001847550675
 20
-502.7282013246116
 30
0.0
 11
-207.0000890783361
 21
-501.7283712332899
 31
0.0
  0
LINE
  5
2DE
330
1F
100
AcDbEntity
  8
建具
  6
Continuous
 62
     4
370
     9
100
AcDbLine
 10
-213.0002573374155
 20
-501.7283712332899
 30
0.0
 11
-214.0003101245777
 21
-502.7282013246116
 31
0.0
  0
LINE
  5
2DF
330
1F
100
AcDbEntity
  8
建具
  6
Continuous
 62
     4
370
     9
100
AcDbLine
 10
-206.5002111486486
 20
-523.7284190716555
 30
0.0
 11
-206.5002111486486
 21
-519.7283563869005
 31
0.0
  0
LINE
  5
2E0
330
1F
100
AcDbEntity
  8
建具
  6
JWW_CENTER1
 62
     4
370
     9
100
AcDbLine
 10
-210.0002474398226
 20
-523.7284190716555
 30
0.0
 11
-210.0002474398226
 21
-500.1832332608447
 31
0.0
  0
LINE
  5
2E1
330
1F
100
AcDbEntity
  8
建具
  6
Continuous
 62
     4
370
     9
100
AcDbLine
 10
-213.500135267103
 20
-523.7284190716555
 30
0.0
 11
-213.500135267103
 21
-519.7283563869005
 31
0.0
  0
LINE
  5
2E2
330
1F
100
AcDbEntity
  8
建具
  6
Continuous
 62
     4
370
     9
100
AcDbLine
 10
-203.5003497149493
 20
-533.7283530877028
 30
0.0
 11
-90.7086181640625
 21
-533.7283530877028
 31
0.0
  0
LINE
  5
2E3
330
1F
100
AcDbEntity
  8
建具
  6
Continuous
 62
     4
370
     9
100
AcDbLine
 10
-203.5003497149493
 20
-526.7282805053549
 30
0.0
 11
-90.7086181640625
 21
-526.7282805053549
 31
0.0
  0
LINE
  5
2E4
330
1F
100
AcDbEntity
  8
建具
  6
JWW_CENTER1
 62
     4
370
     9
100
AcDbLine
 10
-75.00039590371625
 20
-550.8598986958109
 30
0.0
 11
-75.00039590371625
 21
-511.5723439291302
 31
0.0
  0
LINE
  5
2E5
330
1F
100
AcDbEntity
  8
建具
  6
Continuous
 62
     4
370
     9
100
AcDbLine
 10
-81.72877956081078
 20
-528.2969500049326
 30
0.0
 11
-87.68915949641047
 21
-524.3128471887376
 31
0.0
  0
LINE
  5
2E6
330
1F
100
AcDbEntity
  8
建具
  6
Continuous
 62
     4
370
     9
100
AcDbLine
 10
-217.500197951858
 20
-511.9498876105069
 30
0.0
 11
-217.500197951858
 21
-517.7282508125761
 31
0.0
  0
LINE
  5
2E7
330
1F
100
AcDbEntity
  8
建具
  6
Continuous
 62
     4
370
     9
100
AcDbLine
 10
-202.5001484638935
 20
-511.9498876105069
 30
0.0
 11
-202.5001484638935
 21
-517.7282508125761
 31
0.0
  0
LINE
  5
2E8
330
1F
100
AcDbEntity
  8
建具
  6
Continuous
 62
     4
370
     9
100
AcDbLine
 10
-213.7474761138091
 20
-511.9498876105069
 30
0.0
 11
-213.7474761138091
 21
-517.7282508125761
 31
0.0
  0
LINE
  5
2E9
330
1F
100
AcDbEntity
  8
建具
  6
Continuous
 62
     4
370
     9
100
AcDbLine
 10
-206.2530187658361
 20
-511.9498876105069
 30
0.0
 11
-206.2530187658361
 21
-517.7282508125761
 31
0.0
  0
LINE
  5
2EA
330
1F
100
AcDbEntity
  8
建具
  6
Continuous
 62
     4
370
     9
100
AcDbLine
 10
-215.6237628008868
 20
-511.2283530877028
 30
0.0
 11
-204.3765836148648
 21
-511.2283530877028
 31
0.0
  0
LINE
  5
2EB
330
1F
100
AcDbEntity
  8
建具
  6
Continuous
 62
     4
370
     9
100
AcDbLine
 10
-198.7503959037162
 20
-519.7283563869005
 30
0.0
 11
-198.7503959037162
 21
-517.7282508125761
 31
0.0
  0
LINE
  5
2EC
330
1F
100
AcDbEntity
  8
建具
  6
Continuous
 62
     4
370
     9
100
AcDbLine
 10
-221.2503959037162
 20
-519.7283563869005
 30
0.0
 11
-198.7503959037162
 21
-519.7283563869005
 31
0.0
  0
LINE
  5
2ED
330
1F
100
AcDbEntity
  8
建具
  6
Continuous
 62
     4
370
     9
100
AcDbLine
 10
-221.2503959037162
 20
-519.7283563869005
 30
0.0
 11
-221.2503959037162
 21
-517.7282508125761
 31
0.0
  0
LINE
  5
2EE
330
1F
100
AcDbEntity
  8
建具
  6
Continuous
 62
     4
370
     9
100
AcDbLine
 10
-221.2503959037162
 20
-517.7282508125761
 30
0.0
 11
-198.7503959037162
 21
-517.7282508125761
 31
0.0
  0
LINE
  5
2EF
330
1F
100
AcDbEntity
  8
建具
  6
Continuous
 62
     4
370
     9
100
AcDbLine
 10
-213.0002573374155
 20
-501.7283712332899
 30
0.0
 11
-213.0002573374155
 21
-511.2283530877028
 31
0.0
  0
LINE
  5
2F0
330
1F
100
AcDbEntity
  8
建具
  6
Continuous
 62
     4
370
     9
100
AcDbLine
 10
-214.0003101245777
 20
-502.7282013246116
 30
0.0
 11
-214.0003101245777
 21
-511.2283530877028
 31
0.0
  0
LINE
  5
2F1
330
1F
100
AcDbEntity
  8
建具
  6
Continuous
 62
     4
370
     9
100
AcDbLine
 10
-207.0000890783361
 20
-501.7283712332899
 30
0.0
 11
-207.0000890783361
 21
-511.2283530877028
 31
0.0
  0
LINE
  5
2F2
330
1F
100
AcDbEntity
  8
建具
  6
Continuous
 62
     4
370
     9
100
AcDbLine
 10
-206.0001847550675
 20
-502.7282013246116
 30
0.0
 11
-206.0001847550675
 21
-511.2283530877028
 31
0.0
  0
LINE
  5
2F3
330
1F
100
AcDbEntity
  8
建具
  6
JWW_CENTER1
 62
     4
370
     9
100
AcDbLine
 10
-10.00023094383437
 20
-530.2284652604225
 30
0.0
 11
-203.5003497149493
 21
-530.2284652604225
 31
0.0
  0
LINE
  5
2F4
330
1F
100
AcDbEntity
  8
建具
  6
Continuous
 62
     4
370
     9
100
AcDbLine
 10
-9.000178156672177
 20
-353.7693291223312
 30
0.0
 11
-9.000178156672177
 21
-377.7692598391809
 31
0.0
  0
LINE
  5
2F5
330
1F
100
AcDbEntity
  8
建具
  6
Continuous
 62
     4
370
     9
100
AcDbLine
 10
3.999765756967975
 20
-353.7693291223312
 30
0.0
 11
3.999765756967975
 21
-377.7692598391809
 31
0.0
  0
LINE
  5
2F6
330
1F
100
AcDbEntity
  8
建具
  6
Continuous
 62
     4
370
     9
100
AcDbLine
 10
-4.000359612542184
 20
-353.7693291223312
 30
0.0
 11
-4.000359612542184
 21
-377.7692598391809
 31
0.0
  0
LINE
  5
2F7
330
1F
100
AcDbEntity
  8
建具
  6
Continuous
 62
     4
370
     9
100
AcDbLine
 10
8.999732764991563
 20
-353.7693291223312
 30
0.0
 11
8.999732764991563
 21
-377.7692598391809
 31
0.0
  0
LINE
  5
2F8
330
1F
100
AcDbEntity
  8
建具
  6
Continuous
 62
     4
370
     9
100
AcDbLine
 10
-2.500428895692494
 20
-416.2692878823608
 30
0.0
 11
-2.500428895692494
 21
-379.2691905560306
 31
0.0
  0
LINE
  5
2F9
330
1F
100
AcDbEntity
  8
建具
  6
Continuous
 62
     4
370
     9
100
AcDbLine
 10
2.499835040118285
 20
-379.2691905560306
 30
0.0
 11
2.499835040118285
 21
-416.2692878823608
 31
0.0
  0
LINE
  5
2FA
330
1F
100
AcDbEntity
  8
建具
  6
Continuous
 62
     4
370
     9
100
AcDbLine
 10
-2.500428895692494
 20
-462.4391091318329
 30
0.0
 11
-2.500428895692494
 21
-443.2691542648566
 31
0.0
  0
LINE
  5
2FB
330
1F
100
AcDbEntity
  8
建具
  6
Continuous
 62
     4
370
     9
100
AcDbLine
 10
2.499835040118285
 20
-461.0992967242105
 30
0.0
 11
2.499835040118285
 21
-443.2691542648566
 31
0.0
  0
LINE
  5
2FC
330
1F
100
AcDbEntity
  8
建具
  6
JWW_CENTER1
 62
     4
370
     9
100
AcDbLine
 10
-0.0002969277871898
 20
-520.228234316588
 30
0.0
 11
-0.0002969277871898
 21
-287.6672651442906
 31
0.0
  0
LINE
  5
2FD
330
1F
100
AcDbEntity
  8
仕上
  6
Continuous
 62
     3
370
     9
100
AcDbLine
 10
-8.000273833403753
 20
-309.2736609688261
 30
0.0
 11
-6.792816986908747
 21
-316.5430470541302
 31
0.0
  0
LINE
  5
2FE
330
1F
100
AcDbEntity
  8
仕上
  6
Continuous
 62
     3
370
     9
100
AcDbLine
 10
-18.50023424303203
 20
-309.293555130566
 30
0.0
 11
-16.25234243032094
 21
-322.1177177942062
 31
0.0
  0
LINE
  5
2FF
330
1F
100
AcDbEntity
  8
仕上
  6
Continuous
 62
     3
370
     9
100
AcDbLine
 10
7.999828441722968
 20
-309.2736609688261
 30
0.0
 11
6.792223131334538
 21
-316.5430470541302
 31
0.0
  0
LINE
  5
300
330
1F
100
AcDbEntity
  8
仕上
  6
Continuous
 62
     3
370
     9
100
AcDbLine
 10
18.49964038745782
 20
-309.293555130566
 30
0.0
 11
16.25204550253375
 21
-322.1178662580998
 31
0.0
  0
LINE
  5
301
330
1F
100
AcDbEntity
  8
仕上
  6
Continuous
 62
     3
370
     9
100
AcDbLine
 10
107.21453692462
 20
-330.2700928865838
 30
0.0
 11
12.29711584142734
 21
-330.2700928865838
 31
0.0
  0
LINE
  5
302
330
1F
100
AcDbEntity
  8
仕上
  6
Continuous
 62
     3
370
     9
100
AcDbLine
 10
-12.29770969700172
 20
-330.2700928865838
 30
0.0
 11
-107.2142399968328
 21
-330.2700928865838
 31
0.0
  0
LINE
  5
303
330
1F
100
AcDbEntity
  8
躯体
  6
Continuous
 62
     2
370
     9
100
AcDbLine
 10
8.999732764991563
 20
-359.4896429420103
 30
0.0
 11
294.9999835040119
 21
-359.4896429420103
 31
0.0
  0
LINE
  5
304
330
1F
100
AcDbEntity
  8
躯体
  6
Continuous
 62
     2
370
     9
100
AcDbLine
 10
-294.9999835040118
 20
-359.4896429420103
 30
0.0
 11
-9.000178156672177
 21
-359.4896429420103
 31
0.0
  0
LINE
  5
305
330
1F
100
AcDbEntity
  8
躯体
  6
Continuous
 62
     2
370
     9
100
AcDbLine
 10
-4.000359612542184
 20
-359.4896429420103
 30
0.0
 11
3.999765756967975
 21
-359.4896429420103
 31
0.0
  0
LINE
  5
306
330
1F
100
AcDbEntity
  8
0-E
  6
Continuous
 62
     7
370
     9
100
AcDbLine
 10
9.08049712309969
 20
-436.8557367579942
 30
0.0
 11
19.73382073479735
 21
-450.7394119981758
 31
0.0
  0
LINE
  5
307
330
1F
100
AcDbEntity
  8
0-E
  6
Continuous
 62
     7
370
     9
100
AcDbLine
 10
9.08049712309969
 20
-436.8557367579942
 30
0.0
 11
15.77755489864876
 21
-453.0236774648143
 31
0.0
  0
LINE
  5
308
330
1F
100
AcDbEntity
  8
0-E
  6
Continuous
 62
     7
370
     9
100
AcDbLine
 10
9.08049712309969
 20
-436.8557367579942
 30
0.0
 11
53.83716480152032
 21
-514.3765299510897
 31
0.0
  0
LINE
  5
309
330
1F
100
AcDbEntity
  8
0-E
  6
Continuous
 62
     7
370
     9
100
AcDbLine
 10
53.83716480152032
 20
-514.3765299510897
 30
0.0
 11
375.0469640783363
 21
-514.3765299510897
 31
0.0
  0
LINE
  5
30A
330
1F
100
AcDbEntity
  8
0-E
  6
Continuous
 62
     7
370
     9
100
AcDbLine
 10
236.8270791543497
 20
-345.2579683352747
 30
0.0
 11
247.4802543021538
 21
-359.1416435754562
 31
0.0
  0
LINE
  5
30B
330
1F
100
AcDbEntity
  8
0-E
  6
Continuous
 62
     7
370
     9
100
AcDbLine
 10
236.8270791543497
 20
-345.2579683352747
 30
0.0
 11
243.5239884660052
 21
-361.4258348101479
 31
0.0
  0
LINE
  5
30C
330
1F
100
AcDbEntity
  8
0-E
  6
Continuous
 62
     7
370
     9
100
AcDbLine
 10
236.8270791543497
 20
-345.2579683352747
 30
0.0
 11
288.3868078283363
 21
-434.5619696021665
 31
0.0
  0
LINE
  5
30D
330
1F
100
AcDbEntity
  8
0-E
  6
Continuous
 62
     7
370
     9
100
AcDbLine
 10
250.500009897593
 20
-301.48969902837
 30
0.0
 11
257.1969192092484
 21
-285.3218325534967
 31
0.0
  0
LINE
  5
30E
330
1F
100
AcDbEntity
  8
0-E
  6
Continuous
 62
     7
370
     9
100
AcDbLine
 10
250.500009897593
 20
-301.48969902837
 30
0.0
 11
261.153185045397
 21
-287.6059495562416
 31
0.0
  0
LINE
  5
30F
330
1F
100
AcDbEntity
  8
0-E
  6
Continuous
 62
     7
370
     9
100
AcDbLine
 10
227.3666629275761
 20
-302.2923690690162
 30
0.0
 11
234.0635722392314
 21
-286.1245025941428
 31
0.0
  0
LINE
  5
310
330
1F
100
AcDbEntity
  8
0-E
  6
Continuous
 62
     7
370
     9
100
AcDbLine
 10
227.3666629275761
 20
-302.2923690690162
 30
0.0
 11
238.0198380753802
 21
-288.4086938288345
 31
0.0
  0
LINE
  5
311
330
1F
100
AcDbEntity
  8
0-E
  6
Continuous
 62
     7
370
     9
100
AcDbLine
 10
250.500009897593
 20
-301.48969902837
 30
0.0
 11
307.0801935969174
 21
-203.4896478908067
 31
0.0
  0
LINE
  5
312
330
1F
100
AcDbEntity
  8
0-E
  6
Continuous
 62
     7
370
     9
100
AcDbLine
 10
227.3666629275761
 20
-302.2923690690162
 30
0.0
 11
332.7932491817991
 21
-119.688312375604
 31
0.0
  0
LINE
  5
313
330
1F
100
AcDbEntity
  8
0-E
  6
Continuous
 62
     7
370
     9
100
AcDbLine
 10
-152.8167064769848
 20
-299.9759611694174
 30
0.0
 11
-163.4700300886823
 21
-286.092211697289
 31
0.0
  0
LINE
  5
314
330
1F
100
AcDbEntity
  8
0-E
  6
Continuous
 62
     7
370
     9
100
AcDbLine
 10
-152.8167064769848
 20
-299.9759611694174
 30
0.0
 11
-159.5136157886402
 21
-283.808094694544
 31
0.0
  0
LINE
  5
315
330
1F
100
AcDbEntity
  8
0-E
  6
Continuous
 62
     7
370
     9
100
AcDbLine
 10
-152.8167064769848
 20
-299.9759611694174
 30
0.0
 11
-256.2008749472128
 21
-120.909205204468
 31
0.0
  0
LINE
  5
316
330
1F
100
AcDbEntity
  8
その他
  6
Continuous
 62
     7
370
     9
100
AcDbLine
 10
390.0002474398227
 20
-359.4896429420103
 30
0.0
 11
390.0002474398227
 21
-301.48969902837
 31
0.0
  0
LINE
  5
317
330
1F
100
AcDbEntity
  8
その他
  6
Continuous
 62
     7
370
     9
100
AcDbLine
 10
330.5000758815456
 20
-359.4896429420103
 30
0.0
 11
392.1001207506334
 21
-359.4896429420103
 31
0.0
  0
LINE
  5
318
330
1F
100
AcDbEntity
  8
その他
  6
Continuous
 62
     7
370
     9
100
AcDbLine
 10
292.5001484638936
 20
-301.48969902837
 30
0.0
 11
392.1001207506334
 21
-301.48969902837
 31
0.0
  0
LINE
  5
319
330
1F
100
AcDbEntity
  8
その他
  6
Continuous
 62
     7
370
     9
100
AcDbLine
 10
390.0002474398227
 20
-359.4896429420103
 30
0.0
 11
387.7159819731842
 21
-349.6781838388641
 31
0.0
  0
LINE
  5
31A
330
1F
100
AcDbEntity
  8
その他
  6
Continuous
 62
     7
370
     9
100
AcDbLine
 10
390.0002474398227
 20
-359.4896429420103
 30
0.0
 11
392.2845129064613
 21
-349.6781838388641
 31
0.0
  0
LINE
  5
31B
330
1F
100
AcDbEntity
  8
その他
  6
Continuous
 62
     7
370
     9
100
AcDbLine
 10
390.0002474398227
 20
-301.48969902837
 30
0.0
 11
387.7159819731842
 21
-318.8399319517231
 31
0.0
  0
LINE
  5
31C
330
1F
100
AcDbEntity
  8
その他
  6
Continuous
 62
     7
370
     9
100
AcDbLine
 10
390.0002474398227
 20
-301.48969902837
 30
0.0
 11
392.2845129064613
 21
-318.8399319517231
 31
0.0
  0
LINE
  5
31D
330
1F
100
AcDbEntity
  8
その他
  6
Continuous
 62
     7
370
     9
100
AcDbLine
 10
-243.0005047772381
 20
-227.0283755222467
 30
0.0
 11
242.9999109216639
 21
-227.0283755222467
 31
0.0
  0
LINE
  5
31E
330
1F
100
AcDbEntity
  8
その他
  6
Continuous
 62
     7
370
     9
100
AcDbLine
 10
-243.0005047772381
 20
-287.5285256357391
 30
0.0
 11
-243.0005047772381
 21
-224.9283537475424
 31
0.0
  0
LINE
  5
31F
330
1F
100
AcDbEntity
  8
その他
  6
Continuous
 62
     7
370
     9
100
AcDbLine
 10
242.9999109216639
 20
-287.5284514037924
 30
0.0
 11
242.9999109216639
 21
-224.9283537475424
 31
0.0
  0
LINE
  5
320
330
1F
100
AcDbEntity
  8
その他
  6
Continuous
 62
     7
370
     9
100
AcDbLine
 10
-243.0005047772381
 20
-227.0283755222467
 30
0.0
 11
-225.6501233899916
 21
-224.744184287555
 31
0.0
  0
LINE
  5
321
330
1F
100
AcDbEntity
  8
その他
  6
Continuous
 62
     7
370
     9
100
AcDbLine
 10
-243.0005047772381
 20
-227.0283755222467
 30
0.0
 11
-225.6501233899916
 21
-229.3126409888852
 31
0.0
  0
LINE
  5
322
330
1F
100
AcDbEntity
  8
その他
  6
Continuous
 62
     7
370
     9
100
AcDbLine
 10
242.9999109216639
 20
-227.0283755222467
 30
0.0
 11
225.6495295344174
 21
-224.744184287555
 31
0.0
  0
LINE
  5
323
330
1F
100
AcDbEntity
  8
その他
  6
Continuous
 62
     7
370
     9
100
AcDbLine
 10
242.9999109216639
 20
-227.0283755222467
 30
0.0
 11
225.6495295344174
 21
-229.3126409888852
 31
0.0
  0
LINE
  5
324
330
1F
100
AcDbEntity
  8
その他
  6
Continuous
 62
     7
370
     9
100
AcDbLine
 10
-294.9999835040118
 20
-171.0284629509841
 30
0.0
 11
294.9999835040119
 21
-171.0284629509841
 31
0.0
  0
LINE
  5
325
330
1F
100
AcDbEntity
  8
その他
  6
Continuous
 62
     7
370
     9
100
AcDbLine
 10
-294.9999835040118
 20
-356.5285305845356
 30
0.0
 11
-294.9999835040118
 21
-168.9283669443329
 31
0.0
  0
LINE
  5
326
330
1F
100
AcDbEntity
  8
その他
  6
Continuous
 62
     7
370
     9
100
AcDbLine
 10
294.9999835040119
 20
-356.5285305845356
 30
0.0
 11
294.9999835040119
 21
-168.9283669443329
 31
0.0
  0
LINE
  5
327
330
1F
100
AcDbEntity
  8
その他
  6
Continuous
 62
     7
370
     9
100
AcDbLine
 10
-294.9999835040118
 20
-171.0284629509841
 30
0.0
 11
-277.6496021167652
 21
-168.7441974843456
 31
0.0
  0
LINE
  5
328
330
1F
100
AcDbEntity
  8
その他
  6
Continuous
 62
     7
370
     9
100
AcDbLine
 10
-294.9999835040118
 20
-171.0284629509841
 30
0.0
 11
-277.6496021167652
 21
-173.3126541856758
 31
0.0
  0
LINE
  5
329
330
1F
100
AcDbEntity
  8
その他
  6
Continuous
 62
     7
370
     9
100
AcDbLine
 10
294.9999835040119
 20
-171.0284629509841
 30
0.0
 11
277.6498990445523
 21
-168.7441974843456
 31
0.0
  0
LINE
  5
32A
330
1F
100
AcDbEntity
  8
その他
  6
Continuous
 62
     7
370
     9
100
AcDbLine
 10
294.9999835040119
 20
-171.0284629509841
 30
0.0
 11
277.6498990445523
 21
-173.3126541856758
 31
0.0
  0
LINE
  5
32B
330
1F
100
AcDbEntity
  8
その他
  6
Continuous
 62
     7
370
     9
100
AcDbLine
 10
-225.0
 20
-437.0284744981758
 30
0.0
 11
225.0001484638936
 21
-437.0284744981758
 31
0.0
  0
LINE
  5
32C
330
1F
100
AcDbEntity
  8
その他
  6
Continuous
 62
     7
370
     9
100
AcDbLine
 10
-225.0
 20
-377.5284514037924
 30
0.0
 11
-225.0
 21
-439.1284962728802
 31
0.0
  0
LINE
  5
32D
330
1F
100
AcDbEntity
  8
その他
  6
Continuous
 62
     7
370
     9
100
AcDbLine
 10
225.0001484638936
 20
-377.5284514037924
 30
0.0
 11
225.0001484638936
 21
-439.1284962728802
 31
0.0
  0
LINE
  5
32E
330
1F
100
AcDbEntity
  8
その他
  6
Continuous
 62
     7
370
     9
100
AcDbLine
 10
-225.0
 20
-437.0284744981758
 30
0.0
 11
-207.6496186127534
 21
-434.7442090315373
 31
0.0
  0
LINE
  5
32F
330
1F
100
AcDbEntity
  8
その他
  6
Continuous
 62
     7
370
     9
100
AcDbLine
 10
-225.0
 20
-437.0284744981758
 30
0.0
 11
-207.6496186127534
 21
-439.3127399648143
 31
0.0
  0
LINE
  5
330
330
1F
100
AcDbEntity
  8
その他
  6
Continuous
 62
     7
370
     9
100
AcDbLine
 10
225.0001484638936
 20
-437.0284744981758
 30
0.0
 11
207.649767076647
 21
-434.7442090315373
 31
0.0
  0
LINE
  5
331
330
1F
100
AcDbEntity
  8
その他
  6
Continuous
 62
     7
370
     9
100
AcDbLine
 10
225.0001484638936
 20
-437.0284744981758
 30
0.0
 11
207.649767076647
 21
-439.3127399648143
 31
0.0
  0
LINE
  5
332
330
1F
100
AcDbEntity
  8
その他
  6
Continuous
 62
     7
370
     9
100
AcDbLine
 10
47.93216189822641
 20
-309.42182793462
 30
0.0
 11
45.64789643158781
 21
-326.7721350899199
 31
0.0
  0
LINE
  5
333
330
1F
100
AcDbEntity
  8
その他
  6
Continuous
 62
     7
370
     9
100
AcDbLine
 10
47.93216189822641
 20
-309.42182793462
 30
0.0
 11
50.21627890097125
 21
-326.7721350899199
 31
0.0
  0
LINE
  5
334
330
1F
100
AcDbEntity
  8
その他
  6
Continuous
 62
     7
370
     9
100
AcDbLine
 10
47.93216189822641
 20
-298.4332728512163
 30
0.0
 11
45.64789643158781
 21
-281.0830399278633
 31
0.0
  0
LINE
  5
335
330
1F
100
AcDbEntity
  8
その他
  6
Continuous
 62
     7
370
     9
100
AcDbLine
 10
47.93216189822641
 20
-298.4332728512163
 30
0.0
 11
50.21627890097125
 21
-281.0830399278633
 31
0.0
  0
LINE
  5
336
330
1F
100
AcDbEntity
  8
その他
  6
Continuous
 62
     7
370
     9
100
AcDbLine
 10
47.93216189822641
 20
-303.421882371381
 30
0.0
 11
47.93216189822641
 21
-343.8719094248016
 31
0.0
  0
LINE
  5
337
330
1F
100
AcDbEntity
  8
その他
  6
Continuous
 62
     7
370
     9
100
AcDbLine
 10
47.93216189822641
 20
-260.1190473708531
 30
0.0
 11
47.93216189822641
 21
-303.421882371381
 31
0.0
  0
LINE
  5
338
330
1F
100
AcDbEntity
  8
その他
  6
Continuous
 62
     7
370
     9
100
AcDbLine
 10
79.2048933699325
 20
490.7286319735303
 30
0.0
 11
86.53633736275344
 21
503.8148334093411
 31
0.0
  0
LINE
  5
339
330
1F
100
AcDbEntity
  8
その他
  6
Continuous
 62
     7
370
     9
100
AcDbLine
 10
79.2048933699325
 20
490.7286319735303
 30
0.0
 11
89.67352789801532
 21
501.4714793130573
 31
0.0
  0
LINE
  5
33A
330
1F
100
AcDbEntity
  8
建具
  6
Continuous
 62
     4
370
     9
100
AcDbLine
 10
-233.2564482817778
 20
-345.9897468667358
 30
0.0
 11
-232.4996535842483
 21
-345.2329521692062
 31
0.0
  0
LINE
  5
33B
330
1F
100
AcDbEntity
  8
建具
  6
Continuous
 62
     4
370
     9
100
AcDbLine
 10
-234.104474041913
 20
-345.9892272431082
 30
0.0
 11
-232.4996535842483
 21
-344.3844067854435
 31
0.0
  0
LINE
  5
33C
330
1F
100
AcDbEntity
  8
建具
  6
Continuous
 62
     4
370
     9
100
AcDbLine
 10
-234.8913326778927
 20
-345.9275404953253
 30
0.0
 11
-232.4996535842483
 21
-343.5358985176542
 31
0.0
  0
LINE
  5
33D
330
1F
100
AcDbEntity
  8
建具
  6
Continuous
 62
     4
370
     9
100
AcDbLine
 10
-235.5944576778927
 20
-345.782157227536
 30
0.0
 11
-232.4996535842483
 21
-342.687390249865
 31
0.0
  0
LINE
  5
33E
330
1F
100
AcDbEntity
  8
建具
  6
Continuous
 62
     4
370
     9
100
AcDbLine
 10
-236.231887404983
 20
-345.5710786868372
 30
0.0
 11
-232.4996535842483
 21
-341.8388077501289
 31
0.0
  0
LINE
  5
33F
330
1F
100
AcDbEntity
  8
建具
  6
Continuous
 62
     4
370
     9
100
AcDbLine
 10
-236.8140143317145
 20
-345.3046973457792
 30
0.0
 11
-235.3781457849451
 21
-343.8688287990099
 31
0.0
  0
LINE
  5
340
330
1F
100
AcDbEntity
  8
建具
  6
Continuous
 62
     4
370
     9
100
AcDbLine
 10
-234.8573344462627
 20
-343.347980344354
 30
0.0
 11
-232.4996535842483
 21
-340.9902994823397
 31
0.0
  0
LINE
  5
341
330
1F
100
AcDbEntity
  8
建具
  6
Continuous
 62
     4
370
     9
100
AcDbLine
 10
-237.3471481735641
 20
-344.9893229198397
 30
0.0
 11
-235.5932699667441
 21
-343.2354447130195
 31
0.0
  0
LINE
  5
342
330
1F
100
AcDbEntity
  8
建具
  6
Continuous
 62
     4
370
     9
100
AcDbLine
 10
-234.9618530273438
 20
-342.6040277736192
 30
0.0
 11
-232.4996535842483
 21
-340.1418283305238
 31
0.0
  0
LINE
  5
343
330
1F
100
AcDbEntity
  8
建具
  6
Continuous
 62
     4
370
     9
100
AcDbLine
 10
-237.8351489917652
 20
-344.6287412383047
 30
0.0
 11
-235.697862779772
 21
-342.4914550263113
 31
0.0
  0
LINE
  5
344
330
1F
100
AcDbEntity
  8
建具
  6
Continuous
 62
     4
370
     9
100
AcDbLine
 10
-235.0664458403716
 20
-341.860038086911
 30
0.0
 11
-232.4996535842483
 21
-339.2932458307877
 31
0.0
  0
LINE
  5
345
330
1F
100
AcDbEntity
  8
建具
  6
Continuous
 62
     4
370
     9
100
AcDbLine
 10
-238.2799468169341
 20
-344.2250307956842
 30
0.0
 11
-235.802381360853
 21
-341.7474653396031
 31
0.0
  0
LINE
  5
346
330
1F
100
AcDbEntity
  8
建具
  6
Continuous
 62
     4
370
     9
100
AcDbLine
 10
-235.1710386533994
 20
-341.1160855161762
 30
0.0
 11
-232.4996535842483
 21
-338.4447375629985
 31
0.0
  0
LINE
  5
347
330
1F
100
AcDbEntity
  8
建具
  6
Continuous
 62
     4
370
     9
100
AcDbLine
 10
-238.682209736592
 20
-343.7787483315795
 30
0.0
 11
-235.9069741738809
 21
-341.003475652895
 31
0.0
  0
LINE
  5
348
330
1F
100
AcDbEntity
  8
建具
  6
Continuous
 62
     4
370
     9
100
AcDbLine
 10
-235.2755572344805
 20
-340.3720958294681
 30
0.0
 11
-232.4996535842483
 21
-337.5961921792358
 31
0.0
  0
LINE
  5
349
330
1F
100
AcDbEntity
  8
建具
  6
Continuous
 62
     4
370
     9
100
AcDbLine
 10
-239.0412696632179
 20
-343.2892999904161
 30
0.0
 11
-236.0114927549619
 21
-340.2595230821602
 31
0.0
  0
LINE
  5
34A
330
1F
100
AcDbEntity
  8
建具
  6
Continuous
 62
     4
370
     9
100
AcDbLine
 10
-235.3801500475084
 20
-339.6281432587332
 30
0.0
 11
-232.4996535842483
 21
-336.7476467954731
 31
0.0
  0
LINE
  5
34B
330
1F
100
AcDbEntity
  8
建具
  6
Continuous
 62
     4
370
     9
100
AcDbLine
 10
-239.3550481023015
 20
-342.754533045737
 30
0.0
 11
-236.1160855679898
 21
-339.5155705114254
 31
0.0
  0
LINE
  5
34C
330
1F
100
AcDbEntity
  8
建具
  6
Continuous
 62
     4
370
     9
100
AcDbLine
 10
-235.4846686285895
 20
-338.8841906879985
 30
0.0
 11
-232.4996535842483
 21
-335.8991756436572
 31
0.0
  0
LINE
  5
34D
330
1F
100
AcDbEntity
  8
建具
  6
Continuous
 62
     4
370
     9
100
AcDbLine
 10
-239.619610760663
 20
-342.1705874363092
 30
0.0
 11
-236.2206041490709
 21
-338.7715808247172
 31
0.0
  0
LINE
  5
34E
330
1F
100
AcDbEntity
  8
建具
  6
Continuous
 62
     4
370
     9
100
AcDbLine
 10
-235.5892614416173
 20
-338.1402381172636
 30
0.0
 11
-232.4996535842483
 21
-335.0506302598945
 31
0.0
  0
LINE
  5
34F
330
1F
100
AcDbEntity
  8
建具
  6
Continuous
 62
     4
370
     9
100
AcDbLine
 10
-239.8286479228252
 20
-341.5310792147088
 30
0.0
 11
-236.3251969620988
 21
-338.027591138009
 31
0.0
  0
LINE
  5
350
330
1F
100
AcDbEntity
  8
建具
  6
Continuous
 62
     4
370
     9
100
AcDbLine
 10
-235.6937800226984
 20
-337.3962484305554
 30
0.0
 11
-232.4996535842483
 21
-334.2020848761319
 31
0.0
  0
LINE
  5
351
330
1F
100
AcDbEntity
  8
建具
  6
Continuous
 62
     4
370
     9
100
AcDbLine
 10
-239.971544420397
 20
-340.8254674444913
 30
0.0
 11
-236.4297155431798
 21
-337.2836756832476
 31
0.0
  0
LINE
  5
352
330
1F
100
AcDbEntity
  8
建具
  6
Continuous
 62
     4
370
     9
100
AcDbLine
 10
-235.7983728357263
 20
-336.6522958598206
 30
0.0
 11
-232.4996535842483
 21
-333.3535766083426
 31
0.0
  0
LINE
  5
353
330
1F
100
AcDbEntity
  8
建具
  6
Continuous
 62
     4
370
     9
100
AcDbLine
 10
-240.0762856973184
 20
-340.08166333765
 30
0.0
 11
-236.5343083562077
 21
-336.5396859965394
 31
0.0
  0
LINE
  5
354
330
1F
100
AcDbEntity
  8
建具
  6
Continuous
 62
     4
370
     9
100
AcDbLine
 10
-235.9029656487542
 20
-335.9083432890859
 30
0.0
 11
-232.4996535842483
 21
-332.5050683405533
 31
0.0
  0
LINE
  5
355
330
1F
100
AcDbEntity
  8
建具
  6
Continuous
 62
     4
370
     9
100
AcDbLine
 10
-240.1808042783994
 20
-339.3377107669153
 30
0.0
 11
-236.6388269372888
 21
-335.7956963098312
 31
0.0
  0
LINE
  5
356
330
1F
100
AcDbEntity
  8
建具
  6
Continuous
 62
     4
370
     9
100
AcDbLine
 10
-236.0074842298353
 20
-335.1643536023777
 30
0.0
 11
-232.4996535842483
 21
-331.6565229567906
 31
0.0
  0
LINE
  5
357
330
1F
100
AcDbEntity
  8
建具
  6
Continuous
 62
     4
370
     9
100
AcDbLine
 10
-240.2853970914273
 20
-338.5937581961804
 30
0.0
 11
-236.7433455183699
 21
-335.0517437390964
 31
0.0
  0
LINE
  5
358
330
1F
100
AcDbEntity
  8
建具
  6
Continuous
 62
     4
370
     9
100
AcDbLine
 10
-236.1120770428631
 20
-334.4204381476163
 30
0.0
 11
-232.4996535842483
 21
-330.8080146890014
 31
0.0
  0
LINE
  5
359
330
1F
100
AcDbEntity
  8
建具
  6
Continuous
 62
     4
370
     9
100
AcDbLine
 10
-240.3899156725084
 20
-337.8497685094723
 30
0.0
 11
-236.8479383313978
 21
-334.3077540523882
 31
0.0
  0
LINE
  5
35A
330
1F
100
AcDbEntity
  8
建具
  6
Continuous
 62
     4
370
     9
100
AcDbLine
 10
-236.2165956239442
 20
-333.6764484609081
 30
0.0
 11
-232.4996535842483
 21
-329.9595064212122
 31
0.0
  0
LINE
  5
35B
330
1F
100
AcDbEntity
  8
建具
  6
Continuous
 62
     4
370
     9
100
AcDbLine
 10
-240.4945084855363
 20
-337.1057788227641
 30
0.0
 11
-236.9524569124788
 21
-333.56376436568
 31
0.0
  0
LINE
  5
35C
330
1F
100
AcDbEntity
  8
建具
  6
Continuous
 62
     4
370
     9
100
AcDbLine
 10
-236.3211884369721
 20
-332.9324587741999
 30
0.0
 11
-232.4996535842483
 21
-329.110923921476
 31
0.0
  0
LINE
  5
35D
330
1F
100
AcDbEntity
  8
建具
  6
Continuous
 62
     4
370
     9
100
AcDbLine
 10
-240.5990270666173
 20
-336.3618262520292
 30
0.0
 11
-237.0570497255067
 21
-332.8198117949453
 31
0.0
  0
LINE
  5
35E
330
1F
100
AcDbEntity
  8
建具
  6
Continuous
 62
     4
370
     9
100
AcDbLine
 10
-236.4257070180532
 20
-332.1885062034651
 30
0.0
 11
-232.4996535842483
 21
-328.2624156536868
 31
0.0
  0
LINE
  5
35F
330
1F
100
AcDbEntity
  8
建具
  6
Continuous
 62
     4
370
     9
100
AcDbLine
 10
-240.7036198796452
 20
-335.617836565321
 30
0.0
 11
-237.1615683065878
 21
-332.075822108237
 31
0.0
  0
LINE
  5
360
330
1F
100
AcDbEntity
  8
建具
  6
Continuous
 62
     4
370
     9
100
AcDbLine
 10
-236.530299831081
 20
-331.4445536327303
 30
0.0
 11
-232.4996535842483
 21
-327.4138702699241
 31
0.0
  0
LINE
  5
361
330
1F
100
AcDbEntity
  8
建具
  6
Continuous
 62
     4
370
     9
100
AcDbLine
 10
-240.8081384607263
 20
-334.8738839945863
 30
0.0
 11
-237.2661611196157
 21
-331.3318695375022
 31
0.0
  0
LINE
  5
362
330
1F
100
AcDbEntity
  8
建具
  6
Continuous
 62
     4
370
     9
100
AcDbLine
 10
-236.6348926441089
 20
-330.7006010619955
 30
0.0
 11
-232.4996535842483
 21
-326.5653991181082
 31
0.0
  0
LINE
  5
363
330
1F
100
AcDbEntity
  8
建具
  6
Continuous
 62
     4
370
     9
100
AcDbLine
 10
-240.9127312737542
 20
-334.1298943078781
 30
0.0
 11
-237.3706797006968
 21
-330.5878798507941
 31
0.0
  0
LINE
  5
364
330
1F
100
AcDbEntity
  8
建具
  6
Continuous
 62
     4
370
     9
100
AcDbLine
 10
-236.73941122519
 20
-329.9566113752873
 30
0.0
 11
-232.4996535842483
 21
-325.7168537343456
 31
0.0
  0
LINE
  5
365
330
1F
100
AcDbEntity
  8
建具
  6
Continuous
 62
     4
370
     9
100
AcDbLine
 10
-241.0172498548353
 20
-333.3859417371433
 30
0.0
 11
-237.4752725137246
 21
-329.8439272800592
 31
0.0
  0
LINE
  5
366
330
1F
100
AcDbEntity
  8
建具
  6
Continuous
 62
     4
370
     9
100
AcDbLine
 10
-236.8440040382179
 20
-329.2126588045525
 30
0.0
 11
-232.4996535842483
 21
-324.8683083505829
 31
0.0
  0
LINE
  5
367
330
1F
100
AcDbEntity
  8
建具
  6
Continuous
 62
     4
370
     9
100
AcDbLine
 10
-241.1218426678631
 20
-332.6419891664085
 30
0.0
 11
-237.5797910948057
 21
-329.0999747093244
 31
0.0
  0
LINE
  5
368
330
1F
100
AcDbEntity
  8
建具
  6
Continuous
 62
     4
370
     9
100
AcDbLine
 10
-236.948522619299
 20
-328.4687062338177
 30
0.0
 11
-232.4996535842483
 21
-324.0198000827936
 31
0.0
  0
LINE
  5
369
330
1F
100
AcDbEntity
  8
建具
  6
Continuous
 62
     4
370
     9
100
AcDbLine
 10
-241.2263612489442
 20
-331.8979994797003
 30
0.0
 11
-237.6843839078336
 21
-328.3559850226163
 31
0.0
  0
LINE
  5
36A
330
1F
100
AcDbEntity
  8
建具
  6
Continuous
 62
     4
370
     9
100
AcDbLine
 10
-237.0531154323268
 20
-327.7247165471094
 30
0.0
 11
-232.4996535842483
 21
-323.1712918150043
 31
0.0
  0
LINE
  5
36B
330
1F
100
AcDbEntity
  8
建具
  6
Continuous
 62
     4
370
     9
100
AcDbLine
 10
-241.3309540619721
 20
-331.1540469089655
 30
0.0
 11
-237.7889024889147
 21
-327.6120324518814
 31
0.0
  0
LINE
  5
36C
330
1F
100
AcDbEntity
  8
建具
  6
Continuous
 62
     4
370
     9
100
AcDbLine
 10
-237.1576340134079
 20
-326.9807639763747
 30
0.0
 11
-232.4996535842483
 21
-322.3227464312416
 31
0.0
  0
LINE
  5
36D
330
1F
100
AcDbEntity
  8
建具
  6
Continuous
 62
     4
370
     9
100
AcDbLine
 10
-241.4354726430532
 20
-330.4100943382307
 30
0.0
 11
-237.8934953019426
 21
-326.8680798811466
 31
0.0
  0
LINE
  5
36E
330
1F
100
AcDbEntity
  8
建具
  6
Continuous
 62
     4
370
     9
100
AcDbLine
 10
-237.2622268264358
 20
-326.23681140564
 30
0.0
 11
-232.4996535842483
 21
-321.4742381634525
 31
0.0
  0
LINE
  5
36F
330
1F
100
AcDbEntity
  8
建具
  6
Continuous
 62
     4
370
     9
100
AcDbLine
 10
-241.540065456081
 20
-329.6660675355491
 30
0.0
 11
-237.9980138830236
 21
-326.1240530784651
 31
0.0
  0
LINE
  5
370
330
1F
100
AcDbEntity
  8
建具
  6
Continuous
 62
     4
370
     9
100
AcDbLine
 10
-237.3668196394637
 20
-325.4928217189317
 30
0.0
 11
-232.8636870513091
 21
-320.9896891307772
 31
0.0
  0
LINE
  5
371
330
1F
100
AcDbEntity
  8
建具
  6
Continuous
 62
     4
370
     9
100
AcDbLine
 10
-241.6445840371621
 20
-328.9221149648143
 30
0.0
 11
-238.1026066960515
 21
-325.3801005077303
 31
0.0
  0
LINE
  5
372
330
1F
100
AcDbEntity
  8
建具
  6
Continuous
 62
     4
370
     9
100
AcDbLine
 10
-237.4713382205448
 20
-324.7488691481969
 30
0.0
 11
-233.712158203125
 21
-320.9896891307772
 31
0.0
  0
LINE
  5
373
330
1F
100
AcDbEntity
  8
建具
  6
Continuous
 62
     4
370
     9
100
AcDbLine
 10
-241.74917685019
 20
-328.1781623940795
 30
0.0
 11
-238.2071252771326
 21
-324.6361479369955
 31
0.0
  0
LINE
  5
374
330
1F
100
AcDbEntity
  8
建具
  6
Continuous
 62
     4
370
     9
100
AcDbLine
 10
-237.5759310335726
 20
-324.0049165774622
 30
0.0
 11
-234.5607035868877
 21
-320.9896891307772
 31
0.0
  0
LINE
  5
375
330
1F
100
AcDbEntity
  8
建具
  6
Continuous
 62
     4
370
     9
100
AcDbLine
 10
-241.8417440878378
 20
-327.4221842479647
 30
0.0
 11
-238.3117180901605
 21
-323.8921582502873
 31
0.0
  0
LINE
  5
376
330
1F
100
AcDbEntity
  8
建具
  6
Continuous
 62
     4
370
     9
100
AcDbLine
 10
-237.6804496146537
 20
-323.2609268907539
 30
0.0
 11
-235.4092489706503
 21
-320.9896891307772
 31
0.0
  0
LINE
  5
377
330
1F
100
AcDbEntity
  8
建具
  6
Continuous
 62
     4
370
     9
100
AcDbLine
 10
-241.8429317989865
 20
-326.5749008072975
 30
0.0
 11
-236.2721211201435
 21
-321.0040530124811
 31
0.0
  0
LINE
  5
378
330
1F
100
AcDbEntity
  8
建具
  6
Continuous
 62
     4
370
     9
100
AcDbLine
 10
-241.6870447107263
 20
-325.5704312193012
 30
0.0
 11
-237.2765535921663
 21
-321.1599772167147
 31
0.0
  0
LINE
  5
379
330
1F
100
AcDbEntity
  8
建具
  6
Continuous
 62
     4
370
     9
100
AcDbLine
 10
-241.1739534945101
 20
-324.2088317352957
 30
0.0
 11
-238.6381901921452
 21
-321.6730684329309
 31
0.0
  0
LINE
  5
37A
330
1F
100
AcDbEntity
  8
建具
  6
Continuous
 62
     4
370
     9
100
AcDbLine
 10
236.5208723738388
 20
-345.4483732787924
 30
0.0
 11
239.4889625343117
 21
-342.4802088863726
 31
0.0
  0
LINE
  5
37B
330
1F
100
AcDbEntity
  8
建具
  6
Continuous
 62
     4
370
     9
100
AcDbLine
 10
235.1309534021327
 20
-345.9897468667358
 30
0.0
 11
235.2578900311445
 21
-345.8627731217506
 31
0.0
  0
LINE
  5
37C
330
1F
100
AcDbEntity
  8
建具
  6
Continuous
 62
     4
370
     9
100
AcDbLine
 10
234.28240801837
 20
-345.9897468667358
 30
0.0
 11
234.2879754143792
 21
-345.9841423547531
 31
0.0
  0
LINE
  5
37D
330
1F
100
AcDbEntity
  8
建具
  6
Continuous
 62
     4
370
     9
100
AcDbLine
 10
233.4338626346074
 20
-345.9897468667358
 30
0.0
 11
240.1963929872256
 21
-339.2271793981441
 31
0.0
  0
LINE
  5
37E
330
1F
100
AcDbEntity
  8
建具
  6
Continuous
 62
     4
370
     9
100
AcDbLine
 10
232.5853172508447
 20
-345.9897468667358
 30
0.0
 11
234.7970581054688
 21
-343.7780060121116
 31
0.0
  0
LINE
  5
37F
330
1F
100
AcDbEntity
  8
建具
  6
Continuous
 62
     4
370
     9
100
AcDbLine
 10
235.6349140888936
 20
-342.9401129127134
 30
0.0
 11
240.3352067277239
 21
-338.2398573898566
 31
0.0
  0
LINE
  5
380
330
1F
100
AcDbEntity
  8
建具
  6
Continuous
 62
     4
370
     9
100
AcDbLine
 10
232.4996535842484
 20
-345.2267909176226
 30
0.0
 11
234.9357976140203
 21
-342.790684003824
 31
0.0
  0
LINE
  5
381
330
1F
100
AcDbEntity
  8
建具
  6
Continuous
 62
     4
370
     9
100
AcDbLine
 10
235.7736535974452
 20
-341.9527909044258
 30
0.0
 11
240.4739462362753
 21
-337.2524982655956
 31
0.0
  0
LINE
  5
382
330
1F
100
AcDbEntity
  8
建具
  6
Continuous
 62
     4
370
     9
100
AcDbLine
 10
232.4996535842484
 20
-344.3783197658067
 30
0.0
 11
235.0745371225719
 21
-341.8034362274832
 31
0.0
  0
LINE
  5
383
330
1F
100
AcDbEntity
  8
建具
  6
Continuous
 62
     4
370
     9
100
AcDbLine
 10
235.9124673379434
 20
-340.9655060121116
 30
0.0
 11
240.6127599767738
 21
-336.2652133732813
 31
0.0
  0
LINE
  5
384
330
1F
100
AcDbEntity
  8
建具
  6
Continuous
 62
     4
370
     9
100
AcDbLine
 10
232.4996535842484
 20
-343.5297001500973
 30
0.0
 11
235.2132766311234
 21
-340.8160771032223
 31
0.0
  0
LINE
  5
385
330
1F
100
AcDbEntity
  8
建具
  6
Continuous
 62
     4
370
     9
100
AcDbLine
 10
236.051206846495
 20
-339.9781468878506
 30
0.0
 11
240.7514994853252
 21
-335.2778542490204
 31
0.0
  0
LINE
  5
386
330
1F
100
AcDbEntity
  8
建具
  6
Continuous
 62
     4
370
     9
100
AcDbLine
 10
232.4996535842484
 20
-342.681191882308
 30
0.0
 11
235.3520161396748
 21
-339.8288293268814
 31
0.0
  0
LINE
  5
387
330
1F
100
AcDbEntity
  8
建具
  6
Continuous
 62
     4
370
     9
100
AcDbLine
 10
236.1899463550466
 20
-338.9908991115099
 30
0.0
 11
240.8903132258236
 21
-334.2905693567062
 31
0.0
  0
LINE
  5
388
330
1F
100
AcDbEntity
  8
建具
  6
Continuous
 62
     4
370
     9
100
AcDbLine
 10
232.4996535842484
 20
-341.8326093825719
 30
0.0
 11
235.4907556482264
 21
-338.8415073185938
 31
0.0
  0
LINE
  5
389
330
1F
100
AcDbEntity
  8
建具
  6
Continuous
 62
     4
370
     9
100
AcDbLine
 10
236.328685863598
 20
-338.0035771032223
 30
0.0
 11
241.029052734375
 21
-333.3031731164718
 31
0.0
  0
LINE
  5
38A
330
1F
100
AcDbEntity
  8
建具
  6
Continuous
 62
     4
370
     9
100
AcDbLine
 10
232.4996535842484
 20
-340.9840639988092
 30
0.0
 11
235.629495156778
 21
-337.8542224262797
 31
0.0
  0
LINE
  5
38B
330
1F
100
AcDbEntity
  8
建具
  6
Continuous
 62
     4
370
     9
100
AcDbLine
 10
236.4674253721495
 20
-337.0162922109081
 30
0.0
 11
241.1678664748734
 21
-332.3158511081842
 31
0.0
  0
LINE
  5
38C
330
1F
100
AcDbEntity
  8
建具
  6
Continuous
 62
     4
370
     9
100
AcDbLine
 10
232.4996535842484
 20
-340.1354814990731
 30
0.0
 11
235.7682346653294
 21
-336.8669004179922
 31
0.0
  0
LINE
  5
38D
330
1F
100
AcDbEntity
  8
建具
  6
Continuous
 62
     4
370
     9
100
AcDbLine
 10
236.6061648807011
 20
-336.0289702026205
 30
0.0
 11
241.3066059834248
 21
-331.3285290998966
 31
0.0
  0
LINE
  5
38E
330
1F
100
AcDbEntity
  8
建具
  6
Continuous
 62
     4
370
     9
100
AcDbLine
 10
232.4996535842484
 20
-339.2869732312839
 30
0.0
 11
235.9069741738809
 21
-335.8796155256779
 31
0.0
  0
LINE
  5
38F
330
1F
100
AcDbEntity
  8
建具
  6
Continuous
 62
     4
370
     9
100
AcDbLine
 10
236.7449786211994
 20
-335.0416481943329
 30
0.0
 11
241.4454197239231
 21
-330.3412070916091
 31
0.0
  0
LINE
  5
390
330
1F
100
AcDbEntity
  8
建具
  6
Continuous
 62
     4
370
     9
100
AcDbLine
 10
232.4996535842484
 20
-338.4384278475213
 30
0.0
 11
236.0457879143792
 21
-334.8922935173903
 31
0.0
  0
LINE
  5
391
330
1F
100
AcDbEntity
  8
建具
  6
Continuous
 62
     4
370
     9
100
AcDbLine
 10
236.8837181297509
 20
-334.0543633020187
 30
0.0
 11
241.5841592324747
 21
-329.3538850833215
 31
0.0
  0
LINE
  5
392
330
1F
100
AcDbEntity
  8
建具
  6
Continuous
 62
     4
370
     9
100
AcDbLine
 10
232.4996535842484
 20
-337.5898824637585
 30
0.0
 11
236.1845274229308
 21
-333.9050086250761
 31
0.0
  0
LINE
  5
393
330
1F
100
AcDbEntity
  8
建具
  6
Continuous
 62
     4
370
     9
100
AcDbLine
 10
237.0224576383023
 20
-333.0670784097045
 30
0.0
 11
241.722972972973
 21
-328.3665630750339
 31
0.0
  0
LINE
  5
394
330
1F
100
AcDbEntity
  8
建具
  6
Continuous
 62
     4
370
     9
100
AcDbLine
 10
232.4996535842484
 20
-336.7412999640225
 30
0.0
 11
236.3232669314824
 21
-332.9177237327619
 31
0.0
  0
LINE
  5
395
330
1F
100
AcDbEntity
  8
建具
  6
Continuous
 62
     4
370
     9
100
AcDbLine
 10
237.1611971468539
 20
-332.0797935173903
 30
0.0
 11
241.8434514226141
 21
-327.3975392416302
 31
0.0
  0
LINE
  5
396
330
1F
100
AcDbEntity
  8
建具
  6
Continuous
 62
     4
370
     9
100
AcDbLine
 10
232.4996535842484
 20
-335.8927916962332
 30
0.0
 11
236.4620064400339
 21
-331.9304388404478
 31
0.0
  0
LINE
  5
397
330
1F
100
AcDbEntity
  8
建具
  6
Continuous
 62
     4
370
     9
100
AcDbLine
 10
237.2999366554055
 20
-331.0924715091028
 30
0.0
 11
241.8412986961572
 21
-326.5511465843244
 31
0.0
  0
LINE
  5
398
330
1F
100
AcDbEntity
  8
建具
  6
Continuous
 62
     4
370
     9
100
AcDbLine
 10
232.4996535842484
 20
-335.0442091964972
 30
0.0
 11
236.6007459485853
 21
-330.9431539481335
 31
0.0
  0
LINE
  5
399
330
1F
100
AcDbEntity
  8
建具
  6
Continuous
 62
     4
370
     9
100
AcDbLine
 10
237.438676163957
 20
-330.1051866167885
 30
0.0
 11
241.7391555373734
 21
-325.8047443593456
 31
0.0
  0
LINE
  5
39A
330
1F
100
AcDbEntity
  8
建具
  6
Continuous
 62
     4
370
     9
100
AcDbLine
 10
232.4996535842484
 20
-334.1956266967611
 30
0.0
 11
236.7394854571369
 21
-329.9557948238726
 31
0.0
  0
LINE
  5
39B
330
1F
100
AcDbEntity
  8
建具
  6
Continuous
 62
     4
370
     9
100
AcDbLine
 10
237.5774899044553
 20
-329.1178274925276
 30
0.0
 11
241.5627061998522
 21
-325.1326111971306
 31
0.0
  0
LINE
  5
39C
330
1F
100
AcDbEntity
  8
建具
  6
Continuous
 62
     4
370
     9
100
AcDbLine
 10
232.4996535842484
 20
-333.3471184289718
 30
0.0
 11
236.8782249656884
 21
-328.9685470475318
 31
0.0
  0
LINE
  5
39D
330
1F
100
AcDbEntity
  8
建具
  6
Continuous
 62
     4
370
     9
100
AcDbLine
 10
237.7162294130069
 20
-328.1305797161868
 30
0.0
 11
241.3258320576436
 21
-324.5209028396031
 31
0.0
  0
LINE
  5
39E
330
1F
100
AcDbEntity
  8
建具
  6
Continuous
 62
     4
370
     9
100
AcDbLine
 10
232.4996535842484
 20
-332.4985359292358
 30
0.0
 11
237.0169644742398
 21
-327.9812250392442
 31
0.0
  0
LINE
  5
39F
330
1F
100
AcDbEntity
  8
建具
  6
Continuous
 62
     4
370
     9
100
AcDbLine
 10
237.8549689215583
 20
-327.1432205919258
 30
0.0
 11
241.0369213207348
 21
-323.9612681927493
 31
0.0
  0
LINE
  5
3A0
330
1F
100
AcDbEntity
  8
建具
  6
Continuous
 62
     4
370
     9
100
AcDbLine
 10
232.4996535842484
 20
-331.6499905454731
 30
0.0
 11
237.1557039827914
 21
-326.9939030309566
 31
0.0
  0
LINE
  5
3A1
330
1F
100
AcDbEntity
  8
建具
  6
Continuous
 62
     4
370
     9
100
AcDbLine
 10
237.9937084301098
 20
-326.1559356996116
 30
0.0
 11
240.7009475295609
 21
-323.4486594841872
 31
0.0
  0
LINE
  5
3A2
330
1F
100
AcDbEntity
  8
建具
  6
Continuous
 62
     4
370
     9
100
AcDbLine
 10
232.4996535842484
 20
-330.8014451617104
 30
0.0
 11
237.294443491343
 21
-326.0066181386425
 31
0.0
  0
LINE
  5
3A3
330
1F
100
AcDbEntity
  8
建具
  6
Continuous
 62
     4
370
     9
100
AcDbLine
 10
238.1324479386614
 20
-325.1686508072975
 30
0.0
 11
240.3208799619933
 21
-322.9801816679922
 31
0.0
  0
LINE
  5
3A4
330
1F
100
AcDbEntity
  8
建具
  6
Continuous
 62
     4
370
     9
100
AcDbLine
 10
232.4996535842484
 20
-329.9528626619744
 30
0.0
 11
237.4332572318413
 21
-325.0192961303549
 31
0.0
  0
LINE
  5
3A5
330
1F
100
AcDbEntity
  8
建具
  6
Continuous
 62
     4
370
     9
100
AcDbLine
 10
238.2711874472128
 20
-324.1813287990099
 30
0.0
 11
239.8981290250211
 21
-322.554424337175
 31
0.0
  0
LINE
  5
3A6
330
1F
100
AcDbEntity
  8
建具
  6
Continuous
 62
     4
370
     9
100
AcDbLine
 10
232.4996535842484
 20
-329.1043172782116
 30
0.0
 11
237.5719967403928
 21
-324.0320112380406
 31
0.0
  0
LINE
  5
3A7
330
1F
100
AcDbEntity
  8
建具
  6
Continuous
 62
     4
370
     9
100
AcDbLine
 10
238.31936398068
 20
-323.2846068817801
 30
0.0
 11
239.4326947186445
 21
-322.171313259789
 31
0.0
  0
LINE
  5
3A8
330
1F
100
AcDbEntity
  8
建具
  6
Continuous
 62
     4
370
     9
100
AcDbLine
 10
232.4996535842484
 20
-328.255771894449
 30
0.0
 11
237.7107362489444
 21
-323.0447263457265
 31
0.0
  0
LINE
  5
3A9
330
1F
100
AcDbEntity
  8
建具
  6
Continuous
 62
     4
370
     9
100
AcDbLine
 10
237.7658163534628
 20
-322.9896462412079
 30
0.0
 11
238.9232408678209
 21
-321.8321846108764
 31
0.0
  0
LINE
  5
3AA
330
1F
100
AcDbEntity
  8
建具
  6
Continuous
 62
     4
370
     9
100
AcDbLine
 10
232.4996535842484
 20
-327.4072636266598
 30
0.0
 11
238.3670951224663
 21
-321.5398220884418
 31
0.0
  0
LINE
  5
3AB
330
1F
100
AcDbEntity
  8
建具
  6
Continuous
 62
     4
370
     9
100
AcDbLine
 10
232.4996535842484
 20
-326.558718242897
 30
0.0
 11
237.7592097101986
 21
-321.2991250009735
 31
0.0
  0
LINE
  5
3AC
330
1F
100
AcDbEntity
  8
建具
  6
Continuous
 62
     4
370
     9
100
AcDbLine
 10
232.4996535842484
 20
-325.7101728591344
 30
0.0
 11
237.091716044658
 21
-321.1180732827514
 31
0.0
  0
LINE
  5
3AD
330
1F
100
AcDbEntity
  8
建具
  6
Continuous
 62
     4
370
     9
100
AcDbLine
 10
232.4996535842484
 20
-324.8615903593984
 30
0.0
 11
236.3511781434756
 21
-321.0100658001712
 31
0.0
  0
LINE
  5
3AE
330
1F
100
AcDbEntity
  8
建具
  6
Continuous
 62
     4
370
     9
100
AcDbLine
 10
232.4996535842484
 20
-324.0130449756356
 30
0.0
 11
235.5230465450803
 21
-320.9896891307772
 31
0.0
  0
LINE
  5
3AF
330
1F
100
AcDbEntity
  8
建具
  6
Continuous
 62
     4
370
     9
100
AcDbLine
 10
232.4996535842484
 20
-323.1644624758997
 30
0.0
 11
234.6744269293708
 21
-320.9896891307772
 31
0.0
  0
LINE
  5
3B0
330
1F
100
AcDbEntity
  8
建具
  6
Continuous
 62
     4
370
     9
100
AcDbLine
 10
232.4996535842484
 20
-322.3159170921369
 30
0.0
 11
233.8258815456081
 21
-320.9896891307772
 31
0.0
  0
LINE
  5
3B1
330
1F
100
AcDbEntity
  8
建具
  6
Continuous
 62
     4
370
     9
100
AcDbLine
 10
232.4996535842484
 20
-321.4673717083743
 30
0.0
 11
232.9773361618455
 21
-320.9896891307772
 31
0.0
  0
ARC
  5
3B2
330
1F
100
AcDbEntity
  8
躯体
  6
Continuous
 62
     2
370
     9
100
AcDbCircle
 10
-258.1984566353462
 20
-348.4896932547741
 30
0.0
 40
4.000000051549963
100
AcDbArc
 50
270.0
 51
355.5153961181641
  0
ARC
  5
3B3
330
1F
100
AcDbEntity
  8
躯体
  6
Continuous
 62
     2
370
     9
100
AcDbCircle
 10
258.1987535631334
 20
-348.4896932547741
 30
0.0
 40
4.000000051549963
100
AcDbArc
 50
184.4846038818359
 51
270.0
  0
ARC
  5
3B4
330
1F
100
AcDbEntity
  8
躯体
  6
Continuous
 62
     2
370
     9
100
AcDbCircle
 10
293.1326046505491
 20
-353.4896973787713
 30
0.0
 40
1.000000012887491
100
AcDbArc
 50
8.130706787109382
 51
90.00000000000001
  0
ARC
  5
3B5
330
1F
100
AcDbEntity
  8
躯体
  6
Continuous
 62
     2
370
     9
100
AcDbCircle
 10
0.0
 20
273.2893784499872
 30
0.0
 40
293.9999678328231
100
AcDbArc
 50
0.0
 51
180.0
  0
ARC
  5
3B6
330
1F
100
AcDbEntity
  8
躯体
  6
Continuous
 62
     2
370
     9
100
AcDbCircle
 10
0.0
 20
273.2893784499872
 30
0.0
 40
250.4999913396062
100
AcDbArc
 50
0.0
 51
180.0
  0
ARC
  5
3B7
330
1F
100
AcDbEntity
  8
躯体
  6
Continuous
 62
     2
370
     9
100
AcDbCircle
 10
0.0
 20
273.2893784499872
 30
0.0
 40
245.5000057735959
100
AcDbArc
 50
0.0
 51
180.0
  0
ARC
  5
3B8
330
1F
100
AcDbEntity
  8
躯体
  6
Continuous
 62
     2
370
     9
100
AcDbCircle
 10
278.9697430584883
 20
297.2895318626773
 30
0.0
 40
2.000000025774982
100
AcDbArc
 50
270.0
 51
4.917114257812505
  0
ARC
  5
3B9
330
1F
100
AcDbEntity
  8
躯体
  6
Continuous
 62
     2
370
     9
100
AcDbCircle
 10
281.1405821104308
 20
295.289426288353
 30
0.0
 40
2.000000025774982
100
AcDbArc
 50
270.0
 51
4.474365234375008
  0
ARC
  5
3BA
330
1F
100
AcDbEntity
  8
躯体
  6
Continuous
 62
     2
370
     9
100
AcDbCircle
 10
267.9272955817145
 20
297.2895318626773
 30
0.0
 40
2.000000025774982
100
AcDbArc
 50
185.1182250976563
 51
270.0
  0
ARC
  5
3BB
330
1F
100
AcDbEntity
  8
躯体
  6
Continuous
 62
     2
370
     9
100
AcDbCircle
 10
266.0922818570523
 20
295.289426288353
 30
0.0
 40
2.000000025774982
100
AcDbArc
 50
184.7263946533203
 51
270.0
  0
ARC
  5
3BC
330
1F
100
AcDbEntity
  8
躯体
  6
Continuous
 62
     2
370
     9
100
AcDbCircle
 10
-278.9695945945945
 20
297.2895318626773
 30
0.0
 40
2.000000025774982
100
AcDbArc
 50
175.0828857421875
 51
270.0
  0
ARC
  5
3BD
330
1F
100
AcDbEntity
  8
躯体
  6
Continuous
 62
     2
370
     9
100
AcDbCircle
 10
-281.1405821104307
 20
295.289426288353
 30
0.0
 40
2.000000025774982
100
AcDbArc
 50
175.525634765625
 51
270.0
  0
ARC
  5
3BE
330
1F
100
AcDbEntity
  8
躯体
  6
Continuous
 62
     2
370
     9
100
AcDbCircle
 10
-267.9271471178209
 20
297.2895318626773
 30
0.0
 40
2.000000025774982
100
AcDbArc
 50
270.0
 51
354.8817749023438
  0
ARC
  5
3BF
330
1F
100
AcDbEntity
  8
躯体
  6
Continuous
 62
     2
370
     9
100
AcDbCircle
 10
-266.0918364653716
 20
295.289426288353
 30
0.0
 40
2.000000025774982
100
AcDbArc
 50
270.0
 51
355.2736053466797
  0
ARC
  5
3C0
330
1F
100
AcDbEntity
  8
躯体
  6
Continuous
 62
     2
370
     9
100
AcDbCircle
 10
24.00007918074328
 20
552.2590472765286
 30
0.0
 40
2.000000025774982
100
AcDbArc
 50
85.08282470703125
 51
180.0
  0
ARC
  5
3C1
330
1F
100
AcDbEntity
  8
躯体
  6
Continuous
 62
     2
370
     9
100
AcDbCircle
 10
24.00007918074328
 20
541.2167482636486
 30
0.0
 40
2.000000025774982
100
AcDbArc
 50
180.0
 51
264.8818969726562
  0
ARC
  5
3C2
330
1F
100
AcDbEntity
  8
躯体
  6
Continuous
 62
     2
370
     9
100
AcDbCircle
 10
22.0001220703125
 20
539.3814376111992
 30
0.0
 40
2.000000025774982
100
AcDbArc
 50
180.0
 51
265.2736663818359
  0
ARC
  5
3C3
330
1F
100
AcDbEntity
  8
躯体
  6
Continuous
 62
     2
370
     9
100
AcDbCircle
 10
22.0001220703125
 20
554.4300347923648
 30
0.0
 40
2.000000025774982
100
AcDbArc
 50
85.52574157714844
 51
180.0
  0
ARC
  5
3C4
330
1F
100
AcDbEntity
  8
躯体
  6
Continuous
 62
     2
370
     9
100
AcDbCircle
 10
-23.99993071684969
 20
541.2167482636486
 30
0.0
 40
2.000000025774982
100
AcDbArc
 50
275.1181030273438
 51
0.0
  0
ARC
  5
3C5
330
1F
100
AcDbEntity
  8
躯体
  6
Continuous
 62
     2
370
     9
100
AcDbCircle
 10
-21.99997360641891
 20
539.3814376111992
 30
0.0
 40
2.000000025774982
100
AcDbArc
 50
274.7263336181641
 51
0.0000000000000127
  0
ARC
  5
3C6
330
1F
100
AcDbEntity
  8
躯体
  6
Continuous
 62
     2
370
     9
100
AcDbCircle
 10
-21.99997360641891
 20
554.4300347923648
 30
0.0
 40
2.000000025774982
100
AcDbArc
 50
0.0
 51
94.47425842285156
  0
ARC
  5
3C7
330
1F
100
AcDbEntity
  8
躯体
  6
Continuous
 62
     2
370
     9
100
AcDbCircle
 10
-23.99993071684969
 20
552.2590472765286
 30
0.0
 40
2.000000025774982
100
AcDbArc
 50
0.0
 51
94.91717529296875
  0
ARC
  5
3C8
330
1F
100
AcDbEntity
  8
躯体
  6
Continuous
 62
     2
370
     9
100
AcDbCircle
 10
-4.999967008023589
 20
548.2894196899576
 30
0.0
 40
7.500000386624723
100
AcDbArc
 50
90.0
 51
270.0
  0
ARC
  5
3C9
330
1F
100
AcDbEntity
  8
躯体
  6
Continuous
 62
     2
370
     9
100
AcDbCircle
 10
5.000115471917354
 20
548.2894196899576
 30
0.0
 40
7.500000386624723
100
AcDbArc
 50
270.0
 51
90.0
  0
ARC
  5
3CA
330
1F
100
AcDbEntity
  8
躯体
  6
Continuous
 62
     2
370
     9
100
AcDbCircle
 10
5.000115471917354
 20
548.2894196899576
 30
0.0
 40
9.000000115987417
100
AcDbArc
 50
270.0
 51
90.0
  0
ARC
  5
3CB
330
1F
100
AcDbEntity
  8
躯体
  6
Continuous
 62
     2
370
     9
100
AcDbCircle
 10
-4.999967008023589
 20
548.2894196899576
 30
0.0
 40
9.000000115987417
100
AcDbArc
 50
90.0
 51
270.0
  0
ARC
  5
3CC
330
1F
100
AcDbEntity
  8
躯体
  6
Continuous
 62
     2
370
     9
100
AcDbCircle
 10
275.0001154719174
 20
278.2893454580109
 30
0.0
 40
7.500000386624723
100
AcDbArc
 50
0.0
 51
180.0
  0
ARC
  5
3CD
330
1F
100
AcDbEntity
  8
躯体
  6
Continuous
 62
     2
370
     9
100
AcDbCircle
 10
275.0001154719174
 20
278.2893454580109
 30
0.0
 40
9.000000115987417
100
AcDbArc
 50
0.0
 51
180.0
  0
ARC
  5
3CE
330
1F
100
AcDbEntity
  8
躯体
  6
Continuous
 62
     2
370
     9
100
AcDbCircle
 10
0.0
 20
273.2893784499872
 30
0.0
 40
294.9999278300518
100
AcDbArc
 50
180.0
 51
179.9998474121094
  0
ARC
  5
3CF
330
1F
100
AcDbEntity
  8
躯体
  6
Continuous
 62
     2
370
     9
100
AcDbCircle
 10
0.0
 20
273.2893784499872
 30
0.0
 40
224.9999814420133
100
AcDbArc
 50
180.0
 51
0.0
  0
ARC
  5
3D0
330
1F
100
AcDbEntity
  8
仕上
  6
Continuous
 62
     3
370
     9
100
AcDbCircle
 10
0.0
 20
273.2893784499872
 30
0.0
 40
242.9996882258235
100
AcDbArc
 50
0.0
 51
180.0
  0
ARC
  5
3D1
330
1F
100
AcDbEntity
  8
仕上
  6
Continuous
 62
     3
370
     9
100
AcDbCircle
 10
0.0
 20
273.2893784499872
 30
0.0
 40
208.0000119595915
100
AcDbArc
 50
67.50000000000003
 51
112.5
  0
ARC
  5
3D2
330
1F
100
AcDbEntity
  8
仕上
  6
Continuous
 62
     3
370
     9
100
AcDbCircle
 10
0.0
 20
273.2893784499872
 30
0.0
 40
200.9999764932169
100
AcDbArc
 50
84.28947448730472
 51
95.71052551269536
  0
ARC
  5
3D3
330
1F
100
AcDbEntity
  8
仕上
  6
Continuous
 62
     3
370
     9
100
AcDbCircle
 10
0.0
 20
273.2893784499872
 30
0.0
 40
200.9999764932169
100
AcDbArc
 50
97.43220520019537
 51
108.1490478515625
  0
ARC
  5
3D4
330
1F
100
AcDbEntity
  8
仕上
  6
Continuous
 62
     3
370
     9
100
AcDbCircle
 10
0.0
 20
273.2893784499872
 30
0.0
 40
231.0000012371991
100
AcDbArc
 50
67.49998474121095
 51
112.5000152587891
  0
ARC
  5
3D5
330
1F
100
AcDbEntity
  8
仕上
  6
Continuous
 62
     3
370
     9
100
AcDbCircle
 10
0.0
 20
273.2893784499872
 30
0.0
 40
200.9999764932169
100
AcDbArc
 50
71.85095214843751
 51
82.5677947998047
  0
ARC
  5
3D6
330
1F
100
AcDbEntity
  8
仕上
  6
Continuous
 62
     3
370
     9
100
AcDbCircle
 10
0.0
 20
60.23782683733936
 30
0.0
 40
59.05160646180849
100
AcDbArc
 50
73.26866149902342
 51
106.7313385009765
  0
ARC
  5
3D7
330
1F
100
AcDbEntity
  8
仕上
  6
Continuous
 62
     3
370
     9
100
AcDbCircle
 10
0.0
 20
186.3409795505995
 30
0.0
 40
59.05160646180849
100
AcDbArc
 50
253.2686614990234
 51
286.7313385009766
  0
ARC
  5
3D8
330
1F
100
AcDbEntity
  8
建具
  6
Continuous
 62
     4
370
     9
100
AcDbCircle
 10
-235.857313001478
 20
-326.989708925963
 30
0.0
 40
5.999999497387861
100
AcDbArc
 50
90.0
 51
187.9992828369141
  0
ARC
  5
3D9
330
1F
100
AcDbEntity
  8
建具
  6
Continuous
 62
     4
370
     9
100
AcDbCircle
 10
-234.030019399282
 20
-339.9896899555766
 30
0.0
 40
5.999999497387861
100
AcDbArc
 50
188.000228881836
 51
270.0
  0
ARC
  5
3DA
330
1F
100
AcDbEntity
  8
建具
  6
Continuous
 62
     4
370
     9
100
AcDbCircle
 10
-237.863208667652
 20
-323.489672634789
 30
0.0
 40
0.5000000064437454
100
AcDbArc
 50
90.0
 51
187.9976196289062
  0
ARC
  5
3DB
330
1F
100
AcDbEntity
  8
建具
  6
Continuous
 62
     4
370
     9
100
AcDbCircle
 10
-235.0523417704814
 20
-343.4895777828569
 30
0.0
 40
0.5000000064437454
100
AcDbArc
 50
188.0088653564453
 51
270.0000000000001
  0
ARC
  5
3DC
330
1F
100
AcDbEntity
  8
建具
  6
Continuous
 62
     4
370
     9
100
AcDbCircle
 10
235.8573130014781
 20
-326.989708925963
 30
0.0
 40
5.999999497387861
100
AcDbArc
 50
352.000717163086
 51
89.99999999999999
  0
ARC
  5
3DD
330
1F
100
AcDbEntity
  8
建具
  6
Continuous
 62
     4
370
     9
100
AcDbCircle
 10
234.0303163270694
 20
-339.9896899555766
 30
0.0
 40
5.999999497387861
100
AcDbArc
 50
270.0
 51
351.9997711181641
  0
ARC
  5
3DE
330
1F
100
AcDbEntity
  8
建具
  6
Continuous
 62
     4
370
     9
100
AcDbCircle
 10
237.8633571315456
 20
-323.489672634789
 30
0.0
 40
0.5000000064437454
100
AcDbArc
 50
352.0023803710938
 51
90.0
  0
ARC
  5
3DF
330
1F
100
AcDbEntity
  8
建具
  6
Continuous
 62
     4
370
     9
100
AcDbCircle
 10
235.0526386982686
 20
-343.4895777828569
 30
0.0
 40
0.5000000064437454
100
AcDbArc
 50
270.0
 51
351.9911346435547
  0
ARC
  5
3E0
330
1F
100
AcDbEntity
  8
躯体
  6
Continuous
 62
     2
370
     9
100
AcDbCircle
 10
275.0001154719174
 20
268.2894856739105
 30
0.0
 40
7.500000386624723
100
AcDbArc
 50
180.0
 51
0.0
  0
ARC
  5
3E1
330
1F
100
AcDbEntity
  8
躯体
  6
Continuous
 62
     2
370
     9
100
AcDbCircle
 10
-274.9999670080236
 20
278.2893454580109
 30
0.0
 40
7.500000386624723
100
AcDbArc
 50
0.0
 51
180.0
  0
ARC
  5
3E2
330
1F
100
AcDbEntity
  8
躯体
  6
Continuous
 62
     2
370
     9
100
AcDbCircle
 10
-274.9999670080236
 20
278.2893454580109
 30
0.0
 40
9.000000115987417
100
AcDbArc
 50
0.0
 51
180.0
  0
ARC
  5
3E3
330
1F
100
AcDbEntity
  8
躯体
  6
Continuous
 62
     2
370
     9
100
AcDbCircle
 10
-274.9999670080236
 20
268.2894856739105
 30
0.0
 40
7.500000386624723
100
AcDbArc
 50
180.0
 51
0.0
  0
ARC
  5
3E4
330
1F
100
AcDbEntity
  8
躯体
  6
Continuous
 62
     2
370
     9
100
AcDbCircle
 10
-4.999967008023589
 20
-1.71058855803642
 30
0.0
 40
7.500000386624723
100
AcDbArc
 50
90.0
 51
270.0
  0
ARC
  5
3E5
330
1F
100
AcDbEntity
  8
躯体
  6
Continuous
 62
     2
370
     9
100
AcDbCircle
 10
5.000115471917354
 20
-1.71058855803642
 30
0.0
 40
7.500000386624723
100
AcDbArc
 50
270.0
 51
90.0
  0
ARC
  5
3E6
330
1F
100
AcDbEntity
  8
躯体
  6
Continuous
 62
     2
370
     9
100
AcDbCircle
 10
265.1914029508023
 20
-353.4896973787713
 30
0.0
 40
1.000000012887491
100
AcDbArc
 50
12.09832763671875
 51
90.00000000000001
  0
ARC
  5
3E7
330
1F
100
AcDbEntity
  8
躯体
  6
Continuous
 62
     2
370
     9
100
AcDbCircle
 10
284.808531065245
 20
-353.4896973787713
 30
0.0
 40
1.000000012887491
100
AcDbArc
 50
90.0
 51
167.9072265625
  0
ARC
  5
3E8
330
1F
100
AcDbEntity
  8
躯体
  6
JWW_DASHED1
 62
     2
370
     9
100
AcDbCircle
 10
284.4142109638936
 20
-353.4896973787713
 30
0.0
 40
1.000000012887491
100
AcDbArc
 50
90.0
 51
135.0
  0
ARC
  5
3E9
330
1F
100
AcDbEntity
  8
躯体
  6
JWW_DASHED1
 62
     2
370
     9
100
AcDbCircle
 10
281.5859737911741
 20
-353.4896973787713
 30
0.0
 40
1.000000012887491
100
AcDbArc
 50
270.0
 51
315.0
  0
ARC
  5
3EA
330
1F
100
AcDbEntity
  8
躯体
  6
JWW_DASHED1
 62
     2
370
     9
100
AcDbCircle
 10
267.4145012932855
 20
-353.4896973787713
 30
0.0
 40
1.000000012887491
100
AcDbArc
 50
225.0000000000001
 51
270.0000000000001
  0
ARC
  5
3EB
330
1F
100
AcDbEntity
  8
躯体
  6
JWW_DASHED1
 62
     2
370
     9
100
AcDbCircle
 10
264.5859671927788
 20
-353.4896973787713
 30
0.0
 40
1.000000012887491
100
AcDbArc
 50
45.0
 51
90.0
  0
ARC
  5
3EC
330
1F
100
AcDbEntity
  8
躯体
  6
Continuous
 62
     2
370
     9
100
AcDbCircle
 10
-293.1327531144426
 20
-353.4896973787713
 30
0.0
 40
1.000000012887491
100
AcDbArc
 50
90.0
 51
171.8692932128906
  0
ARC
  5
3ED
330
1F
100
AcDbEntity
  8
躯体
  6
Continuous
 62
     2
370
     9
100
AcDbCircle
 10
-265.1915514146959
 20
-353.4896973787713
 30
0.0
 40
1.000000012887491
100
AcDbArc
 50
90.0
 51
167.9016723632812
  0
ARC
  5
3EE
330
1F
100
AcDbEntity
  8
躯体
  6
Continuous
 62
     2
370
     9
100
AcDbCircle
 10
-284.8083826013514
 20
-353.4896973787713
 30
0.0
 40
1.000000012887491
100
AcDbArc
 50
12.0927734375
 51
90.00000000000001
  0
ARC
  5
3EF
330
1F
100
AcDbEntity
  8
躯体
  6
JWW_DASHED1
 62
     2
370
     9
100
AcDbCircle
 10
-284.4142109638936
 20
-353.4896973787713
 30
0.0
 40
1.000000012887491
100
AcDbArc
 50
45.0
 51
90.0
  0
ARC
  5
3F0
330
1F
100
AcDbEntity
  8
躯体
  6
JWW_DASHED1
 62
     2
370
     9
100
AcDbCircle
 10
-281.5856768633868
 20
-353.4896973787713
 30
0.0
 40
1.000000012887491
100
AcDbArc
 50
225.0000000000001
 51
270.0000000000001
  0
ARC
  5
3F1
330
1F
100
AcDbEntity
  8
躯体
  6
JWW_DASHED1
 62
     2
370
     9
100
AcDbCircle
 10
-267.4142043654983
 20
-353.4896973787713
 30
0.0
 40
1.000000012887491
100
AcDbArc
 50
270.0
 51
315.0
  0
ARC
  5
3F2
330
1F
100
AcDbEntity
  8
躯体
  6
JWW_DASHED1
 62
     2
370
     9
100
AcDbCircle
 10
-264.5856702649916
 20
-353.4896973787713
 30
0.0
 40
1.000000012887491
100
AcDbArc
 50
90.0
 51
135.0
  0
ARC
  5
3F3
330
1F
100
AcDbEntity
  8
仕上
  6
Continuous
 62
     3
370
     9
100
AcDbCircle
 10
-137.6153399493242
 20
-324.2061593852113
 30
0.0
 40
24.99999742250185
100
AcDbArc
 50
282.6666717529297
 51
1.129638671875001
  0
ARC
  5
3F4
330
1F
100
AcDbEntity
  8
仕上
  6
Continuous
 62
     3
370
     9
100
AcDbCircle
 10
-137.6153399493242
 20
-324.2061593852113
 30
0.0
 40
24.99999742250185
100
AcDbArc
 50
181.1295928955078
 51
259.5926208496094
  0
ARC
  5
3F5
330
1F
100
AcDbEntity
  8
仕上
  6
Continuous
 62
     3
370
     9
100
AcDbCircle
 10
-137.6153399493242
 20
-324.2061593852113
 30
0.0
 40
31.0000009794493
100
AcDbArc
 50
181.1295623779297
 51
260.7724761962891
  0
ARC
  5
3F6
330
1F
100
AcDbEntity
  8
仕上
  6
Continuous
 62
     3
370
     9
100
AcDbCircle
 10
-137.6153399493242
 20
-324.2061593852113
 30
0.0
 40
31.0000009794493
100
AcDbArc
 50
281.4867706298828
 51
1.129638671875001
  0
ARC
  5
3F7
330
1F
100
AcDbEntity
  8
仕上
  6
Continuous
 62
     3
370
     9
100
AcDbCircle
 10
-241.3034140097128
 20
-313.9890226928549
 30
0.0
 40
1.499999874346965
100
AcDbArc
 50
8.000228881835932
 51
89.99999999999999
  0
ARC
  5
3F8
330
1F
100
AcDbEntity
  8
仕上
  6
Continuous
 62
     3
370
     9
100
AcDbCircle
 10
0.0
 20
-7298.269352216716
 30
0.0
 40
7000.000131967907
100
AcDbArc
 50
91.39236450195318
 51
91.98937988281251
  0
ARC
  5
3F9
330
1F
100
AcDbEntity
  8
仕上
  6
Continuous
 62
     3
370
     9
100
AcDbCircle
 10
0.0
 20
-7298.269352216716
 30
0.0
 40
7000.000131967907
100
AcDbArc
 50
89.13174438476562
 51
90.86825561523436
  0
ARC
  5
3FA
330
1F
100
AcDbEntity
  8
仕上
  6
Continuous
 62
     3
370
     9
100
AcDbCircle
 10
0.0
 20
-7298.269352216716
 30
0.0
 40
6995.000461887668
100
AcDbArc
 50
89.2164306640625
 51
90.78356933593749
  0
ARC
  5
3FB
330
1F
100
AcDbEntity
  8
仕上
  6
Continuous
 62
     3
370
     9
100
AcDbCircle
 10
0.0
 20
-7298.269352216716
 30
0.0
 40
6995.000461887668
100
AcDbArc
 50
91.532211303711
 51
91.81869506835943
  0
ARC
  5
3FC
330
1F
100
AcDbEntity
  8
仕上
  6
Continuous
 62
     3
370
     9
100
AcDbCircle
 10
0.0
 20
-7298.269352216716
 30
0.0
 40
6989.000145164697
100
AcDbArc
 50
89.50529479980469
 51
90.49470520019531
  0
ARC
  5
3FD
330
1F
100
AcDbEntity
  8
仕上
  6
Continuous
 62
     3
370
     9
100
AcDbCircle
 10
-219.2216367979307
 20
-317.7120517521876
 30
0.0
 40
5.000000064437454
100
AcDbArc
 50
91.79873657226562
 51
175.879150390625
  0
ARC
  5
3FE
330
1F
100
AcDbEntity
  8
仕上
  6
Continuous
 62
     3
370
     9
100
AcDbCircle
 10
0.0
 20
-7298.269352216716
 30
0.0
 40
6989.000145164697
100
AcDbArc
 50
91.43345642089844
 51
91.79876708984375
  0
ARC
  5
3FF
330
1F
100
AcDbEntity
  8
仕上
  6
Continuous
 62
     3
370
     9
100
AcDbCircle
 10
0.0
 20
-7298.269352216716
 30
0.0
 40
6989.000145164697
100
AcDbArc
 50
90.65245056152344
 51
90.82612609863281
  0
ARC
  5
400
330
1F
100
AcDbEntity
  8
仕上
  6
Continuous
 62
     3
370
     9
100
AcDbCircle
 10
-100.7698677681587
 20
-315.9975907091133
 30
0.0
 40
5.999999497387861
100
AcDbArc
 50
89.9822540283203
 51
181.1296844482422
  0
ARC
  5
401
330
1F
100
AcDbEntity
  8
仕上
  6
Continuous
 62
     3
370
     9
100
AcDbCircle
 10
-79.59906500739015
 20
-314.7242158938684
 30
0.0
 40
5.000000064437454
100
AcDbArc
 50
4.000045776367182
 51
90.65296936035156
  0
ARC
  5
402
330
1F
100
AcDbEntity
  8
仕上
  6
Continuous
 62
     3
370
     9
100
AcDbCircle
 10
-60.3872433224239
 20
-314.5318066877873
 30
0.0
 40
5.000000064437454
100
AcDbArc
 50
89.50355529785156
 51
175.9999542236328
  0
ARC
  5
403
330
1F
100
AcDbEntity
  8
仕上
  6
Continuous
 62
     3
370
     9
100
AcDbCircle
 10
-72.56751807960296
 20
-329.2701885633152
 30
0.0
 40
1.000000012887491
100
AcDbArc
 50
184.000259399414
 51
270.0
  0
ARC
  5
404
330
1F
100
AcDbEntity
  8
仕上
  6
Continuous
 62
     3
370
     9
100
AcDbCircle
 10
-67.43259739231422
 20
-329.2701885633152
 30
0.0
 40
1.000000012887491
100
AcDbArc
 50
270.0
 51
355.9997406005859
  0
ARC
  5
405
330
1F
100
AcDbEntity
  8
仕上
  6
Continuous
 62
     3
370
     9
100
AcDbCircle
 10
-220.4865491712416
 20
-335.270208358501
 30
0.0
 40
5.000000064437454
100
AcDbArc
 50
90.0
 51
175.8791351318359
  0
ARC
  5
406
330
1F
100
AcDbEntity
  8
仕上
  6
Continuous
 62
     3
370
     9
100
AcDbCircle
 10
-174.7555129592483
 20
-317.4578815663768
 30
0.0
 40
5.999999497387861
100
AcDbArc
 50
1.129577636718753
 51
90.76962280273438
  0
ARC
  5
407
330
1F
100
AcDbEntity
  8
仕上
  6
Continuous
 62
     3
370
     9
100
AcDbCircle
 10
241.3035624736064
 20
-313.9890226928549
 30
0.0
 40
1.499999874346965
100
AcDbArc
 50
90.0
 51
171.999771118164
  0
ARC
  5
408
330
1F
100
AcDbEntity
  8
仕上
  6
Continuous
 62
     3
370
     9
100
AcDbCircle
 10
0.0
 20
-7298.269352216716
 30
0.0
 40
7000.000131967907
100
AcDbArc
 50
88.01062011718751
 51
88.60763549804689
  0
ARC
  5
409
330
1F
100
AcDbEntity
  8
仕上
  6
Continuous
 62
     3
370
     9
100
AcDbCircle
 10
0.0
 20
-7298.269352216716
 30
0.0
 40
6995.000461887668
100
AcDbArc
 50
88.18130493164062
 51
88.46778869628906
  0
ARC
  5
40A
330
1F
100
AcDbEntity
  8
仕上
  6
Continuous
 62
     3
370
     9
100
AcDbCircle
 10
219.221933725718
 20
-317.7120517521876
 30
0.0
 40
5.000000064437454
100
AcDbArc
 50
4.120849609374999
 51
88.20126342773438
  0
ARC
  5
40B
330
1F
100
AcDbEntity
  8
仕上
  6
Continuous
 62
     3
370
     9
100
AcDbCircle
 10
0.0
 20
-7298.269352216716
 30
0.0
 40
6989.000145164697
100
AcDbArc
 50
88.20123291015625
 51
88.56654357910156
  0
ARC
  5
40C
330
1F
100
AcDbEntity
  8
仕上
  6
Continuous
 62
     3
370
     9
100
AcDbCircle
 10
0.0
 20
-7298.269352216716
 30
0.0
 40
6989.000145164697
100
AcDbArc
 50
89.17387390136719
 51
89.34754943847655
  0
ARC
  5
40D
330
1F
100
AcDbEntity
  8
仕上
  6
Continuous
 62
     3
370
     9
100
AcDbCircle
 10
79.59936193517734
 20
-314.7242158938684
 30
0.0
 40
5.000000064437454
100
AcDbArc
 50
89.34703063964845
 51
175.9999542236328
  0
ARC
  5
40E
330
1F
100
AcDbEntity
  8
仕上
  6
Continuous
 62
     3
370
     9
100
AcDbCircle
 10
60.38724332242407
 20
-314.5318066877873
 30
0.0
 40
5.000000064437454
100
AcDbArc
 50
4.000045776367182
 51
90.49644470214844
  0
ARC
  5
40F
330
1F
100
AcDbEntity
  8
仕上
  6
Continuous
 62
     3
370
     9
100
AcDbCircle
 10
72.56751807960313
 20
-329.2701885633152
 30
0.0
 40
1.000000012887491
100
AcDbArc
 50
270.0
 51
355.9997406005859
  0
ARC
  5
410
330
1F
100
AcDbEntity
  8
仕上
  6
Continuous
 62
     3
370
     9
100
AcDbCircle
 10
67.43259739231422
 20
-329.2701885633152
 30
0.0
 40
1.000000012887491
100
AcDbArc
 50
184.000259399414
 51
270.0
  0
ARC
  5
411
330
1F
100
AcDbEntity
  8
仕上
  6
Continuous
 62
     3
370
     9
100
AcDbCircle
 10
220.4868460990288
 20
-335.270208358501
 30
0.0
 40
5.000000064437454
100
AcDbArc
 50
4.12086486816407
 51
90.00000000000001
  0
ARC
  5
412
330
1F
100
AcDbEntity
  8
建具
  6
Continuous
 62
     4
370
     9
100
AcDbCircle
 10
-166.0106926995355
 20
-304.2569917727747
 30
0.0
 40
2.99999974869393
100
AcDbArc
 50
91.12963867187507
 51
181.1296386718751
  0
ARC
  5
413
330
1F
100
AcDbEntity
  8
建具
  6
Continuous
 62
     4
370
     9
100
AcDbCircle
 10
-110.0215437605573
 20
-303.1529400281589
 30
0.0
 40
2.99999974869393
100
AcDbArc
 50
1.129638671875001
 51
91.129638671875
  0
ARC
  5
414
330
1F
100
AcDbEntity
  8
仕上
  6
Continuous
 62
     3
370
     9
100
AcDbCircle
 10
137.615488413218
 20
-324.2061593852113
 30
0.0
 40
24.99999742250185
100
AcDbArc
 50
178.870361328125
 51
257.3333282470703
  0
ARC
  5
415
330
1F
100
AcDbEntity
  8
仕上
  6
Continuous
 62
     3
370
     9
100
AcDbCircle
 10
137.615488413218
 20
-324.2061593852113
 30
0.0
 40
24.99999742250185
100
AcDbArc
 50
280.4073791503906
 51
358.8704071044922
  0
ARC
  5
416
330
1F
100
AcDbEntity
  8
仕上
  6
Continuous
 62
     3
370
     9
100
AcDbCircle
 10
137.615488413218
 20
-324.2061593852113
 30
0.0
 40
31.0000009794493
100
AcDbArc
 50
279.2275238037109
 51
358.8704376220703
  0
ARC
  5
417
330
1F
100
AcDbEntity
  8
仕上
  6
Continuous
 62
     3
370
     9
100
AcDbCircle
 10
137.615488413218
 20
-324.2061593852113
 30
0.0
 40
31.0000009794493
100
AcDbArc
 50
178.870361328125
 51
258.5132293701172
  0
ARC
  5
418
330
1F
100
AcDbEntity
  8
仕上
  6
Continuous
 62
     3
370
     9
100
AcDbCircle
 10
100.7703131598395
 20
-315.9975907091133
 30
0.0
 40
5.999999497387861
100
AcDbArc
 50
358.8703155517578
 51
90.0177459716797
  0
ARC
  5
419
330
1F
100
AcDbEntity
  8
仕上
  6
Continuous
 62
     3
370
     9
100
AcDbCircle
 10
174.7558098870355
 20
-317.4578815663768
 30
0.0
 40
5.999999497387861
100
AcDbArc
 50
89.23037719726564
 51
178.8704223632813
  0
ARC
  5
41A
330
1F
100
AcDbEntity
  8
建具
  6
Continuous
 62
     4
370
     9
100
AcDbCircle
 10
166.0112865551098
 20
-304.2569917727747
 30
0.0
 40
2.99999974869393
100
AcDbArc
 50
358.870361328125
 51
88.870361328125
  0
ARC
  5
41B
330
1F
100
AcDbEntity
  8
建具
  6
Continuous
 62
     4
370
     9
100
AcDbCircle
 10
110.0216922244511
 20
-303.1529400281589
 30
0.0
 40
2.99999974869393
100
AcDbArc
 50
88.870361328125
 51
178.870361328125
  0
ARC
  5
41C
330
1F
100
AcDbEntity
  8
仕上
  6
Continuous
 62
     3
370
     9
100
AcDbCircle
 10
-78.49538442250844
 20
194.7893174148309
 30
0.0
 40
5.000000064437454
100
AcDbArc
 50
0.0
 51
90.0
  0
ARC
  5
41D
330
1F
100
AcDbEntity
  8
仕上
  6
Continuous
 62
     3
370
     9
100
AcDbCircle
 10
-61.49537782411312
 20
194.7893174148309
 30
0.0
 40
5.000000064437454
100
AcDbArc
 50
90.0
 51
180.0
  0
ARC
  5
41E
330
1F
100
AcDbEntity
  8
仕上
  6
Continuous
 62
     3
370
     9
100
AcDbCircle
 10
-61.49537782411312
 20
211.7894724771198
 30
0.0
 40
5.000000064437454
100
AcDbArc
 50
180.0
 51
270.0
  0
ARC
  5
41F
330
1F
100
AcDbEntity
  8
仕上
  6
Continuous
 62
     3
370
     9
100
AcDbCircle
 10
-78.49538442250844
 20
211.7894724771198
 30
0.0
 40
5.000000064437454
100
AcDbArc
 50
270.0
 51
0.0
  0
ARC
  5
420
330
1F
100
AcDbEntity
  8
仕上
  6
Continuous
 62
     3
370
     9
100
AcDbCircle
 10
-210.5604017103041
 20
213.2355850325464
 30
0.0
 40
5.000000064437454
100
AcDbArc
 50
195.9187164306641
 51
270.0
  0
ARC
  5
421
330
1F
100
AcDbEntity
  8
仕上
  6
Continuous
 62
     3
370
     9
100
AcDbCircle
 10
-203.8418166701858
 20
193.3481041678926
 30
0.0
 40
5.000000064437454
100
AcDbArc
 50
90.0
 51
201.4138336181641
  0
ARC
  5
422
330
1F
100
AcDbEntity
  8
仕上
  6
Continuous
 62
     3
370
     9
100
AcDbCircle
 10
-79.94617359058282
 20
213.2355850325464
 30
0.0
 40
5.000000064437454
100
AcDbArc
 50
270.0
 51
0.0
  0
ARC
  5
423
330
1F
100
AcDbEntity
  8
仕上
  6
Continuous
 62
     3
370
     9
100
AcDbCircle
 10
-79.94617359058282
 20
193.3481041678926
 30
0.0
 40
5.000000064437454
100
AcDbArc
 50
0.0
 51
90.0
  0
ARC
  5
424
330
1F
100
AcDbEntity
  8
仕上
  6
Continuous
 62
     3
370
     9
100
AcDbCircle
 10
-60.05869272592906
 20
193.3481041678926
 30
0.0
 40
5.000000064437454
100
AcDbArc
 50
90.0
 51
180.0
  0
ARC
  5
425
330
1F
100
AcDbEntity
  8
仕上
  6
Continuous
 62
     3
370
     9
100
AcDbCircle
 10
-60.05869272592906
 20
213.2355850325464
 30
0.0
 40
5.000000064437454
100
AcDbArc
 50
180.0
 51
270.0
  0
ARC
  5
426
330
1F
100
AcDbEntity
  8
仕上
  6
Continuous
 62
     3
370
     9
100
AcDbCircle
 10
78.49538442250844
 20
194.7893174148309
 30
0.0
 40
5.000000064437454
100
AcDbArc
 50
90.0
 51
180.0
  0
ARC
  5
427
330
1F
100
AcDbEntity
  8
仕上
  6
Continuous
 62
     3
370
     9
100
AcDbCircle
 10
61.49537782411329
 20
194.7893174148309
 30
0.0
 40
5.000000064437454
100
AcDbArc
 50
0.0
 51
90.0
  0
ARC
  5
428
330
1F
100
AcDbEntity
  8
仕上
  6
Continuous
 62
     3
370
     9
100
AcDbCircle
 10
61.49537782411329
 20
211.7894724771198
 30
0.0
 40
5.000000064437454
100
AcDbArc
 50
270.0
 51
0.0
  0
ARC
  5
429
330
1F
100
AcDbEntity
  8
仕上
  6
Continuous
 62
     3
370
     9
100
AcDbCircle
 10
78.49538442250844
 20
211.7894724771198
 30
0.0
 40
5.000000064437454
100
AcDbArc
 50
180.0
 51
270.0
  0
ARC
  5
42A
330
1F
100
AcDbEntity
  8
仕上
  6
Continuous
 62
     3
370
     9
100
AcDbCircle
 10
79.94647051837
 20
213.2355850325464
 30
0.0
 40
5.000000064437454
100
AcDbArc
 50
180.0
 51
270.0
  0
ARC
  5
42B
330
1F
100
AcDbEntity
  8
仕上
  6
Continuous
 62
     3
370
     9
100
AcDbCircle
 10
79.94647051837
 20
193.3481041678926
 30
0.0
 40
5.000000064437454
100
AcDbArc
 50
90.0
 51
180.0
  0
ARC
  5
42C
330
1F
100
AcDbEntity
  8
仕上
  6
Continuous
 62
     3
370
     9
100
AcDbCircle
 10
60.05884118982266
 20
193.3481041678926
 30
0.0
 40
5.000000064437454
100
AcDbArc
 50
0.0
 51
90.0
  0
ARC
  5
42D
330
1F
100
AcDbEntity
  8
仕上
  6
Continuous
 62
     3
370
     9
100
AcDbCircle
 10
60.05884118982266
 20
213.2355850325464
 30
0.0
 40
5.000000064437454
100
AcDbArc
 50
270.0
 51
0.0
  0
ARC
  5
42E
330
1F
100
AcDbEntity
  8
仕上
  6
Continuous
 62
     3
370
     9
100
AcDbCircle
 10
0.0
 20
273.2893784499872
 30
0.0
 40
223.9569297996727
100
AcDbArc
 50
344.0813598632812
 51
0.0000000000000064
  0
ARC
  5
42F
330
1F
100
AcDbEntity
  8
仕上
  6
Continuous
 62
     3
370
     9
100
AcDbCircle
 10
210.5605501741977
 20
213.2355850325464
 30
0.0
 40
5.000000064437454
100
AcDbArc
 50
270.0
 51
344.0812835693359
  0
ARC
  5
430
330
1F
100
AcDbEntity
  8
仕上
  6
Continuous
 62
     3
370
     9
100
AcDbCircle
 10
203.8422620618666
 20
193.3481041678926
 30
0.0
 40
5.000000064437454
100
AcDbArc
 50
338.5862731933594
 51
90.0
  0
ARC
  5
431
330
1F
100
AcDbEntity
  8
仕上
  6
Continuous
 62
     3
370
     9
100
AcDbCircle
 10
212.2910453177788
 20
211.7894724771198
 30
0.0
 40
5.000000064437454
100
AcDbArc
 50
270.0
 51
306.2075347900391
  0
ARC
  5
432
330
1F
100
AcDbEntity
  8
仕上
  6
Continuous
 62
     3
370
     9
100
AcDbCircle
 10
206.609629038218
 20
194.7893174148309
 30
0.0
 40
5.000000064437454
100
AcDbArc
 50
16.83453369140625
 51
90.0
  0
ARC
  5
433
330
1F
100
AcDbEntity
  8
仕上
  6
Continuous
 62
     3
370
     9
100
AcDbCircle
 10
79.94647051837
 20
69.44941757847124
 30
0.0
 40
5.000000064437454
100
AcDbArc
 50
180.0
 51
291.4149017333984
  0
ARC
  5
434
330
1F
100
AcDbEntity
  8
仕上
  6
Continuous
 62
     3
370
     9
100
AcDbCircle
 10
0.0
 20
273.2893784499872
 30
0.0
 40
223.9569297996727
100
AcDbArc
 50
291.4151611328125
 51
338.5862579345703
  0
ARC
  5
435
330
1F
100
AcDbEntity
  8
仕上
  6
Continuous
 62
     3
370
     9
100
AcDbCircle
 10
60.05884118982266
 20
62.73046137861905
 30
0.0
 40
5.000000064437454
100
AcDbArc
 50
285.9198150634766
 51
0.0000000000000127
  0
ARC
  5
436
330
1F
100
AcDbEntity
  8
仕上
  6
Continuous
 62
     3
370
     9
100
AcDbCircle
 10
61.49537782411329
 20
60.99714542105983
 30
0.0
 40
5.000000064437454
100
AcDbArc
 50
323.7908782958984
 51
0.0000000000000064
  0
ARC
  5
437
330
1F
100
AcDbEntity
  8
仕上
  6
Continuous
 62
     3
370
     9
100
AcDbCircle
 10
78.49538442250844
 20
66.6781905408867
 30
0.0
 40
5.000000064437454
100
AcDbArc
 50
180.0
 51
253.1634979248047
  0
ARC
  5
438
330
1F
100
AcDbEntity
  8
仕上
  6
Continuous
 62
     3
370
     9
100
AcDbCircle
 10
-61.49537782411312
 20
60.99714542105983
 30
0.0
 40
5.000000064437454
100
AcDbArc
 50
180.0
 51
216.2091217041016
  0
ARC
  5
439
330
1F
100
AcDbEntity
  8
仕上
  6
Continuous
 62
     3
370
     9
100
AcDbCircle
 10
-78.49538442250844
 20
66.6781905408867
 30
0.0
 40
5.000000064437454
100
AcDbArc
 50
286.8365020751953
 51
0.0000000000000127
  0
ARC
  5
43A
330
1F
100
AcDbEntity
  8
仕上
  6
Continuous
 62
     3
370
     9
100
AcDbCircle
 10
-79.94617359058282
 20
69.44941757847124
 30
0.0
 40
5.000000064437454
100
AcDbArc
 50
248.5848999023438
 51
0.0000000000000382
  0
ARC
  5
43B
330
1F
100
AcDbEntity
  8
仕上
  6
Continuous
 62
     3
370
     9
100
AcDbCircle
 10
-60.05869272592906
 20
62.73046137861905
 30
0.0
 40
5.000000064437454
100
AcDbArc
 50
180.0
 51
254.0801849365234
  0
ARC
  5
43C
330
1F
100
AcDbEntity
  8
仕上
  6
Continuous
 62
     3
370
     9
100
AcDbCircle
 10
0.0
 20
273.2893784499872
 30
0.0
 40
223.9569297996727
100
AcDbArc
 50
254.0799865722656
 51
285.9200134277344
  0
ARC
  5
43D
330
1F
100
AcDbEntity
  8
仕上
  6
Continuous
 62
     3
370
     9
100
AcDbCircle
 10
0.0
 20
273.2893784499872
 30
0.0
 40
223.9569297996727
100
AcDbArc
 50
180.0
 51
195.9186248779297
  0
ARC
  5
43E
330
1F
100
AcDbEntity
  8
仕上
  6
Continuous
 62
     3
370
     9
100
AcDbCircle
 10
0.0
 20
273.2893784499872
 30
0.0
 40
223.9569297996727
100
AcDbArc
 50
201.4137573242188
 51
248.5848388671876
  0
ARC
  5
43F
330
1F
100
AcDbEntity
  8
仕上
  6
Continuous
 62
     3
370
     9
100
AcDbCircle
 10
-206.6093321104307
 20
194.7893174148309
 30
0.0
 40
5.000000064437454
100
AcDbArc
 50
90.0
 51
163.1638336181641
  0
ARC
  5
440
330
1F
100
AcDbEntity
  8
仕上
  6
Continuous
 62
     3
370
     9
100
AcDbCircle
 10
-212.2907483899916
 20
211.7894724771198
 30
0.0
 40
5.000000064437454
100
AcDbArc
 50
233.7894134521485
 51
270.0000000000001
  0
ARC
  5
441
330
1F
100
AcDbEntity
  8
仕上
  6
JWW_DASHED1
 62
     3
370
     9
100
AcDbCircle
 10
138.000009897593
 20
273.2893784499872
 30
0.0
 40
9.49999983246262
100
AcDbArc
 50
31.75671386718751
 51
148.2432861328125
  0
ARC
  5
442
330
1F
100
AcDbEntity
  8
仕上
  6
Continuous
 62
     3
370
     9
100
AcDbCircle
 10
138.000009897593
 20
273.2893784499872
 30
0.0
 40
31.0000009794493
100
AcDbArc
 50
180.0
 51
0.0
  0
ARC
  5
443
330
1F
100
AcDbEntity
  8
仕上
  6
JWW_DASHED1
 62
     3
370
     9
100
AcDbCircle
 10
117.9999934016049
 20
273.2893784499872
 30
0.0
 40
5.000000064437454
100
AcDbArc
 50
90.0
 51
180.0
  0
ARC
  5
444
330
1F
100
AcDbEntity
  8
仕上
  6
JWW_DASHED1
 62
     3
370
     9
100
AcDbCircle
 10
157.9998779296875
 20
273.2893784499872
 30
0.0
 40
5.000000064437454
100
AcDbArc
 50
0.0
 51
90.0
  0
ARC
  5
445
330
1F
100
AcDbEntity
  8
仕上
  6
Continuous
 62
     3
370
     9
100
AcDbCircle
 10
138.000009897593
 20
273.2893784499872
 30
0.0
 40
23.49999711320207
100
AcDbArc
 50
80.19976806640626
 51
99.80023193359376
  0
ARC
  5
446
330
1F
100
AcDbEntity
  8
仕上
  6
Continuous
 62
     3
370
     9
100
AcDbCircle
 10
138.000009897593
 20
273.2893784499872
 30
0.0
 40
23.49999711320207
100
AcDbArc
 50
112.5182647705078
 51
126.0491027832032
  0
ARC
  5
447
330
1F
100
AcDbEntity
  8
仕上
  6
Continuous
 62
     3
370
     9
100
AcDbCircle
 10
138.000009897593
 20
273.2893784499872
 30
0.0
 40
23.49999711320207
100
AcDbArc
 50
53.95089721679688
 51
67.48141479492188
  0
ARC
  5
448
330
1F
100
AcDbEntity
  8
仕上
  6
Continuous
 62
     3
370
     9
100
AcDbCircle
 10
138.000009897593
 20
273.2893784499872
 30
0.0
 40
16.49999876280089
100
AcDbArc
 50
46.65843200683594
 51
133.3415679931641
  0
ARC
  5
449
330
1F
100
AcDbEntity
  8
建具
  6
Continuous
 62
     4
370
     9
100
AcDbCircle
 10
138.000009897593
 20
273.2893784499872
 30
0.0
 40
15.49999701010214
100
AcDbArc
 50
45.20895385742189
 51
134.7910461425781
  0
ARC
  5
44A
330
1F
100
AcDbEntity
  8
建具
  6
Continuous
 62
     4
370
     9
100
AcDbCircle
 10
109.0001121727197
 20
282.2895566066595
 30
0.0
 40
2.000000025774982
100
AcDbArc
 50
90.0
 51
180.0
  0
ARC
  5
44B
330
1F
100
AcDbEntity
  8
建具
  6
Continuous
 62
     4
370
     9
100
AcDbCircle
 10
166.9967898807011
 20
282.2895566066595
 30
0.0
 40
2.000000025774982
100
AcDbArc
 50
0.0
 51
90.0
  0
ARC
  5
44C
330
1F
100
AcDbEntity
  8
仕上
  6
JWW_DASHED1
 62
     3
370
     9
100
AcDbCircle
 10
-137.9998614336992
 20
273.2893784499872
 30
0.0
 40
9.49999983246262
100
AcDbArc
 50
31.75671386718751
 51
148.2432861328125
  0
ARC
  5
44D
330
1F
100
AcDbEntity
  8
仕上
  6
Continuous
 62
     3
370
     9
100
AcDbCircle
 10
-137.9998614336992
 20
273.2893784499872
 30
0.0
 40
31.0000009794493
100
AcDbArc
 50
180.0
 51
0.0
  0
ARC
  5
44E
330
1F
100
AcDbEntity
  8
仕上
  6
JWW_DASHED1
 62
     3
370
     9
100
AcDbCircle
 10
-117.9998449377111
 20
273.2893784499872
 30
0.0
 40
5.000000064437454
100
AcDbArc
 50
0.0
 51
90.0
  0
ARC
  5
44F
330
1F
100
AcDbEntity
  8
仕上
  6
JWW_DASHED1
 62
     3
370
     9
100
AcDbCircle
 10
-157.9997294657939
 20
273.2893784499872
 30
0.0
 40
5.000000064437454
100
AcDbArc
 50
90.0
 51
180.0
  0
ARC
  5
450
330
1F
100
AcDbEntity
  8
仕上
  6
Continuous
 62
     3
370
     9
100
AcDbCircle
 10
-137.9998614336992
 20
273.2893784499872
 30
0.0
 40
23.49999711320207
100
AcDbArc
 50
80.19976806640626
 51
99.80023193359376
  0
ARC
  5
451
330
1F
100
AcDbEntity
  8
仕上
  6
Continuous
 62
     3
370
     9
100
AcDbCircle
 10
-137.9998614336992
 20
273.2893784499872
 30
0.0
 40
23.49999711320207
100
AcDbArc
 50
53.95089721679688
 51
67.48173522949219
  0
ARC
  5
452
330
1F
100
AcDbEntity
  8
仕上
  6
Continuous
 62
     3
370
     9
100
AcDbCircle
 10
-137.9998614336992
 20
273.2893784499872
 30
0.0
 40
23.49999711320207
100
AcDbArc
 50
112.5185852050782
 51
126.0491027832032
  0
ARC
  5
453
330
1F
100
AcDbEntity
  8
仕上
  6
Continuous
 62
     3
370
     9
100
AcDbCircle
 10
-137.9998614336992
 20
273.2893784499872
 30
0.0
 40
16.49999876280089
100
AcDbArc
 50
46.65843200683594
 51
133.3415679931641
  0
ARC
  5
454
330
1F
100
AcDbEntity
  8
建具
  6
Continuous
 62
     4
370
     9
100
AcDbCircle
 10
-137.9998614336992
 20
273.2893784499872
 30
0.0
 40
15.49999701010214
100
AcDbArc
 50
45.20895385742189
 51
134.7910461425781
  0
ARC
  5
455
330
1F
100
AcDbEntity
  8
建具
  6
Continuous
 62
     4
370
     9
100
AcDbCircle
 10
-108.9999637088259
 20
282.2895566066595
 30
0.0
 40
2.000000025774982
100
AcDbArc
 50
0.0
 51
90.0
  0
ARC
  5
456
330
1F
100
AcDbEntity
  8
建具
  6
Continuous
 62
     4
370
     9
100
AcDbCircle
 10
-166.9964929529138
 20
282.2895566066595
 30
0.0
 40
2.000000025774982
100
AcDbArc
 50
90.0
 51
180.0
  0
ARC
  5
457
330
1F
100
AcDbEntity
  8
躯体
  6
Continuous
 62
     2
370
     9
100
AcDbCircle
 10
-254.3875369510135
 20
-325.4791630407223
 30
0.0
 40
2.000000025774982
100
AcDbArc
 50
309.1353149414062
 51
355.5157318115234
  0
ARC
  5
458
330
1F
100
AcDbEntity
  8
躯体
  6
Continuous
 62
     2
370
     9
100
AcDbCircle
 10
254.3876854149072
 20
-325.4791630407223
 30
0.0
 40
2.000000025774982
100
AcDbArc
 50
184.4842681884766
 51
230.8646850585938
  0
ARC
  5
459
330
1F
100
AcDbEntity
  8
建具
  6
Continuous
 62
     4
370
     9
100
AcDbCircle
 10
8.499706371410468
 20
-330.6053985902366
 30
0.0
 40
5.000000064437454
100
AcDbArc
 50
130.8322296142578
 51
180.0
  0
ARC
  5
45A
330
1F
100
AcDbEntity
  8
建具
  6
Continuous
 62
     4
370
     9
100
AcDbCircle
 10
-8.500300226984677
 20
-330.6053985902366
 30
0.0
 40
5.000000064437454
100
AcDbArc
 50
0.0
 51
49.16777038574219
  0
ARC
  5
45B
330
1F
100
AcDbEntity
  8
建具
  6
Continuous
 62
     4
370
     9
100
AcDbCircle
 10
-0.0002969277871898
 20
-320.7690717849156
 30
0.0
 40
8.000000103099927
100
AcDbArc
 50
310.8321380615234
 51
229.1678619384766
  0
ARC
  5
45C
330
1F
100
AcDbEntity
  8
建具
  6
Continuous
 62
     4
370
     9
100
AcDbCircle
 10
-0.0002969277871898
 20
-324.5191212728802
 30
0.0
 40
1.249991752005912
100
AcDbArc
 50
216.8681945800782
 51
323.1318054199219
  0
ARC
  5
45D
330
1F
100
AcDbEntity
  8
建具
  6
Continuous
 62
     4
370
     9
100
AcDbCircle
 10
-0.0002969277871898
 20
-317.0191707608447
 30
0.0
 40
1.249991752005912
100
AcDbArc
 50
36.86819458007812
 51
143.1318054199219
  0
ARC
  5
45E
330
1F
100
AcDbEntity
  8
建具
  6
Continuous
 62
     4
370
     9
100
AcDbCircle
 10
-0.0002969277871898
 20
-320.7690717849156
 30
0.0
 40
4.500000057993709
100
AcDbArc
 50
102.8397979736328
 51
257.1602020263672
  0
ARC
  5
45F
330
1F
100
AcDbEntity
  8
建具
  6
Continuous
 62
     4
370
     9
100
AcDbCircle
 10
-0.0002969277871898
 20
-320.7690717849156
 30
0.0
 40
4.500000057993709
100
AcDbArc
 50
282.8397979736328
 51
77.1602020263672
  0
ARC
  5
460
330
1F
100
AcDbEntity
  8
建具
  6
Continuous
 62
     4
370
     9
100
AcDbCircle
 10
-0.0002969277871898
 20
-320.7690717849156
 30
0.0
 40
3.499999465169133
100
AcDbArc
 50
106.6018218994141
 51
253.398178100586
  0
ARC
  5
461
330
1F
100
AcDbEntity
  8
建具
  6
Continuous
 62
     4
370
     9
100
AcDbCircle
 10
-203.5003497149493
 20
-523.7284190716555
 30
0.0
 40
2.99999974869393
100
AcDbArc
 50
180.0
 51
270.0
  0
ARC
  5
462
330
1F
100
AcDbEntity
  8
建具
  6
JWW_CENTER1
 62
     4
370
     9
100
AcDbCircle
 10
-203.5003497149493
 20
-523.7284190716555
 30
0.0
 40
6.499999213863064
100
AcDbArc
 50
180.0
 51
270.0
  0
ARC
  5
463
330
1F
100
AcDbEntity
  8
建具
  6
Continuous
 62
     4
370
     9
100
AcDbCircle
 10
-203.5003497149493
 20
-523.7284190716555
 30
0.0
 40
10.00000012887491
100
AcDbArc
 50
180.0
 51
270.0
  0
ARC
  5
464
330
1F
100
AcDbEntity
  8
建具
  6
Continuous
 62
     4
370
     9
100
AcDbCircle
 10
-90.7086181640625
 20
-536.7285114491893
 30
0.0
 40
2.99999974869393
100
AcDbArc
 50
22.48037719726562
 51
90.0
  0
ARC
  5
465
330
1F
100
AcDbEntity
  8
建具
  6
Continuous
 62
     4
370
     9
100
AcDbCircle
 10
-90.7086181640625
 20
-536.7283629852958
 30
0.0
 40
10.00000012887491
100
AcDbArc
 50
22.47953796386717
 51
89.99999999999999
  0
ARC
  5
466
330
1F
100
AcDbEntity
  8
建具
  6
Continuous
 62
     4
370
     9
100
AcDbCircle
 10
-75.00039590371625
 20
-530.2284652604225
 30
0.0
 40
6.999998930338267
100
AcDbArc
 50
202.4791870117188
 51
163.9838256835939
  0
ARC
  5
467
330
1F
100
AcDbEntity
  8
建具
  6
Continuous
 62
     4
370
     9
100
AcDbCircle
 10
-75.00039590371625
 20
-530.2284652604225
 30
0.0
 40
13.99999786067653
100
AcDbArc
 50
202.4794616699219
 51
155.0050354003906
  0
ARC
  5
468
330
1F
100
AcDbEntity
  8
建具
  6
Continuous
 62
     4
370
     9
100
AcDbCircle
 10
-215.6237628008868
 20
-514.0284563525888
 30
0.0
 40
2.80017343727318
100
AcDbArc
 50
47.92556762695313
 51
132.0746307373047
  0
ARC
  5
469
330
1F
100
AcDbEntity
  8
建具
  6
Continuous
 62
     4
370
     9
100
AcDbCircle
 10
-210.0002474398226
 20
-521.3177365996328
 30
0.0
 40
10.08941018903578
100
AcDbArc
 50
68.19786071777344
 51
111.8021392822266
  0
ARC
  5
46A
330
1F
100
AcDbEntity
  8
建具
  6
Continuous
 62
     4
370
     9
100
AcDbCircle
 10
-204.3765836148648
 20
-514.0284563525888
 30
0.0
 40
2.800189675511541
100
AcDbArc
 50
47.92572021484374
 51
132.0742797851562
  0
ARC
  5
46B
330
1F
100
AcDbEntity
  8
建具
  6
JWW_CENTER1
 62
     4
370
     9
100
AcDbCircle
 10
-10.00023094383437
 20
-520.228234316588
 30
0.0
 40
10.00000012887491
100
AcDbArc
 50
270.0
 51
0.0
  0
ARC
  5
46C
330
1F
100
AcDbEntity
  8
建具
  6
Continuous
 62
     4
370
     9
100
AcDbCircle
 10
-0.0002969277871898
 20
-320.7690717849156
 30
0.0
 40
3.499999465169133
100
AcDbArc
 50
286.6018218994141
 51
73.39817810058597
  0
ARC
  5
46D
330
1F
100
AcDbEntity
  8
建具
  6
Continuous
 62
     4
370
     9
100
AcDbCircle
 10
-0.0002969277871898
 20
-353.2692284968033
 30
0.0
 40
3.499998885232049
100
AcDbArc
 50
180.0
 51
0.0
  0
ARC
  5
46E
330
1F
100
AcDbEntity
  8
建具
  6
Continuous
 62
     4
370
     9
100
AcDbCircle
 10
-0.0002969277871898
 20
-353.7693291223312
 30
0.0
 40
8.999953721020674
100
AcDbArc
 50
0.0
 51
67.11415100097656
  0
ARC
  5
46F
330
1F
100
AcDbEntity
  8
建具
  6
Continuous
 62
     4
370
     9
100
AcDbCircle
 10
-0.0002969277871898
 20
-353.7693291223312
 30
0.0
 40
8.999953721020674
100
AcDbArc
 50
112.8858489990234
 51
180.0
  0
ARC
  5
470
330
1F
100
AcDbEntity
  8
建具
  6
Continuous
 62
     4
370
     9
100
AcDbCircle
 10
-0.0002969277871898
 20
-353.7693291223312
 30
0.0
 40
3.999988162839735
100
AcDbArc
 50
0.0
 51
28.95379638671875
  0
ARC
  5
471
330
1F
100
AcDbEntity
  8
建具
  6
Continuous
 62
     4
370
     9
100
AcDbCircle
 10
-0.0002969277871898
 20
-353.7693291223312
 30
0.0
 40
3.999988162839735
100
AcDbArc
 50
151.0462036132813
 51
180.0
  0
ARC
  5
472
330
1F
100
AcDbEntity
  8
建具
  6
Continuous
 62
     4
370
     9
100
AcDbCircle
 10
-0.0002969277871898
 20
-377.7692598391809
 30
0.0
 40
3.999988162839735
100
AcDbArc
 50
180.0
 51
231.3179168701172
  0
ARC
  5
473
330
1F
100
AcDbEntity
  8
建具
  6
Continuous
 62
     4
370
     9
100
AcDbCircle
 10
-0.0002969277871898
 20
-377.7692598391809
 30
0.0
 40
3.999988162839735
100
AcDbArc
 50
308.6820831298828
 51
0.0000000000000064
  0
ARC
  5
474
330
1F
100
AcDbEntity
  8
建具
  6
Continuous
 62
     4
370
     9
100
AcDbCircle
 10
-0.0002969277871898
 20
-377.7692598391809
 30
0.0
 40
8.999953721020674
100
AcDbArc
 50
180.0
 51
253.8723754882812
  0
ARC
  5
475
330
1F
100
AcDbEntity
  8
建具
  6
Continuous
 62
     4
370
     9
100
AcDbCircle
 10
-0.0002969277871898
 20
-377.7692598391809
 30
0.0
 40
8.999953721020674
100
AcDbArc
 50
286.1276245117188
 51
0.0
  0
ARC
  5
476
330
1F
100
AcDbEntity
  8
建具
  6
Continuous
 62
     4
370
     9
100
AcDbCircle
 10
-0.0002969277871898
 20
-379.2691905560306
 30
0.0
 40
2.500000032218727
100
AcDbArc
 50
0.0
 51
180.0
  0
ARC
  5
477
330
1F
100
AcDbEntity
  8
建具
  6
Continuous
 62
     4
370
     9
100
AcDbCircle
 10
-0.0002969277871898
 20
-417.7691443672636
 30
0.0
 40
8.999953721020674
100
AcDbArc
 50
0.0
 51
73.87237548828125
  0
ARC
  5
478
330
1F
100
AcDbEntity
  8
建具
  6
Continuous
 62
     4
370
     9
100
AcDbCircle
 10
-0.0002969277871898
 20
-417.7691443672636
 30
0.0
 40
8.999953721020674
100
AcDbArc
 50
106.1276245117188
 51
180.0
  0
ARC
  5
479
330
1F
100
AcDbEntity
  8
建具
  6
Continuous
 62
     4
370
     9
100
AcDbCircle
 10
-0.0002969277871898
 20
-417.7691443672636
 30
0.0
 40
3.999988162839735
100
AcDbArc
 50
0.0
 51
51.31791687011719
  0
ARC
  5
47A
330
1F
100
AcDbEntity
  8
建具
  6
Continuous
 62
     4
370
     9
100
AcDbCircle
 10
-0.0002969277871898
 20
-417.7691443672636
 30
0.0
 40
3.999988162839735
100
AcDbArc
 50
128.6820831298828
 51
180.0
  0
ARC
  5
47B
330
1F
100
AcDbEntity
  8
建具
  6
Continuous
 62
     4
370
     9
100
AcDbCircle
 10
-0.0002969277871898
 20
-416.2692878823608
 30
0.0
 40
2.500000032218727
100
AcDbArc
 50
180.0
 51
0.0
  0
ARC
  5
47C
330
1F
100
AcDbEntity
  8
建具
  6
Continuous
 62
     4
370
     9
100
AcDbCircle
 10
-0.0002969277871898
 20
-441.7692235480069
 30
0.0
 40
3.999988162839735
100
AcDbArc
 50
180.0
 51
231.3179168701172
  0
ARC
  5
47D
330
1F
100
AcDbEntity
  8
建具
  6
Continuous
 62
     4
370
     9
100
AcDbCircle
 10
-0.0002969277871898
 20
-441.7692235480069
 30
0.0
 40
3.999988162839735
100
AcDbArc
 50
308.6820831298828
 51
0.0000000000000064
  0
ARC
  5
47E
330
1F
100
AcDbEntity
  8
建具
  6
Continuous
 62
     4
370
     9
100
AcDbCircle
 10
-0.0002969277871898
 20
-441.7692235480069
 30
0.0
 40
8.999953721020674
100
AcDbArc
 50
180.0
 51
253.8723754882812
  0
ARC
  5
47F
330
1F
100
AcDbEntity
  8
建具
  6
Continuous
 62
     4
370
     9
100
AcDbCircle
 10
-0.0002969277871898
 20
-441.7692235480069
 30
0.0
 40
8.999953721020674
100
AcDbArc
 50
286.1276245117188
 51
0.0
  0
ARC
  5
480
330
1F
100
AcDbEntity
  8
建具
  6
Continuous
 62
     4
370
     9
100
AcDbCircle
 10
-0.0002969277871898
 20
-443.2691542648566
 30
0.0
 40
2.500000032218727
100
AcDbArc
 50
0.0
 51
180.0
  0
ARC
  5
481
330
1F
100
AcDbEntity
  8
仕上
  6
Continuous
 62
     3
370
     9
100
AcDbCircle
 10
-0.0002969277871898
 20
-319.269141068066
 30
0.0
 40
16.49999992267506
100
AcDbArc
 50
189.9415588378906
 51
257.7531890869141
  0
ARC
  5
482
330
1F
100
AcDbEntity
  8
仕上
  6
Continuous
 62
     3
370
     9
100
AcDbCircle
 10
-0.0002969277871898
 20
-319.269141068066
 30
0.0
 40
16.49999992267506
100
AcDbArc
 50
282.2468109130859
 51
350.0584411621094
  0
ARC
  5
483
330
1F
100
AcDbEntity
  8
仕上
  6
Continuous
 62
     3
370
     9
100
AcDbCircle
 10
0.0
 20
273.2893784499872
 30
0.0
 40
224.9999814420133
100
AcDbArc
 50
0.0
 51
2.292495727539062
  0
ARC
  5
484
330
1F
100
AcDbEntity
  8
仕上
  6
Continuous
 62
     3
370
     9
100
AcDbCircle
 10
0.0
 20
273.2893784499872
 30
0.0
 40
224.9999814420133
100
AcDbArc
 50
10.49926757812499
 51
15.20202636718749
  0
ARC
  5
485
330
1F
100
AcDbEntity
  8
仕上
  6
Continuous
 62
     3
370
     9
100
AcDbCircle
 10
0.0
 20
273.2893784499872
 30
0.0
 40
224.9999814420133
100
AcDbArc
 50
17.0576629638672
 51
21.92144775390626
  0
ARC
  5
486
330
1F
100
AcDbEntity
  8
仕上
  6
Continuous
 62
     3
370
     9
100
AcDbCircle
 10
0.0
 20
273.2893784499872
 30
0.0
 40
224.9999814420133
100
AcDbArc
 50
24.95140075683595
 51
28.97607421875002
  0
ARC
  5
487
330
1F
100
AcDbEntity
  8
仕上
  6
Continuous
 62
     3
370
     9
100
AcDbCircle
 10
0.0
 20
273.2893784499872
 30
0.0
 40
224.9999814420133
100
AcDbArc
 50
33.32623291015626
 51
36.55227661132812
  0
ARC
  5
488
330
1F
100
AcDbEntity
  8
仕上
  6
Continuous
 62
     3
370
     9
100
AcDbCircle
 10
0.0
 20
273.2893784499872
 30
0.0
 40
224.9999814420133
100
AcDbArc
 50
38.80470275878908
 51
43.20668029785157
  0
ARC
  5
489
330
1F
100
AcDbEntity
  8
仕上
  6
Continuous
 62
     3
370
     9
100
AcDbCircle
 10
0.0
 20
273.2893784499872
 30
0.0
 40
224.9999814420133
100
AcDbArc
 50
47.54249572753907
 51
49.20661926269532
  0
ARC
  5
48A
330
1F
100
AcDbEntity
  8
仕上
  6
Continuous
 62
     3
370
     9
100
AcDbCircle
 10
0.0
 20
273.2893784499872
 30
0.0
 40
224.9999814420133
100
AcDbArc
 50
50.86788940429688
 51
53.4477996826172
  0
ARC
  5
48B
330
1F
100
AcDbEntity
  8
仕上
  6
Continuous
 62
     3
370
     9
100
AcDbCircle
 10
0.0
 20
273.2893784499872
 30
0.0
 40
224.9999814420133
100
AcDbArc
 50
60.14694213867188
 51
65.71717834472656
  0
ARC
  5
48C
330
1F
100
AcDbEntity
  8
仕上
  6
Continuous
 62
     3
370
     9
100
AcDbCircle
 10
0.0
 20
273.2893784499872
 30
0.0
 40
224.9999814420133
100
AcDbArc
 50
114.2828216552734
 51
119.85302734375
  0
ARC
  5
48D
330
1F
100
AcDbEntity
  8
仕上
  6
Continuous
 62
     3
370
     9
100
AcDbCircle
 10
0.0
 20
273.2893784499872
 30
0.0
 40
224.9999814420133
100
AcDbArc
 50
126.5521697998047
 51
129.1321258544922
  0
ARC
  5
48E
330
1F
100
AcDbEntity
  8
仕上
  6
Continuous
 62
     3
370
     9
100
AcDbCircle
 10
0.0
 20
273.2893784499872
 30
0.0
 40
224.9999814420133
100
AcDbArc
 50
130.7933349609375
 51
132.4574890136719
  0
ARC
  5
48F
330
1F
100
AcDbEntity
  8
仕上
  6
Continuous
 62
     3
370
     9
100
AcDbCircle
 10
0.0
 20
273.2893784499872
 30
0.0
 40
224.9999814420133
100
AcDbArc
 50
136.7932586669922
 51
141.1953277587891
  0
ARC
  5
490
330
1F
100
AcDbEntity
  8
仕上
  6
Continuous
 62
     3
370
     9
100
AcDbCircle
 10
0.0
 20
273.2893784499872
 30
0.0
 40
224.9999814420133
100
AcDbArc
 50
143.4476776123047
 51
146.6736297607422
  0
ARC
  5
491
330
1F
100
AcDbEntity
  8
仕上
  6
Continuous
 62
     3
370
     9
100
AcDbCircle
 10
0.0
 20
273.2893784499872
 30
0.0
 40
224.9999814420133
100
AcDbArc
 50
151.02392578125
 51
155.0485534667969
  0
ARC
  5
492
330
1F
100
AcDbEntity
  8
仕上
  6
Continuous
 62
     3
370
     9
100
AcDbCircle
 10
0.0
 20
273.2893784499872
 30
0.0
 40
224.9999814420133
100
AcDbArc
 50
158.0785675048828
 51
162.9423370361328
  0
ARC
  5
493
330
1F
100
AcDbEntity
  8
仕上
  6
Continuous
 62
     3
370
     9
100
AcDbCircle
 10
0.0
 20
273.2893784499872
 30
0.0
 40
224.9999814420133
100
AcDbArc
 50
164.7979736328125
 51
169.500732421875
  0
ARC
  5
494
330
1F
100
AcDbEntity
  8
仕上
  6
Continuous
 62
     3
370
     9
100
AcDbCircle
 10
0.0
 20
273.2893784499872
 30
0.0
 40
224.9999814420133
100
AcDbArc
 50
177.707504272461
 51
180.0
  0
ARC
  5
495
330
1F
100
AcDbEntity
  8
躯体
  6
Continuous
 62
     2
370
     9
100
AcDbCircle
 10
0.0
 20
273.2893784499872
 30
0.0
 40
282.0001138223184
100
AcDbArc
 50
94.91711425781256
 51
175.0828857421876
  0
ARC
  5
496
330
1F
100
AcDbEntity
  8
躯体
  6
Continuous
 62
     2
370
     9
100
AcDbCircle
 10
0.0
 20
273.2893784499872
 30
0.0
 40
284.0000152587891
100
AcDbArc
 50
94.4744262695312
 51
175.5255584716797
  0
ARC
  5
497
330
1F
100
AcDbEntity
  8
躯体
  6
Continuous
 62
     2
370
     9
100
AcDbCircle
 10
0.0
 20
273.2893784499872
 30
0.0
 40
267.0000828923406
100
AcDbArc
 50
95.11872863769537
 51
174.8812713623047
  0
ARC
  5
498
330
1F
100
AcDbEntity
  8
躯体
  6
Continuous
 62
     2
370
     9
100
AcDbCircle
 10
0.0
 20
273.2893784499872
 30
0.0
 40
264.999995876003
100
AcDbArc
 50
94.72636413574224
 51
175.2736511230469
  0
ARC
  5
499
330
1F
100
AcDbEntity
  8
躯体
  6
Continuous
 62
     2
370
     9
100
AcDbCircle
 10
0.0
 20
273.2893784499872
 30
0.0
 40
254.499887002481
100
AcDbArc
 50
0.0
 51
180.0
  0
ARC
  5
49A
330
1F
100
AcDbEntity
  8
躯体
  6
Continuous
 62
     2
370
     9
100
AcDbCircle
 10
0.0
 20
273.2893784499872
 30
0.0
 40
267.0000828923406
100
AcDbArc
 50
5.118698120117188
 51
84.88127136230469
  0
ARC
  5
49B
330
1F
100
AcDbEntity
  8
躯体
  6
Continuous
 62
     2
370
     9
100
AcDbCircle
 10
0.0
 20
273.2893784499872
 30
0.0
 40
264.999995876003
100
AcDbArc
 50
4.726348876953132
 51
85.27363586425783
  0
ARC
  5
49C
330
1F
100
AcDbEntity
  8
躯体
  6
Continuous
 62
     2
370
     9
100
AcDbCircle
 10
0.0
 20
273.2893784499872
 30
0.0
 40
282.0001138223184
100
AcDbArc
 50
4.917114257812505
 51
85.0828857421875
  0
ARC
  5
49D
330
1F
100
AcDbEntity
  8
躯体
  6
Continuous
 62
     2
370
     9
100
AcDbCircle
 10
0.0
 20
273.2893784499872
 30
0.0
 40
284.0000152587891
100
AcDbArc
 50
4.474441528320328
 51
85.52557373046876
  0
TEXT
  5
49E
330
1F
100
AcDbEntity
  8
その他
  6
Continuous
 62
     2
370
     0
100
AcDbText
 10
150.9064166094806
 20
583.7104432858192
 30
0.0
 40
18.288
  1
反対側鋳出は ＫＡＮＥＳＯ
 41
1.115
  7
ＭＳ ゴシック
100
AcDbText
  0
TEXT
  5
49F
330
1F
100
AcDbEntity
  8
その他
  6
Continuous
 62
     6
370
     0
100
AcDbText
 10
36.17695114548148
 20
-48.82665619158799
 30
0.0
 40
18.288
  1
４－１５×２５
 41
0.7928571428571429
  7
ＭＳ ゴシック
100
AcDbText
  0
TEXT
  5
4A0
330
1F
100
AcDbEntity
  8
その他
  6
Continuous
 62
     4
370
     0
100
AcDbText
 10
84.87282088060435
 20
483.6838230858056
 30
0.0
 40
11.43
  1
Ｍ
 50
159.7499346844663
 41
0.9999999999999993
  7
ＭＳ ゴシック
100
AcDbText
  0
TEXT
  5
4A1
330
1F
100
AcDbEntity
  8
その他
  6
Continuous
 62
     4
370
     0
100
AcDbText
 10
68.26117377547676
 20
489.7003705955966
 30
0.0
 40
11.43
  1
Ｋ
 50
164.2499669079652
 41
0.9999999999999988
  7
ＭＳ ゴシック
100
AcDbText
  0
TEXT
  5
4A2
330
1F
100
AcDbEntity
  8
その他
  6
Continuous
 62
     4
370
     0
100
AcDbText
 10
51.22863718899846
 20
494.395069388285
 30
0.0
 40
11.43
  1
Ｃ
 50
168.7505131871599
 41
0.9999999999999986
  7
ＭＳ ゴシック
100
AcDbText
  0
TEXT
  5
4A3
330
1F
100
AcDbEntity
  8
その他
  6
Continuous
 62
     4
370
     0
100
AcDbText
 10
33.88058421366568
 20
497.7392245237257
 30
0.0
 40
11.43
  1
Ｙ
 50
173.2502087337288
 41
0.9999999999999988
  7
ＭＳ ゴシック
100
AcDbText
  0
TEXT
  5
4A4
330
1F
100
AcDbEntity
  8
その他
  6
Continuous
 62
     4
370
     0
100
AcDbText
 10
16.32323884186217
 20
499.711603458987
 30
0.0
 40
11.43
  1
－
 50
177.7497797612692
 41
1.000000000000001
  7
ＭＳ ゴシック
100
AcDbText
  0
TEXT
  5
4A5
330
1F
100
AcDbEntity
  8
その他
  6
Continuous
 62
     4
370
     0
100
AcDbText
 10
-36.51700489670974
 20
497.3215992362357
 30
0.0
 40
11.43
  1
４
 50
191.2506545179305
 41
1.000000000000001
  7
ＭＳ ゴシック
100
AcDbText
  0
TEXT
  5
4A6
330
1F
100
AcDbEntity
  8
その他
  6
Continuous
 62
     4
370
     0
100
AcDbText
 10
-18.98432824060896
 20
499.5020827541093
 30
0.0
 40
11.43
  1
－
 50
186.7497912662712
 41
0.9999999999999988
  7
ＭＳ ゴシック
100
AcDbText
  0
TEXT
  5
4A7
330
1F
100
AcDbEntity
  8
その他
  6
Continuous
 62
     4
370
     0
100
AcDbText
 10
-53.82457027443719
 20
493.7719856822878
 30
0.0
 40
11.43
  1
５
 50
195.7494872925923
 41
1.000000000000001
  7
ＭＳ ゴシック
100
AcDbText
  0
TEXT
  5
4A8
330
1F
100
AcDbEntity
  8
その他
  6
Continuous
 62
     4
370
     0
100
AcDbText
 10
-70.79995108122753
 20
488.8754486158301
 30
0.0
 40
11.43
  1
０
 50
200.2495332757998
 41
1.0
  7
ＭＳ ゴシック
100
AcDbText
  0
TEXT
  5
4A9
330
1F
100
AcDbEntity
  8
その他
  6
Continuous
 62
     4
370
     0
100
AcDbText
 10
-1.334805562018732
 20
500.3005583092811
 30
0.0
 40
11.43
  1
２
 50
182.2502202387309
 41
1.000000000000001
  7
ＭＳ ゴシック
100
AcDbText
  0
TEXT
  5
4AA
330
1F
100
AcDbEntity
  8
その他
  6
Continuous
 62
     3
370
     0
100
AcDbText
 10
427.6335550306165
 20
258.0828087577364
 30
0.0
 40
18.288
  1
５５０
 50
90.0
 41
0.691666666666667
  7
ＭＳ ゴシック
100
AcDbText
  0
TEXT
  5
4AB
330
1F
100
AcDbEntity
  8
0-E
  6
Continuous
 62
     6
370
     0
100
AcDbText
 10
138.2800152752851
 20
-507.4924936599156
 30
0.0
 40
18.288
  1
鎖：ＳＷＲＭ
 41
0.7916666666666666
  7
ＭＳ ゴシック
100
AcDbText
  0
TEXT
  5
4AC
330
1F
100
AcDbEntity
  8
0-E
  6
Continuous
 62
     6
370
     0
100
AcDbText
 10
58.04816102723822
 20
-542.4924111799747
 30
0.0
 40
18.288
  1
電気亜鉛めっき，φ５×５００
 41
0.7964285714285715
  7
ＭＳ ゴシック
100
AcDbText
  0
TEXT
  5
4AD
330
1F
100
AcDbEntity
  8
0-E
  6
Continuous
 62
     6
370
     0
100
AcDbText
 10
319.2141594964106
 20
-196.6056858315795
 30
0.0
 40
18.288
  1
枠：ＦＣ２００
 41
0.7928571428571431
  7
ＭＳ ゴシック
100
AcDbText
  0
TEXT
  5
4AE
330
1F
100
AcDbEntity
  8
0-E
  6
Continuous
 62
     6
370
     0
100
AcDbText
 10
343.5797567831504
 20
-112.8043503163768
 30
0.0
 40
18.288
  1
蓋：ＦＣ２００
 41
0.7928571428571431
  7
ＭＳ ゴシック
100
AcDbText
  0
TEXT
  5
4AF
330
1F
100
AcDbEntity
  8
その他
  6
Continuous
 62
     3
370
     0
100
AcDbText
 10
379.6161748574747
 20
-348.528443568198
 30
0.0
 40
18.288
  1
５８
 50
90.0
 41
0.6875
  7
ＭＳ ゴシック
100
AcDbText
  0
TEXT
  5
4B0
330
1F
100
AcDbEntity
  8
その他
  6
Continuous
 62
     3
370
     0
100
AcDbText
 10
-33.30014846389349
 20
-160.6443903686361
 30
0.0
 40
18.288
  1
φ５９０
 41
0.6937500000000001
  7
ＭＳ ゴシック
100
AcDbText
  0
TEXT
  5
4B1
330
1F
100
AcDbEntity
  8
その他
  6
Continuous
 62
     3
370
     0
100
AcDbText
 10
-33.30014846389349
 20
-216.6444514037923
 30
0.0
 40
18.288
  1
φ４８６
 41
0.6937500000000001
  7
ＭＳ ゴシック
100
AcDbText
  0
TEXT
  5
4B2
330
1F
100
AcDbEntity
  8
その他
  6
Continuous
 62
     3
370
     0
100
AcDbText
 10
-87.30388975401178
 20
-426.6445503797214
 30
0.0
 40
18.288
  1
φ４５０
 41
0.6937500000000001
  7
ＭＳ ゴシック
100
AcDbText
  0
TEXT
  5
4B3
330
1F
100
AcDbEntity
  8
その他
  6
Continuous
 62
     3
370
     0
100
AcDbText
 10
41.53107865287173
 20
-342.0271690881516
 30
0.0
 40
18.288
  1
6
 50
90.0
 41
0.6749999999999972
  7
ＭＳ ゴシック
100
AcDbText
  0
TEXT
  5
4B4
330
1F
100
AcDbEntity
  8
その他
  6
Continuous
 62
     3
370
     0
100
AcDbText
 10
42.5773037109375
 20
-277.1643332298322
 30
0.0
 40
18.288
  1
5
 50
90.0
 41
0.6750000000000007
  7
ＭＳ ゴシック
100
AcDbText
  0
LWPOLYLINE
  5
4B5
330
1F
100
AcDbEntity
  8
その他
  6
Continuous
 62
     7
370
     9
100
AcDbPolyline
 90
        4
 70
     1
 43
0.6000000000000001
 10
48.23216189822642
 20
-303.421882371381
 42
0.4142135623731
 10
47.93216189822641
 20
-303.121882371381
 42
0.4142135623731
 10
47.63216189822641
 20
-303.421882371381
 42
0.4142135623731
 10
47.93216189822641
 20
-303.721882371381
 42
0.4142135623731
  0
LINE
  5
4B6
330
1F
100
AcDbEntity
  8
仕上
  6
Continuous
 62
     3
370
     9
100
AcDbLine
 10
83.00007588154563
 20
307.2894658787245
 30
0.0
 11
55.00008248154563
 21
307.2894658787245
 31
0.0
  0
LINE
  5
4B7
330
1F
100
AcDbEntity
  8
仕上
  6
Continuous
 62
     3
370
     9
100
AcDbLine
 10
83.00007588154563
 20
289.2895549570608
 30
0.0
 11
55.00008248154563
 21
289.2895549570608
 31
0.0
  0
LINE
  5
4B8
330
1F
100
AcDbEntity
  8
仕上
  6
Continuous
 62
     3
370
     9
100
AcDbLine
 10
55.00008248154563
 20
289.2895549570608
 30
0.0
 11
55.00008248154563
 21
307.2894658787245
 31
0.0
  0
LINE
  5
4B9
330
1F
100
AcDbEntity
  8
仕上
  6
Continuous
 62
     3
370
     9
100
AcDbLine
 10
-82.99977895375844
 20
307.2894658787245
 30
0.0
 11
-55.00008248375843
 21
307.2894658787245
 31
0.0
  0
LINE
  5
4BA
330
1F
100
AcDbEntity
  8
仕上
  6
Continuous
 62
     3
370
     9
100
AcDbLine
 10
-82.99977895375844
 20
289.2895549570608
 30
0.0
 11
-55.00008248375843
 21
289.2895549570608
 31
0.0
  0
LINE
  5
4BB
330
1F
100
AcDbEntity
  8
仕上
  6
Continuous
 62
     3
370
     9
100
AcDbLine
 10
-55.00008248375843
 20
289.2895549570608
 30
0.0
 11
-55.00008248375843
 21
307.2894658787245
 31
0.0
  0
LINE
  5
4BC
330
1F
100
AcDbEntity
  8
仕上
  6
Continuous
 62
     3
370
     9
100
AcDbLine
 10
-41.9996931784375
 20
289.28910956538
 30
0.0
 11
-41.9996931784375
 21
307.2894658787245
 31
0.0
  0
LINE
  5
4BD
330
1F
100
AcDbEntity
  8
仕上
  6
Continuous
 62
     3
370
     9
100
AcDbLine
 10
-36.9998746343075
 20
289.28910956538
 30
0.0
 11
-36.9998746343075
 21
307.2894658787245
 31
0.0
  0
LINE
  5
4BE
330
1F
100
AcDbEntity
  8
仕上
  6
Continuous
 62
     3
370
     9
100
AcDbLine
 10
-4.000062688572655
 20
289.28910956538
 30
0.0
 11
-4.000062688572655
 21
307.2894658787245
 31
0.0
  0
LINE
  5
4BF
330
1F
100
AcDbEntity
  8
仕上
  6
Continuous
 62
     3
370
     9
100
AcDbLine
 10
-8.999881232702819
 20
289.28910956538
 30
0.0
 11
-8.999881232702819
 21
307.2894658787245
 31
0.0
  0
LINE
  5
4C0
330
1F
100
AcDbEntity
  8
仕上
  6
Continuous
 62
     3
370
     9
100
AcDbLine
 10
-36.9998746343075
 20
307.2894658787245
 30
0.0
 11
-8.999881232702819
 21
307.2894658787245
 31
0.0
  0
LINE
  5
4C1
330
1F
100
AcDbEntity
  8
仕上
  6
Continuous
 62
     3
370
     9
100
AcDbLine
 10
-36.9998746343075
 20
289.28910956538
 30
0.0
 11
-8.999881232702819
 21
289.28910956538
 31
0.0
  0
LINE
  5
4C2
330
1F
100
AcDbEntity
  8
仕上
  6
Continuous
 62
     3
370
     9
100
AcDbLine
 10
-4.000062688572655
 20
307.2890204870439
 30
0.0
 11
3.999914217043909
 21
307.2890204870439
 31
0.0
  0
LINE
  5
4C3
330
1F
100
AcDbEntity
  8
仕上
  6
Continuous
 62
     3
370
     9
100
AcDbLine
 10
-4.000062688572655
 20
289.28910956538
 30
0.0
 11
3.999914217043909
 21
289.28910956538
 31
0.0
  0
LINE
  5
4C4
330
1F
100
AcDbEntity
  8
仕上
  6
Continuous
 62
     3
370
     9
100
AcDbLine
 10
41.99984163469594
 20
289.28910956538
 30
0.0
 11
41.99984163469594
 21
307.2894658787245
 31
0.0
  0
LINE
  5
4C5
330
1F
100
AcDbEntity
  8
仕上
  6
Continuous
 62
     3
370
     9
100
AcDbLine
 10
37.00002309056578
 20
289.28910956538
 30
0.0
 11
37.00002309056578
 21
307.2894658787245
 31
0.0
  0
LINE
  5
4C6
330
1F
100
AcDbEntity
  8
仕上
  6
Continuous
 62
     3
370
     9
100
AcDbLine
 10
49.9999670042061
 20
289.28910956538
 30
0.0
 11
49.9999670042061
 21
307.2894658787245
 31
0.0
  0
LINE
  5
4C7
330
1F
100
AcDbEntity
  8
仕上
  6
Continuous
 62
     3
370
     9
100
AcDbLine
 10
49.9999670042061
 20
307.2894658787245
 30
0.0
 11
41.99984163469594
 21
307.2894658787245
 31
0.0
  0
LINE
  5
4C8
330
1F
100
AcDbEntity
  8
仕上
  6
Continuous
 62
     3
370
     9
100
AcDbLine
 10
49.9999670042061
 20
289.28910956538
 30
0.0
 11
41.99984163469594
 21
289.28910956538
 31
0.0
  0
LINE
  5
4C9
330
1F
100
AcDbEntity
  8
仕上
  6
Continuous
 62
     3
370
     9
100
AcDbLine
 10
3.999914217043909
 20
289.28910956538
 30
0.0
 11
3.999914217043909
 21
307.2894658787245
 31
0.0
  0
LINE
  5
4CA
330
1F
100
AcDbEntity
  8
仕上
  6
Continuous
 62
     3
370
     9
100
AcDbLine
 10
37.00002309056578
 20
307.2894658787245
 30
0.0
 11
8.999881225067497
 21
307.2894658787245
 31
0.0
  0
LINE
  5
4CB
330
1F
100
AcDbEntity
  8
仕上
  6
Continuous
 62
     3
370
     9
100
AcDbLine
 10
37.00002309056578
 20
289.28910956538
 30
0.0
 11
8.999881225067497
 21
289.28910956538
 31
0.0
  0
LINE
  5
4CC
330
1F
100
AcDbEntity
  8
仕上
  6
Continuous
 62
     3
370
     9
100
AcDbLine
 10
8.999881225067497
 20
289.28910956538
 30
0.0
 11
8.999881225067497
 21
307.2894658787245
 31
0.0
  0
LINE
  5
4CD
330
1F
100
AcDbEntity
  8
仕上
  6
Continuous
 62
     3
370
     9
100
AcDbLine
 10
-49.99981854794765
 20
307.2894658787245
 30
0.0
 11
-41.9996931784375
 21
307.2894658787245
 31
0.0
  0
LINE
  5
4CE
330
1F
100
AcDbEntity
  8
仕上
  6
Continuous
 62
     3
370
     9
100
AcDbLine
 10
-49.99981854794765
 20
289.28910956538
 30
0.0
 11
-41.9996931784375
 21
289.28910956538
 31
0.0
  0
LINE
  5
4CF
330
1F
100
AcDbEntity
  8
仕上
  6
Continuous
 62
     3
370
     9
100
AcDbLine
 10
-49.99981854794765
 20
289.28910956538
 30
0.0
 11
-49.99981854794765
 21
307.2894658787245
 31
0.0
  0
LINE
  5
4D0
330
1F
100
AcDbEntity
  8
仕上
  6
Continuous
 62
     3
370
     9
100
AcDbLine
 10
-65.99992081925672
 20
282.2895566066595
 30
0.0
 11
-25.9998878272803
 21
282.2895566066595
 31
0.0
  0
LINE
  5
4D1
330
1F
100
AcDbEntity
  8
仕上
  6
Continuous
 62
     3
370
     9
100
AcDbLine
 10
-19.99986803209453
 20
282.2895566066595
 30
0.0
 11
20.00001649598829
 21
282.2895566066595
 31
0.0
  0
LINE
  5
4D2
330
1F
100
AcDbEntity
  8
仕上
  6
Continuous
 62
     3
370
     9
100
AcDbLine
 10
66.00006928315031
 20
282.2895566066595
 30
0.0
 11
26.00018475506766
 21
282.2895566066595
 31
0.0
  0
LINE
  5
4D3
330
1F
100
AcDbEntity
  8
仕上
  6
Continuous
 62
     3
370
     9
100
AcDbLine
 10
-25.9998878272803
 20
282.2895566066595
 30
0.0
 11
-25.9998878272803
 21
273.2893784499872
 31
0.0
  0
LINE
  5
4D4
330
1F
100
AcDbEntity
  8
仕上
  6
Continuous
 62
     3
370
     9
100
AcDbLine
 10
-19.99986803209453
 20
282.2895566066595
 30
0.0
 11
-19.99986803209453
 21
273.2893784499872
 31
0.0
  0
LINE
  5
4D5
330
1F
100
AcDbEntity
  8
仕上
  6
Continuous
 62
     3
370
     9
100
AcDbLine
 10
-65.99992081925672
 20
282.2895566066595
 30
0.0
 11
-65.99992081925672
 21
273.2893784499872
 31
0.0
  0
LINE
  5
4D6
330
1F
100
AcDbEntity
  8
仕上
  6
Continuous
 62
     3
370
     9
100
AcDbLine
 10
20.00001649598829
 20
282.2895566066595
 30
0.0
 11
20.00001649598829
 21
273.2893784499872
 31
0.0
  0
LINE
  5
4D7
330
1F
100
AcDbEntity
  8
仕上
  6
Continuous
 62
     3
370
     9
100
AcDbLine
 10
26.00018475506766
 20
282.2895566066595
 30
0.0
 11
26.00018475506766
 21
273.2893784499872
 31
0.0
  0
LINE
  5
4D8
330
1F
100
AcDbEntity
  8
仕上
  6
Continuous
 62
     3
370
     9
100
AcDbLine
 10
66.00006928315031
 20
282.2895566066595
 30
0.0
 11
66.00006928315031
 21
273.2893784499872
 31
0.0
  0
LINE
  5
4D9
330
1F
100
AcDbEntity
  8
仕上
  6
Continuous
 62
     3
370
     9
100
AcDbLine
 10
66.49549329603047
 20
211.7894724771198
 30
0.0
 11
66.49549329603047
 21
273.2893784499872
 31
0.0
  0
LINE
  5
4DA
330
1F
100
AcDbEntity
  8
仕上
  6
Continuous
 62
     3
370
     9
100
AcDbLine
 10
65.05880819784625
 20
213.2355850325464
 30
0.0
 11
65.05880819784625
 21
273.2893784499872
 31
0.0
  0
LINE
  5
4DB
330
1F
100
AcDbEntity
  8
仕上
  6
Continuous
 62
     3
370
     9
100
AcDbLine
 10
-65.05895666173984
 20
213.2355850325464
 30
0.0
 11
-65.05895666173984
 21
273.2893784499872
 31
0.0
  0
LINE
  5
4DC
330
1F
100
AcDbEntity
  8
仕上
  6
Continuous
 62
     3
370
     9
100
AcDbLine
 10
-66.49519636824328
 20
211.7894724771198
 30
0.0
 11
-66.49519636824328
 21
273.2893784499872
 31
0.0
  0
TEXT
  5
4DD
330
1F
100
AcDbEntity
  8
F-5ﾚｲﾔ
  6
Continuous
 62
     4
370
     9
100
AcDbText
 10
12.01611575564829
 20
-675.6294383785603
 30
0.0
 40
16.002
  1
密閉型（防水・防臭型）　テーパ・パッキン式
 41
1.027210884353742
  7
ＭＳ ゴシック
100
AcDbText
  0
TEXT
  5
4DE
330
1F
100
AcDbEntity
  8
0-E
  6
Continuous
 62
     6
370
     0
100
AcDbText
 10
-467.7517610955749
 20
-114.4919689734018
 30
0.0
 40
18.288
  1
キャップ：クロロプレン
 41
0.7954545454545457
  7
ＭＳ ゴシック
100
AcDbText
  0
LINE
  5
4DF
330
1F
100
AcDbEntity
  8
0-E
  6
Continuous
 62
     7
370
     9
100
AcDbLine
 10
-256.2008749472128
 20
-120.909205204468
 30
0.0
 11
-464.7220546229479
 21
-120.909205204468
 31
0.0
  0
LINE
  5
4E0
330
1F
100
AcDbEntity
  8
0-E
  6
Continuous
 62
     7
370
     9
100
AcDbLine
 10
332.7932491817991
 20
-119.688312375604
 30
0.0
 11
481.0701848376239
 21
-119.688312375604
 31
0.0
  0
TEXT
  5
4E1
330
1F
100
AcDbEntity
  8
0-E
  6
Continuous
 62
     6
370
     0
100
AcDbText
 10
357.5784373244074
 20
-145.1706666925991
 30
0.0
 40
18.288
  1
樹脂系塗装
 41
0.7899999999999998
  7
ＭＳ ゴシック
100
AcDbText
  0
TEXT
  5
4E2
330
1F
100
AcDbEntity
  8
0-E
  6
Continuous
 62
     6
370
     0
100
AcDbText
 10
339.3825846582035
 20
-228.7061721147172
 30
0.0
 40
18.288
  1
樹脂系塗装
 41
0.7899999999999998
  7
ＭＳ ゴシック
100
AcDbText
  0
LINE
  5
4E3
330
1F
100
AcDbEntity
  8
0-E
  6
Continuous
 62
     7
370
     9
100
AcDbLine
 10
307.0801935969174
 20
-203.4896478908067
 30
0.0
 11
456.6712005806686
 21
-203.4896478908067
 31
0.0
  0
TEXT
  5
4E4
330
1F
100
AcDbEntity
  8
0-E
  6
Continuous
 62
     6
370
     0
100
AcDbText
 10
291.7106584782653
 20
-427.3626100366013
 30
0.0
 40
18.288
  1
パッキン：クロロプレン
 41
0.7954545454545454
  7
ＭＳ ゴシック
100
AcDbText
  0
LINE
  5
4E5
330
1F
100
AcDbEntity
  8
0-E
  6
Continuous
 62
     7
370
     9
100
AcDbLine
 10
288.3868078283363
 20
-434.5619696021665
 30
0.0
 11
503.067561604629
 21
-434.5619696021665
 31
0.0
  0
TEXT
  5
4E6
330
1F
100
AcDbEntity
  8
F-5ﾚｲﾔ
  6
Continuous
 62
     4
370
     9
100
AcDbText
 10
85.7464781679061
 20
-704.0555117898241
 30
0.0
 40
16.002
  1
マンホール鉄蓋　ＭＫＣＹ－２－４５０－ｂ
 41
1.027142857142857
  7
ＭＳ ゴシック
100
AcDbText
  0
ENDSEC
  0
SECTION
  2
OBJECTS
  0
DICTIONARY
  5
C
330
0
100
AcDbDictionary
281
     1
  3
ACAD_GROUP
350
D
  3
ACAD_LAYOUT
350
1A
  3
ACAD_MLEADERSTYLE
350
4E8
  3
ACAD_MLINESTYLE
350
17
  3
ACAD_PLOTSETTINGS
350
19
  3
ACAD_PLOTSTYLENAME
350
E
  3
ACAD_TABLESTYLE
350
4E7
  3
ACAD_VISUALSTYLE
350
2A
  0
DICTIONARY
  5
D
102
{ACAD_REACTORS
330
C
102
}
330
C
100
AcDbDictionary
281
     1
  0
DICTIONARY
  5
1A
102
{ACAD_REACTORS
330
C
102
}
330
C
100
AcDbDictionary
281
     1
  3
Layout1
350
1E
  3
Layout2
350
26
  3
Model
350
22
  0
DICTIONARY
  5
4E8
102
{ACAD_REACTORS
330
C
102
}
330
C
100
AcDbDictionary
281
     1
  0
DICTIONARY
  5
17
102
{ACAD_REACTORS
330
C
102
}
330
C
100
AcDbDictionary
281
     1
  3
Standard
350
18
  0
DICTIONARY
  5
19
102
{ACAD_REACTORS
330
C
102
}
330
C
100
AcDbDictionary
281
     1
  0
ACDBDICTIONARYWDFLT
  5
E
102
{ACAD_REACTORS
330
C
102
}
330
C
100
AcDbDictionary
281
     1
  3
Normal
350
F
100
AcDbDictionaryWithDefault
340
F
  0
DICTIONARY
  5
4E7
102
{ACAD_REACTORS
330
C
102
}
330
C
100
AcDbDictionary
281
     1
  0
DICTIONARY
  5
2A
102
{ACAD_REACTORS
330
C
102
}
330
C
100
AcDbDictionary
281
     1
  3
2dWireframe
350
2F
  3
3D Hidden
350
31
  3
3dWireframe
350
30
  3
Basic
350
32
  3
Brighten
350
36
  3
ColorChange
350
3A
  3
Conceptual
350
34
  3
Dim
350
35
  3
Facepattern
350
39
  3
Flat
350
2B
  3
FlatWithEdges
350
2C
  3
Gouraud
350
2D
  3
GouraudWithEdges
350
2E
  3
Linepattern
350
38
  3
Realistic
350
33
  3
Thicken
350
37
  0
LAYOUT
  5
1E
102
{ACAD_REACTORS
330
1A
102
}
330
1A
100
AcDbPlotSettings
  1

  2
none_device
  4

  6

 40
0.0
 41
0.0
 42
0.0
 43
0.0
 44
0.0
 45
0.0
 46
0.0
 47
0.0
 48
0.0
 49
0.0
140
0.0
141
0.0
142
1.0
143
1.0
 70
   688
 72
     0
 73
     0
 74
     5
  7

 75
    16
 76
     0
 77
     5
 78
   300
147
1.0
148
0.0
149
0.0
100
AcDbLayout
  1
Layout1
 70
     1
 71
     1
 10
0.0
 20
0.0
 11
420.0
 21
297.0
 12
0.0
 22
0.0
 32
0.0
 14
1.000000000000000E+20
 24
1.000000000000000E+20
 34
1.000000000000000E+20
 15
-1.000000000000000E+20
 25
-1.000000000000000E+20
 35
-1.000000000000000E+20
146
0.0
 13
0.0
 23
0.0
 33
0.0
 16
1.0
 26
0.0
 36
0.0
 17
0.0
 27
1.0
 37
0.0
 76
     0
330
1B
  0
LAYOUT
  5
26
102
{ACAD_REACTORS
330
1A
102
}
330
1A
100
AcDbPlotSettings
  1

  2
none_device
  4

  6

 40
0.0
 41
0.0
 42
0.0
 43
0.0
 44
0.0
 45
0.0
 46
0.0
 47
0.0
 48
0.0
 49
0.0
140
0.0
141
0.0
142
1.0
143
1.0
 70
   688
 72
     0
 73
     0
 74
     5
  7

 75
    16
 76
     0
 77
     5
 78
   300
147
1.0
148
0.0
149
0.0
100
AcDbLayout
  1
Layout2
 70
     1
 71
     2
 10
0.0
 20
0.0
 11
0.0
 21
0.0
 12
0.0
 22
0.0
 32
0.0
 14
0.0
 24
0.0
 34
0.0
 15
0.0
 25
0.0
 35
0.0
146
0.0
 13
0.0
 23
0.0
 33
0.0
 16
1.0
 26
0.0
 36
0.0
 17
0.0
 27
1.0
 37
0.0
 76
     0
330
23
  0
LAYOUT
  5
22
102
{ACAD_REACTORS
330
1A
102
}
330
1A
100
AcDbPlotSettings
  1

  2
none_device
  4

  6

 40
0.0
 41
0.0
 42
0.0
 43
0.0
 44
0.0
 45
0.0
 46
0.0
 47
0.0
 48
0.0
 49
0.0
140
0.0
141
0.0
142
1.0
143
1.0
 70
  1712
 72
     0
 73
     0
 74
     0
  7

 75
     0
 76
     0
 77
     5
 78
   300
147
1.0
148
0.0
149
0.0
100
AcDbLayout
  1
Model
 70
     1
 71
     0
 10
-1260.0
 20
-891.0
 11
1260.0
 21
891.0
 12
0.0
 22
0.0
 32
0.0
 14
-1260.0
 24
-891.0
 34
0.0
 15
1260.0
 25
891.0
 35
0.0
146
0.0
 13
0.0
 23
0.0
 33
0.0
 16
1.0
 26
0.0
 36
0.0
 17
0.0
 27
1.0
 37
0.0
 76
     0
330
1F
331
29
  0
MLINESTYLE
  5
18
102
{ACAD_REACTORS
330
17
102
}
330
17
100
AcDbMlineStyle
  2
Standard
 70
     0
  3

 62
   256
 51
90.0
 52
90.0
 71
     2
 49
0.5
 62
   256
  6
BYLAYER
 49
-0.5
 62
   256
  6
BYLAYER
  0
ACDBPLACEHOLDER
  5
F
102
{ACAD_REACTORS
330
E
102
}
330
E
  0
VISUALSTYLE
  5
2F
102
{ACAD_REACTORS
330
2A
102
}
330
2A
100
AcDbVisualStyle
  2
2dWireframe
 70
     4
 71
     0
 72
     2
 73
     0
 90
        0
 40
-0.6
 41
-30.0
 62
     5
 63
     7
421
 16777215
 74
     1
 91
        4
 64
     7
 65
   257
 75
     1
175
     1
 42
1.0
 92
        0
 66
   257
 43
1.0
 76
     1
 77
     6
 78
     2
 67
     7
 79
     5
170
     0
171
     0
290
     0
174
     0
 93
        1
 44
0.0
173
     0
291
     0
 45
0.0
1001
ACAD
1000
AcDbSavedByObjectVersion
1070
     0
  0
VISUALSTYLE
  5
31
102
{ACAD_REACTORS
330
2A
102
}
330
2A
100
AcDbVisualStyle
  2
3D Hidden
 70
     6
 71
     1
 72
     2
 73
     2
 90
        0
 40
-0.6
 41
-30.0
 62
     5
 63
     7
421
 16777215
 74
     2
 91
        2
 64
     7
 65
   257
 75
     2
175
     1
 42
40.0
 92
        0
 66
   257
 43
1.0
 76
     1
 77
     6
 78
     2
 67
     7
 79
     3
170
     0
171
     0
290
     0
174
     0
 93
        1
 44
0.0
173
     0
291
     0
 45
0.0
1001
ACAD
1000
AcDbSavedByObjectVersion
1070
     0
  0
VISUALSTYLE
  5
30
102
{ACAD_REACTORS
330
2A
102
}
330
2A
100
AcDbVisualStyle
  2
3dWireframe
 70
     5
 71
     0
 72
     2
 73
     0
 90
        0
 40
-0.6
 41
-30.0
 62
     5
 63
     7
421
 16777215
 74
     1
 91
        4
 64
     7
 65
   257
 75
     1
175
     1
 42
1.0
 92
        0
 66
   257
 43
1.0
 76
     1
 77
     6
 78
     2
 67
     7
 79
     5
170
     0
171
     0
290
     0
174
     0
 93
        1
 44
0.0
173
     0
291
     0
 45
0.0
1001
ACAD
1000
AcDbSavedByObjectVersion
1070
     0
  0
VISUALSTYLE
  5
32
102
{ACAD_REACTORS
330
2A
102
}
330
2A
100
AcDbVisualStyle
  2
Basic
 70
     7
 71
     1
 72
     0
 73
     1
 90
        0
 40
-0.6
 41
-30.0
 62
     5
 63
     7
421
 16777215
 74
     0
 91
        4
 64
     7
 65
   257
 75
     1
175
     1
 42
1.0
 92
        8
 66
     7
 43
1.0
 76
     1
 77
     6
 78
     2
 67
     7
 79
     5
170
     0
171
     0
290
     0
174
     0
 93
        1
 44
0.0
173
     0
291
     1
 45
0.0
1001
ACAD
1000
AcDbSavedByObjectVersion
1070
     0
  0
VISUALSTYLE
  5
36
102
{ACAD_REACTORS
330
2A
102
}
330
2A
100
AcDbVisualStyle
  2
Brighten
 70
    12
 71
     2
 72
     2
 73
     0
 90
        0
 40
-0.6
 41
-30.0
 62
     5
 63
     7
421
 16777215
 74
     1
 91
        4
 64
     7
 65
   257
 75
     1
175
     1
 42
1.0
 92
        8
 66
     7
 43
1.0
 76
     1
 77
     6
 78
     2
 67
     7
 79
     5
170
     0
171
     0
290
     0
174
     0
 93
        1
 44
50.0
173
     0
291
     1
 45
0.0
1001
ACAD
1000
AcDbSavedByObjectVersion
1070
     0
  0
VISUALSTYLE
  5
3A
102
{ACAD_REACTORS
330
2A
102
}
330
2A
100
AcDbVisualStyle
  2
ColorChange
 70
    16
 71
     2
 72
     2
 73
     3
 90
        0
 40
-0.6
 41
-30.0
 62
     5
 63
     8
421
  8421504
 74
     1
 91
        4
 64
     7
 65
   257
 75
     1
175
     1
 42
1.0
 92
        8
 66
     8
424
  8421504
 43
1.0
 76
     1
 77
     6
 78
     2
 67
     7
 79
     5
170
     0
171
     0
290
     0
174
     0
 93
        1
 44
0.0
173
     0
291
     1
 45
0.0
1001
ACAD
1000
AcDbSavedByObjectVersion
1070
     0
  0
VISUALSTYLE
  5
34
102
{ACAD_REACTORS
330
2A
102
}
330
2A
100
AcDbVisualStyle
  2
Conceptual
 70
     9
 71
     3
 72
     2
 73
     0
 90
        0
 40
-0.6
 41
-30.0
 62
     5
 63
     7
421
 16777215
 74
     2
 91
        2
 64
     7
 65
   257
 75
     1
175
     1
 42
40.0
 92
        8
 66
     7
 43
1.0
 76
     1
 77
     6
 78
     2
 67
     7
 79
     3
170
     0
171
     0
290
     0
174
     0
 93
        1
 44
0.0
173
     0
291
     0
 45
0.0
1001
ACAD
1000
AcDbSavedByObjectVersion
1070
     0
  0
VISUALSTYLE
  5
35
102
{ACAD_REACTORS
330
2A
102
}
330
2A
100
AcDbVisualStyle
  2
Dim
 70
    11
 71
     2
 72
     2
 73
     0
 90
        0
 40
-0.6
 41
-30.0
 62
     5
 63
     7
421
 16777215
 74
     1
 91
        4
 64
     7
 65
   257
 75
     1
175
     1
 42
1.0
 92
        8
 66
     7
 43
1.0
 76
     1
 77
     6
 78
     2
 67
     7
 79
     5
170
     0
171
     0
290
     0
174
     0
 93
        1
 44
-50.0
173
     0
291
     1
 45
0.0
1001
ACAD
1000
AcDbSavedByObjectVersion
1070
     0
  0
VISUALSTYLE
  5
39
102
{ACAD_REACTORS
330
2A
102
}
330
2A
100
AcDbVisualStyle
  2
Facepattern
 70
    15
 71
     2
 72
     2
 73
     0
 90
        0
 40
-0.6
 41
-30.0
 62
     5
 63
     7
421
 16777215
 74
     1
 91
        4
 64
     7
 65
   257
 75
     1
175
     1
 42
1.0
 92
        8
 66
     7
 43
1.0
 76
     1
 77
     6
 78
     2
 67
     7
 79
     5
170
     0
171
     0
290
     0
174
     0
 93
        1
 44
0.0
173
     0
291
     1
 45
0.0
1001
ACAD
1000
AcDbSavedByObjectVersion
1070
     0
  0
VISUALSTYLE
  5
2B
102
{ACAD_REACTORS
330
2A
102
}
330
2A
100
AcDbVisualStyle
  2
Flat
 70
     0
 71
     2
 72
     1
 73
     1
 90
        2
 40
-0.6
 41
30.0
 62
     5
 63
     7
421
 16777215
 74
     0
 91
        4
 64
     7
 65
   257
 75
     1
175
     1
 42
1.0
 92
        8
 66
     7
 43
1.0
 76
     1
 77
     6
 78
     2
 67
     7
 79
     5
170
     0
171
     0
290
     0
174
     0
 93
       13
 44
0.0
173
     0
291
     1
 45
0.0
1001
ACAD
1000
AcDbSavedByObjectVersion
1070
     0
  0
VISUALSTYLE
  5
2C
102
{ACAD_REACTORS
330
2A
102
}
330
2A
100
AcDbVisualStyle
  2
FlatWithEdges
 70
     1
 71
     2
 72
     1
 73
     1
 90
        2
 40
-0.6
 41
30.0
 62
     5
 63
     7
421
 16777215
 74
     1
 91
        4
 64
     7
 65
   257
 75
     1
175
     1
 42
1.0
 92
        0
 66
   257
 43
1.0
 76
     1
 77
     6
 78
     2
 67
     7
 79
     5
170
     0
171
     0
290
     0
174
     0
 93
       13
 44
0.0
173
     0
291
     1
 45
0.0
1001
ACAD
1000
AcDbSavedByObjectVersion
1070
     0
  0
VISUALSTYLE
  5
2D
102
{ACAD_REACTORS
330
2A
102
}
330
2A
100
AcDbVisualStyle
  2
Gouraud
 70
     2
 71
     2
 72
     2
 73
     1
 90
        2
 40
-0.6
 41
30.0
 62
     5
 63
     7
421
 16777215
 74
     0
 91
        4
 64
     7
 65
   257
 75
     1
175
     1
 42
1.0
 92
        0
 66
     7
 43
1.0
 76
     1
 77
     6
 78
     2
 67
     7
 79
     5
170
     0
171
     0
290
     0
174
     0
 93
       13
 44
0.0
173
     0
291
     1
 45
0.0
1001
ACAD
1000
AcDbSavedByObjectVersion
1070
     0
  0
VISUALSTYLE
  5
2E
102
{ACAD_REACTORS
330
2A
102
}
330
2A
100
AcDbVisualStyle
  2
GouraudWithEdges
 70
     3
 71
     2
 72
     2
 73
     1
 90
        2
 40
-0.6
 41
30.0
 62
     5
 63
     7
421
 16777215
 74
     1
 91
        4
 64
     7
 65
   257
 75
     1
175
     1
 42
1.0
 92
        0
 66
   257
 43
1.0
 76
     1
 77
     6
 78
     2
 67
     7
 79
     5
170
     0
171
     0
290
     0
174
     0
 93
       13
 44
0.0
173
     0
291
     1
 45
0.0
1001
ACAD
1000
AcDbSavedByObjectVersion
1070
     0
  0
VISUALSTYLE
  5
38
102
{ACAD_REACTORS
330
2A
102
}
330
2A
100
AcDbVisualStyle
  2
Linepattern
 70
    14
 71
     2
 72
     2
 73
     0
 90
        0
 40
-0.6
 41
-30.0
 62
     5
 63
     7
421
 16777215
 74
     1
 91
        4
 64
     7
 65
   257
 75
     7
175
     7
 42
1.0
 92
        8
 66
     7
 43
1.0
 76
     1
 77
     6
 78
     2
 67
     7
 79
     5
170
     0
171
     0
290
     0
174
     0
 93
        1
 44
0.0
173
     0
291
     1
 45
0.0
1001
ACAD
1000
AcDbSavedByObjectVersion
1070
     0
  0
VISUALSTYLE
  5
33
102
{ACAD_REACTORS
330
2A
102
}
330
2A
100
AcDbVisualStyle
  2
Realistic
 70
     8
 71
     2
 72
     2
 73
     0
 90
        0
 40
-0.6
 41
-30.0
 62
     5
 63
     7
421
 16777215
 74
     1
 91
        0
 64
     7
 65
   257
 75
     1
175
     1
 42
1.0
 92
        8
 66
     8
424
  7895160
 43
1.0
 76
     1
 77
     6
 78
     2
 67
     7
 79
     5
170
     0
171
     0
290
     0
174
     0
 93
       13
 44
0.0
173
     0
291
     0
 45
0.0
1001
ACAD
1000
AcDbSavedByObjectVersion
1070
     0
  0
VISUALSTYLE
  5
37
102
{ACAD_REACTORS
330
2A
102
}
330
2A
100
AcDbVisualStyle
  2
Thicken
 70
    13
 71
     2
 72
     2
 73
     0
 90
        0
 40
-0.6
 41
-30.0
 62
     5
 63
     7
421
 16777215
 74
     1
 91
        4
 64
     7
 65
   257
 75
     1
175
     1
 42
1.0
 92
       12
 66
     7
 43
1.0
 76
     1
 77
     6
 78
     2
 67
     7
 79
     5
170
     0
171
     0
290
     0
174
     0
 93
        1
 44
0.0
173
     0
291
     1
 45
0.0
1001
ACAD
1000
AcDbSavedByObjectVersion
1070
     0
  0
ENDSEC
  0
EOF
