  0
SECTION
  2
HEADER
  9
$ACADVER
  1
AC1018
  9
$ACADMAINTVER
 70
     0
  9
$DWGCODEPAGE
  3
ANSI_932
  9
$INSBASE
 10
0.0
 20
0.0
 30
0.0
  9
$EXTMIN
 10
-1470.0
 20
-1039.5
 30
0.0
  9
$EXTMAX
 10
1470.0
 20
1039.5
 30
0.0
  9
$LIMMIN
 10
-1470.0
 20
-1039.5
  9
$LIMMAX
 10
1470.0
 20
1039.5
  9
$ORTHOMODE
 70
     0
  9
$REGENMODE
 70
     1
  9
$FILLMODE
 70
     1
  9
$QTEXTMODE
 70
     0
  9
$MIRRTEXT
 70
     1
  9
$LTSCALE
 40
7.0
  9
$ATTMODE
 70
     1
  9
$TEXTSIZE
 40
2.5
  9
$TRACEWID
 40
1.0
  9
$TEXTSTYLE
  7
Standard
  9
$CLAYER
  8
0
  9
$CELTYPE
  6
ByLayer
  9
$CECOLOR
 62
   256
  9
$CELTSCALE
 40
1.0
  9
$DISPSILH
 70
     0
  9
$DIMSCALE
 40
1.0
  9
$DIMASZ
 40
2.5
  9
$DIMEXO
 40
0.625
  9
$DIMDLI
 40
3.75
  9
$DIMRND
 40
0.0
  9
$DIMDLE
 40
0.0
  9
$DIMEXE
 40
1.25
  9
$DIMTP
 40
0.0
  9
$DIMTM
 40
0.0
  9
$DIMTXT
 40
2.5
  9
$DIMCEN
 40
2.5
  9
$DIMTSZ
 40
0.0
  9
$DIMTOL
 70
     0
  9
$DIMLIM
 70
     0
  9
$DIMTIH
 70
     0
  9
$DIMTOH
 70
     0
  9
$DIMSE1
 70
     0
  9
$DIMSE2
 70
     0
  9
$DIMTAD
 70
     1
  9
$DIMZIN
 70
     8
  9
$DIMBLK
  1

  9
$DIMASO
 70
     1
  9
$DIMSHO
 70
     1
  9
$DIMPOST
  1

  9
$DIMAPOST
  1

  9
$DIMALT
 70
     0
  9
$DIMALTD
 70
     3
  9
$DIMALTF
 40
0.03937007874016
  9
$DIMLFAC
 40
1.0
  9
$DIMTOFL
 70
     1
  9
$DIMTVP
 40
0.0
  9
$DIMTIX
 70
     0
  9
$DIMSOXD
 70
     0
  9
$DIMSAH
 70
     0
  9
$DIMBLK1
  1

  9
$DIMBLK2
  1

  9
$DIMSTYLE
  2
ISO-25
  9
$DIMCLRD
 70
     0
  9
$DIMCLRE
 70
     0
  9
$DIMCLRT
 70
     0
  9
$DIMTFAC
 40
1.0
  9
$DIMGAP
 40
0.625
  9
$DIMJUST
 70
     0
  9
$DIMSD1
 70
     0
  9
$DIMSD2
 70
     0
  9
$DIMTOLJ
 70
     0
  9
$DIMTZIN
 70
     8
  9
$DIMALTZ
 70
     0
  9
$DIMALTTZ
 70
     0
  9
$DIMUPT
 70
     0
  9
$DIMDEC
 70
     2
  9
$DIMTDEC
 70
     2
  9
$DIMALTU
 70
     2
  9
$DIMALTTD
 70
     3
  9
$DIMTXSTY
  7
Standard
  9
$DIMAUNIT
 70
     0
  9
$DIMADEC
 70
     0
  9
$DIMALTRND
 40
0.0
  9
$DIMAZIN
 70
     0
  9
$DIMDSEP
 70
    44
  9
$DIMATFIT
 70
     3
  9
$DIMFRAC
 70
     0
  9
$DIMLDRBLK
  1

  9
$DIMLUNIT
 70
     2
  9
$DIMLWD
 70
    -2
  9
$DIMLWE
 70
    -2
  9
$DIMTMOVE
 70
     0
  9
$LUNITS
 70
     2
  9
$LUPREC
 70
     4
  9
$SKETCHINC
 40
1.0
  9
$FILLETRAD
 40
10.0
  9
$AUNITS
 70
     0
  9
$AUPREC
 70
     0
  9
$MENU
  1
.
  9
$ELEVATION
 40
0.0
  9
$PELEVATION
 40
0.0
  9
$THICKNESS
 40
0.0
  9
$LIMCHECK
 70
     0
  9
$CHAMFERA
 40
10.0
  9
$CHAMFERB
 40
10.0
  9
$CHAMFERC
 40
20.0
  9
$CHAMFERD
 40
0.0
  9
$SKPOLY
 70
     0
  9
$TDCREATE
 40
2457422.384290579
  9
$TDUCREATE
 40
2457422.009290579
  9
$TDUPDATE
 40
2457422.38429059
  9
$TDUUPDATE
 40
2457422.00929059
  9
$TDINDWG
 40
0.0000000116
  9
$TDUSRTIMER
 40
0.0000000116
  9
$USRTIMER
 70
     1
  9
$ANGBASE
 50
0.0
  9
$ANGDIR
 70
     0
  9
$PDMODE
 70
     0
  9
$PDSIZE
 40
0.0
  9
$PLINEWID
 40
0.0
  9
$SPLFRAME
 70
     0
  9
$SPLINETYPE
 70
     6
  9
$SPLINESEGS
 70
     8
  9
$HANDSEED
  5
53D
  9
$SURFTAB1
 70
     6
  9
$SURFTAB2
 70
     6
  9
$SURFTYPE
 70
     6
  9
$SURFU
 70
     6
  9
$SURFV
 70
     6
  9
$UCSBASE
  2

  9
$UCSNAME
  2

  9
$UCSORG
 10
0.0
 20
0.0
 30
0.0
  9
$UCSXDIR
 10
1.0
 20
0.0
 30
0.0
  9
$UCSYDIR
 10
0.0
 20
1.0
 30
0.0
  9
$UCSORTHOREF
  2

  9
$UCSORTHOVIEW
 70
     0
  9
$UCSORGTOP
 10
0.0
 20
0.0
 30
0.0
  9
$UCSORGBOTTOM
 10
0.0
 20
0.0
 30
0.0
  9
$UCSORGLEFT
 10
0.0
 20
0.0
 30
0.0
  9
$UCSORGRIGHT
 10
0.0
 20
0.0
 30
0.0
  9
$UCSORGFRONT
 10
0.0
 20
0.0
 30
0.0
  9
$UCSORGBACK
 10
0.0
 20
0.0
 30
0.0
  9
$PUCSBASE
  2

  9
$PUCSNAME
  2

  9
$PUCSORG
 10
0.0
 20
0.0
 30
0.0
  9
$PUCSXDIR
 10
1.0
 20
0.0
 30
0.0
  9
$PUCSYDIR
 10
0.0
 20
1.0
 30
0.0
  9
$PUCSORTHOREF
  2

  9
$PUCSORTHOVIEW
 70
     0
  9
$PUCSORGTOP
 10
0.0
 20
0.0
 30
0.0
  9
$PUCSORGBOTTOM
 10
0.0
 20
0.0
 30
0.0
  9
$PUCSORGLEFT
 10
0.0
 20
0.0
 30
0.0
  9
$PUCSORGRIGHT
 10
0.0
 20
0.0
 30
0.0
  9
$PUCSORGFRONT
 10
0.0
 20
0.0
 30
0.0
  9
$PUCSORGBACK
 10
0.0
 20
0.0
 30
0.0
  9
$USERI1
 70
     0
  9
$USERI2
 70
     0
  9
$USERI3
 70
     0
  9
$USERI4
 70
     0
  9
$USERI5
 70
     0
  9
$USERR1
 40
0.0
  9
$USERR2
 40
0.0
  9
$USERR3
 40
0.0
  9
$USERR4
 40
0.0
  9
$USERR5
 40
0.0
  9
$WORLDVIEW
 70
     1
  9
$SHADEDGE
 70
     3
  9
$SHADEDIF
 70
    70
  9
$TILEMODE
 70
     1
  9
$MAXACTVP
 70
    64
  9
$PINSBASE
 10
0.0
 20
0.0
 30
0.0
  9
$PLIMCHECK
 70
     0
  9
$PEXTMIN
 10
1.000000000000000E+20
 20
1.000000000000000E+20
 30
1.000000000000000E+20
  9
$PEXTMAX
 10
-1.000000000000000E+20
 20
-1.000000000000000E+20
 30
-1.000000000000000E+20
  9
$PLIMMIN
 10
0.0
 20
0.0
  9
$PLIMMAX
 10
420.0
 20
297.0
  9
$UNITMODE
 70
     0
  9
$VISRETAIN
 70
     1
  9
$PLINEGEN
 70
     0
  9
$PSLTSCALE
 70
     1
  9
$TREEDEPTH
 70
  3020
  9
$CMLSTYLE
  2
Standard
  9
$CMLJUST
 70
     0
  9
$CMLSCALE
 40
20.0
  9
$PROXYGRAPHICS
 70
     1
  9
$MEASUREMENT
 70
     1
  9
$CELWEIGHT
370
    -1
  9
$ENDCAPS
280
     0
  9
$JOINSTYLE
280
     0
  9
$LWDISPLAY
290
     0
  9
$INSUNITS
 70
     4
  9
$HYPERLINKBASE
  1

  9
$STYLESHEET
  1

  9
$XEDIT
290
     1
  9
$CEPSNTYPE
380
     0
  9
$PSTYLEMODE
290
     1
  9
$FINGERPRINTGUID
  2
{BDC26B30-70C4-439F-8F1A-B1ADA770DA11}
  9
$VERSIONGUID
  2
{FAEB1C32-E019-11D5-929B-00C0DF256EC4}
  9
$EXTNAMES
290
     1
  9
$PSVPSCALE
 40
0.0
  9
$OLESTARTUP
290
     0
  9
$SORTENTS
280
   127
  9
$INDEXCTL
280
     0
  9
$HIDETEXT
280
     1
  9
$XCLIPFRAME
290
     0
  9
$HALOGAP
280
     0
  9
$OBSCOLOR
 70
   257
  9
$OBSLTYPE
280
     0
  9
$INTERSECTIONDISPLAY
280
     0
  9
$INTERSECTIONCOLOR
 70
   257
  9
$DIMASSOC
280
     2
  9
$PROJECTNAME
  1

  0
ENDSEC
  0
SECTION
  2
CLASSES
  0
CLASS
  1
ACDBDICTIONARYWDFLT
  2
AcDbDictionaryWithDefault
  3
ObjectDBX Classes
 90
        0
 91
        4
280
     0
281
     0
  0
CLASS
  1
VISUALSTYLE
  2
AcDbVisualStyle
  3
ObjectDBX Classes
 90
     4095
 91
        4
280
     0
281
     0
  0
ENDSEC
  0
SECTION
  2
TABLES
  0
TABLE
  2
VPORT
  5
8
330
0
100
AcDbSymbolTable
 70
     1
  0
VPORT
  5
29
330
8
100
AcDbSymbolTableRecord
100
AcDbViewportTableRecord
  2
*Active
 70
     0
 10
0.0
 20
0.0
 11
1.0
 21
1.0
 12
0.0
 22
0.0
 13
0.0
 23
0.0
 14
10.0
 24
10.0
 15
10.0
 25
10.0
 16
0.0
 26
0.0
 36
1.0
 17
0.0
 27
0.0
 37
0.0
 40
2286.9
 41
1.414141414141414
 42
50.0
 43
0.0
 44
0.0
 50
0.0
 51
0.0
 71
     0
 72
 10000
 73
     1
 74
     3
 75
     0
 76
     0
 77
     0
 78
     0
281
     0
 65
     1
110
0.0
120
0.0
130
0.0
111
1.0
121
0.0
131
0.0
112
0.0
122
1.0
132
0.0
 79
     0
146
0.0
  0
ENDTAB
  0
TABLE
  2
LTYPE
  5
5
330
0
100
AcDbSymbolTable
 70
     3
  0
LTYPE
  5
14
330
5
100
AcDbSymbolTableRecord
100
AcDbLinetypeTableRecord
  2
ByBlock
 70
     0
  3

 72
    65
 73
     0
 40
0.0
  0
LTYPE
  5
15
330
5
100
AcDbSymbolTableRecord
100
AcDbLinetypeTableRecord
  2
ByLayer
 70
     0
  3

 72
    65
 73
     0
 40
0.0
  0
LTYPE
  5
16
330
5
100
AcDbSymbolTableRecord
100
AcDbLinetypeTableRecord
  2
Continuous
 70
     0
  3
Solid line
 72
    65
 73
     0
 40
0.0
  0
LTYPE
  5
3C
330
5
100
AcDbSymbolTableRecord
100
AcDbLinetypeTableRecord
  2
JWW_DASHED1
 70
     0
  3
-  --  --  --  --  --  --  --  -
 72
    65
 73
     2
 40
1.693333333333333
 49
0.8466666666666667
 74
     0
 49
-0.8466666666666667
 74
     0
  0
LTYPE
  5
3D
330
5
100
AcDbSymbolTableRecord
100
AcDbLinetypeTableRecord
  2
JWW_CENTER1
 70
     0
  3
-----  --  ----------  --  -----
 72
    65
 73
     4
 40
6.773333333333333
 49
4.233333333333333
 74
     0
 49
-0.8466666666666667
 74
     0
 49
0.8466666666666667
 74
     0
 49
-0.8466666666666667
 74
     0
  0
ENDTAB
  0
TABLE
  2
LAYER
  5
2
330
0
100
AcDbSymbolTable
 70
     7
  0
LAYER
  5
10
330
2
100
AcDbSymbolTableRecord
100
AcDbLayerTableRecord
  2
0
 70
     0
 62
     7
  6
Continuous
370
    -3
390
F
  0
LAYER
  5
3E
330
2
100
AcDbSymbolTableRecord
100
AcDbLayerTableRecord
  2
その他
 70
     0
 62
     7
  6
Continuous
370
    -3
390
F
  0
LAYER
  5
3F
330
2
100
AcDbSymbolTableRecord
100
AcDbLayerTableRecord
  2
0-E
 70
     0
 62
     7
  6
Continuous
370
    -3
390
F
  0
LAYER
  5
40
330
2
100
AcDbSymbolTableRecord
100
AcDbLayerTableRecord
  2
躯体
 70
     0
 62
     7
  6
Continuous
370
    -3
390
F
  0
LAYER
  5
41
330
2
100
AcDbSymbolTableRecord
100
AcDbLayerTableRecord
  2
仕上
 70
     0
 62
     7
  6
Continuous
370
    -3
390
F
  0
LAYER
  5
42
330
2
100
AcDbSymbolTableRecord
100
AcDbLayerTableRecord
  2
建具
 70
     0
 62
     7
  6
Continuous
370
    -3
390
F
  0
LAYER
  5
43
330
2
100
AcDbSymbolTableRecord
100
AcDbLayerTableRecord
  2
F-5ﾚｲﾔ
 70
     0
 62
     7
  6
Continuous
370
    -3
390
F
  0
ENDTAB
  0
TABLE
  2
STYLE
  5
3
330
0
100
AcDbSymbolTable
 70
     2
  0
STYLE
  5
11
330
3
100
AcDbSymbolTableRecord
100
AcDbTextStyleTableRecord
  2
Standard
 70
     0
 40
0.0
 41
1.0
 50
0.0
 71
     0
 42
2.5
  3
txt
  4

1001
ACAD
1000

1071
        0
  0
STYLE
  5
3B
330
3
100
AcDbSymbolTableRecord
100
AcDbTextStyleTableRecord
  2
ＭＳ ゴシック
 70
     0
 40
1.0
 41
1.0
 50
0.0
 71
     0
 42
10.0
  3

  4

1001
ACAD
1000
MS Gothic
1071
    32817
  0
ENDTAB
  0
TABLE
  2
VIEW
  5
6
330
0
100
AcDbSymbolTable
 70
     0
  0
ENDTAB
  0
TABLE
  2
UCS
  5
7
330
0
100
AcDbSymbolTable
 70
     0
  0
ENDTAB
  0
TABLE
  2
APPID
  5
9
330
0
100
AcDbSymbolTable
 70
     1
  0
APPID
  5
12
330
9
100
AcDbSymbolTableRecord
100
AcDbRegAppTableRecord
  2
ACAD
 70
     0
  0
ENDTAB
  0
TABLE
  2
DIMSTYLE
  5
A
330
0
100
AcDbSymbolTable
 70
     1
100
AcDbDimStyleTable
  0
DIMSTYLE
105
27
330
A
100
AcDbSymbolTableRecord
100
AcDbDimStyleTableRecord
  2
ISO-25
 70
     0
 41
2.5
 42
0.625
 43
3.75
 44
1.25
 73
     0
 74
     0
 77
     1
 78
     8
140
2.5
141
2.5
143
0.03937007874016
147
0.625
171
     3
172
     1
271
     2
272
     2
274
     3
278
    44
283
     0
284
     8
340
11
  0
ENDTAB
  0
TABLE
  2
BLOCK_RECORD
  5
1
330
0
100
AcDbSymbolTable
 70
     1
  0
BLOCK_RECORD
  5
1F
330
1
100
AcDbSymbolTableRecord
100
AcDbBlockTableRecord
  2
*Model_Space
340
22
  0
BLOCK_RECORD
  5
1B
330
1
100
AcDbSymbolTableRecord
100
AcDbBlockTableRecord
  2
*Paper_Space
340
1E
  0
BLOCK_RECORD
  5
23
330
1
100
AcDbSymbolTableRecord
100
AcDbBlockTableRecord
  2
*Paper_Space0
340
26
  0
ENDTAB
  0
ENDSEC
  0
SECTION
  2
BLOCKS
  0
BLOCK
  5
20
330
1F
100
AcDbEntity
  8
0
100
AcDbBlockBegin
  2
*Model_Space
 70
     0
 10
0.0
 20
0.0
 30
0.0
  3
*Model_Space
  1

  0
ENDBLK
  5
21
330
1F
100
AcDbEntity
  8
0
100
AcDbBlockEnd
  0
BLOCK
  5
1C
330
1B
100
AcDbEntity
 67
     1
  8
0
100
AcDbBlockBegin
  2
*Paper_Space
 70
     0
 10
0.0
 20
0.0
 30
0.0
  3
*Paper_Space
  1

  0
ENDBLK
  5
1D
330
1B
100
AcDbEntity
 67
     1
  8
0
100
AcDbBlockEnd
  0
BLOCK
  5
24
330
23
100
AcDbEntity
  8
0
100
AcDbBlockBegin
  2
*Paper_Space0
 70
     0
 10
0.0
 20
0.0
 30
0.0
  3
*Paper_Space0
  1

  0
ENDBLK
  5
25
330
23
100
AcDbEntity
  8
0
100
AcDbBlockEnd
  0
ENDSEC
  0
SECTION
  2
ENTITIES
  0
LINE
  5
44
330
1F
100
AcDbEntity
  8
その他
  6
Continuous
 62
     7
370
     9
100
AcDbLine
 10
79.20493048590572
 20
526.1700419957448
 30
0.0
 11
81.48910934860646
 21
543.5202749190978
 31
0.0
  0
LINE
  5
45
330
1F
100
AcDbEntity
  8
その他
  6
Continuous
 62
     7
370
     9
100
AcDbLine
 10
79.20493048590572
 20
526.1700419957448
 30
0.0
 11
85.90192640149914
 21
542.3379579585827
 31
0.0
  0
LINE
  5
46
330
1F
100
AcDbEntity
  8
その他
  6
Continuous
 62
     7
370
     9
100
AcDbLine
 10
79.20493048590572
 20
526.1700419957448
 30
0.0
 11
108.5256463128166
 21
635.5965424708293
 31
0.0
  0
LINE
  5
47
330
1F
100
AcDbEntity
  8
その他
  6
Continuous
 62
     7
370
     9
100
AcDbLine
 10
108.5256463128166
 20
635.5965424708293
 30
0.0
 11
506.1632104822107
 21
635.5965424708293
 31
0.0
  0
LINE
  5
48
330
1F
100
AcDbEntity
  8
その他
  6
Continuous
 62
     7
370
     9
100
AcDbLine
 10
439.9998804040857
 20
-18.26890470241818
 30
0.0
 11
439.9998804040857
 21
583.7308297121722
 31
0.0
  0
LINE
  5
49
330
1F
100
AcDbEntity
  8
その他
  6
Continuous
 62
     7
370
     9
100
AcDbLine
 10
27.27010778478675
 20
-18.26890470241818
 30
0.0
 11
442.0998526908255
 21
-18.26890470241818
 31
0.0
  0
LINE
  5
4A
330
1F
100
AcDbEntity
  8
その他
  6
Continuous
 62
     7
370
     9
100
AcDbLine
 10
27.27010778478675
 20
583.7308297121722
 30
0.0
 11
442.0998526908255
 21
583.7308297121722
 31
0.0
  0
LINE
  5
4B
330
1F
100
AcDbEntity
  8
その他
  6
Continuous
 62
     7
370
     9
100
AcDbLine
 10
439.9998804040857
 20
-18.26890470241818
 30
0.0
 11
437.7156149374471
 21
-0.9185851751273333
 31
0.0
  0
LINE
  5
4C
330
1F
100
AcDbEntity
  8
その他
  6
Continuous
 62
     7
370
     9
100
AcDbLine
 10
439.9998804040857
 20
-18.26890470241818
 30
0.0
 11
442.2841458707243
 21
-0.9185851751273333
 31
0.0
  0
LINE
  5
4D
330
1F
100
AcDbEntity
  8
その他
  6
Continuous
 62
     7
370
     9
100
AcDbLine
 10
439.9998804040857
 20
583.7308297121722
 30
0.0
 11
437.7156149374471
 21
566.380596788819
 31
0.0
  0
LINE
  5
4E
330
1F
100
AcDbEntity
  8
その他
  6
Continuous
 62
     7
370
     9
100
AcDbLine
 10
439.9998804040857
 20
583.7308297121722
 30
0.0
 11
442.2841458707243
 21
566.380596788819
 31
0.0
  0
LINE
  5
4F
330
1F
100
AcDbEntity
  8
その他
  6
Continuous
 62
     7
370
     9
100
AcDbLine
 10
-271.4991883973818
 20
-269.2690708994991
 30
0.0
 11
271.4991017934439
 21
-269.2690708994991
 31
0.0
  0
LINE
  5
50
330
1F
100
AcDbEntity
  8
その他
  6
Continuous
 62
     7
370
     9
100
AcDbLine
 10
-271.4991883973818
 20
-329.7691962690092
 30
0.0
 11
-271.4991883973818
 21
-267.1690553107903
 31
0.0
  0
LINE
  5
51
330
1F
100
AcDbEntity
  8
その他
  6
Continuous
 62
     7
370
     9
100
AcDbLine
 10
271.4991017934439
 20
-329.7691096650714
 30
0.0
 11
271.4991017934439
 21
-267.1690553107903
 31
0.0
  0
LINE
  5
52
330
1F
100
AcDbEntity
  8
その他
  6
Continuous
 62
     7
370
     9
100
AcDbLine
 10
-271.4991883973818
 20
-269.2690708994991
 30
0.0
 11
-254.1488688700908
 21
-266.9848487348295
 31
0.0
  0
LINE
  5
53
330
1F
100
AcDbEntity
  8
その他
  6
Continuous
 62
     7
370
     9
100
AcDbLine
 10
-271.4991883973818
 20
-269.2690708994991
 30
0.0
 11
-254.1488688700908
 21
-271.5532930641686
 31
0.0
  0
LINE
  5
54
330
1F
100
AcDbEntity
  8
その他
  6
Continuous
 62
     7
370
     9
100
AcDbLine
 10
271.4991017934439
 20
-269.2690708994991
 30
0.0
 11
254.1487822661528
 21
-266.9848487348295
 31
0.0
  0
LINE
  5
55
330
1F
100
AcDbEntity
  8
その他
  6
Continuous
 62
     7
370
     9
100
AcDbLine
 10
271.4991017934439
 20
-269.2690708994991
 30
0.0
 11
254.1487822661528
 21
-271.5532930641686
 31
0.0
  0
LINE
  5
56
330
1F
100
AcDbEntity
  8
その他
  6
Continuous
 62
     7
370
     9
100
AcDbLine
 10
-319.9999917520059
 20
-213.2691026542764
 30
0.0
 11
320.0001649598817
 21
-213.2691026542764
 31
0.0
  0
LINE
  5
57
330
1F
100
AcDbEntity
  8
その他
  6
Continuous
 62
     7
370
     9
100
AcDbLine
 10
-319.9999917520059
 20
-398.7691517298412
 30
0.0
 11
-319.9999917520059
 21
-211.1690437635986
 31
0.0
  0
LINE
  5
58
330
1F
100
AcDbEntity
  8
その他
  6
Continuous
 62
     7
370
     9
100
AcDbLine
 10
320.0001649598817
 20
-398.7691517298412
 30
0.0
 11
320.0001649598817
 21
-211.1690437635986
 31
0.0
  0
LINE
  5
59
330
1F
100
AcDbEntity
  8
その他
  6
Continuous
 62
     7
370
     9
100
AcDbLine
 10
-319.9999917520059
 20
-213.2691026542764
 30
0.0
 11
-302.649672224715
 21
-210.9848371876378
 31
0.0
  0
LINE
  5
5A
330
1F
100
AcDbEntity
  8
その他
  6
Continuous
 62
     7
370
     9
100
AcDbLine
 10
-319.9999917520059
 20
-213.2691026542764
 30
0.0
 11
-302.649672224715
 21
-215.5532815169769
 31
0.0
  0
LINE
  5
5B
330
1F
100
AcDbEntity
  8
その他
  6
Continuous
 62
     7
370
     9
100
AcDbLine
 10
320.0001649598817
 20
-213.2691026542764
 30
0.0
 11
302.6499320365286
 21
-210.9848371876378
 31
0.0
  0
LINE
  5
5C
330
1F
100
AcDbEntity
  8
その他
  6
Continuous
 62
     7
370
     9
100
AcDbLine
 10
320.0001649598817
 20
-213.2691026542764
 30
0.0
 11
302.6499320365286
 21
-215.5532815169769
 31
0.0
  0
LINE
  5
5D
330
1F
100
AcDbEntity
  8
その他
  6
Continuous
 62
     7
370
     9
100
AcDbLine
 10
-249.9999340160473
 20
-479.269157503437
 30
0.0
 11
250.0002804317989
 21
-479.269157503437
 31
0.0
  0
LINE
  5
5E
330
1F
100
AcDbEntity
  8
その他
  6
Continuous
 62
     7
370
     9
100
AcDbLine
 10
-249.9999340160473
 20
-419.7691344090535
 30
0.0
 11
-249.9999340160473
 21
-481.3691730921458
 31
0.0
  0
LINE
  5
5F
330
1F
100
AcDbEntity
  8
その他
  6
Continuous
 62
     7
370
     9
100
AcDbLine
 10
250.0002804317989
 20
-419.7691344090535
 30
0.0
 11
250.0002804317989
 21
-481.3691730921458
 31
0.0
  0
LINE
  5
60
330
1F
100
AcDbEntity
  8
その他
  6
Continuous
 62
     7
370
     9
100
AcDbLine
 10
-249.9999340160473
 20
-479.269157503437
 30
0.0
 11
-232.6496144887564
 21
-476.9849353387674
 31
0.0
  0
LINE
  5
61
330
1F
100
AcDbEntity
  8
その他
  6
Continuous
 62
     7
370
     9
100
AcDbLine
 10
-249.9999340160473
 20
-479.269157503437
 30
0.0
 11
-232.6496144887564
 21
-481.5533796681066
 31
0.0
  0
LINE
  5
62
330
1F
100
AcDbEntity
  8
その他
  6
Continuous
 62
     7
370
     9
100
AcDbLine
 10
250.0002804317989
 20
-479.269157503437
 30
0.0
 11
232.6499609045081
 21
-476.9849353387674
 31
0.0
  0
LINE
  5
63
330
1F
100
AcDbEntity
  8
その他
  6
Continuous
 62
     7
370
     9
100
AcDbLine
 10
250.0002804317989
 20
-479.269157503437
 30
0.0
 11
232.6499609045081
 21
-481.5533796681066
 31
0.0
  0
LINE
  5
64
330
1F
100
AcDbEntity
  8
その他
  6
Continuous
 62
     7
370
     9
100
AcDbLine
 10
8.74985566010335
 20
-24.76411344265256
 30
0.0
 11
19.40317927180098
 21
-38.64776393885191
 31
0.0
  0
LINE
  5
65
330
1F
100
AcDbEntity
  8
その他
  6
Continuous
 62
     7
370
     9
100
AcDbLine
 10
8.74985566010335
 20
-24.76411344265256
 30
0.0
 11
15.44685157569677
 21
-40.93202940549048
 31
0.0
  0
LINE
  5
66
330
1F
100
AcDbEntity
  8
0-E
  6
Continuous
 62
     7
370
     9
100
AcDbLine
 10
278.9999554608319
 20
-344.4267395544823
 30
0.0
 11
285.6969513764253
 21
-328.2588668936133
 31
0.0
  0
LINE
  5
67
330
1F
100
AcDbEntity
  8
0-E
  6
Continuous
 62
     7
370
     9
100
AcDbLine
 10
278.9999554608319
 20
-344.4267395544823
 30
0.0
 11
289.6532790725295
 21
-330.5430457563139
 31
0.0
  0
LINE
  5
68
330
1F
100
AcDbEntity
  8
0-E
  6
Continuous
 62
     7
370
     9
100
AcDbLine
 10
255.8666579787795
 20
-345.2294281531151
 30
0.0
 11
262.5636538943729
 21
-329.0615554922462
 31
0.0
  0
LINE
  5
69
330
1F
100
AcDbEntity
  8
0-E
  6
Continuous
 62
     7
370
     9
100
AcDbLine
 10
255.8666579787795
 20
-345.2294281531151
 30
0.0
 11
266.5199815904772
 21
-331.3457343549467
 31
0.0
  0
LINE
  5
6A
330
1F
100
AcDbEntity
  8
0-E
  6
Continuous
 62
     7
370
     9
100
AcDbLine
 10
266.1433410644531
 20
-388.7170326552001
 30
0.0
 11
276.7966646761507
 21
-402.6007264533684
 31
0.0
  0
LINE
  5
6B
330
1F
100
AcDbEntity
  8
0-E
  6
Continuous
 62
     7
370
     9
100
AcDbLine
 10
266.1433410644531
 20
-388.7170326552001
 30
0.0
 11
272.8403369800463
 21
-404.884905316069
 31
0.0
  0
LINE
  5
6C
330
1F
100
AcDbEntity
  8
0-E
  6
Continuous
 62
     7
370
     9
100
AcDbLine
 10
6.859897922825212
 20
-489.8360070831193
 30
0.0
 11
17.51322153452284
 21
-503.7197008812875
 31
0.0
  0
LINE
  5
6D
330
1F
100
AcDbEntity
  8
0-E
  6
Continuous
 62
     7
370
     9
100
AcDbLine
 10
6.859897922825212
 20
-489.8360070831193
 30
0.0
 11
13.55689383841843
 21
-506.0038797439881
 31
0.0
  0
LINE
  5
6E
330
1F
100
AcDbEntity
  8
0-E
  6
Continuous
 62
     7
370
     9
100
AcDbLine
 10
-179.070096402555
 20
-342.6262869870466
 30
0.0
 11
-189.7234200142526
 21
-328.7425931888783
 31
0.0
  0
LINE
  5
6F
330
1F
100
AcDbEntity
  8
0-E
  6
Continuous
 62
     7
370
     9
100
AcDbLine
 10
-179.070096402555
 20
-342.6262869870466
 30
0.0
 11
-185.7670923181484
 21
-326.4584143261777
 31
0.0
  0
LINE
  5
70
330
1F
100
AcDbEntity
  8
0-E
  6
Continuous
 62
     7
370
     9
100
AcDbLine
 10
278.9999554608319
 20
-344.4267395544823
 30
0.0
 11
335.5803865999789
 21
-246.4267193468966
 31
0.0
  0
LINE
  5
71
330
1F
100
AcDbEntity
  8
0-E
  6
Continuous
 62
     7
370
     9
100
AcDbLine
 10
255.8666579787795
 20
-345.2294281531151
 30
0.0
 11
361.2931823730469
 21
-162.6253714597029
 31
0.0
  0
LINE
  5
72
330
1F
100
AcDbEntity
  8
0-E
  6
Continuous
 62
     7
370
     9
100
AcDbLine
 10
266.1433410644531
 20
-388.7170326552001
 30
0.0
 11
317.7029955064928
 21
-478.0210648520698
 31
0.0
  0
LINE
  5
73
330
1F
100
AcDbEntity
  8
0-E
  6
Continuous
 62
     7
370
     9
100
AcDbLine
 10
6.859897922825212
 20
-489.8360070831193
 30
0.0
 11
51.61655322925463
 21
-567.3567074862813
 31
0.0
  0
LINE
  5
74
330
1F
100
AcDbEntity
  8
0-E
  6
Continuous
 62
     7
370
     9
100
AcDbLine
 10
-179.070096402555
 20
-342.6262869870466
 30
0.0
 11
-282.4543267327387
 21
-163.5595681380707
 31
0.0
  0
LINE
  5
75
330
1F
100
AcDbEntity
  8
0-E
  6
Continuous
 62
     7
370
     9
100
AcDbLine
 10
361.2931823730469
 20
-162.6253714597029
 30
0.0
 11
529.2937366382495
 21
-162.6253714597029
 31
0.0
  0
LINE
  5
76
330
1F
100
AcDbEntity
  8
0-E
  6
Continuous
 62
     7
370
     9
100
AcDbLine
 10
335.5803865999789
 20
-246.4267193468966
 30
0.0
 11
502.3425911568307
 21
-246.4267193468966
 31
0.0
  0
LINE
  5
77
330
1F
100
AcDbEntity
  8
0-E
  6
Continuous
 62
     7
370
     9
100
AcDbLine
 10
51.61655322925463
 20
-567.3567074862813
 30
0.0
 11
372.8265752019109
 21
-567.3567074862813
 31
0.0
  0
LINE
  5
78
330
1F
100
AcDbEntity
  8
躯体
  6
Continuous
 62
     2
370
     9
100
AcDbLine
 10
319.1225206529772
 20
-402.2852283075174
 30
0.0
 11
320.0001649598817
 21
-408.4266599613393
 31
0.0
  0
LINE
  5
79
330
1F
100
AcDbEntity
  8
躯体
  6
Continuous
 62
     2
370
     9
100
AcDbLine
 10
250.9998630832981
 20
-401.4267234708937
 30
0.0
 11
249.9999340160472
 21
-408.4266599613393
 31
0.0
  0
LINE
  5
7A
330
1F
100
AcDbEntity
  8
躯体
  6
Continuous
 62
     2
370
     9
100
AcDbLine
 10
292.1691234691722
 20
-402.2170277064037
 30
0.0
 11
293.4998795792862
 21
-408.4266599613393
 31
0.0
  0
LINE
  5
7B
330
1F
100
AcDbEntity
  8
躯体
  6
Continuous
 62
     2
370
     9
100
AcDbLine
 10
309.8084403373099
 20
-401.4267234708937
 30
0.0
 11
318.1326376425252
 21
-401.4267234708937
 31
0.0
  0
LINE
  5
7C
330
1F
100
AcDbEntity
  8
躯体
  6
Continuous
 62
     2
370
     9
100
AcDbLine
 10
309.830784153294
 20
-402.2171576123105
 30
0.0
 11
308.5002012510558
 21
-408.4266599613393
 31
0.0
  0
LINE
  5
7D
330
1F
100
AcDbEntity
  8
躯体
  6
JWW_DASHED1
 62
     2
370
     9
100
AcDbLine
 10
307.2931155642948
 20
-403.1338602952181
 30
0.0
 11
308.7070114548142
 21
-401.719531385009
 31
0.0
  0
LINE
  5
7E
330
1F
100
AcDbEntity
  8
躯体
  6
JWW_DASHED1
 62
     2
370
     9
100
AcDbLine
 10
294.4142439558698
 20
-403.4266682093333
 30
0.0
 11
306.5859078072214
 21
-403.4266682093333
 31
0.0
  0
LINE
  5
7F
330
1F
100
AcDbEntity
  8
躯体
  6
JWW_DASHED1
 62
     2
370
     9
100
AcDbLine
 10
292.2927938925252
 20
-401.719531385009
 30
0.0
 11
293.7073826145481
 21
-403.1338602952181
 31
0.0
  0
LINE
  5
80
330
1F
100
AcDbEntity
  8
仕上
  6
JWW_CENTER1
 62
     3
370
     9
100
AcDbLine
 10
0.0
 20
-56.45587188200008
 30
0.0
 11
0.0
 21
621.9176236838783
 31
0.0
  0
LINE
  5
81
330
1F
100
AcDbEntity
  8
躯体
  6
Continuous
 62
     2
370
     9
100
AcDbLine
 10
282.7391670845651
 20
-397.7066946194104
 30
0.0
 11
278.9999554608319
 21
-344.4267395544823
 31
0.0
  0
LINE
  5
82
330
1F
100
AcDbEntity
  8
躯体
  6
Continuous
 62
     2
370
     9
100
AcDbLine
 10
286.7291837125211
 20
-401.4267234708937
 30
0.0
 11
309.8084403373099
 21
-401.4262471492352
 31
0.0
  0
LINE
  5
83
330
1F
100
AcDbEntity
  8
躯体
  6
Continuous
 62
     2
370
     9
100
AcDbLine
 10
-319.1225206529772
 20
-402.2852283075174
 30
0.0
 11
-319.9999917520059
 21
-408.4266599613393
 31
0.0
  0
LINE
  5
84
330
1F
100
AcDbEntity
  8
躯体
  6
Continuous
 62
     2
370
     9
100
AcDbLine
 10
-250.9998630832982
 20
-401.4267234708937
 30
0.0
 11
-249.9999340160473
 21
-408.4266599613393
 31
0.0
  0
LINE
  5
85
330
1F
100
AcDbEntity
  8
躯体
  6
Continuous
 62
     2
370
     9
100
AcDbLine
 10
-292.1691234691723
 20
-402.2170277064037
 30
0.0
 11
-293.4998795792864
 21
-408.4266599613393
 31
0.0
  0
LINE
  5
86
330
1F
100
AcDbEntity
  8
躯体
  6
Continuous
 62
     2
370
     9
100
AcDbLine
 10
-309.80844033731
 20
-401.4267234708937
 30
0.0
 11
-318.1326376425254
 21
-401.4267234708937
 31
0.0
  0
LINE
  5
87
330
1F
100
AcDbEntity
  8
躯体
  6
Continuous
 62
     2
370
     9
100
AcDbLine
 10
-309.830784153294
 20
-402.2171576123105
 30
0.0
 11
-308.50002804318
 21
-408.4266599613393
 31
0.0
  0
LINE
  5
88
330
1F
100
AcDbEntity
  8
躯体
  6
JWW_DASHED1
 62
     2
370
     9
100
AcDbLine
 10
-307.292942356419
 20
-403.1338602952181
 30
0.0
 11
-308.7070114548142
 21
-401.719531385009
 31
0.0
  0
LINE
  5
89
330
1F
100
AcDbEntity
  8
躯体
  6
JWW_DASHED1
 62
     2
370
     9
100
AcDbLine
 10
-294.41424395587
 20
-403.4266682093333
 30
0.0
 11
-306.5857345993455
 21
-403.4266682093333
 31
0.0
  0
LINE
  5
8A
330
1F
100
AcDbEntity
  8
躯体
  6
JWW_DASHED1
 62
     2
370
     9
100
AcDbLine
 10
-292.2927938925254
 20
-401.719531385009
 30
0.0
 11
-293.7072094066723
 21
-403.1338602952181
 31
0.0
  0
LINE
  5
8B
330
1F
100
AcDbEntity
  8
躯体
  6
Continuous
 62
     2
370
     9
100
AcDbLine
 10
-286.7291837125212
 20
-401.4267234708937
 30
0.0
 11
-309.80844033731
 21
-401.4262471492352
 31
0.0
  0
LINE
  5
8C
330
1F
100
AcDbEntity
  8
仕上
  6
JWW_CENTER1
 62
     3
370
     9
100
AcDbLine
 10
-339.1865745750633
 20
282.7308759009392
 30
0.0
 11
339.1867477829392
 21
282.7308759009392
 31
0.0
  0
LINE
  5
8D
330
1F
100
AcDbEntity
  8
仕上
  6
Continuous
 62
     3
370
     9
100
AcDbLine
 10
-271.4998812288852
 20
-345.4260623941676
 30
0.0
 11
-269.954174144848
 21
-356.4258883614924
 31
0.0
  0
LINE
  5
8E
330
1F
100
AcDbEntity
  8
仕上
  6
Continuous
 62
     3
370
     9
100
AcDbLine
 10
-136.0055954391892
 20
-346.7032972706456
 30
0.0
 11
-135.5869520032728
 21
-366.2037760667025
 31
0.0
  0
LINE
  5
8F
330
1F
100
AcDbEntity
  8
仕上
  6
Continuous
 62
     3
370
     9
100
AcDbLine
 10
-185.9940812394427
 20
-347.7760602496891
 30
0.0
 11
-185.5756110114021
 21
-367.2766689516528
 31
0.0
  0
LINE
  5
90
330
1F
100
AcDbEntity
  8
仕上
  6
Continuous
 62
     3
370
     9
100
AcDbLine
 10
-155.0570761190879
 20
-391.1221972191781
 30
0.0
 11
-165.0546347128379
 21
-391.3368450793186
 31
0.0
  0
LINE
  5
91
330
1F
100
AcDbEntity
  8
仕上
  6
Continuous
 62
     3
370
     9
100
AcDbLine
 10
-154.354891390414
 20
-397.1085645221501
 30
0.0
 11
-165.4990861222552
 21
-397.3477212967225
 31
0.0
  0
LINE
  5
92
330
1F
100
AcDbEntity
  8
仕上
  6
Continuous
 62
     3
370
     9
100
AcDbLine
 10
-207.1812150285052
 20
-343.372596422092
 30
0.0
 11
-210.0365468618032
 21
-348.3917276443788
 31
0.0
  0
LINE
  5
93
330
1F
100
AcDbEntity
  8
仕上
  6
Continuous
 62
     3
370
     9
100
AcDbLine
 10
-200.1205691775761
 20
-343.1806820956562
 30
0.0
 11
-200.0152587890625
 21
-348.0770522359381
 31
0.0
  0
LINE
  5
94
330
1F
100
AcDbEntity
  8
仕上
  6
Continuous
 62
     3
370
     9
100
AcDbLine
 10
-193.0983754750845
 20
-342.9965188216644
 30
0.0
 11
-192.9925454629435
 21
-347.9263180819843
 31
0.0
  0
LINE
  5
95
330
1F
100
AcDbEntity
  8
仕上
  6
Continuous
 62
     3
370
     9
100
AcDbLine
 10
-129.113307643581
 20
-341.6217246091169
 30
0.0
 11
-129.0074776314401
 21
-346.5529095324436
 31
0.0
  0
LINE
  5
96
330
1F
100
AcDbEntity
  8
仕上
  6
Continuous
 62
     3
370
     9
100
AcDbLine
 10
-119.0085333746834
 20
-346.3908735645909
 30
0.0
 11
-122.0751788165119
 21
-341.5038566496046
 31
0.0
  0
LINE
  5
97
330
1F
100
AcDbEntity
  8
仕上
  6
Continuous
 62
     3
370
     9
100
AcDbLine
 10
-249.9999340160473
 20
-344.6782373902086
 30
0.0
 11
-247.0001468142948
 21
-349.5813193356794
 31
0.0
  0
LINE
  5
98
330
1F
100
AcDbEntity
  8
仕上
  6
Continuous
 62
     3
370
     9
100
AcDbLine
 10
-269.803829708615
 20
-356.4258883614924
 30
0.0
 11
-269.954174144848
 21
-356.4258883614924
 31
0.0
  0
LINE
  5
99
330
1F
100
AcDbEntity
  8
仕上
  6
Continuous
 62
     3
370
     9
100
AcDbLine
 10
-191.7333242055532
 20
-359.9950531531151
 30
0.0
 11
-191.574319375528
 21
-367.4054057053743
 31
0.0
  0
LINE
  5
9A
330
1F
100
AcDbEntity
  8
仕上
  6
Continuous
 62
     3
370
     9
100
AcDbLine
 10
-129.7475948849241
 20
-358.6638207213424
 30
0.0
 11
-129.5885900548987
 21
-366.0750393129809
 31
0.0
  0
LINE
  5
9B
330
1F
100
AcDbEntity
  8
仕上
  6
Continuous
 62
     3
370
     9
100
AcDbLine
 10
-248.0783658414274
 20
-373.5109400269273
 30
0.0
 11
-190.8329896669131
 21
-373.5109400269273
 31
0.0
  0
LINE
  5
9C
330
1F
100
AcDbEntity
  8
仕上
  6
Continuous
 62
     3
370
     9
100
AcDbLine
 10
-81.5649743982263
 20
-372.5807704316729
 30
0.0
 11
-82.67714216902456
 21
-356.6759139302741
 31
0.0
  0
LINE
  5
9D
330
1F
100
AcDbEntity
  8
仕上
  6
Continuous
 62
     3
370
     9
100
AcDbLine
 10
-73.43494312183276
 20
-372.5807704316729
 30
0.0
 11
-72.30805268158792
 21
-356.465293153247
 31
0.0
  0
LINE
  5
9E
330
1F
100
AcDbEntity
  8
建具
  6
Continuous
 62
     4
370
     9
100
AcDbLine
 10
-192.0109764305321
 20
-346.9050411440356
 30
0.0
 11
-191.9894986539274
 21
-347.9046237955348
 31
0.0
  0
LINE
  5
9F
330
1F
100
AcDbEntity
  8
建具
  6
Continuous
 62
     4
370
     9
100
AcDbLine
 10
-130.025247109903
 20
-345.5745448457354
 30
0.0
 11
-130.0035961254224
 21
-346.5743007051104
 31
0.0
  0
LINE
  5
A0
330
1F
100
AcDbEntity
  8
建具
  6
Continuous
 62
     4
370
     9
100
AcDbLine
 10
-185.5153346706082
 20
-360.7687294325439
 30
0.0
 11
-135.92678585568
 21
-359.7043237335099
 31
0.0
  0
LINE
  5
A1
330
1F
100
AcDbEntity
  8
建具
  6
Continuous
 62
     4
370
     9
100
AcDbLine
 10
-141.1119368269638
 20
-341.8115604410426
 30
0.0
 11
-181.102864033467
 21
-342.6699353717594
 31
0.0
  0
LINE
  5
A2
330
1F
100
AcDbEntity
  8
建具
  6
Continuous
 62
     4
370
     9
100
AcDbLine
 10
-141.1119368269638
 20
-341.8115604410426
 30
0.0
 11
-141.090459050359
 21
-342.8113163004176
 31
0.0
  0
LINE
  5
A3
330
1F
100
AcDbEntity
  8
建具
  6
Continuous
 62
     4
370
     9
100
AcDbLine
 10
-181.102864033467
 20
-342.6699353717594
 30
0.0
 11
-181.0812130489866
 21
-343.6695613252276
 31
0.0
  0
LINE
  5
A4
330
1F
100
AcDbEntity
  8
建具
  6
Continuous
 62
     4
370
     9
100
AcDbLine
 10
-135.8663363070101
 20
-353.1926602450702
 30
0.0
 11
-135.92678585568
 21
-359.7043237335099
 31
0.0
  0
LINE
  5
A5
330
1F
100
AcDbEntity
  8
仕上
  6
Continuous
 62
     3
370
     9
100
AcDbLine
 10
-130.0035961254224
 20
-346.5743007051104
 30
0.0
 11
-129.0074776314401
 21
-346.5529095324436
 31
0.0
  0
LINE
  5
A6
330
1F
100
AcDbEntity
  8
仕上
  6
Continuous
 62
     3
370
     9
100
AcDbLine
 10
-200.0152587890625
 20
-348.0770522359381
 30
0.0
 11
-191.9894986539274
 21
-347.9047970034106
 31
0.0
  0
LINE
  5
A7
330
1F
100
AcDbEntity
  8
建具
  6
Continuous
 62
     4
370
     9
100
AcDbLine
 10
-185.8546488993877
 20
-354.2756857907576
 30
0.0
 11
-185.5153346706082
 21
-360.7687294325439
 31
0.0
  0
LINE
  5
A8
330
1F
100
AcDbEntity
  8
仕上
  6
Continuous
 62
     3
370
     9
100
AcDbLine
 10
136.0055954391892
 20
-346.7030374588318
 30
0.0
 11
135.5869520032728
 21
-366.2034729529198
 31
0.0
  0
LINE
  5
A9
330
1F
100
AcDbEntity
  8
仕上
  6
Continuous
 62
     3
370
     9
100
AcDbLine
 10
185.9940812394425
 20
-347.7757571359064
 30
0.0
 11
185.5757842192778
 21
-367.2763658378701
 31
0.0
  0
LINE
  5
AA
330
1F
100
AcDbEntity
  8
仕上
  6
Continuous
 62
     3
370
     9
100
AcDbLine
 10
155.0570761190877
 20
-391.1218941053954
 30
0.0
 11
165.0546347128377
 21
-391.3365419655358
 31
0.0
  0
LINE
  5
AB
330
1F
100
AcDbEntity
  8
仕上
  6
Continuous
 62
     3
370
     9
100
AcDbLine
 10
154.3552378061655
 20
-397.1082614083674
 30
0.0
 11
165.499086122255
 21
-397.3474181829397
 31
0.0
  0
LINE
  5
AC
330
1F
100
AcDbEntity
  8
仕上
  6
Continuous
 62
     3
370
     9
100
AcDbLine
 10
207.181215028505
 20
-343.3721201004334
 30
0.0
 11
210.0363736539274
 21
-348.3912946246891
 31
0.0
  0
LINE
  5
AD
330
1F
100
AcDbEntity
  8
仕上
  6
Continuous
 62
     3
370
     9
100
AcDbLine
 10
200.1205691775761
 20
-343.1802490759666
 30
0.0
 11
200.0152587890625
 21
-348.0766192162484
 31
0.0
  0
LINE
  5
AE
330
1F
100
AcDbEntity
  8
仕上
  6
Continuous
 62
     3
370
     9
100
AcDbLine
 10
193.0983754750845
 20
-342.9962157078817
 30
0.0
 11
192.9925454629433
 21
-347.9258850622948
 31
0.0
  0
LINE
  5
AF
330
1F
100
AcDbEntity
  8
仕上
  6
Continuous
 62
     3
370
     9
100
AcDbLine
 10
129.1131344357052
 20
-341.62159470321
 30
0.0
 11
129.0074776314401
 21
-346.5527363245677
 31
0.0
  0
LINE
  5
B0
330
1F
100
AcDbEntity
  8
仕上
  6
Continuous
 62
     3
370
     9
100
AcDbLine
 10
119.0087065825591
 20
-346.3907436586841
 30
0.0
 11
122.075005608636
 21
-341.5037267436978
 31
0.0
  0
LINE
  5
B1
330
1F
100
AcDbEntity
  8
仕上
  6
Continuous
 62
     3
370
     9
100
AcDbLine
 10
191.7333242055532
 20
-359.9946201334254
 30
0.0
 11
191.5743193755278
 21
-367.4051025915916
 31
0.0
  0
LINE
  5
B2
330
1F
100
AcDbEntity
  8
仕上
  6
Continuous
 62
     3
370
     9
100
AcDbLine
 10
129.7475948849239
 20
-358.6635176075597
 30
0.0
 11
129.5885900548987
 21
-366.0747795011671
 31
0.0
  0
LINE
  5
B3
330
1F
100
AcDbEntity
  8
仕上
  6
Continuous
 62
     3
370
     9
100
AcDbLine
 10
248.0785390493032
 20
-373.5105070072377
 30
0.0
 11
190.8331628747888
 21
-373.5106369131446
 31
0.0
  0
LINE
  5
B4
330
1F
100
AcDbEntity
  8
仕上
  6
Continuous
 62
     3
370
     9
100
AcDbLine
 10
81.5649743982263
 20
-372.5804673178901
 30
0.0
 11
82.67714216902436
 21
-356.6757840243671
 31
0.0
  0
LINE
  5
B5
330
1F
100
AcDbEntity
  8
仕上
  6
Continuous
 62
     3
370
     9
100
AcDbLine
 10
73.43494312183276
 20
-372.580597223797
 30
0.0
 11
72.30805268158772
 21
-356.4651632473401
 31
0.0
  0
LINE
  5
B6
330
1F
100
AcDbEntity
  8
建具
  6
Continuous
 62
     4
370
     9
100
AcDbLine
 10
192.0109764305321
 20
-346.9045648223771
 30
0.0
 11
191.9894986539274
 21
-347.9043206817521
 31
0.0
  0
LINE
  5
B7
330
1F
100
AcDbEntity
  8
建具
  6
Continuous
 62
     4
370
     9
100
AcDbLine
 10
130.0252471099028
 20
-345.5742417319526
 30
0.0
 11
130.0037693332981
 21
-346.5739975913276
 31
0.0
  0
LINE
  5
B8
330
1F
100
AcDbEntity
  8
建具
  6
Continuous
 62
     4
370
     9
100
AcDbLine
 10
185.515334670608
 20
-360.7684263187612
 30
0.0
 11
135.92678585568
 21
-359.7040206197272
 31
0.0
  0
LINE
  5
B9
330
1F
100
AcDbEntity
  8
建具
  6
Continuous
 62
     4
370
     9
100
AcDbLine
 10
141.1119368269636
 20
-341.8112573272599
 30
0.0
 11
181.102864033467
 21
-342.6696755599456
 31
0.0
  0
LINE
  5
BA
330
1F
100
AcDbEntity
  8
建具
  6
Continuous
 62
     4
370
     9
100
AcDbLine
 10
141.1119368269636
 20
-341.8112573272599
 30
0.0
 11
141.0906322582347
 21
-342.8110131866349
 31
0.0
  0
LINE
  5
BB
330
1F
100
AcDbEntity
  8
建具
  6
Continuous
 62
     4
370
     9
100
AcDbLine
 10
181.102864033467
 20
-342.6696755599456
 30
0.0
 11
181.0812130489864
 21
-343.6692582114448
 31
0.0
  0
LINE
  5
BC
330
1F
100
AcDbEntity
  8
建具
  6
Continuous
 62
     4
370
     9
100
AcDbLine
 10
135.866509514886
 20
-353.1923571312875
 30
0.0
 11
135.92678585568
 21
-359.7040206197272
 31
0.0
  0
LINE
  5
BD
330
1F
100
AcDbEntity
  8
仕上
  6
Continuous
 62
     3
370
     9
100
AcDbLine
 10
130.0037693332981
 20
-346.5741274972345
 30
0.0
 11
129.0074776314401
 21
-346.5527363245677
 31
0.0
  0
LINE
  5
BE
330
1F
100
AcDbEntity
  8
仕上
  6
Continuous
 62
     3
370
     9
100
AcDbLine
 10
200.0152587890625
 20
-348.0766192162484
 30
0.0
 11
191.9894986539274
 21
-347.9043206817521
 31
0.0
  0
LINE
  5
BF
330
1F
100
AcDbEntity
  8
建具
  6
Continuous
 62
     4
370
     9
100
AcDbLine
 10
185.8546488993877
 20
-354.2753826769749
 30
0.0
 11
185.515334670608
 21
-360.7684263187612
 31
0.0
  0
LINE
  5
C0
330
1F
100
AcDbEntity
  8
仕上
  6
Continuous
 62
     3
370
     9
100
AcDbLine
 10
-267.3051328916808
 20
-364.9272340217278
 30
0.0
 11
-268.3185721732475
 21
-357.7171530759138
 31
0.0
  0
LINE
  5
C1
330
1F
100
AcDbEntity
  8
仕上
  6
Continuous
 62
     3
370
     9
100
AcDbLine
 10
-267.3051328916808
 20
-364.9272340217278
 30
0.0
 11
-260.9995001715583
 21
-364.9272340217278
 31
0.0
  0
LINE
  5
C2
330
1F
100
AcDbEntity
  8
仕上
  6
Continuous
 62
     3
370
     9
100
AcDbLine
 10
-260.9995001715583
 20
-364.9272340217278
 30
0.0
 11
-260.9995001715583
 21
-389.9271061778194
 31
0.0
  0
LINE
  5
C3
330
1F
100
AcDbEntity
  8
仕上
  6
Continuous
 62
     3
370
     9
100
AcDbLine
 10
-263.7916111301732
 20
-389.9271061778194
 30
0.0
 11
-260.9995001715583
 21
-389.9271061778194
 31
0.0
  0
LINE
  5
C4
330
1F
100
AcDbEntity
  8
仕上
  6
Continuous
 62
     3
370
     9
100
AcDbLine
 10
-262.1754084406672
 20
-401.4271564905833
 30
0.0
 11
-263.7916111301732
 21
-389.9271061778194
 31
0.0
  0
LINE
  5
C5
330
1F
100
AcDbEntity
  8
仕上
  6
Continuous
 62
     3
370
     9
100
AcDbLine
 10
-262.1754084406672
 20
-401.4271564905833
 30
0.0
 11
-254.5613634264147
 21
-401.4271564905833
 31
0.0
  0
LINE
  5
C6
330
1F
100
AcDbEntity
  8
仕上
  6
Continuous
 62
     3
370
     9
100
AcDbLine
 10
-251.916132746516
 20
-360.2649976276188
 30
0.0
 11
-254.5613634264147
 21
-401.4271564905833
 31
0.0
  0
LINE
  5
C7
330
1F
100
AcDbEntity
  8
仕上
  6
Continuous
 62
     3
370
     9
100
AcDbLine
 10
271.4998812288851
 20
-345.425586072509
 30
0.0
 11
269.9541741448479
 21
-356.4254553418027
 31
0.0
  0
LINE
  5
C8
330
1F
100
AcDbEntity
  8
仕上
  6
Continuous
 62
     3
370
     9
100
AcDbLine
 10
249.9999340160472
 20
-344.6776311626431
 30
0.0
 11
247.0003200221705
 21
-349.5808430140208
 31
0.0
  0
LINE
  5
C9
330
1F
100
AcDbEntity
  8
仕上
  6
Continuous
 62
     3
370
     9
100
AcDbLine
 10
269.8038297086149
 20
-356.4254553418027
 30
0.0
 11
269.9541741448479
 21
-356.4254553418027
 31
0.0
  0
LINE
  5
CA
330
1F
100
AcDbEntity
  8
仕上
  6
Continuous
 62
     3
370
     9
100
AcDbLine
 10
267.3051328916808
 20
-364.9266710961313
 30
0.0
 11
268.3185721732474
 21
-357.7166767542552
 31
0.0
  0
LINE
  5
CB
330
1F
100
AcDbEntity
  8
仕上
  6
Continuous
 62
     3
370
     9
100
AcDbLine
 10
267.3051328916808
 20
-364.9266710961313
 30
0.0
 11
260.9996733794341
 21
-364.9266710961313
 31
0.0
  0
LINE
  5
CC
330
1F
100
AcDbEntity
  8
仕上
  6
Continuous
 62
     3
370
     9
100
AcDbLine
 10
260.9996733794341
 20
-364.9266710961313
 30
0.0
 11
260.9996733794341
 21
-389.9266731581298
 31
0.0
  0
LINE
  5
CD
330
1F
100
AcDbEntity
  8
仕上
  6
Continuous
 62
     3
370
     9
100
AcDbLine
 10
263.7919575459248
 20
-389.9266731581298
 30
0.0
 11
260.9996733794341
 21
-389.9266731581298
 31
0.0
  0
LINE
  5
CE
330
1F
100
AcDbEntity
  8
仕上
  6
Continuous
 62
     3
370
     9
100
AcDbLine
 10
262.1755816485431
 20
-401.4267234708937
 30
0.0
 11
263.7919575459248
 21
-389.9266731581298
 31
0.0
  0
LINE
  5
CF
330
1F
100
AcDbEntity
  8
仕上
  6
Continuous
 62
     3
370
     9
100
AcDbLine
 10
262.1755816485431
 20
-401.4267234708937
 30
0.0
 11
254.5613634264147
 21
-401.4267234708937
 31
0.0
  0
LINE
  5
D0
330
1F
100
AcDbEntity
  8
仕上
  6
Continuous
 62
     3
370
     9
100
AcDbLine
 10
251.916132746516
 20
-360.2643914000533
 30
0.0
 11
254.5613634264147
 21
-401.4267234708937
 31
0.0
  0
LINE
  5
D1
330
1F
100
AcDbEntity
  8
建具
  6
Continuous
 62
     4
370
     9
100
AcDbLine
 10
-260.9995001715583
 20
-364.9272340217278
 30
0.0
 11
-260.9995001715583
 21
-389.9271061778194
 31
0.0
  0
LINE
  5
D2
330
1F
100
AcDbEntity
  8
建具
  6
Continuous
 62
     4
370
     9
100
AcDbLine
 10
-266.2184266786318
 20
-366.9272220621364
 30
0.0
 11
-263.2669644742399
 21
-387.9271614393798
 31
0.0
  0
LINE
  5
D3
330
1F
100
AcDbEntity
  8
建具
  6
Continuous
 62
     4
370
     9
100
AcDbLine
 10
-264.35696163693
 20
-364.9272340217278
 30
0.0
 11
-260.9995001715583
 21
-364.9272340217278
 31
0.0
  0
LINE
  5
D4
330
1F
100
AcDbEntity
  8
建具
  6
Continuous
 62
     4
370
     9
100
AcDbLine
 10
-262.5299649625211
 20
-389.9271061778194
 30
0.0
 11
-260.9995001715583
 21
-389.9271061778194
 31
0.0
  0
LINE
  5
D5
330
1F
100
AcDbEntity
  8
建具
  6
Continuous
 62
     4
370
     9
100
AcDbLine
 10
-266.3630552549621
 20
-366.9272220621364
 30
0.0
 11
-266.2184266786318
 21
-366.9272220621364
 31
0.0
  0
LINE
  5
D6
330
1F
100
AcDbEntity
  8
建具
  6
Continuous
 62
     4
370
     9
100
AcDbLine
 10
-263.5524110536318
 20
-387.9271614393798
 30
0.0
 11
-263.2669644742399
 21
-387.9271614393798
 31
0.0
  0
LINE
  5
D7
330
1F
100
AcDbEntity
  8
建具
  6
Continuous
 62
     4
370
     9
100
AcDbLine
 10
-264.0474391627957
 20
-387.4968264718439
 30
0.0
 11
-266.8582565720017
 21
-367.4968161618513
 31
0.0
  0
LINE
  5
D8
330
1F
100
AcDbEntity
  8
建具
  6
Continuous
 62
     4
370
     9
100
AcDbLine
 10
-270.3395616686022
 20
-370.471834637358
 30
0.0
 11
-268.1554103542019
 21
-386.0136907329556
 31
0.0
  0
LINE
  5
D9
330
1F
100
AcDbEntity
  8
建具
  6
Continuous
 62
     4
370
     9
100
AcDbLine
 10
260.9996733794341
 20
-364.9272340217278
 30
0.0
 11
260.9996733794341
 21
-389.9271061778194
 31
0.0
  0
LINE
  5
DA
330
1F
100
AcDbEntity
  8
建具
  6
Continuous
 62
     4
370
     9
100
AcDbLine
 10
266.2184266786317
 20
-366.9272220621364
 30
0.0
 11
263.2669644742399
 21
-387.9271614393798
 31
0.0
  0
LINE
  5
DB
330
1F
100
AcDbEntity
  8
建具
  6
Continuous
 62
     4
370
     9
100
AcDbLine
 10
264.3571348448058
 20
-364.9272340217278
 30
0.0
 11
260.9996733794341
 21
-364.9272340217278
 31
0.0
  0
LINE
  5
DC
330
1F
100
AcDbEntity
  8
建具
  6
Continuous
 62
     4
370
     9
100
AcDbLine
 10
262.5299649625211
 20
-389.9271061778194
 30
0.0
 11
260.9996733794341
 21
-389.9271061778194
 31
0.0
  0
LINE
  5
DD
330
1F
100
AcDbEntity
  8
建具
  6
Continuous
 62
     4
370
     9
100
AcDbLine
 10
266.3630552549621
 20
-366.9272220621364
 30
0.0
 11
266.2184266786317
 21
-366.9272220621364
 31
0.0
  0
LINE
  5
DE
330
1F
100
AcDbEntity
  8
建具
  6
Continuous
 62
     4
370
     9
100
AcDbLine
 10
263.5524110536317
 20
-387.9271614393798
 30
0.0
 11
263.2669644742399
 21
-387.9271614393798
 31
0.0
  0
LINE
  5
DF
330
1F
100
AcDbEntity
  8
建具
  6
Continuous
 62
     4
370
     9
100
AcDbLine
 10
264.0476123706713
 20
-387.4968264718439
 30
0.0
 11
266.8584297798776
 21
-367.4968161618513
 31
0.0
  0
LINE
  5
E0
330
1F
100
AcDbEntity
  8
建具
  6
Continuous
 62
     4
370
     9
100
AcDbLine
 10
270.3399080843539
 20
-370.471834637358
 30
0.0
 11
268.1554103542018
 21
-386.0136907329556
 31
0.0
  0
LINE
  5
E1
330
1F
100
AcDbEntity
  8
仕上
  6
Continuous
 62
     3
370
     9
100
AcDbLine
 10
-86.50001319679052
 20
201.2307678522166
 30
0.0
 11
-233.1999825142526
 21
201.2307678522166
 31
0.0
  0
LINE
  5
E2
330
1F
100
AcDbEntity
  8
仕上
  6
Continuous
 62
     3
370
     9
100
AcDbLine
 10
-81.5000214447847
 20
196.2308627041486
 30
0.0
 11
-81.5000214447847
 21
49.53080678274853
 31
0.0
  0
LINE
  5
E3
330
1F
100
AcDbEntity
  8
仕上
  6
Continuous
 62
     3
370
     9
100
AcDbLine
 10
-68.5000775311444
 20
209.2308932217267
 30
0.0
 11
68.5000775311444
 21
209.2308932217267
 31
0.0
  0
LINE
  5
E4
330
1F
100
AcDbEntity
  8
仕上
  6
Continuous
 62
     3
370
     9
100
AcDbLine
 10
-68.5000775311444
 20
201.2307678522166
 30
0.0
 11
68.5000775311444
 21
201.2307678522166
 31
0.0
  0
LINE
  5
E5
330
1F
100
AcDbEntity
  8
仕上
  6
Continuous
 62
     3
370
     9
100
AcDbLine
 10
-73.49989607527456
 20
214.2308849737326
 30
0.0
 11
-73.49989607527456
 21
282.7308759009392
 31
0.0
  0
LINE
  5
E6
330
1F
100
AcDbEntity
  8
仕上
  6
Continuous
 62
     3
370
     9
100
AcDbLine
 10
-81.5000214447847
 20
214.2308849737326
 30
0.0
 11
-81.5000214447847
 21
282.7308759009392
 31
0.0
  0
LINE
  5
E7
330
1F
100
AcDbEntity
  8
仕上
  6
Continuous
 62
     3
370
     9
100
AcDbLine
 10
-19.9999670080237
 20
341.731021065635
 30
0.0
 11
-19.9999670080237
 21
323.7309121921131
 31
0.0
  0
LINE
  5
E8
330
1F
100
AcDbEntity
  8
仕上
  6
Continuous
 62
     3
370
     9
100
AcDbLine
 10
-65.99999505120365
 20
341.731021065635
 30
0.0
 11
-65.99999505120365
 21
323.7309121921131
 31
0.0
  0
LINE
  5
E9
330
1F
100
AcDbEntity
  8
仕上
  6
Continuous
 62
     3
370
     9
100
AcDbLine
 10
-65.99999505120365
 20
323.7309121921131
 30
0.0
 11
-25.99988782728039
 21
323.7309121921131
 31
0.0
  0
LINE
  5
EA
330
1F
100
AcDbEntity
  8
仕上
  6
Continuous
 62
     3
370
     9
100
AcDbLine
 10
-25.99988782728039
 20
341.731021065635
 30
0.0
 11
-25.99988782728039
 21
323.7309121921131
 31
0.0
  0
LINE
  5
EB
330
1F
100
AcDbEntity
  8
仕上
  6
Continuous
 62
     3
370
     9
100
AcDbLine
 10
-65.99999505120365
 20
341.731021065635
 30
0.0
 11
-25.99988782728039
 21
341.731021065635
 31
0.0
  0
LINE
  5
EC
330
1F
100
AcDbEntity
  8
仕上
  6
Continuous
 62
     3
370
     9
100
AcDbLine
 10
-111.9998498865077
 20
323.7309121921131
 30
0.0
 11
-71.99991587046034
 21
323.7309121921131
 31
0.0
  0
LINE
  5
ED
330
1F
100
AcDbEntity
  8
仕上
  6
Continuous
 62
     3
370
     9
100
AcDbLine
 10
-111.9998498865077
 20
341.731021065635
 30
0.0
 11
-71.99991587046034
 21
341.731021065635
 31
0.0
  0
LINE
  5
EE
330
1F
100
AcDbEntity
  8
仕上
  6
Continuous
 62
     3
370
     9
100
AcDbLine
 10
-41.99996535842479
 20
348.7308709521426
 30
0.0
 11
-41.99996535842479
 21
366.7311530335404
 31
0.0
  0
LINE
  5
EF
330
1F
100
AcDbEntity
  8
仕上
  6
Continuous
 62
     3
370
     9
100
AcDbLine
 10
-36.99997360641896
 20
348.7308709521426
 30
0.0
 11
-36.99997360641896
 21
366.7311530335404
 31
0.0
  0
LINE
  5
F0
330
1F
100
AcDbEntity
  8
仕上
  6
Continuous
 62
     3
370
     9
100
AcDbLine
 10
-49.99991752005926
 20
348.7308709521426
 30
0.0
 11
-49.99991752005926
 21
366.7311530335404
 31
0.0
  0
LINE
  5
F1
330
1F
100
AcDbEntity
  8
仕上
  6
Continuous
 62
     3
370
     9
100
AcDbLine
 10
-55.00008247994094
 20
348.7308709521426
 30
0.0
 11
-55.00008247994094
 21
366.7311530335404
 31
0.0
  0
LINE
  5
F2
330
1F
100
AcDbEntity
  8
仕上
  6
Continuous
 62
     3
370
     9
100
AcDbLine
 10
-49.99991752005926
 20
366.7311530335404
 30
0.0
 11
-41.99996535842479
 21
366.7311530335404
 31
0.0
  0
LINE
  5
F3
330
1F
100
AcDbEntity
  8
仕上
  6
Continuous
 62
     3
370
     9
100
AcDbLine
 10
-49.99991752005926
 20
348.7308709521426
 30
0.0
 11
-41.99996535842479
 21
348.7308709521426
 31
0.0
  0
LINE
  5
F4
330
1F
100
AcDbEntity
  8
仕上
  6
Continuous
 62
     3
370
     9
100
AcDbLine
 10
-82.99982844172305
 20
366.7311530335404
 30
0.0
 11
-55.00008247994094
 21
366.7311530335404
 31
0.0
  0
LINE
  5
F5
330
1F
100
AcDbEntity
  8
仕上
  6
Continuous
 62
     3
370
     9
100
AcDbLine
 10
-82.99982844172305
 20
348.7308709521426
 30
0.0
 11
-55.00008247994094
 21
348.7308709521426
 31
0.0
  0
LINE
  5
F6
330
1F
100
AcDbEntity
  8
仕上
  6
Continuous
 62
     3
370
     9
100
AcDbLine
 10
-3.999889476879304
 20
348.7308709521426
 30
0.0
 11
-3.999889476879304
 21
366.7311530335404
 31
0.0
  0
LINE
  5
F7
330
1F
100
AcDbEntity
  8
仕上
  6
Continuous
 62
     3
370
     9
100
AcDbLine
 10
-8.99988122888513
 20
348.7308709521426
 30
0.0
 11
-8.99988122888513
 21
366.7311530335404
 31
0.0
  0
LINE
  5
F8
330
1F
100
AcDbEntity
  8
仕上
  6
Continuous
 62
     3
370
     9
100
AcDbLine
 10
-36.99997360641896
 20
366.7311530335404
 30
0.0
 11
-8.99988122888513
 21
366.7311530335404
 31
0.0
  0
LINE
  5
F9
330
1F
100
AcDbEntity
  8
仕上
  6
Continuous
 62
     3
370
     9
100
AcDbLine
 10
-36.99997360641896
 20
348.7308709521426
 30
0.0
 11
-8.99988122888513
 21
348.7308709521426
 31
0.0
  0
LINE
  5
FA
330
1F
100
AcDbEntity
  8
仕上
  6
Continuous
 62
     3
370
     9
100
AcDbLine
 10
-19.9999670080237
 20
391.7308519817562
 30
0.0
 11
-19.9999670080237
 21
373.7309163161102
 31
0.0
  0
LINE
  5
FB
330
1F
100
AcDbEntity
  8
仕上
  6
Continuous
 62
     3
370
     9
100
AcDbLine
 10
-65.99999505120365
 20
391.7308519817562
 30
0.0
 11
-65.99999505120365
 21
373.7309163161102
 31
0.0
  0
LINE
  5
FC
330
1F
100
AcDbEntity
  8
仕上
  6
Continuous
 62
     3
370
     9
100
AcDbLine
 10
-65.99999505120365
 20
373.7309163161102
 30
0.0
 11
-25.99988782728039
 21
373.7309163161102
 31
0.0
  0
LINE
  5
FD
330
1F
100
AcDbEntity
  8
仕上
  6
Continuous
 62
     3
370
     9
100
AcDbLine
 10
-25.99988782728039
 20
391.7308519817562
 30
0.0
 11
-25.99988782728039
 21
373.7309163161102
 31
0.0
  0
LINE
  5
FE
330
1F
100
AcDbEntity
  8
仕上
  6
Continuous
 62
     3
370
     9
100
AcDbLine
 10
-65.99999505120365
 20
391.7308519817562
 30
0.0
 11
-25.99988782728039
 21
391.7308519817562
 31
0.0
  0
LINE
  5
FF
330
1F
100
AcDbEntity
  8
仕上
  6
Continuous
 62
     3
370
     9
100
AcDbLine
 10
-111.9998498865077
 20
373.7309163161102
 30
0.0
 11
-71.99991587046034
 21
373.7309163161102
 31
0.0
  0
LINE
  5
100
330
1F
100
AcDbEntity
  8
仕上
  6
Continuous
 62
     3
370
     9
100
AcDbLine
 10
-71.99991587046034
 20
391.7308519817562
 30
0.0
 11
-71.99991587046034
 21
373.7309163161102
 31
0.0
  0
LINE
  5
101
330
1F
100
AcDbEntity
  8
仕上
  6
Continuous
 62
     3
370
     9
100
AcDbLine
 10
-41.99996535842479
 20
398.7310482840155
 30
0.0
 11
-41.99996535842479
 21
416.7309839496617
 31
0.0
  0
LINE
  5
102
330
1F
100
AcDbEntity
  8
仕上
  6
Continuous
 62
     3
370
     9
100
AcDbLine
 10
-36.99997360641896
 20
398.7310482840155
 30
0.0
 11
-36.99997360641896
 21
416.7309839496617
 31
0.0
  0
LINE
  5
103
330
1F
100
AcDbEntity
  8
仕上
  6
Continuous
 62
     3
370
     9
100
AcDbLine
 10
-49.99991752005926
 20
398.7310482840155
 30
0.0
 11
-49.99991752005926
 21
416.7309839496617
 31
0.0
  0
LINE
  5
104
330
1F
100
AcDbEntity
  8
仕上
  6
Continuous
 62
     3
370
     9
100
AcDbLine
 10
-55.00008247994094
 20
398.7310482840155
 30
0.0
 11
-55.00008247994094
 21
416.7309839496617
 31
0.0
  0
LINE
  5
105
330
1F
100
AcDbEntity
  8
仕上
  6
Continuous
 62
     3
370
     9
100
AcDbLine
 10
-49.99991752005926
 20
416.7309839496617
 30
0.0
 11
-41.99996535842479
 21
416.7309839496617
 31
0.0
  0
LINE
  5
106
330
1F
100
AcDbEntity
  8
仕上
  6
Continuous
 62
     3
370
     9
100
AcDbLine
 10
-49.99991752005926
 20
398.7310482840155
 30
0.0
 11
-41.99996535842479
 21
398.7310482840155
 31
0.0
  0
LINE
  5
107
330
1F
100
AcDbEntity
  8
仕上
  6
Continuous
 62
     3
370
     9
100
AcDbLine
 10
-82.99982844172305
 20
398.7310482840155
 30
0.0
 11
-55.00008247994094
 21
398.7310482840155
 31
0.0
  0
LINE
  5
108
330
1F
100
AcDbEntity
  8
仕上
  6
Continuous
 62
     3
370
     9
100
AcDbLine
 10
-3.999889476879304
 20
398.7310482840155
 30
0.0
 11
-3.999889476879304
 21
416.7309839496617
 31
0.0
  0
LINE
  5
109
330
1F
100
AcDbEntity
  8
仕上
  6
Continuous
 62
     3
370
     9
100
AcDbLine
 10
-8.99988122888513
 20
398.7310482840155
 30
0.0
 11
-8.99988122888513
 21
416.7309839496617
 31
0.0
  0
LINE
  5
10A
330
1F
100
AcDbEntity
  8
仕上
  6
Continuous
 62
     3
370
     9
100
AcDbLine
 10
-36.99997360641896
 20
416.7309839496617
 30
0.0
 11
-8.99988122888513
 21
416.7309839496617
 31
0.0
  0
LINE
  5
10B
330
1F
100
AcDbEntity
  8
仕上
  6
Continuous
 62
     3
370
     9
100
AcDbLine
 10
-36.99997360641896
 20
398.7310482840155
 30
0.0
 11
-8.99988122888513
 21
398.7310482840155
 31
0.0
  0
LINE
  5
10C
330
1F
100
AcDbEntity
  8
仕上
  6
Continuous
 62
     3
370
     9
100
AcDbLine
 10
-19.9999670080237
 20
423.7309204401072
 30
0.0
 11
19.9999670080237
 21
423.7309204401072
 31
0.0
  0
LINE
  5
10D
330
1F
100
AcDbEntity
  8
仕上
  6
Continuous
 62
     3
370
     9
100
AcDbLine
 10
-3.999889476879304
 20
416.7309839496617
 30
0.0
 11
3.999889476879105
 21
416.7309839496617
 31
0.0
  0
LINE
  5
10E
330
1F
100
AcDbEntity
  8
仕上
  6
Continuous
 62
     3
370
     9
100
AcDbLine
 10
-3.999889476879304
 20
398.7310482840155
 30
0.0
 11
3.999889476879105
 21
398.7310482840155
 31
0.0
  0
LINE
  5
10F
330
1F
100
AcDbEntity
  8
仕上
  6
Continuous
 62
     3
370
     9
100
AcDbLine
 10
-19.9999670080237
 20
323.7309121921131
 30
0.0
 11
19.9999670080237
 21
323.7309121921131
 31
0.0
  0
LINE
  5
110
330
1F
100
AcDbEntity
  8
仕上
  6
Continuous
 62
     3
370
     9
100
AcDbLine
 10
-111.9998498865077
 20
341.731021065635
 30
0.0
 11
-111.9998498865077
 21
323.7309121921131
 31
0.0
  0
LINE
  5
111
330
1F
100
AcDbEntity
  8
仕上
  6
Continuous
 62
     3
370
     9
100
AcDbLine
 10
-117.9997707057644
 20
341.731021065635
 30
0.0
 11
-117.9997707057644
 21
323.7309121921131
 31
0.0
  0
LINE
  5
112
330
1F
100
AcDbEntity
  8
仕上
  6
Continuous
 62
     3
370
     9
100
AcDbLine
 10
-87.99982019372888
 20
348.7308709521426
 30
0.0
 11
-87.99982019372888
 21
366.7311530335404
 31
0.0
  0
LINE
  5
113
330
1F
100
AcDbEntity
  8
仕上
  6
Continuous
 62
     3
370
     9
100
AcDbLine
 10
-82.99982844172305
 20
348.7308709521426
 30
0.0
 11
-82.99982844172305
 21
366.7311530335404
 31
0.0
  0
LINE
  5
114
330
1F
100
AcDbEntity
  8
仕上
  6
Continuous
 62
     3
370
     9
100
AcDbLine
 10
-95.99977235536315
 20
348.7308709521426
 30
0.0
 11
-95.99977235536315
 21
366.7311530335404
 31
0.0
  0
LINE
  5
115
330
1F
100
AcDbEntity
  8
仕上
  6
Continuous
 62
     3
370
     9
100
AcDbLine
 10
-100.9997641073692
 20
348.7308709521426
 30
0.0
 11
-100.9997641073692
 21
366.7311530335404
 31
0.0
  0
LINE
  5
116
330
1F
100
AcDbEntity
  8
仕上
  6
Continuous
 62
     3
370
     9
100
AcDbLine
 10
-95.99977235536315
 20
366.7311530335404
 30
0.0
 11
-87.99982019372888
 21
366.7311530335404
 31
0.0
  0
LINE
  5
117
330
1F
100
AcDbEntity
  8
仕上
  6
Continuous
 62
     3
370
     9
100
AcDbLine
 10
-95.99977235536315
 20
348.7308709521426
 30
0.0
 11
-87.99982019372888
 21
348.7308709521426
 31
0.0
  0
LINE
  5
118
330
1F
100
AcDbEntity
  8
仕上
  6
Continuous
 62
     3
370
     9
100
AcDbLine
 10
-128.999856484903
 20
366.7311530335404
 30
0.0
 11
-100.9997641073692
 21
366.7311530335404
 31
0.0
  0
LINE
  5
119
330
1F
100
AcDbEntity
  8
仕上
  6
Continuous
 62
     3
370
     9
100
AcDbLine
 10
-128.999856484903
 20
348.7308709521426
 30
0.0
 11
-100.9997641073692
 21
348.7308709521426
 31
0.0
  0
LINE
  5
11A
330
1F
100
AcDbEntity
  8
仕上
  6
Continuous
 62
     3
370
     9
100
AcDbLine
 10
-82.99982844172305
 20
298.7310400360213
 30
0.0
 11
-82.99982844172305
 21
316.7307158898538
 31
0.0
  0
LINE
  5
11B
330
1F
100
AcDbEntity
  8
仕上
  6
Continuous
 62
     3
370
     9
100
AcDbLine
 10
-95.99977235536315
 20
398.7310482840155
 30
0.0
 11
-87.99982019372888
 21
398.7310482840155
 31
0.0
  0
LINE
  5
11C
330
1F
100
AcDbEntity
  8
仕上
  6
Continuous
 62
     3
370
     9
100
AcDbLine
 10
-128.999856484903
 20
348.7308709521426
 30
0.0
 11
-128.999856484903
 21
366.7311530335404
 31
0.0
  0
LINE
  5
11D
330
1F
100
AcDbEntity
  8
仕上
  6
Continuous
 62
     3
370
     9
100
AcDbLine
 10
-157.9998779296875
 20
341.731021065635
 30
0.0
 11
-117.9997707057644
 21
341.731021065635
 31
0.0
  0
LINE
  5
11E
330
1F
100
AcDbEntity
  8
仕上
  6
Continuous
 62
     3
370
     9
100
AcDbLine
 10
-141.999973606419
 20
348.7308709521426
 30
0.0
 11
-133.9998482369088
 21
348.7308709521426
 31
0.0
  0
LINE
  5
11F
330
1F
100
AcDbEntity
  8
仕上
  6
Continuous
 62
     3
370
     9
100
AcDbLine
 10
-133.9998482369088
 20
348.7308709521426
 30
0.0
 11
-133.9998482369088
 21
366.7311530335404
 31
0.0
  0
LINE
  5
120
330
1F
100
AcDbEntity
  8
仕上
  6
Continuous
 62
     3
370
     9
100
AcDbLine
 10
-157.9998779296875
 20
373.7309163161102
 30
0.0
 11
-117.9997707057644
 21
373.7309163161102
 31
0.0
  0
LINE
  5
121
330
1F
100
AcDbEntity
  8
仕上
  6
Continuous
 62
     3
370
     9
100
AcDbLine
 10
-117.9997707057644
 20
391.7308519817562
 30
0.0
 11
-117.9997707057644
 21
373.7309163161102
 31
0.0
  0
LINE
  5
122
330
1F
100
AcDbEntity
  8
仕上
  6
Continuous
 62
     3
370
     9
100
AcDbLine
 10
-87.99982019372888
 20
398.7310482840155
 30
0.0
 11
-87.99982019372888
 21
416.7309839496617
 31
0.0
  0
LINE
  5
123
330
1F
100
AcDbEntity
  8
仕上
  6
Continuous
 62
     3
370
     9
100
AcDbLine
 10
-95.99977235536315
 20
398.7310482840155
 30
0.0
 11
-95.99977235536315
 21
416.7309839496617
 31
0.0
  0
LINE
  5
124
330
1F
100
AcDbEntity
  8
仕上
  6
Continuous
 62
     3
370
     9
100
AcDbLine
 10
-100.9997641073692
 20
398.7310482840155
 30
0.0
 11
-100.9997641073692
 21
416.7309839496617
 31
0.0
  0
LINE
  5
125
330
1F
100
AcDbEntity
  8
仕上
  6
Continuous
 62
     3
370
     9
100
AcDbLine
 10
-128.999856484903
 20
398.7310482840155
 30
0.0
 11
-100.9997641073692
 21
398.7310482840155
 31
0.0
  0
LINE
  5
126
330
1F
100
AcDbEntity
  8
仕上
  6
Continuous
 62
     3
370
     9
100
AcDbLine
 10
-65.99999505120365
 20
423.7309204401072
 30
0.0
 11
-25.99988782728039
 21
423.7309204401072
 31
0.0
  0
LINE
  5
127
330
1F
100
AcDbEntity
  8
仕上
  6
Continuous
 62
     3
370
     9
100
AcDbLine
 10
-25.99988782728039
 20
441.7310293136291
 30
0.0
 11
-25.99988782728039
 21
423.7309204401072
 31
0.0
  0
LINE
  5
128
330
1F
100
AcDbEntity
  8
仕上
  6
Continuous
 62
     3
370
     9
100
AcDbLine
 10
-19.9999670080237
 20
441.7310293136291
 30
0.0
 11
-19.9999670080237
 21
423.7309204401072
 31
0.0
  0
LINE
  5
129
330
1F
100
AcDbEntity
  8
仕上
  6
Continuous
 62
     3
370
     9
100
AcDbLine
 10
-82.99982844172305
 20
398.7310482840155
 30
0.0
 11
-82.99982844172305
 21
416.7309839496617
 31
0.0
  0
LINE
  5
12A
330
1F
100
AcDbEntity
  8
仕上
  6
Continuous
 62
     3
370
     9
100
AcDbLine
 10
-82.99982844172305
 20
416.7309839496617
 30
0.0
 11
-55.00008247994094
 21
416.7309839496617
 31
0.0
  0
LINE
  5
12B
330
1F
100
AcDbEntity
  8
仕上
  6
Continuous
 62
     3
370
     9
100
AcDbLine
 10
-111.9998498865077
 20
391.7308519817562
 30
0.0
 11
-71.99991587046034
 21
391.7308519817562
 31
0.0
  0
LINE
  5
12C
330
1F
100
AcDbEntity
  8
仕上
  6
Continuous
 62
     3
370
     9
100
AcDbLine
 10
-111.9998498865077
 20
391.7308519817562
 30
0.0
 11
-111.9998498865077
 21
373.7309163161102
 31
0.0
  0
LINE
  5
12D
330
1F
100
AcDbEntity
  8
仕上
  6
Continuous
 62
     3
370
     9
100
AcDbLine
 10
-19.9999670080237
 20
391.7308519817562
 30
0.0
 11
19.9999670080237
 21
391.7308519817562
 31
0.0
  0
LINE
  5
12E
330
1F
100
AcDbEntity
  8
仕上
  6
Continuous
 62
     3
370
     9
100
AcDbLine
 10
-19.9999670080237
 20
341.731021065635
 30
0.0
 11
19.9999670080237
 21
341.731021065635
 31
0.0
  0
LINE
  5
12F
330
1F
100
AcDbEntity
  8
仕上
  6
Continuous
 62
     3
370
     9
100
AcDbLine
 10
-3.999889476879304
 20
366.7308066177887
 30
0.0
 11
3.999889476879105
 21
366.7308066177887
 31
0.0
  0
LINE
  5
130
330
1F
100
AcDbEntity
  8
仕上
  6
Continuous
 62
     3
370
     9
100
AcDbLine
 10
-65.99999505120365
 20
441.7310293136291
 30
0.0
 11
-65.99999505120365
 21
423.7309204401072
 31
0.0
  0
LINE
  5
131
330
1F
100
AcDbEntity
  8
仕上
  6
Continuous
 62
     3
370
     9
100
AcDbLine
 10
-65.99999505120365
 20
441.7310293136291
 30
0.0
 11
-25.99988782728039
 21
441.7310293136291
 31
0.0
  0
LINE
  5
132
330
1F
100
AcDbEntity
  8
仕上
  6
Continuous
 62
     3
370
     9
100
AcDbLine
 10
-111.9998498865077
 20
423.7309204401072
 30
0.0
 11
-71.99991587046034
 21
423.7309204401072
 31
0.0
  0
LINE
  5
133
330
1F
100
AcDbEntity
  8
仕上
  6
Continuous
 62
     3
370
     9
100
AcDbLine
 10
-71.99991587046034
 20
441.7310293136291
 30
0.0
 11
-71.99991587046034
 21
423.7309204401072
 31
0.0
  0
LINE
  5
134
330
1F
100
AcDbEntity
  8
仕上
  6
Continuous
 62
     3
370
     9
100
AcDbLine
 10
-95.99977235536315
 20
416.7309839496617
 30
0.0
 11
-87.99982019372888
 21
416.7309839496617
 31
0.0
  0
LINE
  5
135
330
1F
100
AcDbEntity
  8
仕上
  6
Continuous
 62
     3
370
     9
100
AcDbLine
 10
-128.999856484903
 20
416.7309839496617
 30
0.0
 11
-100.9997641073692
 21
416.7309839496617
 31
0.0
  0
LINE
  5
136
330
1F
100
AcDbEntity
  8
仕上
  6
Continuous
 62
     3
370
     9
100
AcDbLine
 10
-128.999856484903
 20
398.7307884722017
 30
0.0
 11
-128.999856484903
 21
416.7309839496617
 31
0.0
  0
LINE
  5
137
330
1F
100
AcDbEntity
  8
仕上
  6
Continuous
 62
     3
370
     9
100
AcDbLine
 10
-141.999973606419
 20
398.7307884722017
 30
0.0
 11
-133.9998482369088
 21
398.7307884722017
 31
0.0
  0
LINE
  5
138
330
1F
100
AcDbEntity
  8
仕上
  6
Continuous
 62
     3
370
     9
100
AcDbLine
 10
-133.9998482369088
 20
398.7307884722017
 30
0.0
 11
-133.9998482369088
 21
416.7309839496617
 31
0.0
  0
LINE
  5
139
330
1F
100
AcDbEntity
  8
仕上
  6
Continuous
 62
     3
370
     9
100
AcDbLine
 10
-157.9998779296875
 20
423.7309204401072
 30
0.0
 11
-117.9997707057644
 21
423.7309204401072
 31
0.0
  0
LINE
  5
13A
330
1F
100
AcDbEntity
  8
仕上
  6
Continuous
 62
     3
370
     9
100
AcDbLine
 10
-117.9997707057644
 20
441.7310293136291
 30
0.0
 11
-117.9997707057644
 21
423.7309204401072
 31
0.0
  0
LINE
  5
13B
330
1F
100
AcDbEntity
  8
仕上
  6
Continuous
 62
     3
370
     9
100
AcDbLine
 10
-111.9998498865077
 20
441.7310293136291
 30
0.0
 11
-71.99991587046034
 21
441.7310293136291
 31
0.0
  0
LINE
  5
13C
330
1F
100
AcDbEntity
  8
仕上
  6
Continuous
 62
     3
370
     9
100
AcDbLine
 10
-111.9998498865077
 20
441.7310293136291
 30
0.0
 11
-111.9998498865077
 21
423.7309204401072
 31
0.0
  0
LINE
  5
13D
330
1F
100
AcDbEntity
  8
仕上
  6
Continuous
 62
     3
370
     9
100
AcDbLine
 10
-19.9999670080237
 20
441.7310293136291
 30
0.0
 11
19.9999670080237
 21
441.7310293136291
 31
0.0
  0
LINE
  5
13E
330
1F
100
AcDbEntity
  8
仕上
  6
Continuous
 62
     3
370
     9
100
AcDbLine
 10
-41.99996535842479
 20
448.7309658040746
 30
0.0
 11
-41.99996535842479
 21
466.7309014697207
 31
0.0
  0
LINE
  5
13F
330
1F
100
AcDbEntity
  8
仕上
  6
Continuous
 62
     3
370
     9
100
AcDbLine
 10
-36.99997360641896
 20
448.7309658040746
 30
0.0
 11
-36.99997360641896
 21
466.7309014697207
 31
0.0
  0
LINE
  5
140
330
1F
100
AcDbEntity
  8
仕上
  6
Continuous
 62
     3
370
     9
100
AcDbLine
 10
-49.99991752005926
 20
448.7309658040746
 30
0.0
 11
-49.99991752005926
 21
466.7309014697207
 31
0.0
  0
LINE
  5
141
330
1F
100
AcDbEntity
  8
仕上
  6
Continuous
 62
     3
370
     9
100
AcDbLine
 10
-55.00008247994094
 20
448.7309658040746
 30
0.0
 11
-55.00008247994094
 21
466.7309014697207
 31
0.0
  0
LINE
  5
142
330
1F
100
AcDbEntity
  8
仕上
  6
Continuous
 62
     3
370
     9
100
AcDbLine
 10
-49.99991752005926
 20
466.7309014697207
 30
0.0
 11
-41.99996535842479
 21
466.7309014697207
 31
0.0
  0
LINE
  5
143
330
1F
100
AcDbEntity
  8
仕上
  6
Continuous
 62
     3
370
     9
100
AcDbLine
 10
-49.99991752005926
 20
448.7309658040746
 30
0.0
 11
-41.99996535842479
 21
448.7309658040746
 31
0.0
  0
LINE
  5
144
330
1F
100
AcDbEntity
  8
仕上
  6
Continuous
 62
     3
370
     9
100
AcDbLine
 10
-82.99982844172305
 20
466.7309014697207
 30
0.0
 11
-55.00008247994094
 21
466.7309014697207
 31
0.0
  0
LINE
  5
145
330
1F
100
AcDbEntity
  8
仕上
  6
Continuous
 62
     3
370
     9
100
AcDbLine
 10
-82.99982844172305
 20
448.7309658040746
 30
0.0
 11
-55.00008247994094
 21
448.7309658040746
 31
0.0
  0
LINE
  5
146
330
1F
100
AcDbEntity
  8
仕上
  6
Continuous
 62
     3
370
     9
100
AcDbLine
 10
-3.999889476879304
 20
448.7309658040746
 30
0.0
 11
-3.999889476879304
 21
466.7309014697207
 31
0.0
  0
LINE
  5
147
330
1F
100
AcDbEntity
  8
仕上
  6
Continuous
 62
     3
370
     9
100
AcDbLine
 10
-8.99988122888513
 20
448.7309658040746
 30
0.0
 11
-8.99988122888513
 21
466.7309014697207
 31
0.0
  0
LINE
  5
148
330
1F
100
AcDbEntity
  8
仕上
  6
Continuous
 62
     3
370
     9
100
AcDbLine
 10
-36.99997360641896
 20
466.7309014697207
 30
0.0
 11
-8.99988122888513
 21
466.7309014697207
 31
0.0
  0
LINE
  5
149
330
1F
100
AcDbEntity
  8
仕上
  6
Continuous
 62
     3
370
     9
100
AcDbLine
 10
-36.99997360641896
 20
448.7309658040746
 30
0.0
 11
-8.99988122888513
 21
448.7309658040746
 31
0.0
  0
LINE
  5
14A
330
1F
100
AcDbEntity
  8
仕上
  6
Continuous
 62
     3
370
     9
100
AcDbLine
 10
-87.99982019372888
 20
448.7309658040746
 30
0.0
 11
-87.99982019372888
 21
466.7309014697207
 31
0.0
  0
LINE
  5
14B
330
1F
100
AcDbEntity
  8
仕上
  6
Continuous
 62
     3
370
     9
100
AcDbLine
 10
-82.99982844172305
 20
448.7309658040746
 30
0.0
 11
-82.99982844172305
 21
466.7309014697207
 31
0.0
  0
LINE
  5
14C
330
1F
100
AcDbEntity
  8
仕上
  6
Continuous
 62
     3
370
     9
100
AcDbLine
 10
-95.99977235536315
 20
448.7309658040746
 30
0.0
 11
-95.99977235536315
 21
466.7309014697207
 31
0.0
  0
LINE
  5
14D
330
1F
100
AcDbEntity
  8
仕上
  6
Continuous
 62
     3
370
     9
100
AcDbLine
 10
-100.9997641073692
 20
448.7309658040746
 30
0.0
 11
-100.9997641073692
 21
466.7309014697207
 31
0.0
  0
LINE
  5
14E
330
1F
100
AcDbEntity
  8
仕上
  6
Continuous
 62
     3
370
     9
100
AcDbLine
 10
-95.99977235536315
 20
466.7309014697207
 30
0.0
 11
-87.99982019372888
 21
466.7309014697207
 31
0.0
  0
LINE
  5
14F
330
1F
100
AcDbEntity
  8
仕上
  6
Continuous
 62
     3
370
     9
100
AcDbLine
 10
-95.99977235536315
 20
448.7309658040746
 30
0.0
 11
-87.99982019372888
 21
448.7309658040746
 31
0.0
  0
LINE
  5
150
330
1F
100
AcDbEntity
  8
仕上
  6
Continuous
 62
     3
370
     9
100
AcDbLine
 10
-128.999856484903
 20
448.7309658040746
 30
0.0
 11
-100.9997641073692
 21
448.7309658040746
 31
0.0
  0
LINE
  5
151
330
1F
100
AcDbEntity
  8
仕上
  6
Continuous
 62
     3
370
     9
100
AcDbLine
 10
-128.999856484903
 20
448.7309658040746
 30
0.0
 11
-128.999856484903
 21
466.7309014697207
 31
0.0
  0
LINE
  5
152
330
1F
100
AcDbEntity
  8
仕上
  6
Continuous
 62
     3
370
     9
100
AcDbLine
 10
-19.9999670080237
 20
473.7309245641042
 30
0.0
 11
19.9999670080237
 21
473.7309245641042
 31
0.0
  0
LINE
  5
153
330
1F
100
AcDbEntity
  8
仕上
  6
Continuous
 62
     3
370
     9
100
AcDbLine
 10
-3.999889476879304
 20
466.7309014697207
 30
0.0
 11
3.999889476879105
 21
466.7309014697207
 31
0.0
  0
LINE
  5
154
330
1F
100
AcDbEntity
  8
仕上
  6
Continuous
 62
     3
370
     9
100
AcDbLine
 10
-3.999889476879304
 20
448.7310524080126
 30
0.0
 11
3.999889476879105
 21
448.7310524080126
 31
0.0
  0
LINE
  5
155
330
1F
100
AcDbEntity
  8
仕上
  6
Continuous
 62
     3
370
     9
100
AcDbLine
 10
-157.9998779296875
 20
341.731021065635
 30
0.0
 11
-157.9998779296875
 21
323.7309121921131
 31
0.0
  0
LINE
  5
156
330
1F
100
AcDbEntity
  8
仕上
  6
Continuous
 62
     3
370
     9
100
AcDbLine
 10
-163.9997987489444
 20
341.731021065635
 30
0.0
 11
-163.9997987489444
 21
323.7309121921131
 31
0.0
  0
LINE
  5
157
330
1F
100
AcDbEntity
  8
仕上
  6
Continuous
 62
     3
370
     9
100
AcDbLine
 10
-141.999973606419
 20
348.7308709521426
 30
0.0
 11
-141.999973606419
 21
366.7311530335404
 31
0.0
  0
LINE
  5
158
330
1F
100
AcDbEntity
  8
仕上
  6
Continuous
 62
     3
370
     9
100
AcDbLine
 10
-146.9999653584248
 20
348.7308709521426
 30
0.0
 11
-146.9999653584248
 21
366.7311530335404
 31
0.0
  0
LINE
  5
159
330
1F
100
AcDbEntity
  8
仕上
  6
Continuous
 62
     3
370
     9
100
AcDbLine
 10
-141.999973606419
 20
366.7311530335404
 30
0.0
 11
-133.9998482369088
 21
366.7311530335404
 31
0.0
  0
LINE
  5
15A
330
1F
100
AcDbEntity
  8
仕上
  6
Continuous
 62
     3
370
     9
100
AcDbLine
 10
-174.9997113202069
 20
366.7311530335404
 30
0.0
 11
-146.9999653584248
 21
366.7311530335404
 31
0.0
  0
LINE
  5
15B
330
1F
100
AcDbEntity
  8
仕上
  6
Continuous
 62
     3
370
     9
100
AcDbLine
 10
-174.9997113202069
 20
348.7308709521426
 30
0.0
 11
-146.9999653584248
 21
348.7308709521426
 31
0.0
  0
LINE
  5
15C
330
1F
100
AcDbEntity
  8
仕上
  6
Continuous
 62
     3
370
     9
100
AcDbLine
 10
-174.9997113202069
 20
348.7308709521426
 30
0.0
 11
-174.9997113202069
 21
366.7311530335404
 31
0.0
  0
LINE
  5
15D
330
1F
100
AcDbEntity
  8
仕上
  6
Continuous
 62
     3
370
     9
100
AcDbLine
 10
-187.9998284417231
 20
348.7308709521426
 30
0.0
 11
-179.9997030722129
 21
348.7308709521426
 31
0.0
  0
LINE
  5
15E
330
1F
100
AcDbEntity
  8
仕上
  6
Continuous
 62
     3
370
     9
100
AcDbLine
 10
-179.9997030722129
 20
348.7308709521426
 30
0.0
 11
-179.9997030722129
 21
366.7311530335404
 31
0.0
  0
LINE
  5
15F
330
1F
100
AcDbEntity
  8
仕上
  6
Continuous
 62
     3
370
     9
100
AcDbLine
 10
-163.9997987489444
 20
391.7308519817562
 30
0.0
 11
-163.9997987489444
 21
373.7309163161102
 31
0.0
  0
LINE
  5
160
330
1F
100
AcDbEntity
  8
仕上
  6
Continuous
 62
     3
370
     9
100
AcDbLine
 10
-157.9998779296875
 20
391.7308519817562
 30
0.0
 11
-117.9997707057644
 21
391.7308519817562
 31
0.0
  0
LINE
  5
161
330
1F
100
AcDbEntity
  8
仕上
  6
Continuous
 62
     3
370
     9
100
AcDbLine
 10
-157.9998779296875
 20
391.7308519817562
 30
0.0
 11
-157.9998779296875
 21
373.7309163161102
 31
0.0
  0
LINE
  5
162
330
1F
100
AcDbEntity
  8
仕上
  6
Continuous
 62
     3
370
     9
100
AcDbLine
 10
-203.9997327649916
 20
341.731021065635
 30
0.0
 11
-163.9997987489444
 21
341.731021065635
 31
0.0
  0
LINE
  5
163
330
1F
100
AcDbEntity
  8
仕上
  6
Continuous
 62
     3
370
     9
100
AcDbLine
 10
-203.9997327649916
 20
341.731021065635
 30
0.0
 11
-203.9997327649916
 21
323.7309121921131
 31
0.0
  0
LINE
  5
164
330
1F
100
AcDbEntity
  8
仕上
  6
Continuous
 62
     3
370
     9
100
AcDbLine
 10
-209.9998267921241
 20
341.731021065635
 30
0.0
 11
-209.9998267921241
 21
323.7309121921131
 31
0.0
  0
LINE
  5
165
330
1F
100
AcDbEntity
  8
仕上
  6
Continuous
 62
     3
370
     9
100
AcDbLine
 10
-187.9998284417231
 20
348.7308709521426
 30
0.0
 11
-187.9998284417231
 21
366.7311530335404
 31
0.0
  0
LINE
  5
166
330
1F
100
AcDbEntity
  8
仕上
  6
Continuous
 62
     3
370
     9
100
AcDbLine
 10
-192.9999934016047
 20
348.7308709521426
 30
0.0
 11
-192.9999934016047
 21
366.7311530335404
 31
0.0
  0
LINE
  5
167
330
1F
100
AcDbEntity
  8
仕上
  6
Continuous
 62
     3
370
     9
100
AcDbLine
 10
-187.9998284417231
 20
366.7311530335404
 30
0.0
 11
-179.9997030722129
 21
366.7311530335404
 31
0.0
  0
LINE
  5
168
330
1F
100
AcDbEntity
  8
仕上
  6
Continuous
 62
     3
370
     9
100
AcDbLine
 10
-141.999973606419
 20
398.7307884722017
 30
0.0
 11
-141.999973606419
 21
416.7309839496617
 31
0.0
  0
LINE
  5
169
330
1F
100
AcDbEntity
  8
仕上
  6
Continuous
 62
     3
370
     9
100
AcDbLine
 10
-146.9999653584248
 20
398.7307884722017
 30
0.0
 11
-146.9999653584248
 21
416.7309839496617
 31
0.0
  0
LINE
  5
16A
330
1F
100
AcDbEntity
  8
仕上
  6
Continuous
 62
     3
370
     9
100
AcDbLine
 10
-141.999973606419
 20
416.7309839496617
 30
0.0
 11
-133.9998482369088
 21
416.7309839496617
 31
0.0
  0
LINE
  5
16B
330
1F
100
AcDbEntity
  8
仕上
  6
Continuous
 62
     3
370
     9
100
AcDbLine
 10
-174.9997113202069
 20
416.7309839496617
 30
0.0
 11
-146.9999653584248
 21
416.7309839496617
 31
0.0
  0
LINE
  5
16C
330
1F
100
AcDbEntity
  8
仕上
  6
Continuous
 62
     3
370
     9
100
AcDbLine
 10
-174.9997113202069
 20
398.7307884722017
 30
0.0
 11
-146.9999653584248
 21
398.7307884722017
 31
0.0
  0
LINE
  5
16D
330
1F
100
AcDbEntity
  8
仕上
  6
Continuous
 62
     3
370
     9
100
AcDbLine
 10
-157.9998779296875
 20
441.7310293136291
 30
0.0
 11
-157.9998779296875
 21
423.7309204401072
 31
0.0
  0
LINE
  5
16E
330
1F
100
AcDbEntity
  8
仕上
  6
Continuous
 62
     3
370
     9
100
AcDbLine
 10
-157.9998779296875
 20
441.7310293136291
 30
0.0
 11
-117.9997707057644
 21
441.7310293136291
 31
0.0
  0
LINE
  5
16F
330
1F
100
AcDbEntity
  8
仕上
  6
Continuous
 62
     3
370
     9
100
AcDbLine
 10
-174.9997113202069
 20
398.7307884722017
 30
0.0
 11
-174.9997113202069
 21
416.7309839496617
 31
0.0
  0
LINE
  5
170
330
1F
100
AcDbEntity
  8
仕上
  6
Continuous
 62
     3
370
     9
100
AcDbLine
 10
-187.9998284417231
 20
398.7307884722017
 30
0.0
 11
-179.9997030722129
 21
398.7307884722017
 31
0.0
  0
LINE
  5
171
330
1F
100
AcDbEntity
  8
仕上
  6
Continuous
 62
     3
370
     9
100
AcDbLine
 10
-87.99999340160474
 20
298.7310400360213
 30
0.0
 11
-87.99999340160474
 21
316.7307158898538
 31
0.0
  0
LINE
  5
172
330
1F
100
AcDbEntity
  8
仕上
  6
Continuous
 62
     3
370
     9
100
AcDbLine
 10
-87.99999340160474
 20
316.7307158898538
 30
0.0
 11
-95.99994556323901
 21
316.7307158898538
 31
0.0
  0
LINE
  5
173
330
1F
100
AcDbEntity
  8
仕上
  6
Continuous
 62
     3
370
     9
100
AcDbLine
 10
-87.99999340160474
 20
298.7310400360213
 30
0.0
 11
-95.99994556323901
 21
298.7310400360213
 31
0.0
  0
LINE
  5
174
330
1F
100
AcDbEntity
  8
仕上
  6
Continuous
 62
     3
370
     9
100
AcDbLine
 10
-72.0000890783362
 20
291.7309303377001
 30
0.0
 11
-72.0000890783362
 21
282.7308759009392
 31
0.0
  0
LINE
  5
175
330
1F
100
AcDbEntity
  8
仕上
  6
Continuous
 62
     3
370
     9
100
AcDbLine
 10
-220.9997393633869
 20
348.7308709521426
 30
0.0
 11
-192.9999934016047
 21
348.7308709521426
 31
0.0
  0
LINE
  5
176
330
1F
100
AcDbEntity
  8
仕上
  6
Continuous
 62
     3
370
     9
100
AcDbLine
 10
-220.9997393633869
 20
366.7311530335404
 30
0.0
 11
-192.9999934016047
 21
366.7311530335404
 31
0.0
  0
LINE
  5
177
330
1F
100
AcDbEntity
  8
仕上
  6
Continuous
 62
     3
370
     9
100
AcDbLine
 10
-203.9997327649916
 20
373.7309163161102
 30
0.0
 11
-163.9997987489444
 21
373.7309163161102
 31
0.0
  0
LINE
  5
178
330
1F
100
AcDbEntity
  8
仕上
  6
Continuous
 62
     3
370
     9
100
AcDbLine
 10
-203.9997327649916
 20
391.7308519817562
 30
0.0
 11
-203.9997327649916
 21
373.7309163161102
 31
0.0
  0
LINE
  5
179
330
1F
100
AcDbEntity
  8
仕上
  6
Continuous
 62
     3
370
     9
100
AcDbLine
 10
-203.9997327649916
 20
391.7308519817562
 30
0.0
 11
-163.9997987489444
 21
391.7308519817562
 31
0.0
  0
LINE
  5
17A
330
1F
100
AcDbEntity
  8
仕上
  6
Continuous
 62
     3
370
     9
100
AcDbLine
 10
-187.9998284417231
 20
398.7307884722017
 30
0.0
 11
-187.9998284417231
 21
416.7309839496617
 31
0.0
  0
LINE
  5
17B
330
1F
100
AcDbEntity
  8
仕上
  6
Continuous
 62
     3
370
     9
100
AcDbLine
 10
-163.9997987489444
 20
441.7310293136291
 30
0.0
 11
-163.9997987489444
 21
423.7309204401072
 31
0.0
  0
LINE
  5
17C
330
1F
100
AcDbEntity
  8
仕上
  6
Continuous
 62
     3
370
     9
100
AcDbLine
 10
-128.999856484903
 20
466.7309014697207
 30
0.0
 11
-100.9997641073692
 21
466.7309014697207
 31
0.0
  0
LINE
  5
17D
330
1F
100
AcDbEntity
  8
仕上
  6
Continuous
 62
     3
370
     9
100
AcDbLine
 10
-111.9998498865077
 20
491.7308602297502
 30
0.0
 11
-111.9998498865077
 21
473.7309245641042
 31
0.0
  0
LINE
  5
17E
330
1F
100
AcDbEntity
  8
仕上
  6
Continuous
 62
     3
370
     9
100
AcDbLine
 10
-157.9998779296875
 20
473.7309245641042
 30
0.0
 11
-117.9997707057644
 21
473.7309245641042
 31
0.0
  0
LINE
  5
17F
330
1F
100
AcDbEntity
  8
仕上
  6
Continuous
 62
     3
370
     9
100
AcDbLine
 10
-117.9997707057644
 20
491.7308602297502
 30
0.0
 11
-117.9997707057644
 21
473.7309245641042
 31
0.0
  0
LINE
  5
180
330
1F
100
AcDbEntity
  8
仕上
  6
Continuous
 62
     3
370
     9
100
AcDbLine
 10
-179.9997030722129
 20
398.7307884722017
 30
0.0
 11
-179.9997030722129
 21
416.7309839496617
 31
0.0
  0
LINE
  5
181
330
1F
100
AcDbEntity
  8
仕上
  6
Continuous
 62
     3
370
     9
100
AcDbLine
 10
-188.0000016495989
 20
416.7309839496617
 30
0.0
 11
-179.9997030722129
 21
416.7309839496617
 31
0.0
  0
LINE
  5
182
330
1F
100
AcDbEntity
  8
仕上
  6
Continuous
 62
     3
370
     9
100
AcDbLine
 10
-141.999973606419
 20
448.7309658040746
 30
0.0
 11
-133.9998482369088
 21
448.7309658040746
 31
0.0
  0
LINE
  5
183
330
1F
100
AcDbEntity
  8
仕上
  6
Continuous
 62
     3
370
     9
100
AcDbLine
 10
-146.9999653584248
 20
448.7309658040746
 30
0.0
 11
-174.9998845280828
 21
448.7309658040746
 31
0.0
  0
LINE
  5
184
330
1F
100
AcDbEntity
  8
仕上
  6
Continuous
 62
     3
370
     9
100
AcDbLine
 10
-146.9999653584248
 20
448.7309658040746
 30
0.0
 11
-146.9999653584248
 21
466.7309014697207
 31
0.0
  0
LINE
  5
185
330
1F
100
AcDbEntity
  8
仕上
  6
Continuous
 62
     3
370
     9
100
AcDbLine
 10
-141.999973606419
 20
448.7309658040746
 30
0.0
 11
-141.999973606419
 21
466.7309014697207
 31
0.0
  0
LINE
  5
186
330
1F
100
AcDbEntity
  8
仕上
  6
Continuous
 62
     3
370
     9
100
AcDbLine
 10
-133.9998482369088
 20
448.7309658040746
 30
0.0
 11
-133.9998482369088
 21
466.7309014697207
 31
0.0
  0
LINE
  5
187
330
1F
100
AcDbEntity
  8
仕上
  6
Continuous
 62
     3
370
     9
100
AcDbLine
 10
-25.99988782728039
 20
491.7308602297502
 30
0.0
 11
-25.99988782728039
 21
473.7309245641042
 31
0.0
  0
LINE
  5
188
330
1F
100
AcDbEntity
  8
仕上
  6
Continuous
 62
     3
370
     9
100
AcDbLine
 10
-19.9999670080237
 20
491.7308602297502
 30
0.0
 11
-19.9999670080237
 21
473.7309245641042
 31
0.0
  0
LINE
  5
189
330
1F
100
AcDbEntity
  8
仕上
  6
Continuous
 62
     3
370
     9
100
AcDbLine
 10
-65.99999505120365
 20
473.7309245641042
 30
0.0
 11
-25.99988782728039
 21
473.7309245641042
 31
0.0
  0
LINE
  5
18A
330
1F
100
AcDbEntity
  8
仕上
  6
Continuous
 62
     3
370
     9
100
AcDbLine
 10
-111.9998498865077
 20
473.7309245641042
 30
0.0
 11
-72.0000890783362
 21
473.7309245641042
 31
0.0
  0
LINE
  5
18B
330
1F
100
AcDbEntity
  8
仕上
  6
Continuous
 62
     3
370
     9
100
AcDbLine
 10
-72.0000890783362
 20
291.7309303377001
 30
0.0
 11
-112.0000230943834
 21
291.7309303377001
 31
0.0
  0
LINE
  5
18C
330
1F
100
AcDbEntity
  8
仕上
  6
Continuous
 62
     3
370
     9
100
AcDbLine
 10
3.999889476879105
 20
348.7308709521426
 30
0.0
 11
3.999889476879105
 21
366.7311530335404
 31
0.0
  0
LINE
  5
18D
330
1F
100
AcDbEntity
  8
仕上
  6
Continuous
 62
     3
370
     9
100
AcDbLine
 10
3.999889476879105
 20
398.7310482840155
 30
0.0
 11
3.999889476879105
 21
416.7309839496617
 31
0.0
  0
LINE
  5
18E
330
1F
100
AcDbEntity
  8
仕上
  6
Continuous
 62
     3
370
     9
100
AcDbLine
 10
3.999889476879105
 20
448.7309658040746
 30
0.0
 11
3.999889476879105
 21
466.7309014697207
 31
0.0
  0
LINE
  5
18F
330
1F
100
AcDbEntity
  8
仕上
  6
Continuous
 62
     3
370
     9
100
AcDbLine
 10
-19.9999670080237
 20
373.7309163161102
 30
0.0
 11
19.9999670080237
 21
373.7309163161102
 31
0.0
  0
LINE
  5
190
330
1F
100
AcDbEntity
  8
仕上
  6
Continuous
 62
     3
370
     9
100
AcDbLine
 10
-65.99999505120365
 20
491.7308602297502
 30
0.0
 11
-65.99999505120365
 21
473.7309245641042
 31
0.0
  0
LINE
  5
191
330
1F
100
AcDbEntity
  8
仕上
  6
Continuous
 62
     3
370
     9
100
AcDbLine
 10
-65.99999505120365
 20
491.7308602297502
 30
0.0
 11
-25.99988782728039
 21
491.7308602297502
 31
0.0
  0
LINE
  5
192
330
1F
100
AcDbEntity
  8
仕上
  6
Continuous
 62
     3
370
     9
100
AcDbLine
 10
-71.99991587046034
 20
491.7308602297502
 30
0.0
 11
-71.99991587046034
 21
473.7309245641042
 31
0.0
  0
LINE
  5
193
330
1F
100
AcDbEntity
  8
仕上
  6
Continuous
 62
     3
370
     9
100
AcDbLine
 10
-111.9998498865077
 20
491.7308602297502
 30
0.0
 11
-71.99991587046034
 21
491.7308602297502
 31
0.0
  0
LINE
  5
194
330
1F
100
AcDbEntity
  8
仕上
  6
Continuous
 62
     3
370
     9
100
AcDbLine
 10
-19.9999670080237
 20
491.7308602297502
 30
0.0
 11
19.9999670080237
 21
491.7308602297502
 31
0.0
  0
LINE
  5
195
330
1F
100
AcDbEntity
  8
仕上
  6
Continuous
 62
     3
370
     9
100
AcDbLine
 10
-49.99991752005926
 20
498.7307967201958
 30
0.0
 11
-41.99996535842479
 21
498.7307967201958
 31
0.0
  0
LINE
  5
196
330
1F
100
AcDbEntity
  8
仕上
  6
Continuous
 62
     3
370
     9
100
AcDbLine
 10
-36.99997360641896
 20
498.7307967201958
 30
0.0
 11
-8.99988122888513
 21
498.7307967201958
 31
0.0
  0
LINE
  5
197
330
1F
100
AcDbEntity
  8
仕上
  6
Continuous
 62
     3
370
     9
100
AcDbLine
 10
-3.999889476879304
 20
498.7311431359475
 30
0.0
 11
3.999889476879105
 21
498.7311431359475
 31
0.0
  0
LINE
  5
198
330
1F
100
AcDbEntity
  8
仕上
  6
Continuous
 62
     3
370
     9
100
AcDbLine
 10
-233.9998564849029
 20
298.7310400360213
 30
0.0
 11
-233.9998564849029
 21
316.7307158898538
 31
0.0
  0
LINE
  5
199
330
1F
100
AcDbEntity
  8
仕上
  6
Continuous
 62
     3
370
     9
100
AcDbLine
 10
-225.9999043232687
 20
316.7307158898538
 30
0.0
 11
-233.9998564849029
 21
316.7307158898538
 31
0.0
  0
LINE
  5
19A
330
1F
100
AcDbEntity
  8
仕上
  6
Continuous
 62
     3
370
     9
100
AcDbLine
 10
-225.9999043232687
 20
298.7310400360213
 30
0.0
 11
-233.9998564849029
 21
298.7310400360213
 31
0.0
  0
LINE
  5
19B
330
1F
100
AcDbEntity
  8
仕上
  6
Continuous
 62
     3
370
     9
100
AcDbLine
 10
-141.999973606419
 20
466.7309014697207
 30
0.0
 11
-133.9998482369088
 21
466.7309014697207
 31
0.0
  0
LINE
  5
19C
330
1F
100
AcDbEntity
  8
仕上
  6
Continuous
 62
     3
370
     9
100
AcDbLine
 10
-220.9997393633869
 20
348.7308709521426
 30
0.0
 11
-220.9997393633869
 21
366.7311530335404
 31
0.0
  0
LINE
  5
19D
330
1F
100
AcDbEntity
  8
仕上
  6
Continuous
 62
     3
370
     9
100
AcDbLine
 10
-233.9998564849029
 20
348.7308709521426
 30
0.0
 11
-225.9997311153928
 21
348.7308709521426
 31
0.0
  0
LINE
  5
19E
330
1F
100
AcDbEntity
  8
仕上
  6
Continuous
 62
     3
370
     9
100
AcDbLine
 10
-225.9997311153928
 20
348.7308709521426
 30
0.0
 11
-225.9997311153928
 21
366.7311530335404
 31
0.0
  0
LINE
  5
19F
330
1F
100
AcDbEntity
  8
仕上
  6
Continuous
 62
     3
370
     9
100
AcDbLine
 10
-209.9998267921241
 20
391.7308519817562
 30
0.0
 11
-209.9998267921241
 21
373.7309163161102
 31
0.0
  0
LINE
  5
1A0
330
1F
100
AcDbEntity
  8
仕上
  6
Continuous
 62
     3
370
     9
100
AcDbLine
 10
-233.9998564849029
 20
348.7308709521426
 30
0.0
 11
-233.9998564849029
 21
366.7311530335404
 31
0.0
  0
LINE
  5
1A1
330
1F
100
AcDbEntity
  8
仕上
  6
Continuous
 62
     3
370
     9
100
AcDbLine
 10
-233.9998564849029
 20
366.7311530335404
 30
0.0
 11
-225.9997311153928
 21
366.7311530335404
 31
0.0
  0
LINE
  5
1A2
330
1F
100
AcDbEntity
  8
仕上
  6
Continuous
 62
     3
370
     9
100
AcDbLine
 10
-192.9999934016047
 20
398.7307884722017
 30
0.0
 11
-192.9999934016047
 21
416.7309839496617
 31
0.0
  0
LINE
  5
1A3
330
1F
100
AcDbEntity
  8
仕上
  6
Continuous
 62
     3
370
     9
100
AcDbLine
 10
-238.9998482369088
 20
298.7310400360213
 30
0.0
 11
-238.9998482369088
 21
316.7307158898538
 31
0.0
  0
LINE
  5
1A4
330
1F
100
AcDbEntity
  8
仕上
  6
Continuous
 62
     3
370
     9
100
AcDbLine
 10
-242.9375560863598
 20
341.731021065635
 30
0.0
 11
-209.9998267921241
 21
341.731021065635
 31
0.0
  0
LINE
  5
1A5
330
1F
100
AcDbEntity
  8
仕上
  6
Continuous
 62
     3
370
     9
100
AcDbLine
 10
-246.614239666913
 20
323.7309121921131
 30
0.0
 11
-209.9998267921241
 21
323.7309121921131
 31
0.0
  0
LINE
  5
1A6
330
1F
100
AcDbEntity
  8
仕上
  6
Continuous
 62
     3
370
     9
100
AcDbLine
 10
-247.676523569468
 20
316.7307158898538
 30
0.0
 11
-238.9998482369088
 21
316.7307158898538
 31
0.0
  0
LINE
  5
1A7
330
1F
100
AcDbEntity
  8
仕上
  6
Continuous
 62
     3
370
     9
100
AcDbLine
 10
-249.4867190799198
 20
298.7310400360213
 30
0.0
 11
-238.9998482369088
 21
298.7310400360213
 31
0.0
  0
LINE
  5
1A8
330
1F
100
AcDbEntity
  8
仕上
  6
Continuous
 62
     3
370
     9
100
AcDbLine
 10
-238.9998482369088
 20
348.7308709521426
 30
0.0
 11
-238.9998482369088
 21
356.0700350674299
 31
0.0
  0
LINE
  5
1A9
330
1F
100
AcDbEntity
  8
仕上
  6
Continuous
 62
     3
370
     9
100
AcDbLine
 10
-241.1299586940457
 20
348.7308709521426
 30
0.0
 11
-238.9998482369088
 21
348.7308709521426
 31
0.0
  0
LINE
  5
1AA
330
1F
100
AcDbEntity
  8
仕上
  6
Continuous
 62
     3
370
     9
100
AcDbLine
 10
-232.8488901499156
 20
373.7309163161102
 30
0.0
 11
-209.9998267921241
 21
373.7309163161102
 31
0.0
  0
LINE
  5
1AB
330
1F
100
AcDbEntity
  8
仕上
  6
Continuous
 62
     3
370
     9
100
AcDbLine
 10
-224.9859454180744
 20
391.7308519817562
 30
0.0
 11
-209.9998267921241
 21
391.7308519817562
 31
0.0
  0
LINE
  5
1AC
330
1F
100
AcDbEntity
  8
仕上
  6
Continuous
 62
     3
370
     9
100
AcDbLine
 10
-211.0534503008869
 20
416.7309839496617
 30
0.0
 11
-192.9999934016047
 21
416.7309839496617
 31
0.0
  0
LINE
  5
1AD
330
1F
100
AcDbEntity
  8
仕上
  6
Continuous
 62
     3
370
     9
100
AcDbLine
 10
-221.4578741949958
 20
398.7307884722017
 30
0.0
 11
-192.9999934016047
 21
398.7307884722017
 31
0.0
  0
LINE
  5
1AE
330
1F
100
AcDbEntity
  8
仕上
  6
Continuous
 62
     3
370
     9
100
AcDbLine
 10
-192.9213570259713
 20
441.7310293136291
 30
0.0
 11
-163.9997987489444
 21
441.7310293136291
 31
0.0
  0
LINE
  5
1AF
330
1F
100
AcDbEntity
  8
仕上
  6
Continuous
 62
     3
370
     9
100
AcDbLine
 10
-174.9998845280828
 20
448.7309658040746
 30
0.0
 11
-174.9998845280828
 21
461.2656733631964
 31
0.0
  0
LINE
  5
1B0
330
1F
100
AcDbEntity
  8
仕上
  6
Continuous
 62
     3
370
     9
100
AcDbLine
 10
-169.244186813767
 20
466.7309014697207
 30
0.0
 11
-146.9999653584248
 21
466.7309014697207
 31
0.0
  0
LINE
  5
1B1
330
1F
100
AcDbEntity
  8
仕上
  6
Continuous
 62
     3
370
     9
100
AcDbLine
 10
-179.9998762800888
 20
448.7309658040746
 30
0.0
 11
-179.9998762800888
 21
456.2234188894843
 31
0.0
  0
LINE
  5
1B2
330
1F
100
AcDbEntity
  8
仕上
  6
Continuous
 62
     3
370
     9
100
AcDbLine
 10
-186.932175095017
 20
448.7309658040746
 30
0.0
 11
-179.9998762800888
 21
448.7309658040746
 31
0.0
  0
LINE
  5
1B3
330
1F
100
AcDbEntity
  8
仕上
  6
Continuous
 62
     3
370
     9
100
AcDbLine
 10
-137.1809840846707
 20
491.7308602297502
 30
0.0
 11
-117.9997707057644
 21
491.7308602297502
 31
0.0
  0
LINE
  5
1B4
330
1F
100
AcDbEntity
  8
仕上
  6
Continuous
 62
     3
370
     9
100
AcDbLine
 10
-157.9998779296875
 20
476.4721990111588
 30
0.0
 11
-157.9998779296875
 21
473.7309245641042
 31
0.0
  0
LINE
  5
1B5
330
1F
100
AcDbEntity
  8
仕上
  6
Continuous
 62
     3
370
     9
100
AcDbLine
 10
-125.8713758313978
 20
498.7307967201958
 30
0.0
 11
-100.9997641073692
 21
498.7307967201958
 31
0.0
  0
LINE
  5
1B6
330
1F
100
AcDbEntity
  8
仕上
  6
Continuous
 62
     3
370
     9
100
AcDbLine
 10
-100.9997641073692
 20
498.7307967201958
 30
0.0
 11
-100.9997641073692
 21
511.4196592888191
 31
0.0
  0
LINE
  5
1B7
330
1F
100
AcDbEntity
  8
仕上
  6
Continuous
 62
     3
370
     9
100
AcDbLine
 10
-203.9997327649916
 20
423.7309204401072
 30
0.0
 11
-163.9997987489444
 21
423.7309204401072
 31
0.0
  0
LINE
  5
1B8
330
1F
100
AcDbEntity
  8
仕上
  6
Continuous
 62
     3
370
     9
100
AcDbLine
 10
-203.9997327649916
 20
427.2427101228564
 30
0.0
 11
-203.9997327649916
 21
423.7309204401072
 31
0.0
  0
LINE
  5
1B9
330
1F
100
AcDbEntity
  8
仕上
  6
Continuous
 62
     3
370
     9
100
AcDbLine
 10
-66.48307181693426
 20
498.7307967201958
 30
0.0
 11
-55.00008247994094
 21
498.7307967201958
 31
0.0
  0
LINE
  5
1BA
330
1F
100
AcDbEntity
  8
仕上
  6
Continuous
 62
     3
370
     9
100
AcDbLine
 10
-83.49970637141055
 20
500.2550260276283
 30
0.0
 11
-91.74214955922716
 21
521.7272599803309
 31
0.0
  0
LINE
  5
1BB
330
1F
100
AcDbEntity
  8
仕上
  6
Continuous
 62
     3
370
     9
100
AcDbLine
 10
-55.00008247994094
 20
498.7307967201958
 30
0.0
 11
-55.00008247994094
 21
501.936181670576
 31
0.0
  0
LINE
  5
1BC
330
1F
100
AcDbEntity
  8
仕上
  6
Continuous
 62
     3
370
     9
100
AcDbLine
 10
-49.99991752005926
 20
498.7307967201958
 30
0.0
 11
-49.99991752005926
 21
503.1304499745245
 31
0.0
  0
LINE
  5
1BD
330
1F
100
AcDbEntity
  8
仕上
  6
Continuous
 62
     3
370
     9
100
AcDbLine
 10
-41.99996535842479
 20
498.7307967201958
 30
0.0
 11
-41.99996535842479
 21
504.79376520626
 31
0.0
  0
LINE
  5
1BE
330
1F
100
AcDbEntity
  8
仕上
  6
Continuous
 62
     3
370
     9
100
AcDbLine
 10
-36.99997360641896
 20
498.7307967201958
 30
0.0
 11
-36.99997360641896
 21
505.6816287778394
 31
0.0
  0
LINE
  5
1BF
330
1F
100
AcDbEntity
  8
仕上
  6
Continuous
 62
     3
370
     9
100
AcDbLine
 10
-8.99988122888513
 20
498.7307967201958
 30
0.0
 11
-8.99988122888513
 21
508.5515100727085
 31
0.0
  0
LINE
  5
1C0
330
1F
100
AcDbEntity
  8
仕上
  6
Continuous
 62
     3
370
     9
100
AcDbLine
 10
-3.999889476879304
 20
498.7307967201958
 30
0.0
 11
-3.999889476879304
 21
508.6954458175353
 31
0.0
  0
LINE
  5
1C1
330
1F
100
AcDbEntity
  8
仕上
  6
Continuous
 62
     3
370
     9
100
AcDbLine
 10
19.9999670080237
 20
341.731021065635
 30
0.0
 11
19.9999670080237
 21
323.7309121921131
 31
0.0
  0
LINE
  5
1C2
330
1F
100
AcDbEntity
  8
仕上
  6
Continuous
 62
     3
370
     9
100
AcDbLine
 10
65.99999505120346
 20
341.731021065635
 30
0.0
 11
65.99999505120346
 21
323.7309121921131
 31
0.0
  0
LINE
  5
1C3
330
1F
100
AcDbEntity
  8
仕上
  6
Continuous
 62
     3
370
     9
100
AcDbLine
 10
65.99999505120346
 20
323.7309121921131
 30
0.0
 11
26.00006103515625
 21
323.7309121921131
 31
0.0
  0
LINE
  5
1C4
330
1F
100
AcDbEntity
  8
仕上
  6
Continuous
 62
     3
370
     9
100
AcDbLine
 10
26.00006103515625
 20
341.731021065635
 30
0.0
 11
26.00006103515625
 21
323.7309121921131
 31
0.0
  0
LINE
  5
1C5
330
1F
100
AcDbEntity
  8
仕上
  6
Continuous
 62
     3
370
     9
100
AcDbLine
 10
65.99999505120346
 20
341.731021065635
 30
0.0
 11
26.00006103515625
 21
341.731021065635
 31
0.0
  0
LINE
  5
1C6
330
1F
100
AcDbEntity
  8
仕上
  6
Continuous
 62
     3
370
     9
100
AcDbLine
 10
112.0000230943834
 20
323.7309121921131
 30
0.0
 11
72.0000890783362
 21
323.7309121921131
 31
0.0
  0
LINE
  5
1C7
330
1F
100
AcDbEntity
  8
仕上
  6
Continuous
 62
     3
370
     9
100
AcDbLine
 10
41.99996535842479
 20
348.7308709521426
 30
0.0
 11
41.99996535842479
 21
366.7311530335404
 31
0.0
  0
LINE
  5
1C8
330
1F
100
AcDbEntity
  8
仕上
  6
Continuous
 62
     3
370
     9
100
AcDbLine
 10
36.99997360641896
 20
348.7308709521426
 30
0.0
 11
36.99997360641896
 21
366.7311530335404
 31
0.0
  0
LINE
  5
1C9
330
1F
100
AcDbEntity
  8
仕上
  6
Continuous
 62
     3
370
     9
100
AcDbLine
 10
50.00009072793492
 20
348.7308709521426
 30
0.0
 11
50.00009072793492
 21
366.7311530335404
 31
0.0
  0
LINE
  5
1CA
330
1F
100
AcDbEntity
  8
仕上
  6
Continuous
 62
     3
370
     9
100
AcDbLine
 10
55.00008247994074
 20
348.7308709521426
 30
0.0
 11
55.00008247994074
 21
366.7311530335404
 31
0.0
  0
LINE
  5
1CB
330
1F
100
AcDbEntity
  8
仕上
  6
Continuous
 62
     3
370
     9
100
AcDbLine
 10
50.00009072793492
 20
366.7311530335404
 30
0.0
 11
41.99996535842479
 21
366.7311530335404
 31
0.0
  0
LINE
  5
1CC
330
1F
100
AcDbEntity
  8
仕上
  6
Continuous
 62
     3
370
     9
100
AcDbLine
 10
50.00009072793492
 20
348.7308709521426
 30
0.0
 11
41.99996535842479
 21
348.7308709521426
 31
0.0
  0
LINE
  5
1CD
330
1F
100
AcDbEntity
  8
仕上
  6
Continuous
 62
     3
370
     9
100
AcDbLine
 10
83.00000164959872
 20
366.7311530335404
 30
0.0
 11
55.00008247994074
 21
366.7311530335404
 31
0.0
  0
LINE
  5
1CE
330
1F
100
AcDbEntity
  8
仕上
  6
Continuous
 62
     3
370
     9
100
AcDbLine
 10
83.00000164959872
 20
348.7308709521426
 30
0.0
 11
55.00008247994074
 21
348.7308709521426
 31
0.0
  0
LINE
  5
1CF
330
1F
100
AcDbEntity
  8
仕上
  6
Continuous
 62
     3
370
     9
100
AcDbLine
 10
36.99997360641896
 20
366.7311530335404
 30
0.0
 11
8.99988122888513
 21
366.7311530335404
 31
0.0
  0
LINE
  5
1D0
330
1F
100
AcDbEntity
  8
仕上
  6
Continuous
 62
     3
370
     9
100
AcDbLine
 10
19.9999670080237
 20
391.7308519817562
 30
0.0
 11
19.9999670080237
 21
373.7309163161102
 31
0.0
  0
LINE
  5
1D1
330
1F
100
AcDbEntity
  8
仕上
  6
Continuous
 62
     3
370
     9
100
AcDbLine
 10
65.99999505120346
 20
391.7308519817562
 30
0.0
 11
65.99999505120346
 21
373.7309163161102
 31
0.0
  0
LINE
  5
1D2
330
1F
100
AcDbEntity
  8
仕上
  6
Continuous
 62
     3
370
     9
100
AcDbLine
 10
65.99999505120346
 20
373.7309163161102
 30
0.0
 11
26.00006103515625
 21
373.7309163161102
 31
0.0
  0
LINE
  5
1D3
330
1F
100
AcDbEntity
  8
仕上
  6
Continuous
 62
     3
370
     9
100
AcDbLine
 10
26.00006103515625
 20
391.7308519817562
 30
0.0
 11
26.00006103515625
 21
373.7309163161102
 31
0.0
  0
LINE
  5
1D4
330
1F
100
AcDbEntity
  8
仕上
  6
Continuous
 62
     3
370
     9
100
AcDbLine
 10
65.99999505120346
 20
391.7308519817562
 30
0.0
 11
26.00006103515625
 21
391.7308519817562
 31
0.0
  0
LINE
  5
1D5
330
1F
100
AcDbEntity
  8
仕上
  6
Continuous
 62
     3
370
     9
100
AcDbLine
 10
112.0000230943834
 20
373.7309163161102
 30
0.0
 11
72.0000890783362
 21
373.7309163161102
 31
0.0
  0
LINE
  5
1D6
330
1F
100
AcDbEntity
  8
仕上
  6
Continuous
 62
     3
370
     9
100
AcDbLine
 10
72.0000890783362
 20
391.7308519817562
 30
0.0
 11
72.0000890783362
 21
373.7309163161102
 31
0.0
  0
LINE
  5
1D7
330
1F
100
AcDbEntity
  8
仕上
  6
Continuous
 62
     3
370
     9
100
AcDbLine
 10
41.99996535842479
 20
398.7310482840155
 30
0.0
 11
41.99996535842479
 21
416.7309839496617
 31
0.0
  0
LINE
  5
1D8
330
1F
100
AcDbEntity
  8
仕上
  6
Continuous
 62
     3
370
     9
100
AcDbLine
 10
36.99997360641896
 20
398.7310482840155
 30
0.0
 11
36.99997360641896
 21
416.7309839496617
 31
0.0
  0
LINE
  5
1D9
330
1F
100
AcDbEntity
  8
仕上
  6
Continuous
 62
     3
370
     9
100
AcDbLine
 10
50.00009072793492
 20
398.7310482840155
 30
0.0
 11
50.00009072793492
 21
416.7309839496617
 31
0.0
  0
LINE
  5
1DA
330
1F
100
AcDbEntity
  8
仕上
  6
Continuous
 62
     3
370
     9
100
AcDbLine
 10
55.00008247994074
 20
398.7310482840155
 30
0.0
 11
55.00008247994074
 21
416.7309839496617
 31
0.0
  0
LINE
  5
1DB
330
1F
100
AcDbEntity
  8
仕上
  6
Continuous
 62
     3
370
     9
100
AcDbLine
 10
50.00009072793492
 20
416.7309839496617
 30
0.0
 11
41.99996535842479
 21
416.7309839496617
 31
0.0
  0
LINE
  5
1DC
330
1F
100
AcDbEntity
  8
仕上
  6
Continuous
 62
     3
370
     9
100
AcDbLine
 10
50.00009072793492
 20
398.7310482840155
 30
0.0
 11
41.99996535842479
 21
398.7310482840155
 31
0.0
  0
LINE
  5
1DD
330
1F
100
AcDbEntity
  8
仕上
  6
Continuous
 62
     3
370
     9
100
AcDbLine
 10
83.00000164959872
 20
398.7310482840155
 30
0.0
 11
55.00008247994074
 21
398.7310482840155
 31
0.0
  0
LINE
  5
1DE
330
1F
100
AcDbEntity
  8
仕上
  6
Continuous
 62
     3
370
     9
100
AcDbLine
 10
8.99988122888513
 20
398.7310482840155
 30
0.0
 11
8.99988122888513
 21
416.7309839496617
 31
0.0
  0
LINE
  5
1DF
330
1F
100
AcDbEntity
  8
仕上
  6
Continuous
 62
     3
370
     9
100
AcDbLine
 10
36.99997360641896
 20
416.7309839496617
 30
0.0
 11
8.99988122888513
 21
416.7309839496617
 31
0.0
  0
LINE
  5
1E0
330
1F
100
AcDbEntity
  8
仕上
  6
Continuous
 62
     3
370
     9
100
AcDbLine
 10
36.99997360641896
 20
398.7310482840155
 30
0.0
 11
8.99988122888513
 21
398.7310482840155
 31
0.0
  0
LINE
  5
1E1
330
1F
100
AcDbEntity
  8
仕上
  6
Continuous
 62
     3
370
     9
100
AcDbLine
 10
117.9997707057642
 20
341.731021065635
 30
0.0
 11
117.9997707057642
 21
323.7309121921131
 31
0.0
  0
LINE
  5
1E2
330
1F
100
AcDbEntity
  8
仕上
  6
Continuous
 62
     3
370
     9
100
AcDbLine
 10
87.99999340160474
 20
348.7308709521426
 30
0.0
 11
87.99999340160474
 21
366.7311530335404
 31
0.0
  0
LINE
  5
1E3
330
1F
100
AcDbEntity
  8
仕上
  6
Continuous
 62
     3
370
     9
100
AcDbLine
 10
83.00000164959872
 20
348.7308709521426
 30
0.0
 11
83.00000164959872
 21
366.7311530335404
 31
0.0
  0
LINE
  5
1E4
330
1F
100
AcDbEntity
  8
仕上
  6
Continuous
 62
     3
370
     9
100
AcDbLine
 10
95.99994556323901
 20
348.7308709521426
 30
0.0
 11
95.99994556323901
 21
366.7311530335404
 31
0.0
  0
LINE
  5
1E5
330
1F
100
AcDbEntity
  8
仕上
  6
Continuous
 62
     3
370
     9
100
AcDbLine
 10
100.9999373152448
 20
348.7308709521426
 30
0.0
 11
100.9999373152448
 21
366.7311530335404
 31
0.0
  0
LINE
  5
1E6
330
1F
100
AcDbEntity
  8
仕上
  6
Continuous
 62
     3
370
     9
100
AcDbLine
 10
95.99994556323901
 20
366.7311530335404
 30
0.0
 11
87.99999340160474
 21
366.7311530335404
 31
0.0
  0
LINE
  5
1E7
330
1F
100
AcDbEntity
  8
仕上
  6
Continuous
 62
     3
370
     9
100
AcDbLine
 10
95.99994556323901
 20
348.7308709521426
 30
0.0
 11
87.99999340160474
 21
348.7308709521426
 31
0.0
  0
LINE
  5
1E8
330
1F
100
AcDbEntity
  8
仕上
  6
Continuous
 62
     3
370
     9
100
AcDbLine
 10
128.9998564849028
 20
366.7311530335404
 30
0.0
 11
100.9999373152448
 21
366.7311530335404
 31
0.0
  0
LINE
  5
1E9
330
1F
100
AcDbEntity
  8
仕上
  6
Continuous
 62
     3
370
     9
100
AcDbLine
 10
128.9998564849028
 20
348.7308709521426
 30
0.0
 11
100.9999373152448
 21
348.7308709521426
 31
0.0
  0
LINE
  5
1EA
330
1F
100
AcDbEntity
  8
仕上
  6
Continuous
 62
     3
370
     9
100
AcDbLine
 10
83.00000164959872
 20
298.7310400360213
 30
0.0
 11
83.00000164959872
 21
316.7307158898538
 31
0.0
  0
LINE
  5
1EB
330
1F
100
AcDbEntity
  8
仕上
  6
Continuous
 62
     3
370
     9
100
AcDbLine
 10
95.99994556323901
 20
398.7310482840155
 30
0.0
 11
87.99999340160474
 21
398.7310482840155
 31
0.0
  0
LINE
  5
1EC
330
1F
100
AcDbEntity
  8
仕上
  6
Continuous
 62
     3
370
     9
100
AcDbLine
 10
128.9998564849028
 20
348.7308709521426
 30
0.0
 11
128.9998564849028
 21
366.7311530335404
 31
0.0
  0
LINE
  5
1ED
330
1F
100
AcDbEntity
  8
仕上
  6
Continuous
 62
     3
370
     9
100
AcDbLine
 10
157.9998779296875
 20
341.731021065635
 30
0.0
 11
117.9997707057642
 21
341.731021065635
 31
0.0
  0
LINE
  5
1EE
330
1F
100
AcDbEntity
  8
仕上
  6
Continuous
 62
     3
370
     9
100
AcDbLine
 10
157.9998779296875
 20
323.7309121921131
 30
0.0
 11
117.9997707057642
 21
323.7309121921131
 31
0.0
  0
LINE
  5
1EF
330
1F
100
AcDbEntity
  8
仕上
  6
Continuous
 62
     3
370
     9
100
AcDbLine
 10
101.0001105231207
 20
316.7307158898538
 30
0.0
 11
129.0000296927787
 21
316.7307158898538
 31
0.0
  0
LINE
  5
1F0
330
1F
100
AcDbEntity
  8
仕上
  6
Continuous
 62
     3
370
     9
100
AcDbLine
 10
141.999973606419
 20
348.7308709521426
 30
0.0
 11
134.0000214447847
 21
348.7308709521426
 31
0.0
  0
LINE
  5
1F1
330
1F
100
AcDbEntity
  8
仕上
  6
Continuous
 62
     3
370
     9
100
AcDbLine
 10
134.0000214447847
 20
348.7308709521426
 30
0.0
 11
134.0000214447847
 21
366.7311530335404
 31
0.0
  0
LINE
  5
1F2
330
1F
100
AcDbEntity
  8
仕上
  6
Continuous
 62
     3
370
     9
100
AcDbLine
 10
157.9998779296875
 20
373.7309163161102
 30
0.0
 11
117.9997707057642
 21
373.7309163161102
 31
0.0
  0
LINE
  5
1F3
330
1F
100
AcDbEntity
  8
仕上
  6
Continuous
 62
     3
370
     9
100
AcDbLine
 10
117.9997707057642
 20
391.7308519817562
 30
0.0
 11
117.9997707057642
 21
373.7309163161102
 31
0.0
  0
LINE
  5
1F4
330
1F
100
AcDbEntity
  8
仕上
  6
Continuous
 62
     3
370
     9
100
AcDbLine
 10
87.99999340160474
 20
398.7310482840155
 30
0.0
 11
87.99999340160474
 21
416.7309839496617
 31
0.0
  0
LINE
  5
1F5
330
1F
100
AcDbEntity
  8
仕上
  6
Continuous
 62
     3
370
     9
100
AcDbLine
 10
95.99994556323901
 20
398.7310482840155
 30
0.0
 11
95.99994556323901
 21
416.7309839496617
 31
0.0
  0
LINE
  5
1F6
330
1F
100
AcDbEntity
  8
仕上
  6
Continuous
 62
     3
370
     9
100
AcDbLine
 10
100.9999373152448
 20
398.7310482840155
 30
0.0
 11
100.9999373152448
 21
416.7309839496617
 31
0.0
  0
LINE
  5
1F7
330
1F
100
AcDbEntity
  8
仕上
  6
Continuous
 62
     3
370
     9
100
AcDbLine
 10
128.9998564849028
 20
398.7310482840155
 30
0.0
 11
100.9999373152448
 21
398.7310482840155
 31
0.0
  0
LINE
  5
1F8
330
1F
100
AcDbEntity
  8
仕上
  6
Continuous
 62
     3
370
     9
100
AcDbLine
 10
65.99999505120346
 20
423.7309204401072
 30
0.0
 11
26.00006103515625
 21
423.7309204401072
 31
0.0
  0
LINE
  5
1F9
330
1F
100
AcDbEntity
  8
仕上
  6
Continuous
 62
     3
370
     9
100
AcDbLine
 10
26.00006103515625
 20
441.7310293136291
 30
0.0
 11
26.00006103515625
 21
423.7309204401072
 31
0.0
  0
LINE
  5
1FA
330
1F
100
AcDbEntity
  8
仕上
  6
Continuous
 62
     3
370
     9
100
AcDbLine
 10
19.9999670080237
 20
441.7310293136291
 30
0.0
 11
19.9999670080237
 21
423.7309204401072
 31
0.0
  0
LINE
  5
1FB
330
1F
100
AcDbEntity
  8
仕上
  6
Continuous
 62
     3
370
     9
100
AcDbLine
 10
83.00000164959872
 20
398.7310482840155
 30
0.0
 11
83.00000164959872
 21
416.7309839496617
 31
0.0
  0
LINE
  5
1FC
330
1F
100
AcDbEntity
  8
仕上
  6
Continuous
 62
     3
370
     9
100
AcDbLine
 10
83.00000164959872
 20
416.7309839496617
 30
0.0
 11
55.00008247994074
 21
416.7309839496617
 31
0.0
  0
LINE
  5
1FD
330
1F
100
AcDbEntity
  8
仕上
  6
Continuous
 62
     3
370
     9
100
AcDbLine
 10
112.0000230943834
 20
391.7308519817562
 30
0.0
 11
72.0000890783362
 21
391.7308519817562
 31
0.0
  0
LINE
  5
1FE
330
1F
100
AcDbEntity
  8
仕上
  6
Continuous
 62
     3
370
     9
100
AcDbLine
 10
112.0000230943834
 20
391.7308519817562
 30
0.0
 11
112.0000230943834
 21
373.7309163161102
 31
0.0
  0
LINE
  5
1FF
330
1F
100
AcDbEntity
  8
仕上
  6
Continuous
 62
     3
370
     9
100
AcDbLine
 10
65.99999505120346
 20
441.7310293136291
 30
0.0
 11
65.99999505120346
 21
423.7309204401072
 31
0.0
  0
LINE
  5
200
330
1F
100
AcDbEntity
  8
仕上
  6
Continuous
 62
     3
370
     9
100
AcDbLine
 10
65.99999505120346
 20
441.7310293136291
 30
0.0
 11
26.00006103515625
 21
441.7310293136291
 31
0.0
  0
LINE
  5
201
330
1F
100
AcDbEntity
  8
仕上
  6
Continuous
 62
     3
370
     9
100
AcDbLine
 10
112.0000230943834
 20
423.7309204401072
 30
0.0
 11
72.0000890783362
 21
423.7309204401072
 31
0.0
  0
LINE
  5
202
330
1F
100
AcDbEntity
  8
仕上
  6
Continuous
 62
     3
370
     9
100
AcDbLine
 10
72.0000890783362
 20
441.7310293136291
 30
0.0
 11
72.0000890783362
 21
423.7309204401072
 31
0.0
  0
LINE
  5
203
330
1F
100
AcDbEntity
  8
仕上
  6
Continuous
 62
     3
370
     9
100
AcDbLine
 10
95.99994556323901
 20
416.7309839496617
 30
0.0
 11
87.99999340160474
 21
416.7309839496617
 31
0.0
  0
LINE
  5
204
330
1F
100
AcDbEntity
  8
仕上
  6
Continuous
 62
     3
370
     9
100
AcDbLine
 10
128.9998564849028
 20
416.7309839496617
 30
0.0
 11
100.9999373152448
 21
416.7309839496617
 31
0.0
  0
LINE
  5
205
330
1F
100
AcDbEntity
  8
仕上
  6
Continuous
 62
     3
370
     9
100
AcDbLine
 10
128.9998564849028
 20
398.7307884722017
 30
0.0
 11
128.9998564849028
 21
416.7309839496617
 31
0.0
  0
LINE
  5
206
330
1F
100
AcDbEntity
  8
仕上
  6
Continuous
 62
     3
370
     9
100
AcDbLine
 10
141.999973606419
 20
398.7307884722017
 30
0.0
 11
134.0000214447847
 21
398.7307884722017
 31
0.0
  0
LINE
  5
207
330
1F
100
AcDbEntity
  8
仕上
  6
Continuous
 62
     3
370
     9
100
AcDbLine
 10
134.0000214447847
 20
398.7307884722017
 30
0.0
 11
134.0000214447847
 21
416.7309839496617
 31
0.0
  0
LINE
  5
208
330
1F
100
AcDbEntity
  8
仕上
  6
Continuous
 62
     3
370
     9
100
AcDbLine
 10
157.9998779296875
 20
423.7309204401072
 30
0.0
 11
117.9997707057642
 21
423.7309204401072
 31
0.0
  0
LINE
  5
209
330
1F
100
AcDbEntity
  8
仕上
  6
Continuous
 62
     3
370
     9
100
AcDbLine
 10
117.9997707057642
 20
441.7310293136291
 30
0.0
 11
117.9997707057642
 21
423.7309204401072
 31
0.0
  0
LINE
  5
20A
330
1F
100
AcDbEntity
  8
仕上
  6
Continuous
 62
     3
370
     9
100
AcDbLine
 10
112.0000230943834
 20
441.7310293136291
 30
0.0
 11
72.0000890783362
 21
441.7310293136291
 31
0.0
  0
LINE
  5
20B
330
1F
100
AcDbEntity
  8
仕上
  6
Continuous
 62
     3
370
     9
100
AcDbLine
 10
112.0000230943834
 20
441.7310293136291
 30
0.0
 11
112.0000230943834
 21
423.7309204401072
 31
0.0
  0
LINE
  5
20C
330
1F
100
AcDbEntity
  8
仕上
  6
Continuous
 62
     3
370
     9
100
AcDbLine
 10
41.99996535842479
 20
448.7309658040746
 30
0.0
 11
41.99996535842479
 21
466.7309014697207
 31
0.0
  0
LINE
  5
20D
330
1F
100
AcDbEntity
  8
仕上
  6
Continuous
 62
     3
370
     9
100
AcDbLine
 10
36.99997360641896
 20
448.7309658040746
 30
0.0
 11
36.99997360641896
 21
466.7309014697207
 31
0.0
  0
LINE
  5
20E
330
1F
100
AcDbEntity
  8
仕上
  6
Continuous
 62
     3
370
     9
100
AcDbLine
 10
50.00009072793492
 20
448.7309658040746
 30
0.0
 11
50.00009072793492
 21
466.7309014697207
 31
0.0
  0
LINE
  5
20F
330
1F
100
AcDbEntity
  8
仕上
  6
Continuous
 62
     3
370
     9
100
AcDbLine
 10
55.00008247994074
 20
448.7309658040746
 30
0.0
 11
55.00008247994074
 21
466.7309014697207
 31
0.0
  0
LINE
  5
210
330
1F
100
AcDbEntity
  8
仕上
  6
Continuous
 62
     3
370
     9
100
AcDbLine
 10
50.00009072793492
 20
466.7309014697207
 30
0.0
 11
41.99996535842479
 21
466.7309014697207
 31
0.0
  0
LINE
  5
211
330
1F
100
AcDbEntity
  8
仕上
  6
Continuous
 62
     3
370
     9
100
AcDbLine
 10
50.00009072793492
 20
448.7309658040746
 30
0.0
 11
41.99996535842479
 21
448.7309658040746
 31
0.0
  0
LINE
  5
212
330
1F
100
AcDbEntity
  8
仕上
  6
Continuous
 62
     3
370
     9
100
AcDbLine
 10
83.00000164959872
 20
466.7309014697207
 30
0.0
 11
55.00008247994074
 21
466.7309014697207
 31
0.0
  0
LINE
  5
213
330
1F
100
AcDbEntity
  8
仕上
  6
Continuous
 62
     3
370
     9
100
AcDbLine
 10
83.00000164959872
 20
448.7309658040746
 30
0.0
 11
55.00008247994074
 21
448.7309658040746
 31
0.0
  0
LINE
  5
214
330
1F
100
AcDbEntity
  8
仕上
  6
Continuous
 62
     3
370
     9
100
AcDbLine
 10
8.99988122888513
 20
448.7309658040746
 30
0.0
 11
8.99988122888513
 21
466.7309014697207
 31
0.0
  0
LINE
  5
215
330
1F
100
AcDbEntity
  8
仕上
  6
Continuous
 62
     3
370
     9
100
AcDbLine
 10
36.99997360641896
 20
466.7309014697207
 30
0.0
 11
8.99988122888513
 21
466.7309014697207
 31
0.0
  0
LINE
  5
216
330
1F
100
AcDbEntity
  8
仕上
  6
Continuous
 62
     3
370
     9
100
AcDbLine
 10
36.99997360641896
 20
448.7309658040746
 30
0.0
 11
8.99988122888513
 21
448.7309658040746
 31
0.0
  0
LINE
  5
217
330
1F
100
AcDbEntity
  8
仕上
  6
Continuous
 62
     3
370
     9
100
AcDbLine
 10
87.99999340160474
 20
448.7309658040746
 30
0.0
 11
87.99999340160474
 21
466.7309014697207
 31
0.0
  0
LINE
  5
218
330
1F
100
AcDbEntity
  8
仕上
  6
Continuous
 62
     3
370
     9
100
AcDbLine
 10
83.00000164959872
 20
448.7309658040746
 30
0.0
 11
83.00000164959872
 21
466.7309014697207
 31
0.0
  0
LINE
  5
219
330
1F
100
AcDbEntity
  8
仕上
  6
Continuous
 62
     3
370
     9
100
AcDbLine
 10
95.99994556323901
 20
448.7309658040746
 30
0.0
 11
95.99994556323901
 21
466.7309014697207
 31
0.0
  0
LINE
  5
21A
330
1F
100
AcDbEntity
  8
仕上
  6
Continuous
 62
     3
370
     9
100
AcDbLine
 10
100.9999373152448
 20
448.7309658040746
 30
0.0
 11
100.9999373152448
 21
466.7309014697207
 31
0.0
  0
LINE
  5
21B
330
1F
100
AcDbEntity
  8
仕上
  6
Continuous
 62
     3
370
     9
100
AcDbLine
 10
95.99994556323901
 20
466.7309014697207
 30
0.0
 11
87.99999340160474
 21
466.7309014697207
 31
0.0
  0
LINE
  5
21C
330
1F
100
AcDbEntity
  8
仕上
  6
Continuous
 62
     3
370
     9
100
AcDbLine
 10
95.99994556323901
 20
448.7309658040746
 30
0.0
 11
87.99999340160474
 21
448.7309658040746
 31
0.0
  0
LINE
  5
21D
330
1F
100
AcDbEntity
  8
仕上
  6
Continuous
 62
     3
370
     9
100
AcDbLine
 10
128.9998564849028
 20
448.7309658040746
 30
0.0
 11
100.9999373152448
 21
448.7309658040746
 31
0.0
  0
LINE
  5
21E
330
1F
100
AcDbEntity
  8
仕上
  6
Continuous
 62
     3
370
     9
100
AcDbLine
 10
128.9998564849028
 20
448.7309658040746
 30
0.0
 11
128.9998564849028
 21
466.7309014697207
 31
0.0
  0
LINE
  5
21F
330
1F
100
AcDbEntity
  8
仕上
  6
Continuous
 62
     3
370
     9
100
AcDbLine
 10
157.9998779296875
 20
341.731021065635
 30
0.0
 11
157.9998779296875
 21
323.7309121921131
 31
0.0
  0
LINE
  5
220
330
1F
100
AcDbEntity
  8
仕上
  6
Continuous
 62
     3
370
     9
100
AcDbLine
 10
163.99997195682
 20
341.731021065635
 30
0.0
 11
163.99997195682
 21
323.7309121921131
 31
0.0
  0
LINE
  5
221
330
1F
100
AcDbEntity
  8
仕上
  6
Continuous
 62
     3
370
     9
100
AcDbLine
 10
141.999973606419
 20
348.7308709521426
 30
0.0
 11
141.999973606419
 21
366.7311530335404
 31
0.0
  0
LINE
  5
222
330
1F
100
AcDbEntity
  8
仕上
  6
Continuous
 62
     3
370
     9
100
AcDbLine
 10
146.9999653584248
 20
348.7308709521426
 30
0.0
 11
146.9999653584248
 21
366.7311530335404
 31
0.0
  0
LINE
  5
223
330
1F
100
AcDbEntity
  8
仕上
  6
Continuous
 62
     3
370
     9
100
AcDbLine
 10
141.999973606419
 20
366.7311530335404
 30
0.0
 11
134.0000214447847
 21
366.7311530335404
 31
0.0
  0
LINE
  5
224
330
1F
100
AcDbEntity
  8
仕上
  6
Continuous
 62
     3
370
     9
100
AcDbLine
 10
174.9998845280828
 20
366.7311530335404
 30
0.0
 11
146.9999653584248
 21
366.7311530335404
 31
0.0
  0
LINE
  5
225
330
1F
100
AcDbEntity
  8
仕上
  6
Continuous
 62
     3
370
     9
100
AcDbLine
 10
174.9998845280828
 20
348.7308709521426
 30
0.0
 11
146.9999653584248
 21
348.7308709521426
 31
0.0
  0
LINE
  5
226
330
1F
100
AcDbEntity
  8
仕上
  6
Continuous
 62
     3
370
     9
100
AcDbLine
 10
174.9998845280828
 20
348.7308709521426
 30
0.0
 11
174.9998845280828
 21
366.7311530335404
 31
0.0
  0
LINE
  5
227
330
1F
100
AcDbEntity
  8
仕上
  6
Continuous
 62
     3
370
     9
100
AcDbLine
 10
188.0000016495987
 20
348.7308709521426
 30
0.0
 11
179.9998762800886
 21
348.7308709521426
 31
0.0
  0
LINE
  5
228
330
1F
100
AcDbEntity
  8
仕上
  6
Continuous
 62
     3
370
     9
100
AcDbLine
 10
179.9998762800886
 20
348.7308709521426
 30
0.0
 11
179.9998762800886
 21
366.7311530335404
 31
0.0
  0
LINE
  5
229
330
1F
100
AcDbEntity
  8
仕上
  6
Continuous
 62
     3
370
     9
100
AcDbLine
 10
163.99997195682
 20
391.7308519817562
 30
0.0
 11
163.99997195682
 21
373.7309163161102
 31
0.0
  0
LINE
  5
22A
330
1F
100
AcDbEntity
  8
仕上
  6
Continuous
 62
     3
370
     9
100
AcDbLine
 10
157.9998779296875
 20
391.7308519817562
 30
0.0
 11
117.9997707057642
 21
391.7308519817562
 31
0.0
  0
LINE
  5
22B
330
1F
100
AcDbEntity
  8
仕上
  6
Continuous
 62
     3
370
     9
100
AcDbLine
 10
157.9998779296875
 20
391.7308519817562
 30
0.0
 11
157.9998779296875
 21
373.7309163161102
 31
0.0
  0
LINE
  5
22C
330
1F
100
AcDbEntity
  8
仕上
  6
Continuous
 62
     3
370
     9
100
AcDbLine
 10
203.9997327649916
 20
323.7309121921131
 30
0.0
 11
163.99997195682
 21
323.7309121921131
 31
0.0
  0
LINE
  5
22D
330
1F
100
AcDbEntity
  8
仕上
  6
Continuous
 62
     3
370
     9
100
AcDbLine
 10
203.9997327649916
 20
341.731021065635
 30
0.0
 11
163.99997195682
 21
341.731021065635
 31
0.0
  0
LINE
  5
22E
330
1F
100
AcDbEntity
  8
仕上
  6
Continuous
 62
     3
370
     9
100
AcDbLine
 10
203.9997327649916
 20
341.731021065635
 30
0.0
 11
203.9997327649916
 21
323.7309121921131
 31
0.0
  0
LINE
  5
22F
330
1F
100
AcDbEntity
  8
仕上
  6
Continuous
 62
     3
370
     9
100
AcDbLine
 10
210.0
 20
341.731021065635
 30
0.0
 11
210.0
 21
323.7309121921131
 31
0.0
  0
LINE
  5
230
330
1F
100
AcDbEntity
  8
仕上
  6
Continuous
 62
     3
370
     9
100
AcDbLine
 10
188.0000016495987
 20
348.7308709521426
 30
0.0
 11
188.0000016495987
 21
366.7311530335404
 31
0.0
  0
LINE
  5
231
330
1F
100
AcDbEntity
  8
仕上
  6
Continuous
 62
     3
370
     9
100
AcDbLine
 10
192.9999934016047
 20
348.7308709521426
 30
0.0
 11
192.9999934016047
 21
366.7311530335404
 31
0.0
  0
LINE
  5
232
330
1F
100
AcDbEntity
  8
仕上
  6
Continuous
 62
     3
370
     9
100
AcDbLine
 10
188.0000016495987
 20
366.7311530335404
 30
0.0
 11
179.9998762800886
 21
366.7311530335404
 31
0.0
  0
LINE
  5
233
330
1F
100
AcDbEntity
  8
仕上
  6
Continuous
 62
     3
370
     9
100
AcDbLine
 10
141.999973606419
 20
398.7307884722017
 30
0.0
 11
141.999973606419
 21
416.7309839496617
 31
0.0
  0
LINE
  5
234
330
1F
100
AcDbEntity
  8
仕上
  6
Continuous
 62
     3
370
     9
100
AcDbLine
 10
146.9999653584248
 20
398.7307884722017
 30
0.0
 11
146.9999653584248
 21
416.7309839496617
 31
0.0
  0
LINE
  5
235
330
1F
100
AcDbEntity
  8
仕上
  6
Continuous
 62
     3
370
     9
100
AcDbLine
 10
141.999973606419
 20
416.7309839496617
 30
0.0
 11
134.0000214447847
 21
416.7309839496617
 31
0.0
  0
LINE
  5
236
330
1F
100
AcDbEntity
  8
仕上
  6
Continuous
 62
     3
370
     9
100
AcDbLine
 10
174.9998845280828
 20
416.7309839496617
 30
0.0
 11
146.9999653584248
 21
416.7309839496617
 31
0.0
  0
LINE
  5
237
330
1F
100
AcDbEntity
  8
仕上
  6
Continuous
 62
     3
370
     9
100
AcDbLine
 10
174.9998845280828
 20
398.7307884722017
 30
0.0
 11
146.9999653584248
 21
398.7307884722017
 31
0.0
  0
LINE
  5
238
330
1F
100
AcDbEntity
  8
仕上
  6
Continuous
 62
     3
370
     9
100
AcDbLine
 10
157.9998779296875
 20
441.7310293136291
 30
0.0
 11
157.9998779296875
 21
423.7309204401072
 31
0.0
  0
LINE
  5
239
330
1F
100
AcDbEntity
  8
仕上
  6
Continuous
 62
     3
370
     9
100
AcDbLine
 10
157.9998779296875
 20
441.7310293136291
 30
0.0
 11
117.9997707057642
 21
441.7310293136291
 31
0.0
  0
LINE
  5
23A
330
1F
100
AcDbEntity
  8
仕上
  6
Continuous
 62
     3
370
     9
100
AcDbLine
 10
174.9998845280828
 20
398.7307884722017
 30
0.0
 11
174.9998845280828
 21
416.7309839496617
 31
0.0
  0
LINE
  5
23B
330
1F
100
AcDbEntity
  8
仕上
  6
Continuous
 62
     3
370
     9
100
AcDbLine
 10
188.0000016495987
 20
398.7307884722017
 30
0.0
 11
179.9998762800886
 21
398.7307884722017
 31
0.0
  0
LINE
  5
23C
330
1F
100
AcDbEntity
  8
仕上
  6
Continuous
 62
     3
370
     9
100
AcDbLine
 10
96.00011877111487
 20
298.7310400360213
 30
0.0
 11
96.00011877111487
 21
316.7307158898538
 31
0.0
  0
LINE
  5
23D
330
1F
100
AcDbEntity
  8
仕上
  6
Continuous
 62
     3
370
     9
100
AcDbLine
 10
87.99999340160474
 20
298.7310400360213
 30
0.0
 11
87.99999340160474
 21
316.7307158898538
 31
0.0
  0
LINE
  5
23E
330
1F
100
AcDbEntity
  8
仕上
  6
Continuous
 62
     3
370
     9
100
AcDbLine
 10
87.99999340160474
 20
316.7307158898538
 30
0.0
 11
96.00011877111487
 21
316.7307158898538
 31
0.0
  0
LINE
  5
23F
330
1F
100
AcDbEntity
  8
仕上
  6
Continuous
 62
     3
370
     9
100
AcDbLine
 10
87.99999340160474
 20
298.7310400360213
 30
0.0
 11
96.00011877111487
 21
298.7310400360213
 31
0.0
  0
LINE
  5
240
330
1F
100
AcDbEntity
  8
仕上
  6
Continuous
 62
     3
370
     9
100
AcDbLine
 10
72.0000890783362
 20
291.7309303377001
 30
0.0
 11
72.0000890783362
 21
282.7308759009392
 31
0.0
  0
LINE
  5
241
330
1F
100
AcDbEntity
  8
仕上
  6
Continuous
 62
     3
370
     9
100
AcDbLine
 10
220.9997393633869
 20
348.7308709521426
 30
0.0
 11
192.9999934016047
 21
348.7308709521426
 31
0.0
  0
LINE
  5
242
330
1F
100
AcDbEntity
  8
仕上
  6
Continuous
 62
     3
370
     9
100
AcDbLine
 10
220.9997393633869
 20
366.7311530335404
 30
0.0
 11
192.9999934016047
 21
366.7311530335404
 31
0.0
  0
LINE
  5
243
330
1F
100
AcDbEntity
  8
仕上
  6
Continuous
 62
     3
370
     9
100
AcDbLine
 10
203.9997327649916
 20
373.7309163161102
 30
0.0
 11
163.99997195682
 21
373.7309163161102
 31
0.0
  0
LINE
  5
244
330
1F
100
AcDbEntity
  8
仕上
  6
Continuous
 62
     3
370
     9
100
AcDbLine
 10
203.9997327649916
 20
391.7308519817562
 30
0.0
 11
203.9997327649916
 21
373.7309163161102
 31
0.0
  0
LINE
  5
245
330
1F
100
AcDbEntity
  8
仕上
  6
Continuous
 62
     3
370
     9
100
AcDbLine
 10
203.9997327649916
 20
391.7308519817562
 30
0.0
 11
163.99997195682
 21
391.7308519817562
 31
0.0
  0
LINE
  5
246
330
1F
100
AcDbEntity
  8
仕上
  6
Continuous
 62
     3
370
     9
100
AcDbLine
 10
188.0000016495987
 20
398.7307884722017
 30
0.0
 11
188.0000016495987
 21
416.7309839496617
 31
0.0
  0
LINE
  5
247
330
1F
100
AcDbEntity
  8
仕上
  6
Continuous
 62
     3
370
     9
100
AcDbLine
 10
163.99997195682
 20
441.7310293136291
 30
0.0
 11
163.99997195682
 21
423.7309204401072
 31
0.0
  0
LINE
  5
248
330
1F
100
AcDbEntity
  8
仕上
  6
Continuous
 62
     3
370
     9
100
AcDbLine
 10
128.9998564849028
 20
466.7309014697207
 30
0.0
 11
100.9999373152448
 21
466.7309014697207
 31
0.0
  0
LINE
  5
249
330
1F
100
AcDbEntity
  8
仕上
  6
Continuous
 62
     3
370
     9
100
AcDbLine
 10
112.0000230943834
 20
491.7308602297502
 30
0.0
 11
112.0000230943834
 21
473.7309245641042
 31
0.0
  0
LINE
  5
24A
330
1F
100
AcDbEntity
  8
仕上
  6
Continuous
 62
     3
370
     9
100
AcDbLine
 10
157.9998779296875
 20
473.7309245641042
 30
0.0
 11
117.9997707057642
 21
473.7309245641042
 31
0.0
  0
LINE
  5
24B
330
1F
100
AcDbEntity
  8
仕上
  6
Continuous
 62
     3
370
     9
100
AcDbLine
 10
117.9997707057642
 20
491.7308602297502
 30
0.0
 11
117.9997707057642
 21
473.7309245641042
 31
0.0
  0
LINE
  5
24C
330
1F
100
AcDbEntity
  8
仕上
  6
Continuous
 62
     3
370
     9
100
AcDbLine
 10
179.9998762800886
 20
398.7307884722017
 30
0.0
 11
179.9998762800886
 21
416.7309839496617
 31
0.0
  0
LINE
  5
24D
330
1F
100
AcDbEntity
  8
仕上
  6
Continuous
 62
     3
370
     9
100
AcDbLine
 10
188.0000016495987
 20
416.7309839496617
 30
0.0
 11
179.9998762800886
 21
416.7309839496617
 31
0.0
  0
LINE
  5
24E
330
1F
100
AcDbEntity
  8
仕上
  6
Continuous
 62
     3
370
     9
100
AcDbLine
 10
141.999973606419
 20
448.7309658040746
 30
0.0
 11
134.0000214447847
 21
448.7309658040746
 31
0.0
  0
LINE
  5
24F
330
1F
100
AcDbEntity
  8
仕上
  6
Continuous
 62
     3
370
     9
100
AcDbLine
 10
146.9999653584248
 20
448.7309658040746
 30
0.0
 11
174.9998845280828
 21
448.7309658040746
 31
0.0
  0
LINE
  5
250
330
1F
100
AcDbEntity
  8
仕上
  6
Continuous
 62
     3
370
     9
100
AcDbLine
 10
146.9999653584248
 20
448.7309658040746
 30
0.0
 11
146.9999653584248
 21
466.7309014697207
 31
0.0
  0
LINE
  5
251
330
1F
100
AcDbEntity
  8
仕上
  6
Continuous
 62
     3
370
     9
100
AcDbLine
 10
141.999973606419
 20
448.7309658040746
 30
0.0
 11
141.999973606419
 21
466.7309014697207
 31
0.0
  0
LINE
  5
252
330
1F
100
AcDbEntity
  8
仕上
  6
Continuous
 62
     3
370
     9
100
AcDbLine
 10
134.0000214447847
 20
448.7309658040746
 30
0.0
 11
134.0000214447847
 21
466.7309014697207
 31
0.0
  0
LINE
  5
253
330
1F
100
AcDbEntity
  8
仕上
  6
Continuous
 62
     3
370
     9
100
AcDbLine
 10
26.00006103515625
 20
491.7308602297502
 30
0.0
 11
26.00006103515625
 21
473.7309245641042
 31
0.0
  0
LINE
  5
254
330
1F
100
AcDbEntity
  8
仕上
  6
Continuous
 62
     3
370
     9
100
AcDbLine
 10
19.9999670080237
 20
491.7308602297502
 30
0.0
 11
19.9999670080237
 21
473.7309245641042
 31
0.0
  0
LINE
  5
255
330
1F
100
AcDbEntity
  8
仕上
  6
Continuous
 62
     3
370
     9
100
AcDbLine
 10
65.99999505120346
 20
473.7309245641042
 30
0.0
 11
26.00006103515625
 21
473.7309245641042
 31
0.0
  0
LINE
  5
256
330
1F
100
AcDbEntity
  8
仕上
  6
Continuous
 62
     3
370
     9
100
AcDbLine
 10
112.0000230943834
 20
473.7309245641042
 30
0.0
 11
72.0000890783362
 21
473.7309245641042
 31
0.0
  0
LINE
  5
257
330
1F
100
AcDbEntity
  8
仕上
  6
Continuous
 62
     3
370
     9
100
AcDbLine
 10
72.0000890783362
 20
291.7309303377001
 30
0.0
 11
112.0001963022593
 21
291.7309303377001
 31
0.0
  0
LINE
  5
258
330
1F
100
AcDbEntity
  8
仕上
  6
Continuous
 62
     3
370
     9
100
AcDbLine
 10
101.0001105231207
 20
298.7310400360213
 30
0.0
 11
101.0001105231207
 21
316.7307158898538
 31
0.0
  0
LINE
  5
259
330
1F
100
AcDbEntity
  8
仕上
  6
Continuous
 62
     3
370
     9
100
AcDbLine
 10
65.99999505120346
 20
491.7308602297502
 30
0.0
 11
65.99999505120346
 21
473.7309245641042
 31
0.0
  0
LINE
  5
25A
330
1F
100
AcDbEntity
  8
仕上
  6
Continuous
 62
     3
370
     9
100
AcDbLine
 10
65.99999505120346
 20
491.7308602297502
 30
0.0
 11
26.00006103515625
 21
491.7308602297502
 31
0.0
  0
LINE
  5
25B
330
1F
100
AcDbEntity
  8
仕上
  6
Continuous
 62
     3
370
     9
100
AcDbLine
 10
72.0000890783362
 20
491.7308602297502
 30
0.0
 11
72.0000890783362
 21
473.7309245641042
 31
0.0
  0
LINE
  5
25C
330
1F
100
AcDbEntity
  8
仕上
  6
Continuous
 62
     3
370
     9
100
AcDbLine
 10
112.0000230943834
 20
491.7308602297502
 30
0.0
 11
72.0000890783362
 21
491.7308602297502
 31
0.0
  0
LINE
  5
25D
330
1F
100
AcDbEntity
  8
仕上
  6
Continuous
 62
     3
370
     9
100
AcDbLine
 10
50.00009072793492
 20
498.7307967201958
 30
0.0
 11
41.99996535842479
 21
498.7307967201958
 31
0.0
  0
LINE
  5
25E
330
1F
100
AcDbEntity
  8
仕上
  6
Continuous
 62
     3
370
     9
100
AcDbLine
 10
36.99997360641896
 20
498.7307967201958
 30
0.0
 11
8.99988122888513
 21
498.7307967201958
 31
0.0
  0
LINE
  5
25F
330
1F
100
AcDbEntity
  8
仕上
  6
Continuous
 62
     3
370
     9
100
AcDbLine
 10
234.0002029006545
 20
298.7310400360213
 30
0.0
 11
234.0002029006545
 21
316.7307158898538
 31
0.0
  0
LINE
  5
260
330
1F
100
AcDbEntity
  8
仕上
  6
Continuous
 62
     3
370
     9
100
AcDbLine
 10
226.0000775311444
 20
298.7310400360213
 30
0.0
 11
226.0000775311444
 21
316.7307158898538
 31
0.0
  0
LINE
  5
261
330
1F
100
AcDbEntity
  8
仕上
  6
Continuous
 62
     3
370
     9
100
AcDbLine
 10
226.0000775311444
 20
316.7307158898538
 30
0.0
 11
234.0002029006545
 21
316.7307158898538
 31
0.0
  0
LINE
  5
262
330
1F
100
AcDbEntity
  8
仕上
  6
Continuous
 62
     3
370
     9
100
AcDbLine
 10
226.0000775311444
 20
298.7310400360213
 30
0.0
 11
234.0002029006545
 21
298.7310400360213
 31
0.0
  0
LINE
  5
263
330
1F
100
AcDbEntity
  8
仕上
  6
Continuous
 62
     3
370
     9
100
AcDbLine
 10
141.999973606419
 20
466.7309014697207
 30
0.0
 11
134.0000214447847
 21
466.7309014697207
 31
0.0
  0
LINE
  5
264
330
1F
100
AcDbEntity
  8
仕上
  6
Continuous
 62
     3
370
     9
100
AcDbLine
 10
220.9997393633869
 20
348.7308709521426
 30
0.0
 11
220.9997393633869
 21
366.7311530335404
 31
0.0
  0
LINE
  5
265
330
1F
100
AcDbEntity
  8
仕上
  6
Continuous
 62
     3
370
     9
100
AcDbLine
 10
233.9998564849028
 20
348.7308709521426
 30
0.0
 11
225.9997311153927
 21
348.7308709521426
 31
0.0
  0
LINE
  5
266
330
1F
100
AcDbEntity
  8
仕上
  6
Continuous
 62
     3
370
     9
100
AcDbLine
 10
225.9997311153927
 20
348.7308709521426
 30
0.0
 11
225.9997311153927
 21
366.7311530335404
 31
0.0
  0
LINE
  5
267
330
1F
100
AcDbEntity
  8
仕上
  6
Continuous
 62
     3
370
     9
100
AcDbLine
 10
210.0
 20
391.7308519817562
 30
0.0
 11
210.0
 21
373.7309163161102
 31
0.0
  0
LINE
  5
268
330
1F
100
AcDbEntity
  8
仕上
  6
Continuous
 62
     3
370
     9
100
AcDbLine
 10
233.9998564849028
 20
348.7308709521426
 30
0.0
 11
233.9998564849028
 21
366.7311530335404
 31
0.0
  0
LINE
  5
269
330
1F
100
AcDbEntity
  8
仕上
  6
Continuous
 62
     3
370
     9
100
AcDbLine
 10
233.9998564849028
 20
366.7311530335404
 30
0.0
 11
225.9997311153927
 21
366.7311530335404
 31
0.0
  0
LINE
  5
26A
330
1F
100
AcDbEntity
  8
仕上
  6
Continuous
 62
     3
370
     9
100
AcDbLine
 10
192.9999934016047
 20
398.7307884722017
 30
0.0
 11
192.9999934016047
 21
416.7309839496617
 31
0.0
  0
LINE
  5
26B
330
1F
100
AcDbEntity
  8
仕上
  6
Continuous
 62
     3
370
     9
100
AcDbLine
 10
238.9998482369088
 20
298.7310400360213
 30
0.0
 11
238.9998482369088
 21
316.7307158898538
 31
0.0
  0
LINE
  5
26C
330
1F
100
AcDbEntity
  8
仕上
  6
Continuous
 62
     3
370
     9
100
AcDbLine
 10
242.9375560863597
 20
341.731021065635
 30
0.0
 11
210.0
 21
341.731021065635
 31
0.0
  0
LINE
  5
26D
330
1F
100
AcDbEntity
  8
仕上
  6
Continuous
 62
     3
370
     9
100
AcDbLine
 10
246.6144128747888
 20
323.7309121921131
 30
0.0
 11
210.0
 21
323.7309121921131
 31
0.0
  0
LINE
  5
26E
330
1F
100
AcDbEntity
  8
仕上
  6
Continuous
 62
     3
370
     9
100
AcDbLine
 10
247.6765235694679
 20
316.7307158898538
 30
0.0
 11
238.9998482369088
 21
316.7307158898538
 31
0.0
  0
LINE
  5
26F
330
1F
100
AcDbEntity
  8
仕上
  6
Continuous
 62
     3
370
     9
100
AcDbLine
 10
249.4867190799198
 20
298.7310400360213
 30
0.0
 11
238.9998482369088
 21
298.7310400360213
 31
0.0
  0
LINE
  5
270
330
1F
100
AcDbEntity
  8
仕上
  6
Continuous
 62
     3
370
     9
100
AcDbLine
 10
238.9998482369088
 20
348.7308709521426
 30
0.0
 11
238.9998482369088
 21
356.0700350674299
 31
0.0
  0
LINE
  5
271
330
1F
100
AcDbEntity
  8
仕上
  6
Continuous
 62
     3
370
     9
100
AcDbLine
 10
241.1299586940455
 20
348.7308709521426
 30
0.0
 11
238.9998482369088
 21
348.7308709521426
 31
0.0
  0
LINE
  5
272
330
1F
100
AcDbEntity
  8
仕上
  6
Continuous
 62
     3
370
     9
100
AcDbLine
 10
232.8490633577914
 20
373.7309163161102
 30
0.0
 11
210.0
 21
373.7309163161102
 31
0.0
  0
LINE
  5
273
330
1F
100
AcDbEntity
  8
仕上
  6
Continuous
 62
     3
370
     9
100
AcDbLine
 10
224.9859454180744
 20
391.7308519817562
 30
0.0
 11
210.0
 21
391.7308519817562
 31
0.0
  0
LINE
  5
274
330
1F
100
AcDbEntity
  8
仕上
  6
Continuous
 62
     3
370
     9
100
AcDbLine
 10
211.0536235087627
 20
416.7309839496617
 30
0.0
 11
192.9999934016047
 21
416.7309839496617
 31
0.0
  0
LINE
  5
275
330
1F
100
AcDbEntity
  8
仕上
  6
Continuous
 62
     3
370
     9
100
AcDbLine
 10
221.4578741949957
 20
398.7307884722017
 30
0.0
 11
192.9999934016047
 21
398.7307884722017
 31
0.0
  0
LINE
  5
276
330
1F
100
AcDbEntity
  8
仕上
  6
Continuous
 62
     3
370
     9
100
AcDbLine
 10
192.9213570259713
 20
441.7310293136291
 30
0.0
 11
163.99997195682
 21
441.7310293136291
 31
0.0
  0
LINE
  5
277
330
1F
100
AcDbEntity
  8
仕上
  6
Continuous
 62
     3
370
     9
100
AcDbLine
 10
174.9998845280828
 20
448.7309658040746
 30
0.0
 11
174.9998845280828
 21
461.2656733631964
 31
0.0
  0
LINE
  5
278
330
1F
100
AcDbEntity
  8
仕上
  6
Continuous
 62
     3
370
     9
100
AcDbLine
 10
169.2443600216427
 20
466.7309014697207
 30
0.0
 11
146.9999653584248
 21
466.7309014697207
 31
0.0
  0
LINE
  5
279
330
1F
100
AcDbEntity
  8
仕上
  6
Continuous
 62
     3
370
     9
100
AcDbLine
 10
179.9998762800886
 20
448.7309658040746
 30
0.0
 11
179.9998762800886
 21
456.2234188894843
 31
0.0
  0
LINE
  5
27A
330
1F
100
AcDbEntity
  8
仕上
  6
Continuous
 62
     3
370
     9
100
AcDbLine
 10
186.9321750950168
 20
448.7309658040746
 30
0.0
 11
179.9998762800886
 21
448.7309658040746
 31
0.0
  0
LINE
  5
27B
330
1F
100
AcDbEntity
  8
仕上
  6
Continuous
 62
     3
370
     9
100
AcDbLine
 10
137.1809840846705
 20
491.7308602297502
 30
0.0
 11
117.9997707057642
 21
491.7308602297502
 31
0.0
  0
LINE
  5
27C
330
1F
100
AcDbEntity
  8
仕上
  6
Continuous
 62
     3
370
     9
100
AcDbLine
 10
157.9998779296875
 20
476.4721990111588
 30
0.0
 11
157.9998779296875
 21
473.7309245641042
 31
0.0
  0
LINE
  5
27D
330
1F
100
AcDbEntity
  8
仕上
  6
Continuous
 62
     3
370
     9
100
AcDbLine
 10
125.8715490392737
 20
498.7307967201958
 30
0.0
 11
100.9999373152448
 21
498.7307967201958
 31
0.0
  0
LINE
  5
27E
330
1F
100
AcDbEntity
  8
仕上
  6
Continuous
 62
     3
370
     9
100
AcDbLine
 10
100.9999373152448
 20
498.7307967201958
 30
0.0
 11
100.9999373152448
 21
511.4196592888191
 31
0.0
  0
LINE
  5
27F
330
1F
100
AcDbEntity
  8
仕上
  6
Continuous
 62
     3
370
     9
100
AcDbLine
 10
203.9997327649916
 20
423.7309204401072
 30
0.0
 11
163.99997195682
 21
423.7309204401072
 31
0.0
  0
LINE
  5
280
330
1F
100
AcDbEntity
  8
仕上
  6
Continuous
 62
     3
370
     9
100
AcDbLine
 10
203.9997327649916
 20
427.2427101228564
 30
0.0
 11
203.9997327649916
 21
423.7309204401072
 31
0.0
  0
LINE
  5
281
330
1F
100
AcDbEntity
  8
仕上
  6
Continuous
 62
     3
370
     9
100
AcDbLine
 10
66.48307181693406
 20
498.7307967201958
 30
0.0
 11
55.00008247994074
 21
498.7307967201958
 31
0.0
  0
LINE
  5
282
330
1F
100
AcDbEntity
  8
仕上
  6
Continuous
 62
     3
370
     9
100
AcDbLine
 10
83.49970637141035
 20
500.2550260276283
 30
0.0
 11
91.74232276710302
 21
521.7272599803309
 31
0.0
  0
LINE
  5
283
330
1F
100
AcDbEntity
  8
仕上
  6
Continuous
 62
     3
370
     9
100
AcDbLine
 10
55.00008247994074
 20
498.7307967201958
 30
0.0
 11
55.00008247994074
 21
501.936181670576
 31
0.0
  0
LINE
  5
284
330
1F
100
AcDbEntity
  8
仕上
  6
Continuous
 62
     3
370
     9
100
AcDbLine
 10
50.00009072793492
 20
498.7307967201958
 30
0.0
 11
50.00009072793492
 21
503.1304499745245
 31
0.0
  0
LINE
  5
285
330
1F
100
AcDbEntity
  8
仕上
  6
Continuous
 62
     3
370
     9
100
AcDbLine
 10
41.99996535842479
 20
498.7307967201958
 30
0.0
 11
41.99996535842479
 21
504.79376520626
 31
0.0
  0
LINE
  5
286
330
1F
100
AcDbEntity
  8
仕上
  6
Continuous
 62
     3
370
     9
100
AcDbLine
 10
36.99997360641896
 20
498.7307967201958
 30
0.0
 11
36.99997360641896
 21
505.6816287778394
 31
0.0
  0
LINE
  5
287
330
1F
100
AcDbEntity
  8
仕上
  6
Continuous
 62
     3
370
     9
100
AcDbLine
 10
8.99988122888513
 20
498.7307967201958
 30
0.0
 11
8.99988122888513
 21
508.5515100727085
 31
0.0
  0
LINE
  5
288
330
1F
100
AcDbEntity
  8
仕上
  6
Continuous
 62
     3
370
     9
100
AcDbLine
 10
3.999889476879105
 20
498.7307967201958
 30
0.0
 11
3.999889476879105
 21
508.6954458175353
 31
0.0
  0
LINE
  5
289
330
1F
100
AcDbEntity
  8
仕上
  6
Continuous
 62
     3
370
     9
100
AcDbLine
 10
-17.00000659839526
 20
111.7307076418596
 30
0.0
 11
17.00000659839526
 21
111.7307076418596
 31
0.0
  0
LINE
  5
28A
330
1F
100
AcDbEntity
  8
仕上
  6
Continuous
 62
     3
370
     9
100
AcDbLine
 10
17.00000659839526
 20
111.7307076418596
 30
0.0
 11
17.00000659839526
 21
98.73093693609539
 31
0.0
  0
LINE
  5
28B
330
1F
100
AcDbEntity
  8
仕上
  6
Continuous
 62
     3
370
     9
100
AcDbLine
 10
-17.00000659839526
 20
111.7307076418596
 30
0.0
 11
-17.00000659839526
 21
98.73093693609539
 31
0.0
  0
LINE
  5
28C
330
1F
100
AcDbEntity
  8
仕上
  6
Continuous
 62
     3
370
     9
100
AcDbLine
 10
-17.00000659839526
 20
98.73093693609539
 30
0.0
 11
17.00000659839526
 21
98.73093693609539
 31
0.0
  0
LINE
  5
28D
330
1F
100
AcDbEntity
  8
仕上
  6
Continuous
 62
     3
370
     9
100
AcDbLine
 10
-3.999889476879304
 20
348.7308709521426
 30
0.0
 11
3.999889476879105
 21
348.7308709521426
 31
0.0
  0
LINE
  5
28E
330
1F
100
AcDbEntity
  8
仕上
  6
Continuous
 62
     3
370
     9
100
AcDbLine
 10
-249.8372918206293
 20
291.7309303377001
 30
0.0
 11
-209.9998267921241
 21
291.7309303377001
 31
0.0
  0
LINE
  5
28F
330
1F
100
AcDbEntity
  8
仕上
  6
Continuous
 62
     3
370
     9
100
AcDbLine
 10
-95.99977235536315
 20
498.7307967201958
 30
0.0
 11
-95.99977235536315
 21
513.2861473589206
 31
0.0
  0
LINE
  5
290
330
1F
100
AcDbEntity
  8
仕上
  6
Continuous
 62
     3
370
     9
100
AcDbLine
 10
95.99994556323901
 20
498.7307967201958
 30
0.0
 11
95.99994556323901
 21
513.2861473589206
 31
0.0
  0
LINE
  5
291
330
1F
100
AcDbEntity
  8
仕上
  6
Continuous
 62
     3
370
     9
100
AcDbLine
 10
249.8372918206291
 20
291.7309303377001
 30
0.0
 11
210.0
 21
291.7309303377001
 31
0.0
  0
LINE
  5
292
330
1F
100
AcDbEntity
  8
仕上
  6
JWW_CENTER1
 62
     3
370
     9
100
AcDbLine
 10
161.0001847550675
 20
248.4229857048347
 30
0.0
 11
161.0001847550675
 21
307.2041095105251
 31
0.0
  0
LINE
  5
293
330
1F
100
AcDbEntity
  8
仕上
  6
Continuous
 62
     3
370
     9
100
AcDbLine
 10
-83.01437790329396
 20
215.7449816204281
 30
0.0
 11
-83.01437790329396
 21
282.7308759009392
 31
0.0
  0
LINE
  5
294
330
1F
100
AcDbEntity
  8
仕上
  6
Continuous
 62
     3
370
     9
100
AcDbLine
 10
-66.99299580342068
 20
199.7238593323686
 30
0.0
 11
66.99316901129635
 21
199.7238593323686
 31
0.0
  0
LINE
  5
295
330
1F
100
AcDbEntity
  8
仕上
  6
Continuous
 62
     3
370
     9
100
AcDbLine
 10
-66.99299580342068
 20
210.7449898684221
 30
0.0
 11
66.99316901129635
 21
210.7449898684221
 31
0.0
  0
LINE
  5
296
330
1F
100
AcDbEntity
  8
仕上
  6
Continuous
 62
     3
370
     9
100
AcDbLine
 10
-71.99298755542651
 20
215.7449816204281
 30
0.0
 11
-71.99298755542651
 21
282.7308759009392
 31
0.0
  0
LINE
  5
297
330
1F
100
AcDbEntity
  8
仕上
  6
Continuous
 62
     3
370
     9
100
AcDbLine
 10
-88.01419644742413
 20
210.7449898684221
 30
0.0
 11
-237.4879166886614
 21
210.7449898684221
 31
0.0
  0
LINE
  5
298
330
1F
100
AcDbEntity
  8
仕上
  6
Continuous
 62
     3
370
     9
100
AcDbLine
 10
-88.01419644742413
 20
199.7238593323686
 30
0.0
 11
-230.5261725348395
 21
199.7238593323686
 31
0.0
  0
LINE
  5
299
330
1F
100
AcDbEntity
  8
仕上
  6
Continuous
 62
     3
370
     9
100
AcDbLine
 10
-83.01437790329396
 20
194.7238675803625
 30
0.0
 11
-83.0142046954181
 21
52.20730148423721
 31
0.0
  0
LINE
  5
29A
330
1F
100
AcDbEntity
  8
仕上
  6
Continuous
 62
     3
370
     9
100
AcDbLine
 10
-71.99298755542651
 20
194.7238675803625
 30
0.0
 11
-71.99298755542651
 21
45.24503770678785
 31
0.0
  0
LINE
  5
29B
330
1F
100
AcDbEntity
  8
仕上
  6
Continuous
 62
     3
370
     9
100
AcDbLine
 10
86.50001319679052
 20
201.2307678522166
 30
0.0
 11
233.2001557221284
 21
201.2307678522166
 31
0.0
  0
LINE
  5
29C
330
1F
100
AcDbEntity
  8
仕上
  6
Continuous
 62
     3
370
     9
100
AcDbLine
 10
81.5000214447845
 20
196.2308627041486
 30
0.0
 11
81.5000214447845
 21
49.53080678274853
 31
0.0
  0
LINE
  5
29D
330
1F
100
AcDbEntity
  8
仕上
  6
Continuous
 62
     3
370
     9
100
AcDbLine
 10
73.50006928315022
 20
214.2308849737326
 30
0.0
 11
73.50006928315022
 21
282.7308759009392
 31
0.0
  0
LINE
  5
29E
330
1F
100
AcDbEntity
  8
仕上
  6
Continuous
 62
     3
370
     9
100
AcDbLine
 10
81.5000214447845
 20
214.2308849737326
 30
0.0
 11
81.5000214447845
 21
282.7308759009392
 31
0.0
  0
LINE
  5
29F
330
1F
100
AcDbEntity
  8
仕上
  6
Continuous
 62
     3
370
     9
100
AcDbLine
 10
83.01437790329396
 20
215.7449816204281
 30
0.0
 11
83.01437790329396
 21
282.7308759009392
 31
0.0
  0
LINE
  5
2A0
330
1F
100
AcDbEntity
  8
仕上
  6
Continuous
 62
     3
370
     9
100
AcDbLine
 10
71.99316076330237
 20
215.7449816204281
 30
0.0
 11
71.99316076330237
 21
282.7308759009392
 31
0.0
  0
LINE
  5
2A1
330
1F
100
AcDbEntity
  8
仕上
  6
Continuous
 62
     3
370
     9
100
AcDbLine
 10
88.01419644742393
 20
210.7449898684221
 30
0.0
 11
237.4879166886612
 21
210.7449898684221
 31
0.0
  0
LINE
  5
2A2
330
1F
100
AcDbEntity
  8
仕上
  6
Continuous
 62
     3
370
     9
100
AcDbLine
 10
88.01419644742393
 20
199.7238593323686
 30
0.0
 11
230.5261725348394
 21
199.7238593323686
 31
0.0
  0
LINE
  5
2A3
330
1F
100
AcDbEntity
  8
仕上
  6
Continuous
 62
     3
370
     9
100
AcDbLine
 10
83.01437790329396
 20
194.7238675803625
 30
0.0
 11
83.01437790329396
 21
52.20730148423721
 31
0.0
  0
LINE
  5
2A4
330
1F
100
AcDbEntity
  8
仕上
  6
Continuous
 62
     3
370
     9
100
AcDbLine
 10
71.99316076330237
 20
194.7238675803625
 30
0.0
 11
71.99316076330237
 21
45.24503770678785
 31
0.0
  0
LINE
  5
2A5
330
1F
100
AcDbEntity
  8
仕上
  6
Continuous
 62
     3
370
     9
100
AcDbLine
 10
86.50001319679052
 20
209.2308932217267
 30
0.0
 11
238.9508304080448
 21
209.2308932217267
 31
0.0
  0
LINE
  5
2A6
330
1F
100
AcDbEntity
  8
仕上
  6
Continuous
 62
     3
370
     9
100
AcDbLine
 10
73.50006928315022
 20
196.2308627041486
 30
0.0
 11
73.50006928315022
 21
43.78021870077018
 31
0.0
  0
LINE
  5
2A7
330
1F
100
AcDbEntity
  8
仕上
  6
Continuous
 62
     3
370
     9
100
AcDbLine
 10
-73.49989607527456
 20
196.2308627041486
 30
0.0
 11
-73.49989607527456
 21
43.78021870077018
 31
0.0
  0
LINE
  5
2A8
330
1F
100
AcDbEntity
  8
仕上
  6
Continuous
 62
     3
370
     9
100
AcDbLine
 10
-86.50001319679052
 20
209.2308932217267
 30
0.0
 11
-238.9504839922931
 21
209.2308932217267
 31
0.0
  0
LINE
  5
2A9
330
1F
100
AcDbEntity
  8
仕上
  6
Continuous
 62
     3
370
     9
100
AcDbLine
 10
8.99988122888513
 20
348.7308709521426
 30
0.0
 11
8.99988122888513
 21
366.7311530335404
 31
0.0
  0
LINE
  5
2AA
330
1F
100
AcDbEntity
  8
仕上
  6
Continuous
 62
     3
370
     9
100
AcDbLine
 10
36.99997360641896
 20
348.7308709521426
 30
0.0
 11
8.99988122888513
 21
348.7308709521426
 31
0.0
  0
LINE
  5
2AB
330
1F
100
AcDbEntity
  8
仕上
  6
Continuous
 62
     3
370
     9
100
AcDbLine
 10
112.0000230943834
 20
341.731021065635
 30
0.0
 11
72.0000890783362
 21
341.731021065635
 31
0.0
  0
LINE
  5
2AC
330
1F
100
AcDbEntity
  8
仕上
  6
Continuous
 62
     3
370
     9
100
AcDbLine
 10
112.0000230943834
 20
341.731021065635
 30
0.0
 11
112.0000230943834
 21
323.7309121921131
 31
0.0
  0
LINE
  5
2AD
330
1F
100
AcDbEntity
  8
建具
  6
Continuous
 62
     4
370
     9
100
AcDbLine
 10
191.9894986539274
 20
-347.9043206817521
 30
0.0
 11
185.9940812394425
 21
-347.7756272299995
 31
0.0
  0
LINE
  5
2AE
330
1F
100
AcDbEntity
  8
建具
  6
Continuous
 62
     4
370
     9
100
AcDbLine
 10
136.0055954391892
 20
-346.7028642509561
 30
0.0
 11
130.0037693332981
 21
-346.5739975913276
 31
0.0
  0
LINE
  5
2AF
330
1F
100
AcDbEntity
  8
建具
  6
Continuous
 62
     4
370
     9
100
AcDbLine
 10
133.088948017842
 20
-342.6393208797039
 30
0.0
 11
141.0906322582347
 21
-342.8110131866349
 31
0.0
  0
LINE
  5
2B0
330
1F
100
AcDbEntity
  8
建具
  6
Continuous
 62
     4
370
     9
100
AcDbLine
 10
181.0812130489864
 20
-343.6692582114448
 30
0.0
 11
189.0761421822213
 21
-343.8407773104999
 31
0.0
  0
LINE
  5
2B1
330
1F
100
AcDbEntity
  8
建具
  6
Continuous
 62
     4
370
     9
100
AcDbLine
 10
-191.9894986539274
 20
-347.9046237955348
 30
0.0
 11
-185.9940812394427
 21
-347.7759303437823
 31
0.0
  0
LINE
  5
2B2
330
1F
100
AcDbEntity
  8
建具
  6
Continuous
 62
     4
370
     9
100
AcDbLine
 10
-136.0055954391892
 20
-346.7030374588318
 30
0.0
 11
-130.0035961254224
 21
-346.5743007051104
 31
0.0
  0
LINE
  5
2B3
330
1F
100
AcDbEntity
  8
建具
  6
Continuous
 62
     4
370
     9
100
AcDbLine
 10
-133.0887748099662
 20
-342.6394940875797
 30
0.0
 11
-141.090459050359
 21
-342.8113163004176
 31
0.0
  0
LINE
  5
2B4
330
1F
100
AcDbEntity
  8
建具
  6
Continuous
 62
     4
370
     9
100
AcDbLine
 10
-181.0812130489866
 20
-343.6695613252276
 30
0.0
 11
-189.0761421822213
 21
-343.8412536321585
 31
0.0
  0
LINE
  5
2B5
330
1F
100
AcDbEntity
  8
仕上
  6
Continuous
 62
     3
370
     9
100
AcDbLine
 10
220.9997393633869
 20
316.7307158898538
 30
0.0
 11
192.9999934016047
 21
316.7307158898538
 31
0.0
  0
LINE
  5
2B6
330
1F
100
AcDbEntity
  8
仕上
  6
Continuous
 62
     3
370
     9
100
AcDbLine
 10
220.9997393633869
 20
298.7310400360213
 30
0.0
 11
220.9997393633869
 21
316.7307158898538
 31
0.0
  0
LINE
  5
2B7
330
1F
100
AcDbEntity
  8
仕上
  6
Continuous
 62
     3
370
     9
100
AcDbLine
 10
179.9998762800886
 20
316.7307158898538
 30
0.0
 11
188.0000016495987
 21
316.7307158898538
 31
0.0
  0
LINE
  5
2B8
330
1F
100
AcDbEntity
  8
仕上
  6
Continuous
 62
     3
370
     9
100
AcDbLine
 10
146.9999653584248
 20
316.7307158898538
 30
0.0
 11
174.9998845280828
 21
316.7307158898538
 31
0.0
  0
LINE
  5
2B9
330
1F
100
AcDbEntity
  8
仕上
  6
Continuous
 62
     3
370
     9
100
AcDbLine
 10
134.0000214447847
 20
316.7307158898538
 30
0.0
 11
141.999973606419
 21
316.7307158898538
 31
0.0
  0
LINE
  5
2BA
330
1F
100
AcDbEntity
  8
仕上
  6
Continuous
 62
     3
370
     9
100
AcDbLine
 10
112.0001963022593
 20
291.7309303377001
 30
0.0
 11
112.0001963022593
 21
282.7308759009392
 31
0.0
  0
LINE
  5
2BB
330
1F
100
AcDbEntity
  8
仕上
  6
Continuous
 62
     3
370
     9
100
AcDbLine
 10
129.0000296927787
 20
301.7309138417118
 30
0.0
 11
129.0000296927787
 21
316.7307158898538
 31
0.0
  0
LINE
  5
2BC
330
1F
100
AcDbEntity
  8
仕上
  6
Continuous
 62
     3
370
     9
100
AcDbLine
 10
134.0000214447847
 20
301.7309138417118
 30
0.0
 11
134.0000214447847
 21
316.7307158898538
 31
0.0
  0
LINE
  5
2BD
330
1F
100
AcDbEntity
  8
仕上
  6
Continuous
 62
     3
370
     9
100
AcDbLine
 10
188.0000016495987
 20
301.7309138417118
 30
0.0
 11
188.0000016495987
 21
316.7307158898538
 31
0.0
  0
LINE
  5
2BE
330
1F
100
AcDbEntity
  8
仕上
  6
Continuous
 62
     3
370
     9
100
AcDbLine
 10
192.9999934016047
 20
301.7309138417118
 30
0.0
 11
192.9999934016047
 21
316.7307158898538
 31
0.0
  0
LINE
  5
2BF
330
1F
100
AcDbEntity
  8
仕上
  6
Continuous
 62
     3
370
     9
100
AcDbLine
 10
179.9998762800886
 20
301.7309138417118
 30
0.0
 11
179.9998762800886
 21
316.7307158898538
 31
0.0
  0
LINE
  5
2C0
330
1F
100
AcDbEntity
  8
仕上
  6
Continuous
 62
     3
370
     9
100
AcDbLine
 10
174.9998845280828
 20
301.7309138417118
 30
0.0
 11
174.9998845280828
 21
316.7307158898538
 31
0.0
  0
LINE
  5
2C1
330
1F
100
AcDbEntity
  8
仕上
  6
Continuous
 62
     3
370
     9
100
AcDbLine
 10
141.999973606419
 20
301.7309138417118
 30
0.0
 11
141.999973606419
 21
316.7307158898538
 31
0.0
  0
LINE
  5
2C2
330
1F
100
AcDbEntity
  8
仕上
  6
Continuous
 62
     3
370
     9
100
AcDbLine
 10
146.9999653584248
 20
301.7309138417118
 30
0.0
 11
146.9999653584248
 21
316.7307158898538
 31
0.0
  0
LINE
  5
2C3
330
1F
100
AcDbEntity
  8
仕上
  6
JWW_DASHED1
 62
     3
370
     9
100
AcDbLine
 10
181.000324970967
 20
287.7306944450691
 30
0.0
 11
169.077907252956
 21
287.7306944450691
 31
0.0
  0
LINE
  5
2C4
330
1F
100
AcDbEntity
  8
仕上
  6
JWW_DASHED1
 62
     3
370
     9
100
AcDbLine
 10
152.9222890493032
 20
287.7306944450691
 30
0.0
 11
141.000217747044
 21
287.7306944450691
 31
0.0
  0
LINE
  5
2C5
330
1F
100
AcDbEntity
  8
仕上
  6
Continuous
 62
     3
370
     9
100
AcDbLine
 10
142.0003200221705
 20
301.7309138417118
 30
0.0
 11
134.0001946526604
 21
301.7309138417118
 31
0.0
  0
LINE
  5
2C6
330
1F
100
AcDbEntity
  8
仕上
  6
Continuous
 62
     3
370
     9
100
AcDbLine
 10
147.1709215318834
 20
301.7309138417118
 30
0.0
 11
147.0003117741765
 21
301.7309138417118
 31
0.0
  0
LINE
  5
2C7
330
1F
100
AcDbEntity
  8
仕上
  6
Continuous
 62
     3
370
     9
100
AcDbLine
 10
180.0002226958403
 20
301.7309138417118
 30
0.0
 11
188.0000016495987
 21
301.7309138417118
 31
0.0
  0
LINE
  5
2C8
330
1F
100
AcDbEntity
  8
仕上
  6
Continuous
 62
     3
370
     9
100
AcDbLine
 10
174.8292747703759
 20
301.7309138417118
 30
0.0
 11
174.9998845280828
 21
301.7309138417118
 31
0.0
  0
LINE
  5
2C9
330
1F
100
AcDbEntity
  8
仕上
  6
Continuous
 62
     3
370
     9
100
AcDbLine
 10
172.3246888856629
 20
294.7309773512664
 30
0.0
 11
192.9999934016047
 21
294.7309773512664
 31
0.0
  0
LINE
  5
2CA
330
1F
100
AcDbEntity
  8
仕上
  6
Continuous
 62
     3
370
     9
100
AcDbLine
 10
192.9999934016047
 20
282.7308759009392
 30
0.0
 11
192.9999934016047
 21
294.7309773512664
 31
0.0
  0
LINE
  5
2CB
330
1F
100
AcDbEntity
  8
仕上
  6
Continuous
 62
     3
370
     9
100
AcDbLine
 10
192.9999934016047
 20
301.7309138417118
 30
0.0
 11
200.000189703864
 21
301.7309138417118
 31
0.0
  0
LINE
  5
2CC
330
1F
100
AcDbEntity
  8
仕上
  6
Continuous
 62
     3
370
     9
100
AcDbLine
 10
121.9757574957769
 20
282.7308759009392
 30
0.0
 11
121.9757574957769
 21
287.7306944450691
 31
0.0
  0
LINE
  5
2CD
330
1F
100
AcDbEntity
  8
仕上
  6
Continuous
 62
     3
370
     9
100
AcDbLine
 10
128.9998564849028
 20
287.7306944450691
 30
0.0
 11
121.9757574957769
 21
287.7306944450691
 31
0.0
  0
LINE
  5
2CE
330
1F
100
AcDbEntity
  8
仕上
  6
Continuous
 62
     3
370
     9
100
AcDbLine
 10
149.6755074165963
 20
294.7309773512664
 30
0.0
 11
128.9998564849028
 21
294.7309773512664
 31
0.0
  0
LINE
  5
2CF
330
1F
100
AcDbEntity
  8
仕上
  6
Continuous
 62
     3
370
     9
100
AcDbLine
 10
128.9998564849028
 20
287.7306944450691
 30
0.0
 11
128.9998564849028
 21
294.7309773512664
 31
0.0
  0
LINE
  5
2D0
330
1F
100
AcDbEntity
  8
仕上
  6
Continuous
 62
     3
370
     9
100
AcDbLine
 10
129.0002029006545
 20
301.7309138417118
 30
0.0
 11
121.9757574957769
 21
301.7309138417118
 31
0.0
  0
LINE
  5
2D1
330
1F
100
AcDbEntity
  8
仕上
  6
Continuous
 62
     3
370
     9
100
AcDbLine
 10
200.000189703864
 20
298.7310400360213
 30
0.0
 11
200.000189703864
 21
301.7309138417118
 31
0.0
  0
LINE
  5
2D2
330
1F
100
AcDbEntity
  8
仕上
  6
Continuous
 62
     3
370
     9
100
AcDbLine
 10
200.000189703864
 20
298.7310400360213
 30
0.0
 11
220.9997393633869
 21
298.7310400360213
 31
0.0
  0
LINE
  5
2D3
330
1F
100
AcDbEntity
  8
仕上
  6
Continuous
 62
     3
370
     9
100
AcDbLine
 10
210.0
 20
291.7309303377001
 30
0.0
 11
210.0
 21
282.7308759009392
 31
0.0
  0
LINE
  5
2D4
330
1F
100
AcDbEntity
  8
建具
  6
Continuous
 62
     4
370
     9
100
AcDbLine
 10
189.9965688344595
 20
293.7309616800775
 30
0.0
 11
171.9200752876901
 21
293.7309616800775
 31
0.0
  0
LINE
  5
2D5
330
1F
100
AcDbEntity
  8
建具
  6
Continuous
 62
     4
370
     9
100
AcDbLine
 10
191.9967733847127
 20
291.7309303377001
 30
0.0
 11
191.9967733847127
 21
282.7308759009392
 31
0.0
  0
LINE
  5
2D6
330
1F
100
AcDbEntity
  8
建具
  6
Continuous
 62
     4
370
     9
100
AcDbLine
 10
132.0034542599239
 20
293.7309616800775
 30
0.0
 11
150.0801210145692
 21
293.7309616800775
 31
0.0
  0
LINE
  5
2D7
330
1F
100
AcDbEntity
  8
建具
  6
Continuous
 62
     4
370
     9
100
AcDbLine
 10
130.0034229175463
 20
291.7309303377001
 30
0.0
 11
130.0034229175463
 21
282.7308759009392
 31
0.0
  0
LINE
  5
2D8
330
1F
100
AcDbEntity
  8
仕上
  6
Continuous
 62
     3
370
     9
100
AcDbLine
 10
121.9757574957769
 20
298.7310400360213
 30
0.0
 11
101.0001105231207
 21
298.7310400360213
 31
0.0
  0
LINE
  5
2D9
330
1F
100
AcDbEntity
  8
仕上
  6
Continuous
 62
     3
370
     9
100
AcDbLine
 10
121.9757574957769
 20
298.7310400360213
 30
0.0
 11
121.9757574957769
 21
301.7309138417118
 31
0.0
  0
LINE
  5
2DA
330
1F
100
AcDbEntity
  8
仕上
  6
Continuous
 62
     3
370
     9
100
AcDbLine
 10
-157.9997047218116
 20
323.7309121921131
 30
0.0
 11
-117.9997707057644
 21
323.7309121921131
 31
0.0
  0
LINE
  5
2DB
330
1F
100
AcDbEntity
  8
仕上
  6
Continuous
 62
     3
370
     9
100
AcDbLine
 10
-101.0001105231209
 20
316.7307158898538
 30
0.0
 11
-128.999856484903
 21
316.7307158898538
 31
0.0
  0
LINE
  5
2DC
330
1F
100
AcDbEntity
  8
仕上
  6
Continuous
 62
     3
370
     9
100
AcDbLine
 10
-203.9997327649916
 20
323.7309121921131
 30
0.0
 11
-163.9997987489444
 21
323.7309121921131
 31
0.0
  0
LINE
  5
2DD
330
1F
100
AcDbEntity
  8
仕上
  6
Continuous
 62
     3
370
     9
100
AcDbLine
 10
-95.99994556323901
 20
298.7310400360213
 30
0.0
 11
-95.99994556323901
 21
316.7307158898538
 31
0.0
  0
LINE
  5
2DE
330
1F
100
AcDbEntity
  8
仕上
  6
Continuous
 62
     3
370
     9
100
AcDbLine
 10
-101.0001105231209
 20
298.7310400360213
 30
0.0
 11
-101.0001105231209
 21
316.7307158898538
 31
0.0
  0
LINE
  5
2DF
330
1F
100
AcDbEntity
  8
仕上
  6
Continuous
 62
     3
370
     9
100
AcDbLine
 10
-225.9999043232687
 20
298.7310400360213
 30
0.0
 11
-225.9999043232687
 21
316.7307158898538
 31
0.0
  0
LINE
  5
2E0
330
1F
100
AcDbEntity
  8
仕上
  6
JWW_CENTER1
 62
     3
370
     9
100
AcDbLine
 10
-161.0001847550677
 20
248.4229857048347
 30
0.0
 11
-161.0001847550677
 21
307.2041095105251
 31
0.0
  0
LINE
  5
2E1
330
1F
100
AcDbEntity
  8
仕上
  6
Continuous
 62
     3
370
     9
100
AcDbLine
 10
-220.999566155511
 20
316.7307158898538
 30
0.0
 11
-192.9999934016047
 21
316.7307158898538
 31
0.0
  0
LINE
  5
2E2
330
1F
100
AcDbEntity
  8
仕上
  6
Continuous
 62
     3
370
     9
100
AcDbLine
 10
-220.999566155511
 20
298.7310400360213
 30
0.0
 11
-220.999566155511
 21
316.7307158898538
 31
0.0
  0
LINE
  5
2E3
330
1F
100
AcDbEntity
  8
仕上
  6
Continuous
 62
     3
370
     9
100
AcDbLine
 10
-179.9998762800888
 20
316.7307158898538
 30
0.0
 11
-188.0000016495989
 21
316.7307158898538
 31
0.0
  0
LINE
  5
2E4
330
1F
100
AcDbEntity
  8
仕上
  6
Continuous
 62
     3
370
     9
100
AcDbLine
 10
-146.9999653584248
 20
316.7307158898538
 30
0.0
 11
-174.9998845280828
 21
316.7307158898538
 31
0.0
  0
LINE
  5
2E5
330
1F
100
AcDbEntity
  8
仕上
  6
Continuous
 62
     3
370
     9
100
AcDbLine
 10
-133.9998482369088
 20
316.7307158898538
 30
0.0
 11
-141.999973606419
 21
316.7307158898538
 31
0.0
  0
LINE
  5
2E6
330
1F
100
AcDbEntity
  8
仕上
  6
Continuous
 62
     3
370
     9
100
AcDbLine
 10
-112.0000230943834
 20
291.7309303377001
 30
0.0
 11
-112.0000230943834
 21
282.7308759009392
 31
0.0
  0
LINE
  5
2E7
330
1F
100
AcDbEntity
  8
仕上
  6
Continuous
 62
     3
370
     9
100
AcDbLine
 10
-128.999856484903
 20
301.7309138417118
 30
0.0
 11
-128.999856484903
 21
316.7307158898538
 31
0.0
  0
LINE
  5
2E8
330
1F
100
AcDbEntity
  8
仕上
  6
Continuous
 62
     3
370
     9
100
AcDbLine
 10
-133.9998482369088
 20
301.7309138417118
 30
0.0
 11
-133.9998482369088
 21
316.7307158898538
 31
0.0
  0
LINE
  5
2E9
330
1F
100
AcDbEntity
  8
仕上
  6
Continuous
 62
     3
370
     9
100
AcDbLine
 10
-188.0000016495989
 20
301.7309138417118
 30
0.0
 11
-188.0000016495989
 21
316.7307158898538
 31
0.0
  0
LINE
  5
2EA
330
1F
100
AcDbEntity
  8
仕上
  6
Continuous
 62
     3
370
     9
100
AcDbLine
 10
-192.9999934016047
 20
301.7309138417118
 30
0.0
 11
-192.9999934016047
 21
316.7307158898538
 31
0.0
  0
LINE
  5
2EB
330
1F
100
AcDbEntity
  8
仕上
  6
Continuous
 62
     3
370
     9
100
AcDbLine
 10
-179.9998762800888
 20
301.7309138417118
 30
0.0
 11
-179.9998762800888
 21
316.7307158898538
 31
0.0
  0
LINE
  5
2EC
330
1F
100
AcDbEntity
  8
仕上
  6
Continuous
 62
     3
370
     9
100
AcDbLine
 10
-174.9998845280828
 20
301.7309138417118
 30
0.0
 11
-174.9998845280828
 21
316.7307158898538
 31
0.0
  0
LINE
  5
2ED
330
1F
100
AcDbEntity
  8
仕上
  6
Continuous
 62
     3
370
     9
100
AcDbLine
 10
-141.999973606419
 20
301.7309138417118
 30
0.0
 11
-141.999973606419
 21
316.7307158898538
 31
0.0
  0
LINE
  5
2EE
330
1F
100
AcDbEntity
  8
仕上
  6
Continuous
 62
     3
370
     9
100
AcDbLine
 10
-146.9999653584248
 20
301.7309138417118
 30
0.0
 11
-146.9999653584248
 21
316.7307158898538
 31
0.0
  0
LINE
  5
2EF
330
1F
100
AcDbEntity
  8
仕上
  6
JWW_DASHED1
 62
     3
370
     9
100
AcDbLine
 10
-181.0001517630912
 20
287.7306944450691
 30
0.0
 11
-169.077907252956
 21
287.7306944450691
 31
0.0
  0
LINE
  5
2F0
330
1F
100
AcDbEntity
  8
仕上
  6
JWW_DASHED1
 62
     3
370
     9
100
AcDbLine
 10
-152.9222890493032
 20
287.7306944450691
 30
0.0
 11
-141.000217747044
 21
287.7306944450691
 31
0.0
  0
LINE
  5
2F1
330
1F
100
AcDbEntity
  8
仕上
  6
Continuous
 62
     3
370
     9
100
AcDbLine
 10
-142.0001468142948
 20
301.7309138417118
 30
0.0
 11
-134.0001946526606
 21
301.7309138417118
 31
0.0
  0
LINE
  5
2F2
330
1F
100
AcDbEntity
  8
仕上
  6
Continuous
 62
     3
370
     9
100
AcDbLine
 10
-147.1709215318834
 20
301.7309138417118
 30
0.0
 11
-147.0001385663006
 21
301.7309138417118
 31
0.0
  0
LINE
  5
2F3
330
1F
100
AcDbEntity
  8
仕上
  6
Continuous
 62
     3
370
     9
100
AcDbLine
 10
-180.0000494879646
 20
301.7309138417118
 30
0.0
 11
-188.0000016495989
 21
301.7309138417118
 31
0.0
  0
LINE
  5
2F4
330
1F
100
AcDbEntity
  8
仕上
  6
Continuous
 62
     3
370
     9
100
AcDbLine
 10
-174.8292747703759
 20
301.7309138417118
 30
0.0
 11
-174.9998845280828
 21
301.7309138417118
 31
0.0
  0
LINE
  5
2F5
330
1F
100
AcDbEntity
  8
仕上
  6
Continuous
 62
     3
370
     9
100
AcDbLine
 10
-172.3246888856631
 20
294.7309773512664
 30
0.0
 11
-192.9999934016047
 21
294.7309773512664
 31
0.0
  0
LINE
  5
2F6
330
1F
100
AcDbEntity
  8
仕上
  6
Continuous
 62
     3
370
     9
100
AcDbLine
 10
-192.9999934016047
 20
282.7308759009392
 30
0.0
 11
-192.9999934016047
 21
294.7309773512664
 31
0.0
  0
LINE
  5
2F7
330
1F
100
AcDbEntity
  8
仕上
  6
Continuous
 62
     3
370
     9
100
AcDbLine
 10
-192.9999934016047
 20
301.7309138417118
 30
0.0
 11
-200.0000164959881
 21
301.7309138417118
 31
0.0
  0
LINE
  5
2F8
330
1F
100
AcDbEntity
  8
仕上
  6
Continuous
 62
     3
370
     9
100
AcDbLine
 10
-121.9757574957771
 20
282.7308759009392
 30
0.0
 11
-121.9757574957771
 21
287.7306944450691
 31
0.0
  0
LINE
  5
2F9
330
1F
100
AcDbEntity
  8
仕上
  6
Continuous
 62
     3
370
     9
100
AcDbLine
 10
-128.999856484903
 20
287.7306944450691
 30
0.0
 11
-121.9757574957771
 21
287.7306944450691
 31
0.0
  0
LINE
  5
2FA
330
1F
100
AcDbEntity
  8
仕上
  6
Continuous
 62
     3
370
     9
100
AcDbLine
 10
-149.6753342087205
 20
294.7309773512664
 30
0.0
 11
-128.999856484903
 21
294.7309773512664
 31
0.0
  0
LINE
  5
2FB
330
1F
100
AcDbEntity
  8
仕上
  6
Continuous
 62
     3
370
     9
100
AcDbLine
 10
-128.999856484903
 20
287.7306944450691
 30
0.0
 11
-128.999856484903
 21
294.7309773512664
 31
0.0
  0
LINE
  5
2FC
330
1F
100
AcDbEntity
  8
仕上
  6
Continuous
 62
     3
370
     9
100
AcDbLine
 10
-129.0000296927787
 20
301.7309138417118
 30
0.0
 11
-121.9757574957771
 21
301.7309138417118
 31
0.0
  0
LINE
  5
2FD
330
1F
100
AcDbEntity
  8
仕上
  6
Continuous
 62
     3
370
     9
100
AcDbLine
 10
-200.0000164959881
 20
298.7310400360213
 30
0.0
 11
-200.0000164959881
 21
301.7309138417118
 31
0.0
  0
LINE
  5
2FE
330
1F
100
AcDbEntity
  8
仕上
  6
Continuous
 62
     3
370
     9
100
AcDbLine
 10
-200.0000164959881
 20
298.7310400360213
 30
0.0
 11
-220.999566155511
 21
298.7310400360213
 31
0.0
  0
LINE
  5
2FF
330
1F
100
AcDbEntity
  8
仕上
  6
Continuous
 62
     3
370
     9
100
AcDbLine
 10
-210.0
 20
291.7309303377001
 30
0.0
 11
-210.0
 21
282.7308759009392
 31
0.0
  0
LINE
  5
300
330
1F
100
AcDbEntity
  8
建具
  6
Continuous
 62
     4
370
     9
100
AcDbLine
 10
-189.9965688344595
 20
293.7309616800775
 30
0.0
 11
-171.9200752876901
 21
293.7309616800775
 31
0.0
  0
LINE
  5
301
330
1F
100
AcDbEntity
  8
建具
  6
Continuous
 62
     4
370
     9
100
AcDbLine
 10
-191.9966001768371
 20
291.7309303377001
 30
0.0
 11
-191.9966001768371
 21
282.7308759009392
 31
0.0
  0
LINE
  5
302
330
1F
100
AcDbEntity
  8
建具
  6
Continuous
 62
     4
370
     9
100
AcDbLine
 10
-132.0032810520483
 20
293.7309616800775
 30
0.0
 11
-150.0799478066935
 21
293.7309616800775
 31
0.0
  0
LINE
  5
303
330
1F
100
AcDbEntity
  8
建具
  6
Continuous
 62
     4
370
     9
100
AcDbLine
 10
-130.0032497096707
 20
291.7309303377001
 30
0.0
 11
-130.0032497096707
 21
282.7308759009392
 31
0.0
  0
LINE
  5
304
330
1F
100
AcDbEntity
  8
仕上
  6
Continuous
 62
     3
370
     9
100
AcDbLine
 10
-121.9757574957771
 20
298.7310400360213
 30
0.0
 11
-100.999937315245
 21
298.7310400360213
 31
0.0
  0
LINE
  5
305
330
1F
100
AcDbEntity
  8
仕上
  6
Continuous
 62
     3
370
     9
100
AcDbLine
 10
-121.9757574957771
 20
298.7310400360213
 30
0.0
 11
-121.9757574957771
 21
301.7309138417118
 31
0.0
  0
LINE
  5
306
330
1F
100
AcDbEntity
  8
躯体
  6
Continuous
 62
     2
370
     9
100
AcDbLine
 10
295.0256677576013
 20
304.7310474592161
 30
0.0
 11
304.0543014938767
 21
304.7310474592161
 31
0.0
  0
LINE
  5
307
330
1F
100
AcDbEntity
  8
躯体
  6
Continuous
 62
     2
370
     9
100
AcDbLine
 10
293.175807643581
 20
302.7308429089626
 30
0.0
 11
306.2107395481418
 21
302.7308429089626
 31
0.0
  0
LINE
  5
308
330
1F
100
AcDbEntity
  8
躯体
  6
Continuous
 62
     2
370
     9
100
AcDbLine
 10
-295.0254945497255
 20
304.7310474592161
 30
0.0
 11
-304.0543014938767
 21
304.7310474592161
 31
0.0
  0
LINE
  5
309
330
1F
100
AcDbEntity
  8
躯体
  6
Continuous
 62
     2
370
     9
100
AcDbLine
 10
-293.1758076435812
 20
302.7308429089626
 30
0.0
 11
-306.210566340266
 21
302.7308429089626
 31
0.0
  0
LINE
  5
30A
330
1F
100
AcDbEntity
  8
躯体
  6
Continuous
 62
     2
370
     9
100
AcDbLine
 10
22.00017155827695
 20
577.7565436585404
 30
0.0
 11
22.00017155827695
 21
586.7851773948158
 31
0.0
  0
LINE
  5
30B
330
1F
100
AcDbEntity
  8
躯体
  6
Continuous
 62
     2
370
     9
100
AcDbLine
 10
19.9999670080237
 20
575.9066835445202
 30
0.0
 11
19.9999670080237
 21
588.9414422412051
 31
0.0
  0
LINE
  5
30C
330
1F
100
AcDbEntity
  8
躯体
  6
Continuous
 62
     2
370
     9
100
AcDbLine
 10
-21.99999835040128
 20
577.7565436585404
 30
0.0
 11
-21.99999835040128
 21
586.7851773948158
 31
0.0
  0
LINE
  5
30D
330
1F
100
AcDbEntity
  8
躯体
  6
Continuous
 62
     2
370
     9
100
AcDbLine
 10
-19.9999670080237
 20
575.9066835445202
 30
0.0
 11
-19.9999670080237
 21
588.9414422412051
 31
0.0
  0
LINE
  5
30E
330
1F
100
AcDbEntity
  8
躯体
  6
Continuous
 62
     2
370
     9
100
AcDbLine
 10
4.999991752005826
 20
576.2309286881012
 30
0.0
 11
-4.999991752006025
 21
576.2309286881012
 31
0.0
  0
LINE
  5
30F
330
1F
100
AcDbEntity
  8
躯体
  6
Continuous
 62
     2
370
     9
100
AcDbLine
 10
4.999991752005826
 20
591.2307307362432
 30
0.0
 11
-4.999991752006025
 21
591.2307307362432
 31
0.0
  0
LINE
  5
310
330
1F
100
AcDbEntity
  8
躯体
  6
Continuous
 62
     2
370
     9
100
AcDbLine
 10
4.999991752005826
 20
574.7307752754111
 30
0.0
 11
-4.999991752006025
 21
574.7307752754111
 31
0.0
  0
LINE
  5
311
330
1F
100
AcDbEntity
  8
躯体
  6
Continuous
 62
     2
370
     9
100
AcDbLine
 10
4.999991752005826
 20
592.7308841489331
 30
0.0
 11
-4.999991752006025
 21
592.7308841489331
 31
0.0
  0
LINE
  5
312
330
1F
100
AcDbEntity
  8
仕上
  6
JWW_CENTER1
 62
     3
370
     9
100
AcDbLine
 10
16.77015974714936
 20
583.7308297121722
 30
0.0
 11
-16.77015974714956
 21
583.7308297121722
 31
0.0
  0
LINE
  5
313
330
1F
100
AcDbEntity
  8
躯体
  6
Continuous
 62
     2
370
     9
100
AcDbLine
 10
309.9998350401183
 20
287.730867652945
 30
0.0
 11
309.9998350401183
 21
282.7308759009392
 31
0.0
  0
LINE
  5
314
330
1F
100
AcDbEntity
  8
躯体
  6
Continuous
 62
     2
370
     9
100
AcDbLine
 10
308.50002804318
 20
287.730867652945
 30
0.0
 11
308.50002804318
 21
277.7307109410573
 31
0.0
  0
LINE
  5
315
330
1F
100
AcDbEntity
  8
躯体
  6
Continuous
 62
     2
370
     9
100
AcDbLine
 10
293.4998795792862
 20
287.730867652945
 30
0.0
 11
293.4998795792862
 21
277.7307109410573
 31
0.0
  0
LINE
  5
316
330
1F
100
AcDbEntity
  8
躯体
  6
Continuous
 62
     2
370
     9
100
AcDbLine
 10
291.9998993744722
 20
287.730867652945
 30
0.0
 11
291.9998993744722
 21
282.7308759009392
 31
0.0
  0
LINE
  5
317
330
1F
100
AcDbEntity
  8
仕上
  6
JWW_CENTER1
 62
     3
370
     9
100
AcDbLine
 10
300.9999538112332
 20
299.2075349024699
 30
0.0
 11
300.9999538112332
 21
266.2542168994082
 31
0.0
  0
LINE
  5
318
330
1F
100
AcDbEntity
  8
躯体
  6
Continuous
 62
     2
370
     9
100
AcDbLine
 10
-309.9998350401183
 20
287.730867652945
 30
0.0
 11
-309.9998350401183
 21
282.7308759009392
 31
0.0
  0
LINE
  5
319
330
1F
100
AcDbEntity
  8
躯体
  6
Continuous
 62
     2
370
     9
100
AcDbLine
 10
-308.4998548353041
 20
287.730867652945
 30
0.0
 11
-308.4998548353041
 21
277.7307109410573
 31
0.0
  0
LINE
  5
31A
330
1F
100
AcDbEntity
  8
躯体
  6
Continuous
 62
     2
370
     9
100
AcDbLine
 10
-293.4998795792864
 20
287.730867652945
 30
0.0
 11
-293.4998795792864
 21
277.7307109410573
 31
0.0
  0
LINE
  5
31B
330
1F
100
AcDbEntity
  8
躯体
  6
Continuous
 62
     2
370
     9
100
AcDbLine
 10
-291.9997261665964
 20
287.730867652945
 30
0.0
 11
-291.9997261665964
 21
282.7308759009392
 31
0.0
  0
LINE
  5
31C
330
1F
100
AcDbEntity
  8
仕上
  6
JWW_CENTER1
 62
     3
370
     9
100
AcDbLine
 10
-300.9999538112332
 20
299.2075349024699
 30
0.0
 11
-300.9999538112332
 21
266.2542168994082
 31
0.0
  0
LINE
  5
31D
330
1F
100
AcDbEntity
  8
躯体
  6
Continuous
 62
     2
370
     9
100
AcDbLine
 10
4.999991752005826
 20
-25.76897893436495
 30
0.0
 11
-4.999991752006025
 21
-25.76897893436495
 31
0.0
  0
LINE
  5
31E
330
1F
100
AcDbEntity
  8
躯体
  6
Continuous
 62
     2
370
     9
100
AcDbLine
 10
4.999991752005826
 20
-10.76900367834727
 30
0.0
 11
-4.999991752006025
 21
-10.76900367834727
 31
0.0
  0
LINE
  5
31F
330
1F
100
AcDbEntity
  8
仕上
  6
JWW_CENTER1
 62
     3
370
     9
100
AcDbLine
 10
16.47674560546875
 20
-18.26890470241818
 30
0.0
 11
-16.47674560546875
 21
-18.26890470241818
 31
0.0
  0
LINE
  5
320
330
1F
100
AcDbEntity
  8
躯体
  6
Continuous
 62
     2
370
     9
100
AcDbLine
 10
-281.2203072212839
 20
-369.9396967407945
 30
0.0
 11
-309.80844033731
 21
-401.4262471492352
 31
0.0
  0
LINE
  5
321
330
1F
100
AcDbEntity
  8
躯体
  6
Continuous
 62
     2
370
     9
100
AcDbLine
 10
-282.7389938766892
 20
-397.7066946194104
 30
0.0
 11
-280.7058798300254
 21
-368.7354256820159
 31
0.0
  0
LINE
  5
322
330
1F
100
AcDbEntity
  8
躯体
  6
Continuous
 62
     2
370
     9
100
AcDbLine
 10
281.2203072212839
 20
-369.9396967407945
 30
0.0
 11
309.8084403373099
 21
-401.4262471492352
 31
0.0
  0
LINE
  5
323
330
1F
100
AcDbEntity
  8
仕上
  6
Continuous
 62
     3
370
     9
100
AcDbLine
 10
95.99994556323901
 20
498.7307967201958
 30
0.0
 11
90.41277911211984
 21
498.7307967201958
 31
0.0
  0
LINE
  5
324
330
1F
100
AcDbEntity
  8
仕上
  6
Continuous
 62
     3
370
     9
100
AcDbLine
 10
90.41277911211984
 20
498.7307967201958
 30
0.0
 11
95.99994556323901
 21
513.2861473589206
 31
0.0
  0
LINE
  5
325
330
1F
100
AcDbEntity
  8
仕上
  6
Continuous
 62
     3
370
     9
100
AcDbLine
 10
-95.99977235536315
 20
498.7307967201958
 30
0.0
 11
-90.41260590424417
 21
498.7307967201958
 31
0.0
  0
LINE
  5
326
330
1F
100
AcDbEntity
  8
仕上
  6
Continuous
 62
     3
370
     9
100
AcDbLine
 10
-90.41260590424417
 20
498.7307967201958
 30
0.0
 11
-95.99977235536315
 21
513.2861473589206
 31
0.0
  0
LINE
  5
327
330
1F
100
AcDbEntity
  8
躯体
  6
Continuous
 62
     2
370
     9
100
AcDbLine
 10
-280.7058798300254
 20
-368.7354256820159
 30
0.0
 11
-278.999955460832
 21
-344.4267395544823
 31
0.0
  0
LINE
  5
328
330
1F
100
AcDbEntity
  8
躯体
  6
Continuous
 62
     2
370
     9
100
AcDbLine
 10
-273.999963708826
 20
-344.4267395544823
 30
0.0
 11
-278.999955460832
 21
-344.4267395544823
 31
0.0
  0
LINE
  5
329
330
1F
100
AcDbEntity
  8
躯体
  6
Continuous
 62
     2
370
     9
100
AcDbLine
 10
-273.999963708826
 20
-344.4267395544823
 30
0.0
 11
-265.9890994510135
 21
-401.4267234708937
 31
0.0
  0
LINE
  5
32A
330
1F
100
AcDbEntity
  8
躯体
  6
Continuous
 62
     2
370
     9
100
AcDbLine
 10
273.999963708826
 20
-344.4267395544823
 30
0.0
 11
265.9890994510135
 21
-401.4267234708937
 31
0.0
  0
LINE
  5
32B
330
1F
100
AcDbEntity
  8
躯体
  6
Continuous
 62
     2
370
     9
100
AcDbLine
 10
273.999963708826
 20
-344.4267395544823
 30
0.0
 11
278.9999554608319
 21
-344.4267395544823
 31
0.0
  0
LINE
  5
32C
330
1F
100
AcDbEntity
  8
躯体
  6
JWW_CENTER1
 62
     2
370
     9
100
AcDbLine
 10
-300.9999538112332
 20
-394.2332271791919
 30
0.0
 11
-300.9999538112332
 21
-417.0327963864607
 31
0.0
  0
LINE
  5
32D
330
1F
100
AcDbEntity
  8
躯体
  6
JWW_CENTER1
 62
     2
370
     9
100
AcDbLine
 10
300.9999538112332
 20
-394.2332271791919
 30
0.0
 11
300.9999538112332
 21
-417.0327963864607
 31
0.0
  0
LINE
  5
32E
330
1F
100
AcDbEntity
  8
建具
  6
Continuous
 62
     4
370
     9
100
AcDbLine
 10
-130.0571173590584
 20
-346.5754698582723
 30
0.0
 11
-133.974040263408
 21
-342.6585036519538
 31
0.0
  0
LINE
  5
32F
330
1F
100
AcDbEntity
  8
建具
  6
Continuous
 62
     4
370
     9
100
AcDbLine
 10
-133.3797640413851
 20
-346.6467015972135
 30
0.0
 11
-137.2966869457349
 21
-342.7298652968017
 31
0.0
  0
LINE
  5
330
330
1F
100
AcDbEntity
  8
建具
  6
Continuous
 62
     4
370
     9
100
AcDbLine
 10
-135.9900067303631
 20
-347.430683745255
 30
0.0
 11
-140.6193336280616
 21
-342.8011836396807
 31
0.0
  0
LINE
  5
331
330
1F
100
AcDbEntity
  8
建具
  6
Continuous
 62
     4
370
     9
100
AcDbLine
 10
-141.1010247307856
 20
-342.3196224428638
 30
0.0
 11
-141.5986509580871
 21
-341.8219529135932
 31
0.0
  0
LINE
  5
332
330
1F
100
AcDbEntity
  8
建具
  6
Continuous
 62
     4
370
     9
100
AcDbLine
 10
-135.91552734375
 20
-350.8991281570741
 30
0.0
 11
-144.921297640414
 21
-341.8933145584412
 31
0.0
  0
LINE
  5
333
330
1F
100
AcDbEntity
  8
建具
  6
Continuous
 62
     4
370
     9
100
AcDbLine
 10
-135.8769019874366
 20
-354.3317185385932
 30
0.0
 11
-148.2441175306166
 21
-341.9646762032892
 31
0.0
  0
LINE
  5
334
330
1F
100
AcDbEntity
  8
建具
  6
Continuous
 62
     4
370
     9
100
AcDbLine
 10
-135.9080794050888
 20
-357.694549448116
 30
0.0
 11
-151.5667642129435
 21
-342.0359945461682
 31
0.0
  0
LINE
  5
335
330
1F
100
AcDbEntity
  8
建具
  6
Continuous
 62
     4
370
     9
100
AcDbLine
 10
-137.2636042414485
 20
-359.7329896369621
 30
0.0
 11
-154.8894108952703
 21
-342.1072695870783
 31
0.0
  0
LINE
  5
336
330
1F
100
AcDbEntity
  8
建具
  6
Continuous
 62
     4
370
     9
100
AcDbLine
 10
-140.5865973395271
 20
-359.8043512818101
 30
0.0
 11
-158.2122307854731
 21
-342.1786312319263
 31
0.0
  0
LINE
  5
337
330
1F
100
AcDbEntity
  8
建具
  6
Continuous
 62
     4
370
     9
100
AcDbLine
 10
-143.9092440218539
 20
-359.875712926658
 30
0.0
 11
-161.5348774677998
 21
-342.2499062728363
 31
0.0
  0
LINE
  5
338
330
1F
100
AcDbEntity
  8
建具
  6
Continuous
 62
     4
370
     9
100
AcDbLine
 10
-147.2318907041808
 20
-359.9469879675682
 30
0.0
 11
-164.8576973580026
 21
-342.3212246157153
 31
0.0
  0
LINE
  5
339
330
1F
100
AcDbEntity
  8
建具
  6
Continuous
 62
     4
370
     9
100
AcDbLine
 10
-150.5547105943834
 20
-360.0183063104471
 30
0.0
 11
-168.1803440403295
 21
-342.3925862605633
 31
0.0
  0
LINE
  5
33A
330
1F
100
AcDbEntity
  8
建具
  6
Continuous
 62
     4
370
     9
100
AcDbLine
 10
-153.8773572767103
 20
-360.0895813513573
 30
0.0
 11
-171.5031639305321
 21
-342.4639479054113
 31
0.0
  0
LINE
  5
33B
330
1F
100
AcDbEntity
  8
建具
  6
Continuous
 62
     4
370
     9
100
AcDbLine
 10
-157.2000039590373
 20
-360.1609429962052
 30
0.0
 11
-174.8259838207349
 21
-342.5352229463214
 31
0.0
  0
LINE
  5
33C
330
1F
100
AcDbEntity
  8
建具
  6
Continuous
 62
     4
370
     9
100
AcDbLine
 10
-160.5228238492399
 20
-360.2323046410531
 30
0.0
 11
-178.1486305030616
 21
-342.6065412892003
 31
0.0
  0
LINE
  5
33D
330
1F
100
AcDbEntity
  8
建具
  6
Continuous
 62
     4
370
     9
100
AcDbLine
 10
-163.8454705315668
 20
-360.3036229839322
 30
0.0
 11
-181.0945500554265
 21
-343.0546300640103
 31
0.0
  0
LINE
  5
33E
330
1F
100
AcDbEntity
  8
建具
  6
Continuous
 62
     4
370
     9
100
AcDbLine
 10
-167.1682904217694
 20
-360.3748980248422
 30
0.0
 11
-183.8149529534418
 21
-343.7282787951389
 31
0.0
  0
LINE
  5
33F
330
1F
100
AcDbEntity
  8
建具
  6
Continuous
 62
     4
370
     9
100
AcDbLine
 10
-170.4911103119722
 20
-360.4462596696902
 30
0.0
 11
-187.1375996357685
 21
-343.7996404399869
 31
0.0
  0
LINE
  5
340
330
1F
100
AcDbEntity
  8
建具
  6
Continuous
 62
     4
370
     9
100
AcDbLine
 10
-173.8137569942991
 20
-360.5175347106002
 30
0.0
 11
-185.9817834802577
 21
-348.3495082246417
 31
0.0
  0
LINE
  5
341
330
1F
100
AcDbEntity
  8
建具
  6
Continuous
 62
     4
370
     9
100
AcDbLine
 10
-186.5436698294974
 20
-347.7876651773707
 30
0.0
 11
-190.2314387141047
 21
-344.0998962927635
 31
0.0
  0
LINE
  5
342
330
1F
100
AcDbEntity
  8
建具
  6
Continuous
 62
     4
370
     9
100
AcDbLine
 10
-177.1365768845017
 20
-360.5888963554482
 30
0.0
 11
-185.9074773015203
 21
-351.8179526364607
 31
0.0
  0
LINE
  5
343
330
1F
100
AcDbEntity
  8
建具
  6
Continuous
 62
     4
370
     9
100
AcDbLine
 10
-189.8663165118244
 20
-347.8589835202498
 30
0.0
 11
-191.8516251847552
 21
-345.8737614512569
 31
0.0
  0
LINE
  5
344
330
1F
100
AcDbEntity
  8
建具
  6
Continuous
 62
     4
370
     9
100
AcDbLine
 10
-180.4590503589528
 20
-360.6602146983272
 30
0.0
 11
-185.8000884184968
 21
-355.3192632427213
 31
0.0
  0
LINE
  5
345
330
1F
100
AcDbEntity
  8
建具
  6
Continuous
 62
     4
370
     9
100
AcDbLine
 10
-183.7818702491554
 20
-360.7315763431752
 30
0.0
 11
-185.6128507047086
 21
-358.900552585653
 31
0.0
  0
LINE
  5
346
330
1F
100
AcDbEntity
  8
仕上
  6
JWW_CENTER1
 62
     3
370
     9
100
AcDbLine
 10
-161.2979290936444
 20
-333.3565911895646
 30
0.0
 11
-160.4729399809968
 21
-371.7883443996838
 31
0.0
  0
LINE
  5
347
330
1F
100
AcDbEntity
  8
仕上
  6
JWW_CENTER1
 62
     3
370
     9
100
AcDbLine
 10
161.2979290936444
 20
-333.3562880757819
 30
0.0
 11
160.503770982897
 21
-370.3617177302899
 31
0.0
  0
LINE
  5
348
330
1F
100
AcDbEntity
  8
建具
  6
Continuous
 62
     4
370
     9
100
AcDbLine
 10
191.9226404138513
 20
-346.1143904927741
 30
0.0
 11
189.7374498521959
 21
-343.9293731389944
 31
0.0
  0
LINE
  5
349
330
1F
100
AcDbEntity
  8
建具
  6
Continuous
 62
     4
370
     9
100
AcDbLine
 10
190.2818422059754
 20
-347.867600612073
 30
0.0
 11
186.1930970887879
 21
-343.7789420988234
 31
0.0
  0
LINE
  5
34A
330
1F
100
AcDbEntity
  8
建具
  6
Continuous
 62
     4
370
     9
100
AcDbLine
 10
186.8133544921875
 20
-347.7931645274288
 30
0.0
 11
182.724609375
 21
-343.7045060141792
 31
0.0
  0
LINE
  5
34B
330
1F
100
AcDbEntity
  8
建具
  6
Continuous
 62
     4
370
     9
100
AcDbLine
 10
185.9396939664274
 20
-350.3135123288435
 30
0.0
 11
178.234021985853
 21
-342.6081001600829
 31
0.0
  0
LINE
  5
34C
330
1F
100
AcDbEntity
  8
建具
  6
Continuous
 62
     4
370
     9
100
AcDbLine
 10
185.8683323215793
 20
-353.6362889170772
 30
0.0
 11
174.7655342720651
 21
-342.5336640754387
 31
0.0
  0
LINE
  5
34D
330
1F
100
AcDbEntity
  8
建具
  6
Continuous
 62
     4
370
     9
100
AcDbLine
 10
185.7185075089737
 20
-356.8806023375533
 30
0.0
 11
171.2972197661528
 21
-342.4591846888255
 31
0.0
  0
LINE
  5
34E
330
1F
100
AcDbEntity
  8
建具
  6
Continuous
 62
     4
370
     9
100
AcDbLine
 10
185.5499762457769
 20
-360.1060794015314
 30
0.0
 11
167.8287320523649
 21
-342.3847053022123
 31
0.0
  0
LINE
  5
34F
330
1F
100
AcDbEntity
  8
建具
  6
Continuous
 62
     4
370
     9
100
AcDbLine
 10
182.759250950169
 20
-360.7092758291602
 30
0.0
 11
164.3600711307011
 21
-342.3102259155992
 31
0.0
  0
LINE
  5
350
330
1F
100
AcDbEntity
  8
建具
  6
Continuous
 62
     4
370
     9
100
AcDbLine
 10
179.290590028505
 20
-360.634796442547
 30
0.0
 11
160.8915834169129
 21
-342.2357898309549
 31
0.0
  0
LINE
  5
351
330
1F
100
AcDbEntity
  8
建具
  6
Continuous
 62
     4
370
     9
100
AcDbLine
 10
175.822102314717
 20
-360.5603603579028
 30
0.0
 11
157.423095703125
 21
-342.1613970482797
 31
0.0
  0
LINE
  5
352
330
1F
100
AcDbEntity
  8
建具
  6
Continuous
 62
     4
370
     9
100
AcDbLine
 10
172.353787808805
 20
-360.4858809712897
 30
0.0
 11
153.9546079893369
 21
-342.0869176616666
 31
0.0
  0
LINE
  5
353
330
1F
100
AcDbEntity
  8
建具
  6
Continuous
 62
     4
370
     9
100
AcDbLine
 10
168.885126887141
 20
-360.4114881886144
 30
0.0
 11
150.4861202755489
 21
-342.0125248789913
 31
0.0
  0
LINE
  5
354
330
1F
100
AcDbEntity
  8
建具
  6
Continuous
 62
     4
370
     9
100
AcDbLine
 10
165.416639173353
 20
-360.3370088020012
 30
0.0
 11
147.0178057696369
 21
-341.9380454923781
 31
0.0
  0
LINE
  5
355
330
1F
100
AcDbEntity
  8
建具
  6
Continuous
 62
     4
370
     9
100
AcDbLine
 10
161.9481514595651
 20
-360.262616019326
 30
0.0
 11
143.5493180558487
 21
-341.863566105765
 31
0.0
  0
LINE
  5
356
330
1F
100
AcDbEntity
  8
建具
  6
Continuous
 62
     4
370
     9
100
AcDbLine
 10
158.4796637457769
 20
-360.1881366327127
 30
0.0
 11
141.0908054661106
 21
-342.7992783530464
 31
0.0
  0
LINE
  5
357
330
1F
100
AcDbEntity
  8
建具
  6
Continuous
 62
     4
370
     9
100
AcDbLine
 10
155.011176031989
 20
-360.1136572460996
 30
0.0
 11
137.6344423036317
 21
-342.7368369138044
 31
0.0
  0
LINE
  5
358
330
1F
100
AcDbEntity
  8
建具
  6
Continuous
 62
     4
370
     9
100
AcDbLine
 10
151.5426883182011
 20
-360.0392211614554
 30
0.0
 11
134.1657813819679
 21
-342.6624441311291
 31
0.0
  0
LINE
  5
359
330
1F
100
AcDbEntity
  8
建具
  6
Continuous
 62
     4
370
     9
100
AcDbLine
 10
148.0742006044129
 20
-359.9647417748422
 30
0.0
 11
135.9804802971916
 21
-347.8711080715588
 31
0.0
  0
LINE
  5
35A
330
1F
100
AcDbEntity
  8
建具
  6
Continuous
 62
     4
370
     9
100
AcDbLine
 10
134.7862119932431
 20
-346.6767098617034
 30
0.0
 11
131.2960732949746
 21
-343.1866144654039
 31
0.0
  0
LINE
  5
35B
330
1F
100
AcDbEntity
  8
建具
  6
Continuous
 62
     4
370
     9
100
AcDbLine
 10
144.605712890625
 20
-359.8902623882291
 30
0.0
 11
135.9092918602196
 21
-351.1938846597926
 31
0.0
  0
LINE
  5
35C
330
1F
100
AcDbEntity
  8
建具
  6
Continuous
 62
     4
370
     9
100
AcDbLine
 10
131.3175510715793
 20
-346.6022304750903
 30
0.0
 11
130.0408358187289
 21
-345.3255152222398
 31
0.0
  0
LINE
  5
35D
330
1F
100
AcDbEntity
  8
建具
  6
Continuous
 62
     4
370
     9
100
AcDbLine
 10
141.1372251768369
 20
-359.8158696055538
 30
0.0
 11
135.8791536898226
 21
-354.5577981185394
 31
0.0
  0
LINE
  5
35E
330
1F
100
AcDbEntity
  8
建具
  6
Continuous
 62
     4
370
     9
100
AcDbLine
 10
137.6687374630489
 20
-359.7413902189406
 30
0.0
 11
135.9108507311022
 21
-357.9835900909318
 31
0.0
  0
LINE
  5
35F
330
1F
100
AcDbEntity
  8
躯体
  6
Continuous
 62
     2
370
     9
100
AcDbLine
 10
265.9890994510135
 20
-401.4267234708937
 30
0.0
 11
250.9998630832981
 21
-401.4267234708937
 31
0.0
  0
LINE
  5
360
330
1F
100
AcDbEntity
  8
躯体
  6
Continuous
 62
     2
370
     9
100
AcDbLine
 10
-250.9998630832982
 20
-401.4267234708937
 30
0.0
 11
-265.9890994510135
 21
-401.4267234708937
 31
0.0
  0
LINE
  5
361
330
1F
100
AcDbEntity
  8
建具
  6
Continuous
 62
     4
370
     9
100
AcDbLine
 10
-207.0002127982476
 20
-577.926155184101
 30
0.0
 11
-213.0003068253802
 21
-577.926155184101
 31
0.0
  0
LINE
  5
362
330
1F
100
AcDbEntity
  8
建具
  6
Continuous
 62
     4
370
     9
100
AcDbLine
 10
-206.0001105231209
 20
-578.9260842513519
 30
0.0
 11
-214.0000626847552
 21
-578.9260842513519
 31
0.0
  0
LINE
  5
363
330
1F
100
AcDbEntity
  8
建具
  6
Continuous
 62
     4
370
     9
100
AcDbLine
 10
-206.0001105231209
 20
-578.9260842513519
 30
0.0
 11
-207.0002127982476
 21
-577.926155184101
 31
0.0
  0
LINE
  5
364
330
1F
100
AcDbEntity
  8
建具
  6
Continuous
 62
     4
370
     9
100
AcDbLine
 10
-213.0003068253802
 20
-577.926155184101
 30
0.0
 11
-214.0000626847552
 21
-578.9260842513519
 31
0.0
  0
LINE
  5
365
330
1F
100
AcDbEntity
  8
建具
  6
Continuous
 62
     4
370
     9
100
AcDbLine
 10
-206.5001616606843
 20
-599.9260669305643
 30
0.0
 11
-206.5001616606843
 21
-595.9260908497472
 31
0.0
  0
LINE
  5
366
330
1F
100
AcDbEntity
  8
建具
  6
JWW_CENTER1
 62
     4
370
     9
100
AcDbLine
 10
-210.0
 20
-599.9260669305643
 30
0.0
 11
-210.0
 21
-576.3808811197536
 31
0.0
  0
LINE
  5
367
330
1F
100
AcDbEntity
  8
建具
  6
Continuous
 62
     4
370
     9
100
AcDbLine
 10
-213.5001847550677
 20
-599.9260669305643
 30
0.0
 11
-213.5001847550677
 21
-595.9260908497472
 31
0.0
  0
LINE
  5
368
330
1F
100
AcDbEntity
  8
建具
  6
Continuous
 62
     4
370
     9
100
AcDbLine
 10
-203.5003744589317
 20
-609.9261370385141
 30
0.0
 11
-90.7086181640625
 21
-609.9261370385141
 31
0.0
  0
LINE
  5
369
330
1F
100
AcDbEntity
  8
建具
  6
Continuous
 62
     4
370
     9
100
AcDbLine
 10
-203.50002804318
 20
-602.9262005480687
 30
0.0
 11
-90.7086181640625
 21
-602.9262005480687
 31
0.0
  0
LINE
  5
36A
330
1F
100
AcDbEntity
  8
建具
  6
JWW_CENTER1
 62
     4
370
     9
100
AcDbLine
 10
-75.0002226958405
 20
-627.0576950186133
 30
0.0
 11
-75.0002226958405
 21
-587.7699917880391
 31
0.0
  0
LINE
  5
36B
330
1F
100
AcDbEntity
  8
建具
  6
Continuous
 62
     4
370
     9
100
AcDbLine
 10
-81.7284826330237
 20
-604.4945978638415
 30
0.0
 11
-87.68908526446378
 21
-600.5106435115398
 31
0.0
  0
LINE
  5
36C
330
1F
100
AcDbEntity
  8
建具
  6
Continuous
 62
     4
370
     9
100
AcDbLine
 10
-217.5002474398227
 20
-588.1477581652562
 30
0.0
 11
-217.5002474398227
 21
-593.9259729034318
 31
0.0
  0
LINE
  5
36D
330
1F
100
AcDbEntity
  8
建具
  6
Continuous
 62
     4
370
     9
100
AcDbLine
 10
-202.500272183805
 20
-588.1477581652562
 30
0.0
 11
-202.500272183805
 21
-593.9259729034318
 31
0.0
  0
LINE
  5
36E
330
1F
100
AcDbEntity
  8
建具
  6
Continuous
 62
     4
370
     9
100
AcDbLine
 10
-213.7475256017737
 20
-588.1477581652562
 30
0.0
 11
-213.7475256017737
 21
-593.9259729034318
 31
0.0
  0
LINE
  5
36F
330
1F
100
AcDbEntity
  8
建具
  6
Continuous
 62
     4
370
     9
100
AcDbLine
 10
-206.2529940218539
 20
-588.1477581652562
 30
0.0
 11
-206.2529940218539
 21
-593.9259729034318
 31
0.0
  0
LINE
  5
370
330
1F
100
AcDbEntity
  8
建具
  6
Continuous
 62
     4
370
     9
100
AcDbLine
 10
-215.6237133129224
 20
-587.4259143426737
 30
0.0
 11
-204.3766331028295
 21
-587.4259143426737
 31
0.0
  0
LINE
  5
371
330
1F
100
AcDbEntity
  8
建具
  6
Continuous
 62
     4
370
     9
100
AcDbLine
 10
-198.7501484638935
 20
-595.9260908497472
 30
0.0
 11
-198.7501484638935
 21
-593.9259729034318
 31
0.0
  0
LINE
  5
372
330
1F
100
AcDbEntity
  8
建具
  6
Continuous
 62
     4
370
     9
100
AcDbLine
 10
-221.2500247439823
 20
-595.9260908497472
 30
0.0
 11
-198.7501484638935
 21
-595.9260908497472
 31
0.0
  0
LINE
  5
373
330
1F
100
AcDbEntity
  8
建具
  6
Continuous
 62
     4
370
     9
100
AcDbLine
 10
-221.2500247439823
 20
-595.9260908497472
 30
0.0
 11
-221.2500247439823
 21
-593.9259729034318
 31
0.0
  0
LINE
  5
374
330
1F
100
AcDbEntity
  8
建具
  6
Continuous
 62
     4
370
     9
100
AcDbLine
 10
-221.2500247439823
 20
-593.9259729034318
 30
0.0
 11
-198.7501484638935
 21
-593.9259729034318
 31
0.0
  0
LINE
  5
375
330
1F
100
AcDbEntity
  8
建具
  6
Continuous
 62
     4
370
     9
100
AcDbLine
 10
-213.0003068253802
 20
-577.926155184101
 30
0.0
 11
-213.0003068253802
 21
-587.4259143426737
 31
0.0
  0
LINE
  5
376
330
1F
100
AcDbEntity
  8
建具
  6
Continuous
 62
     4
370
     9
100
AcDbLine
 10
-214.0000626847552
 20
-578.9260842513519
 30
0.0
 11
-214.0000626847552
 21
-587.4259143426737
 31
0.0
  0
LINE
  5
377
330
1F
100
AcDbEntity
  8
建具
  6
Continuous
 62
     4
370
     9
100
AcDbLine
 10
-207.0002127982476
 20
-577.926155184101
 30
0.0
 11
-207.0002127982476
 21
-587.4259143426737
 31
0.0
  0
LINE
  5
378
330
1F
100
AcDbEntity
  8
建具
  6
Continuous
 62
     4
370
     9
100
AcDbLine
 10
-206.0001105231209
 20
-578.9260842513519
 30
0.0
 11
-206.0001105231209
 21
-587.4259143426737
 31
0.0
  0
LINE
  5
379
330
1F
100
AcDbEntity
  8
建具
  6
Continuous
 62
     4
370
     9
100
AcDbLine
 10
-3.500531170819386
 20
-372.8467311250323
 30
0.0
 11
-3.500531170819386
 21
-395.5106352635457
 31
0.0
  0
LINE
  5
37A
330
1F
100
AcDbEntity
  8
建具
  6
Continuous
 62
     4
370
     9
100
AcDbLine
 10
3.499665131440082
 20
-372.8467311250323
 30
0.0
 11
3.499665131440082
 21
-395.5106352635457
 31
0.0
  0
LINE
  5
37B
330
1F
100
AcDbEntity
  8
建具
  6
Continuous
 62
     4
370
     9
100
AcDbLine
 10
-1.000448690878443
 20
-358.5105750531889
 30
0.0
 11
-1.000448690878443
 21
-367.510499584043
 31
0.0
  0
LINE
  5
37C
330
1F
100
AcDbEntity
  8
建具
  6
Continuous
 62
     4
370
     9
100
AcDbLine
 10
0.9995826514991393
 20
-358.5105750531889
 30
0.0
 11
0.9995826514991393
 21
-367.510499584043
 31
0.0
  0
LINE
  5
37D
330
1F
100
AcDbEntity
  8
建具
  6
Continuous
 62
     4
370
     9
100
AcDbLine
 10
-9.000574060388573
 20
-460.0106501099351
 30
0.0
 11
-9.000574060388573
 21
-484.0106798027139
 31
0.0
  0
LINE
  5
37E
330
1F
100
AcDbEntity
  8
建具
  6
Continuous
 62
     4
370
     9
100
AcDbLine
 10
3.999543061127582
 20
-460.0106501099351
 30
0.0
 11
3.999543061127582
 21
-484.0106798027139
 31
0.0
  0
LINE
  5
37F
330
1F
100
AcDbEntity
  8
建具
  6
Continuous
 62
     4
370
     9
100
AcDbLine
 10
-4.000582308382548
 20
-460.0106501099351
 30
0.0
 11
-4.000582308382548
 21
-484.0106798027139
 31
0.0
  0
LINE
  5
380
330
1F
100
AcDbEntity
  8
建具
  6
Continuous
 62
     4
370
     9
100
AcDbLine
 10
8.999534813133408
 20
-460.0106501099351
 30
0.0
 11
8.999534813133408
 21
-484.0106798027139
 31
0.0
  0
LINE
  5
381
330
1F
100
AcDbEntity
  8
建具
  6
Continuous
 62
     4
370
     9
100
AcDbLine
 10
-9.000400852512712
 20
-506.4221334621838
 30
0.0
 11
8.999361605257548
 21
-501.5990735553532
 31
0.0
  0
LINE
  5
382
330
1F
100
AcDbEntity
  8
建具
  6
Continuous
 62
     4
370
     9
100
AcDbLine
 10
-9.000574060388573
 20
-396.0106864011091
 30
0.0
 11
-9.000574060388573
 21
-420.0106294899498
 31
0.0
  0
LINE
  5
383
330
1F
100
AcDbEntity
  8
建具
  6
Continuous
 62
     4
370
     9
100
AcDbLine
 10
3.999543061127582
 20
-396.0106864011091
 30
0.0
 11
3.999543061127582
 21
-420.0106294899498
 31
0.0
  0
LINE
  5
384
330
1F
100
AcDbEntity
  8
建具
  6
Continuous
 62
     4
370
     9
100
AcDbLine
 10
-4.000582308382548
 20
-396.0106864011091
 30
0.0
 11
-4.000582308382548
 21
-420.0106294899498
 31
0.0
  0
LINE
  5
385
330
1F
100
AcDbEntity
  8
建具
  6
Continuous
 62
     4
370
     9
100
AcDbLine
 10
8.999534813133408
 20
-396.0106864011091
 30
0.0
 11
8.999534813133408
 21
-420.0106294899498
 31
0.0
  0
LINE
  5
386
330
1F
100
AcDbEntity
  8
建具
  6
Continuous
 62
     4
370
     9
100
AcDbLine
 10
-2.500428895692664
 20
-458.5106699051209
 30
0.0
 11
-2.500428895692664
 21
-421.5106529967331
 31
0.0
  0
LINE
  5
387
330
1F
100
AcDbEntity
  8
建具
  6
Continuous
 62
     4
370
     9
100
AcDbLine
 10
2.499562856313361
 20
-421.5106529967331
 30
0.0
 11
2.499562856313361
 21
-458.5106699051209
 31
0.0
  0
LINE
  5
388
330
1F
100
AcDbEntity
  8
建具
  6
Continuous
 62
     4
370
     9
100
AcDbLine
 10
-2.500428895692664
 20
-504.6805282705665
 30
0.0
 11
-2.500428895692664
 21
-485.510660007528
 31
0.0
  0
LINE
  5
389
330
1F
100
AcDbEntity
  8
建具
  6
Continuous
 62
     4
370
     9
100
AcDbLine
 10
2.499562856313361
 20
-503.3407653509085
 30
0.0
 11
2.499562856313361
 21
-485.510660007528
 31
0.0
  0
LINE
  5
38A
330
1F
100
AcDbEntity
  8
建具
  6
JWW_CENTER1
 62
     4
370
     9
100
AcDbLine
 10
-0.0001732078758607
 20
-596.4261419873105
 30
0.0
 11
-0.0001732078758607
 21
-331.806986928321
 31
0.0
  0
LINE
  5
38B
330
1F
100
AcDbEntity
  8
建具
  6
JWW_CENTER1
 62
     4
370
     9
100
AcDbLine
 10
-10.00032991976357
 20
-606.4260388873845
 30
0.0
 11
-203.5003744589317
 21
-606.4260388873845
 31
0.0
  0
LINE
  5
38C
330
1F
100
AcDbEntity
  8
仕上
  6
Continuous
 62
     3
370
     9
100
AcDbLine
 10
18.49981359533362
 20
-351.5333287944791
 30
0.0
 11
16.25174857474656
 21
-364.3592853968333
 31
0.0
  0
LINE
  5
38D
330
1F
100
AcDbEntity
  8
仕上
  6
Continuous
 62
     3
370
     9
100
AcDbLine
 10
7.999605745882548
 20
-351.5147955517637
 30
0.0
 11
6.792346851245696
 21
-358.7844600068682
 31
0.0
  0
LINE
  5
38E
330
1F
100
AcDbEntity
  8
仕上
  6
Continuous
 62
     3
370
     9
100
AcDbLine
 10
-18.50067963471292
 20
-351.533415398417
 30
0.0
 11
-16.25261461412586
 21
-364.3591554909264
 31
0.0
  0
LINE
  5
38F
330
1F
100
AcDbEntity
  8
仕上
  6
Continuous
 62
     3
370
     9
100
AcDbLine
 10
-8.000471785261851
 20
-351.5147955517637
 30
0.0
 11
-6.793212890625
 21
-358.7844600068682
 31
0.0
  0
LINE
  5
390
330
1F
100
AcDbEntity
  8
仕上
  6
Continuous
 62
     3
370
     9
100
AcDbLine
 10
130.3299197635136
 20
-373.5109400269273
 30
0.0
 11
11.32381129909203
 21
-373.5109400269273
 31
0.0
  0
LINE
  5
391
330
1F
100
AcDbEntity
  8
仕上
  6
Continuous
 62
     3
370
     9
100
AcDbLine
 10
-11.32485054634719
 20
-373.5109400269273
 30
0.0
 11
-130.3299197635136
 21
-373.5109400269273
 31
0.0
  0
LINE
  5
392
330
1F
100
AcDbEntity
  8
躯体
  6
Continuous
 62
     2
370
     9
100
AcDbLine
 10
8.999534813133408
 20
-408.4266599613393
 30
0.0
 11
320.0001649598817
 21
-408.4266599613393
 31
0.0
  0
LINE
  5
393
330
1F
100
AcDbEntity
  8
躯体
  6
Continuous
 62
     2
370
     9
100
AcDbLine
 10
-319.9999917520059
 20
-408.4266599613393
 30
0.0
 11
-9.000574060388573
 21
-408.4266599613393
 31
0.0
  0
LINE
  5
394
330
1F
100
AcDbEntity
  8
躯体
  6
Continuous
 62
     2
370
     9
100
AcDbLine
 10
-4.000582308382548
 20
-408.4266599613393
 30
0.0
 11
3.999543061127582
 21
-408.4266599613393
 31
0.0
  0
LINE
  5
395
330
1F
100
AcDbEntity
  8
その他
  6
Continuous
 62
     7
370
     9
100
AcDbLine
 10
47.93224850216433
 20
-351.6625418698591
 30
0.0
 11
45.64806963946359
 21
-369.012818095181
 31
0.0
  0
LINE
  5
396
330
1F
100
AcDbEntity
  8
その他
  6
Continuous
 62
     7
370
     9
100
AcDbLine
 10
47.93224850216433
 20
-351.6625418698591
 30
0.0
 11
50.21642736486487
 21
-369.012818095181
 31
0.0
  0
LINE
  5
397
330
1F
100
AcDbEntity
  8
その他
  6
Continuous
 62
     7
370
     9
100
AcDbLine
 10
47.93224850216433
 20
-340.6629324123791
 30
0.0
 11
45.64806963946359
 21
-323.3126561870572
 31
0.0
  0
LINE
  5
398
330
1F
100
AcDbEntity
  8
その他
  6
Continuous
 62
     7
370
     9
100
AcDbLine
 10
47.93224850216433
 20
-340.6629324123791
 30
0.0
 11
50.21642736486487
 21
-323.3126561870572
 31
0.0
  0
LINE
  5
399
330
1F
100
AcDbEntity
  8
その他
  6
Continuous
 62
     7
370
     9
100
AcDbLine
 10
47.93224850216433
 20
-345.6625344466644
 30
0.0
 11
47.93224850216433
 21
-386.1125924300628
 31
0.0
  0
LINE
  5
39A
330
1F
100
AcDbEntity
  8
その他
  6
Continuous
 62
     7
370
     9
100
AcDbLine
 10
47.93224850216433
 20
-302.3597427481055
 30
0.0
 11
47.93224850216433
 21
-345.6625344466644
 31
0.0
  0
LINE
  5
39B
330
1F
100
AcDbEntity
  8
建具
  6
Continuous
 62
     4
370
     9
100
AcDbLine
 10
-261.0515491382497
 20
-389.9271061778194
 30
0.0
 11
-260.9995001715583
 21
-389.8750572111281
 31
0.0
  0
LINE
  5
39C
330
1F
100
AcDbEntity
  8
建具
  6
Continuous
 62
     4
370
     9
100
AcDbLine
 10
-262.0415187526394
 20
-389.9271061778194
 30
0.0
 11
-260.9995001715583
 21
-388.8850875967383
 31
0.0
  0
LINE
  5
39D
330
1F
100
AcDbEntity
  8
建具
  6
Continuous
 62
     4
370
     9
100
AcDbLine
 10
-263.0120890849346
 20
-389.9077068957249
 30
0.0
 11
-260.9995001715583
 21
-387.8951179823486
 31
0.0
  0
LINE
  5
39E
330
1F
100
AcDbEntity
  8
建具
  6
Continuous
 62
     4
370
     9
100
AcDbLine
 10
-263.869901090055
 20
-389.7755925884244
 30
0.0
 11
-260.9995001715583
 21
-386.9052349718967
 31
0.0
  0
LINE
  5
39F
330
1F
100
AcDbEntity
  8
建具
  6
Continuous
 62
     4
370
     9
100
AcDbLine
 10
-264.6314095162057
 20
-389.5470880982164
 30
0.0
 11
-260.9995001715583
 21
-385.9152220555379
 31
0.0
  0
LINE
  5
3A0
330
1F
100
AcDbEntity
  8
建具
  6
Continuous
 62
     4
370
     9
100
AcDbLine
 10
-265.315494021854
 20
-389.2412895934127
 30
0.0
 11
-263.8795141271643
 21
-387.8053096987231
 31
0.0
  0
LINE
  5
3A1
330
1F
100
AcDbEntity
  8
建具
  6
Continuous
 62
     4
370
     9
100
AcDbLine
 10
-263.3574655893688
 20
-387.2832611609276
 30
0.0
 11
-260.9995001715583
 21
-384.9252957431171
 31
0.0
  0
LINE
  5
3A2
330
1F
100
AcDbEntity
  8
建具
  6
Continuous
 62
     4
370
     9
100
AcDbLine
 10
-265.932893495302
 20
-388.86876275444
 30
0.0
 11
-264.1107466414169
 21
-387.0465292966169
 31
0.0
  0
LINE
  5
3A3
330
1F
100
AcDbEntity
  8
建具
  6
Continuous
 62
     4
370
     9
100
AcDbLine
 10
-263.4794905379013
 20
-386.4152731931013
 30
0.0
 11
-260.9995001715583
 21
-383.9353261287274
 31
0.0
  0
LINE
  5
3A4
330
1F
100
AcDbEntity
  8
建具
  6
Continuous
 62
     4
370
     9
100
AcDbLine
 10
-266.4893237964528
 20
-388.435223441201
 30
0.0
 11
-264.2326849860114
 21
-386.1785846307596
 31
0.0
  0
LINE
  5
3A5
330
1F
100
AcDbEntity
  8
建具
  6
Continuous
 62
     4
370
     9
100
AcDbLine
 10
-263.6014288824958
 20
-385.547328527244
 30
0.0
 11
-260.9995001715583
 21
-382.9453565143376
 31
0.0
  0
LINE
  5
3A6
330
1F
100
AcDbEntity
  8
建具
  6
Continuous
 62
     4
370
     9
100
AcDbLine
 10
-266.9874696473818
 20
-387.9433996777402
 30
0.0
 11
-264.354709934544
 21
-385.3106399649024
 31
0.0
  0
LINE
  5
3A7
330
1F
100
AcDbEntity
  8
建具
  6
Continuous
 62
     4
370
     9
100
AcDbLine
 10
-263.7234538310283
 20
-384.6793838613868
 30
0.0
 11
-260.9995001715583
 21
-381.9554735038857
 31
0.0
  0
LINE
  5
3A8
330
1F
100
AcDbEntity
  8
建具
  6
Continuous
 62
     4
370
     9
100
AcDbLine
 10
-267.427417652027
 20
-387.3933780679957
 30
0.0
 11
-264.4766482791385
 21
-384.4426519970762
 31
0.0
  0
LINE
  5
3A9
330
1F
100
AcDbEntity
  8
建具
  6
Continuous
 62
     4
370
     9
100
AcDbLine
 10
-263.8453921756229
 20
-383.8113958935605
 30
0.0
 11
-260.9995001715583
 21
-380.9655038894959
 31
0.0
  0
LINE
  5
3AA
330
1F
100
AcDbEntity
  8
建具
  6
Continuous
 62
     4
370
     9
100
AcDbLine
 10
-267.8067429001267
 20
-386.7828203056436
 30
0.0
 11
-264.5986732276711
 21
-383.5747073312189
 31
0.0
  0
LINE
  5
3AB
330
1F
100
AcDbEntity
  8
建具
  6
Continuous
 62
     4
370
     9
100
AcDbLine
 10
-263.9674171241555
 20
-382.9434512277033
 30
0.0
 11
-260.9995001715583
 21
-379.9755342751061
 31
0.0
  0
LINE
  5
3AC
330
1F
100
AcDbEntity
  8
建具
  6
Continuous
 62
     4
370
     9
100
AcDbLine
 10
-268.1202491554055
 20
-386.1063569465325
 30
0.0
 11
-264.7206115722657
 21
-382.7067626653616
 31
0.0
  0
LINE
  5
3AD
330
1F
100
AcDbEntity
  8
建具
  6
Continuous
 62
     4
370
     9
100
AcDbLine
 10
-264.0893554687501
 20
-382.075506561846
 30
0.0
 11
-260.9995001715583
 21
-378.9856512646543
 31
0.0
  0
LINE
  5
3AE
330
1F
100
AcDbEntity
  8
建具
  6
Continuous
 62
     4
370
     9
100
AcDbLine
 10
-268.2616733860326
 20
-385.2578115627697
 30
0.0
 11
-264.8426365207982
 21
-381.8388179995044
 31
0.0
  0
LINE
  5
3AF
330
1F
100
AcDbEntity
  8
建具
  6
Continuous
 62
     4
370
     9
100
AcDbLine
 10
-264.2113804172826
 20
-381.2075618959888
 30
0.0
 11
-260.9995001715583
 21
-377.9956816502645
 31
0.0
  0
LINE
  5
3B0
330
1F
100
AcDbEntity
  8
建具
  6
Continuous
 62
     4
370
     9
100
AcDbLine
 10
-268.3836117306271
 20
-384.3898235949436
 30
0.0
 11
-264.9645748653928
 21
-380.9708300316781
 31
0.0
  0
LINE
  5
3B1
330
1F
100
AcDbEntity
  8
建具
  6
Continuous
 62
     4
370
     9
100
AcDbLine
 10
-264.3334053658151
 20
-380.3395739281625
 30
0.0
 11
-260.9995001715583
 21
-377.0057120358748
 31
0.0
  0
LINE
  5
3B2
330
1F
100
AcDbEntity
  8
建具
  6
Continuous
 62
     4
370
     9
100
AcDbLine
 10
-268.5055500752218
 20
-383.5218789290863
 30
0.0
 11
-265.0865998139253
 21
-380.102885365821
 31
0.0
  0
LINE
  5
3B3
330
1F
100
AcDbEntity
  8
建具
  6
Continuous
 62
     4
370
     9
100
AcDbLine
 10
-264.4553437104097
 20
-379.4716725642742
 30
0.0
 11
-260.9995001715583
 21
-376.0157857234539
 31
0.0
  0
LINE
  5
3B4
330
1F
100
AcDbEntity
  8
建具
  6
Continuous
 62
     4
370
     9
100
AcDbLine
 10
-268.6275750237543
 20
-382.6538909612601
 30
0.0
 11
-265.2085381585199
 21
-379.2348973979947
 31
0.0
  0
LINE
  5
3B5
330
1F
100
AcDbEntity
  8
建具
  6
Continuous
 62
     4
370
     9
100
AcDbLine
 10
-264.5773686589422
 20
-378.6036412944791
 30
0.0
 11
-260.9995001715583
 21
-375.0257728070951
 31
0.0
  0
LINE
  5
3B6
330
1F
100
AcDbEntity
  8
建具
  6
Continuous
 62
     4
370
     9
100
AcDbLine
 10
-268.7495133683489
 20
-381.7859462954028
 30
0.0
 11
-265.3305631070525
 21
-378.3669527321373
 31
0.0
  0
LINE
  5
3B7
330
1F
100
AcDbEntity
  8
建具
  6
Continuous
 62
     4
370
     9
100
AcDbLine
 10
-264.6993070035368
 20
-377.7357399305907
 30
0.0
 11
-260.9995001715583
 21
-374.0358897966433
 31
0.0
  0
LINE
  5
3B8
330
1F
100
AcDbEntity
  8
建具
  6
Continuous
 62
     4
370
     9
100
AcDbLine
 10
-268.8715383168814
 20
-380.9179583275766
 30
0.0
 11
-265.4525880555849
 21
-377.4989647643112
 31
0.0
  0
LINE
  5
3B9
330
1F
100
AcDbEntity
  8
建具
  6
Continuous
 62
     4
370
     9
100
AcDbLine
 10
-264.8213319520693
 20
-376.8677519627645
 30
0.0
 11
-260.9995001715583
 21
-373.0459201822536
 31
0.0
  0
LINE
  5
3BA
330
1F
100
AcDbEntity
  8
建具
  6
Continuous
 62
     4
370
     9
100
AcDbLine
 10
-268.9934766614759
 20
-380.0499703597503
 30
0.0
 11
-265.5745264001795
 21
-376.6310200984539
 31
0.0
  0
LINE
  5
3BB
330
1F
100
AcDbEntity
  8
建具
  6
Continuous
 62
     4
370
     9
100
AcDbLine
 10
-264.9432702966639
 20
-375.9997639949383
 30
0.0
 11
-260.9995001715583
 21
-372.0559938698327
 31
0.0
  0
LINE
  5
3BC
330
1F
100
AcDbEntity
  8
建具
  6
Continuous
 62
     4
370
     9
100
AcDbLine
 10
-269.1155016100085
 20
-379.1820256938931
 30
0.0
 11
-265.6965513487121
 21
-375.7630754325967
 31
0.0
  0
LINE
  5
3BD
330
1F
100
AcDbEntity
  8
建具
  6
Continuous
 62
     4
370
     9
100
AcDbLine
 10
-265.0652952451965
 20
-375.13186263105
 30
0.0
 11
-260.9995001715583
 21
-371.0660242554429
 31
0.0
  0
LINE
  5
3BE
330
1F
100
AcDbEntity
  8
建具
  6
Continuous
 62
     4
370
     9
100
AcDbLine
 10
-269.2374399546031
 20
-378.3140810280358
 30
0.0
 11
-265.8184896933067
 21
-374.8950874647704
 31
0.0
  0
LINE
  5
3BF
330
1F
100
AcDbEntity
  8
建具
  6
Continuous
 62
     4
370
     9
100
AcDbLine
 10
-265.187320193729
 20
-374.2638746632238
 30
0.0
 11
-260.9995001715583
 21
-370.0760979430221
 31
0.0
  0
LINE
  5
3C0
330
1F
100
AcDbEntity
  8
建具
  6
Continuous
 62
     4
370
     9
100
AcDbLine
 10
-269.3594649031356
 20
-377.4460930602096
 30
0.0
 11
-265.9405146418391
 21
-374.0270994969442
 31
0.0
  0
LINE
  5
3C1
330
1F
100
AcDbEntity
  8
建具
  6
Continuous
 62
     4
370
     9
100
AcDbLine
 10
-265.3092585383235
 20
-373.3958866953975
 30
0.0
 11
-260.9995001715583
 21
-369.0861283286323
 31
0.0
  0
LINE
  5
3C2
330
1F
100
AcDbEntity
  8
建具
  6
Continuous
 62
     4
370
     9
100
AcDbLine
 10
-269.4814032477302
 20
-376.5781483943524
 30
0.0
 11
-266.0624529864338
 21
-373.1591981330559
 31
0.0
  0
LINE
  5
3C3
330
1F
100
AcDbEntity
  8
建具
  6
Continuous
 62
     4
370
     9
100
AcDbLine
 10
-265.431283486856
 20
-372.5279853315092
 30
0.0
 11
-260.9995001715583
 21
-368.0962020162116
 31
0.0
  0
LINE
  5
3C4
330
1F
100
AcDbEntity
  8
建具
  6
Continuous
 62
     4
370
     9
100
AcDbLine
 10
-269.6034281962627
 20
-375.7101171245572
 30
0.0
 11
-266.1844779349663
 21
-372.2911668632607
 31
0.0
  0
LINE
  5
3C5
330
1F
100
AcDbEntity
  8
建具
  6
Continuous
 62
     4
370
     9
100
AcDbLine
 10
-265.5532218314506
 20
-371.659997363683
 30
0.0
 11
-260.9995001715583
 21
-367.1062324018217
 31
0.0
  0
LINE
  5
3C6
330
1F
100
AcDbEntity
  8
建具
  6
Continuous
 62
     4
370
     9
100
AcDbLine
 10
-269.7253665408573
 20
-374.8421724586998
 30
0.0
 11
-266.3064162795609
 21
-371.4232221974034
 31
0.0
  0
LINE
  5
3C7
330
1F
100
AcDbEntity
  8
建具
  6
Continuous
 62
     4
370
     9
100
AcDbLine
 10
-265.6752467799832
 20
-370.7920526978257
 30
0.0
 11
-260.9995001715583
 21
-366.116306089401
 31
0.0
  0
LINE
  5
3C8
330
1F
100
AcDbEntity
  8
建具
  6
Continuous
 62
     4
370
     9
100
AcDbLine
 10
-269.8473914893898
 20
-373.9742710948116
 30
0.0
 11
-266.4284412280934
 21
-370.5553208335151
 31
0.0
  0
LINE
  5
3C9
330
1F
100
AcDbEntity
  8
建具
  6
Continuous
 62
     4
370
     9
100
AcDbLine
 10
-265.7971851245778
 20
-369.9241080319685
 30
0.0
 11
-260.9995001715583
 21
-365.1264230789491
 31
0.0
  0
LINE
  5
3CA
330
1F
100
AcDbEntity
  8
建具
  6
Continuous
 62
     4
370
     9
100
AcDbLine
 10
-269.9693298339845
 20
-373.1062398250164
 30
0.0
 11
-266.5503795726879
 21
-369.68728956372
 31
0.0
  0
LINE
  5
3CB
330
1F
100
AcDbEntity
  8
建具
  6
Continuous
 62
     4
370
     9
100
AcDbLine
 10
-265.9192100731102
 20
-369.0561200641422
 30
0.0
 11
-261.7903673326647
 21
-364.9272340217278
 31
0.0
  0
LINE
  5
3CC
330
1F
100
AcDbEntity
  8
建具
  6
Continuous
 62
     4
370
     9
100
AcDbLine
 10
-270.0913547825169
 20
-372.2382951591592
 30
0.0
 11
-266.6724045212205
 21
-368.8193881998317
 31
0.0
  0
LINE
  5
3CD
330
1F
100
AcDbEntity
  8
建具
  6
Continuous
 62
     4
370
     9
100
AcDbLine
 10
-266.0412350216428
 20
-368.188175398285
 30
0.0
 11
-262.7802503431166
 21
-364.9272340217278
 31
0.0
  0
LINE
  5
3CE
330
1F
100
AcDbEntity
  8
建具
  6
Continuous
 62
     4
370
     9
100
AcDbLine
 10
-270.2132931271115
 20
-371.3703071913329
 30
0.0
 11
-266.7943428658151
 21
-367.9514002320054
 31
0.0
  0
LINE
  5
3CF
330
1F
100
AcDbEntity
  8
建具
  6
Continuous
 62
     4
370
     9
100
AcDbLine
 10
-266.1631733662374
 20
-367.3202307324277
 30
0.0
 11
-263.7702199575064
 21
-364.9272340217278
 31
0.0
  0
LINE
  5
3D0
330
1F
100
AcDbEntity
  8
建具
  6
Continuous
 62
     4
370
     9
100
AcDbLine
 10
-270.3352314717062
 20
-370.5023625254756
 30
0.0
 11
-264.7748256374051
 21
-364.9418700872366
 31
0.0
  0
LINE
  5
3D1
330
1F
100
AcDbEntity
  8
建具
  6
Continuous
 62
     4
370
     9
100
AcDbLine
 10
-270.1356959987332
 20
-369.312814136144
 30
0.0
 11
-265.9714322476775
 21
-365.1485936870572
 31
0.0
  0
LINE
  5
3D2
330
1F
100
AcDbEntity
  8
建具
  6
Continuous
 62
     4
370
     9
100
AcDbLine
 10
-269.2048768739443
 20
-367.3920686989342
 30
0.0
 11
-267.892220986856
 21
-366.0793695098771
 31
0.0
  0
LINE
  5
3D3
330
1F
100
AcDbEntity
  8
建具
  6
Continuous
 62
     4
370
     9
100
AcDbLine
 10
265.277561497044
 20
-389.261035291259
 30
0.0
 11
267.8639014991554
 21
-386.6746952891475
 31
0.0
  0
LINE
  5
3D4
330
1F
100
AcDbEntity
  8
建具
  6
Continuous
 62
     4
370
     9
100
AcDbLine
 10
263.746057458826
 20
-389.8025697150871
 30
0.0
 11
268.2569101694468
 21
-385.2917603064354
 31
0.0
  0
LINE
  5
3D5
330
1F
100
AcDbEntity
  8
建具
  6
Continuous
 62
     4
370
     9
100
AcDbLine
 10
262.6324174210831
 20
-389.9262401384402
 30
0.0
 11
268.4187729294236
 21
-384.1398413281308
 31
0.0
  0
LINE
  5
3D6
330
1F
100
AcDbEntity
  8
建具
  6
Continuous
 62
     4
370
     9
100
AcDbLine
 10
261.6415817673142
 20
-389.9271061778194
 30
0.0
 11
263.6513993546769
 21
-387.9172452884877
 31
0.0
  0
LINE
  5
3D7
330
1F
100
AcDbEntity
  8
建具
  6
Continuous
 62
     4
370
     9
100
AcDbLine
 10
264.042502738334
 20
-387.5261419048306
 30
0.0
 11
268.5807222933382
 21
-382.9879656517953
 31
0.0
  0
LINE
  5
3D8
330
1F
100
AcDbEntity
  8
建具
  6
Continuous
 62
     4
370
     9
100
AcDbLine
 10
260.9996733794341
 20
-389.5790016493407
 30
0.0
 11
263.3675982501056
 21
-387.2110767786693
 31
0.0
  0
LINE
  5
3D9
330
1F
100
AcDbEntity
  8
建具
  6
Continuous
 62
     4
370
     9
100
AcDbLine
 10
264.2055779534416
 20
-386.3731403773021
 30
0.0
 11
268.7425850533151
 21
-381.8360899754598
 31
0.0
  0
LINE
  5
3DA
330
1F
100
AcDbEntity
  8
建具
  6
Continuous
 62
     4
370
     9
100
AcDbLine
 10
260.9996733794341
 20
-388.589032034951
 30
0.0
 11
263.5294610100822
 21
-386.0592011023338
 31
0.0
  0
LINE
  5
3DB
330
1F
100
AcDbEntity
  8
建具
  6
Continuous
 62
     4
370
     9
100
AcDbLine
 10
264.3674407134184
 20
-385.2213080029355
 30
0.0
 11
268.9045344172297
 21
-380.6842142991243
 31
0.0
  0
LINE
  5
3DC
330
1F
100
AcDbEntity
  8
建具
  6
Continuous
 62
     4
370
     9
100
AcDbLine
 10
260.9996733794341
 20
-387.5990624205612
 30
0.0
 11
263.6914103739971
 21
-384.9073687279672
 31
0.0
  0
LINE
  5
3DD
330
1F
100
AcDbEntity
  8
建具
  6
Continuous
 62
     4
370
     9
100
AcDbLine
 10
264.5293034733953
 20
-384.0694323266
 30
0.0
 11
269.0663971772066
 21
-379.5323386227888
 31
0.0
  0
LINE
  5
3DE
330
1F
100
AcDbEntity
  8
建具
  6
Continuous
 62
     4
370
     9
100
AcDbLine
 10
260.9996733794341
 20
-386.6090928061714
 30
0.0
 11
263.8532731339737
 21
-383.7554497496627
 31
0.0
  0
LINE
  5
3DF
330
1F
100
AcDbEntity
  8
建具
  6
Continuous
 62
     4
370
     9
100
AcDbLine
 10
264.6911662333721
 20
-382.9175566502645
 30
0.0
 11
269.2283465411213
 21
-378.3804196444843
 31
0.0
  0
LINE
  5
3E0
330
1F
100
AcDbEntity
  8
建具
  6
Continuous
 62
     4
370
     9
100
AcDbLine
 10
260.9996733794341
 20
-385.6190798898127
 30
0.0
 11
264.0151358939505
 21
-382.6036173752962
 31
0.0
  0
LINE
  5
3E1
330
1F
100
AcDbEntity
  8
建具
  6
Continuous
 62
     4
370
     9
100
AcDbLine
 10
264.8530289933487
 20
-381.7657242758979
 30
0.0
 11
269.3902093010979
 21
-377.2285439681488
 31
0.0
  0
LINE
  5
3E2
330
1F
100
AcDbEntity
  8
建具
  6
Continuous
 62
     4
370
     9
100
AcDbLine
 10
260.9996733794341
 20
-384.6290669734539
 30
0.0
 11
264.1770852578652
 21
-381.4516983969917
 31
0.0
  0
LINE
  5
3E3
330
1F
100
AcDbEntity
  8
建具
  6
Continuous
 62
     4
370
     9
100
AcDbLine
 10
265.0149783572635
 20
-380.6138052975935
 30
0.0
 11
269.5521586650127
 21
-376.0766249898444
 31
0.0
  0
LINE
  5
3E4
330
1F
100
AcDbEntity
  8
建具
  6
Continuous
 62
     4
370
     9
100
AcDbLine
 10
260.9996733794341
 20
-383.639140661033
 30
0.0
 11
264.338948017842
 21
-380.2998660226252
 31
0.0
  0
LINE
  5
3E5
330
1F
100
AcDbEntity
  8
建具
  6
Continuous
 62
     4
370
     9
100
AcDbLine
 10
265.1768411172402
 20
-379.462016225196
 30
0.0
 11
269.7140214249894
 21
-374.9248359174467
 31
0.0
  0
LINE
  5
3E6
330
1F
100
AcDbEntity
  8
建具
  6
Continuous
 62
     4
370
     9
100
AcDbLine
 10
260.9996733794341
 20
-382.6491710466433
 30
0.0
 11
264.5008107778189
 21
-379.1479903462897
 31
0.0
  0
LINE
  5
3E7
330
1F
100
AcDbEntity
  8
建具
  6
Continuous
 62
     4
370
     9
100
AcDbLine
 10
265.338703877217
 20
-378.3100972468914
 30
0.0
 11
269.8758841849661
 21
-373.7729169391422
 31
0.0
  0
LINE
  5
3E8
330
1F
100
AcDbEntity
  8
建具
  6
Continuous
 62
     4
370
     9
100
AcDbLine
 10
260.9996733794341
 20
-381.6592014322536
 30
0.0
 11
264.6627601417335
 21
-377.9961579719231
 31
0.0
  0
LINE
  5
3E9
330
1F
100
AcDbEntity
  8
建具
  6
Continuous
 62
     4
370
     9
100
AcDbLine
 10
265.5005666371939
 20
-377.1583081744938
 30
0.0
 11
270.0378335488808
 21
-372.6210845647757
 31
0.0
  0
LINE
  5
3EA
330
1F
100
AcDbEntity
  8
建具
  6
Continuous
 62
     4
370
     9
100
AcDbLine
 10
260.9996733794341
 20
-380.6691885158947
 30
0.0
 11
264.8246229017103
 21
-376.8442389936185
 31
0.0
  0
LINE
  5
3EB
330
1F
100
AcDbEntity
  8
建具
  6
Continuous
 62
     4
370
     9
100
AcDbLine
 10
265.6625160011085
 20
-376.0063891961893
 30
0.0
 11
270.1996963088577
 21
-371.4691222845022
 31
0.0
  0
LINE
  5
3EC
330
1F
100
AcDbEntity
  8
建具
  6
Continuous
 62
     4
370
     9
100
AcDbLine
 10
260.9996733794341
 20
-379.679218901505
 30
0.0
 11
264.986485661687
 21
-375.692363317283
 31
0.0
  0
LINE
  5
3ED
330
1F
100
AcDbEntity
  8
建具
  6
Continuous
 62
     4
370
     9
100
AcDbLine
 10
265.8243787610853
 20
-374.8545135198538
 30
0.0
 11
270.3292557999894
 21
-370.3496364809497
 31
0.0
  0
LINE
  5
3EE
330
1F
100
AcDbEntity
  8
建具
  6
Continuous
 62
     4
370
     9
100
AcDbLine
 10
260.9996733794341
 20
-378.6892492871152
 30
0.0
 11
265.1484350256018
 21
-374.5405309429166
 31
0.0
  0
LINE
  5
3EF
330
1F
100
AcDbEntity
  8
建具
  6
Continuous
 62
     4
370
     9
100
AcDbLine
 10
265.986241521062
 20
-373.7026811454873
 30
0.0
 11
270.1856664709143
 21
-369.5032128936662
 31
0.0
  0
LINE
  5
3F0
330
1F
100
AcDbEntity
  8
建具
  6
Continuous
 62
     4
370
     9
100
AcDbLine
 10
260.9996733794341
 20
-377.6992796727254
 30
0.0
 11
265.3102977855784
 21
-373.3886552665811
 31
0.0
  0
LINE
  5
3F1
330
1F
100
AcDbEntity
  8
建具
  6
Continuous
 62
     4
370
     9
100
AcDbLine
 10
266.1481042810388
 20
-372.5508054691518
 30
0.0
 11
269.9483716810072
 21
-368.7505813711524
 31
0.0
  0
LINE
  5
3F2
330
1F
100
AcDbEntity
  8
建具
  6
Continuous
 62
     4
370
     9
100
AcDbLine
 10
260.9996733794341
 20
-376.7093100583357
 30
0.0
 11
265.4721605455553
 21
-372.2367795902455
 31
0.0
  0
LINE
  5
3F3
330
1F
100
AcDbEntity
  8
建具
  6
Continuous
 62
     4
370
     9
100
AcDbLine
 10
266.3100536449534
 20
-371.3989730947852
 30
0.0
 11
269.6352118414801
 21
-368.0738148982586
 31
0.0
  0
LINE
  5
3F4
330
1F
100
AcDbEntity
  8
建具
  6
Continuous
 62
     4
370
     9
100
AcDbLine
 10
260.9996733794341
 20
-375.719340443946
 30
0.0
 11
265.6341099094699
 21
-371.084947215879
 31
0.0
  0
LINE
  5
3F5
330
1F
100
AcDbEntity
  8
建具
  6
Continuous
 62
     4
370
     9
100
AcDbLine
 10
266.4719164049303
 20
-370.2470974184497
 30
0.0
 11
269.2559731973183
 21
-367.4629973240926
 31
0.0
  0
LINE
  5
3F6
330
1F
100
AcDbEntity
  8
建具
  6
Continuous
 62
     4
370
     9
100
AcDbLine
 10
260.9996733794341
 20
-374.729370829556
 30
0.0
 11
265.7959726694468
 21
-369.9330715395434
 31
0.0
  0
LINE
  5
3F7
330
1F
100
AcDbEntity
  8
建具
  6
Continuous
 62
     4
370
     9
100
AcDbLine
 10
266.6337791649071
 20
-369.0952217421142
 30
0.0
 11
268.816285004487
 21
-366.9127592045033
 31
0.0
  0
LINE
  5
3F8
330
1F
100
AcDbEntity
  8
建具
  6
Continuous
 62
     4
370
     9
100
AcDbLine
 10
260.9996733794341
 20
-373.7393579131974
 30
0.0
 11
265.9578354294236
 21
-368.7811525612389
 31
0.0
  0
LINE
  5
3F9
330
1F
100
AcDbEntity
  8
建具
  6
Continuous
 62
     4
370
     9
100
AcDbLine
 10
266.795641924884
 20
-367.9433460657787
 30
0.0
 11
268.3183123614338
 21
-366.4207189311978
 31
0.0
  0
LINE
  5
3FA
330
1F
100
AcDbEntity
  8
建具
  6
Continuous
 62
     4
370
     9
100
AcDbLine
 10
260.9996733794341
 20
-372.7493882988076
 30
0.0
 11
266.1197847933382
 21
-367.6293634888414
 31
0.0
  0
LINE
  5
3FB
330
1F
100
AcDbEntity
  8
建具
  6
Continuous
 62
     4
370
     9
100
AcDbLine
 10
266.6954411687078
 20
-367.0536638115029
 30
0.0
 11
267.7620552681589
 21
-365.9870064100829
 31
0.0
  0
LINE
  5
3FC
330
1F
100
AcDbEntity
  8
建具
  6
Continuous
 62
     4
370
     9
100
AcDbLine
 10
260.9996733794341
 20
-371.7593753824489
 30
0.0
 11
267.1448290025866
 21
-365.6142197592964
 31
0.0
  0
LINE
  5
3FD
330
1F
100
AcDbEntity
  8
建具
  6
Continuous
 62
     4
370
     9
100
AcDbLine
 10
260.9996733794341
 20
-370.769449070028
 30
0.0
 11
266.4609177048142
 21
-365.3082047446479
 31
0.0
  0
LINE
  5
3FE
330
1F
100
AcDbEntity
  8
建具
  6
Continuous
 62
     4
370
     9
100
AcDbLine
 10
260.9996733794341
 20
-369.7794361536693
 30
0.0
 11
265.6996690904772
 21
-365.0793971406573
 31
0.0
  0
LINE
  5
3FF
330
1F
100
AcDbEntity
  8
建具
  6
Continuous
 62
     4
370
     9
100
AcDbLine
 10
260.9996733794341
 20
-368.7895098412484
 30
0.0
 11
264.8422901050463
 21
-364.9469364176051
 31
0.0
  0
LINE
  5
400
330
1F
100
AcDbEntity
  8
建具
  6
Continuous
 62
     4
370
     9
100
AcDbLine
 10
260.9996733794341
 20
-367.7994969248897
 30
0.0
 11
263.8718929806271
 21
-364.9272340217278
 31
0.0
  0
LINE
  5
401
330
1F
100
AcDbEntity
  8
建具
  6
Continuous
 62
     4
370
     9
100
AcDbLine
 10
260.9996733794341
 20
-366.8095273104999
 30
0.0
 11
262.8819233662373
 21
-364.9272340217278
 31
0.0
  0
LINE
  5
402
330
1F
100
AcDbEntity
  8
建具
  6
Continuous
 62
     4
370
     9
100
AcDbLine
 10
260.9996733794341
 20
-365.8195576961102
 30
0.0
 11
261.8920403557854
 21
-364.9272340217278
 31
0.0
  0
LINE
  5
403
330
1F
100
AcDbEntity
  8
仕上
  6
Continuous
 62
     3
370
     9
100
AcDbLine
 10
-71.99991587046034
 20
341.731021065635
 30
0.0
 11
-71.99991587046034
 21
323.7309121921131
 31
0.0
  0
LINE
  5
404
330
1F
100
AcDbEntity
  8
仕上
  6
Continuous
 62
     3
370
     9
100
AcDbLine
 10
72.0000890783362
 20
341.731021065635
 30
0.0
 11
72.0000890783362
 21
323.7309121921131
 31
0.0
  0
ARC
  5
405
330
1F
100
AcDbEntity
  8
躯体
  6
Continuous
 62
     2
370
     9
100
AcDbCircle
 10
318.1326376425252
 20
-402.4266092361756
 30
0.0
 40
1.000000024969514
100
AcDbArc
 50
8.130706787109382
 51
90.00000000000001
  0
ARC
  5
406
330
1F
100
AcDbEntity
  8
躯体
  6
Continuous
 62
     2
370
     9
100
AcDbCircle
 10
291.1915382179054
 20
-402.4266092361756
 30
0.0
 40
1.000000024969514
100
AcDbArc
 50
12.09832763671875
 51
90.00000000000001
  0
ARC
  5
407
330
1F
100
AcDbEntity
  8
躯体
  6
Continuous
 62
     2
370
     9
100
AcDbCircle
 10
310.8083694045608
 20
-402.4266092361756
 30
0.0
 40
1.000000024969514
100
AcDbArc
 50
90.0
 51
167.9072265625
  0
ARC
  5
408
330
1F
100
AcDbEntity
  8
躯体
  6
JWW_DASHED1
 62
     2
370
     9
100
AcDbCircle
 10
309.4142192118877
 20
-402.4266092361756
 30
0.0
 40
1.000000024969514
100
AcDbArc
 50
90.0
 51
135.0
  0
ARC
  5
409
330
1F
100
AcDbEntity
  8
躯体
  6
JWW_DASHED1
 62
     2
370
     9
100
AcDbCircle
 10
306.5859078072214
 20
-402.4266092361756
 30
0.0
 40
1.000000024969514
100
AcDbArc
 50
270.0
 51
315.0
  0
ARC
  5
40A
330
1F
100
AcDbEntity
  8
躯体
  6
JWW_DASHED1
 62
     2
370
     9
100
AcDbCircle
 10
294.4142439558698
 20
-402.4266092361756
 30
0.0
 40
1.000000024969514
100
AcDbArc
 50
225.0000000000001
 51
270.0000000000001
  0
ARC
  5
40B
330
1F
100
AcDbEntity
  8
躯体
  6
JWW_DASHED1
 62
     2
370
     9
100
AcDbCircle
 10
291.5859325512034
 20
-402.4266092361756
 30
0.0
 40
1.000000024969514
100
AcDbArc
 50
45.0
 51
90.0
  0
ARC
  5
40C
330
1F
100
AcDbEntity
  8
躯体
  6
Continuous
 62
     2
370
     9
100
AcDbCircle
 10
0.0
 20
282.7308759009392
 30
0.0
 40
318.9998894768793
100
AcDbArc
 50
359.9999847412109
 51
180.000015258789
  0
ARC
  5
40D
330
1F
100
AcDbEntity
  8
躯体
  6
Continuous
 62
     2
370
     9
100
AcDbCircle
 10
286.7291837125211
 20
-397.4267906920456
 30
0.0
 40
4.000000099878054
100
AcDbArc
 50
184.0132141113281
 51
270.0014190673828
  0
ARC
  5
40E
330
1F
100
AcDbEntity
  8
躯体
  6
Continuous
 62
     2
370
     9
100
AcDbCircle
 10
-318.1326376425254
 20
-402.4266092361756
 30
0.0
 40
1.000000024969514
100
AcDbArc
 50
90.0
 51
171.8692932128906
  0
ARC
  5
40F
330
1F
100
AcDbEntity
  8
躯体
  6
Continuous
 62
     2
370
     9
100
AcDbCircle
 10
-291.1915382179055
 20
-402.4266092361756
 30
0.0
 40
1.000000024969514
100
AcDbArc
 50
90.0
 51
167.9016723632812
  0
ARC
  5
410
330
1F
100
AcDbEntity
  8
躯体
  6
Continuous
 62
     2
370
     9
100
AcDbCircle
 10
-310.8083694045609
 20
-402.4266092361756
 30
0.0
 40
1.000000024969514
100
AcDbArc
 50
12.0927734375
 51
90.00000000000001
  0
ARC
  5
411
330
1F
100
AcDbEntity
  8
躯体
  6
JWW_DASHED1
 62
     2
370
     9
100
AcDbCircle
 10
-309.4142192118877
 20
-402.4266092361756
 30
0.0
 40
1.000000024969514
100
AcDbArc
 50
45.0
 51
90.0
  0
ARC
  5
412
330
1F
100
AcDbEntity
  8
躯体
  6
JWW_DASHED1
 62
     2
370
     9
100
AcDbCircle
 10
-306.5857345993455
 20
-402.4266092361756
 30
0.0
 40
1.000000024969514
100
AcDbArc
 50
225.0000000000001
 51
270.0000000000001
  0
ARC
  5
413
330
1F
100
AcDbEntity
  8
躯体
  6
JWW_DASHED1
 62
     2
370
     9
100
AcDbCircle
 10
-294.41424395587
 20
-402.4266092361756
 30
0.0
 40
1.000000024969514
100
AcDbArc
 50
270.0
 51
315.0
  0
ARC
  5
414
330
1F
100
AcDbEntity
  8
躯体
  6
JWW_DASHED1
 62
     2
370
     9
100
AcDbCircle
 10
-291.5857593433278
 20
-402.4266092361756
 30
0.0
 40
1.000000024969514
100
AcDbArc
 50
90.0
 51
135.0
  0
ARC
  5
415
330
1F
100
AcDbEntity
  8
躯体
  6
Continuous
 62
     2
370
     9
100
AcDbCircle
 10
-286.7290105046454
 20
-397.4267906920456
 30
0.0
 40
4.000000099878054
100
AcDbArc
 50
269.9985809326172
 51
355.9867858886719
  0
ARC
  5
416
330
1F
100
AcDbEntity
  8
仕上
  6
Continuous
 62
     3
370
     9
100
AcDbCircle
 10
0.0
 20
-7840.509266096527
 30
0.0
 40
7494.999934016048
100
AcDbArc
 50
90.0
 51
90.90950012207031
  0
ARC
  5
417
330
1F
100
AcDbEntity
  8
仕上
  6
Continuous
 62
     3
370
     9
100
AcDbCircle
 10
-160.5815413191513
 20
-366.7402008581932
 30
0.0
 40
24.99999935562547
100
AcDbArc
 50
282.7664947509766
 51
1.22946166992188
  0
ARC
  5
418
330
1F
100
AcDbEntity
  8
仕上
  6
Continuous
 62
     3
370
     9
100
AcDbCircle
 10
-160.5815413191513
 20
-366.7402008581932
 30
0.0
 40
24.99999935562547
100
AcDbArc
 50
181.2294158935547
 51
259.6924438476562
  0
ARC
  5
419
330
1F
100
AcDbEntity
  8
仕上
  6
Continuous
 62
     3
370
     9
100
AcDbCircle
 10
-160.5815413191513
 20
-366.7402008581932
 30
0.0
 40
31.00000136607402
100
AcDbArc
 50
181.2293701171875
 51
260.8722839355469
  0
ARC
  5
41A
330
1F
100
AcDbEntity
  8
仕上
  6
Continuous
 62
     3
370
     9
100
AcDbCircle
 10
-160.5815413191513
 20
-366.7402008581932
 30
0.0
 40
31.00000136607402
100
AcDbArc
 50
281.5865783691406
 51
1.229446411132808
  0
ARC
  5
41B
330
1F
100
AcDbEntity
  8
仕上
  6
Continuous
 62
     3
370
     9
100
AcDbCircle
 10
0.0
 20
-7840.509266096527
 30
0.0
 40
7494.999934016048
100
AcDbArc
 50
91.60610961914062
 51
91.8885498046875
  0
ARC
  5
41C
330
1F
100
AcDbEntity
  8
仕上
  6
Continuous
 62
     3
370
     9
100
AcDbCircle
 10
-269.803829708615
 20
-357.9259984722135
 30
0.0
 40
1.499999995167191
100
AcDbArc
 50
7.999755859375007
 51
90.00000000000001
  0
ARC
  5
41D
330
1F
100
AcDbEntity
  8
仕上
  6
Continuous
 62
     3
370
     9
100
AcDbCircle
 10
-246.926360259185
 20
-360.5856054058072
 30
0.0
 40
5.000000209421725
100
AcDbArc
 50
92.96690368652344
 51
176.3230438232422
  0
ARC
  5
41E
330
1F
100
AcDbEntity
  8
仕上
  6
Continuous
 62
     3
370
     9
100
AcDbCircle
 10
-197.7320325696791
 20
-360.1237899068366
 30
0.0
 40
5.999999980668765
100
AcDbArc
 50
1.230010986328136
 51
90.74166870117189
  0
ARC
  5
41F
330
1F
100
AcDbEntity
  8
仕上
  6
Continuous
 62
     3
370
     9
100
AcDbCircle
 10
0.0
 20
-7840.509266096527
 30
0.0
 40
7489.000013196792
100
AcDbArc
 50
91.5135498046875
 51
91.8914794921875
  0
ARC
  5
420
330
1F
100
AcDbEntity
  8
仕上
  6
Continuous
 62
     3
370
     9
100
AcDbCircle
 10
-123.7490597286741
 20
-358.5351272695899
 30
0.0
 40
5.999999980668765
100
AcDbArc
 50
90.94747924804688
 51
181.2288360595703
  0
ARC
  5
421
330
1F
100
AcDbEntity
  8
仕上
  6
Continuous
 62
     3
370
     9
100
AcDbCircle
 10
-248.0783658414274
 20
-378.5109317789332
 30
0.0
 40
5.000000209421725
100
AcDbArc
 50
90.0
 51
176.3230438232422
  0
ARC
  5
422
330
1F
100
AcDbEntity
  8
仕上
  6
Continuous
 62
     3
370
     9
100
AcDbCircle
 10
0.0
 20
-7840.509266096527
 30
0.0
 40
7489.000013196792
100
AcDbArc
 50
90.67115783691406
 51
90.94755554199224
  0
ARC
  5
423
330
1F
100
AcDbEntity
  8
仕上
  6
Continuous
 62
     3
370
     9
100
AcDbCircle
 10
-87.66500936972133
 20
-357.024754592225
 30
0.0
 40
5.000000209421725
100
AcDbArc
 50
4.000015258789064
 51
90.67114257812501
  0
ARC
  5
424
330
1F
100
AcDbEntity
  8
仕上
  6
Continuous
 62
     3
370
     9
100
AcDbCircle
 10
0.0
 20
-7840.509266096527
 30
0.0
 40
7489.000013196792
100
AcDbArc
 50
90.0
 51
90.51539611816406
  0
ARC
  5
425
330
1F
100
AcDbEntity
  8
仕上
  6
Continuous
 62
     3
370
     9
100
AcDbCircle
 10
-67.32018548089115
 20
-356.814133815198
 30
0.0
 40
5.000000209421725
100
AcDbArc
 50
90.51527404785156
 51
175.9999542236329
  0
ARC
  5
426
330
1F
100
AcDbEntity
  8
仕上
  6
Continuous
 62
     3
370
     9
100
AcDbCircle
 10
-80.56729703336163
 20
-372.5108810537696
 30
0.0
 40
1.000000024969514
100
AcDbArc
 50
184.000259399414
 51
270.0
  0
ARC
  5
427
330
1F
100
AcDbEntity
  8
仕上
  6
Continuous
 62
     3
370
     9
100
AcDbCircle
 10
-74.43262048669763
 20
-372.5108810537696
 30
0.0
 40
1.000000024969514
100
AcDbArc
 50
270.0
 51
355.9997406005859
  0
ARC
  5
428
330
1F
100
AcDbEntity
  8
建具
  6
Continuous
 62
     4
370
     9
100
AcDbCircle
 10
-189.0117088524071
 20
-346.8406511161904
 30
0.0
 40
2.999999990334382
100
AcDbArc
 50
91.22959899902344
 51
181.2295989990234
  0
ARC
  5
429
330
1F
100
AcDbEntity
  8
建具
  6
Continuous
 62
     4
370
     9
100
AcDbCircle
 10
-133.024514688028
 20
-345.6388915716116
 30
0.0
 40
2.999999990334382
100
AcDbArc
 50
1.229598999023434
 51
91.22959899902344
  0
ARC
  5
42A
330
1F
100
AcDbEntity
  8
仕上
  6
Continuous
 62
     3
370
     9
100
AcDbCircle
 10
0.0
 20
-7840.509266096527
 30
0.0
 40
7499.999406144426
100
AcDbArc
 50
90.0
 51
91.07807922363281
  0
ARC
  5
42B
330
1F
100
AcDbEntity
  8
仕上
  6
Continuous
 62
     3
370
     9
100
AcDbCircle
 10
0.0
 20
-7840.509266096527
 30
0.0
 40
7499.999406144426
100
AcDbArc
 50
91.3836517333985
 51
92.07455444335943
  0
ARC
  5
42C
330
1F
100
AcDbEntity
  8
仕上
  6
Continuous
 62
     3
370
     9
100
AcDbCircle
 10
0.0138566300674654
 20
-7840.509266096527
 30
0.0
 40
7494.999934016048
100
AcDbArc
 50
89.09060668945312
 51
90.00010681152344
  0
ARC
  5
42D
330
1F
100
AcDbEntity
  8
仕上
  6
Continuous
 62
     3
370
     9
100
AcDbCircle
 10
160.5815413191511
 20
-366.7399410463794
 30
0.0
 40
24.99999935562547
100
AcDbArc
 50
178.7705383300781
 51
257.2335052490234
  0
ARC
  5
42E
330
1F
100
AcDbEntity
  8
仕上
  6
Continuous
 62
     3
370
     9
100
AcDbCircle
 10
160.5815413191511
 20
-366.7399410463794
 30
0.0
 40
24.99999935562547
100
AcDbArc
 50
280.3075561523438
 51
358.7705841064453
  0
ARC
  5
42F
330
1F
100
AcDbEntity
  8
仕上
  6
Continuous
 62
     3
370
     9
100
AcDbCircle
 10
160.5815413191511
 20
-366.7399410463794
 30
0.0
 40
31.00000136607402
100
AcDbArc
 50
279.1278991699219
 51
358.7708129882812
  0
ARC
  5
430
330
1F
100
AcDbEntity
  8
仕上
  6
Continuous
 62
     3
370
     9
100
AcDbCircle
 10
160.5815413191511
 20
-366.7399410463794
 30
0.0
 40
31.00000136607402
100
AcDbArc
 50
178.7707366943359
 51
258.4136047363281
  0
ARC
  5
431
330
1F
100
AcDbEntity
  8
仕上
  6
Continuous
 62
     3
370
     9
100
AcDbCircle
 10
0.0138566300674654
 20
-7840.509266096527
 30
0.0
 40
7494.999934016048
100
AcDbArc
 50
88.11155700683594
 51
88.39399719238283
  0
ARC
  5
432
330
1F
100
AcDbEntity
  8
仕上
  6
Continuous
 62
     3
370
     9
100
AcDbCircle
 10
197.732205777555
 20
-360.1233568871469
 30
0.0
 40
5.999999980668765
100
AcDbArc
 50
89.25833129882811
 51
178.7699890136719
  0
ARC
  5
433
330
1F
100
AcDbEntity
  8
仕上
  6
Continuous
 62
     3
370
     9
100
AcDbCircle
 10
0.0138566300674654
 20
-7840.509266096527
 30
0.0
 40
7489.000013196792
100
AcDbArc
 50
88.10862731933597
 51
88.48655700683597
  0
ARC
  5
434
330
1F
100
AcDbEntity
  8
仕上
  6
Continuous
 62
     3
370
     9
100
AcDbCircle
 10
123.7490597286739
 20
-358.534954061714
 30
0.0
 40
5.999999980668765
100
AcDbArc
 50
358.7711639404297
 51
89.05252075195314
  0
ARC
  5
435
330
1F
100
AcDbEntity
  8
仕上
  6
Continuous
 62
     3
370
     9
100
AcDbCircle
 10
0.0138566300674654
 20
-7840.509266096527
 30
0.0
 40
7489.000013196792
100
AcDbArc
 50
89.05255126953126
 51
89.32894897460939
  0
ARC
  5
436
330
1F
100
AcDbEntity
  8
仕上
  6
Continuous
 62
     3
370
     9
100
AcDbCircle
 10
87.66500936972133
 20
-357.0246246863182
 30
0.0
 40
5.000000209421725
100
AcDbArc
 50
89.32885742187499
 51
175.9999847412109
  0
ARC
  5
437
330
1F
100
AcDbEntity
  8
仕上
  6
Continuous
 62
     3
370
     9
100
AcDbCircle
 10
0.0138566300674654
 20
-7840.509266096527
 30
0.0
 40
7489.000013196792
100
AcDbArc
 50
89.48471069335938
 51
90.00010681152344
  0
ARC
  5
438
330
1F
100
AcDbEntity
  8
仕上
  6
Continuous
 62
     3
370
     9
100
AcDbCircle
 10
67.32018548089096
 20
-356.8140039092912
 30
0.0
 40
5.000000209421725
100
AcDbArc
 50
4.000045776367182
 51
89.48472595214844
  0
ARC
  5
439
330
1F
100
AcDbEntity
  8
仕上
  6
Continuous
 62
     3
370
     9
100
AcDbCircle
 10
80.56747024123729
 20
-372.5107511478627
 30
0.0
 40
1.000000024969514
100
AcDbArc
 50
270.0
 51
355.9997406005859
  0
ARC
  5
43A
330
1F
100
AcDbEntity
  8
仕上
  6
Continuous
 62
     3
370
     9
100
AcDbCircle
 10
74.43262048669763
 20
-372.5108810537696
 30
0.0
 40
1.000000024969514
100
AcDbArc
 50
184.000259399414
 51
270.0
  0
ARC
  5
43B
330
1F
100
AcDbEntity
  8
建具
  6
Continuous
 62
     4
370
     9
100
AcDbCircle
 10
189.0117088524071
 20
-346.8402180965008
 30
0.0
 40
2.999999990334382
100
AcDbArc
 50
358.7704010009766
 51
88.77040100097656
  0
ARC
  5
43C
330
1F
100
AcDbEntity
  8
建具
  6
Continuous
 62
     4
370
     9
100
AcDbCircle
 10
133.0245146880278
 20
-345.6387616657047
 30
0.0
 40
2.999999990334382
100
AcDbArc
 50
88.77040100097659
 51
178.7704010009766
  0
ARC
  5
43D
330
1F
100
AcDbEntity
  8
仕上
  6
Continuous
 62
     3
370
     9
100
AcDbCircle
 10
0.0138566300674654
 20
-7840.509266096527
 30
0.0
 40
7499.999406144426
100
AcDbArc
 50
88.92202758789064
 51
90.00010681152345
  0
ARC
  5
43E
330
1F
100
AcDbEntity
  8
仕上
  6
Continuous
 62
     3
370
     9
100
AcDbCircle
 10
0.0138566300674654
 20
-7840.509266096527
 30
0.0
 40
7499.999406144426
100
AcDbArc
 50
87.92555236816406
 51
88.616455078125
  0
ARC
  5
43F
330
1F
100
AcDbEntity
  8
仕上
  6
Continuous
 62
     3
370
     9
100
AcDbCircle
 10
269.8038297086149
 20
-357.9253922446479
 30
0.0
 40
1.499999995167191
100
AcDbArc
 50
90.0
 51
172.000244140625
  0
ARC
  5
440
330
1F
100
AcDbEntity
  8
仕上
  6
Continuous
 62
     3
370
     9
100
AcDbCircle
 10
246.9265334670608
 20
-360.5851723861175
 30
0.0
 40
5.000000209421725
100
AcDbArc
 50
3.676956176757812
 51
87.03309631347656
  0
ARC
  5
441
330
1F
100
AcDbEntity
  8
仕上
  6
Continuous
 62
     3
370
     9
100
AcDbCircle
 10
248.0785390493032
 20
-378.5104987592435
 30
0.0
 40
5.000000209421725
100
AcDbArc
 50
3.676956176757812
 51
90.0
  0
ARC
  5
442
330
1F
100
AcDbEntity
  8
建具
  6
Continuous
 62
     4
370
     9
100
AcDbCircle
 10
-266.3630552549621
 20
-367.4272298977307
 30
0.0
 40
0.5000000124847568
100
AcDbArc
 50
90.0
 51
187.9976196289062
  0
ARC
  5
443
330
1F
100
AcDbEntity
  8
建具
  6
Continuous
 62
     4
370
     9
100
AcDbCircle
 10
-263.5524110536318
 20
-387.4271536037854
 30
0.0
 40
0.5000000124847568
100
AcDbArc
 50
188.0088653564453
 51
270.0000000000001
  0
ARC
  5
444
330
1F
100
AcDbEntity
  8
建具
  6
Continuous
 62
     4
370
     9
100
AcDbCircle
 10
-264.35696163693
 20
-370.9272847468914
 30
0.0
 40
5.999999980668765
100
AcDbArc
 50
90.0
 51
175.6476745605469
  0
ARC
  5
445
330
1F
100
AcDbEntity
  8
建具
  6
Continuous
 62
     4
370
     9
100
AcDbCircle
 10
-262.5299649625211
 20
-383.9270987546248
 30
0.0
 40
5.999999980668765
100
AcDbArc
 50
200.3499908447266
 51
270.0000000000001
  0
ARC
  5
446
330
1F
100
AcDbEntity
  8
建具
  6
Continuous
 62
     4
370
     9
100
AcDbCircle
 10
266.3630552549621
 20
-367.4272298977307
 30
0.0
 40
0.5000000124847568
100
AcDbArc
 50
352.0023803710938
 51
90.0
  0
ARC
  5
447
330
1F
100
AcDbEntity
  8
建具
  6
Continuous
 62
     4
370
     9
100
AcDbCircle
 10
263.5524110536317
 20
-387.4271536037854
 30
0.0
 40
0.5000000124847568
100
AcDbArc
 50
270.0
 51
351.9911346435547
  0
ARC
  5
448
330
1F
100
AcDbEntity
  8
建具
  6
Continuous
 62
     4
370
     9
100
AcDbCircle
 10
264.3571348448058
 20
-370.9272847468914
 30
0.0
 40
5.999999980668765
100
AcDbArc
 50
4.352325439453136
 51
90.00000000000001
  0
ARC
  5
449
330
1F
100
AcDbEntity
  8
建具
  6
Continuous
 62
     4
370
     9
100
AcDbCircle
 10
262.5299649625211
 20
-383.9270987546248
 30
0.0
 40
5.999999980668765
100
AcDbArc
 50
270.0
 51
339.6500091552734
  0
ARC
  5
44A
330
1F
100
AcDbEntity
  8
仕上
  6
Continuous
 62
     3
370
     9
100
AcDbCircle
 10
-86.50001319679052
 20
214.2308849737326
 30
0.0
 40
5.000000209421725
100
AcDbArc
 50
270.0
 51
0.0
  0
ARC
  5
44B
330
1F
100
AcDbEntity
  8
仕上
  6
Continuous
 62
     3
370
     9
100
AcDbCircle
 10
-68.5000775311444
 20
214.2308849737326
 30
0.0
 40
5.000000209421725
100
AcDbArc
 50
180.0
 51
270.0
  0
ARC
  5
44C
330
1F
100
AcDbEntity
  8
仕上
  6
Continuous
 62
     3
370
     9
100
AcDbCircle
 10
-68.5000775311444
 20
196.2308627041486
 30
0.0
 40
5.000000209421725
100
AcDbArc
 50
90.0
 51
180.0
  0
ARC
  5
44D
330
1F
100
AcDbEntity
  8
仕上
  6
Continuous
 62
     3
370
     9
100
AcDbCircle
 10
-86.50001319679052
 20
196.2308627041486
 30
0.0
 40
5.000000209421725
100
AcDbArc
 50
0.0
 51
90.0
  0
ARC
  5
44E
330
1F
100
AcDbEntity
  8
仕上
  6
Continuous
 62
     3
370
     9
100
AcDbCircle
 10
0.0
 20
282.7308759009392
 30
0.0
 40
256.0000280431799
100
AcDbArc
 50
68.99998474121094
 51
111.0000152587891
  0
ARC
  5
44F
330
1F
100
AcDbEntity
  8
仕上
  6
Continuous
 62
     3
370
     9
100
AcDbCircle
 10
0.0
 20
282.7308759009392
 30
0.0
 40
233.00001402159
100
AcDbArc
 50
69.00000000000001
 51
111.0
  0
ARC
  5
450
330
1F
100
AcDbEntity
  8
仕上
  6
Continuous
 62
     3
370
     9
100
AcDbCircle
 10
0.0
 20
282.7308759009392
 30
0.0
 40
225.9999909272065
100
AcDbArc
 50
100.7101287841797
 51
102.7817993164062
  0
ARC
  5
451
330
1F
100
AcDbEntity
  8
仕上
  6
Continuous
 62
     3
370
     9
100
AcDbCircle
 10
0.0
 20
282.7308759009392
 30
0.0
 40
225.9999909272065
100
AcDbArc
 50
104.0850982666015
 51
107.1079559326171
  0
ARC
  5
452
330
1F
100
AcDbEntity
  8
仕上
  6
Continuous
 62
     3
370
     9
100
AcDbCircle
 10
0.0
 20
282.7308759009392
 30
0.0
 40
225.9999909272065
100
AcDbArc
 50
88.98588562011717
 51
91.0141143798828
  0
ARC
  5
453
330
1F
100
AcDbEntity
  8
仕上
  6
Continuous
 62
     3
370
     9
100
AcDbCircle
 10
0.0
 20
282.7308759009392
 30
0.0
 40
225.9999909272065
100
AcDbArc
 50
92.28227233886719
 51
99.42268371582031
  0
ARC
  5
454
330
1F
100
AcDbEntity
  8
仕上
  6
Continuous
 62
     3
370
     9
100
AcDbCircle
 10
0.0
 20
282.7308759009392
 30
0.0
 40
225.9999909272065
100
AcDbArc
 50
77.21820068359375
 51
79.28987121582031
  0
ARC
  5
455
330
1F
100
AcDbEntity
  8
仕上
  6
Continuous
 62
     3
370
     9
100
AcDbCircle
 10
0.0
 20
282.7308759009392
 30
0.0
 40
225.9999909272065
100
AcDbArc
 50
72.89204406738281
 51
75.91490173339844
  0
ARC
  5
456
330
1F
100
AcDbEntity
  8
仕上
  6
Continuous
 62
     3
370
     9
100
AcDbCircle
 10
0.0
 20
282.7308759009392
 30
0.0
 40
225.9999909272065
100
AcDbArc
 50
80.57731628417972
 51
87.71772766113284
  0
ARC
  5
457
330
1F
100
AcDbEntity
  8
仕上
  6
Continuous
 62
     3
370
     9
100
AcDbCircle
 10
0.0
 20
42.1792583043385
 30
0.0
 40
59.05160955480628
100
AcDbArc
 50
73.26866149902342
 51
106.7313385009765
  0
ARC
  5
458
330
1F
100
AcDbEntity
  8
仕上
  6
Continuous
 62
     3
370
     9
100
AcDbCircle
 10
0.0
 20
168.2825594814924
 30
0.0
 40
59.05160955480628
100
AcDbArc
 50
253.2686614990234
 51
286.7313385009766
  0
ARC
  5
459
330
1F
100
AcDbEntity
  8
仕上
  6
Continuous
 62
     3
370
     9
100
AcDbCircle
 10
0.0
 20
282.7308759009392
 30
0.0
 40
249.9992844865129
100
AcDbArc
 50
177.9368743896484
 51
180.0
  0
ARC
  5
45A
330
1F
100
AcDbEntity
  8
仕上
  6
Continuous
 62
     3
370
     9
100
AcDbCircle
 10
0.0
 20
282.7308759009392
 30
0.0
 40
249.9992844865129
100
AcDbArc
 50
172.1835632324218
 51
176.3305358886718
  0
ARC
  5
45B
330
1F
100
AcDbEntity
  8
仕上
  6
Continuous
 62
     3
370
     9
100
AcDbCircle
 10
0.0
 20
282.7308759009392
 30
0.0
 40
249.9992844865129
100
AcDbArc
 50
166.3493804931641
 51
170.5608215332031
  0
ARC
  5
45C
330
1F
100
AcDbEntity
  8
仕上
  6
Continuous
 62
     3
370
     9
100
AcDbCircle
 10
0.0
 20
282.7308759009392
 30
0.0
 40
249.9992844865129
100
AcDbArc
 50
162.9409027099609
 51
164.6924133300781
  0
ARC
  5
45D
330
1F
100
AcDbEntity
  8
仕上
  6
Continuous
 62
     3
370
     9
100
AcDbCircle
 10
0.0
 20
282.7308759009392
 30
0.0
 40
249.9992844865129
100
AcDbArc
 50
154.1509857177735
 51
158.6538391113282
  0
ARC
  5
45E
330
1F
100
AcDbEntity
  8
仕上
  6
Continuous
 62
     3
370
     9
100
AcDbCircle
 10
0.0
 20
282.7308759009392
 30
0.0
 40
249.9992844865129
100
AcDbArc
 50
147.5881042480468
 51
152.3544006347656
  0
ARC
  5
45F
330
1F
100
AcDbEntity
  8
仕上
  6
Continuous
 62
     3
370
     9
100
AcDbCircle
 10
0.0
 20
282.7308759009392
 30
0.0
 40
249.9992844865129
100
AcDbArc
 50
140.5056457519532
 51
144.6865386962891
  0
ARC
  5
460
330
1F
100
AcDbEntity
  8
仕上
  6
Continuous
 62
     3
370
     9
100
AcDbCircle
 10
0.0
 20
282.7308759009392
 30
0.0
 40
249.9992844865129
100
AcDbArc
 50
136.0546264648438
 51
138.3941802978516
  0
ARC
  5
461
330
1F
100
AcDbEntity
  8
仕上
  6
Continuous
 62
     3
370
     9
100
AcDbCircle
 10
0.0
 20
282.7308759009392
 30
0.0
 40
249.9992844865129
100
AcDbArc
 50
132.6080169677735
 51
134.4271240234375
  0
ARC
  5
462
330
1F
100
AcDbEntity
  8
仕上
  6
Continuous
 62
     3
370
     9
100
AcDbCircle
 10
0.0
 20
282.7308759009392
 30
0.0
 40
249.9992844865129
100
AcDbArc
 50
123.2796325683594
 51
129.1979217529297
  0
ARC
  5
463
330
1F
100
AcDbEntity
  8
仕上
  6
Continuous
 62
     3
370
     9
100
AcDbCircle
 10
0.0
 20
282.7308759009392
 30
0.0
 40
249.9992844865129
100
AcDbArc
 50
113.8285369873047
 51
120.2309875488282
  0
ARC
  5
464
330
1F
100
AcDbEntity
  8
仕上
  6
Continuous
 62
     3
370
     9
100
AcDbCircle
 10
0.0
 20
282.7308759009392
 30
0.0
 40
249.9992844865129
100
AcDbArc
 50
3.669464111328135
 51
7.816436767578135
  0
ARC
  5
465
330
1F
100
AcDbEntity
  8
仕上
  6
Continuous
 62
     3
370
     9
100
AcDbCircle
 10
0.0
 20
282.7308759009392
 30
0.0
 40
249.9992844865129
100
AcDbArc
 50
9.439178466796886
 51
13.65061950683595
  0
ARC
  5
466
330
1F
100
AcDbEntity
  8
仕上
  6
Continuous
 62
     3
370
     9
100
AcDbCircle
 10
0.0
 20
282.7308759009392
 30
0.0
 40
249.9992844865129
100
AcDbArc
 50
15.30758666992187
 51
17.05909729003906
  0
ARC
  5
467
330
1F
100
AcDbEntity
  8
仕上
  6
Continuous
 62
     3
370
     9
100
AcDbCircle
 10
0.0
 20
282.7308759009392
 30
0.0
 40
249.9992844865129
100
AcDbArc
 50
21.34616088867188
 51
25.84901428222657
  0
ARC
  5
468
330
1F
100
AcDbEntity
  8
仕上
  6
Continuous
 62
     3
370
     9
100
AcDbCircle
 10
0.0
 20
282.7308759009392
 30
0.0
 40
249.9992844865129
100
AcDbArc
 50
27.64559936523438
 51
32.41189575195313
  0
ARC
  5
469
330
1F
100
AcDbEntity
  8
仕上
  6
Continuous
 62
     3
370
     9
100
AcDbCircle
 10
0.0
 20
282.7308759009392
 30
0.0
 40
249.9992844865129
100
AcDbArc
 50
35.31346130371095
 51
39.49435424804689
  0
ARC
  5
46A
330
1F
100
AcDbEntity
  8
仕上
  6
Continuous
 62
     3
370
     9
100
AcDbCircle
 10
0.0
 20
282.7308759009392
 30
0.0
 40
249.9992844865129
100
AcDbArc
 50
41.60581970214842
 51
43.94537353515624
  0
ARC
  5
46B
330
1F
100
AcDbEntity
  8
仕上
  6
Continuous
 62
     3
370
     9
100
AcDbCircle
 10
0.0
 20
282.7308759009392
 30
0.0
 40
249.9992844865129
100
AcDbArc
 50
45.57287597656251
 51
47.39198303222657
  0
ARC
  5
46C
330
1F
100
AcDbEntity
  8
仕上
  6
Continuous
 62
     3
370
     9
100
AcDbCircle
 10
0.0
 20
282.7308759009392
 30
0.0
 40
249.9992844865129
100
AcDbArc
 50
50.80207824707031
 51
56.72036743164063
  0
ARC
  5
46D
330
1F
100
AcDbEntity
  8
仕上
  6
Continuous
 62
     3
370
     9
100
AcDbCircle
 10
0.0
 20
282.7308759009392
 30
0.0
 40
249.9992844865129
100
AcDbArc
 50
59.76901245117187
 51
66.1714630126953
  0
ARC
  5
46E
330
1F
100
AcDbEntity
  8
仕上
  6
Continuous
 62
     3
370
     9
100
AcDbCircle
 10
0.0
 20
282.7308759009392
 30
0.0
 40
249.9992844865129
100
AcDbArc
 50
0.0
 51
2.063125610351562
  0
ARC
  5
46F
330
1F
100
AcDbEntity
  8
仕上
  6
Continuous
 62
     3
370
     9
100
AcDbCircle
 10
-88.01419644742413
 20
215.7449816204281
 30
0.0
 40
5.000000209421725
100
AcDbArc
 50
270.0
 51
0.0
  0
ARC
  5
470
330
1F
100
AcDbEntity
  8
仕上
  6
Continuous
 62
     3
370
     9
100
AcDbCircle
 10
-88.01419644742413
 20
194.7238675803625
 30
0.0
 40
5.000000209421725
100
AcDbArc
 50
0.0005645751953283
 51
90.00000000000001
  0
ARC
  5
471
330
1F
100
AcDbEntity
  8
仕上
  6
Continuous
 62
     3
370
     9
100
AcDbCircle
 10
-66.99299580342068
 20
194.7238675803625
 30
0.0
 40
5.000000209421725
100
AcDbArc
 50
90.0
 51
180.0
  0
ARC
  5
472
330
1F
100
AcDbEntity
  8
仕上
  6
Continuous
 62
     3
370
     9
100
AcDbCircle
 10
-66.99299580342068
 20
215.7449816204281
 30
0.0
 40
5.000000209421725
100
AcDbArc
 50
180.0
 51
270.0
  0
ARC
  5
473
330
1F
100
AcDbEntity
  8
仕上
  6
Continuous
 62
     3
370
     9
100
AcDbCircle
 10
86.50001319679052
 20
214.2308849737326
 30
0.0
 40
5.000000209421725
100
AcDbArc
 50
180.0
 51
270.0
  0
ARC
  5
474
330
1F
100
AcDbEntity
  8
仕上
  6
Continuous
 62
     3
370
     9
100
AcDbCircle
 10
68.5000775311444
 20
214.2308849737326
 30
0.0
 40
5.000000209421725
100
AcDbArc
 50
270.0
 51
0.0
  0
ARC
  5
475
330
1F
100
AcDbEntity
  8
仕上
  6
Continuous
 62
     3
370
     9
100
AcDbCircle
 10
68.5000775311444
 20
196.2308627041486
 30
0.0
 40
5.000000209421725
100
AcDbArc
 50
0.0
 51
90.0
  0
ARC
  5
476
330
1F
100
AcDbEntity
  8
仕上
  6
Continuous
 62
     3
370
     9
100
AcDbCircle
 10
86.50001319679052
 20
196.2308627041486
 30
0.0
 40
5.000000209421725
100
AcDbArc
 50
90.0
 51
180.0
  0
ARC
  5
477
330
1F
100
AcDbEntity
  8
仕上
  6
Continuous
 62
     3
370
     9
100
AcDbCircle
 10
88.01419644742393
 20
215.7449816204281
 30
0.0
 40
5.000000209421725
100
AcDbArc
 50
180.0
 51
270.0
  0
ARC
  5
478
330
1F
100
AcDbEntity
  8
仕上
  6
Continuous
 62
     3
370
     9
100
AcDbCircle
 10
88.01419644742393
 20
194.7238675803625
 30
0.0
 40
5.000000209421725
100
AcDbArc
 50
90.0
 51
179.9994354248047
  0
ARC
  5
479
330
1F
100
AcDbEntity
  8
仕上
  6
Continuous
 62
     3
370
     9
100
AcDbCircle
 10
66.99316901129635
 20
194.7238675803625
 30
0.0
 40
5.000000209421725
100
AcDbArc
 50
0.0
 51
90.0
  0
ARC
  5
47A
330
1F
100
AcDbEntity
  8
仕上
  6
Continuous
 62
     3
370
     9
100
AcDbCircle
 10
66.99316901129635
 20
215.7449816204281
 30
0.0
 40
5.000000209421725
100
AcDbArc
 50
270.0
 51
0.0
  0
ARC
  5
47B
330
1F
100
AcDbEntity
  8
仕上
  6
Continuous
 62
     3
370
     9
100
AcDbCircle
 10
233.2001557221284
 20
196.2308627041486
 30
0.0
 40
5.000000209421725
100
AcDbArc
 50
55.45013427734376
 51
90.00000000000001
  0
ARC
  5
47C
330
1F
100
AcDbEntity
  8
仕上
  6
Continuous
 62
     3
370
     9
100
AcDbCircle
 10
230.5261725348394
 20
194.7238675803625
 30
0.0
 40
5.000000209421725
100
AcDbArc
 50
29.07501220703125
 51
90.00000000000001
  0
ARC
  5
47D
330
1F
100
AcDbEntity
  8
仕上
  6
Continuous
 62
     3
370
     9
100
AcDbCircle
 10
237.4879166886612
 20
215.7449816204281
 30
0.0
 40
5.000000209421725
100
AcDbArc
 50
270.0
 51
294.2791137695313
  0
ARC
  5
47E
330
1F
100
AcDbEntity
  8
仕上
  6
Continuous
 62
     3
370
     9
100
AcDbCircle
 10
66.99316901129635
 20
45.24503770678785
 30
0.0
 40
5.000000209421725
100
AcDbArc
 50
335.7250671386719
 51
0.0
  0
ARC
  5
47F
330
1F
100
AcDbEntity
  8
仕上
  6
Continuous
 62
     3
370
     9
100
AcDbCircle
 10
86.50001319679052
 20
49.53080678274853
 30
0.0
 40
5.000000209421725
100
AcDbArc
 50
180.0
 51
214.5496978759766
  0
ARC
  5
480
330
1F
100
AcDbEntity
  8
仕上
  6
Continuous
 62
     3
370
     9
100
AcDbCircle
 10
88.01419644742393
 20
52.20730148423721
 30
0.0
 40
5.000000209421725
100
AcDbArc
 50
180.0
 51
240.9257049560547
  0
ARC
  5
481
330
1F
100
AcDbEntity
  8
仕上
  6
Continuous
 62
     3
370
     9
100
AcDbCircle
 10
-66.99299580342068
 20
45.24503770678785
 30
0.0
 40
5.000000209421725
100
AcDbArc
 50
180.0
 51
204.2749328613281
  0
ARC
  5
482
330
1F
100
AcDbEntity
  8
仕上
  6
Continuous
 62
     3
370
     9
100
AcDbCircle
 10
-86.50001319679052
 20
49.53080678274853
 30
0.0
 40
5.000000209421725
100
AcDbArc
 50
325.4503021240234
 51
0.0
  0
ARC
  5
483
330
1F
100
AcDbEntity
  8
仕上
  6
Continuous
 62
     3
370
     9
100
AcDbCircle
 10
-88.01419644742413
 20
52.20730148423721
 30
0.0
 40
5.000000209421725
100
AcDbArc
 50
299.0742950439453
 51
0.0
  0
ARC
  5
484
330
1F
100
AcDbEntity
  8
仕上
  6
Continuous
 62
     3
370
     9
100
AcDbCircle
 10
-237.4879166886614
 20
215.7449816204281
 30
0.0
 40
5.000000209421725
100
AcDbArc
 50
245.7215881347656
 51
270.0
  0
ARC
  5
485
330
1F
100
AcDbEntity
  8
仕上
  6
Continuous
 62
     3
370
     9
100
AcDbCircle
 10
-230.5261725348395
 20
194.7238675803625
 30
0.0
 40
5.000000209421725
100
AcDbArc
 50
90.0
 51
150.9254302978516
  0
ARC
  5
486
330
1F
100
AcDbEntity
  8
仕上
  6
Continuous
 62
     3
370
     9
100
AcDbCircle
 10
-233.1999825142526
 20
196.2308627041486
 30
0.0
 40
5.000000209421725
100
AcDbArc
 50
90.0
 51
124.5506896972656
  0
ARC
  5
487
330
1F
100
AcDbEntity
  8
建具
  6
Continuous
 62
     4
370
     9
100
AcDbCircle
 10
161.0001847550675
 20
282.7308759009392
 30
0.0
 40
15.49999797666395
100
AcDbArc
 50
45.20895385742189
 51
134.7910461425781
  0
ARC
  5
488
330
1F
100
AcDbEntity
  8
仕上
  6
JWW_DASHED1
 62
     3
370
     9
100
AcDbCircle
 10
161.0001847550675
 20
282.7308759009392
 30
0.0
 40
9.500000025774982
100
AcDbArc
 50
31.75671386718751
 51
148.2432861328125
  0
ARC
  5
489
330
1F
100
AcDbEntity
  8
仕上
  6
JWW_DASHED1
 62
     3
370
     9
100
AcDbCircle
 10
181.000324970967
 20
282.7308759009392
 30
0.0
 40
5.000000209421725
100
AcDbArc
 50
0.0
 51
90.0
  0
ARC
  5
48A
330
1F
100
AcDbEntity
  8
仕上
  6
JWW_DASHED1
 62
     3
370
     9
100
AcDbCircle
 10
141.000217747044
 20
282.7308759009392
 30
0.0
 40
5.000000209421725
100
AcDbArc
 50
90.0
 51
180.0
  0
ARC
  5
48B
330
1F
100
AcDbEntity
  8
仕上
  6
Continuous
 62
     3
370
     9
100
AcDbCircle
 10
161.0001847550675
 20
282.7308759009392
 30
0.0
 40
16.49999876280089
100
AcDbArc
 50
46.65843200683594
 51
133.3415679931641
  0
ARC
  5
48C
330
1F
100
AcDbEntity
  8
仕上
  6
Continuous
 62
     3
370
     9
100
AcDbCircle
 10
161.0001847550675
 20
282.7308759009392
 30
0.0
 40
23.49999749982679
100
AcDbArc
 50
53.95089721679688
 51
126.0491027832031
  0
ARC
  5
48D
330
1F
100
AcDbEntity
  8
仕上
  6
Continuous
 62
     3
370
     9
100
AcDbCircle
 10
161.0001847550675
 20
282.7308759009392
 30
0.0
 40
32.99999752560178
100
AcDbArc
 50
180.0
 51
0.0
  0
ARC
  5
48E
330
1F
100
AcDbEntity
  8
建具
  6
Continuous
 62
     4
370
     9
100
AcDbCircle
 10
189.9965688344595
 20
291.7309303377001
 30
0.0
 40
2.000000049939027
100
AcDbArc
 50
0.0
 51
90.0
  0
ARC
  5
48F
330
1F
100
AcDbEntity
  8
建具
  6
Continuous
 62
     4
370
     9
100
AcDbCircle
 10
132.0034542599239
 20
291.7309303377001
 30
0.0
 40
2.000000049939027
100
AcDbArc
 50
90.0
 51
180.0
  0
ARC
  5
490
330
1F
100
AcDbEntity
  8
建具
  6
Continuous
 62
     4
370
     9
100
AcDbCircle
 10
-161.0001847550677
 20
282.7308759009392
 30
0.0
 40
15.49999797666395
100
AcDbArc
 50
45.20895385742189
 51
134.7910461425781
  0
ARC
  5
491
330
1F
100
AcDbEntity
  8
仕上
  6
JWW_DASHED1
 62
     3
370
     9
100
AcDbCircle
 10
-161.0001847550677
 20
282.7308759009392
 30
0.0
 40
9.500000025774982
100
AcDbArc
 50
31.75671386718751
 51
148.2432861328125
  0
ARC
  5
492
330
1F
100
AcDbEntity
  8
仕上
  6
JWW_DASHED1
 62
     3
370
     9
100
AcDbCircle
 10
-181.0001517630912
 20
282.7308759009392
 30
0.0
 40
5.000000209421725
100
AcDbArc
 50
90.0
 51
180.0
  0
ARC
  5
493
330
1F
100
AcDbEntity
  8
仕上
  6
JWW_DASHED1
 62
     3
370
     9
100
AcDbCircle
 10
-141.000217747044
 20
282.7308759009392
 30
0.0
 40
5.000000209421725
100
AcDbArc
 50
0.0
 51
90.0
  0
ARC
  5
494
330
1F
100
AcDbEntity
  8
仕上
  6
Continuous
 62
     3
370
     9
100
AcDbCircle
 10
-161.0001847550677
 20
282.7308759009392
 30
0.0
 40
16.49999876280089
100
AcDbArc
 50
46.65843200683594
 51
133.3415679931641
  0
ARC
  5
495
330
1F
100
AcDbEntity
  8
仕上
  6
Continuous
 62
     3
370
     9
100
AcDbCircle
 10
-161.0001847550677
 20
282.7308759009392
 30
0.0
 40
23.49999749982679
100
AcDbArc
 50
53.95089721679688
 51
126.0491027832031
  0
ARC
  5
496
330
1F
100
AcDbEntity
  8
仕上
  6
Continuous
 62
     3
370
     9
100
AcDbCircle
 10
-161.0001847550677
 20
282.7308759009392
 30
0.0
 40
32.99999752560178
100
AcDbArc
 50
180.0
 51
0.0
  0
ARC
  5
497
330
1F
100
AcDbEntity
  8
建具
  6
Continuous
 62
     4
370
     9
100
AcDbCircle
 10
-189.9965688344595
 20
291.7309303377001
 30
0.0
 40
2.000000049939027
100
AcDbArc
 50
90.0
 51
180.0
  0
ARC
  5
498
330
1F
100
AcDbEntity
  8
建具
  6
Continuous
 62
     4
370
     9
100
AcDbCircle
 10
-132.0032810520483
 20
291.7309303377001
 30
0.0
 40
2.000000049939027
100
AcDbArc
 50
0.0
 51
90.0
  0
CIRCLE
  5
499
330
1F
100
AcDbEntity
  8
躯体
  6
Continuous
 62
     2
370
     9
100
AcDbCircle
 10
0.0
 20
282.7308759009392
 30
0.0
 40
319.999948450037
  0
ARC
  5
49A
330
1F
100
AcDbEntity
  8
躯体
  6
Continuous
 62
     2
370
     9
100
AcDbCircle
 10
0.0
 20
282.7308759009392
 30
0.0
 40
318.9998894768793
100
AcDbArc
 50
359.9999847412109
 51
180.000015258789
  0
ARC
  5
49B
330
1F
100
AcDbEntity
  8
躯体
  6
Continuous
 62
     2
370
     9
100
AcDbCircle
 10
0.0
 20
282.7308759009392
 30
0.0
 40
274.0000286617794
100
AcDbArc
 50
359.9999847412109
 51
180.000015258789
  0
ARC
  5
49C
330
1F
100
AcDbEntity
  8
躯体
  6
Continuous
 62
     2
370
     9
100
AcDbCircle
 10
306.2107395481418
 20
304.7308742513402
 30
0.0
 40
2.000000049939027
100
AcDbArc
 50
270.0
 51
4.109893798828135
  0
ARC
  5
49D
330
1F
100
AcDbEntity
  8
躯体
  6
Continuous
 62
     2
370
     9
100
AcDbCircle
 10
304.0543014938767
 20
306.7308189897798
 30
0.0
 40
2.000000049939027
100
AcDbArc
 50
270.0
 51
4.512573242187517
  0
ARC
  5
49E
330
1F
100
AcDbEntity
  8
躯体
  6
Continuous
 62
     2
370
     9
100
AcDbCircle
 10
295.0256677576013
 20
306.7308189897798
 30
0.0
 40
2.000000049939027
100
AcDbArc
 50
184.6509552001953
 51
270.0
  0
ARC
  5
49F
330
1F
100
AcDbEntity
  8
躯体
  6
Continuous
 62
     2
370
     9
100
AcDbCircle
 10
293.175807643581
 20
304.7308742513402
 30
0.0
 40
2.000000049939027
100
AcDbArc
 50
184.2919158935547
 51
270.0
  0
ARC
  5
4A0
330
1F
100
AcDbEntity
  8
躯体
  6
Continuous
 62
     2
370
     9
100
AcDbCircle
 10
-306.210566340266
 20
304.7308742513402
 30
0.0
 40
2.000000049939027
100
AcDbArc
 50
175.8901062011719
 51
270.0
  0
ARC
  5
4A1
330
1F
100
AcDbEntity
  8
躯体
  6
Continuous
 62
     2
370
     9
100
AcDbCircle
 10
-304.0543014938767
 20
306.7308189897798
 30
0.0
 40
2.000000049939027
100
AcDbArc
 50
175.4874267578125
 51
270.0000000000001
  0
ARC
  5
4A2
330
1F
100
AcDbEntity
  8
躯体
  6
Continuous
 62
     2
370
     9
100
AcDbCircle
 10
-295.0254945497255
 20
306.7308189897798
 30
0.0
 40
2.000000049939027
100
AcDbArc
 50
270.0
 51
355.3490447998047
  0
ARC
  5
4A3
330
1F
100
AcDbEntity
  8
躯体
  6
Continuous
 62
     2
370
     9
100
AcDbCircle
 10
-293.1758076435812
 20
304.7308742513402
 30
0.0
 40
2.000000049939027
100
AcDbArc
 50
270.0
 51
355.7080841064453
  0
ARC
  5
4A4
330
1F
100
AcDbEntity
  8
躯体
  6
Continuous
 62
     2
370
     9
100
AcDbCircle
 10
24.00002969277867
 20
586.7851773948158
 30
0.0
 40
2.000000049939027
100
AcDbArc
 50
90.17884826660156
 51
180.0
  0
ARC
  5
4A5
330
1F
100
AcDbEntity
  8
躯体
  6
Continuous
 62
     2
370
     9
100
AcDbCircle
 10
21.99999835040109
 20
588.9414422412051
 30
0.0
 40
2.000000049939027
100
AcDbArc
 50
85.8901062011719
 51
180.0000000000001
  0
ARC
  5
4A6
330
1F
100
AcDbEntity
  8
躯体
  6
Continuous
 62
     2
370
     9
100
AcDbCircle
 10
24.00002969277867
 20
577.7565436585404
 30
0.0
 40
2.000000049939027
100
AcDbArc
 50
180.0
 51
265.3491668701172
  0
ARC
  5
4A7
330
1F
100
AcDbEntity
  8
躯体
  6
Continuous
 62
     2
370
     9
100
AcDbCircle
 10
21.99999835040109
 20
575.9066835445202
 30
0.0
 40
2.000000049939027
100
AcDbArc
 50
180.0
 51
265.7079772949219
  0
ARC
  5
4A8
330
1F
100
AcDbEntity
  8
躯体
  6
Continuous
 62
     2
370
     9
100
AcDbCircle
 10
-24.00002969277867
 20
586.7851773948158
 30
0.0
 40
2.000000049939027
100
AcDbArc
 50
0.0
 51
89.82115173339844
  0
ARC
  5
4A9
330
1F
100
AcDbEntity
  8
躯体
  6
Continuous
 62
     2
370
     9
100
AcDbCircle
 10
-21.99999835040128
 20
588.9414422412051
 30
0.0
 40
2.000000049939027
100
AcDbArc
 50
0.0
 51
94.10989379882814
  0
ARC
  5
4AA
330
1F
100
AcDbEntity
  8
躯体
  6
Continuous
 62
     2
370
     9
100
AcDbCircle
 10
-24.00002969277867
 20
577.7565436585404
 30
0.0
 40
2.000000049939027
100
AcDbArc
 50
274.6508331298828
 51
0.0
  0
ARC
  5
4AB
330
1F
100
AcDbEntity
  8
躯体
  6
Continuous
 62
     2
370
     9
100
AcDbCircle
 10
-21.99999835040128
 20
575.9066835445202
 30
0.0
 40
2.000000049939027
100
AcDbArc
 50
274.2920227050781
 51
0.0000000000000127
  0
ARC
  5
4AC
330
1F
100
AcDbEntity
  8
躯体
  6
Continuous
 62
     2
370
     9
100
AcDbCircle
 10
-4.999991752006025
 20
583.7308297121722
 30
0.0
 40
7.500000483280904
100
AcDbArc
 50
90.0
 51
270.0
  0
ARC
  5
4AD
330
1F
100
AcDbEntity
  8
躯体
  6
Continuous
 62
     2
370
     9
100
AcDbCircle
 10
4.999991752005826
 20
583.7308297121722
 30
0.0
 40
7.500000483280904
100
AcDbArc
 50
270.0
 51
90.0
  0
ARC
  5
4AE
330
1F
100
AcDbEntity
  8
躯体
  6
Continuous
 62
     2
370
     9
100
AcDbCircle
 10
4.999991752005826
 20
583.7308297121722
 30
0.0
 40
9.000000309299779
100
AcDbArc
 50
270.0
 51
90.0
  0
ARC
  5
4AF
330
1F
100
AcDbEntity
  8
躯体
  6
Continuous
 62
     2
370
     9
100
AcDbCircle
 10
-4.999991752006025
 20
583.7308297121722
 30
0.0
 40
9.000000309299779
100
AcDbArc
 50
90.0
 51
270.0
  0
ARC
  5
4B0
330
1F
100
AcDbEntity
  8
躯体
  6
Continuous
 62
     2
370
     9
100
AcDbCircle
 10
300.9999538112332
 20
287.730867652945
 30
0.0
 40
7.500000483280904
100
AcDbArc
 50
0.0
 51
180.0
  0
ARC
  5
4B1
330
1F
100
AcDbEntity
  8
躯体
  6
Continuous
 62
     2
370
     9
100
AcDbCircle
 10
300.9999538112332
 20
287.730867652945
 30
0.0
 40
9.000000309299779
100
AcDbArc
 50
0.0
 51
180.0
  0
ARC
  5
4B2
330
1F
100
AcDbEntity
  8
躯体
  6
Continuous
 62
     2
370
     9
100
AcDbCircle
 10
300.9999538112332
 20
277.7307109410573
 30
0.0
 40
7.500000483280904
100
AcDbArc
 50
180.0
 51
0.0
  0
ARC
  5
4B3
330
1F
100
AcDbEntity
  8
躯体
  6
Continuous
 62
     2
370
     9
100
AcDbCircle
 10
-300.9999538112332
 20
287.730867652945
 30
0.0
 40
7.500000483280904
100
AcDbArc
 50
0.0
 51
180.0
  0
ARC
  5
4B4
330
1F
100
AcDbEntity
  8
躯体
  6
Continuous
 62
     2
370
     9
100
AcDbCircle
 10
-300.9999538112332
 20
287.730867652945
 30
0.0
 40
9.000000309299779
100
AcDbArc
 50
0.0
 51
180.0
  0
ARC
  5
4B5
330
1F
100
AcDbEntity
  8
躯体
  6
Continuous
 62
     2
370
     9
100
AcDbCircle
 10
-300.9999538112332
 20
277.7307109410573
 30
0.0
 40
7.500000483280904
100
AcDbArc
 50
180.0
 51
0.0
  0
ARC
  5
4B6
330
1F
100
AcDbEntity
  8
躯体
  6
Continuous
 62
     2
370
     9
100
AcDbCircle
 10
4.999991752005826
 20
-18.26890470241818
 30
0.0
 40
7.500000483280904
100
AcDbArc
 50
270.0
 51
90.0
  0
ARC
  5
4B7
330
1F
100
AcDbEntity
  8
躯体
  6
Continuous
 62
     2
370
     9
100
AcDbCircle
 10
-4.999991752006025
 20
-18.26890470241818
 30
0.0
 40
7.500000483280904
100
AcDbArc
 50
90.0
 51
270.0
  0
ARC
  5
4B8
330
1F
100
AcDbEntity
  8
躯体
  6
Continuous
 62
     2
370
     9
100
AcDbCircle
 10
0.0
 20
282.7308759009392
 30
0.0
 40
249.9993277884818
100
AcDbArc
 50
180.0000152587891
 51
359.9999847412109
  0
ARC
  5
4B9
330
1F
100
AcDbEntity
  8
躯体
  6
Continuous
 62
     2
370
     9
100
AcDbCircle
 10
0.0
 20
282.7308759009392
 30
0.0
 40
278.999912158863
100
AcDbArc
 50
359.9999847412109
 51
180.000015258789
  0
ARC
  5
4BA
330
1F
100
AcDbEntity
  8
躯体
  6
Continuous
 62
     2
370
     9
100
AcDbCircle
 10
-282.7008881440034
 20
-368.5953871143956
 30
0.0
 40
2.000000049939027
100
AcDbArc
 50
317.76220703125
 51
355.9854278564453
  0
ARC
  5
4BB
330
1F
100
AcDbEntity
  8
躯体
  6
Continuous
 62
     2
370
     9
100
AcDbCircle
 10
282.7010613518791
 20
-368.5953871143956
 30
0.0
 40
2.000000049939027
100
AcDbArc
 50
184.0145721435547
 51
222.23779296875
  0
ARC
  5
4BC
330
1F
100
AcDbEntity
  8
建具
  6
Continuous
 62
     4
370
     9
100
AcDbCircle
 10
-203.50002804318
 20
-599.9260669305643
 30
0.0
 40
2.999999990334382
100
AcDbArc
 50
180.0
 51
270.0
  0
ARC
  5
4BD
330
1F
100
AcDbEntity
  8
建具
  6
JWW_CENTER1
 62
     4
370
     9
100
AcDbCircle
 10
-203.5003744589317
 20
-599.9260669305643
 30
0.0
 40
6.499999697143967
100
AcDbArc
 50
180.0
 51
270.0
  0
ARC
  5
4BE
330
1F
100
AcDbEntity
  8
建具
  6
Continuous
 62
     4
370
     9
100
AcDbCircle
 10
-203.5003744589317
 20
-599.9260669305643
 30
0.0
 40
10.00000041884345
100
AcDbArc
 50
180.0
 51
270.0
  0
ARC
  5
4BF
330
1F
100
AcDbEntity
  8
建具
  6
Continuous
 62
     4
370
     9
100
AcDbCircle
 10
-90.7086181640625
 20
-612.9260974481424
 30
0.0
 40
2.999999990334382
100
AcDbArc
 50
22.48037719726562
 51
90.0
  0
ARC
  5
4C0
330
1F
100
AcDbEntity
  8
建具
  6
Continuous
 62
     4
370
     9
100
AcDbCircle
 10
-90.7086181640625
 20
-612.9260974481424
 30
0.0
 40
10.00000041884345
100
AcDbArc
 50
22.47953796386717
 51
89.99999999999999
  0
ARC
  5
4C1
330
1F
100
AcDbEntity
  8
建具
  6
Continuous
 62
     4
370
     9
100
AcDbCircle
 10
-75.0002226958405
 20
-606.4260388873845
 30
0.0
 40
6.999999413619171
100
AcDbArc
 50
202.4791870117188
 51
163.9838256835939
  0
ARC
  5
4C2
330
1F
100
AcDbEntity
  8
建具
  6
Continuous
 62
     4
370
     9
100
AcDbCircle
 10
-75.0002226958405
 20
-606.4260388873845
 30
0.0
 40
13.99999882723834
100
AcDbArc
 50
202.4794616699219
 51
155.0050354003906
  0
ARC
  5
4C3
330
1F
100
AcDbEntity
  8
建具
  6
Continuous
 62
     4
370
     9
100
AcDbCircle
 10
-215.6237133129224
 20
-590.2261660714533
 30
0.0
 40
2.800173413109135
100
AcDbArc
 50
47.92556762695313
 51
132.0746307373047
  0
ARC
  5
4C4
330
1F
100
AcDbEntity
  8
建具
  6
Continuous
 62
     4
370
     9
100
AcDbCircle
 10
-210.0
 20
-597.5155329224352
 30
0.0
 40
10.08940883584925
100
AcDbArc
 50
68.19786071777344
 51
111.8021392822266
  0
ARC
  5
4C5
330
1F
100
AcDbEntity
  8
建具
  6
Continuous
 62
     4
370
     9
100
AcDbCircle
 10
-204.3766331028295
 20
-590.2261660714533
 30
0.0
 40
2.800189820495812
100
AcDbArc
 50
47.92572021484374
 51
132.0742797851562
  0
ARC
  5
4C6
330
1F
100
AcDbEntity
  8
建具
  6
Continuous
 62
     4
370
     9
100
AcDbCircle
 10
8.499483675570048
 20
-372.8467311250323
 30
0.0
 40
5.000000209421725
100
AcDbArc
 50
130.8322296142578
 51
180.0
  0
ARC
  5
4C7
330
1F
100
AcDbEntity
  8
建具
  6
Continuous
 62
     4
370
     9
100
AcDbCircle
 10
-8.500522922825212
 20
-372.8467311250323
 30
0.0
 40
5.000000209421725
100
AcDbArc
 50
0.0
 51
49.16777038574219
  0
ARC
  5
4C8
330
1F
100
AcDbEntity
  8
建具
  6
Continuous
 62
     4
370
     9
100
AcDbCircle
 10
-0.0005196236275822
 20
-363.0105156676315
 30
0.0
 40
8.000000199756109
100
AcDbArc
 50
310.8321380615234
 51
229.1678619384766
  0
ARC
  5
4C9
330
1F
100
AcDbEntity
  8
建具
  6
Continuous
 62
     4
370
     9
100
AcDbCircle
 10
-0.0005196236275822
 20
-366.7605094816359
 30
0.0
 40
1.249991764087935
100
AcDbArc
 50
216.8681945800782
 51
323.1318054199219
  0
ARC
  5
4CA
330
1F
100
AcDbEntity
  8
建具
  6
Continuous
 62
     4
370
     9
100
AcDbCircle
 10
-0.0005196236275822
 20
-359.260565155596
 30
0.0
 40
1.249991764087935
100
AcDbArc
 50
36.86819458007812
 51
143.1318054199219
  0
ARC
  5
4CB
330
1F
100
AcDbEntity
  8
建具
  6
Continuous
 62
     4
370
     9
100
AcDbCircle
 10
-0.0005196236275822
 20
-363.0105156676315
 30
0.0
 40
4.500000154649889
100
AcDbArc
 50
102.8397979736328
 51
257.1602020263672
  0
ARC
  5
4CC
330
1F
100
AcDbEntity
  8
建具
  6
Continuous
 62
     4
370
     9
100
AcDbCircle
 10
-0.0005196236275822
 20
-363.0105156676315
 30
0.0
 40
4.500000154649889
100
AcDbArc
 50
282.8397979736328
 51
77.1602020263672
  0
ARC
  5
4CD
330
1F
100
AcDbEntity
  8
建具
  6
Continuous
 62
     4
370
     9
100
AcDbCircle
 10
-0.0005196236275822
 20
-363.0105156676315
 30
0.0
 40
3.499999706809585
100
AcDbArc
 50
106.6018218994141
 51
253.398178100586
  0
ARC
  5
4CE
330
1F
100
AcDbEntity
  8
建具
  6
Continuous
 62
     4
370
     9
100
AcDbCircle
 10
-0.0005196236275822
 20
-363.0105156676315
 30
0.0
 40
3.499999706809585
100
AcDbArc
 50
286.6018218994141
 51
73.39817810058597
  0
ARC
  5
4CF
330
1F
100
AcDbEntity
  8
建具
  6
Continuous
 62
     4
370
     9
100
AcDbCircle
 10
-0.0005196236275822
 20
-395.5106352635457
 30
0.0
 40
3.49999903021632
100
AcDbArc
 50
180.0
 51
0.0
  0
ARC
  5
4D0
330
1F
100
AcDbEntity
  8
建具
  6
Continuous
 62
     4
370
     9
100
AcDbCircle
 10
-0.0005196236275822
 20
-396.0106864011091
 30
0.0
 40
8.999954300957757
100
AcDbArc
 50
0.0
 51
67.11415100097656
  0
ARC
  5
4D1
330
1F
100
AcDbEntity
  8
建具
  6
Continuous
 62
     4
370
     9
100
AcDbCircle
 10
-0.0005196236275822
 20
-396.0106864011091
 30
0.0
 40
8.999954300957757
100
AcDbArc
 50
112.8858489990234
 51
180.0
  0
ARC
  5
4D2
330
1F
100
AcDbEntity
  8
建具
  6
Continuous
 62
     4
370
     9
100
AcDbCircle
 10
-0.0005196236275822
 20
-396.0106864011091
 30
0.0
 40
3.999988259495916
100
AcDbArc
 50
0.0
 51
28.95379638671875
  0
ARC
  5
4D3
330
1F
100
AcDbEntity
  8
建具
  6
Continuous
 62
     4
370
     9
100
AcDbCircle
 10
-0.0005196236275822
 20
-396.0106864011091
 30
0.0
 40
3.999988259495916
100
AcDbArc
 50
151.0462036132813
 51
180.0
  0
ARC
  5
4D4
330
1F
100
AcDbEntity
  8
建具
  6
Continuous
 62
     4
370
     9
100
AcDbCircle
 10
-0.0005196236275822
 20
-420.0106294899498
 30
0.0
 40
3.999988259495916
100
AcDbArc
 50
180.0
 51
231.3179168701172
  0
ARC
  5
4D5
330
1F
100
AcDbEntity
  8
建具
  6
Continuous
 62
     4
370
     9
100
AcDbCircle
 10
-0.0005196236275822
 20
-420.0106294899498
 30
0.0
 40
3.999988259495916
100
AcDbArc
 50
308.6820831298828
 51
0.0000000000000064
  0
ARC
  5
4D6
330
1F
100
AcDbEntity
  8
建具
  6
Continuous
 62
     4
370
     9
100
AcDbCircle
 10
-0.0005196236275822
 20
-420.0106294899498
 30
0.0
 40
8.999954300957757
100
AcDbArc
 50
180.0
 51
253.8723754882812
  0
ARC
  5
4D7
330
1F
100
AcDbEntity
  8
建具
  6
Continuous
 62
     4
370
     9
100
AcDbCircle
 10
-0.0005196236275822
 20
-420.0106294899498
 30
0.0
 40
8.999954300957757
100
AcDbArc
 50
286.1276245117188
 51
0.0
  0
ARC
  5
4D8
330
1F
100
AcDbEntity
  8
建具
  6
Continuous
 62
     4
370
     9
100
AcDbCircle
 10
-0.0005196236275822
 20
-421.5106529967331
 30
0.0
 40
2.500000104710863
100
AcDbArc
 50
0.0
 51
180.0
  0
ARC
  5
4D9
330
1F
100
AcDbEntity
  8
建具
  6
Continuous
 62
     4
370
     9
100
AcDbCircle
 10
-0.0005196236275822
 20
-460.0106501099351
 30
0.0
 40
8.999954300957757
100
AcDbArc
 50
0.0
 51
73.87237548828125
  0
ARC
  5
4DA
330
1F
100
AcDbEntity
  8
建具
  6
Continuous
 62
     4
370
     9
100
AcDbCircle
 10
-0.0005196236275822
 20
-460.0106501099351
 30
0.0
 40
8.999954300957757
100
AcDbArc
 50
106.1276245117188
 51
180.0
  0
ARC
  5
4DB
330
1F
100
AcDbEntity
  8
建具
  6
Continuous
 62
     4
370
     9
100
AcDbCircle
 10
-0.0005196236275822
 20
-460.0106501099351
 30
0.0
 40
3.999988259495916
100
AcDbArc
 50
0.0
 51
51.31791687011719
  0
ARC
  5
4DC
330
1F
100
AcDbEntity
  8
建具
  6
Continuous
 62
     4
370
     9
100
AcDbCircle
 10
-0.0005196236275822
 20
-460.0106501099351
 30
0.0
 40
3.999988259495916
100
AcDbArc
 50
128.6820831298828
 51
180.0
  0
ARC
  5
4DD
330
1F
100
AcDbEntity
  8
建具
  6
Continuous
 62
     4
370
     9
100
AcDbCircle
 10
-0.0005196236275822
 20
-458.5106699051209
 30
0.0
 40
2.500000104710863
100
AcDbArc
 50
180.0
 51
0.0
  0
ARC
  5
4DE
330
1F
100
AcDbEntity
  8
建具
  6
Continuous
 62
     4
370
     9
100
AcDbCircle
 10
-0.0005196236275822
 20
-484.0106798027139
 30
0.0
 40
3.999988259495916
100
AcDbArc
 50
180.0
 51
231.3179168701172
  0
ARC
  5
4DF
330
1F
100
AcDbEntity
  8
建具
  6
Continuous
 62
     4
370
     9
100
AcDbCircle
 10
-0.0005196236275822
 20
-484.0106798027139
 30
0.0
 40
3.999988259495916
100
AcDbArc
 50
308.6820831298828
 51
0.0000000000000064
  0
ARC
  5
4E0
330
1F
100
AcDbEntity
  8
建具
  6
Continuous
 62
     4
370
     9
100
AcDbCircle
 10
-0.0005196236275822
 20
-484.0106798027139
 30
0.0
 40
8.999954300957757
100
AcDbArc
 50
180.0
 51
253.8723754882812
  0
ARC
  5
4E1
330
1F
100
AcDbEntity
  8
建具
  6
Continuous
 62
     4
370
     9
100
AcDbCircle
 10
-0.0005196236275822
 20
-484.0106798027139
 30
0.0
 40
8.999954300957757
100
AcDbArc
 50
286.1276245117188
 51
0.0
  0
ARC
  5
4E2
330
1F
100
AcDbEntity
  8
建具
  6
Continuous
 62
     4
370
     9
100
AcDbCircle
 10
-0.0005196236275822
 20
-485.510660007528
 30
0.0
 40
2.500000104710863
100
AcDbArc
 50
0.0
 51
180.0
  0
ARC
  5
4E3
330
1F
100
AcDbEntity
  8
仕上
  6
Continuous
 62
     3
370
     9
100
AcDbCircle
 10
-0.0005196236275822
 20
-361.5105354628173
 30
0.0
 40
16.50000011598742
100
AcDbArc
 50
189.9415588378906
 51
257.7531890869141
  0
ARC
  5
4E4
330
1F
100
AcDbEntity
  8
仕上
  6
Continuous
 62
     3
370
     9
100
AcDbCircle
 10
-0.0005196236275822
 20
-361.5105354628173
 30
0.0
 40
16.50000011598742
100
AcDbArc
 50
282.2468109130859
 51
350.0584411621094
  0
ARC
  5
4E5
330
1F
100
AcDbEntity
  8
建具
  6
JWW_CENTER1
 62
     4
370
     9
100
AcDbCircle
 10
-10.00032991976357
 20
-596.4261419873105
 30
0.0
 40
10.00000041884345
100
AcDbArc
 50
270.0
 51
0.0
  0
ARC
  5
4E6
330
1F
100
AcDbEntity
  8
躯体
  6
Continuous
 62
     2
370
     9
100
AcDbCircle
 10
0.0
 20
282.7308759009392
 30
0.0
 40
283.0000397965715
100
AcDbArc
 50
0.0
 51
180.0
  0
ARC
  5
4E7
330
1F
100
AcDbEntity
  8
躯体
  6
Continuous
 62
     2
370
     9
100
AcDbCircle
 10
0.0
 20
282.7308759009392
 30
0.0
 40
308.9998626708984
100
AcDbArc
 50
4.109405517578138
 51
85.89057922363283
  0
ARC
  5
4E8
330
1F
100
AcDbEntity
  8
躯体
  6
Continuous
 62
     2
370
     9
100
AcDbCircle
 10
0.0
 20
282.7308759009392
 30
0.0
 40
307.0000478383657
100
AcDbArc
 50
4.513183593750009
 51
85.48680114746095
  0
ARC
  5
4E9
330
1F
100
AcDbEntity
  8
躯体
  6
Continuous
 62
     2
370
     9
100
AcDbCircle
 10
0.0
 20
282.7308759009392
 30
0.0
 40
294.00012557571
100
AcDbArc
 50
4.650695800781258
 51
85.34927368164064
  0
ARC
  5
4EA
330
1F
100
AcDbEntity
  8
躯体
  6
Continuous
 62
     2
370
     9
100
AcDbCircle
 10
0.0
 20
282.7308759009392
 30
0.0
 40
292.0000076293945
100
AcDbArc
 50
4.291442871093754
 51
85.70855712890626
  0
ARC
  5
4EB
330
1F
100
AcDbEntity
  8
躯体
  6
Continuous
 62
     2
370
     9
100
AcDbCircle
 10
0.0
 20
282.7308759009392
 30
0.0
 40
292.0000076293945
100
AcDbArc
 50
94.29144287109375
 51
175.7085571289063
  0
ARC
  5
4EC
330
1F
100
AcDbEntity
  8
躯体
  6
Continuous
 62
     2
370
     9
100
AcDbCircle
 10
0.0
 20
282.7308759009392
 30
0.0
 40
294.00012557571
100
AcDbArc
 50
94.65072631835938
 51
175.3493041992187
  0
ARC
  5
4ED
330
1F
100
AcDbEntity
  8
躯体
  6
Continuous
 62
     2
370
     9
100
AcDbCircle
 10
0.0
 20
282.7308759009392
 30
0.0
 40
307.0000478383657
100
AcDbArc
 50
94.513198852539
 51
175.48681640625
  0
ARC
  5
4EE
330
1F
100
AcDbEntity
  8
躯体
  6
Continuous
 62
     2
370
     9
100
AcDbCircle
 10
0.0
 20
282.7308759009392
 30
0.0
 40
308.9998626708984
100
AcDbArc
 50
94.10942077636719
 51
175.8905944824219
  0
TEXT
  5
4EF
330
1F
100
AcDbEntity
  8
その他
  6
Continuous
 62
     2
370
     0
100
AcDbText
 10
115.9132162558066
 20
643.044554018021
 30
0.0
 40
21.336
  1
反対側鋳出は ＫＡＮＥＳＯ
 41
1.115
  7
ＭＳ ゴシック
100
AcDbText
  0
TEXT
  5
4F0
330
1F
100
AcDbEntity
  8
0-E
  6
Continuous
 62
     6
370
     0
100
AcDbText
 10
347.7140451792124
 20
-238.9787077997049
 30
0.0
 40
21.336
  1
枠：ＦＣ２００
 41
0.7928571428571427
  7
ＭＳ ゴシック
100
AcDbText
  0
TEXT
  5
4F1
330
1F
100
AcDbEntity
  8
0-E
  6
Continuous
 62
     6
370
     0
100
AcDbText
 10
372.0795434900232
 20
-155.1773599125111
 30
0.0
 40
21.336
  1
蓋：ＦＣ２００
 41
0.7928571428571431
  7
ＭＳ ゴシック
100
AcDbText
  0
TEXT
  5
4F2
330
1F
100
AcDbEntity
  8
0-E
  6
Continuous
 62
     6
370
     0
100
AcDbText
 10
394.4794568860854
 20
-190.1773021765526
 30
0.0
 40
21.336
  1
樹脂系塗装
 41
0.7900000000000001
  7
ＭＳ ゴシック
100
AcDbText
  0
TEXT
  5
4F3
330
1F
100
AcDbEntity
  8
0-E
  6
Continuous
 62
     6
370
     0
100
AcDbText
 10
364.9423178183066
 20
-273.9787366676842
 30
0.0
 40
21.336
  1
樹脂系塗装
 41
0.7899999999999996
  7
ＭＳ ゴシック
100
AcDbText
  0
TEXT
  5
4F4
330
1F
100
AcDbEntity
  8
0-E
  6
Continuous
 62
     6
370
     0
100
AcDbText
 10
136.0594659753747
 20
-559.9086959390895
 30
0.0
 40
21.336
  1
鎖：ＳＷＲＭ
 41
0.7916666666666666
  7
ＭＳ ゴシック
100
AcDbText
  0
TEXT
  5
4F5
330
1F
100
AcDbEntity
  8
0-E
  6
Continuous
 62
     6
370
     0
100
AcDbText
 10
55.82754384633655
 20
-594.9087248070688
 30
0.0
 40
21.336
  1
電気亜鉛めっき，φ５×５００
 41
0.7964285714285714
  7
ＭＳ ゴシック
100
AcDbText
  0
TEXT
  5
4F6
330
1F
100
AcDbEntity
  8
その他
  6
Continuous
 62
     3
370
     0
100
AcDbText
 10
40.96722711676509
 20
-384.9428737443972
 30
0.0
 40
21.336
  1
6
 50
90.0
 41
0.6749999999999972
  7
ＭＳ ゴシック
100
AcDbText
  0
TEXT
  5
4F7
330
1F
100
AcDbEntity
  8
その他
  6
Continuous
 62
     3
370
     0
100
AcDbText
 10
42.01340268686659
 20
-320.0799883981134
 30
0.0
 40
21.336
  1
5
 50
90.0
 41
0.6750000000000007
  7
ＭＳ ゴシック
100
AcDbText
  0
TEXT
  5
4F8
330
1F
100
AcDbEntity
  8
その他
  6
Continuous
 62
     4
370
     0
100
AcDbText
 10
68.12005534633818
 20
525.792286599677
 30
0.0
 40
13.335
  1
Ｋ
 50
163.29907192999
 41
1.000000000000001
  7
ＭＳ ゴシック
100
AcDbText
  0
TEXT
  5
4F9
330
1F
100
AcDbEntity
  8
その他
  6
Continuous
 62
     4
370
     0
100
AcDbText
 10
51.02045320234033
 20
530.1518885480834
 30
0.0
 40
13.335
  1
Ｃ
 50
167.4993636789498
 41
1.0
  7
ＭＳ ゴシック
100
AcDbText
  0
TEXT
  5
4FA
330
1F
100
AcDbEntity
  8
その他
  6
Continuous
 62
     4
370
     0
100
AcDbText
 10
84.85471721584221
 20
520.192360433774
 30
0.0
 40
13.335
  1
Ｍ
 50
159.1005729008279
 41
0.9999999999999988
  7
ＭＳ ゴシック
100
AcDbText
  0
TEXT
  5
4FB
330
1F
100
AcDbEntity
  8
その他
  6
Continuous
 62
     4
370
     0
100
AcDbText
 10
-1.544154653767237
 20
535.5863381456658
 30
0.0
 40
13.335
  1
２
 50
180.1003750461376
  7
ＭＳ ゴシック
100
AcDbText
  0
TEXT
  5
4FC
330
1F
100
AcDbEntity
  8
その他
  6
Continuous
 62
     4
370
     0
100
AcDbText
 10
-36.7002153099493
 20
532.7591438623867
 30
0.0
 40
13.335
  1
５
 50
188.5000609600428
 41
0.999999999999999
  7
ＭＳ ゴシック
100
AcDbText
  0
TEXT
  5
4FD
330
1F
100
AcDbEntity
  8
その他
  6
Continuous
 62
     4
370
     0
100
AcDbText
 10
-54.0284582496696
 20
529.4231777166488
 30
0.0
 40
13.335
  1
０
 50
192.700542880697
 41
0.999999999999999
  7
ＭＳ ゴシック
100
AcDbText
  0
TEXT
  5
4FE
330
1F
100
AcDbEntity
  8
その他
  6
Continuous
 62
     4
370
     0
100
AcDbText
 10
-71.06611027551223
 20
524.8266971283589
 30
0.0
 40
13.335
  1
０
 50
196.8994316927014
 41
1.000000000000001
  7
ＭＳ ゴシック
100
AcDbText
  0
TEXT
  5
4FF
330
1F
100
AcDbEntity
  8
その他
  6
Continuous
 62
     4
370
     0
100
AcDbText
 10
-19.17388133676922
 20
534.8173112617502
 30
0.0
 40
13.335
  1
－
 50
184.3003220194497
 41
1.0
  7
ＭＳ ゴシック
100
AcDbText
  0
TEXT
  5
500
330
1F
100
AcDbEntity
  8
その他
  6
Continuous
 62
     4
370
     0
100
AcDbText
 10
33.64744347438143
 20
533.2475467425672
 30
0.0
 40
13.335
  1
Ｙ
 50
171.6999966517902
 41
1.000000000000001
  7
ＭＳ ゴシック
100
AcDbText
  0
TEXT
  5
501
330
1F
100
AcDbEntity
  8
その他
  6
Continuous
 62
     4
370
     0
100
AcDbText
 10
16.09455437697058
 20
535.0621135253582
 30
0.0
 40
13.335
  1
－
 50
175.8998379448506
 41
1.000000000000001
  7
ＭＳ ゴシック
100
AcDbText
  0
TEXT
  5
502
330
1F
100
AcDbEntity
  8
その他
  6
Continuous
 62
     3
370
     0
100
AcDbText
 10
-38.84991339606215
 20
-202.3210795598929
 30
0.0
 40
21.336
  1
φ６４０
 41
0.6937500000000002
  7
ＭＳ ゴシック
100
AcDbText
  0
TEXT
  5
503
330
1F
100
AcDbEntity
  8
その他
  6
Continuous
 62
     3
370
     0
100
AcDbText
 10
-38.85008660393791
 20
-258.3210911070846
 30
0.0
 40
21.336
  1
φ５４３
 41
0.6937500000000002
  7
ＭＳ ゴシック
100
AcDbText
  0
TEXT
  5
504
330
1F
100
AcDbEntity
  8
その他
  6
Continuous
 62
     3
370
     0
100
AcDbText
 10
-92.85379077808284
 20
-468.3211777110225
 30
0.0
 40
21.336
  1
φ５００
 41
0.6937500000000002
  7
ＭＳ ゴシック
100
AcDbText
  0
TEXT
  5
505
330
1F
100
AcDbEntity
  8
その他
  6
Continuous
 62
     3
370
     0
100
AcDbText
 10
429.0518573097023
 20
253.6810491088149
 30
0.0
 40
21.336
  1
６０２
 50
90.0
 41
0.691666666666667
  7
ＭＳ ゴシック
100
AcDbText
  0
LWPOLYLINE
  5
506
330
1F
100
AcDbEntity
  8
その他
  6
Continuous
 62
     7
370
     9
100
AcDbPolyline
 90
        4
 70
     1
 43
0.7000000000000001
 10
48.28224850216433
 20
-345.6625344466644
 42
0.4142135623731
 10
47.93224850216433
 20
-345.3125344466644
 42
0.4142135623731
 10
47.58224850216433
 20
-345.6625344466644
 42
0.4142135623731
 10
47.93224850216433
 20
-346.0125344466644
 42
0.4142135623731
  0
LINE
  5
507
330
1F
100
AcDbEntity
  8
その他
  6
Continuous
 62
     7
370
     9
100
AcDbLine
 10
8.74985566010335
 20
-24.76411344265256
 30
0.0
 11
49.89027693464936
 21
-96.02140054542923
 31
0.0
  0
LINE
  5
508
330
1F
100
AcDbEntity
  8
その他
  6
Continuous
 62
     7
370
     9
100
AcDbLine
 10
49.89027693464936
 20
-96.02140054542923
 30
0.0
 11
206.5982839223501
 21
-96.02140054542923
 31
0.0
  0
TEXT
  5
509
330
1F
100
AcDbEntity
  8
その他
  6
Continuous
 62
     6
370
     0
100
AcDbText
 10
49.89029079127942
 20
-88.57338899823752
 30
0.0
 40
21.336
  1
４－１５×２５
 41
0.792857142857143
  7
ＭＳ ゴシック
100
AcDbText
  0
LINE
  5
50A
330
1F
100
AcDbEntity
  8
仕上
  6
Continuous
 62
     3
370
     9
100
AcDbLine
 10
83.00000164959872
 20
298.7310400360213
 30
0.0
 11
55.0000824795987
 21
298.7310400360213
 31
0.0
  0
LINE
  5
50B
330
1F
100
AcDbEntity
  8
仕上
  6
Continuous
 62
     3
370
     9
100
AcDbLine
 10
83.00000164959872
 20
316.7307158898538
 30
0.0
 11
55.0000824795987
 21
316.7307158898538
 31
0.0
  0
LINE
  5
50C
330
1F
100
AcDbEntity
  8
仕上
  6
Continuous
 62
     3
370
     9
100
AcDbLine
 10
55.0000824795987
 20
298.7310400360213
 30
0.0
 11
55.0000824795987
 21
316.7307158898538
 31
0.0
  0
LINE
  5
50D
330
1F
100
AcDbEntity
  8
仕上
  6
Continuous
 62
     3
370
     9
100
AcDbLine
 10
-82.99982844172305
 20
298.7310400360213
 30
0.0
 11
-55.00008248172306
 21
298.7310400360213
 31
0.0
  0
LINE
  5
50E
330
1F
100
AcDbEntity
  8
仕上
  6
Continuous
 62
     3
370
     9
100
AcDbLine
 10
-82.99982844172305
 20
316.7307158898538
 30
0.0
 11
-55.00008248172306
 21
316.7307158898538
 31
0.0
  0
LINE
  5
50F
330
1F
100
AcDbEntity
  8
仕上
  6
Continuous
 62
     3
370
     9
100
AcDbLine
 10
-55.00008248172306
 20
298.7310400360213
 30
0.0
 11
-55.00008248172306
 21
316.7307158898538
 31
0.0
  0
LINE
  5
510
330
1F
100
AcDbEntity
  8
仕上
  6
Continuous
 62
     3
370
     9
100
AcDbLine
 10
-41.99996535876684
 20
298.7304338084559
 30
0.0
 11
-41.99996535876684
 21
316.7307158898538
 31
0.0
  0
LINE
  5
511
330
1F
100
AcDbEntity
  8
仕上
  6
Continuous
 62
     3
370
     9
100
AcDbLine
 10
-36.99997360676101
 20
298.7304338084559
 30
0.0
 11
-36.99997360676101
 21
316.7307158898538
 31
0.0
  0
LINE
  5
512
330
1F
100
AcDbEntity
  8
仕上
  6
Continuous
 62
     3
370
     9
100
AcDbLine
 10
-49.9999175204013
 20
298.7304338084559
 30
0.0
 11
-49.9999175204013
 21
316.7307158898538
 31
0.0
  0
LINE
  5
513
330
1F
100
AcDbEntity
  8
仕上
  6
Continuous
 62
     3
370
     9
100
AcDbLine
 10
-49.9999175204013
 20
316.7307158898538
 30
0.0
 11
-41.99996535876684
 21
316.7307158898538
 31
0.0
  0
LINE
  5
514
330
1F
100
AcDbEntity
  8
仕上
  6
Continuous
 62
     3
370
     9
100
AcDbLine
 10
-49.9999175204013
 20
298.7304338084559
 30
0.0
 11
-41.99996535876684
 21
298.7304338084559
 31
0.0
  0
LINE
  5
515
330
1F
100
AcDbEntity
  8
仕上
  6
Continuous
 62
     3
370
     9
100
AcDbLine
 10
-3.999889477221352
 20
298.7304338084559
 30
0.0
 11
-3.999889477221352
 21
316.7307158898538
 31
0.0
  0
LINE
  5
516
330
1F
100
AcDbEntity
  8
仕上
  6
Continuous
 62
     3
370
     9
100
AcDbLine
 10
-8.999881229227178
 20
298.7304338084559
 30
0.0
 11
-8.999881229227178
 21
316.7307158898538
 31
0.0
  0
LINE
  5
517
330
1F
100
AcDbEntity
  8
仕上
  6
Continuous
 62
     3
370
     9
100
AcDbLine
 10
-36.99997360676101
 20
316.7307158898538
 30
0.0
 11
-8.999881229227178
 21
316.7307158898538
 31
0.0
  0
LINE
  5
518
330
1F
100
AcDbEntity
  8
仕上
  6
Continuous
 62
     3
370
     9
100
AcDbLine
 10
-36.99997360676101
 20
298.7304338084559
 30
0.0
 11
-8.999881229227178
 21
298.7304338084559
 31
0.0
  0
LINE
  5
519
330
1F
100
AcDbEntity
  8
仕上
  6
Continuous
 62
     3
370
     9
100
AcDbLine
 10
-3.999889477221352
 20
316.7303694741021
 30
0.0
 11
3.999889476537057
 21
316.7303694741021
 31
0.0
  0
LINE
  5
51A
330
1F
100
AcDbEntity
  8
仕上
  6
Continuous
 62
     3
370
     9
100
AcDbLine
 10
3.999889476537057
 20
298.7304338084559
 30
0.0
 11
3.999889476537057
 21
316.7307158898538
 31
0.0
  0
LINE
  5
51B
330
1F
100
AcDbEntity
  8
仕上
  6
Continuous
 62
     3
370
     9
100
AcDbLine
 10
41.99996535808274
 20
298.7304338084559
 30
0.0
 11
41.99996535808274
 21
316.7307158898538
 31
0.0
  0
LINE
  5
51C
330
1F
100
AcDbEntity
  8
仕上
  6
Continuous
 62
     3
370
     9
100
AcDbLine
 10
36.99997360607691
 20
298.7304338084559
 30
0.0
 11
36.99997360607691
 21
316.7307158898538
 31
0.0
  0
LINE
  5
51D
330
1F
100
AcDbEntity
  8
仕上
  6
Continuous
 62
     3
370
     9
100
AcDbLine
 10
50.00009072759287
 20
298.7304338084559
 30
0.0
 11
50.00009072759287
 21
316.7307158898538
 31
0.0
  0
LINE
  5
51E
330
1F
100
AcDbEntity
  8
仕上
  6
Continuous
 62
     3
370
     9
100
AcDbLine
 10
50.00009072759287
 20
316.7307158898538
 30
0.0
 11
41.99996535808274
 21
316.7307158898538
 31
0.0
  0
LINE
  5
51F
330
1F
100
AcDbEntity
  8
仕上
  6
Continuous
 62
     3
370
     9
100
AcDbLine
 10
50.00009072759287
 20
298.7304338084559
 30
0.0
 11
41.99996535808274
 21
298.7304338084559
 31
0.0
  0
LINE
  5
520
330
1F
100
AcDbEntity
  8
仕上
  6
Continuous
 62
     3
370
     9
100
AcDbLine
 10
36.99997360607691
 20
316.7307158898538
 30
0.0
 11
8.999881228543082
 21
316.7307158898538
 31
0.0
  0
LINE
  5
521
330
1F
100
AcDbEntity
  8
仕上
  6
Continuous
 62
     3
370
     9
100
AcDbLine
 10
-3.999889477221352
 20
298.7304338084559
 30
0.0
 11
3.999889476537057
 21
298.7304338084559
 31
0.0
  0
LINE
  5
522
330
1F
100
AcDbEntity
  8
仕上
  6
Continuous
 62
     3
370
     9
100
AcDbLine
 10
8.999881228543082
 20
298.7304338084559
 30
0.0
 11
8.999881228543082
 21
316.7307158898538
 31
0.0
  0
LINE
  5
523
330
1F
100
AcDbEntity
  8
仕上
  6
Continuous
 62
     3
370
     9
100
AcDbLine
 10
36.99997360607691
 20
298.7304338084559
 30
0.0
 11
8.999881228543082
 21
298.7304338084559
 31
0.0
  0
LINE
  5
524
330
1F
100
AcDbEntity
  8
仕上
  6
Continuous
 62
     3
370
     9
100
AcDbLine
 10
-65.99999505120365
 20
291.7309303377001
 30
0.0
 11
-25.99988782728039
 21
291.7309303377001
 31
0.0
  0
LINE
  5
525
330
1F
100
AcDbEntity
  8
仕上
  6
Continuous
 62
     3
370
     9
100
AcDbLine
 10
-19.9999670080237
 20
291.7309303377001
 30
0.0
 11
19.9999670080237
 21
291.7309303377001
 31
0.0
  0
LINE
  5
526
330
1F
100
AcDbEntity
  8
仕上
  6
Continuous
 62
     3
370
     9
100
AcDbLine
 10
65.99999505120346
 20
291.7309303377001
 30
0.0
 11
26.00006103515625
 21
291.7309303377001
 31
0.0
  0
LINE
  5
527
330
1F
100
AcDbEntity
  8
仕上
  6
Continuous
 62
     3
370
     9
100
AcDbLine
 10
-65.99999505120365
 20
291.7309303377001
 30
0.0
 11
-65.99999505120365
 21
282.7308759009392
 31
0.0
  0
LINE
  5
528
330
1F
100
AcDbEntity
  8
仕上
  6
Continuous
 62
     3
370
     9
100
AcDbLine
 10
-25.99988782728039
 20
291.7309303377001
 30
0.0
 11
-25.99988782728039
 21
282.7308759009392
 31
0.0
  0
LINE
  5
529
330
1F
100
AcDbEntity
  8
仕上
  6
Continuous
 62
     3
370
     9
100
AcDbLine
 10
-19.9999670080237
 20
291.7309303377001
 30
0.0
 11
-19.9999670080237
 21
282.7308759009392
 31
0.0
  0
LINE
  5
52A
330
1F
100
AcDbEntity
  8
仕上
  6
Continuous
 62
     3
370
     9
100
AcDbLine
 10
19.9999670080237
 20
291.7309303377001
 30
0.0
 11
19.9999670080237
 21
282.7308759009392
 31
0.0
  0
LINE
  5
52B
330
1F
100
AcDbEntity
  8
仕上
  6
Continuous
 62
     3
370
     9
100
AcDbLine
 10
26.00006103515625
 20
291.7309303377001
 30
0.0
 11
26.00006103515625
 21
282.7308759009392
 31
0.0
  0
LINE
  5
52C
330
1F
100
AcDbEntity
  8
仕上
  6
Continuous
 62
     3
370
     9
100
AcDbLine
 10
65.99999505120346
 20
291.7309303377001
 30
0.0
 11
65.99999505120346
 21
282.7308759009392
 31
0.0
  0
TEXT
  5
52D
330
1F
100
AcDbEntity
  8
F-5ﾚｲﾔ
  6
Continuous
 62
     4
370
     9
100
AcDbText
 10
-8.494844591295418
 20
-777.4130878276823
 30
0.0
 40
18.669
  1
密閉型（防水・防臭型）　テーパ・パッキン式
 41
1.027210884353742
  7
ＭＳ ゴシック
100
AcDbText
  0
LINE
  5
52E
330
1F
100
AcDbEntity
  8
仕上
  6
Continuous
 62
     7
370
     9
100
AcDbLine
 10
398.9699239255178
 20
-408.4266599613393
 30
0.0
 11
398.9699239255178
 21
-344.4267395544823
 31
0.0
  0
LINE
  5
52F
330
1F
100
AcDbEntity
  8
仕上
  6
Continuous
 62
     7
370
     9
100
AcDbLine
 10
398.9699239255178
 20
-408.4266599613393
 30
0.0
 11
396.6857155616669
 21
-391.0763748872976
 31
0.0
  0
LINE
  5
530
330
1F
100
AcDbEntity
  8
仕上
  6
Continuous
 62
     7
370
     9
100
AcDbLine
 10
398.9699239255178
 20
-408.4266599613393
 30
0.0
 11
401.2541322893687
 21
-391.0763748872976
 31
0.0
  0
LINE
  5
531
330
1F
100
AcDbEntity
  8
仕上
  6
Continuous
 62
     7
370
     9
100
AcDbLine
 10
398.9699239255178
 20
-344.4267395544823
 30
0.0
 11
396.6857155616669
 21
-361.7770246285239
 31
0.0
  0
LINE
  5
532
330
1F
100
AcDbEntity
  8
仕上
  6
Continuous
 62
     7
370
     9
100
AcDbLine
 10
398.9699239255178
 20
-344.4267395544823
 30
0.0
 11
401.2541322893687
 21
-361.7770246285239
 31
0.0
  0
LINE
  5
533
330
1F
100
AcDbEntity
  8
仕上
  6
Continuous
 62
     7
370
     9
100
AcDbLine
 10
401.0699239255178
 20
-408.4266599613393
 30
0.0
 11
334.0001649598817
 21
-408.4266599613393
 31
0.0
  0
LINE
  5
534
330
1F
100
AcDbEntity
  8
仕上
  6
Continuous
 62
     7
370
     9
100
AcDbLine
 10
401.0699239255178
 20
-344.4267395544823
 30
0.0
 11
287.999963708826
 21
-344.4267395544823
 31
0.0
  0
TEXT
  5
535
330
1F
100
AcDbEntity
  8
仕上
  6
Continuous
 62
     3
370
   211
100
AcDbText
 10
388.0219239255178
 20
-395.6766997579108
 30
0.0
 40
21.336
  1
６４
 50
90.0
 41
0.6875
  7
ＭＳ ゴシック
100
AcDbText
  0
TEXT
  5
536
330
1F
100
AcDbEntity
  8
0-E
  6
Continuous
 62
     6
370
     0
100
AcDbText
 10
-526.7784359460678
 20
-154.7667203728443
 30
0.0
 40
21.336
  1
キャップ：クロロプレン
 41
0.7954545454545454
  7
ＭＳ ゴシック
100
AcDbText
  0
TEXT
  5
537
330
1F
100
AcDbEntity
  8
0-E
  6
Continuous
 62
     6
370
     0
100
AcDbText
 10
322.5759690835613
 20
-471.2447191463979
 30
0.0
 40
21.336
  1
パッキン：クロロプレン
 41
0.7954545454545454
  7
ＭＳ ゴシック
100
AcDbText
  0
LINE
  5
538
330
1F
100
AcDbEntity
  8
0-E
  6
Continuous
 62
     7
370
     9
100
AcDbLine
 10
317.7029955064928
 20
-478.0210648520698
 30
0.0
 11
567.6194206880289
 21
-478.0210648520698
 31
0.0
  0
LINE
  5
539
330
1F
100
AcDbEntity
  8
0-E
  6
Continuous
 62
     7
370
     9
100
AcDbLine
 10
-282.4543267327387
 20
-163.5595681380707
 30
0.0
 11
-522.1323201664338
 21
-163.5595681380707
 31
0.0
  0
TEXT
  5
53A
330
1F
100
AcDbEntity
  8
F-5ﾚｲﾔ
  6
Continuous
 62
     4
370
     9
100
AcDbText
 10
92.5546959850474
 20
-811.3576863030283
 30
0.0
 40
18.669
  1
マンホール鉄蓋　ＭＫＣＹ－２ー５００－ｂ
 41
1.027142857142857
  7
ＭＳ ゴシック
100
AcDbText
  0
ENDSEC
  0
SECTION
  2
OBJECTS
  0
DICTIONARY
  5
C
330
0
100
AcDbDictionary
281
     1
  3
ACAD_GROUP
350
D
  3
ACAD_LAYOUT
350
1A
  3
ACAD_MLEADERSTYLE
350
53C
  3
ACAD_MLINESTYLE
350
17
  3
ACAD_PLOTSETTINGS
350
19
  3
ACAD_PLOTSTYLENAME
350
E
  3
ACAD_TABLESTYLE
350
53B
  3
ACAD_VISUALSTYLE
350
2A
  0
DICTIONARY
  5
D
102
{ACAD_REACTORS
330
C
102
}
330
C
100
AcDbDictionary
281
     1
  0
DICTIONARY
  5
1A
102
{ACAD_REACTORS
330
C
102
}
330
C
100
AcDbDictionary
281
     1
  3
Layout1
350
1E
  3
Layout2
350
26
  3
Model
350
22
  0
DICTIONARY
  5
53C
102
{ACAD_REACTORS
330
C
102
}
330
C
100
AcDbDictionary
281
     1
  0
DICTIONARY
  5
17
102
{ACAD_REACTORS
330
C
102
}
330
C
100
AcDbDictionary
281
     1
  3
Standard
350
18
  0
DICTIONARY
  5
19
102
{ACAD_REACTORS
330
C
102
}
330
C
100
AcDbDictionary
281
     1
  0
ACDBDICTIONARYWDFLT
  5
E
102
{ACAD_REACTORS
330
C
102
}
330
C
100
AcDbDictionary
281
     1
  3
Normal
350
F
100
AcDbDictionaryWithDefault
340
F
  0
DICTIONARY
  5
53B
102
{ACAD_REACTORS
330
C
102
}
330
C
100
AcDbDictionary
281
     1
  0
DICTIONARY
  5
2A
102
{ACAD_REACTORS
330
C
102
}
330
C
100
AcDbDictionary
281
     1
  3
2dWireframe
350
2F
  3
3D Hidden
350
31
  3
3dWireframe
350
30
  3
Basic
350
32
  3
Brighten
350
36
  3
ColorChange
350
3A
  3
Conceptual
350
34
  3
Dim
350
35
  3
Facepattern
350
39
  3
Flat
350
2B
  3
FlatWithEdges
350
2C
  3
Gouraud
350
2D
  3
GouraudWithEdges
350
2E
  3
Linepattern
350
38
  3
Realistic
350
33
  3
Thicken
350
37
  0
LAYOUT
  5
1E
102
{ACAD_REACTORS
330
1A
102
}
330
1A
100
AcDbPlotSettings
  1

  2
none_device
  4

  6

 40
0.0
 41
0.0
 42
0.0
 43
0.0
 44
0.0
 45
0.0
 46
0.0
 47
0.0
 48
0.0
 49
0.0
140
0.0
141
0.0
142
1.0
143
1.0
 70
   688
 72
     0
 73
     0
 74
     5
  7

 75
    16
 76
     0
 77
     5
 78
   300
147
1.0
148
0.0
149
0.0
100
AcDbLayout
  1
Layout1
 70
     1
 71
     1
 10
0.0
 20
0.0
 11
420.0
 21
297.0
 12
0.0
 22
0.0
 32
0.0
 14
1.000000000000000E+20
 24
1.000000000000000E+20
 34
1.000000000000000E+20
 15
-1.000000000000000E+20
 25
-1.000000000000000E+20
 35
-1.000000000000000E+20
146
0.0
 13
0.0
 23
0.0
 33
0.0
 16
1.0
 26
0.0
 36
0.0
 17
0.0
 27
1.0
 37
0.0
 76
     0
330
1B
  0
LAYOUT
  5
26
102
{ACAD_REACTORS
330
1A
102
}
330
1A
100
AcDbPlotSettings
  1

  2
none_device
  4

  6

 40
0.0
 41
0.0
 42
0.0
 43
0.0
 44
0.0
 45
0.0
 46
0.0
 47
0.0
 48
0.0
 49
0.0
140
0.0
141
0.0
142
1.0
143
1.0
 70
   688
 72
     0
 73
     0
 74
     5
  7

 75
    16
 76
     0
 77
     5
 78
   300
147
1.0
148
0.0
149
0.0
100
AcDbLayout
  1
Layout2
 70
     1
 71
     2
 10
0.0
 20
0.0
 11
0.0
 21
0.0
 12
0.0
 22
0.0
 32
0.0
 14
0.0
 24
0.0
 34
0.0
 15
0.0
 25
0.0
 35
0.0
146
0.0
 13
0.0
 23
0.0
 33
0.0
 16
1.0
 26
0.0
 36
0.0
 17
0.0
 27
1.0
 37
0.0
 76
     0
330
23
  0
LAYOUT
  5
22
102
{ACAD_REACTORS
330
1A
102
}
330
1A
100
AcDbPlotSettings
  1

  2
none_device
  4

  6

 40
0.0
 41
0.0
 42
0.0
 43
0.0
 44
0.0
 45
0.0
 46
0.0
 47
0.0
 48
0.0
 49
0.0
140
0.0
141
0.0
142
1.0
143
1.0
 70
  1712
 72
     0
 73
     0
 74
     0
  7

 75
     0
 76
     0
 77
     5
 78
   300
147
1.0
148
0.0
149
0.0
100
AcDbLayout
  1
Model
 70
     1
 71
     0
 10
-1470.0
 20
-1039.5
 11
1470.0
 21
1039.5
 12
0.0
 22
0.0
 32
0.0
 14
-1470.0
 24
-1039.5
 34
0.0
 15
1470.0
 25
1039.5
 35
0.0
146
0.0
 13
0.0
 23
0.0
 33
0.0
 16
1.0
 26
0.0
 36
0.0
 17
0.0
 27
1.0
 37
0.0
 76
     0
330
1F
331
29
  0
MLINESTYLE
  5
18
102
{ACAD_REACTORS
330
17
102
}
330
17
100
AcDbMlineStyle
  2
Standard
 70
     0
  3

 62
   256
 51
90.0
 52
90.0
 71
     2
 49
0.5
 62
   256
  6
BYLAYER
 49
-0.5
 62
   256
  6
BYLAYER
  0
ACDBPLACEHOLDER
  5
F
102
{ACAD_REACTORS
330
E
102
}
330
E
  0
VISUALSTYLE
  5
2F
102
{ACAD_REACTORS
330
2A
102
}
330
2A
100
AcDbVisualStyle
  2
2dWireframe
 70
     4
 71
     0
 72
     2
 73
     0
 90
        0
 40
-0.6
 41
-30.0
 62
     5
 63
     7
421
 16777215
 74
     1
 91
        4
 64
     7
 65
   257
 75
     1
175
     1
 42
1.0
 92
        0
 66
   257
 43
1.0
 76
     1
 77
     6
 78
     2
 67
     7
 79
     5
170
     0
171
     0
290
     0
174
     0
 93
        1
 44
0.0
173
     0
291
     0
 45
0.0
1001
ACAD
1000
AcDbSavedByObjectVersion
1070
     0
  0
VISUALSTYLE
  5
31
102
{ACAD_REACTORS
330
2A
102
}
330
2A
100
AcDbVisualStyle
  2
3D Hidden
 70
     6
 71
     1
 72
     2
 73
     2
 90
        0
 40
-0.6
 41
-30.0
 62
     5
 63
     7
421
 16777215
 74
     2
 91
        2
 64
     7
 65
   257
 75
     2
175
     1
 42
40.0
 92
        0
 66
   257
 43
1.0
 76
     1
 77
     6
 78
     2
 67
     7
 79
     3
170
     0
171
     0
290
     0
174
     0
 93
        1
 44
0.0
173
     0
291
     0
 45
0.0
1001
ACAD
1000
AcDbSavedByObjectVersion
1070
     0
  0
VISUALSTYLE
  5
30
102
{ACAD_REACTORS
330
2A
102
}
330
2A
100
AcDbVisualStyle
  2
3dWireframe
 70
     5
 71
     0
 72
     2
 73
     0
 90
        0
 40
-0.6
 41
-30.0
 62
     5
 63
     7
421
 16777215
 74
     1
 91
        4
 64
     7
 65
   257
 75
     1
175
     1
 42
1.0
 92
        0
 66
   257
 43
1.0
 76
     1
 77
     6
 78
     2
 67
     7
 79
     5
170
     0
171
     0
290
     0
174
     0
 93
        1
 44
0.0
173
     0
291
     0
 45
0.0
1001
ACAD
1000
AcDbSavedByObjectVersion
1070
     0
  0
VISUALSTYLE
  5
32
102
{ACAD_REACTORS
330
2A
102
}
330
2A
100
AcDbVisualStyle
  2
Basic
 70
     7
 71
     1
 72
     0
 73
     1
 90
        0
 40
-0.6
 41
-30.0
 62
     5
 63
     7
421
 16777215
 74
     0
 91
        4
 64
     7
 65
   257
 75
     1
175
     1
 42
1.0
 92
        8
 66
     7
 43
1.0
 76
     1
 77
     6
 78
     2
 67
     7
 79
     5
170
     0
171
     0
290
     0
174
     0
 93
        1
 44
0.0
173
     0
291
     1
 45
0.0
1001
ACAD
1000
AcDbSavedByObjectVersion
1070
     0
  0
VISUALSTYLE
  5
36
102
{ACAD_REACTORS
330
2A
102
}
330
2A
100
AcDbVisualStyle
  2
Brighten
 70
    12
 71
     2
 72
     2
 73
     0
 90
        0
 40
-0.6
 41
-30.0
 62
     5
 63
     7
421
 16777215
 74
     1
 91
        4
 64
     7
 65
   257
 75
     1
175
     1
 42
1.0
 92
        8
 66
     7
 43
1.0
 76
     1
 77
     6
 78
     2
 67
     7
 79
     5
170
     0
171
     0
290
     0
174
     0
 93
        1
 44
50.0
173
     0
291
     1
 45
0.0
1001
ACAD
1000
AcDbSavedByObjectVersion
1070
     0
  0
VISUALSTYLE
  5
3A
102
{ACAD_REACTORS
330
2A
102
}
330
2A
100
AcDbVisualStyle
  2
ColorChange
 70
    16
 71
     2
 72
     2
 73
     3
 90
        0
 40
-0.6
 41
-30.0
 62
     5
 63
     8
421
  8421504
 74
     1
 91
        4
 64
     7
 65
   257
 75
     1
175
     1
 42
1.0
 92
        8
 66
     8
424
  8421504
 43
1.0
 76
     1
 77
     6
 78
     2
 67
     7
 79
     5
170
     0
171
     0
290
     0
174
     0
 93
        1
 44
0.0
173
     0
291
     1
 45
0.0
1001
ACAD
1000
AcDbSavedByObjectVersion
1070
     0
  0
VISUALSTYLE
  5
34
102
{ACAD_REACTORS
330
2A
102
}
330
2A
100
AcDbVisualStyle
  2
Conceptual
 70
     9
 71
     3
 72
     2
 73
     0
 90
        0
 40
-0.6
 41
-30.0
 62
     5
 63
     7
421
 16777215
 74
     2
 91
        2
 64
     7
 65
   257
 75
     1
175
     1
 42
40.0
 92
        8
 66
     7
 43
1.0
 76
     1
 77
     6
 78
     2
 67
     7
 79
     3
170
     0
171
     0
290
     0
174
     0
 93
        1
 44
0.0
173
     0
291
     0
 45
0.0
1001
ACAD
1000
AcDbSavedByObjectVersion
1070
     0
  0
VISUALSTYLE
  5
35
102
{ACAD_REACTORS
330
2A
102
}
330
2A
100
AcDbVisualStyle
  2
Dim
 70
    11
 71
     2
 72
     2
 73
     0
 90
        0
 40
-0.6
 41
-30.0
 62
     5
 63
     7
421
 16777215
 74
     1
 91
        4
 64
     7
 65
   257
 75
     1
175
     1
 42
1.0
 92
        8
 66
     7
 43
1.0
 76
     1
 77
     6
 78
     2
 67
     7
 79
     5
170
     0
171
     0
290
     0
174
     0
 93
        1
 44
-50.0
173
     0
291
     1
 45
0.0
1001
ACAD
1000
AcDbSavedByObjectVersion
1070
     0
  0
VISUALSTYLE
  5
39
102
{ACAD_REACTORS
330
2A
102
}
330
2A
100
AcDbVisualStyle
  2
Facepattern
 70
    15
 71
     2
 72
     2
 73
     0
 90
        0
 40
-0.6
 41
-30.0
 62
     5
 63
     7
421
 16777215
 74
     1
 91
        4
 64
     7
 65
   257
 75
     1
175
     1
 42
1.0
 92
        8
 66
     7
 43
1.0
 76
     1
 77
     6
 78
     2
 67
     7
 79
     5
170
     0
171
     0
290
     0
174
     0
 93
        1
 44
0.0
173
     0
291
     1
 45
0.0
1001
ACAD
1000
AcDbSavedByObjectVersion
1070
     0
  0
VISUALSTYLE
  5
2B
102
{ACAD_REACTORS
330
2A
102
}
330
2A
100
AcDbVisualStyle
  2
Flat
 70
     0
 71
     2
 72
     1
 73
     1
 90
        2
 40
-0.6
 41
30.0
 62
     5
 63
     7
421
 16777215
 74
     0
 91
        4
 64
     7
 65
   257
 75
     1
175
     1
 42
1.0
 92
        8
 66
     7
 43
1.0
 76
     1
 77
     6
 78
     2
 67
     7
 79
     5
170
     0
171
     0
290
     0
174
     0
 93
       13
 44
0.0
173
     0
291
     1
 45
0.0
1001
ACAD
1000
AcDbSavedByObjectVersion
1070
     0
  0
VISUALSTYLE
  5
2C
102
{ACAD_REACTORS
330
2A
102
}
330
2A
100
AcDbVisualStyle
  2
FlatWithEdges
 70
     1
 71
     2
 72
     1
 73
     1
 90
        2
 40
-0.6
 41
30.0
 62
     5
 63
     7
421
 16777215
 74
     1
 91
        4
 64
     7
 65
   257
 75
     1
175
     1
 42
1.0
 92
        0
 66
   257
 43
1.0
 76
     1
 77
     6
 78
     2
 67
     7
 79
     5
170
     0
171
     0
290
     0
174
     0
 93
       13
 44
0.0
173
     0
291
     1
 45
0.0
1001
ACAD
1000
AcDbSavedByObjectVersion
1070
     0
  0
VISUALSTYLE
  5
2D
102
{ACAD_REACTORS
330
2A
102
}
330
2A
100
AcDbVisualStyle
  2
Gouraud
 70
     2
 71
     2
 72
     2
 73
     1
 90
        2
 40
-0.6
 41
30.0
 62
     5
 63
     7
421
 16777215
 74
     0
 91
        4
 64
     7
 65
   257
 75
     1
175
     1
 42
1.0
 92
        0
 66
     7
 43
1.0
 76
     1
 77
     6
 78
     2
 67
     7
 79
     5
170
     0
171
     0
290
     0
174
     0
 93
       13
 44
0.0
173
     0
291
     1
 45
0.0
1001
ACAD
1000
AcDbSavedByObjectVersion
1070
     0
  0
VISUALSTYLE
  5
2E
102
{ACAD_REACTORS
330
2A
102
}
330
2A
100
AcDbVisualStyle
  2
GouraudWithEdges
 70
     3
 71
     2
 72
     2
 73
     1
 90
        2
 40
-0.6
 41
30.0
 62
     5
 63
     7
421
 16777215
 74
     1
 91
        4
 64
     7
 65
   257
 75
     1
175
     1
 42
1.0
 92
        0
 66
   257
 43
1.0
 76
     1
 77
     6
 78
     2
 67
     7
 79
     5
170
     0
171
     0
290
     0
174
     0
 93
       13
 44
0.0
173
     0
291
     1
 45
0.0
1001
ACAD
1000
AcDbSavedByObjectVersion
1070
     0
  0
VISUALSTYLE
  5
38
102
{ACAD_REACTORS
330
2A
102
}
330
2A
100
AcDbVisualStyle
  2
Linepattern
 70
    14
 71
     2
 72
     2
 73
     0
 90
        0
 40
-0.6
 41
-30.0
 62
     5
 63
     7
421
 16777215
 74
     1
 91
        4
 64
     7
 65
   257
 75
     7
175
     7
 42
1.0
 92
        8
 66
     7
 43
1.0
 76
     1
 77
     6
 78
     2
 67
     7
 79
     5
170
     0
171
     0
290
     0
174
     0
 93
        1
 44
0.0
173
     0
291
     1
 45
0.0
1001
ACAD
1000
AcDbSavedByObjectVersion
1070
     0
  0
VISUALSTYLE
  5
33
102
{ACAD_REACTORS
330
2A
102
}
330
2A
100
AcDbVisualStyle
  2
Realistic
 70
     8
 71
     2
 72
     2
 73
     0
 90
        0
 40
-0.6
 41
-30.0
 62
     5
 63
     7
421
 16777215
 74
     1
 91
        0
 64
     7
 65
   257
 75
     1
175
     1
 42
1.0
 92
        8
 66
     8
424
  7895160
 43
1.0
 76
     1
 77
     6
 78
     2
 67
     7
 79
     5
170
     0
171
     0
290
     0
174
     0
 93
       13
 44
0.0
173
     0
291
     0
 45
0.0
1001
ACAD
1000
AcDbSavedByObjectVersion
1070
     0
  0
VISUALSTYLE
  5
37
102
{ACAD_REACTORS
330
2A
102
}
330
2A
100
AcDbVisualStyle
  2
Thicken
 70
    13
 71
     2
 72
     2
 73
     0
 90
        0
 40
-0.6
 41
-30.0
 62
     5
 63
     7
421
 16777215
 74
     1
 91
        4
 64
     7
 65
   257
 75
     1
175
     1
 42
1.0
 92
       12
 66
     7
 43
1.0
 76
     1
 77
     6
 78
     2
 67
     7
 79
     5
170
     0
171
     0
290
     0
174
     0
 93
        1
 44
0.0
173
     0
291
     1
 45
0.0
1001
ACAD
1000
AcDbSavedByObjectVersion
1070
     0
  0
ENDSEC
  0
EOF
