  0
SECTION
  2
HEADER
  9
$ACADVER
  1
AC1018
  9
$ACADMAINTVER
 70
     0
  9
$DWGCODEPAGE
  3
ANSI_932
  9
$INSBASE
 10
0.0
 20
0.0
 30
0.0
  9
$EXTMIN
 10
-1470.0
 20
-1039.5
 30
0.0
  9
$EXTMAX
 10
1470.0
 20
1039.5
 30
0.0
  9
$LIMMIN
 10
-1470.0
 20
-1039.5
  9
$LIMMAX
 10
1470.0
 20
1039.5
  9
$ORTHOMODE
 70
     0
  9
$REGENMODE
 70
     1
  9
$FILLMODE
 70
     1
  9
$QTEXTMODE
 70
     0
  9
$MIRRTEXT
 70
     1
  9
$LTSCALE
 40
7.0
  9
$ATTMODE
 70
     1
  9
$TEXTSIZE
 40
2.5
  9
$TRACEWID
 40
1.0
  9
$TEXTSTYLE
  7
Standard
  9
$CLAYER
  8
0
  9
$CELTYPE
  6
ByLayer
  9
$CECOLOR
 62
   256
  9
$CELTSCALE
 40
1.0
  9
$DISPSILH
 70
     0
  9
$DIMSCALE
 40
1.0
  9
$DIMASZ
 40
2.5
  9
$DIMEXO
 40
0.625
  9
$DIMDLI
 40
3.75
  9
$DIMRND
 40
0.0
  9
$DIMDLE
 40
0.0
  9
$DIMEXE
 40
1.25
  9
$DIMTP
 40
0.0
  9
$DIMTM
 40
0.0
  9
$DIMTXT
 40
2.5
  9
$DIMCEN
 40
2.5
  9
$DIMTSZ
 40
0.0
  9
$DIMTOL
 70
     0
  9
$DIMLIM
 70
     0
  9
$DIMTIH
 70
     0
  9
$DIMTOH
 70
     0
  9
$DIMSE1
 70
     0
  9
$DIMSE2
 70
     0
  9
$DIMTAD
 70
     1
  9
$DIMZIN
 70
     8
  9
$DIMBLK
  1

  9
$DIMASO
 70
     1
  9
$DIMSHO
 70
     1
  9
$DIMPOST
  1

  9
$DIMAPOST
  1

  9
$DIMALT
 70
     0
  9
$DIMALTD
 70
     3
  9
$DIMALTF
 40
0.03937007874016
  9
$DIMLFAC
 40
1.0
  9
$DIMTOFL
 70
     1
  9
$DIMTVP
 40
0.0
  9
$DIMTIX
 70
     0
  9
$DIMSOXD
 70
     0
  9
$DIMSAH
 70
     0
  9
$DIMBLK1
  1

  9
$DIMBLK2
  1

  9
$DIMSTYLE
  2
ISO-25
  9
$DIMCLRD
 70
     0
  9
$DIMCLRE
 70
     0
  9
$DIMCLRT
 70
     0
  9
$DIMTFAC
 40
1.0
  9
$DIMGAP
 40
0.625
  9
$DIMJUST
 70
     0
  9
$DIMSD1
 70
     0
  9
$DIMSD2
 70
     0
  9
$DIMTOLJ
 70
     0
  9
$DIMTZIN
 70
     8
  9
$DIMALTZ
 70
     0
  9
$DIMALTTZ
 70
     0
  9
$DIMUPT
 70
     0
  9
$DIMDEC
 70
     2
  9
$DIMTDEC
 70
     2
  9
$DIMALTU
 70
     2
  9
$DIMALTTD
 70
     3
  9
$DIMTXSTY
  7
Standard
  9
$DIMAUNIT
 70
     0
  9
$DIMADEC
 70
     0
  9
$DIMALTRND
 40
0.0
  9
$DIMAZIN
 70
     0
  9
$DIMDSEP
 70
    44
  9
$DIMATFIT
 70
     3
  9
$DIMFRAC
 70
     0
  9
$DIMLDRBLK
  1

  9
$DIMLUNIT
 70
     2
  9
$DIMLWD
 70
    -2
  9
$DIMLWE
 70
    -2
  9
$DIMTMOVE
 70
     0
  9
$LUNITS
 70
     2
  9
$LUPREC
 70
     4
  9
$SKETCHINC
 40
1.0
  9
$FILLETRAD
 40
10.0
  9
$AUNITS
 70
     0
  9
$AUPREC
 70
     0
  9
$MENU
  1
.
  9
$ELEVATION
 40
0.0
  9
$PELEVATION
 40
0.0
  9
$THICKNESS
 40
0.0
  9
$LIMCHECK
 70
     0
  9
$CHAMFERA
 40
10.0
  9
$CHAMFERB
 40
10.0
  9
$CHAMFERC
 40
20.0
  9
$CHAMFERD
 40
0.0
  9
$SKPOLY
 70
     0
  9
$TDCREATE
 40
2457422.384299063
  9
$TDUCREATE
 40
2457422.009299063
  9
$TDUPDATE
 40
2457422.384299074
  9
$TDUUPDATE
 40
2457422.009299074
  9
$TDINDWG
 40
0.0000000116
  9
$TDUSRTIMER
 40
0.0000000116
  9
$USRTIMER
 70
     1
  9
$ANGBASE
 50
0.0
  9
$ANGDIR
 70
     0
  9
$PDMODE
 70
     0
  9
$PDSIZE
 40
0.0
  9
$PLINEWID
 40
0.0
  9
$SPLFRAME
 70
     0
  9
$SPLINETYPE
 70
     6
  9
$SPLINESEGS
 70
     8
  9
$HANDSEED
  5
57B
  9
$SURFTAB1
 70
     6
  9
$SURFTAB2
 70
     6
  9
$SURFTYPE
 70
     6
  9
$SURFU
 70
     6
  9
$SURFV
 70
     6
  9
$UCSBASE
  2

  9
$UCSNAME
  2

  9
$UCSORG
 10
0.0
 20
0.0
 30
0.0
  9
$UCSXDIR
 10
1.0
 20
0.0
 30
0.0
  9
$UCSYDIR
 10
0.0
 20
1.0
 30
0.0
  9
$UCSORTHOREF
  2

  9
$UCSORTHOVIEW
 70
     0
  9
$UCSORGTOP
 10
0.0
 20
0.0
 30
0.0
  9
$UCSORGBOTTOM
 10
0.0
 20
0.0
 30
0.0
  9
$UCSORGLEFT
 10
0.0
 20
0.0
 30
0.0
  9
$UCSORGRIGHT
 10
0.0
 20
0.0
 30
0.0
  9
$UCSORGFRONT
 10
0.0
 20
0.0
 30
0.0
  9
$UCSORGBACK
 10
0.0
 20
0.0
 30
0.0
  9
$PUCSBASE
  2

  9
$PUCSNAME
  2

  9
$PUCSORG
 10
0.0
 20
0.0
 30
0.0
  9
$PUCSXDIR
 10
1.0
 20
0.0
 30
0.0
  9
$PUCSYDIR
 10
0.0
 20
1.0
 30
0.0
  9
$PUCSORTHOREF
  2

  9
$PUCSORTHOVIEW
 70
     0
  9
$PUCSORGTOP
 10
0.0
 20
0.0
 30
0.0
  9
$PUCSORGBOTTOM
 10
0.0
 20
0.0
 30
0.0
  9
$PUCSORGLEFT
 10
0.0
 20
0.0
 30
0.0
  9
$PUCSORGRIGHT
 10
0.0
 20
0.0
 30
0.0
  9
$PUCSORGFRONT
 10
0.0
 20
0.0
 30
0.0
  9
$PUCSORGBACK
 10
0.0
 20
0.0
 30
0.0
  9
$USERI1
 70
     0
  9
$USERI2
 70
     0
  9
$USERI3
 70
     0
  9
$USERI4
 70
     0
  9
$USERI5
 70
     0
  9
$USERR1
 40
0.0
  9
$USERR2
 40
0.0
  9
$USERR3
 40
0.0
  9
$USERR4
 40
0.0
  9
$USERR5
 40
0.0
  9
$WORLDVIEW
 70
     1
  9
$SHADEDGE
 70
     3
  9
$SHADEDIF
 70
    70
  9
$TILEMODE
 70
     1
  9
$MAXACTVP
 70
    64
  9
$PINSBASE
 10
0.0
 20
0.0
 30
0.0
  9
$PLIMCHECK
 70
     0
  9
$PEXTMIN
 10
1.000000000000000E+20
 20
1.000000000000000E+20
 30
1.000000000000000E+20
  9
$PEXTMAX
 10
-1.000000000000000E+20
 20
-1.000000000000000E+20
 30
-1.000000000000000E+20
  9
$PLIMMIN
 10
0.0
 20
0.0
  9
$PLIMMAX
 10
420.0
 20
297.0
  9
$UNITMODE
 70
     0
  9
$VISRETAIN
 70
     1
  9
$PLINEGEN
 70
     0
  9
$PSLTSCALE
 70
     1
  9
$TREEDEPTH
 70
  3020
  9
$CMLSTYLE
  2
Standard
  9
$CMLJUST
 70
     0
  9
$CMLSCALE
 40
20.0
  9
$PROXYGRAPHICS
 70
     1
  9
$MEASUREMENT
 70
     1
  9
$CELWEIGHT
370
    -1
  9
$ENDCAPS
280
     0
  9
$JOINSTYLE
280
     0
  9
$LWDISPLAY
290
     0
  9
$INSUNITS
 70
     4
  9
$HYPERLINKBASE
  1

  9
$STYLESHEET
  1

  9
$XEDIT
290
     1
  9
$CEPSNTYPE
380
     0
  9
$PSTYLEMODE
290
     1
  9
$FINGERPRINTGUID
  2
{89254134-8A89-4356-8E9A-775479FC9A45}
  9
$VERSIONGUID
  2
{FAEB1C32-E019-11D5-929B-00C0DF256EC4}
  9
$EXTNAMES
290
     1
  9
$PSVPSCALE
 40
0.0
  9
$OLESTARTUP
290
     0
  9
$SORTENTS
280
   127
  9
$INDEXCTL
280
     0
  9
$HIDETEXT
280
     1
  9
$XCLIPFRAME
290
     0
  9
$HALOGAP
280
     0
  9
$OBSCOLOR
 70
   257
  9
$OBSLTYPE
280
     0
  9
$INTERSECTIONDISPLAY
280
     0
  9
$INTERSECTIONCOLOR
 70
   257
  9
$DIMASSOC
280
     2
  9
$PROJECTNAME
  1

  0
ENDSEC
  0
SECTION
  2
CLASSES
  0
CLASS
  1
ACDBDICTIONARYWDFLT
  2
AcDbDictionaryWithDefault
  3
ObjectDBX Classes
 90
        0
 91
        4
280
     0
281
     0
  0
CLASS
  1
VISUALSTYLE
  2
AcDbVisualStyle
  3
ObjectDBX Classes
 90
     4095
 91
        4
280
     0
281
     0
  0
ENDSEC
  0
SECTION
  2
TABLES
  0
TABLE
  2
VPORT
  5
8
330
0
100
AcDbSymbolTable
 70
     1
  0
VPORT
  5
29
330
8
100
AcDbSymbolTableRecord
100
AcDbViewportTableRecord
  2
*Active
 70
     0
 10
0.0
 20
0.0
 11
1.0
 21
1.0
 12
0.0
 22
0.0
 13
0.0
 23
0.0
 14
10.0
 24
10.0
 15
10.0
 25
10.0
 16
0.0
 26
0.0
 36
1.0
 17
0.0
 27
0.0
 37
0.0
 40
2286.9
 41
1.414141414141414
 42
50.0
 43
0.0
 44
0.0
 50
0.0
 51
0.0
 71
     0
 72
 10000
 73
     1
 74
     3
 75
     0
 76
     0
 77
     0
 78
     0
281
     0
 65
     1
110
0.0
120
0.0
130
0.0
111
1.0
121
0.0
131
0.0
112
0.0
122
1.0
132
0.0
 79
     0
146
0.0
  0
ENDTAB
  0
TABLE
  2
LTYPE
  5
5
330
0
100
AcDbSymbolTable
 70
     3
  0
LTYPE
  5
14
330
5
100
AcDbSymbolTableRecord
100
AcDbLinetypeTableRecord
  2
ByBlock
 70
     0
  3

 72
    65
 73
     0
 40
0.0
  0
LTYPE
  5
15
330
5
100
AcDbSymbolTableRecord
100
AcDbLinetypeTableRecord
  2
ByLayer
 70
     0
  3

 72
    65
 73
     0
 40
0.0
  0
LTYPE
  5
16
330
5
100
AcDbSymbolTableRecord
100
AcDbLinetypeTableRecord
  2
Continuous
 70
     0
  3
Solid line
 72
    65
 73
     0
 40
0.0
  0
LTYPE
  5
3C
330
5
100
AcDbSymbolTableRecord
100
AcDbLinetypeTableRecord
  2
JWW_CENTER1
 70
     0
  3
-----  --  ----------  --  -----
 72
    65
 73
     4
 40
6.773333333333333
 49
4.233333333333333
 74
     0
 49
-0.8466666666666667
 74
     0
 49
0.8466666666666667
 74
     0
 49
-0.8466666666666667
 74
     0
  0
LTYPE
  5
3D
330
5
100
AcDbSymbolTableRecord
100
AcDbLinetypeTableRecord
  2
JWW_DASHED1
 70
     0
  3
-  --  --  --  --  --  --  --  -
 72
    65
 73
     2
 40
1.693333333333333
 49
0.8466666666666667
 74
     0
 49
-0.8466666666666667
 74
     0
  0
ENDTAB
  0
TABLE
  2
LAYER
  5
2
330
0
100
AcDbSymbolTable
 70
     8
  0
LAYER
  5
10
330
2
100
AcDbSymbolTableRecord
100
AcDbLayerTableRecord
  2
0
 70
     0
 62
     7
  6
Continuous
370
    -3
390
F
  0
LAYER
  5
3E
330
2
100
AcDbSymbolTableRecord
100
AcDbLayerTableRecord
  2
その他
 70
     0
 62
     7
  6
Continuous
370
    -3
390
F
  0
LAYER
  5
3F
330
2
100
AcDbSymbolTableRecord
100
AcDbLayerTableRecord
  2
0-E
 70
     0
 62
     7
  6
Continuous
370
    -3
390
F
  0
LAYER
  5
40
330
2
100
AcDbSymbolTableRecord
100
AcDbLayerTableRecord
  2
仕上
 70
     0
 62
     7
  6
Continuous
370
    -3
390
F
  0
LAYER
  5
41
330
2
100
AcDbSymbolTableRecord
100
AcDbLayerTableRecord
  2
建具
 70
     0
 62
     7
  6
Continuous
370
    -3
390
F
  0
LAYER
  5
42
330
2
100
AcDbSymbolTableRecord
100
AcDbLayerTableRecord
  2
躯体
 70
     0
 62
     7
  6
Continuous
370
    -3
390
F
  0
LAYER
  5
43
330
2
100
AcDbSymbolTableRecord
100
AcDbLayerTableRecord
  2
F-5ﾚｲﾔ
 70
     0
 62
     7
  6
Continuous
370
    -3
390
F
  0
LAYER
  5
44
330
2
100
AcDbSymbolTableRecord
100
AcDbLayerTableRecord
  2
寸法
 70
     0
 62
     7
  6
Continuous
370
    -3
390
F
  0
ENDTAB
  0
TABLE
  2
STYLE
  5
3
330
0
100
AcDbSymbolTable
 70
     2
  0
STYLE
  5
11
330
3
100
AcDbSymbolTableRecord
100
AcDbTextStyleTableRecord
  2
Standard
 70
     0
 40
0.0
 41
1.0
 50
0.0
 71
     0
 42
2.5
  3
txt
  4

1001
ACAD
1000

1071
        0
  0
STYLE
  5
3B
330
3
100
AcDbSymbolTableRecord
100
AcDbTextStyleTableRecord
  2
ＭＳ ゴシック
 70
     0
 40
1.0
 41
1.0
 50
0.0
 71
     0
 42
10.0
  3

  4

1001
ACAD
1000
MS Gothic
1071
    32817
  0
ENDTAB
  0
TABLE
  2
VIEW
  5
6
330
0
100
AcDbSymbolTable
 70
     0
  0
ENDTAB
  0
TABLE
  2
UCS
  5
7
330
0
100
AcDbSymbolTable
 70
     0
  0
ENDTAB
  0
TABLE
  2
APPID
  5
9
330
0
100
AcDbSymbolTable
 70
     1
  0
APPID
  5
12
330
9
100
AcDbSymbolTableRecord
100
AcDbRegAppTableRecord
  2
ACAD
 70
     0
  0
ENDTAB
  0
TABLE
  2
DIMSTYLE
  5
A
330
0
100
AcDbSymbolTable
 70
     1
100
AcDbDimStyleTable
  0
DIMSTYLE
105
27
330
A
100
AcDbSymbolTableRecord
100
AcDbDimStyleTableRecord
  2
ISO-25
 70
     0
 41
2.5
 42
0.625
 43
3.75
 44
1.25
 73
     0
 74
     0
 77
     1
 78
     8
140
2.5
141
2.5
143
0.03937007874016
147
0.625
171
     3
172
     1
271
     2
272
     2
274
     3
278
    44
283
     0
284
     8
340
11
  0
ENDTAB
  0
TABLE
  2
BLOCK_RECORD
  5
1
330
0
100
AcDbSymbolTable
 70
     1
  0
BLOCK_RECORD
  5
1F
330
1
100
AcDbSymbolTableRecord
100
AcDbBlockTableRecord
  2
*Model_Space
340
22
  0
BLOCK_RECORD
  5
1B
330
1
100
AcDbSymbolTableRecord
100
AcDbBlockTableRecord
  2
*Paper_Space
340
1E
  0
BLOCK_RECORD
  5
23
330
1
100
AcDbSymbolTableRecord
100
AcDbBlockTableRecord
  2
*Paper_Space0
340
26
  0
ENDTAB
  0
ENDSEC
  0
SECTION
  2
BLOCKS
  0
BLOCK
  5
20
330
1F
100
AcDbEntity
  8
0
100
AcDbBlockBegin
  2
*Model_Space
 70
     0
 10
0.0
 20
0.0
 30
0.0
  3
*Model_Space
  1

  0
ENDBLK
  5
21
330
1F
100
AcDbEntity
  8
0
100
AcDbBlockEnd
  0
BLOCK
  5
1C
330
1B
100
AcDbEntity
 67
     1
  8
0
100
AcDbBlockBegin
  2
*Paper_Space
 70
     0
 10
0.0
 20
0.0
 30
0.0
  3
*Paper_Space
  1

  0
ENDBLK
  5
1D
330
1B
100
AcDbEntity
 67
     1
  8
0
100
AcDbBlockEnd
  0
BLOCK
  5
24
330
23
100
AcDbEntity
  8
0
100
AcDbBlockBegin
  2
*Paper_Space0
 70
     0
 10
0.0
 20
0.0
 30
0.0
  3
*Paper_Space0
  1

  0
ENDBLK
  5
25
330
23
100
AcDbEntity
  8
0
100
AcDbBlockEnd
  0
ENDSEC
  0
SECTION
  2
ENTITIES
  0
LINE
  5
45
330
1F
100
AcDbEntity
  8
その他
  6
Continuous
 62
     7
370
     9
100
AcDbLine
 10
79.20493048590572
 20
522.8491277647788
 30
0.0
 11
81.48919595254429
 21
540.1993606881318
 31
0.0
  0
LINE
  5
46
330
1F
100
AcDbEntity
  8
その他
  6
Continuous
 62
     7
370
     9
100
AcDbLine
 10
79.20493048590572
 20
522.8491277647788
 30
0.0
 11
85.90192640149914
 21
539.0170437276167
 31
0.0
  0
LINE
  5
47
330
1F
100
AcDbEntity
  8
その他
  6
Continuous
 62
     7
370
     9
100
AcDbLine
 10
79.20493048590572
 20
522.8491277647788
 30
0.0
 11
108.5256463128166
 21
632.2756282398633
 31
0.0
  0
LINE
  5
48
330
1F
100
AcDbEntity
  8
その他
  6
Continuous
 62
     7
370
     9
100
AcDbLine
 10
108.5256463128166
 20
632.2756282398633
 30
0.0
 11
506.1632104822107
 21
632.2756282398633
 31
0.0
  0
LINE
  5
49
330
1F
100
AcDbEntity
  8
その他
  6
Continuous
 62
     7
370
     9
100
AcDbLine
 10
439.9998804040857
 20
-21.58981893338409
 30
0.0
 11
439.9998804040857
 21
580.4099154812062
 31
0.0
  0
LINE
  5
4A
330
1F
100
AcDbEntity
  8
その他
  6
Continuous
 62
     7
370
     9
100
AcDbLine
 10
27.27010778478675
 20
-21.58981893338409
 30
0.0
 11
442.0998526908255
 21
-21.58981893338409
 31
0.0
  0
LINE
  5
4B
330
1F
100
AcDbEntity
  8
その他
  6
Continuous
 62
     7
370
     9
100
AcDbLine
 10
27.27010778478675
 20
580.4099154812062
 30
0.0
 11
442.0998526908255
 21
580.4099154812062
 31
0.0
  0
LINE
  5
4C
330
1F
100
AcDbEntity
  8
その他
  6
Continuous
 62
     7
370
     9
100
AcDbLine
 10
439.9998804040857
 20
-21.58981893338409
 30
0.0
 11
437.7156149374471
 21
-4.239499406093245
 31
0.0
  0
LINE
  5
4D
330
1F
100
AcDbEntity
  8
その他
  6
Continuous
 62
     7
370
     9
100
AcDbLine
 10
439.9998804040857
 20
-21.58981893338409
 30
0.0
 11
442.2841458707243
 21
-4.239499406093245
 31
0.0
  0
LINE
  5
4E
330
1F
100
AcDbEntity
  8
その他
  6
Continuous
 62
     7
370
     9
100
AcDbLine
 10
439.9998804040857
 20
580.4099154812062
 30
0.0
 11
437.7156149374471
 21
563.0596825578532
 31
0.0
  0
LINE
  5
4F
330
1F
100
AcDbEntity
  8
その他
  6
Continuous
 62
     7
370
     9
100
AcDbLine
 10
439.9998804040857
 20
580.4099154812062
 30
0.0
 11
442.2841458707243
 21
563.0596825578532
 31
0.0
  0
LINE
  5
50
330
1F
100
AcDbEntity
  8
その他
  6
Continuous
 62
     7
370
     9
100
AcDbLine
 10
-271.4991883973818
 20
-272.5899418284961
 30
0.0
 11
271.4991883973817
 21
-272.5899418284961
 31
0.0
  0
LINE
  5
51
330
1F
100
AcDbEntity
  8
その他
  6
Continuous
 62
     7
370
     9
100
AcDbLine
 10
-271.4991883973818
 20
-333.0901104999751
 30
0.0
 11
-271.4991883973818
 21
-270.4899262397872
 31
0.0
  0
LINE
  5
52
330
1F
100
AcDbEntity
  8
その他
  6
Continuous
 62
     7
370
     9
100
AcDbLine
 10
271.4991883973817
 20
-333.0900238960373
 30
0.0
 11
271.4991883973817
 21
-270.4899262397872
 31
0.0
  0
LINE
  5
53
330
1F
100
AcDbEntity
  8
その他
  6
Continuous
 62
     7
370
     9
100
AcDbLine
 10
-271.4991883973818
 20
-272.5899418284961
 30
0.0
 11
-254.1488688700908
 21
-270.3057629657954
 31
0.0
  0
LINE
  5
54
330
1F
100
AcDbEntity
  8
その他
  6
Continuous
 62
     7
370
     9
100
AcDbLine
 10
-271.4991883973818
 20
-272.5899418284961
 30
0.0
 11
-254.1488688700908
 21
-274.8742072951345
 31
0.0
  0
LINE
  5
55
330
1F
100
AcDbEntity
  8
その他
  6
Continuous
 62
     7
370
     9
100
AcDbLine
 10
271.4991883973817
 20
-272.5899418284961
 30
0.0
 11
254.1488688700908
 21
-270.3057629657954
 31
0.0
  0
LINE
  5
56
330
1F
100
AcDbEntity
  8
その他
  6
Continuous
 62
     7
370
     9
100
AcDbLine
 10
271.4991883973817
 20
-272.5899418284961
 30
0.0
 11
254.1488688700908
 21
-274.8742072951345
 31
0.0
  0
LINE
  5
57
330
1F
100
AcDbEntity
  8
その他
  6
Continuous
 62
     7
370
     9
100
AcDbLine
 10
-319.9999917520059
 20
-216.5900168852423
 30
0.0
 11
320.0002515638197
 21
-216.5900168852423
 31
0.0
  0
LINE
  5
58
330
1F
100
AcDbEntity
  8
その他
  6
Continuous
 62
     7
370
     9
100
AcDbLine
 10
-319.9999917520059
 20
-402.0900226588381
 30
0.0
 11
-319.9999917520059
 21
-214.4899579945645
 31
0.0
  0
LINE
  5
59
330
1F
100
AcDbEntity
  8
その他
  6
Continuous
 62
     7
370
     9
100
AcDbLine
 10
320.0002515638197
 20
-402.0900226588381
 30
0.0
 11
320.0002515638197
 21
-214.4899579945645
 31
0.0
  0
LINE
  5
5A
330
1F
100
AcDbEntity
  8
その他
  6
Continuous
 62
     7
370
     9
100
AcDbLine
 10
-319.9999917520059
 20
-216.5900168852423
 30
0.0
 11
-302.649672224715
 21
-214.3057514186037
 31
0.0
  0
LINE
  5
5B
330
1F
100
AcDbEntity
  8
その他
  6
Continuous
 62
     7
370
     9
100
AcDbLine
 10
-319.9999917520059
 20
-216.5900168852423
 30
0.0
 11
-302.649672224715
 21
-218.8741957479428
 31
0.0
  0
LINE
  5
5C
330
1F
100
AcDbEntity
  8
その他
  6
Continuous
 62
     7
370
     9
100
AcDbLine
 10
320.0002515638197
 20
-216.5900168852423
 30
0.0
 11
302.6499320365286
 21
-214.3057514186037
 31
0.0
  0
LINE
  5
5D
330
1F
100
AcDbEntity
  8
その他
  6
Continuous
 62
     7
370
     9
100
AcDbLine
 10
320.0002515638197
 20
-216.5900168852423
 30
0.0
 11
302.6499320365286
 21
-218.8741957479428
 31
0.0
  0
LINE
  5
5E
330
1F
100
AcDbEntity
  8
その他
  6
Continuous
 62
     7
370
     9
100
AcDbLine
 10
-249.9999340160473
 20
-482.5900717344029
 30
0.0
 11
250.0002804317989
 21
-482.5900717344029
 31
0.0
  0
LINE
  5
5F
330
1F
100
AcDbEntity
  8
その他
  6
Continuous
 62
     7
370
     9
100
AcDbLine
 10
-249.9999340160473
 20
-423.0900486400195
 30
0.0
 11
-249.9999340160473
 21
-484.6900873231118
 31
0.0
  0
LINE
  5
60
330
1F
100
AcDbEntity
  8
その他
  6
Continuous
 62
     7
370
     9
100
AcDbLine
 10
250.0002804317989
 20
-423.0900486400195
 30
0.0
 11
250.0002804317989
 21
-484.6900873231118
 31
0.0
  0
LINE
  5
61
330
1F
100
AcDbEntity
  8
その他
  6
Continuous
 62
     7
370
     9
100
AcDbLine
 10
-249.9999340160473
 20
-482.5900717344029
 30
0.0
 11
-232.6496144887564
 21
-480.3058495697334
 31
0.0
  0
LINE
  5
62
330
1F
100
AcDbEntity
  8
その他
  6
Continuous
 62
     7
370
     9
100
AcDbLine
 10
-249.9999340160473
 20
-482.5900717344029
 30
0.0
 11
-232.6496144887564
 21
-484.8742938990724
 31
0.0
  0
LINE
  5
63
330
1F
100
AcDbEntity
  8
その他
  6
Continuous
 62
     7
370
     9
100
AcDbLine
 10
250.0002804317989
 20
-482.5900717344029
 30
0.0
 11
232.6499609045081
 21
-480.3058495697334
 31
0.0
  0
LINE
  5
64
330
1F
100
AcDbEntity
  8
その他
  6
Continuous
 62
     7
370
     9
100
AcDbLine
 10
250.0002804317989
 20
-482.5900717344029
 30
0.0
 11
232.6499609045081
 21
-484.8742938990724
 31
0.0
  0
LINE
  5
65
330
1F
100
AcDbEntity
  8
その他
  6
Continuous
 62
     7
370
     9
100
AcDbLine
 10
8.74985566010335
 20
-28.08502767361847
 30
0.0
 11
19.40317927180098
 21
-41.96867816981782
 31
0.0
  0
LINE
  5
66
330
1F
100
AcDbEntity
  8
その他
  6
Continuous
 62
     7
370
     9
100
AcDbLine
 10
8.74985566010335
 20
-28.08502767361847
 30
0.0
 11
15.44685157569677
 21
-44.25294363645639
 31
0.0
  0
LINE
  5
67
330
1F
100
AcDbEntity
  8
その他
  6
Continuous
 62
     7
370
     9
100
AcDbLine
 10
8.74985566010335
 20
-28.08502767361847
 30
0.0
 11
36.17680317646736
 21
-75.58988574213625
 31
0.0
  0
LINE
  5
68
330
1F
100
AcDbEntity
  8
その他
  6
Continuous
 62
     7
370
     9
100
AcDbLine
 10
36.17680317646736
 20
-75.58988574213625
 30
0.0
 11
192.8848967681059
 21
-75.58988574213625
 31
0.0
  0
LINE
  5
69
330
1F
100
AcDbEntity
  8
0-E
  6
Continuous
 62
     7
370
     9
100
AcDbLine
 10
278.9999554608319
 20
-347.7476104834791
 30
0.0
 11
285.6969513764253
 21
-331.5797811245793
 31
0.0
  0
LINE
  5
6A
330
1F
100
AcDbEntity
  8
0-E
  6
Continuous
 62
     7
370
     9
100
AcDbLine
 10
278.9999554608319
 20
-347.7476104834791
 30
0.0
 11
289.6532790725295
 21
-333.8639166853109
 31
0.0
  0
LINE
  5
6B
330
1F
100
AcDbEntity
  8
0-E
  6
Continuous
 62
     7
370
     9
100
AcDbLine
 10
256.0669728871939
 20
-348.2034070087641
 30
0.0
 11
262.7639688027871
 21
-332.0354910459263
 31
0.0
  0
LINE
  5
6C
330
1F
100
AcDbEntity
  8
0-E
  6
Continuous
 62
     7
370
     9
100
AcDbLine
 10
256.0669728871939
 20
-348.2034070087641
 30
0.0
 11
266.7202964988915
 21
-334.3197132105959
 31
0.0
  0
LINE
  5
6D
330
1F
100
AcDbEntity
  8
0-E
  6
Continuous
 62
     7
370
     9
100
AcDbLine
 10
266.1433410644531
 20
-392.037946886166
 30
0.0
 11
276.7966646761507
 21
-405.9216406843343
 31
0.0
  0
LINE
  5
6E
330
1F
100
AcDbEntity
  8
0-E
  6
Continuous
 62
     7
370
     9
100
AcDbLine
 10
266.1433410644531
 20
-392.037946886166
 30
0.0
 11
272.8403369800463
 21
-408.2057762450659
 31
0.0
  0
LINE
  5
6F
330
1F
100
AcDbEntity
  8
0-E
  6
Continuous
 62
     7
370
     9
100
AcDbLine
 10
-179.070096402555
 20
-345.9472012180125
 30
0.0
 11
-189.7234200142526
 21
-332.0635074198443
 31
0.0
  0
LINE
  5
70
330
1F
100
AcDbEntity
  8
0-E
  6
Continuous
 62
     7
370
     9
100
AcDbLine
 10
-179.070096402555
 20
-345.9472012180125
 30
0.0
 11
-185.7670923181484
 21
-329.7792852551747
 31
0.0
  0
LINE
  5
71
330
1F
100
AcDbEntity
  8
0-E
  6
Continuous
 62
     7
370
     9
100
AcDbLine
 10
278.9999554608319
 20
-347.7476104834791
 30
0.0
 11
335.5803865999789
 21
-249.7476335778625
 31
0.0
  0
LINE
  5
72
330
1F
100
AcDbEntity
  8
0-E
  6
Continuous
 62
     7
370
     9
100
AcDbLine
 10
256.0669728871939
 20
-348.2034070087641
 30
0.0
 11
361.4934106775232
 21
-165.599350315352
 31
0.0
  0
LINE
  5
73
330
1F
100
AcDbEntity
  8
0-E
  6
Continuous
 62
     7
370
     9
100
AcDbLine
 10
266.1433410644531
 20
-392.037946886166
 30
0.0
 11
317.7029955064928
 21
-481.3419790830357
 31
0.0
  0
LINE
  5
74
330
1F
100
AcDbEntity
  8
0-E
  6
Continuous
 62
     7
370
     9
100
AcDbLine
 10
-179.070096402555
 20
-345.9472012180125
 30
0.0
 11
-282.4543267327387
 21
-166.8804823690366
 31
0.0
  0
LINE
  5
75
330
1F
100
AcDbEntity
  8
0-E
  6
Continuous
 62
     7
370
     9
100
AcDbLine
 10
361.4934106775232
 20
-165.599350315352
 30
0.0
 11
529.4939649427259
 21
-165.599350315352
 31
0.0
  0
LINE
  5
76
330
1F
100
AcDbEntity
  8
0-E
  6
Continuous
 62
     7
370
     9
100
AcDbLine
 10
335.5803865999789
 20
-249.7476335778625
 30
0.0
 11
502.3425911568307
 21
-249.7476335778625
 31
0.0
  0
LINE
  5
77
330
1F
100
AcDbEntity
  8
仕上
  6
JWW_CENTER1
 62
     3
370
     9
100
AcDbLine
 10
0.0
 20
-59.77678611296599
 30
0.0
 11
0.0
 21
618.5967094529125
 31
0.0
  0
LINE
  5
78
330
1F
100
AcDbEntity
  8
仕上
  6
JWW_CENTER1
 62
     3
370
     9
100
AcDbLine
 10
-339.1865745750633
 20
279.4099616699732
 30
0.0
 11
339.1867477829392
 21
279.4099616699732
 31
0.0
  0
LINE
  5
79
330
1F
100
AcDbEntity
  8
仕上
  6
Continuous
 62
     3
370
     9
100
AcDbLine
 10
-111.9998498865077
 20
320.4099979611472
 30
0.0
 11
-71.99991587046034
 21
320.4099979611472
 31
0.0
  0
LINE
  5
7A
330
1F
100
AcDbEntity
  8
仕上
  6
Continuous
 62
     3
370
     9
100
AcDbLine
 10
-111.9998498865077
 20
338.4101934386069
 30
0.0
 11
-71.99991587046034
 21
338.4101934386069
 31
0.0
  0
LINE
  5
7B
330
1F
100
AcDbEntity
  8
仕上
  6
Continuous
 62
     3
370
     9
100
AcDbLine
 10
-41.99996535842479
 20
345.4099567211767
 30
0.0
 11
-41.99996535842479
 21
363.4103254065124
 31
0.0
  0
LINE
  5
7C
330
1F
100
AcDbEntity
  8
仕上
  6
Continuous
 62
     3
370
     9
100
AcDbLine
 10
-49.99991752005926
 20
345.4099567211767
 30
0.0
 11
-49.99991752005926
 21
363.4103254065124
 31
0.0
  0
LINE
  5
7D
330
1F
100
AcDbEntity
  8
仕上
  6
Continuous
 62
     3
370
     9
100
AcDbLine
 10
-55.00008247994094
 20
345.4099567211767
 30
0.0
 11
-55.00008247994094
 21
363.4103254065124
 31
0.0
  0
LINE
  5
7E
330
1F
100
AcDbEntity
  8
仕上
  6
Continuous
 62
     3
370
     9
100
AcDbLine
 10
-49.99991752005926
 20
363.4103254065124
 30
0.0
 11
-41.99996535842479
 21
363.4103254065124
 31
0.0
  0
LINE
  5
7F
330
1F
100
AcDbEntity
  8
仕上
  6
Continuous
 62
     3
370
     9
100
AcDbLine
 10
-49.99991752005926
 20
345.4099567211767
 30
0.0
 11
-41.99996535842479
 21
345.4099567211767
 31
0.0
  0
LINE
  5
80
330
1F
100
AcDbEntity
  8
仕上
  6
Continuous
 62
     3
370
     9
100
AcDbLine
 10
-82.99974183778502
 20
363.4103254065124
 30
0.0
 11
-55.00008247994094
 21
363.4103254065124
 31
0.0
  0
LINE
  5
81
330
1F
100
AcDbEntity
  8
仕上
  6
Continuous
 62
     3
370
     9
100
AcDbLine
 10
-82.99974183778502
 20
345.4099567211767
 30
0.0
 11
-55.00008247994094
 21
345.4099567211767
 31
0.0
  0
LINE
  5
82
330
1F
100
AcDbEntity
  8
仕上
  6
Continuous
 62
     3
370
     9
100
AcDbLine
 10
-19.9999670080237
 20
388.4099377507904
 30
0.0
 11
-19.9999670080237
 21
370.4100020851442
 31
0.0
  0
LINE
  5
83
330
1F
100
AcDbEntity
  8
仕上
  6
Continuous
 62
     3
370
     9
100
AcDbLine
 10
-65.99990844726562
 20
388.4099377507904
 30
0.0
 11
-65.99990844726562
 21
370.4100020851442
 31
0.0
  0
LINE
  5
84
330
1F
100
AcDbEntity
  8
仕上
  6
Continuous
 62
     3
370
     9
100
AcDbLine
 10
-65.99990844726562
 20
370.4100020851442
 30
0.0
 11
-25.99980122334256
 21
370.4100020851442
 31
0.0
  0
LINE
  5
85
330
1F
100
AcDbEntity
  8
仕上
  6
Continuous
 62
     3
370
     9
100
AcDbLine
 10
-25.99980122334256
 20
388.4099377507904
 30
0.0
 11
-25.99980122334256
 21
370.4100020851442
 31
0.0
  0
LINE
  5
86
330
1F
100
AcDbEntity
  8
仕上
  6
Continuous
 62
     3
370
     9
100
AcDbLine
 10
-65.99990844726562
 20
388.4099377507904
 30
0.0
 11
-25.99980122334256
 21
388.4099377507904
 31
0.0
  0
LINE
  5
87
330
1F
100
AcDbEntity
  8
仕上
  6
Continuous
 62
     3
370
     9
100
AcDbLine
 10
-111.9998498865077
 20
370.4100020851442
 30
0.0
 11
-71.99991587046034
 21
370.4100020851442
 31
0.0
  0
LINE
  5
88
330
1F
100
AcDbEntity
  8
仕上
  6
Continuous
 62
     3
370
     9
100
AcDbLine
 10
-71.99991587046034
 20
388.4099377507904
 30
0.0
 11
-71.99991587046034
 21
370.4100020851442
 31
0.0
  0
LINE
  5
89
330
1F
100
AcDbEntity
  8
仕上
  6
Continuous
 62
     3
370
     9
100
AcDbLine
 10
-41.99996535842479
 20
395.4101340530497
 30
0.0
 11
-41.99996535842479
 21
413.4101563226336
 31
0.0
  0
LINE
  5
8A
330
1F
100
AcDbEntity
  8
仕上
  6
Continuous
 62
     3
370
     9
100
AcDbLine
 10
-36.99997360641896
 20
395.4101340530497
 30
0.0
 11
-36.99997360641896
 21
413.4101563226336
 31
0.0
  0
LINE
  5
8B
330
1F
100
AcDbEntity
  8
仕上
  6
Continuous
 62
     3
370
     9
100
AcDbLine
 10
-49.99991752005926
 20
395.4101340530497
 30
0.0
 11
-49.99991752005926
 21
413.4101563226336
 31
0.0
  0
LINE
  5
8C
330
1F
100
AcDbEntity
  8
仕上
  6
Continuous
 62
     3
370
     9
100
AcDbLine
 10
-55.00008247994094
 20
395.4101340530497
 30
0.0
 11
-55.00008247994094
 21
413.4101563226336
 31
0.0
  0
LINE
  5
8D
330
1F
100
AcDbEntity
  8
仕上
  6
Continuous
 62
     3
370
     9
100
AcDbLine
 10
-49.99991752005926
 20
413.4101563226336
 30
0.0
 11
-41.99996535842479
 21
413.4101563226336
 31
0.0
  0
LINE
  5
8E
330
1F
100
AcDbEntity
  8
仕上
  6
Continuous
 62
     3
370
     9
100
AcDbLine
 10
-49.99991752005926
 20
395.4101340530497
 30
0.0
 11
-41.99996535842479
 21
395.4101340530497
 31
0.0
  0
LINE
  5
8F
330
1F
100
AcDbEntity
  8
仕上
  6
Continuous
 62
     3
370
     9
100
AcDbLine
 10
-82.99974183778502
 20
395.4101340530497
 30
0.0
 11
-55.00008247994094
 21
395.4101340530497
 31
0.0
  0
LINE
  5
90
330
1F
100
AcDbEntity
  8
仕上
  6
Continuous
 62
     3
370
     9
100
AcDbLine
 10
-3.999802872941274
 20
395.4101340530497
 30
0.0
 11
-3.999802872941274
 21
413.4101563226336
 31
0.0
  0
LINE
  5
91
330
1F
100
AcDbEntity
  8
仕上
  6
Continuous
 62
     3
370
     9
100
AcDbLine
 10
-8.99988122888513
 20
395.4101340530497
 30
0.0
 11
-8.99988122888513
 21
413.4101563226336
 31
0.0
  0
LINE
  5
92
330
1F
100
AcDbEntity
  8
仕上
  6
Continuous
 62
     3
370
     9
100
AcDbLine
 10
-36.99997360641896
 20
413.4101563226336
 30
0.0
 11
-8.99988122888513
 21
413.4101563226336
 31
0.0
  0
LINE
  5
93
330
1F
100
AcDbEntity
  8
仕上
  6
Continuous
 62
     3
370
     9
100
AcDbLine
 10
-36.99997360641896
 20
395.4101340530497
 30
0.0
 11
-8.99988122888513
 21
395.4101340530497
 31
0.0
  0
LINE
  5
94
330
1F
100
AcDbEntity
  8
仕上
  6
Continuous
 62
     3
370
     9
100
AcDbLine
 10
-19.9999670080237
 20
420.4100062091413
 30
0.0
 11
20.00005361196153
 21
420.4100062091413
 31
0.0
  0
LINE
  5
95
330
1F
100
AcDbEntity
  8
仕上
  6
Continuous
 62
     3
370
     9
100
AcDbLine
 10
-3.999802872941274
 20
413.4101563226336
 30
0.0
 11
3.999889476879105
 21
413.4101563226336
 31
0.0
  0
LINE
  5
96
330
1F
100
AcDbEntity
  8
仕上
  6
Continuous
 62
     3
370
     9
100
AcDbLine
 10
-3.999802872941274
 20
395.4101340530497
 30
0.0
 11
3.999889476879105
 21
395.4101340530497
 31
0.0
  0
LINE
  5
97
330
1F
100
AcDbEntity
  8
仕上
  6
Continuous
 62
     3
370
     9
100
AcDbLine
 10
-111.9998498865077
 20
338.4101934386069
 30
0.0
 11
-111.9998498865077
 21
320.4099979611472
 31
0.0
  0
LINE
  5
98
330
1F
100
AcDbEntity
  8
仕上
  6
Continuous
 62
     3
370
     9
100
AcDbLine
 10
-117.9997707057644
 20
338.4101934386069
 30
0.0
 11
-117.9997707057644
 21
320.4099979611472
 31
0.0
  0
LINE
  5
99
330
1F
100
AcDbEntity
  8
仕上
  6
Continuous
 62
     3
370
     9
100
AcDbLine
 10
-87.99982019372888
 20
345.4099567211767
 30
0.0
 11
-87.99982019372888
 21
363.4103254065124
 31
0.0
  0
LINE
  5
9A
330
1F
100
AcDbEntity
  8
仕上
  6
Continuous
 62
     3
370
     9
100
AcDbLine
 10
-82.99974183778502
 20
345.4099567211767
 30
0.0
 11
-82.99974183778502
 21
363.4103254065124
 31
0.0
  0
LINE
  5
9B
330
1F
100
AcDbEntity
  8
仕上
  6
Continuous
 62
     3
370
     9
100
AcDbLine
 10
-95.99977235536315
 20
345.4099567211767
 30
0.0
 11
-95.99977235536315
 21
363.4103254065124
 31
0.0
  0
LINE
  5
9C
330
1F
100
AcDbEntity
  8
仕上
  6
Continuous
 62
     3
370
     9
100
AcDbLine
 10
-100.9997641073692
 20
345.4099567211767
 30
0.0
 11
-100.9997641073692
 21
363.4103254065124
 31
0.0
  0
LINE
  5
9D
330
1F
100
AcDbEntity
  8
仕上
  6
Continuous
 62
     3
370
     9
100
AcDbLine
 10
-95.99977235536315
 20
363.4103254065124
 30
0.0
 11
-87.99982019372888
 21
363.4103254065124
 31
0.0
  0
LINE
  5
9E
330
1F
100
AcDbEntity
  8
仕上
  6
Continuous
 62
     3
370
     9
100
AcDbLine
 10
-95.99977235536315
 20
345.4099567211767
 30
0.0
 11
-87.99982019372888
 21
345.4099567211767
 31
0.0
  0
LINE
  5
9F
330
1F
100
AcDbEntity
  8
仕上
  6
Continuous
 62
     3
370
     9
100
AcDbLine
 10
-128.999856484903
 20
363.4103254065124
 30
0.0
 11
-100.9997641073692
 21
363.4103254065124
 31
0.0
  0
LINE
  5
A0
330
1F
100
AcDbEntity
  8
仕上
  6
Continuous
 62
     3
370
     9
100
AcDbLine
 10
-128.999856484903
 20
345.4099567211767
 30
0.0
 11
-100.9997641073692
 21
345.4099567211767
 31
0.0
  0
LINE
  5
A1
330
1F
100
AcDbEntity
  8
仕上
  6
Continuous
 62
     3
370
     9
100
AcDbLine
 10
-82.99974183778502
 20
295.4101258050555
 30
0.0
 11
-82.99974183778502
 21
313.4098016588879
 31
0.0
  0
LINE
  5
A2
330
1F
100
AcDbEntity
  8
仕上
  6
Continuous
 62
     3
370
     9
100
AcDbLine
 10
-95.99977235536315
 20
395.4101340530497
 30
0.0
 11
-87.99982019372888
 21
395.4101340530497
 31
0.0
  0
LINE
  5
A3
330
1F
100
AcDbEntity
  8
仕上
  6
Continuous
 62
     3
370
     9
100
AcDbLine
 10
-128.999856484903
 20
345.4099567211767
 30
0.0
 11
-128.999856484903
 21
363.4103254065124
 31
0.0
  0
LINE
  5
A4
330
1F
100
AcDbEntity
  8
仕上
  6
Continuous
 62
     3
370
     9
100
AcDbLine
 10
-157.9998779296875
 20
338.4101934386069
 30
0.0
 11
-117.9997707057644
 21
338.4101934386069
 31
0.0
  0
LINE
  5
A5
330
1F
100
AcDbEntity
  8
仕上
  6
Continuous
 62
     3
370
     9
100
AcDbLine
 10
-141.999973606419
 20
345.4099567211767
 30
0.0
 11
-133.9998482369088
 21
345.4099567211767
 31
0.0
  0
LINE
  5
A6
330
1F
100
AcDbEntity
  8
仕上
  6
Continuous
 62
     3
370
     9
100
AcDbLine
 10
-133.9998482369088
 20
345.4099567211767
 30
0.0
 11
-133.9998482369088
 21
363.4103254065124
 31
0.0
  0
LINE
  5
A7
330
1F
100
AcDbEntity
  8
仕上
  6
Continuous
 62
     3
370
     9
100
AcDbLine
 10
-157.9998779296875
 20
370.4100020851442
 30
0.0
 11
-117.9997707057644
 21
370.4100020851442
 31
0.0
  0
LINE
  5
A8
330
1F
100
AcDbEntity
  8
仕上
  6
Continuous
 62
     3
370
     9
100
AcDbLine
 10
-117.9997707057644
 20
388.4099377507904
 30
0.0
 11
-117.9997707057644
 21
370.4100020851442
 31
0.0
  0
LINE
  5
A9
330
1F
100
AcDbEntity
  8
仕上
  6
Continuous
 62
     3
370
     9
100
AcDbLine
 10
-87.99982019372888
 20
395.4101340530497
 30
0.0
 11
-87.99982019372888
 21
413.4101563226336
 31
0.0
  0
LINE
  5
AA
330
1F
100
AcDbEntity
  8
仕上
  6
Continuous
 62
     3
370
     9
100
AcDbLine
 10
-95.99977235536315
 20
395.4101340530497
 30
0.0
 11
-95.99977235536315
 21
413.4101563226336
 31
0.0
  0
LINE
  5
AB
330
1F
100
AcDbEntity
  8
仕上
  6
Continuous
 62
     3
370
     9
100
AcDbLine
 10
-100.9997641073692
 20
395.4101340530497
 30
0.0
 11
-100.9997641073692
 21
413.4101563226336
 31
0.0
  0
LINE
  5
AC
330
1F
100
AcDbEntity
  8
仕上
  6
Continuous
 62
     3
370
     9
100
AcDbLine
 10
-128.999856484903
 20
395.4101340530497
 30
0.0
 11
-100.9997641073692
 21
395.4101340530497
 31
0.0
  0
LINE
  5
AD
330
1F
100
AcDbEntity
  8
仕上
  6
Continuous
 62
     3
370
     9
100
AcDbLine
 10
-65.99990844726562
 20
420.4100062091413
 30
0.0
 11
-25.99980122334256
 21
420.4100062091413
 31
0.0
  0
LINE
  5
AE
330
1F
100
AcDbEntity
  8
仕上
  6
Continuous
 62
     3
370
     9
100
AcDbLine
 10
-25.99980122334256
 20
438.4101150826631
 30
0.0
 11
-25.99980122334256
 21
420.4100062091413
 31
0.0
  0
LINE
  5
AF
330
1F
100
AcDbEntity
  8
仕上
  6
Continuous
 62
     3
370
     9
100
AcDbLine
 10
-19.9999670080237
 20
438.4101150826631
 30
0.0
 11
-19.9999670080237
 21
420.4100062091413
 31
0.0
  0
LINE
  5
B0
330
1F
100
AcDbEntity
  8
仕上
  6
Continuous
 62
     3
370
     9
100
AcDbLine
 10
-82.99974183778502
 20
395.4101340530497
 30
0.0
 11
-82.99974183778502
 21
413.4101563226336
 31
0.0
  0
LINE
  5
B1
330
1F
100
AcDbEntity
  8
仕上
  6
Continuous
 62
     3
370
     9
100
AcDbLine
 10
-82.99974183778502
 20
413.4101563226336
 30
0.0
 11
-55.00008247994094
 21
413.4101563226336
 31
0.0
  0
LINE
  5
B2
330
1F
100
AcDbEntity
  8
仕上
  6
Continuous
 62
     3
370
     9
100
AcDbLine
 10
-111.9998498865077
 20
388.4099377507904
 30
0.0
 11
-71.99991587046034
 21
388.4099377507904
 31
0.0
  0
LINE
  5
B3
330
1F
100
AcDbEntity
  8
仕上
  6
Continuous
 62
     3
370
     9
100
AcDbLine
 10
-111.9998498865077
 20
388.4099377507904
 30
0.0
 11
-111.9998498865077
 21
370.4100020851442
 31
0.0
  0
LINE
  5
B4
330
1F
100
AcDbEntity
  8
仕上
  6
Continuous
 62
     3
370
     9
100
AcDbLine
 10
-19.9999670080237
 20
388.4099377507904
 30
0.0
 11
20.00005361196153
 21
388.4099377507904
 31
0.0
  0
LINE
  5
B5
330
1F
100
AcDbEntity
  8
仕上
  6
Continuous
 62
     3
370
     9
100
AcDbLine
 10
-65.99990844726562
 20
438.4101150826631
 30
0.0
 11
-65.99990844726562
 21
420.4100062091413
 31
0.0
  0
LINE
  5
B6
330
1F
100
AcDbEntity
  8
仕上
  6
Continuous
 62
     3
370
     9
100
AcDbLine
 10
-65.99990844726562
 20
438.4101150826631
 30
0.0
 11
-25.99980122334256
 21
438.4101150826631
 31
0.0
  0
LINE
  5
B7
330
1F
100
AcDbEntity
  8
仕上
  6
Continuous
 62
     3
370
     9
100
AcDbLine
 10
-111.9998498865077
 20
420.4100062091413
 30
0.0
 11
-71.99991587046034
 21
420.4100062091413
 31
0.0
  0
LINE
  5
B8
330
1F
100
AcDbEntity
  8
仕上
  6
Continuous
 62
     3
370
     9
100
AcDbLine
 10
-71.99991587046034
 20
438.4101150826631
 30
0.0
 11
-71.99991587046034
 21
420.4100062091413
 31
0.0
  0
LINE
  5
B9
330
1F
100
AcDbEntity
  8
仕上
  6
Continuous
 62
     3
370
     9
100
AcDbLine
 10
-95.99977235536315
 20
413.4101563226336
 30
0.0
 11
-87.99982019372888
 21
413.4101563226336
 31
0.0
  0
LINE
  5
BA
330
1F
100
AcDbEntity
  8
仕上
  6
Continuous
 62
     3
370
     9
100
AcDbLine
 10
-128.999856484903
 20
413.4101563226336
 30
0.0
 11
-100.9997641073692
 21
413.4101563226336
 31
0.0
  0
LINE
  5
BB
330
1F
100
AcDbEntity
  8
仕上
  6
Continuous
 62
     3
370
     9
100
AcDbLine
 10
-128.999856484903
 20
395.4098742412357
 30
0.0
 11
-128.999856484903
 21
413.4101563226336
 31
0.0
  0
LINE
  5
BC
330
1F
100
AcDbEntity
  8
仕上
  6
Continuous
 62
     3
370
     9
100
AcDbLine
 10
-141.999973606419
 20
395.4098742412357
 30
0.0
 11
-133.9998482369088
 21
395.4098742412357
 31
0.0
  0
LINE
  5
BD
330
1F
100
AcDbEntity
  8
仕上
  6
Continuous
 62
     3
370
     9
100
AcDbLine
 10
-133.9998482369088
 20
395.4098742412357
 30
0.0
 11
-133.9998482369088
 21
413.4101563226336
 31
0.0
  0
LINE
  5
BE
330
1F
100
AcDbEntity
  8
仕上
  6
Continuous
 62
     3
370
     9
100
AcDbLine
 10
-157.9998779296875
 20
420.4100062091413
 30
0.0
 11
-117.9997707057644
 21
420.4100062091413
 31
0.0
  0
LINE
  5
BF
330
1F
100
AcDbEntity
  8
仕上
  6
Continuous
 62
     3
370
     9
100
AcDbLine
 10
-117.9997707057644
 20
438.4101150826631
 30
0.0
 11
-117.9997707057644
 21
420.4100062091413
 31
0.0
  0
LINE
  5
C0
330
1F
100
AcDbEntity
  8
仕上
  6
Continuous
 62
     3
370
     9
100
AcDbLine
 10
-111.9998498865077
 20
438.4101150826631
 30
0.0
 11
-71.99991587046034
 21
438.4101150826631
 31
0.0
  0
LINE
  5
C1
330
1F
100
AcDbEntity
  8
仕上
  6
Continuous
 62
     3
370
     9
100
AcDbLine
 10
-111.9998498865077
 20
438.4101150826631
 30
0.0
 11
-111.9998498865077
 21
420.4100062091413
 31
0.0
  0
LINE
  5
C2
330
1F
100
AcDbEntity
  8
仕上
  6
Continuous
 62
     3
370
     9
100
AcDbLine
 10
-19.9999670080237
 20
438.4101150826631
 30
0.0
 11
20.00005361196153
 21
438.4101150826631
 31
0.0
  0
LINE
  5
C3
330
1F
100
AcDbEntity
  8
仕上
  6
Continuous
 62
     3
370
     9
100
AcDbLine
 10
-41.99996535842479
 20
445.4100515731087
 30
0.0
 11
-41.99996535842479
 21
463.4100738426928
 31
0.0
  0
LINE
  5
C4
330
1F
100
AcDbEntity
  8
仕上
  6
Continuous
 62
     3
370
     9
100
AcDbLine
 10
-36.99997360641896
 20
445.4100515731087
 30
0.0
 11
-36.99997360641896
 21
463.4100738426928
 31
0.0
  0
LINE
  5
C5
330
1F
100
AcDbEntity
  8
仕上
  6
Continuous
 62
     3
370
     9
100
AcDbLine
 10
-49.99991752005926
 20
445.4100515731087
 30
0.0
 11
-49.99991752005926
 21
463.4100738426928
 31
0.0
  0
LINE
  5
C6
330
1F
100
AcDbEntity
  8
仕上
  6
Continuous
 62
     3
370
     9
100
AcDbLine
 10
-55.00008247994094
 20
445.4100515731087
 30
0.0
 11
-55.00008247994094
 21
463.4100738426928
 31
0.0
  0
LINE
  5
C7
330
1F
100
AcDbEntity
  8
仕上
  6
Continuous
 62
     3
370
     9
100
AcDbLine
 10
-49.99991752005926
 20
463.4100738426928
 30
0.0
 11
-41.99996535842479
 21
463.4100738426928
 31
0.0
  0
LINE
  5
C8
330
1F
100
AcDbEntity
  8
仕上
  6
Continuous
 62
     3
370
     9
100
AcDbLine
 10
-49.99991752005926
 20
445.4100515731087
 30
0.0
 11
-41.99996535842479
 21
445.4100515731087
 31
0.0
  0
LINE
  5
C9
330
1F
100
AcDbEntity
  8
仕上
  6
Continuous
 62
     3
370
     9
100
AcDbLine
 10
-82.99974183778502
 20
463.4100738426928
 30
0.0
 11
-55.00008247994094
 21
463.4100738426928
 31
0.0
  0
LINE
  5
CA
330
1F
100
AcDbEntity
  8
仕上
  6
Continuous
 62
     3
370
     9
100
AcDbLine
 10
-82.99974183778502
 20
445.4100515731087
 30
0.0
 11
-55.00008247994094
 21
445.4100515731087
 31
0.0
  0
LINE
  5
CB
330
1F
100
AcDbEntity
  8
仕上
  6
Continuous
 62
     3
370
     9
100
AcDbLine
 10
-3.999802872941274
 20
445.4100515731087
 30
0.0
 11
-3.999802872941274
 21
463.4100738426928
 31
0.0
  0
LINE
  5
CC
330
1F
100
AcDbEntity
  8
仕上
  6
Continuous
 62
     3
370
     9
100
AcDbLine
 10
-8.99988122888513
 20
445.4100515731087
 30
0.0
 11
-8.99988122888513
 21
463.4100738426928
 31
0.0
  0
LINE
  5
CD
330
1F
100
AcDbEntity
  8
仕上
  6
Continuous
 62
     3
370
     9
100
AcDbLine
 10
-36.99997360641896
 20
463.4100738426928
 30
0.0
 11
-8.99988122888513
 21
463.4100738426928
 31
0.0
  0
LINE
  5
CE
330
1F
100
AcDbEntity
  8
仕上
  6
Continuous
 62
     3
370
     9
100
AcDbLine
 10
-36.99997360641896
 20
445.4100515731087
 30
0.0
 11
-8.99988122888513
 21
445.4100515731087
 31
0.0
  0
LINE
  5
CF
330
1F
100
AcDbEntity
  8
仕上
  6
Continuous
 62
     3
370
     9
100
AcDbLine
 10
-87.99982019372888
 20
445.4100515731087
 30
0.0
 11
-87.99982019372888
 21
463.4100738426928
 31
0.0
  0
LINE
  5
D0
330
1F
100
AcDbEntity
  8
仕上
  6
Continuous
 62
     3
370
     9
100
AcDbLine
 10
-82.99974183778502
 20
445.4100515731087
 30
0.0
 11
-82.99974183778502
 21
463.4100738426928
 31
0.0
  0
LINE
  5
D1
330
1F
100
AcDbEntity
  8
仕上
  6
Continuous
 62
     3
370
     9
100
AcDbLine
 10
-95.99977235536315
 20
445.4100515731087
 30
0.0
 11
-95.99977235536315
 21
463.4100738426928
 31
0.0
  0
LINE
  5
D2
330
1F
100
AcDbEntity
  8
仕上
  6
Continuous
 62
     3
370
     9
100
AcDbLine
 10
-100.9997641073692
 20
445.4100515731087
 30
0.0
 11
-100.9997641073692
 21
463.4100738426928
 31
0.0
  0
LINE
  5
D3
330
1F
100
AcDbEntity
  8
仕上
  6
Continuous
 62
     3
370
     9
100
AcDbLine
 10
-95.99977235536315
 20
463.4100738426928
 30
0.0
 11
-87.99982019372888
 21
463.4100738426928
 31
0.0
  0
LINE
  5
D4
330
1F
100
AcDbEntity
  8
仕上
  6
Continuous
 62
     3
370
     9
100
AcDbLine
 10
-95.99977235536315
 20
445.4100515731087
 30
0.0
 11
-87.99982019372888
 21
445.4100515731087
 31
0.0
  0
LINE
  5
D5
330
1F
100
AcDbEntity
  8
仕上
  6
Continuous
 62
     3
370
     9
100
AcDbLine
 10
-128.999856484903
 20
445.4100515731087
 30
0.0
 11
-100.9997641073692
 21
445.4100515731087
 31
0.0
  0
LINE
  5
D6
330
1F
100
AcDbEntity
  8
仕上
  6
Continuous
 62
     3
370
     9
100
AcDbLine
 10
-128.999856484903
 20
445.4100515731087
 30
0.0
 11
-128.999856484903
 21
463.4100738426928
 31
0.0
  0
LINE
  5
D7
330
1F
100
AcDbEntity
  8
仕上
  6
Continuous
 62
     3
370
     9
100
AcDbLine
 10
-19.9999670080237
 20
470.4100969370762
 30
0.0
 11
20.00005361196153
 21
470.4100969370762
 31
0.0
  0
LINE
  5
D8
330
1F
100
AcDbEntity
  8
仕上
  6
Continuous
 62
     3
370
     9
100
AcDbLine
 10
-3.999802872941274
 20
463.4100738426928
 30
0.0
 11
3.999889476879105
 21
463.4100738426928
 31
0.0
  0
LINE
  5
D9
330
1F
100
AcDbEntity
  8
仕上
  6
Continuous
 62
     3
370
     9
100
AcDbLine
 10
-3.999802872941274
 20
445.4101381770467
 30
0.0
 11
3.999889476879105
 21
445.4101381770467
 31
0.0
  0
LINE
  5
DA
330
1F
100
AcDbEntity
  8
仕上
  6
Continuous
 62
     3
370
     9
100
AcDbLine
 10
-157.9998779296875
 20
338.4101934386069
 30
0.0
 11
-157.9998779296875
 21
320.4099979611472
 31
0.0
  0
LINE
  5
DB
330
1F
100
AcDbEntity
  8
仕上
  6
Continuous
 62
     3
370
     9
100
AcDbLine
 10
-163.9997987489444
 20
338.4101934386069
 30
0.0
 11
-163.9997987489444
 21
320.4099979611472
 31
0.0
  0
LINE
  5
DC
330
1F
100
AcDbEntity
  8
仕上
  6
Continuous
 62
     3
370
     9
100
AcDbLine
 10
-141.999973606419
 20
345.4099567211767
 30
0.0
 11
-141.999973606419
 21
363.4103254065124
 31
0.0
  0
LINE
  5
DD
330
1F
100
AcDbEntity
  8
仕上
  6
Continuous
 62
     3
370
     9
100
AcDbLine
 10
-146.9999653584248
 20
345.4099567211767
 30
0.0
 11
-146.9999653584248
 21
363.4103254065124
 31
0.0
  0
LINE
  5
DE
330
1F
100
AcDbEntity
  8
仕上
  6
Continuous
 62
     3
370
     9
100
AcDbLine
 10
-141.999973606419
 20
363.4103254065124
 30
0.0
 11
-133.9998482369088
 21
363.4103254065124
 31
0.0
  0
LINE
  5
DF
330
1F
100
AcDbEntity
  8
仕上
  6
Continuous
 62
     3
370
     9
100
AcDbLine
 10
-174.9997113202069
 20
363.4103254065124
 30
0.0
 11
-146.9999653584248
 21
363.4103254065124
 31
0.0
  0
LINE
  5
E0
330
1F
100
AcDbEntity
  8
仕上
  6
Continuous
 62
     3
370
     9
100
AcDbLine
 10
-174.9997113202069
 20
345.4099567211767
 30
0.0
 11
-146.9999653584248
 21
345.4099567211767
 31
0.0
  0
LINE
  5
E1
330
1F
100
AcDbEntity
  8
仕上
  6
Continuous
 62
     3
370
     9
100
AcDbLine
 10
-174.9997113202069
 20
345.4099567211767
 30
0.0
 11
-174.9997113202069
 21
363.4103254065124
 31
0.0
  0
LINE
  5
E2
330
1F
100
AcDbEntity
  8
仕上
  6
Continuous
 62
     3
370
     9
100
AcDbLine
 10
-187.9998284417231
 20
345.4099567211767
 30
0.0
 11
-179.9997030722129
 21
345.4099567211767
 31
0.0
  0
LINE
  5
E3
330
1F
100
AcDbEntity
  8
仕上
  6
Continuous
 62
     3
370
     9
100
AcDbLine
 10
-179.9997030722129
 20
345.4099567211767
 30
0.0
 11
-179.9997030722129
 21
363.4103254065124
 31
0.0
  0
LINE
  5
E4
330
1F
100
AcDbEntity
  8
仕上
  6
Continuous
 62
     3
370
     9
100
AcDbLine
 10
-163.9997987489444
 20
388.4099377507904
 30
0.0
 11
-163.9997987489444
 21
370.4100020851442
 31
0.0
  0
LINE
  5
E5
330
1F
100
AcDbEntity
  8
仕上
  6
Continuous
 62
     3
370
     9
100
AcDbLine
 10
-157.9998779296875
 20
388.4099377507904
 30
0.0
 11
-117.9997707057644
 21
388.4099377507904
 31
0.0
  0
LINE
  5
E6
330
1F
100
AcDbEntity
  8
仕上
  6
Continuous
 62
     3
370
     9
100
AcDbLine
 10
-157.9998779296875
 20
388.4099377507904
 30
0.0
 11
-157.9998779296875
 21
370.4100020851442
 31
0.0
  0
LINE
  5
E7
330
1F
100
AcDbEntity
  8
仕上
  6
Continuous
 62
     3
370
     9
100
AcDbLine
 10
-203.9997327649916
 20
338.4101934386069
 30
0.0
 11
-163.9997987489444
 21
338.4101934386069
 31
0.0
  0
LINE
  5
E8
330
1F
100
AcDbEntity
  8
仕上
  6
Continuous
 62
     3
370
     9
100
AcDbLine
 10
-203.9997327649916
 20
338.4101934386069
 30
0.0
 11
-203.9997327649916
 21
320.4099979611472
 31
0.0
  0
LINE
  5
E9
330
1F
100
AcDbEntity
  8
仕上
  6
Continuous
 62
     3
370
     9
100
AcDbLine
 10
-209.9998267921241
 20
338.4101934386069
 30
0.0
 11
-209.9998267921241
 21
320.4099979611472
 31
0.0
  0
LINE
  5
EA
330
1F
100
AcDbEntity
  8
仕上
  6
Continuous
 62
     3
370
     9
100
AcDbLine
 10
-187.9998284417231
 20
345.4099567211767
 30
0.0
 11
-187.9998284417231
 21
363.4103254065124
 31
0.0
  0
LINE
  5
EB
330
1F
100
AcDbEntity
  8
仕上
  6
Continuous
 62
     3
370
     9
100
AcDbLine
 10
-192.9999934016047
 20
345.4099567211767
 30
0.0
 11
-192.9999934016047
 21
363.4103254065124
 31
0.0
  0
LINE
  5
EC
330
1F
100
AcDbEntity
  8
仕上
  6
Continuous
 62
     3
370
     9
100
AcDbLine
 10
-187.9998284417231
 20
363.4103254065124
 30
0.0
 11
-179.9997030722129
 21
363.4103254065124
 31
0.0
  0
LINE
  5
ED
330
1F
100
AcDbEntity
  8
仕上
  6
Continuous
 62
     3
370
     9
100
AcDbLine
 10
-141.999973606419
 20
395.4098742412357
 30
0.0
 11
-141.999973606419
 21
413.4101563226336
 31
0.0
  0
LINE
  5
EE
330
1F
100
AcDbEntity
  8
仕上
  6
Continuous
 62
     3
370
     9
100
AcDbLine
 10
-146.9999653584248
 20
395.4098742412357
 30
0.0
 11
-146.9999653584248
 21
413.4101563226336
 31
0.0
  0
LINE
  5
EF
330
1F
100
AcDbEntity
  8
仕上
  6
Continuous
 62
     3
370
     9
100
AcDbLine
 10
-141.999973606419
 20
413.4101563226336
 30
0.0
 11
-133.9998482369088
 21
413.4101563226336
 31
0.0
  0
LINE
  5
F0
330
1F
100
AcDbEntity
  8
仕上
  6
Continuous
 62
     3
370
     9
100
AcDbLine
 10
-174.9997113202069
 20
413.4101563226336
 30
0.0
 11
-146.9999653584248
 21
413.4101563226336
 31
0.0
  0
LINE
  5
F1
330
1F
100
AcDbEntity
  8
仕上
  6
Continuous
 62
     3
370
     9
100
AcDbLine
 10
-174.9997113202069
 20
395.4098742412357
 30
0.0
 11
-146.9999653584248
 21
395.4098742412357
 31
0.0
  0
LINE
  5
F2
330
1F
100
AcDbEntity
  8
仕上
  6
Continuous
 62
     3
370
     9
100
AcDbLine
 10
-157.9998779296875
 20
438.4101150826631
 30
0.0
 11
-157.9998779296875
 21
420.4100062091413
 31
0.0
  0
LINE
  5
F3
330
1F
100
AcDbEntity
  8
仕上
  6
Continuous
 62
     3
370
     9
100
AcDbLine
 10
-157.9998779296875
 20
438.4101150826631
 30
0.0
 11
-117.9997707057644
 21
438.4101150826631
 31
0.0
  0
LINE
  5
F4
330
1F
100
AcDbEntity
  8
仕上
  6
Continuous
 62
     3
370
     9
100
AcDbLine
 10
-174.9997113202069
 20
395.4098742412357
 30
0.0
 11
-174.9997113202069
 21
413.4101563226336
 31
0.0
  0
LINE
  5
F5
330
1F
100
AcDbEntity
  8
仕上
  6
Continuous
 62
     3
370
     9
100
AcDbLine
 10
-187.9998284417231
 20
395.4098742412357
 30
0.0
 11
-179.9997030722129
 21
395.4098742412357
 31
0.0
  0
LINE
  5
F6
330
1F
100
AcDbEntity
  8
仕上
  6
Continuous
 62
     3
370
     9
100
AcDbLine
 10
-87.99999340160474
 20
295.4101258050555
 30
0.0
 11
-87.99999340160474
 21
313.4098016588879
 31
0.0
  0
LINE
  5
F7
330
1F
100
AcDbEntity
  8
仕上
  6
Continuous
 62
     3
370
     9
100
AcDbLine
 10
-87.99999340160474
 20
313.4098016588879
 30
0.0
 11
-95.99994556323901
 21
313.4098016588879
 31
0.0
  0
LINE
  5
F8
330
1F
100
AcDbEntity
  8
仕上
  6
Continuous
 62
     3
370
     9
100
AcDbLine
 10
-87.99999340160474
 20
295.4101258050555
 30
0.0
 11
-95.99994556323901
 21
295.4101258050555
 31
0.0
  0
LINE
  5
F9
330
1F
100
AcDbEntity
  8
仕上
  6
Continuous
 62
     3
370
     9
100
AcDbLine
 10
-220.9997393633869
 20
345.4099567211767
 30
0.0
 11
-192.9999934016047
 21
345.4099567211767
 31
0.0
  0
LINE
  5
FA
330
1F
100
AcDbEntity
  8
仕上
  6
Continuous
 62
     3
370
     9
100
AcDbLine
 10
-220.9997393633869
 20
363.4103254065124
 30
0.0
 11
-192.9999934016047
 21
363.4103254065124
 31
0.0
  0
LINE
  5
FB
330
1F
100
AcDbEntity
  8
仕上
  6
Continuous
 62
     3
370
     9
100
AcDbLine
 10
-203.9997327649916
 20
370.4100020851442
 30
0.0
 11
-163.9997987489444
 21
370.4100020851442
 31
0.0
  0
LINE
  5
FC
330
1F
100
AcDbEntity
  8
仕上
  6
Continuous
 62
     3
370
     9
100
AcDbLine
 10
-203.9997327649916
 20
388.4099377507904
 30
0.0
 11
-203.9997327649916
 21
370.4100020851442
 31
0.0
  0
LINE
  5
FD
330
1F
100
AcDbEntity
  8
仕上
  6
Continuous
 62
     3
370
     9
100
AcDbLine
 10
-203.9997327649916
 20
388.4099377507904
 30
0.0
 11
-163.9997987489444
 21
388.4099377507904
 31
0.0
  0
LINE
  5
FE
330
1F
100
AcDbEntity
  8
仕上
  6
Continuous
 62
     3
370
     9
100
AcDbLine
 10
-187.9998284417231
 20
395.4098742412357
 30
0.0
 11
-187.9998284417231
 21
413.4101563226336
 31
0.0
  0
LINE
  5
FF
330
1F
100
AcDbEntity
  8
仕上
  6
Continuous
 62
     3
370
     9
100
AcDbLine
 10
-163.9997987489444
 20
438.4101150826631
 30
0.0
 11
-163.9997987489444
 21
420.4100062091413
 31
0.0
  0
LINE
  5
100
330
1F
100
AcDbEntity
  8
仕上
  6
Continuous
 62
     3
370
     9
100
AcDbLine
 10
-128.999856484903
 20
463.4100738426928
 30
0.0
 11
-100.9997641073692
 21
463.4100738426928
 31
0.0
  0
LINE
  5
101
330
1F
100
AcDbEntity
  8
仕上
  6
Continuous
 62
     3
370
     9
100
AcDbLine
 10
-111.9998498865077
 20
488.4099459987843
 30
0.0
 11
-111.9998498865077
 21
470.4100969370762
 31
0.0
  0
LINE
  5
102
330
1F
100
AcDbEntity
  8
仕上
  6
Continuous
 62
     3
370
     9
100
AcDbLine
 10
-157.9998779296875
 20
470.4100969370762
 30
0.0
 11
-117.9997707057644
 21
470.4100969370762
 31
0.0
  0
LINE
  5
103
330
1F
100
AcDbEntity
  8
仕上
  6
Continuous
 62
     3
370
     9
100
AcDbLine
 10
-117.9997707057644
 20
488.4099459987843
 30
0.0
 11
-117.9997707057644
 21
470.4100969370762
 31
0.0
  0
LINE
  5
104
330
1F
100
AcDbEntity
  8
仕上
  6
Continuous
 62
     3
370
     9
100
AcDbLine
 10
-179.9997030722129
 20
395.4098742412357
 30
0.0
 11
-179.9997030722129
 21
413.4101563226336
 31
0.0
  0
LINE
  5
105
330
1F
100
AcDbEntity
  8
仕上
  6
Continuous
 62
     3
370
     9
100
AcDbLine
 10
-188.0000016495989
 20
413.4101563226336
 30
0.0
 11
-179.9997030722129
 21
413.4101563226336
 31
0.0
  0
LINE
  5
106
330
1F
100
AcDbEntity
  8
仕上
  6
Continuous
 62
     3
370
     9
100
AcDbLine
 10
-141.999973606419
 20
445.4100515731087
 30
0.0
 11
-133.9998482369088
 21
445.4100515731087
 31
0.0
  0
LINE
  5
107
330
1F
100
AcDbEntity
  8
仕上
  6
Continuous
 62
     3
370
     9
100
AcDbLine
 10
-146.9999653584248
 20
445.4100515731087
 30
0.0
 11
-174.9998845280828
 21
445.4100515731087
 31
0.0
  0
LINE
  5
108
330
1F
100
AcDbEntity
  8
仕上
  6
Continuous
 62
     3
370
     9
100
AcDbLine
 10
-146.9999653584248
 20
445.4100515731087
 30
0.0
 11
-146.9999653584248
 21
463.4100738426928
 31
0.0
  0
LINE
  5
109
330
1F
100
AcDbEntity
  8
仕上
  6
Continuous
 62
     3
370
     9
100
AcDbLine
 10
-141.999973606419
 20
445.4100515731087
 30
0.0
 11
-141.999973606419
 21
463.4100738426928
 31
0.0
  0
LINE
  5
10A
330
1F
100
AcDbEntity
  8
仕上
  6
Continuous
 62
     3
370
     9
100
AcDbLine
 10
-133.9998482369088
 20
445.4100515731087
 30
0.0
 11
-133.9998482369088
 21
463.4100738426928
 31
0.0
  0
LINE
  5
10B
330
1F
100
AcDbEntity
  8
仕上
  6
Continuous
 62
     3
370
     9
100
AcDbLine
 10
-25.99980122334256
 20
488.4099459987843
 30
0.0
 11
-25.99980122334256
 21
470.4100969370762
 31
0.0
  0
LINE
  5
10C
330
1F
100
AcDbEntity
  8
仕上
  6
Continuous
 62
     3
370
     9
100
AcDbLine
 10
-19.9999670080237
 20
488.4099459987843
 30
0.0
 11
-19.9999670080237
 21
470.4100969370762
 31
0.0
  0
LINE
  5
10D
330
1F
100
AcDbEntity
  8
仕上
  6
Continuous
 62
     3
370
     9
100
AcDbLine
 10
-65.99990844726562
 20
470.4100969370762
 30
0.0
 11
-25.99980122334256
 21
470.4100969370762
 31
0.0
  0
LINE
  5
10E
330
1F
100
AcDbEntity
  8
仕上
  6
Continuous
 62
     3
370
     9
100
AcDbLine
 10
-111.9998498865077
 20
470.4100969370762
 30
0.0
 11
-72.00000247439817
 21
470.4100969370762
 31
0.0
  0
LINE
  5
10F
330
1F
100
AcDbEntity
  8
仕上
  6
Continuous
 62
     3
370
     9
100
AcDbLine
 10
3.999889476879105
 20
395.4101340530497
 30
0.0
 11
3.999889476879105
 21
413.4101563226336
 31
0.0
  0
LINE
  5
110
330
1F
100
AcDbEntity
  8
仕上
  6
Continuous
 62
     3
370
     9
100
AcDbLine
 10
3.999889476879105
 20
445.4100515731087
 30
0.0
 11
3.999889476879105
 21
463.4100738426928
 31
0.0
  0
LINE
  5
111
330
1F
100
AcDbEntity
  8
仕上
  6
Continuous
 62
     3
370
     9
100
AcDbLine
 10
-19.9999670080237
 20
370.4100020851442
 30
0.0
 11
20.00005361196153
 21
370.4100020851442
 31
0.0
  0
LINE
  5
112
330
1F
100
AcDbEntity
  8
仕上
  6
Continuous
 62
     3
370
     9
100
AcDbLine
 10
-65.99990844726562
 20
488.4099459987843
 30
0.0
 11
-65.99990844726562
 21
470.4100969370762
 31
0.0
  0
LINE
  5
113
330
1F
100
AcDbEntity
  8
仕上
  6
Continuous
 62
     3
370
     9
100
AcDbLine
 10
-65.99990844726562
 20
488.4099459987843
 30
0.0
 11
-25.99980122334256
 21
488.4099459987843
 31
0.0
  0
LINE
  5
114
330
1F
100
AcDbEntity
  8
仕上
  6
Continuous
 62
     3
370
     9
100
AcDbLine
 10
-71.99991587046034
 20
488.4099459987843
 30
0.0
 11
-71.99991587046034
 21
470.4100969370762
 31
0.0
  0
LINE
  5
115
330
1F
100
AcDbEntity
  8
仕上
  6
Continuous
 62
     3
370
     9
100
AcDbLine
 10
-111.9998498865077
 20
488.4099459987843
 30
0.0
 11
-71.99991587046034
 21
488.4099459987843
 31
0.0
  0
LINE
  5
116
330
1F
100
AcDbEntity
  8
仕上
  6
Continuous
 62
     3
370
     9
100
AcDbLine
 10
-19.9999670080237
 20
488.4099459987843
 30
0.0
 11
20.00005361196153
 21
488.4099459987843
 31
0.0
  0
LINE
  5
117
330
1F
100
AcDbEntity
  8
仕上
  6
Continuous
 62
     3
370
     9
100
AcDbLine
 10
-49.99991752005926
 20
495.4098824892299
 30
0.0
 11
-41.99996535842479
 21
495.4098824892299
 31
0.0
  0
LINE
  5
118
330
1F
100
AcDbEntity
  8
仕上
  6
Continuous
 62
     3
370
     9
100
AcDbLine
 10
-36.99997360641896
 20
495.4098824892299
 30
0.0
 11
-8.99988122888513
 21
495.4098824892299
 31
0.0
  0
LINE
  5
119
330
1F
100
AcDbEntity
  8
仕上
  6
Continuous
 62
     3
370
     9
100
AcDbLine
 10
-3.999802872941274
 20
495.4102289049816
 30
0.0
 11
3.999889476879105
 21
495.4102289049816
 31
0.0
  0
LINE
  5
11A
330
1F
100
AcDbEntity
  8
仕上
  6
Continuous
 62
     3
370
     9
100
AcDbLine
 10
-233.9998564849029
 20
295.4101258050555
 30
0.0
 11
-233.9998564849029
 21
313.4098016588879
 31
0.0
  0
LINE
  5
11B
330
1F
100
AcDbEntity
  8
仕上
  6
Continuous
 62
     3
370
     9
100
AcDbLine
 10
-225.9999043232687
 20
313.4098016588879
 30
0.0
 11
-233.9998564849029
 21
313.4098016588879
 31
0.0
  0
LINE
  5
11C
330
1F
100
AcDbEntity
  8
仕上
  6
Continuous
 62
     3
370
     9
100
AcDbLine
 10
-225.9999043232687
 20
295.4101258050555
 30
0.0
 11
-233.9998564849029
 21
295.4101258050555
 31
0.0
  0
LINE
  5
11D
330
1F
100
AcDbEntity
  8
仕上
  6
Continuous
 62
     3
370
     9
100
AcDbLine
 10
-141.999973606419
 20
463.4100738426928
 30
0.0
 11
-133.9998482369088
 21
463.4100738426928
 31
0.0
  0
LINE
  5
11E
330
1F
100
AcDbEntity
  8
仕上
  6
Continuous
 62
     3
370
     9
100
AcDbLine
 10
-220.9997393633869
 20
345.4099567211767
 30
0.0
 11
-220.9997393633869
 21
363.4103254065124
 31
0.0
  0
LINE
  5
11F
330
1F
100
AcDbEntity
  8
仕上
  6
Continuous
 62
     3
370
     9
100
AcDbLine
 10
-233.9998564849029
 20
345.4099567211767
 30
0.0
 11
-225.9997311153928
 21
345.4099567211767
 31
0.0
  0
LINE
  5
120
330
1F
100
AcDbEntity
  8
仕上
  6
Continuous
 62
     3
370
     9
100
AcDbLine
 10
-225.9997311153928
 20
345.4099567211767
 30
0.0
 11
-225.9997311153928
 21
363.4103254065124
 31
0.0
  0
LINE
  5
121
330
1F
100
AcDbEntity
  8
仕上
  6
Continuous
 62
     3
370
     9
100
AcDbLine
 10
-209.9998267921241
 20
388.4099377507904
 30
0.0
 11
-209.9998267921241
 21
370.4100020851442
 31
0.0
  0
LINE
  5
122
330
1F
100
AcDbEntity
  8
仕上
  6
Continuous
 62
     3
370
     9
100
AcDbLine
 10
-233.9998564849029
 20
345.4099567211767
 30
0.0
 11
-233.9998564849029
 21
363.4103254065124
 31
0.0
  0
LINE
  5
123
330
1F
100
AcDbEntity
  8
仕上
  6
Continuous
 62
     3
370
     9
100
AcDbLine
 10
-233.9998564849029
 20
363.4103254065124
 30
0.0
 11
-225.9997311153928
 21
363.4103254065124
 31
0.0
  0
LINE
  5
124
330
1F
100
AcDbEntity
  8
仕上
  6
Continuous
 62
     3
370
     9
100
AcDbLine
 10
-192.9999934016047
 20
395.4098742412357
 30
0.0
 11
-192.9999934016047
 21
413.4101563226336
 31
0.0
  0
LINE
  5
125
330
1F
100
AcDbEntity
  8
仕上
  6
Continuous
 62
     3
370
     9
100
AcDbLine
 10
-238.9998482369088
 20
295.4101258050555
 30
0.0
 11
-238.9998482369088
 21
313.4098016588879
 31
0.0
  0
LINE
  5
126
330
1F
100
AcDbEntity
  8
仕上
  6
Continuous
 62
     3
370
     9
100
AcDbLine
 10
-242.9375560863598
 20
338.4101934386069
 30
0.0
 11
-209.9998267921241
 21
338.4101934386069
 31
0.0
  0
LINE
  5
127
330
1F
100
AcDbEntity
  8
仕上
  6
Continuous
 62
     3
370
     9
100
AcDbLine
 10
-246.614239666913
 20
320.4099979611472
 30
0.0
 11
-209.9998267921241
 21
320.4099979611472
 31
0.0
  0
LINE
  5
128
330
1F
100
AcDbEntity
  8
仕上
  6
Continuous
 62
     3
370
     9
100
AcDbLine
 10
-247.676523569468
 20
313.4098016588879
 30
0.0
 11
-238.9998482369088
 21
313.4098016588879
 31
0.0
  0
LINE
  5
129
330
1F
100
AcDbEntity
  8
仕上
  6
Continuous
 62
     3
370
     9
100
AcDbLine
 10
-249.4867190799198
 20
295.4101258050555
 30
0.0
 11
-238.9998482369088
 21
295.4101258050555
 31
0.0
  0
LINE
  5
12A
330
1F
100
AcDbEntity
  8
仕上
  6
Continuous
 62
     3
370
     9
100
AcDbLine
 10
-238.9998482369088
 20
345.4099567211767
 30
0.0
 11
-238.9998482369088
 21
352.7491208364639
 31
0.0
  0
LINE
  5
12B
330
1F
100
AcDbEntity
  8
仕上
  6
Continuous
 62
     3
370
     9
100
AcDbLine
 10
-241.1299586940457
 20
345.4099567211767
 30
0.0
 11
-238.9998482369088
 21
345.4099567211767
 31
0.0
  0
LINE
  5
12C
330
1F
100
AcDbEntity
  8
仕上
  6
Continuous
 62
     3
370
     9
100
AcDbLine
 10
-232.8488901499156
 20
370.4100020851442
 30
0.0
 11
-209.9998267921241
 21
370.4100020851442
 31
0.0
  0
LINE
  5
12D
330
1F
100
AcDbEntity
  8
仕上
  6
Continuous
 62
     3
370
     9
100
AcDbLine
 10
-224.9859454180744
 20
388.4099377507904
 30
0.0
 11
-209.9998267921241
 21
388.4099377507904
 31
0.0
  0
LINE
  5
12E
330
1F
100
AcDbEntity
  8
仕上
  6
Continuous
 62
     3
370
     9
100
AcDbLine
 10
-211.0534503008869
 20
413.4101563226336
 30
0.0
 11
-192.9999934016047
 21
413.4101563226336
 31
0.0
  0
LINE
  5
12F
330
1F
100
AcDbEntity
  8
仕上
  6
Continuous
 62
     3
370
     9
100
AcDbLine
 10
-221.4578741949958
 20
395.4098742412357
 30
0.0
 11
-192.9999934016047
 21
395.4098742412357
 31
0.0
  0
LINE
  5
130
330
1F
100
AcDbEntity
  8
仕上
  6
Continuous
 62
     3
370
     9
100
AcDbLine
 10
-192.9213570259713
 20
438.4101150826631
 30
0.0
 11
-163.9997987489444
 21
438.4101150826631
 31
0.0
  0
LINE
  5
131
330
1F
100
AcDbEntity
  8
仕上
  6
Continuous
 62
     3
370
     9
100
AcDbLine
 10
-174.9998845280828
 20
445.4100515731087
 30
0.0
 11
-174.9998845280828
 21
457.9448457361683
 31
0.0
  0
LINE
  5
132
330
1F
100
AcDbEntity
  8
仕上
  6
Continuous
 62
     3
370
     9
100
AcDbLine
 10
-169.244186813767
 20
463.4100738426928
 30
0.0
 11
-146.9999653584248
 21
463.4100738426928
 31
0.0
  0
LINE
  5
133
330
1F
100
AcDbEntity
  8
仕上
  6
Continuous
 62
     3
370
     9
100
AcDbLine
 10
-179.9998762800888
 20
445.4100515731087
 30
0.0
 11
-179.9998762800888
 21
452.9025046585184
 31
0.0
  0
LINE
  5
134
330
1F
100
AcDbEntity
  8
仕上
  6
Continuous
 62
     3
370
     9
100
AcDbLine
 10
-186.932175095017
 20
445.4100515731087
 30
0.0
 11
-179.9998762800888
 21
445.4100515731087
 31
0.0
  0
LINE
  5
135
330
1F
100
AcDbEntity
  8
仕上
  6
Continuous
 62
     3
370
     9
100
AcDbLine
 10
-137.1809840846707
 20
488.4099459987843
 30
0.0
 11
-117.9997707057644
 21
488.4099459987843
 31
0.0
  0
LINE
  5
136
330
1F
100
AcDbEntity
  8
仕上
  6
Continuous
 62
     3
370
     9
100
AcDbLine
 10
-157.9998779296875
 20
473.1513713841307
 30
0.0
 11
-157.9998779296875
 21
470.4100969370762
 31
0.0
  0
LINE
  5
137
330
1F
100
AcDbEntity
  8
仕上
  6
Continuous
 62
     3
370
     9
100
AcDbLine
 10
-125.8713758313978
 20
495.4098824892299
 30
0.0
 11
-100.9997641073692
 21
495.4098824892299
 31
0.0
  0
LINE
  5
138
330
1F
100
AcDbEntity
  8
仕上
  6
Continuous
 62
     3
370
     9
100
AcDbLine
 10
-100.9997641073692
 20
495.4098824892299
 30
0.0
 11
-100.9997641073692
 21
508.0987450578532
 31
0.0
  0
LINE
  5
139
330
1F
100
AcDbEntity
  8
仕上
  6
Continuous
 62
     3
370
     9
100
AcDbLine
 10
-203.9997327649916
 20
420.4100062091413
 30
0.0
 11
-163.9997987489444
 21
420.4100062091413
 31
0.0
  0
LINE
  5
13A
330
1F
100
AcDbEntity
  8
仕上
  6
Continuous
 62
     3
370
     9
100
AcDbLine
 10
-203.9997327649916
 20
423.9218824958283
 30
0.0
 11
-203.9997327649916
 21
420.4100062091413
 31
0.0
  0
LINE
  5
13B
330
1F
100
AcDbEntity
  8
仕上
  6
Continuous
 62
     3
370
     9
100
AcDbLine
 10
-66.48307181693426
 20
495.4098824892299
 30
0.0
 11
-55.00008247994094
 21
495.4098824892299
 31
0.0
  0
LINE
  5
13C
330
1F
100
AcDbEntity
  8
仕上
  6
Continuous
 62
     3
370
     9
100
AcDbLine
 10
-83.49970637141055
 20
496.9341117966625
 30
0.0
 11
-91.74214955922716
 21
518.4063457493651
 31
0.0
  0
LINE
  5
13D
330
1F
100
AcDbEntity
  8
仕上
  6
Continuous
 62
     3
370
     9
100
AcDbLine
 10
-55.00008247994094
 20
495.4098824892299
 30
0.0
 11
-55.00008247994094
 21
498.6152674396101
 31
0.0
  0
LINE
  5
13E
330
1F
100
AcDbEntity
  8
仕上
  6
Continuous
 62
     3
370
     9
100
AcDbLine
 10
-49.99991752005926
 20
495.4098824892299
 30
0.0
 11
-49.99991752005926
 21
499.8095357435586
 31
0.0
  0
LINE
  5
13F
330
1F
100
AcDbEntity
  8
仕上
  6
Continuous
 62
     3
370
     9
100
AcDbLine
 10
-41.99996535842479
 20
495.4098824892299
 30
0.0
 11
-41.99996535842479
 21
501.4728509752941
 31
0.0
  0
LINE
  5
140
330
1F
100
AcDbEntity
  8
仕上
  6
Continuous
 62
     3
370
     9
100
AcDbLine
 10
-36.99997360641896
 20
495.4098824892299
 30
0.0
 11
-36.99997360641896
 21
502.3607145468735
 31
0.0
  0
LINE
  5
141
330
1F
100
AcDbEntity
  8
仕上
  6
Continuous
 62
     3
370
     9
100
AcDbLine
 10
-8.99988122888513
 20
495.4098824892299
 30
0.0
 11
-8.99988122888513
 21
505.2305958417426
 31
0.0
  0
LINE
  5
142
330
1F
100
AcDbEntity
  8
仕上
  6
Continuous
 62
     3
370
     9
100
AcDbLine
 10
-3.999802872941274
 20
495.4098824892299
 30
0.0
 11
-3.999802872941274
 21
505.3745315865693
 31
0.0
  0
LINE
  5
143
330
1F
100
AcDbEntity
  8
仕上
  6
Continuous
 62
     3
370
     9
100
AcDbLine
 10
112.0000230943834
 20
320.4099979611472
 30
0.0
 11
72.0000890783362
 21
320.4099979611472
 31
0.0
  0
LINE
  5
144
330
1F
100
AcDbEntity
  8
仕上
  6
Continuous
 62
     3
370
     9
100
AcDbLine
 10
41.99996535842479
 20
345.4099567211767
 30
0.0
 11
41.99996535842479
 21
363.4103254065124
 31
0.0
  0
LINE
  5
145
330
1F
100
AcDbEntity
  8
仕上
  6
Continuous
 62
     3
370
     9
100
AcDbLine
 10
50.00009072793492
 20
345.4099567211767
 30
0.0
 11
50.00009072793492
 21
363.4103254065124
 31
0.0
  0
LINE
  5
146
330
1F
100
AcDbEntity
  8
仕上
  6
Continuous
 62
     3
370
     9
100
AcDbLine
 10
55.00008247994074
 20
345.4099567211767
 30
0.0
 11
55.00008247994074
 21
363.4103254065124
 31
0.0
  0
LINE
  5
147
330
1F
100
AcDbEntity
  8
仕上
  6
Continuous
 62
     3
370
     9
100
AcDbLine
 10
50.00009072793492
 20
363.4103254065124
 30
0.0
 11
41.99996535842479
 21
363.4103254065124
 31
0.0
  0
LINE
  5
148
330
1F
100
AcDbEntity
  8
仕上
  6
Continuous
 62
     3
370
     9
100
AcDbLine
 10
50.00009072793492
 20
345.4099567211767
 30
0.0
 11
41.99996535842479
 21
345.4099567211767
 31
0.0
  0
LINE
  5
149
330
1F
100
AcDbEntity
  8
仕上
  6
Continuous
 62
     3
370
     9
100
AcDbLine
 10
83.00008825353675
 20
363.4103254065124
 30
0.0
 11
55.00008247994074
 21
363.4103254065124
 31
0.0
  0
LINE
  5
14A
330
1F
100
AcDbEntity
  8
仕上
  6
Continuous
 62
     3
370
     9
100
AcDbLine
 10
83.00008825353675
 20
345.4099567211767
 30
0.0
 11
55.00008247994074
 21
345.4099567211767
 31
0.0
  0
LINE
  5
14B
330
1F
100
AcDbEntity
  8
仕上
  6
Continuous
 62
     3
370
     9
100
AcDbLine
 10
20.00005361196153
 20
388.4099377507904
 30
0.0
 11
20.00005361196153
 21
370.4100020851442
 31
0.0
  0
LINE
  5
14C
330
1F
100
AcDbEntity
  8
仕上
  6
Continuous
 62
     3
370
     9
100
AcDbLine
 10
65.99999505120346
 20
388.4099377507904
 30
0.0
 11
65.99999505120346
 21
370.4100020851442
 31
0.0
  0
LINE
  5
14D
330
1F
100
AcDbEntity
  8
仕上
  6
Continuous
 62
     3
370
     9
100
AcDbLine
 10
65.99999505120346
 20
370.4100020851442
 30
0.0
 11
26.00006103515625
 21
370.4100020851442
 31
0.0
  0
LINE
  5
14E
330
1F
100
AcDbEntity
  8
仕上
  6
Continuous
 62
     3
370
     9
100
AcDbLine
 10
26.00006103515625
 20
388.4099377507904
 30
0.0
 11
26.00006103515625
 21
370.4100020851442
 31
0.0
  0
LINE
  5
14F
330
1F
100
AcDbEntity
  8
仕上
  6
Continuous
 62
     3
370
     9
100
AcDbLine
 10
65.99999505120346
 20
388.4099377507904
 30
0.0
 11
26.00006103515625
 21
388.4099377507904
 31
0.0
  0
LINE
  5
150
330
1F
100
AcDbEntity
  8
仕上
  6
Continuous
 62
     3
370
     9
100
AcDbLine
 10
112.0000230943834
 20
370.4100020851442
 30
0.0
 11
72.0000890783362
 21
370.4100020851442
 31
0.0
  0
LINE
  5
151
330
1F
100
AcDbEntity
  8
仕上
  6
Continuous
 62
     3
370
     9
100
AcDbLine
 10
72.0000890783362
 20
388.4099377507904
 30
0.0
 11
72.0000890783362
 21
370.4100020851442
 31
0.0
  0
LINE
  5
152
330
1F
100
AcDbEntity
  8
仕上
  6
Continuous
 62
     3
370
     9
100
AcDbLine
 10
41.99996535842479
 20
395.4101340530497
 30
0.0
 11
41.99996535842479
 21
413.4101563226336
 31
0.0
  0
LINE
  5
153
330
1F
100
AcDbEntity
  8
仕上
  6
Continuous
 62
     3
370
     9
100
AcDbLine
 10
36.99997360641896
 20
395.4101340530497
 30
0.0
 11
36.99997360641896
 21
413.4101563226336
 31
0.0
  0
LINE
  5
154
330
1F
100
AcDbEntity
  8
仕上
  6
Continuous
 62
     3
370
     9
100
AcDbLine
 10
50.00009072793492
 20
395.4101340530497
 30
0.0
 11
50.00009072793492
 21
413.4101563226336
 31
0.0
  0
LINE
  5
155
330
1F
100
AcDbEntity
  8
仕上
  6
Continuous
 62
     3
370
     9
100
AcDbLine
 10
55.00008247994074
 20
395.4101340530497
 30
0.0
 11
55.00008247994074
 21
413.4101563226336
 31
0.0
  0
LINE
  5
156
330
1F
100
AcDbEntity
  8
仕上
  6
Continuous
 62
     3
370
     9
100
AcDbLine
 10
50.00009072793492
 20
413.4101563226336
 30
0.0
 11
41.99996535842479
 21
413.4101563226336
 31
0.0
  0
LINE
  5
157
330
1F
100
AcDbEntity
  8
仕上
  6
Continuous
 62
     3
370
     9
100
AcDbLine
 10
50.00009072793492
 20
395.4101340530497
 30
0.0
 11
41.99996535842479
 21
395.4101340530497
 31
0.0
  0
LINE
  5
158
330
1F
100
AcDbEntity
  8
仕上
  6
Continuous
 62
     3
370
     9
100
AcDbLine
 10
83.00008825353675
 20
395.4101340530497
 30
0.0
 11
55.00008247994074
 21
395.4101340530497
 31
0.0
  0
LINE
  5
159
330
1F
100
AcDbEntity
  8
仕上
  6
Continuous
 62
     3
370
     9
100
AcDbLine
 10
8.99988122888513
 20
395.4101340530497
 30
0.0
 11
8.99988122888513
 21
413.4101563226336
 31
0.0
  0
LINE
  5
15A
330
1F
100
AcDbEntity
  8
仕上
  6
Continuous
 62
     3
370
     9
100
AcDbLine
 10
36.99997360641896
 20
413.4101563226336
 30
0.0
 11
8.99988122888513
 21
413.4101563226336
 31
0.0
  0
LINE
  5
15B
330
1F
100
AcDbEntity
  8
仕上
  6
Continuous
 62
     3
370
     9
100
AcDbLine
 10
36.99997360641896
 20
395.4101340530497
 30
0.0
 11
8.99988122888513
 21
395.4101340530497
 31
0.0
  0
LINE
  5
15C
330
1F
100
AcDbEntity
  8
仕上
  6
Continuous
 62
     3
370
     9
100
AcDbLine
 10
117.9997707057642
 20
338.4101934386069
 30
0.0
 11
117.9997707057642
 21
320.4099979611472
 31
0.0
  0
LINE
  5
15D
330
1F
100
AcDbEntity
  8
仕上
  6
Continuous
 62
     3
370
     9
100
AcDbLine
 10
87.99999340160474
 20
345.4099567211767
 30
0.0
 11
87.99999340160474
 21
363.4103254065124
 31
0.0
  0
LINE
  5
15E
330
1F
100
AcDbEntity
  8
仕上
  6
Continuous
 62
     3
370
     9
100
AcDbLine
 10
83.00008825353675
 20
345.4099567211767
 30
0.0
 11
83.00008825353675
 21
363.4103254065124
 31
0.0
  0
LINE
  5
15F
330
1F
100
AcDbEntity
  8
仕上
  6
Continuous
 62
     3
370
     9
100
AcDbLine
 10
95.99994556323901
 20
345.4099567211767
 30
0.0
 11
95.99994556323901
 21
363.4103254065124
 31
0.0
  0
LINE
  5
160
330
1F
100
AcDbEntity
  8
仕上
  6
Continuous
 62
     3
370
     9
100
AcDbLine
 10
100.9999373152448
 20
345.4099567211767
 30
0.0
 11
100.9999373152448
 21
363.4103254065124
 31
0.0
  0
LINE
  5
161
330
1F
100
AcDbEntity
  8
仕上
  6
Continuous
 62
     3
370
     9
100
AcDbLine
 10
95.99994556323901
 20
363.4103254065124
 30
0.0
 11
87.99999340160474
 21
363.4103254065124
 31
0.0
  0
LINE
  5
162
330
1F
100
AcDbEntity
  8
仕上
  6
Continuous
 62
     3
370
     9
100
AcDbLine
 10
95.99994556323901
 20
345.4099567211767
 30
0.0
 11
87.99999340160474
 21
345.4099567211767
 31
0.0
  0
LINE
  5
163
330
1F
100
AcDbEntity
  8
仕上
  6
Continuous
 62
     3
370
     9
100
AcDbLine
 10
128.9998564849028
 20
363.4103254065124
 30
0.0
 11
100.9999373152448
 21
363.4103254065124
 31
0.0
  0
LINE
  5
164
330
1F
100
AcDbEntity
  8
仕上
  6
Continuous
 62
     3
370
     9
100
AcDbLine
 10
128.9998564849028
 20
345.4099567211767
 30
0.0
 11
100.9999373152448
 21
345.4099567211767
 31
0.0
  0
LINE
  5
165
330
1F
100
AcDbEntity
  8
仕上
  6
Continuous
 62
     3
370
     9
100
AcDbLine
 10
83.00008825353675
 20
295.4101258050555
 30
0.0
 11
83.00008825353675
 21
313.4098016588879
 31
0.0
  0
LINE
  5
166
330
1F
100
AcDbEntity
  8
仕上
  6
Continuous
 62
     3
370
     9
100
AcDbLine
 10
95.99994556323901
 20
395.4101340530497
 30
0.0
 11
87.99999340160474
 21
395.4101340530497
 31
0.0
  0
LINE
  5
167
330
1F
100
AcDbEntity
  8
仕上
  6
Continuous
 62
     3
370
     9
100
AcDbLine
 10
128.9998564849028
 20
345.4099567211767
 30
0.0
 11
128.9998564849028
 21
363.4103254065124
 31
0.0
  0
LINE
  5
168
330
1F
100
AcDbEntity
  8
仕上
  6
Continuous
 62
     3
370
     9
100
AcDbLine
 10
157.9998779296875
 20
338.4101934386069
 30
0.0
 11
117.9997707057642
 21
338.4101934386069
 31
0.0
  0
LINE
  5
169
330
1F
100
AcDbEntity
  8
仕上
  6
Continuous
 62
     3
370
     9
100
AcDbLine
 10
157.9998779296875
 20
320.4099979611472
 30
0.0
 11
117.9997707057642
 21
320.4099979611472
 31
0.0
  0
LINE
  5
16A
330
1F
100
AcDbEntity
  8
仕上
  6
Continuous
 62
     3
370
     9
100
AcDbLine
 10
101.0001971270587
 20
313.4098016588879
 30
0.0
 11
129.0000296927787
 21
313.4098016588879
 31
0.0
  0
LINE
  5
16B
330
1F
100
AcDbEntity
  8
仕上
  6
Continuous
 62
     3
370
     9
100
AcDbLine
 10
141.999973606419
 20
345.4099567211767
 30
0.0
 11
134.0000214447847
 21
345.4099567211767
 31
0.0
  0
LINE
  5
16C
330
1F
100
AcDbEntity
  8
仕上
  6
Continuous
 62
     3
370
     9
100
AcDbLine
 10
134.0000214447847
 20
345.4099567211767
 30
0.0
 11
134.0000214447847
 21
363.4103254065124
 31
0.0
  0
LINE
  5
16D
330
1F
100
AcDbEntity
  8
仕上
  6
Continuous
 62
     3
370
     9
100
AcDbLine
 10
157.9998779296875
 20
370.4100020851442
 30
0.0
 11
117.9997707057642
 21
370.4100020851442
 31
0.0
  0
LINE
  5
16E
330
1F
100
AcDbEntity
  8
仕上
  6
Continuous
 62
     3
370
     9
100
AcDbLine
 10
117.9997707057642
 20
388.4099377507904
 30
0.0
 11
117.9997707057642
 21
370.4100020851442
 31
0.0
  0
LINE
  5
16F
330
1F
100
AcDbEntity
  8
仕上
  6
Continuous
 62
     3
370
     9
100
AcDbLine
 10
87.99999340160474
 20
395.4101340530497
 30
0.0
 11
87.99999340160474
 21
413.4101563226336
 31
0.0
  0
LINE
  5
170
330
1F
100
AcDbEntity
  8
仕上
  6
Continuous
 62
     3
370
     9
100
AcDbLine
 10
95.99994556323901
 20
395.4101340530497
 30
0.0
 11
95.99994556323901
 21
413.4101563226336
 31
0.0
  0
LINE
  5
171
330
1F
100
AcDbEntity
  8
仕上
  6
Continuous
 62
     3
370
     9
100
AcDbLine
 10
100.9999373152448
 20
395.4101340530497
 30
0.0
 11
100.9999373152448
 21
413.4101563226336
 31
0.0
  0
LINE
  5
172
330
1F
100
AcDbEntity
  8
仕上
  6
Continuous
 62
     3
370
     9
100
AcDbLine
 10
128.9998564849028
 20
395.4101340530497
 30
0.0
 11
100.9999373152448
 21
395.4101340530497
 31
0.0
  0
LINE
  5
173
330
1F
100
AcDbEntity
  8
仕上
  6
Continuous
 62
     3
370
     9
100
AcDbLine
 10
65.99999505120346
 20
420.4100062091413
 30
0.0
 11
26.00006103515625
 21
420.4100062091413
 31
0.0
  0
LINE
  5
174
330
1F
100
AcDbEntity
  8
仕上
  6
Continuous
 62
     3
370
     9
100
AcDbLine
 10
26.00006103515625
 20
438.4101150826631
 30
0.0
 11
26.00006103515625
 21
420.4100062091413
 31
0.0
  0
LINE
  5
175
330
1F
100
AcDbEntity
  8
仕上
  6
Continuous
 62
     3
370
     9
100
AcDbLine
 10
20.00005361196153
 20
438.4101150826631
 30
0.0
 11
20.00005361196153
 21
420.4100062091413
 31
0.0
  0
LINE
  5
176
330
1F
100
AcDbEntity
  8
仕上
  6
Continuous
 62
     3
370
     9
100
AcDbLine
 10
83.00008825353675
 20
395.4101340530497
 30
0.0
 11
83.00008825353675
 21
413.4101563226336
 31
0.0
  0
LINE
  5
177
330
1F
100
AcDbEntity
  8
仕上
  6
Continuous
 62
     3
370
     9
100
AcDbLine
 10
83.00008825353675
 20
413.4101563226336
 30
0.0
 11
55.00008247994074
 21
413.4101563226336
 31
0.0
  0
LINE
  5
178
330
1F
100
AcDbEntity
  8
仕上
  6
Continuous
 62
     3
370
     9
100
AcDbLine
 10
112.0000230943834
 20
388.4099377507904
 30
0.0
 11
72.0000890783362
 21
388.4099377507904
 31
0.0
  0
LINE
  5
179
330
1F
100
AcDbEntity
  8
仕上
  6
Continuous
 62
     3
370
     9
100
AcDbLine
 10
112.0000230943834
 20
388.4099377507904
 30
0.0
 11
112.0000230943834
 21
370.4100020851442
 31
0.0
  0
LINE
  5
17A
330
1F
100
AcDbEntity
  8
仕上
  6
Continuous
 62
     3
370
     9
100
AcDbLine
 10
65.99999505120346
 20
438.4101150826631
 30
0.0
 11
65.99999505120346
 21
420.4100062091413
 31
0.0
  0
LINE
  5
17B
330
1F
100
AcDbEntity
  8
仕上
  6
Continuous
 62
     3
370
     9
100
AcDbLine
 10
65.99999505120346
 20
438.4101150826631
 30
0.0
 11
26.00006103515625
 21
438.4101150826631
 31
0.0
  0
LINE
  5
17C
330
1F
100
AcDbEntity
  8
仕上
  6
Continuous
 62
     3
370
     9
100
AcDbLine
 10
112.0000230943834
 20
420.4100062091413
 30
0.0
 11
72.0000890783362
 21
420.4100062091413
 31
0.0
  0
LINE
  5
17D
330
1F
100
AcDbEntity
  8
仕上
  6
Continuous
 62
     3
370
     9
100
AcDbLine
 10
72.0000890783362
 20
438.4101150826631
 30
0.0
 11
72.0000890783362
 21
420.4100062091413
 31
0.0
  0
LINE
  5
17E
330
1F
100
AcDbEntity
  8
仕上
  6
Continuous
 62
     3
370
     9
100
AcDbLine
 10
95.99994556323901
 20
413.4101563226336
 30
0.0
 11
87.99999340160474
 21
413.4101563226336
 31
0.0
  0
LINE
  5
17F
330
1F
100
AcDbEntity
  8
仕上
  6
Continuous
 62
     3
370
     9
100
AcDbLine
 10
128.9998564849028
 20
413.4101563226336
 30
0.0
 11
100.9999373152448
 21
413.4101563226336
 31
0.0
  0
LINE
  5
180
330
1F
100
AcDbEntity
  8
仕上
  6
Continuous
 62
     3
370
     9
100
AcDbLine
 10
128.9998564849028
 20
395.4098742412357
 30
0.0
 11
128.9998564849028
 21
413.4101563226336
 31
0.0
  0
LINE
  5
181
330
1F
100
AcDbEntity
  8
仕上
  6
Continuous
 62
     3
370
     9
100
AcDbLine
 10
141.999973606419
 20
395.4098742412357
 30
0.0
 11
134.0000214447847
 21
395.4098742412357
 31
0.0
  0
LINE
  5
182
330
1F
100
AcDbEntity
  8
仕上
  6
Continuous
 62
     3
370
     9
100
AcDbLine
 10
134.0000214447847
 20
395.4098742412357
 30
0.0
 11
134.0000214447847
 21
413.4101563226336
 31
0.0
  0
LINE
  5
183
330
1F
100
AcDbEntity
  8
仕上
  6
Continuous
 62
     3
370
     9
100
AcDbLine
 10
157.9998779296875
 20
420.4100062091413
 30
0.0
 11
117.9997707057642
 21
420.4100062091413
 31
0.0
  0
LINE
  5
184
330
1F
100
AcDbEntity
  8
仕上
  6
Continuous
 62
     3
370
     9
100
AcDbLine
 10
117.9997707057642
 20
438.4101150826631
 30
0.0
 11
117.9997707057642
 21
420.4100062091413
 31
0.0
  0
LINE
  5
185
330
1F
100
AcDbEntity
  8
仕上
  6
Continuous
 62
     3
370
     9
100
AcDbLine
 10
112.0000230943834
 20
438.4101150826631
 30
0.0
 11
72.0000890783362
 21
438.4101150826631
 31
0.0
  0
LINE
  5
186
330
1F
100
AcDbEntity
  8
仕上
  6
Continuous
 62
     3
370
     9
100
AcDbLine
 10
112.0000230943834
 20
438.4101150826631
 30
0.0
 11
112.0000230943834
 21
420.4100062091413
 31
0.0
  0
LINE
  5
187
330
1F
100
AcDbEntity
  8
仕上
  6
Continuous
 62
     3
370
     9
100
AcDbLine
 10
41.99996535842479
 20
445.4100515731087
 30
0.0
 11
41.99996535842479
 21
463.4100738426928
 31
0.0
  0
LINE
  5
188
330
1F
100
AcDbEntity
  8
仕上
  6
Continuous
 62
     3
370
     9
100
AcDbLine
 10
36.99997360641896
 20
445.4100515731087
 30
0.0
 11
36.99997360641896
 21
463.4100738426928
 31
0.0
  0
LINE
  5
189
330
1F
100
AcDbEntity
  8
仕上
  6
Continuous
 62
     3
370
     9
100
AcDbLine
 10
50.00009072793492
 20
445.4100515731087
 30
0.0
 11
50.00009072793492
 21
463.4100738426928
 31
0.0
  0
LINE
  5
18A
330
1F
100
AcDbEntity
  8
仕上
  6
Continuous
 62
     3
370
     9
100
AcDbLine
 10
55.00008247994074
 20
445.4100515731087
 30
0.0
 11
55.00008247994074
 21
463.4100738426928
 31
0.0
  0
LINE
  5
18B
330
1F
100
AcDbEntity
  8
仕上
  6
Continuous
 62
     3
370
     9
100
AcDbLine
 10
50.00009072793492
 20
463.4100738426928
 30
0.0
 11
41.99996535842479
 21
463.4100738426928
 31
0.0
  0
LINE
  5
18C
330
1F
100
AcDbEntity
  8
仕上
  6
Continuous
 62
     3
370
     9
100
AcDbLine
 10
50.00009072793492
 20
445.4100515731087
 30
0.0
 11
41.99996535842479
 21
445.4100515731087
 31
0.0
  0
LINE
  5
18D
330
1F
100
AcDbEntity
  8
仕上
  6
Continuous
 62
     3
370
     9
100
AcDbLine
 10
83.00008825353675
 20
463.4100738426928
 30
0.0
 11
55.00008247994074
 21
463.4100738426928
 31
0.0
  0
LINE
  5
18E
330
1F
100
AcDbEntity
  8
仕上
  6
Continuous
 62
     3
370
     9
100
AcDbLine
 10
83.00008825353675
 20
445.4100515731087
 30
0.0
 11
55.00008247994074
 21
445.4100515731087
 31
0.0
  0
LINE
  5
18F
330
1F
100
AcDbEntity
  8
仕上
  6
Continuous
 62
     3
370
     9
100
AcDbLine
 10
8.99988122888513
 20
445.4100515731087
 30
0.0
 11
8.99988122888513
 21
463.4100738426928
 31
0.0
  0
LINE
  5
190
330
1F
100
AcDbEntity
  8
仕上
  6
Continuous
 62
     3
370
     9
100
AcDbLine
 10
36.99997360641896
 20
463.4100738426928
 30
0.0
 11
8.99988122888513
 21
463.4100738426928
 31
0.0
  0
LINE
  5
191
330
1F
100
AcDbEntity
  8
仕上
  6
Continuous
 62
     3
370
     9
100
AcDbLine
 10
36.99997360641896
 20
445.4100515731087
 30
0.0
 11
8.99988122888513
 21
445.4100515731087
 31
0.0
  0
LINE
  5
192
330
1F
100
AcDbEntity
  8
仕上
  6
Continuous
 62
     3
370
     9
100
AcDbLine
 10
87.99999340160474
 20
445.4100515731087
 30
0.0
 11
87.99999340160474
 21
463.4100738426928
 31
0.0
  0
LINE
  5
193
330
1F
100
AcDbEntity
  8
仕上
  6
Continuous
 62
     3
370
     9
100
AcDbLine
 10
83.00008825353675
 20
445.4100515731087
 30
0.0
 11
83.00008825353675
 21
463.4100738426928
 31
0.0
  0
LINE
  5
194
330
1F
100
AcDbEntity
  8
仕上
  6
Continuous
 62
     3
370
     9
100
AcDbLine
 10
95.99994556323901
 20
445.4100515731087
 30
0.0
 11
95.99994556323901
 21
463.4100738426928
 31
0.0
  0
LINE
  5
195
330
1F
100
AcDbEntity
  8
仕上
  6
Continuous
 62
     3
370
     9
100
AcDbLine
 10
100.9999373152448
 20
445.4100515731087
 30
0.0
 11
100.9999373152448
 21
463.4100738426928
 31
0.0
  0
LINE
  5
196
330
1F
100
AcDbEntity
  8
仕上
  6
Continuous
 62
     3
370
     9
100
AcDbLine
 10
95.99994556323901
 20
463.4100738426928
 30
0.0
 11
87.99999340160474
 21
463.4100738426928
 31
0.0
  0
LINE
  5
197
330
1F
100
AcDbEntity
  8
仕上
  6
Continuous
 62
     3
370
     9
100
AcDbLine
 10
95.99994556323901
 20
445.4100515731087
 30
0.0
 11
87.99999340160474
 21
445.4100515731087
 31
0.0
  0
LINE
  5
198
330
1F
100
AcDbEntity
  8
仕上
  6
Continuous
 62
     3
370
     9
100
AcDbLine
 10
128.9998564849028
 20
445.4100515731087
 30
0.0
 11
100.9999373152448
 21
445.4100515731087
 31
0.0
  0
LINE
  5
199
330
1F
100
AcDbEntity
  8
仕上
  6
Continuous
 62
     3
370
     9
100
AcDbLine
 10
128.9998564849028
 20
445.4100515731087
 30
0.0
 11
128.9998564849028
 21
463.4100738426928
 31
0.0
  0
LINE
  5
19A
330
1F
100
AcDbEntity
  8
仕上
  6
Continuous
 62
     3
370
     9
100
AcDbLine
 10
157.9998779296875
 20
338.4101934386069
 30
0.0
 11
157.9998779296875
 21
320.4099979611472
 31
0.0
  0
LINE
  5
19B
330
1F
100
AcDbEntity
  8
仕上
  6
Continuous
 62
     3
370
     9
100
AcDbLine
 10
163.99997195682
 20
338.4101934386069
 30
0.0
 11
163.99997195682
 21
320.4099979611472
 31
0.0
  0
LINE
  5
19C
330
1F
100
AcDbEntity
  8
仕上
  6
Continuous
 62
     3
370
     9
100
AcDbLine
 10
141.999973606419
 20
345.4099567211767
 30
0.0
 11
141.999973606419
 21
363.4103254065124
 31
0.0
  0
LINE
  5
19D
330
1F
100
AcDbEntity
  8
仕上
  6
Continuous
 62
     3
370
     9
100
AcDbLine
 10
147.0000519623628
 20
345.4099567211767
 30
0.0
 11
147.0000519623628
 21
363.4103254065124
 31
0.0
  0
LINE
  5
19E
330
1F
100
AcDbEntity
  8
仕上
  6
Continuous
 62
     3
370
     9
100
AcDbLine
 10
141.999973606419
 20
363.4103254065124
 30
0.0
 11
134.0000214447847
 21
363.4103254065124
 31
0.0
  0
LINE
  5
19F
330
1F
100
AcDbEntity
  8
仕上
  6
Continuous
 62
     3
370
     9
100
AcDbLine
 10
174.9998845280828
 20
363.4103254065124
 30
0.0
 11
147.0000519623628
 21
363.4103254065124
 31
0.0
  0
LINE
  5
1A0
330
1F
100
AcDbEntity
  8
仕上
  6
Continuous
 62
     3
370
     9
100
AcDbLine
 10
174.9998845280828
 20
345.4099567211767
 30
0.0
 11
147.0000519623628
 21
345.4099567211767
 31
0.0
  0
LINE
  5
1A1
330
1F
100
AcDbEntity
  8
仕上
  6
Continuous
 62
     3
370
     9
100
AcDbLine
 10
174.9998845280828
 20
345.4099567211767
 30
0.0
 11
174.9998845280828
 21
363.4103254065124
 31
0.0
  0
LINE
  5
1A2
330
1F
100
AcDbEntity
  8
仕上
  6
Continuous
 62
     3
370
     9
100
AcDbLine
 10
188.0000882535367
 20
345.4099567211767
 30
0.0
 11
179.9998762800886
 21
345.4099567211767
 31
0.0
  0
LINE
  5
1A3
330
1F
100
AcDbEntity
  8
仕上
  6
Continuous
 62
     3
370
     9
100
AcDbLine
 10
179.9998762800886
 20
345.4099567211767
 30
0.0
 11
179.9998762800886
 21
363.4103254065124
 31
0.0
  0
LINE
  5
1A4
330
1F
100
AcDbEntity
  8
仕上
  6
Continuous
 62
     3
370
     9
100
AcDbLine
 10
163.99997195682
 20
388.4099377507904
 30
0.0
 11
163.99997195682
 21
370.4100020851442
 31
0.0
  0
LINE
  5
1A5
330
1F
100
AcDbEntity
  8
仕上
  6
Continuous
 62
     3
370
     9
100
AcDbLine
 10
157.9998779296875
 20
388.4099377507904
 30
0.0
 11
117.9997707057642
 21
388.4099377507904
 31
0.0
  0
LINE
  5
1A6
330
1F
100
AcDbEntity
  8
仕上
  6
Continuous
 62
     3
370
     9
100
AcDbLine
 10
157.9998779296875
 20
388.4099377507904
 30
0.0
 11
157.9998779296875
 21
370.4100020851442
 31
0.0
  0
LINE
  5
1A7
330
1F
100
AcDbEntity
  8
仕上
  6
Continuous
 62
     3
370
     9
100
AcDbLine
 10
203.9997327649916
 20
320.4099979611472
 30
0.0
 11
163.99997195682
 21
320.4099979611472
 31
0.0
  0
LINE
  5
1A8
330
1F
100
AcDbEntity
  8
仕上
  6
Continuous
 62
     3
370
     9
100
AcDbLine
 10
203.9997327649916
 20
338.4101934386069
 30
0.0
 11
163.99997195682
 21
338.4101934386069
 31
0.0
  0
LINE
  5
1A9
330
1F
100
AcDbEntity
  8
仕上
  6
Continuous
 62
     3
370
     9
100
AcDbLine
 10
203.9997327649916
 20
338.4101934386069
 30
0.0
 11
203.9997327649916
 21
320.4099979611472
 31
0.0
  0
LINE
  5
1AA
330
1F
100
AcDbEntity
  8
仕上
  6
Continuous
 62
     3
370
     9
100
AcDbLine
 10
210.0000866039378
 20
338.4101934386069
 30
0.0
 11
210.0000866039378
 21
320.4099979611472
 31
0.0
  0
LINE
  5
1AB
330
1F
100
AcDbEntity
  8
仕上
  6
Continuous
 62
     3
370
     9
100
AcDbLine
 10
188.0000882535367
 20
345.4099567211767
 30
0.0
 11
188.0000882535367
 21
363.4103254065124
 31
0.0
  0
LINE
  5
1AC
330
1F
100
AcDbEntity
  8
仕上
  6
Continuous
 62
     3
370
     9
100
AcDbLine
 10
192.9999934016047
 20
345.4099567211767
 30
0.0
 11
192.9999934016047
 21
363.4103254065124
 31
0.0
  0
LINE
  5
1AD
330
1F
100
AcDbEntity
  8
仕上
  6
Continuous
 62
     3
370
     9
100
AcDbLine
 10
188.0000882535367
 20
363.4103254065124
 30
0.0
 11
179.9998762800886
 21
363.4103254065124
 31
0.0
  0
LINE
  5
1AE
330
1F
100
AcDbEntity
  8
仕上
  6
Continuous
 62
     3
370
     9
100
AcDbLine
 10
141.999973606419
 20
395.4098742412357
 30
0.0
 11
141.999973606419
 21
413.4101563226336
 31
0.0
  0
LINE
  5
1AF
330
1F
100
AcDbEntity
  8
仕上
  6
Continuous
 62
     3
370
     9
100
AcDbLine
 10
147.0000519623628
 20
395.4098742412357
 30
0.0
 11
147.0000519623628
 21
413.4101563226336
 31
0.0
  0
LINE
  5
1B0
330
1F
100
AcDbEntity
  8
仕上
  6
Continuous
 62
     3
370
     9
100
AcDbLine
 10
141.999973606419
 20
413.4101563226336
 30
0.0
 11
134.0000214447847
 21
413.4101563226336
 31
0.0
  0
LINE
  5
1B1
330
1F
100
AcDbEntity
  8
仕上
  6
Continuous
 62
     3
370
     9
100
AcDbLine
 10
174.9998845280828
 20
413.4101563226336
 30
0.0
 11
147.0000519623628
 21
413.4101563226336
 31
0.0
  0
LINE
  5
1B2
330
1F
100
AcDbEntity
  8
仕上
  6
Continuous
 62
     3
370
     9
100
AcDbLine
 10
174.9998845280828
 20
395.4098742412357
 30
0.0
 11
147.0000519623628
 21
395.4098742412357
 31
0.0
  0
LINE
  5
1B3
330
1F
100
AcDbEntity
  8
仕上
  6
Continuous
 62
     3
370
     9
100
AcDbLine
 10
157.9998779296875
 20
438.4101150826631
 30
0.0
 11
157.9998779296875
 21
420.4100062091413
 31
0.0
  0
LINE
  5
1B4
330
1F
100
AcDbEntity
  8
仕上
  6
Continuous
 62
     3
370
     9
100
AcDbLine
 10
157.9998779296875
 20
438.4101150826631
 30
0.0
 11
117.9997707057642
 21
438.4101150826631
 31
0.0
  0
LINE
  5
1B5
330
1F
100
AcDbEntity
  8
仕上
  6
Continuous
 62
     3
370
     9
100
AcDbLine
 10
174.9998845280828
 20
395.4098742412357
 30
0.0
 11
174.9998845280828
 21
413.4101563226336
 31
0.0
  0
LINE
  5
1B6
330
1F
100
AcDbEntity
  8
仕上
  6
Continuous
 62
     3
370
     9
100
AcDbLine
 10
188.0000882535367
 20
395.4098742412357
 30
0.0
 11
179.9998762800886
 21
395.4098742412357
 31
0.0
  0
LINE
  5
1B7
330
1F
100
AcDbEntity
  8
仕上
  6
Continuous
 62
     3
370
     9
100
AcDbLine
 10
96.00011877111487
 20
295.4101258050555
 30
0.0
 11
96.00011877111487
 21
313.4098016588879
 31
0.0
  0
LINE
  5
1B8
330
1F
100
AcDbEntity
  8
仕上
  6
Continuous
 62
     3
370
     9
100
AcDbLine
 10
87.99999340160474
 20
295.4101258050555
 30
0.0
 11
87.99999340160474
 21
313.4098016588879
 31
0.0
  0
LINE
  5
1B9
330
1F
100
AcDbEntity
  8
仕上
  6
Continuous
 62
     3
370
     9
100
AcDbLine
 10
87.99999340160474
 20
313.4098016588879
 30
0.0
 11
96.00011877111487
 21
313.4098016588879
 31
0.0
  0
LINE
  5
1BA
330
1F
100
AcDbEntity
  8
仕上
  6
Continuous
 62
     3
370
     9
100
AcDbLine
 10
87.99999340160474
 20
295.4101258050555
 30
0.0
 11
96.00011877111487
 21
295.4101258050555
 31
0.0
  0
LINE
  5
1BB
330
1F
100
AcDbEntity
  8
仕上
  6
Continuous
 62
     3
370
     9
100
AcDbLine
 10
220.9998259673247
 20
345.4099567211767
 30
0.0
 11
192.9999934016047
 21
345.4099567211767
 31
0.0
  0
LINE
  5
1BC
330
1F
100
AcDbEntity
  8
仕上
  6
Continuous
 62
     3
370
     9
100
AcDbLine
 10
220.9998259673247
 20
363.4103254065124
 30
0.0
 11
192.9999934016047
 21
363.4103254065124
 31
0.0
  0
LINE
  5
1BD
330
1F
100
AcDbEntity
  8
仕上
  6
Continuous
 62
     3
370
     9
100
AcDbLine
 10
203.9997327649916
 20
370.4100020851442
 30
0.0
 11
163.99997195682
 21
370.4100020851442
 31
0.0
  0
LINE
  5
1BE
330
1F
100
AcDbEntity
  8
仕上
  6
Continuous
 62
     3
370
     9
100
AcDbLine
 10
203.9997327649916
 20
388.4099377507904
 30
0.0
 11
203.9997327649916
 21
370.4100020851442
 31
0.0
  0
LINE
  5
1BF
330
1F
100
AcDbEntity
  8
仕上
  6
Continuous
 62
     3
370
     9
100
AcDbLine
 10
203.9997327649916
 20
388.4099377507904
 30
0.0
 11
163.99997195682
 21
388.4099377507904
 31
0.0
  0
LINE
  5
1C0
330
1F
100
AcDbEntity
  8
仕上
  6
Continuous
 62
     3
370
     9
100
AcDbLine
 10
188.0000882535367
 20
395.4098742412357
 30
0.0
 11
188.0000882535367
 21
413.4101563226336
 31
0.0
  0
LINE
  5
1C1
330
1F
100
AcDbEntity
  8
仕上
  6
Continuous
 62
     3
370
     9
100
AcDbLine
 10
163.99997195682
 20
438.4101150826631
 30
0.0
 11
163.99997195682
 21
420.4100062091413
 31
0.0
  0
LINE
  5
1C2
330
1F
100
AcDbEntity
  8
仕上
  6
Continuous
 62
     3
370
     9
100
AcDbLine
 10
128.9998564849028
 20
463.4100738426928
 30
0.0
 11
100.9999373152448
 21
463.4100738426928
 31
0.0
  0
LINE
  5
1C3
330
1F
100
AcDbEntity
  8
仕上
  6
Continuous
 62
     3
370
     9
100
AcDbLine
 10
112.0000230943834
 20
488.4099459987843
 30
0.0
 11
112.0000230943834
 21
470.4100969370762
 31
0.0
  0
LINE
  5
1C4
330
1F
100
AcDbEntity
  8
仕上
  6
Continuous
 62
     3
370
     9
100
AcDbLine
 10
157.9998779296875
 20
470.4100969370762
 30
0.0
 11
117.9997707057642
 21
470.4100969370762
 31
0.0
  0
LINE
  5
1C5
330
1F
100
AcDbEntity
  8
仕上
  6
Continuous
 62
     3
370
     9
100
AcDbLine
 10
117.9997707057642
 20
488.4099459987843
 30
0.0
 11
117.9997707057642
 21
470.4100969370762
 31
0.0
  0
LINE
  5
1C6
330
1F
100
AcDbEntity
  8
仕上
  6
Continuous
 62
     3
370
     9
100
AcDbLine
 10
179.9998762800886
 20
395.4098742412357
 30
0.0
 11
179.9998762800886
 21
413.4101563226336
 31
0.0
  0
LINE
  5
1C7
330
1F
100
AcDbEntity
  8
仕上
  6
Continuous
 62
     3
370
     9
100
AcDbLine
 10
188.0000882535367
 20
413.4101563226336
 30
0.0
 11
179.9998762800886
 21
413.4101563226336
 31
0.0
  0
LINE
  5
1C8
330
1F
100
AcDbEntity
  8
仕上
  6
Continuous
 62
     3
370
     9
100
AcDbLine
 10
141.999973606419
 20
445.4100515731087
 30
0.0
 11
134.0000214447847
 21
445.4100515731087
 31
0.0
  0
LINE
  5
1C9
330
1F
100
AcDbEntity
  8
仕上
  6
Continuous
 62
     3
370
     9
100
AcDbLine
 10
147.0000519623628
 20
445.4100515731087
 30
0.0
 11
174.9998845280828
 21
445.4100515731087
 31
0.0
  0
LINE
  5
1CA
330
1F
100
AcDbEntity
  8
仕上
  6
Continuous
 62
     3
370
     9
100
AcDbLine
 10
147.0000519623628
 20
445.4100515731087
 30
0.0
 11
147.0000519623628
 21
463.4100738426928
 31
0.0
  0
LINE
  5
1CB
330
1F
100
AcDbEntity
  8
仕上
  6
Continuous
 62
     3
370
     9
100
AcDbLine
 10
141.999973606419
 20
445.4100515731087
 30
0.0
 11
141.999973606419
 21
463.4100738426928
 31
0.0
  0
LINE
  5
1CC
330
1F
100
AcDbEntity
  8
仕上
  6
Continuous
 62
     3
370
     9
100
AcDbLine
 10
134.0000214447847
 20
445.4100515731087
 30
0.0
 11
134.0000214447847
 21
463.4100738426928
 31
0.0
  0
LINE
  5
1CD
330
1F
100
AcDbEntity
  8
仕上
  6
Continuous
 62
     3
370
     9
100
AcDbLine
 10
26.00006103515625
 20
488.4099459987843
 30
0.0
 11
26.00006103515625
 21
470.4100969370762
 31
0.0
  0
LINE
  5
1CE
330
1F
100
AcDbEntity
  8
仕上
  6
Continuous
 62
     3
370
     9
100
AcDbLine
 10
20.00005361196153
 20
488.4099459987843
 30
0.0
 11
20.00005361196153
 21
470.4100969370762
 31
0.0
  0
LINE
  5
1CF
330
1F
100
AcDbEntity
  8
仕上
  6
Continuous
 62
     3
370
     9
100
AcDbLine
 10
65.99999505120346
 20
470.4100969370762
 30
0.0
 11
26.00006103515625
 21
470.4100969370762
 31
0.0
  0
LINE
  5
1D0
330
1F
100
AcDbEntity
  8
仕上
  6
Continuous
 62
     3
370
     9
100
AcDbLine
 10
112.0000230943834
 20
470.4100969370762
 30
0.0
 11
72.0000890783362
 21
470.4100969370762
 31
0.0
  0
LINE
  5
1D1
330
1F
100
AcDbEntity
  8
仕上
  6
Continuous
 62
     3
370
     9
100
AcDbLine
 10
101.0001971270587
 20
295.4101258050555
 30
0.0
 11
101.0001971270587
 21
313.4098016588879
 31
0.0
  0
LINE
  5
1D2
330
1F
100
AcDbEntity
  8
仕上
  6
Continuous
 62
     3
370
     9
100
AcDbLine
 10
65.99999505120346
 20
488.4099459987843
 30
0.0
 11
65.99999505120346
 21
470.4100969370762
 31
0.0
  0
LINE
  5
1D3
330
1F
100
AcDbEntity
  8
仕上
  6
Continuous
 62
     3
370
     9
100
AcDbLine
 10
65.99999505120346
 20
488.4099459987843
 30
0.0
 11
26.00006103515625
 21
488.4099459987843
 31
0.0
  0
LINE
  5
1D4
330
1F
100
AcDbEntity
  8
仕上
  6
Continuous
 62
     3
370
     9
100
AcDbLine
 10
72.0000890783362
 20
488.4099459987843
 30
0.0
 11
72.0000890783362
 21
470.4100969370762
 31
0.0
  0
LINE
  5
1D5
330
1F
100
AcDbEntity
  8
仕上
  6
Continuous
 62
     3
370
     9
100
AcDbLine
 10
112.0000230943834
 20
488.4099459987843
 30
0.0
 11
72.0000890783362
 21
488.4099459987843
 31
0.0
  0
LINE
  5
1D6
330
1F
100
AcDbEntity
  8
仕上
  6
Continuous
 62
     3
370
     9
100
AcDbLine
 10
50.00009072793492
 20
495.4098824892299
 30
0.0
 11
41.99996535842479
 21
495.4098824892299
 31
0.0
  0
LINE
  5
1D7
330
1F
100
AcDbEntity
  8
仕上
  6
Continuous
 62
     3
370
     9
100
AcDbLine
 10
36.99997360641896
 20
495.4098824892299
 30
0.0
 11
8.99988122888513
 21
495.4098824892299
 31
0.0
  0
LINE
  5
1D8
330
1F
100
AcDbEntity
  8
仕上
  6
Continuous
 62
     3
370
     9
100
AcDbLine
 10
234.0002895045924
 20
295.4101258050555
 30
0.0
 11
234.0002895045924
 21
313.4098016588879
 31
0.0
  0
LINE
  5
1D9
330
1F
100
AcDbEntity
  8
仕上
  6
Continuous
 62
     3
370
     9
100
AcDbLine
 10
226.0000775311444
 20
295.4101258050555
 30
0.0
 11
226.0000775311444
 21
313.4098016588879
 31
0.0
  0
LINE
  5
1DA
330
1F
100
AcDbEntity
  8
仕上
  6
Continuous
 62
     3
370
     9
100
AcDbLine
 10
226.0000775311444
 20
313.4098016588879
 30
0.0
 11
234.0002895045924
 21
313.4098016588879
 31
0.0
  0
LINE
  5
1DB
330
1F
100
AcDbEntity
  8
仕上
  6
Continuous
 62
     3
370
     9
100
AcDbLine
 10
226.0000775311444
 20
295.4101258050555
 30
0.0
 11
234.0002895045924
 21
295.4101258050555
 31
0.0
  0
LINE
  5
1DC
330
1F
100
AcDbEntity
  8
仕上
  6
Continuous
 62
     3
370
     9
100
AcDbLine
 10
141.999973606419
 20
463.4100738426928
 30
0.0
 11
134.0000214447847
 21
463.4100738426928
 31
0.0
  0
LINE
  5
1DD
330
1F
100
AcDbEntity
  8
仕上
  6
Continuous
 62
     3
370
     9
100
AcDbLine
 10
220.9998259673247
 20
345.4099567211767
 30
0.0
 11
220.9998259673247
 21
363.4103254065124
 31
0.0
  0
LINE
  5
1DE
330
1F
100
AcDbEntity
  8
仕上
  6
Continuous
 62
     3
370
     9
100
AcDbLine
 10
233.9999430888408
 20
345.4099567211767
 30
0.0
 11
225.9997311153927
 21
345.4099567211767
 31
0.0
  0
LINE
  5
1DF
330
1F
100
AcDbEntity
  8
仕上
  6
Continuous
 62
     3
370
     9
100
AcDbLine
 10
225.9997311153927
 20
345.4099567211767
 30
0.0
 11
225.9997311153927
 21
363.4103254065124
 31
0.0
  0
LINE
  5
1E0
330
1F
100
AcDbEntity
  8
仕上
  6
Continuous
 62
     3
370
     9
100
AcDbLine
 10
210.0000866039378
 20
388.4099377507904
 30
0.0
 11
210.0000866039378
 21
370.4100020851442
 31
0.0
  0
LINE
  5
1E1
330
1F
100
AcDbEntity
  8
仕上
  6
Continuous
 62
     3
370
     9
100
AcDbLine
 10
233.9999430888408
 20
345.4099567211767
 30
0.0
 11
233.9999430888408
 21
363.4103254065124
 31
0.0
  0
LINE
  5
1E2
330
1F
100
AcDbEntity
  8
仕上
  6
Continuous
 62
     3
370
     9
100
AcDbLine
 10
233.9999430888408
 20
363.4103254065124
 30
0.0
 11
225.9997311153927
 21
363.4103254065124
 31
0.0
  0
LINE
  5
1E3
330
1F
100
AcDbEntity
  8
仕上
  6
Continuous
 62
     3
370
     9
100
AcDbLine
 10
192.9999934016047
 20
395.4098742412357
 30
0.0
 11
192.9999934016047
 21
413.4101563226336
 31
0.0
  0
LINE
  5
1E4
330
1F
100
AcDbEntity
  8
仕上
  6
Continuous
 62
     3
370
     9
100
AcDbLine
 10
238.9998482369088
 20
295.4101258050555
 30
0.0
 11
238.9998482369088
 21
313.4098016588879
 31
0.0
  0
LINE
  5
1E5
330
1F
100
AcDbEntity
  8
仕上
  6
Continuous
 62
     3
370
     9
100
AcDbLine
 10
242.9375560863597
 20
338.4101934386069
 30
0.0
 11
210.0000866039378
 21
338.4101934386069
 31
0.0
  0
LINE
  5
1E6
330
1F
100
AcDbEntity
  8
仕上
  6
Continuous
 62
     3
370
     9
100
AcDbLine
 10
246.6144994787268
 20
320.4099979611472
 30
0.0
 11
210.0000866039378
 21
320.4099979611472
 31
0.0
  0
LINE
  5
1E7
330
1F
100
AcDbEntity
  8
仕上
  6
Continuous
 62
     3
370
     9
100
AcDbLine
 10
247.6765235694679
 20
313.4098016588879
 30
0.0
 11
238.9998482369088
 21
313.4098016588879
 31
0.0
  0
LINE
  5
1E8
330
1F
100
AcDbEntity
  8
仕上
  6
Continuous
 62
     3
370
     9
100
AcDbLine
 10
249.4868056838577
 20
295.4101258050555
 30
0.0
 11
238.9998482369088
 21
295.4101258050555
 31
0.0
  0
LINE
  5
1E9
330
1F
100
AcDbEntity
  8
仕上
  6
Continuous
 62
     3
370
     9
100
AcDbLine
 10
238.9998482369088
 20
345.4099567211767
 30
0.0
 11
238.9998482369088
 21
352.7491208364639
 31
0.0
  0
LINE
  5
1EA
330
1F
100
AcDbEntity
  8
仕上
  6
Continuous
 62
     3
370
     9
100
AcDbLine
 10
241.1299586940455
 20
345.4099567211767
 30
0.0
 11
238.9998482369088
 21
345.4099567211767
 31
0.0
  0
LINE
  5
1EB
330
1F
100
AcDbEntity
  8
仕上
  6
Continuous
 62
     3
370
     9
100
AcDbLine
 10
232.8490633577914
 20
370.4100020851442
 30
0.0
 11
210.0000866039378
 21
370.4100020851442
 31
0.0
  0
LINE
  5
1EC
330
1F
100
AcDbEntity
  8
仕上
  6
Continuous
 62
     3
370
     9
100
AcDbLine
 10
224.9859454180744
 20
388.4099377507904
 30
0.0
 11
210.0000866039378
 21
388.4099377507904
 31
0.0
  0
LINE
  5
1ED
330
1F
100
AcDbEntity
  8
仕上
  6
Continuous
 62
     3
370
     9
100
AcDbLine
 10
211.0537101127005
 20
413.4101563226336
 30
0.0
 11
192.9999934016047
 21
413.4101563226336
 31
0.0
  0
LINE
  5
1EE
330
1F
100
AcDbEntity
  8
仕上
  6
Continuous
 62
     3
370
     9
100
AcDbLine
 10
221.4578741949957
 20
395.4098742412357
 30
0.0
 11
192.9999934016047
 21
395.4098742412357
 31
0.0
  0
LINE
  5
1EF
330
1F
100
AcDbEntity
  8
仕上
  6
Continuous
 62
     3
370
     9
100
AcDbLine
 10
192.9214436299092
 20
438.4101150826631
 30
0.0
 11
163.99997195682
 21
438.4101150826631
 31
0.0
  0
LINE
  5
1F0
330
1F
100
AcDbEntity
  8
仕上
  6
Continuous
 62
     3
370
     9
100
AcDbLine
 10
174.9998845280828
 20
445.4100515731087
 30
0.0
 11
174.9998845280828
 21
457.9448457361683
 31
0.0
  0
LINE
  5
1F1
330
1F
100
AcDbEntity
  8
仕上
  6
Continuous
 62
     3
370
     9
100
AcDbLine
 10
169.2443600216427
 20
463.4100738426928
 30
0.0
 11
147.0000519623628
 21
463.4100738426928
 31
0.0
  0
LINE
  5
1F2
330
1F
100
AcDbEntity
  8
仕上
  6
Continuous
 62
     3
370
     9
100
AcDbLine
 10
179.9998762800886
 20
445.4100515731087
 30
0.0
 11
179.9998762800886
 21
452.9025046585184
 31
0.0
  0
LINE
  5
1F3
330
1F
100
AcDbEntity
  8
仕上
  6
Continuous
 62
     3
370
     9
100
AcDbLine
 10
186.9322616989548
 20
445.4100515731087
 30
0.0
 11
179.9998762800886
 21
445.4100515731087
 31
0.0
  0
LINE
  5
1F4
330
1F
100
AcDbEntity
  8
仕上
  6
Continuous
 62
     3
370
     9
100
AcDbLine
 10
137.1809840846705
 20
488.4099459987843
 30
0.0
 11
117.9997707057642
 21
488.4099459987843
 31
0.0
  0
LINE
  5
1F5
330
1F
100
AcDbEntity
  8
仕上
  6
Continuous
 62
     3
370
     9
100
AcDbLine
 10
157.9998779296875
 20
473.1513713841307
 30
0.0
 11
157.9998779296875
 21
470.4100969370762
 31
0.0
  0
LINE
  5
1F6
330
1F
100
AcDbEntity
  8
仕上
  6
Continuous
 62
     3
370
     9
100
AcDbLine
 10
125.8716356432115
 20
495.4098824892299
 30
0.0
 11
100.9999373152448
 21
495.4098824892299
 31
0.0
  0
LINE
  5
1F7
330
1F
100
AcDbEntity
  8
仕上
  6
Continuous
 62
     3
370
     9
100
AcDbLine
 10
100.9999373152448
 20
495.4098824892299
 30
0.0
 11
100.9999373152448
 21
508.0987450578532
 31
0.0
  0
LINE
  5
1F8
330
1F
100
AcDbEntity
  8
仕上
  6
Continuous
 62
     3
370
     9
100
AcDbLine
 10
203.9997327649916
 20
420.4100062091413
 30
0.0
 11
163.99997195682
 21
420.4100062091413
 31
0.0
  0
LINE
  5
1F9
330
1F
100
AcDbEntity
  8
仕上
  6
Continuous
 62
     3
370
     9
100
AcDbLine
 10
203.9997327649916
 20
423.9218824958283
 30
0.0
 11
203.9997327649916
 21
420.4100062091413
 31
0.0
  0
LINE
  5
1FA
330
1F
100
AcDbEntity
  8
仕上
  6
Continuous
 62
     3
370
     9
100
AcDbLine
 10
66.48307181693406
 20
495.4098824892299
 30
0.0
 11
55.00008247994074
 21
495.4098824892299
 31
0.0
  0
LINE
  5
1FB
330
1F
100
AcDbEntity
  8
仕上
  6
Continuous
 62
     3
370
     9
100
AcDbLine
 10
83.49970637141035
 20
496.9341117966625
 30
0.0
 11
91.74240937104085
 21
518.4063457493651
 31
0.0
  0
LINE
  5
1FC
330
1F
100
AcDbEntity
  8
仕上
  6
Continuous
 62
     3
370
     9
100
AcDbLine
 10
55.00008247994074
 20
495.4098824892299
 30
0.0
 11
55.00008247994074
 21
498.6152674396101
 31
0.0
  0
LINE
  5
1FD
330
1F
100
AcDbEntity
  8
仕上
  6
Continuous
 62
     3
370
     9
100
AcDbLine
 10
50.00009072793492
 20
495.4098824892299
 30
0.0
 11
50.00009072793492
 21
499.8095357435586
 31
0.0
  0
LINE
  5
1FE
330
1F
100
AcDbEntity
  8
仕上
  6
Continuous
 62
     3
370
     9
100
AcDbLine
 10
41.99996535842479
 20
495.4098824892299
 30
0.0
 11
41.99996535842479
 21
501.4728509752941
 31
0.0
  0
LINE
  5
1FF
330
1F
100
AcDbEntity
  8
仕上
  6
Continuous
 62
     3
370
     9
100
AcDbLine
 10
36.99997360641896
 20
495.4098824892299
 30
0.0
 11
36.99997360641896
 21
502.3607145468735
 31
0.0
  0
LINE
  5
200
330
1F
100
AcDbEntity
  8
仕上
  6
Continuous
 62
     3
370
     9
100
AcDbLine
 10
8.99988122888513
 20
495.4098824892299
 30
0.0
 11
8.99988122888513
 21
505.2305958417426
 31
0.0
  0
LINE
  5
201
330
1F
100
AcDbEntity
  8
仕上
  6
Continuous
 62
     3
370
     9
100
AcDbLine
 10
3.999889476879105
 20
495.4098824892299
 30
0.0
 11
3.999889476879105
 21
505.3745315865693
 31
0.0
  0
LINE
  5
202
330
1F
100
AcDbEntity
  8
仕上
  6
Continuous
 62
     3
370
     9
100
AcDbLine
 10
-249.8372918206293
 20
288.4100161067342
 30
0.0
 11
-209.9998267921241
 21
288.4100161067342
 31
0.0
  0
LINE
  5
203
330
1F
100
AcDbEntity
  8
仕上
  6
Continuous
 62
     3
370
     9
100
AcDbLine
 10
-95.99977235536315
 20
495.4098824892299
 30
0.0
 11
-95.99977235536315
 21
509.9652331279547
 31
0.0
  0
LINE
  5
204
330
1F
100
AcDbEntity
  8
仕上
  6
Continuous
 62
     3
370
     9
100
AcDbLine
 10
95.99994556323901
 20
495.4098824892299
 30
0.0
 11
95.99994556323901
 21
509.9652331279547
 31
0.0
  0
LINE
  5
205
330
1F
100
AcDbEntity
  8
仕上
  6
Continuous
 62
     3
370
     9
100
AcDbLine
 10
249.8372918206291
 20
288.4100161067342
 30
0.0
 11
210.0000866039378
 21
288.4100161067342
 31
0.0
  0
LINE
  5
206
330
1F
100
AcDbEntity
  8
仕上
  6
JWW_CENTER1
 62
     3
370
     9
100
AcDbLine
 10
161.0001847550675
 20
245.1021580778068
 30
0.0
 11
161.0001847550675
 21
303.8832818834973
 31
0.0
  0
LINE
  5
207
330
1F
100
AcDbEntity
  8
仕上
  6
Continuous
 62
     3
370
     9
100
AcDbLine
 10
112.0000230943834
 20
338.4101934386069
 30
0.0
 11
72.0000890783362
 21
338.4101934386069
 31
0.0
  0
LINE
  5
208
330
1F
100
AcDbEntity
  8
仕上
  6
Continuous
 62
     3
370
     9
100
AcDbLine
 10
112.0000230943834
 20
338.4101934386069
 30
0.0
 11
112.0000230943834
 21
320.4099979611472
 31
0.0
  0
LINE
  5
209
330
1F
100
AcDbEntity
  8
仕上
  6
Continuous
 62
     3
370
     9
100
AcDbLine
 10
220.9998259673247
 20
313.4098016588879
 30
0.0
 11
192.9999934016047
 21
313.4098016588879
 31
0.0
  0
LINE
  5
20A
330
1F
100
AcDbEntity
  8
仕上
  6
Continuous
 62
     3
370
     9
100
AcDbLine
 10
220.9998259673247
 20
295.4101258050555
 30
0.0
 11
220.9998259673247
 21
313.4098016588879
 31
0.0
  0
LINE
  5
20B
330
1F
100
AcDbEntity
  8
仕上
  6
Continuous
 62
     3
370
     9
100
AcDbLine
 10
179.9998762800886
 20
313.4098016588879
 30
0.0
 11
188.0000882535367
 21
313.4098016588879
 31
0.0
  0
LINE
  5
20C
330
1F
100
AcDbEntity
  8
仕上
  6
Continuous
 62
     3
370
     9
100
AcDbLine
 10
147.0000519623628
 20
313.4098016588879
 30
0.0
 11
174.9998845280828
 21
313.4098016588879
 31
0.0
  0
LINE
  5
20D
330
1F
100
AcDbEntity
  8
仕上
  6
Continuous
 62
     3
370
     9
100
AcDbLine
 10
134.0000214447847
 20
313.4098016588879
 30
0.0
 11
141.999973606419
 21
313.4098016588879
 31
0.0
  0
LINE
  5
20E
330
1F
100
AcDbEntity
  8
仕上
  6
Continuous
 62
     3
370
     9
100
AcDbLine
 10
112.0001963022593
 20
288.4100161067342
 30
0.0
 11
112.0001963022593
 21
279.4099616699732
 31
0.0
  0
LINE
  5
20F
330
1F
100
AcDbEntity
  8
仕上
  6
Continuous
 62
     3
370
     9
100
AcDbLine
 10
129.0000296927787
 20
298.4099996107459
 30
0.0
 11
129.0000296927787
 21
313.4098016588879
 31
0.0
  0
LINE
  5
210
330
1F
100
AcDbEntity
  8
仕上
  6
Continuous
 62
     3
370
     9
100
AcDbLine
 10
134.0000214447847
 20
298.4099996107459
 30
0.0
 11
134.0000214447847
 21
313.4098016588879
 31
0.0
  0
LINE
  5
211
330
1F
100
AcDbEntity
  8
仕上
  6
Continuous
 62
     3
370
     9
100
AcDbLine
 10
188.0000882535367
 20
298.4099996107459
 30
0.0
 11
188.0000882535367
 21
313.4098016588879
 31
0.0
  0
LINE
  5
212
330
1F
100
AcDbEntity
  8
仕上
  6
Continuous
 62
     3
370
     9
100
AcDbLine
 10
192.9999934016047
 20
298.4099996107459
 30
0.0
 11
192.9999934016047
 21
313.4098016588879
 31
0.0
  0
LINE
  5
213
330
1F
100
AcDbEntity
  8
仕上
  6
Continuous
 62
     3
370
     9
100
AcDbLine
 10
179.9998762800886
 20
298.4099996107459
 30
0.0
 11
179.9998762800886
 21
313.4098016588879
 31
0.0
  0
LINE
  5
214
330
1F
100
AcDbEntity
  8
仕上
  6
Continuous
 62
     3
370
     9
100
AcDbLine
 10
174.9998845280828
 20
298.4099996107459
 30
0.0
 11
174.9998845280828
 21
313.4098016588879
 31
0.0
  0
LINE
  5
215
330
1F
100
AcDbEntity
  8
仕上
  6
Continuous
 62
     3
370
     9
100
AcDbLine
 10
141.999973606419
 20
298.4099996107459
 30
0.0
 11
141.999973606419
 21
313.4098016588879
 31
0.0
  0
LINE
  5
216
330
1F
100
AcDbEntity
  8
仕上
  6
Continuous
 62
     3
370
     9
100
AcDbLine
 10
147.0000519623628
 20
298.4099996107459
 30
0.0
 11
147.0000519623628
 21
313.4098016588879
 31
0.0
  0
LINE
  5
217
330
1F
100
AcDbEntity
  8
仕上
  6
JWW_DASHED1
 62
     3
370
     9
100
AcDbLine
 10
181.000324970967
 20
284.4097802141032
 30
0.0
 11
169.0779938568941
 21
284.4097802141032
 31
0.0
  0
LINE
  5
218
330
1F
100
AcDbEntity
  8
仕上
  6
JWW_DASHED1
 62
     3
370
     9
100
AcDbLine
 10
152.9222890493032
 20
284.4097802141032
 30
0.0
 11
141.000217747044
 21
284.4097802141032
 31
0.0
  0
LINE
  5
219
330
1F
100
AcDbEntity
  8
仕上
  6
Continuous
 62
     3
370
     9
100
AcDbLine
 10
142.0003200221705
 20
298.4099996107459
 30
0.0
 11
134.0001946526604
 21
298.4099996107459
 31
0.0
  0
LINE
  5
21A
330
1F
100
AcDbEntity
  8
仕上
  6
Continuous
 62
     3
370
     9
100
AcDbLine
 10
147.1709215318834
 20
298.4099996107459
 30
0.0
 11
147.0002251702385
 21
298.4099996107459
 31
0.0
  0
LINE
  5
21B
330
1F
100
AcDbEntity
  8
仕上
  6
Continuous
 62
     3
370
     9
100
AcDbLine
 10
180.0002226958403
 20
298.4099996107459
 30
0.0
 11
188.0000882535367
 21
298.4099996107459
 31
0.0
  0
LINE
  5
21C
330
1F
100
AcDbEntity
  8
仕上
  6
Continuous
 62
     3
370
     9
100
AcDbLine
 10
174.8293613743137
 20
298.4099996107459
 30
0.0
 11
174.9998845280828
 21
298.4099996107459
 31
0.0
  0
LINE
  5
21D
330
1F
100
AcDbEntity
  8
仕上
  6
Continuous
 62
     3
370
     9
100
AcDbLine
 10
172.3246888856629
 20
291.4100631203005
 30
0.0
 11
192.9999934016047
 21
291.4100631203005
 31
0.0
  0
LINE
  5
21E
330
1F
100
AcDbEntity
  8
仕上
  6
Continuous
 62
     3
370
     9
100
AcDbLine
 10
192.9999934016047
 20
279.4099616699732
 30
0.0
 11
192.9999934016047
 21
291.4100631203005
 31
0.0
  0
LINE
  5
21F
330
1F
100
AcDbEntity
  8
仕上
  6
Continuous
 62
     3
370
     9
100
AcDbLine
 10
192.9999934016047
 20
298.4099996107459
 30
0.0
 11
200.0002763078018
 21
298.4099996107459
 31
0.0
  0
LINE
  5
220
330
1F
100
AcDbEntity
  8
仕上
  6
Continuous
 62
     3
370
     9
100
AcDbLine
 10
121.9757574957769
 20
279.4099616699732
 30
0.0
 11
121.9757574957769
 21
284.4097802141032
 31
0.0
  0
LINE
  5
221
330
1F
100
AcDbEntity
  8
仕上
  6
Continuous
 62
     3
370
     9
100
AcDbLine
 10
128.9998564849028
 20
284.4097802141032
 30
0.0
 11
121.9757574957769
 21
284.4097802141032
 31
0.0
  0
LINE
  5
222
330
1F
100
AcDbEntity
  8
仕上
  6
Continuous
 62
     3
370
     9
100
AcDbLine
 10
149.6755940205342
 20
291.4100631203005
 30
0.0
 11
128.9998564849028
 21
291.4100631203005
 31
0.0
  0
LINE
  5
223
330
1F
100
AcDbEntity
  8
仕上
  6
Continuous
 62
     3
370
     9
100
AcDbLine
 10
128.9998564849028
 20
284.4097802141032
 30
0.0
 11
128.9998564849028
 21
291.4100631203005
 31
0.0
  0
LINE
  5
224
330
1F
100
AcDbEntity
  8
仕上
  6
Continuous
 62
     3
370
     9
100
AcDbLine
 10
129.0002895045924
 20
298.4099996107459
 30
0.0
 11
121.9757574957769
 21
298.4099996107459
 31
0.0
  0
LINE
  5
225
330
1F
100
AcDbEntity
  8
仕上
  6
Continuous
 62
     3
370
     9
100
AcDbLine
 10
200.0002763078018
 20
295.4101258050555
 30
0.0
 11
200.0002763078018
 21
298.4099996107459
 31
0.0
  0
LINE
  5
226
330
1F
100
AcDbEntity
  8
仕上
  6
Continuous
 62
     3
370
     9
100
AcDbLine
 10
200.0002763078018
 20
295.4101258050555
 30
0.0
 11
220.9998259673247
 21
295.4101258050555
 31
0.0
  0
LINE
  5
227
330
1F
100
AcDbEntity
  8
仕上
  6
Continuous
 62
     3
370
     9
100
AcDbLine
 10
210.0000866039378
 20
288.4100161067342
 30
0.0
 11
210.0000866039378
 21
279.4099616699732
 31
0.0
  0
LINE
  5
228
330
1F
100
AcDbEntity
  8
建具
  6
Continuous
 62
     4
370
     9
100
AcDbLine
 10
189.9966554383973
 20
290.4100474491116
 30
0.0
 11
171.9201618916279
 21
290.4100474491116
 31
0.0
  0
LINE
  5
229
330
1F
100
AcDbEntity
  8
建具
  6
Continuous
 62
     4
370
     9
100
AcDbLine
 10
191.9967733847127
 20
288.4100161067342
 30
0.0
 11
191.9967733847127
 21
279.4099616699732
 31
0.0
  0
LINE
  5
22A
330
1F
100
AcDbEntity
  8
建具
  6
Continuous
 62
     4
370
     9
100
AcDbLine
 10
132.0034542599239
 20
290.4100474491116
 30
0.0
 11
150.0801210145692
 21
290.4100474491116
 31
0.0
  0
LINE
  5
22B
330
1F
100
AcDbEntity
  8
建具
  6
Continuous
 62
     4
370
     9
100
AcDbLine
 10
130.0035095214844
 20
288.4100161067342
 30
0.0
 11
130.0035095214844
 21
279.4099616699732
 31
0.0
  0
LINE
  5
22C
330
1F
100
AcDbEntity
  8
仕上
  6
Continuous
 62
     3
370
     9
100
AcDbLine
 10
121.9757574957769
 20
295.4101258050555
 30
0.0
 11
101.0001971270587
 21
295.4101258050555
 31
0.0
  0
LINE
  5
22D
330
1F
100
AcDbEntity
  8
仕上
  6
Continuous
 62
     3
370
     9
100
AcDbLine
 10
121.9757574957769
 20
295.4101258050555
 30
0.0
 11
121.9757574957769
 21
298.4099996107459
 31
0.0
  0
LINE
  5
22E
330
1F
100
AcDbEntity
  8
仕上
  6
Continuous
 62
     3
370
     9
100
AcDbLine
 10
-157.9997047218116
 20
320.4099979611472
 30
0.0
 11
-117.9997707057644
 21
320.4099979611472
 31
0.0
  0
LINE
  5
22F
330
1F
100
AcDbEntity
  8
仕上
  6
Continuous
 62
     3
370
     9
100
AcDbLine
 10
-101.0001105231209
 20
313.4098016588879
 30
0.0
 11
-128.999856484903
 21
313.4098016588879
 31
0.0
  0
LINE
  5
230
330
1F
100
AcDbEntity
  8
仕上
  6
Continuous
 62
     3
370
     9
100
AcDbLine
 10
-203.9997327649916
 20
320.4099979611472
 30
0.0
 11
-163.9997987489444
 21
320.4099979611472
 31
0.0
  0
LINE
  5
231
330
1F
100
AcDbEntity
  8
仕上
  6
Continuous
 62
     3
370
     9
100
AcDbLine
 10
-95.99994556323901
 20
295.4101258050555
 30
0.0
 11
-95.99994556323901
 21
313.4098016588879
 31
0.0
  0
LINE
  5
232
330
1F
100
AcDbEntity
  8
仕上
  6
Continuous
 62
     3
370
     9
100
AcDbLine
 10
-101.0001105231209
 20
295.4101258050555
 30
0.0
 11
-101.0001105231209
 21
313.4098016588879
 31
0.0
  0
LINE
  5
233
330
1F
100
AcDbEntity
  8
仕上
  6
Continuous
 62
     3
370
     9
100
AcDbLine
 10
-225.9999043232687
 20
295.4101258050555
 30
0.0
 11
-225.9999043232687
 21
313.4098016588879
 31
0.0
  0
LINE
  5
234
330
1F
100
AcDbEntity
  8
仕上
  6
JWW_CENTER1
 62
     3
370
     9
100
AcDbLine
 10
-161.0001847550677
 20
245.1021580778068
 30
0.0
 11
-161.0001847550677
 21
303.8832818834973
 31
0.0
  0
LINE
  5
235
330
1F
100
AcDbEntity
  8
仕上
  6
Continuous
 62
     3
370
     9
100
AcDbLine
 10
-220.999566155511
 20
313.4098016588879
 30
0.0
 11
-192.9999934016047
 21
313.4098016588879
 31
0.0
  0
LINE
  5
236
330
1F
100
AcDbEntity
  8
仕上
  6
Continuous
 62
     3
370
     9
100
AcDbLine
 10
-220.999566155511
 20
295.4101258050555
 30
0.0
 11
-220.999566155511
 21
313.4098016588879
 31
0.0
  0
LINE
  5
237
330
1F
100
AcDbEntity
  8
仕上
  6
Continuous
 62
     3
370
     9
100
AcDbLine
 10
-179.9998762800888
 20
313.4098016588879
 30
0.0
 11
-188.0000016495989
 21
313.4098016588879
 31
0.0
  0
LINE
  5
238
330
1F
100
AcDbEntity
  8
仕上
  6
Continuous
 62
     3
370
     9
100
AcDbLine
 10
-146.9999653584248
 20
313.4098016588879
 30
0.0
 11
-174.9998845280828
 21
313.4098016588879
 31
0.0
  0
LINE
  5
239
330
1F
100
AcDbEntity
  8
仕上
  6
Continuous
 62
     3
370
     9
100
AcDbLine
 10
-133.9998482369088
 20
313.4098016588879
 30
0.0
 11
-141.999973606419
 21
313.4098016588879
 31
0.0
  0
LINE
  5
23A
330
1F
100
AcDbEntity
  8
仕上
  6
Continuous
 62
     3
370
     9
100
AcDbLine
 10
-112.0000230943834
 20
288.4100161067342
 30
0.0
 11
-112.0000230943834
 21
279.4099616699732
 31
0.0
  0
LINE
  5
23B
330
1F
100
AcDbEntity
  8
仕上
  6
Continuous
 62
     3
370
     9
100
AcDbLine
 10
-128.999856484903
 20
298.4099996107459
 30
0.0
 11
-128.999856484903
 21
313.4098016588879
 31
0.0
  0
LINE
  5
23C
330
1F
100
AcDbEntity
  8
仕上
  6
Continuous
 62
     3
370
     9
100
AcDbLine
 10
-133.9998482369088
 20
298.4099996107459
 30
0.0
 11
-133.9998482369088
 21
313.4098016588879
 31
0.0
  0
LINE
  5
23D
330
1F
100
AcDbEntity
  8
仕上
  6
Continuous
 62
     3
370
     9
100
AcDbLine
 10
-188.0000016495989
 20
298.4099996107459
 30
0.0
 11
-188.0000016495989
 21
313.4098016588879
 31
0.0
  0
LINE
  5
23E
330
1F
100
AcDbEntity
  8
仕上
  6
Continuous
 62
     3
370
     9
100
AcDbLine
 10
-192.9999934016047
 20
298.4099996107459
 30
0.0
 11
-192.9999934016047
 21
313.4098016588879
 31
0.0
  0
LINE
  5
23F
330
1F
100
AcDbEntity
  8
仕上
  6
Continuous
 62
     3
370
     9
100
AcDbLine
 10
-179.9998762800888
 20
298.4099996107459
 30
0.0
 11
-179.9998762800888
 21
313.4098016588879
 31
0.0
  0
LINE
  5
240
330
1F
100
AcDbEntity
  8
仕上
  6
Continuous
 62
     3
370
     9
100
AcDbLine
 10
-174.9998845280828
 20
298.4099996107459
 30
0.0
 11
-174.9998845280828
 21
313.4098016588879
 31
0.0
  0
LINE
  5
241
330
1F
100
AcDbEntity
  8
仕上
  6
Continuous
 62
     3
370
     9
100
AcDbLine
 10
-141.999973606419
 20
298.4099996107459
 30
0.0
 11
-141.999973606419
 21
313.4098016588879
 31
0.0
  0
LINE
  5
242
330
1F
100
AcDbEntity
  8
仕上
  6
Continuous
 62
     3
370
     9
100
AcDbLine
 10
-146.9999653584248
 20
298.4099996107459
 30
0.0
 11
-146.9999653584248
 21
313.4098016588879
 31
0.0
  0
LINE
  5
243
330
1F
100
AcDbEntity
  8
仕上
  6
JWW_DASHED1
 62
     3
370
     9
100
AcDbLine
 10
-181.0001517630912
 20
284.4097802141032
 30
0.0
 11
-169.077907252956
 21
284.4097802141032
 31
0.0
  0
LINE
  5
244
330
1F
100
AcDbEntity
  8
仕上
  6
JWW_DASHED1
 62
     3
370
     9
100
AcDbLine
 10
-152.9222890493032
 20
284.4097802141032
 30
0.0
 11
-141.000217747044
 21
284.4097802141032
 31
0.0
  0
LINE
  5
245
330
1F
100
AcDbEntity
  8
仕上
  6
Continuous
 62
     3
370
     9
100
AcDbLine
 10
-142.0001468142948
 20
298.4099996107459
 30
0.0
 11
-134.0001946526606
 21
298.4099996107459
 31
0.0
  0
LINE
  5
246
330
1F
100
AcDbEntity
  8
仕上
  6
Continuous
 62
     3
370
     9
100
AcDbLine
 10
-147.1709215318834
 20
298.4099996107459
 30
0.0
 11
-147.0001385663006
 21
298.4099996107459
 31
0.0
  0
LINE
  5
247
330
1F
100
AcDbEntity
  8
仕上
  6
Continuous
 62
     3
370
     9
100
AcDbLine
 10
-180.0000494879646
 20
298.4099996107459
 30
0.0
 11
-188.0000016495989
 21
298.4099996107459
 31
0.0
  0
LINE
  5
248
330
1F
100
AcDbEntity
  8
仕上
  6
Continuous
 62
     3
370
     9
100
AcDbLine
 10
-174.8292747703759
 20
298.4099996107459
 30
0.0
 11
-174.9998845280828
 21
298.4099996107459
 31
0.0
  0
LINE
  5
249
330
1F
100
AcDbEntity
  8
仕上
  6
Continuous
 62
     3
370
     9
100
AcDbLine
 10
-172.3246888856631
 20
291.4100631203005
 30
0.0
 11
-192.9999934016047
 21
291.4100631203005
 31
0.0
  0
LINE
  5
24A
330
1F
100
AcDbEntity
  8
仕上
  6
Continuous
 62
     3
370
     9
100
AcDbLine
 10
-192.9999934016047
 20
279.4099616699732
 30
0.0
 11
-192.9999934016047
 21
291.4100631203005
 31
0.0
  0
LINE
  5
24B
330
1F
100
AcDbEntity
  8
仕上
  6
Continuous
 62
     3
370
     9
100
AcDbLine
 10
-192.9999934016047
 20
298.4099996107459
 30
0.0
 11
-200.0000164959881
 21
298.4099996107459
 31
0.0
  0
LINE
  5
24C
330
1F
100
AcDbEntity
  8
仕上
  6
Continuous
 62
     3
370
     9
100
AcDbLine
 10
-121.9757574957771
 20
279.4099616699732
 30
0.0
 11
-121.9757574957771
 21
284.4097802141032
 31
0.0
  0
LINE
  5
24D
330
1F
100
AcDbEntity
  8
仕上
  6
Continuous
 62
     3
370
     9
100
AcDbLine
 10
-128.999856484903
 20
284.4097802141032
 30
0.0
 11
-121.9757574957771
 21
284.4097802141032
 31
0.0
  0
LINE
  5
24E
330
1F
100
AcDbEntity
  8
仕上
  6
Continuous
 62
     3
370
     9
100
AcDbLine
 10
-149.6753342087205
 20
291.4100631203005
 30
0.0
 11
-128.999856484903
 21
291.4100631203005
 31
0.0
  0
LINE
  5
24F
330
1F
100
AcDbEntity
  8
仕上
  6
Continuous
 62
     3
370
     9
100
AcDbLine
 10
-128.999856484903
 20
284.4097802141032
 30
0.0
 11
-128.999856484903
 21
291.4100631203005
 31
0.0
  0
LINE
  5
250
330
1F
100
AcDbEntity
  8
仕上
  6
Continuous
 62
     3
370
     9
100
AcDbLine
 10
-129.0000296927787
 20
298.4099996107459
 30
0.0
 11
-121.9757574957771
 21
298.4099996107459
 31
0.0
  0
LINE
  5
251
330
1F
100
AcDbEntity
  8
仕上
  6
Continuous
 62
     3
370
     9
100
AcDbLine
 10
-200.0000164959881
 20
295.4101258050555
 30
0.0
 11
-200.0000164959881
 21
298.4099996107459
 31
0.0
  0
LINE
  5
252
330
1F
100
AcDbEntity
  8
仕上
  6
Continuous
 62
     3
370
     9
100
AcDbLine
 10
-200.0000164959881
 20
295.4101258050555
 30
0.0
 11
-220.999566155511
 21
295.4101258050555
 31
0.0
  0
LINE
  5
253
330
1F
100
AcDbEntity
  8
仕上
  6
Continuous
 62
     3
370
     9
100
AcDbLine
 10
-210.0
 20
288.4100161067342
 30
0.0
 11
-210.0
 21
279.4099616699732
 31
0.0
  0
LINE
  5
254
330
1F
100
AcDbEntity
  8
建具
  6
Continuous
 62
     4
370
     9
100
AcDbLine
 10
-189.9965688344595
 20
290.4100474491116
 30
0.0
 11
-171.9200752876901
 21
290.4100474491116
 31
0.0
  0
LINE
  5
255
330
1F
100
AcDbEntity
  8
建具
  6
Continuous
 62
     4
370
     9
100
AcDbLine
 10
-191.9966001768371
 20
288.4100161067342
 30
0.0
 11
-191.9966001768371
 21
279.4099616699732
 31
0.0
  0
LINE
  5
256
330
1F
100
AcDbEntity
  8
建具
  6
Continuous
 62
     4
370
     9
100
AcDbLine
 10
-132.0032810520483
 20
290.4100474491116
 30
0.0
 11
-150.0799478066935
 21
290.4100474491116
 31
0.0
  0
LINE
  5
257
330
1F
100
AcDbEntity
  8
建具
  6
Continuous
 62
     4
370
     9
100
AcDbLine
 10
-130.0032497096707
 20
288.4100161067342
 30
0.0
 11
-130.0032497096707
 21
279.4099616699732
 31
0.0
  0
LINE
  5
258
330
1F
100
AcDbEntity
  8
仕上
  6
Continuous
 62
     3
370
     9
100
AcDbLine
 10
-121.9757574957771
 20
295.4101258050555
 30
0.0
 11
-100.999937315245
 21
295.4101258050555
 31
0.0
  0
LINE
  5
259
330
1F
100
AcDbEntity
  8
仕上
  6
Continuous
 62
     3
370
     9
100
AcDbLine
 10
-121.9757574957771
 20
295.4101258050555
 30
0.0
 11
-121.9757574957771
 21
298.4099996107459
 31
0.0
  0
LINE
  5
25A
330
1F
100
AcDbEntity
  8
躯体
  6
Continuous
 62
     2
370
     9
100
AcDbLine
 10
295.0256677576013
 20
301.4102198321882
 30
0.0
 11
304.0543014938767
 21
301.4102198321882
 31
0.0
  0
LINE
  5
25B
330
1F
100
AcDbEntity
  8
躯体
  6
Continuous
 62
     2
370
     9
100
AcDbLine
 10
293.1758942475191
 20
299.4100152819348
 30
0.0
 11
306.2108261520798
 21
299.4100152819348
 31
0.0
  0
LINE
  5
25C
330
1F
100
AcDbEntity
  8
躯体
  6
Continuous
 62
     2
370
     9
100
AcDbLine
 10
-295.0254945497255
 20
301.4102198321882
 30
0.0
 11
-304.0543014938767
 21
301.4102198321882
 31
0.0
  0
LINE
  5
25D
330
1F
100
AcDbEntity
  8
躯体
  6
Continuous
 62
     2
370
     9
100
AcDbLine
 10
-293.1758076435812
 20
299.4100152819348
 30
0.0
 11
-306.210566340266
 21
299.4100152819348
 31
0.0
  0
LINE
  5
25E
330
1F
100
AcDbEntity
  8
躯体
  6
Continuous
 62
     2
370
     9
100
AcDbLine
 10
22.00008495433912
 20
574.4356294275746
 30
0.0
 11
22.00008495433912
 21
583.46426316385
 31
0.0
  0
LINE
  5
25F
330
1F
100
AcDbEntity
  8
躯体
  6
Continuous
 62
     2
370
     9
100
AcDbLine
 10
20.00005361196153
 20
572.5857693135542
 30
0.0
 11
20.00005361196153
 21
585.6205280102392
 31
0.0
  0
LINE
  5
260
330
1F
100
AcDbEntity
  8
躯体
  6
Continuous
 62
     2
370
     9
100
AcDbLine
 10
-21.99999835040128
 20
574.4356294275746
 30
0.0
 11
-21.99999835040128
 21
583.46426316385
 31
0.0
  0
LINE
  5
261
330
1F
100
AcDbEntity
  8
躯体
  6
Continuous
 62
     2
370
     9
100
AcDbLine
 10
-19.9999670080237
 20
572.5857693135542
 30
0.0
 11
-19.9999670080237
 21
585.6205280102392
 31
0.0
  0
LINE
  5
262
330
1F
100
AcDbEntity
  8
躯体
  6
Continuous
 62
     2
370
     9
100
AcDbLine
 10
5.000078355943856
 20
572.9100144571353
 30
0.0
 11
-4.999991752006025
 21
572.9100144571353
 31
0.0
  0
LINE
  5
263
330
1F
100
AcDbEntity
  8
躯体
  6
Continuous
 62
     2
370
     9
100
AcDbLine
 10
5.000078355943856
 20
587.9098165052774
 30
0.0
 11
-4.999991752006025
 21
587.9098165052774
 31
0.0
  0
LINE
  5
264
330
1F
100
AcDbEntity
  8
躯体
  6
Continuous
 62
     2
370
     9
100
AcDbLine
 10
5.000078355943856
 20
571.4098610444453
 30
0.0
 11
-4.999991752006025
 21
571.4098610444453
 31
0.0
  0
LINE
  5
265
330
1F
100
AcDbEntity
  8
躯体
  6
Continuous
 62
     2
370
     9
100
AcDbLine
 10
5.000078355943856
 20
589.4099699179671
 30
0.0
 11
-4.999991752006025
 21
589.4099699179671
 31
0.0
  0
LINE
  5
266
330
1F
100
AcDbEntity
  8
仕上
  6
JWW_CENTER1
 62
     3
370
     9
100
AcDbLine
 10
16.77015974714936
 20
580.4099154812062
 30
0.0
 11
-16.77007314321153
 21
580.4099154812062
 31
0.0
  0
LINE
  5
267
330
1F
100
AcDbEntity
  8
躯体
  6
Continuous
 62
     2
370
     9
100
AcDbLine
 10
309.9998350401183
 20
284.4100400259171
 30
0.0
 11
309.9998350401183
 21
279.4099616699732
 31
0.0
  0
LINE
  5
268
330
1F
100
AcDbEntity
  8
躯体
  6
Continuous
 62
     2
370
     9
100
AcDbLine
 10
308.5001146471178
 20
284.4100400259171
 30
0.0
 11
308.5001146471178
 21
274.4097967100913
 31
0.0
  0
LINE
  5
269
330
1F
100
AcDbEntity
  8
躯体
  6
Continuous
 62
     2
370
     9
100
AcDbLine
 10
293.4998795792862
 20
284.4100400259171
 30
0.0
 11
293.4998795792862
 21
274.4097967100913
 31
0.0
  0
LINE
  5
26A
330
1F
100
AcDbEntity
  8
躯体
  6
Continuous
 62
     2
370
     9
100
AcDbLine
 10
291.9998993744722
 20
284.4100400259171
 30
0.0
 11
291.9998993744722
 21
279.4099616699732
 31
0.0
  0
LINE
  5
26B
330
1F
100
AcDbEntity
  8
仕上
  6
JWW_CENTER1
 62
     3
370
     9
100
AcDbLine
 10
300.9999538112332
 20
295.8866206715039
 30
0.0
 11
300.9999538112332
 21
262.9333026684423
 31
0.0
  0
LINE
  5
26C
330
1F
100
AcDbEntity
  8
躯体
  6
Continuous
 62
     2
370
     9
100
AcDbLine
 10
-309.9998350401183
 20
284.4100400259171
 30
0.0
 11
-309.9998350401183
 21
279.4099616699732
 31
0.0
  0
LINE
  5
26D
330
1F
100
AcDbEntity
  8
躯体
  6
Continuous
 62
     2
370
     9
100
AcDbLine
 10
-308.4998548353041
 20
284.4100400259171
 30
0.0
 11
-308.4998548353041
 21
274.4097967100913
 31
0.0
  0
LINE
  5
26E
330
1F
100
AcDbEntity
  8
躯体
  6
Continuous
 62
     2
370
     9
100
AcDbLine
 10
-293.4998795792864
 20
284.4100400259171
 30
0.0
 11
-293.4998795792864
 21
274.4097967100913
 31
0.0
  0
LINE
  5
26F
330
1F
100
AcDbEntity
  8
躯体
  6
Continuous
 62
     2
370
     9
100
AcDbLine
 10
-291.9997261665964
 20
284.4100400259171
 30
0.0
 11
-291.9997261665964
 21
279.4099616699732
 31
0.0
  0
LINE
  5
270
330
1F
100
AcDbEntity
  8
仕上
  6
JWW_CENTER1
 62
     3
370
     9
100
AcDbLine
 10
-300.9999538112332
 20
295.8866206715039
 30
0.0
 11
-300.9999538112332
 21
262.9333026684423
 31
0.0
  0
LINE
  5
271
330
1F
100
AcDbEntity
  8
躯体
  6
Continuous
 62
     2
370
     9
100
AcDbLine
 10
5.000078355943856
 20
-29.08989316533086
 30
0.0
 11
-4.999991752006025
 21
-29.08989316533086
 31
0.0
  0
LINE
  5
272
330
1F
100
AcDbEntity
  8
躯体
  6
Continuous
 62
     2
370
     9
100
AcDbLine
 10
5.000078355943856
 20
-14.08991790931319
 30
0.0
 11
-4.999991752006025
 21
-14.08991790931319
 31
0.0
  0
LINE
  5
273
330
1F
100
AcDbEntity
  8
仕上
  6
JWW_CENTER1
 62
     3
370
     9
100
AcDbLine
 10
16.47674560546875
 20
-21.58981893338409
 30
0.0
 11
-16.47674560546875
 21
-21.58981893338409
 31
0.0
  0
LINE
  5
274
330
1F
100
AcDbEntity
  8
仕上
  6
Continuous
 62
     3
370
     9
100
AcDbLine
 10
95.99994556323901
 20
495.4098824892299
 30
0.0
 11
90.41277911211984
 21
495.4098824892299
 31
0.0
  0
LINE
  5
275
330
1F
100
AcDbEntity
  8
仕上
  6
Continuous
 62
     3
370
     9
100
AcDbLine
 10
90.41277911211984
 20
495.4098824892299
 30
0.0
 11
95.99994556323901
 21
509.9652331279547
 31
0.0
  0
LINE
  5
276
330
1F
100
AcDbEntity
  8
仕上
  6
Continuous
 62
     3
370
     9
100
AcDbLine
 10
-95.99977235536315
 20
495.4098824892299
 30
0.0
 11
-90.41260590424417
 21
495.4098824892299
 31
0.0
  0
LINE
  5
277
330
1F
100
AcDbEntity
  8
仕上
  6
Continuous
 62
     3
370
     9
100
AcDbLine
 10
-90.41260590424417
 20
495.4098824892299
 30
0.0
 11
-95.99977235536315
 21
509.9652331279547
 31
0.0
  0
LINE
  5
278
330
1F
100
AcDbEntity
  8
その他
  6
Continuous
 62
     7
370
     9
100
AcDbLine
 10
47.93233510610216
 20
-343.9838033413761
 30
0.0
 11
45.64806963946359
 21
-326.6335704180231
 31
0.0
  0
LINE
  5
279
330
1F
100
AcDbEntity
  8
その他
  6
Continuous
 62
     7
370
     9
100
AcDbLine
 10
47.93233510610216
 20
-343.9838033413761
 30
0.0
 11
50.21642736486487
 21
-326.6335704180231
 31
0.0
  0
LINE
  5
27A
330
1F
100
AcDbEntity
  8
その他
  6
Continuous
 62
     7
370
     9
100
AcDbLine
 10
47.93233510610216
 20
-348.9834053756614
 30
0.0
 11
47.93233510610216
 21
-389.4334633590598
 31
0.0
  0
LINE
  5
27B
330
1F
100
AcDbEntity
  8
その他
  6
Continuous
 62
     7
370
     9
100
AcDbLine
 10
47.93233510610216
 20
-305.6806569790714
 30
0.0
 11
47.93233510610216
 21
-348.9834053756614
 31
0.0
  0
LINE
  5
27C
330
1F
100
AcDbEntity
  8
仕上
  6
Continuous
 62
     3
370
     9
100
AcDbLine
 10
-89.89254925702079
 20
209.3134271471691
 30
0.0
 11
-238.0127365524705
 21
209.3134271471691
 31
0.0
  0
LINE
  5
27D
330
1F
100
AcDbEntity
  8
仕上
  6
Continuous
 62
     3
370
     9
100
AcDbLine
 10
-86.50009980072855
 20
197.9100268291264
 30
0.0
 11
-233.2001557221284
 21
197.9100268291264
 31
0.0
  0
LINE
  5
27E
330
1F
100
AcDbEntity
  8
仕上
  6
Continuous
 62
     3
370
     9
100
AcDbLine
 10
-89.89254925702079
 20
194.5173175610204
 30
0.0
 11
-229.7975736050992
 21
194.5173175610204
 31
0.0
  0
LINE
  5
27F
330
1F
100
AcDbEntity
  8
仕上
  6
Continuous
 62
     3
370
     9
100
AcDbLine
 10
-84.89255750501476
 20
189.5173258090146
 30
0.0
 11
-84.89255750501476
 21
49.61247466881181
 31
0.0
  0
LINE
  5
280
330
1F
100
AcDbEntity
  8
仕上
  6
Continuous
 62
     3
370
     9
100
AcDbLine
 10
-81.5000214447847
 20
192.9098618692447
 30
0.0
 11
-81.5000214447847
 21
46.20989255178262
 31
0.0
  0
LINE
  5
281
330
1F
100
AcDbEntity
  8
仕上
  6
Continuous
 62
     3
370
     9
100
AcDbLine
 10
-70.09653452280409
 20
189.5173258090146
 30
0.0
 11
-70.09653452280409
 21
41.39722511750276
 31
0.0
  0
LINE
  5
282
330
1F
100
AcDbEntity
  8
仕上
  6
Continuous
 62
     3
370
     9
100
AcDbLine
 10
-65.09645616686024
 20
209.3134271471691
 30
0.0
 11
65.09654277079807
 21
209.3134271471691
 31
0.0
  0
LINE
  5
283
330
1F
100
AcDbEntity
  8
仕上
  6
Continuous
 62
     3
370
     9
100
AcDbLine
 10
-68.5000775311444
 20
205.9099789907608
 30
0.0
 11
68.49999092720637
 21
205.9099789907608
 31
0.0
  0
LINE
  5
284
330
1F
100
AcDbEntity
  8
仕上
  6
Continuous
 62
     3
370
     9
100
AcDbLine
 10
-68.5000775311444
 20
197.9100268291264
 30
0.0
 11
68.49999092720637
 21
197.9100268291264
 31
0.0
  0
LINE
  5
285
330
1F
100
AcDbEntity
  8
仕上
  6
Continuous
 62
     3
370
     9
100
AcDbLine
 10
-65.09645616686024
 20
194.5173175610204
 30
0.0
 11
65.09654277079807
 21
194.5173175610204
 31
0.0
  0
LINE
  5
286
330
1F
100
AcDbEntity
  8
仕上
  6
Continuous
 62
     3
370
     9
100
AcDbLine
 10
-70.09653452280409
 20
214.313505503113
 30
0.0
 11
-70.09653452280409
 21
279.4099616699732
 31
0.0
  0
LINE
  5
287
330
1F
100
AcDbEntity
  8
仕上
  6
Continuous
 62
     3
370
     9
100
AcDbLine
 10
-73.50006928315042
 20
210.9099707427667
 30
0.0
 11
-73.50006928315042
 21
279.4099616699732
 31
0.0
  0
LINE
  5
288
330
1F
100
AcDbEntity
  8
仕上
  6
Continuous
 62
     3
370
     9
100
AcDbLine
 10
-81.5000214447847
 20
210.9099707427667
 30
0.0
 11
-81.5000214447847
 21
279.4099616699732
 31
0.0
  0
LINE
  5
289
330
1F
100
AcDbEntity
  8
仕上
  6
Continuous
 62
     3
370
     9
100
AcDbLine
 10
-84.89255750501476
 20
214.313505503113
 30
0.0
 11
-84.89255750501476
 21
279.4099616699732
 31
0.0
  0
LINE
  5
28A
330
1F
100
AcDbEntity
  8
仕上
  6
Continuous
 62
     3
370
     9
100
AcDbLine
 10
89.89272246489645
 20
209.3134271471691
 30
0.0
 11
238.0127365524705
 21
209.3134271471691
 31
0.0
  0
LINE
  5
28B
330
1F
100
AcDbEntity
  8
仕上
  6
Continuous
 62
     3
370
     9
100
AcDbLine
 10
86.50009980072835
 20
197.9100268291264
 30
0.0
 11
233.2001557221284
 21
197.9100268291264
 31
0.0
  0
LINE
  5
28C
330
1F
100
AcDbEntity
  8
仕上
  6
Continuous
 62
     3
370
     9
100
AcDbLine
 10
89.89272246489645
 20
194.5173175610204
 30
0.0
 11
229.7974003972234
 21
194.5173175610204
 31
0.0
  0
LINE
  5
28D
330
1F
100
AcDbEntity
  8
仕上
  6
Continuous
 62
     3
370
     9
100
AcDbLine
 10
84.89255750501476
 20
189.5173258090146
 30
0.0
 11
84.89255750501476
 21
49.61247466881181
 31
0.0
  0
LINE
  5
28E
330
1F
100
AcDbEntity
  8
仕上
  6
Continuous
 62
     3
370
     9
100
AcDbLine
 10
81.50010804872252
 20
192.9098618692447
 30
0.0
 11
81.50010804872252
 21
46.20989255178262
 31
0.0
  0
LINE
  5
28F
330
1F
100
AcDbEntity
  8
仕上
  6
Continuous
 62
     3
370
     9
100
AcDbLine
 10
70.09653452280409
 20
189.5173258090146
 30
0.0
 11
70.09653452280409
 21
41.39722511750276
 31
0.0
  0
LINE
  5
290
330
1F
100
AcDbEntity
  8
仕上
  6
Continuous
 62
     3
370
     9
100
AcDbLine
 10
70.09653452280409
 20
214.313505503113
 30
0.0
 11
70.09653452280409
 21
279.4099616699732
 31
0.0
  0
LINE
  5
291
330
1F
100
AcDbEntity
  8
仕上
  6
Continuous
 62
     3
370
     9
100
AcDbLine
 10
73.50015588708825
 20
210.9099707427667
 30
0.0
 11
73.50015588708825
 21
279.4099616699732
 31
0.0
  0
LINE
  5
292
330
1F
100
AcDbEntity
  8
仕上
  6
Continuous
 62
     3
370
     9
100
AcDbLine
 10
81.50010804872252
 20
210.9099707427667
 30
0.0
 11
81.50010804872252
 21
279.4099616699732
 31
0.0
  0
LINE
  5
293
330
1F
100
AcDbEntity
  8
仕上
  6
Continuous
 62
     3
370
     9
100
AcDbLine
 10
84.89255750501476
 20
214.313505503113
 30
0.0
 11
84.89255750501476
 21
279.4099616699732
 31
0.0
  0
LINE
  5
294
330
1F
100
AcDbEntity
  8
仕上
  6
Continuous
 62
     3
370
     9
100
AcDbLine
 10
86.50009980072835
 20
205.9099789907608
 30
0.0
 11
238.9505705962309
 21
205.9099789907608
 31
0.0
  0
LINE
  5
295
330
1F
100
AcDbEntity
  8
仕上
  6
Continuous
 62
     3
370
     9
100
AcDbLine
 10
73.50015588708825
 20
192.9098618692447
 30
0.0
 11
73.50015588708825
 21
40.45947767768013
 31
0.0
  0
LINE
  5
296
330
1F
100
AcDbEntity
  8
仕上
  6
Continuous
 62
     3
370
     9
100
AcDbLine
 10
-73.50006928315042
 20
192.9098618692447
 30
0.0
 11
-73.50006928315042
 21
40.45947767768013
 31
0.0
  0
LINE
  5
297
330
1F
100
AcDbEntity
  8
仕上
  6
Continuous
 62
     3
370
     9
100
AcDbLine
 10
-86.50009980072855
 20
205.9099789907608
 30
0.0
 11
-238.950657200169
 21
205.9099789907608
 31
0.0
  0
LINE
  5
298
330
1F
100
AcDbEntity
  8
躯体
  6
Continuous
 62
     2
370
     9
100
AcDbLine
 10
319.1225206529772
 20
-405.6044970636628
 30
0.0
 11
319.999905148068
 21
-411.7458854155157
 31
0.0
  0
LINE
  5
299
330
1F
100
AcDbEntity
  8
建具
  6
Continuous
 62
     6
370
     9
100
AcDbLine
 10
-260.9994135676204
 20
-368.2458965503077
 30
0.0
 11
-260.9994135676204
 21
-393.2458986123062
 31
0.0
  0
LINE
  5
29A
330
1F
100
AcDbEntity
  8
建具
  6
Continuous
 62
     6
370
     9
100
AcDbLine
 10
-266.2183400746939
 20
-370.2458412887473
 30
0.0
 11
-263.2670510781778
 21
-391.2457806659907
 31
0.0
  0
LINE
  5
29B
330
1F
100
AcDbEntity
  8
建具
  6
Continuous
 62
     6
370
     9
100
AcDbLine
 10
-264.3570482408679
 20
-368.2458965503077
 30
0.0
 11
-260.9994135676204
 21
-368.2458965503077
 31
0.0
  0
LINE
  5
29C
330
1F
100
AcDbEntity
  8
建具
  6
Continuous
 62
     6
370
     9
100
AcDbLine
 10
-262.5298783585833
 20
-393.2458986123062
 30
0.0
 11
-260.9994135676204
 21
-393.2458986123062
 31
0.0
  0
LINE
  5
29D
330
1F
100
AcDbEntity
  8
建具
  6
Continuous
 62
     6
370
     9
100
AcDbLine
 10
-266.3631418589
 20
-370.2458412887473
 30
0.0
 11
-266.2183400746939
 21
-370.2458412887473
 31
0.0
  0
LINE
  5
29E
330
1F
100
AcDbEntity
  8
建具
  6
Continuous
 62
     6
370
     9
100
AcDbLine
 10
-263.5523244496939
 20
-391.2457806659907
 30
0.0
 11
-263.2670510781778
 21
-391.2457806659907
 31
0.0
  0
LINE
  5
29F
330
1F
100
AcDbEntity
  8
建具
  6
Continuous
 62
     6
370
     9
100
AcDbLine
 10
-264.0474391627957
 20
-390.8154456984548
 30
0.0
 11
-266.8582565720017
 21
-370.8155652943692
 31
0.0
  0
LINE
  5
2A0
330
1F
100
AcDbEntity
  8
躯体
  6
Continuous
 62
     2
370
     9
100
AcDbLine
 10
-292.1692100731102
 20
-405.5362531605801
 30
0.0
 11
-293.4999661832243
 21
-411.7457122076398
 31
0.0
  0
LINE
  5
2A1
330
1F
100
AcDbEntity
  8
躯体
  6
Continuous
 62
     2
370
     9
100
AcDbLine
 10
309.8083537333721
 20
-404.7459056231012
 30
0.0
 11
318.1327242464632
 21
-404.7459056231012
 31
0.0
  0
LINE
  5
2A2
330
1F
100
AcDbEntity
  8
躯体
  6
Continuous
 62
     2
370
     9
100
AcDbLine
 10
-309.8304377375422
 20
-405.536426368456
 30
0.0
 11
-308.499941439242
 21
-411.7458854155157
 31
0.0
  0
LINE
  5
2A3
330
1F
100
AcDbEntity
  8
躯体
  6
JWW_DASHED1
 62
     2
370
     9
100
AcDbLine
 10
307.2930289603568
 20
-406.4530424474256
 30
0.0
 11
308.7069248508762
 21
-405.0387135372165
 31
0.0
  0
LINE
  5
2A4
330
1F
100
AcDbEntity
  8
躯体
  6
JWW_DASHED1
 62
     2
370
     9
100
AcDbLine
 10
294.4143305598079
 20
-406.7458936635098
 30
0.0
 11
306.5858212032833
 21
-406.7458936635098
 31
0.0
  0
LINE
  5
2A5
330
1F
100
AcDbEntity
  8
躯体
  6
JWW_DASHED1
 62
     2
370
     9
100
AcDbLine
 10
292.2928804964632
 20
-405.0387135372165
 30
0.0
 11
293.7072094066722
 21
-406.4530424474256
 31
0.0
  0
LINE
  5
2A6
330
1F
100
AcDbEntity
  8
仕上
  6
Continuous
 62
     3
370
     9
100
AcDbLine
 10
-271.4999678328231
 20
-348.7460239818164
 30
0.0
 11
-269.9540009369722
 21
-359.74589325111
 31
0.0
  0
LINE
  5
2A7
330
1F
100
AcDbEntity
  8
仕上
  6
Continuous
 62
     3
370
     9
100
AcDbLine
 10
-207.181301632443
 20
-346.692341499896
 30
0.0
 11
-210.0365468618032
 21
-351.7115593261206
 31
0.0
  0
LINE
  5
2A8
330
1F
100
AcDbEntity
  8
仕上
  6
Continuous
 62
     3
370
     9
100
AcDbLine
 10
-200.1204825736382
 20
-346.5005137773981
 30
0.0
 11
-200.0153453930005
 21
-351.3968839176799
 31
0.0
  0
LINE
  5
2A9
330
1F
100
AcDbEntity
  8
仕上
  6
Continuous
 62
     3
370
     9
100
AcDbLine
 10
-193.0984620790225
 20
-346.3164804093132
 30
0.0
 11
-192.9927186708194
 21
-351.2461497637262
 31
0.0
  0
LINE
  5
2AA
330
1F
100
AcDbEntity
  8
仕上
  6
Continuous
 62
     3
370
     9
100
AcDbLine
 10
-129.1132210396432
 20
-344.9416861967657
 30
0.0
 11
-129.0073910275023
 21
-349.8728278181234
 31
0.0
  0
LINE
  5
2AB
330
1F
100
AcDbEntity
  8
仕上
  6
Continuous
 62
     3
370
     9
100
AcDbLine
 10
-119.0087931864971
 20
-349.7107052463329
 30
0.0
 11
-122.075092212574
 21
-344.8238182372534
 31
0.0
  0
LINE
  5
2AC
330
1F
100
AcDbEntity
  8
仕上
  6
Continuous
 62
     3
370
     9
100
AcDbLine
 10
-250.0000206199852
 20
-347.9980690719505
 30
0.0
 11
-247.0002334182328
 21
-352.9012376213592
 31
0.0
  0
LINE
  5
2AD
330
1F
100
AcDbEntity
  8
仕上
  6
Continuous
 62
     3
370
     9
100
AcDbLine
 10
-269.8040029164907
 20
-359.74589325111
 30
0.0
 11
-269.9540009369722
 21
-359.74589325111
 31
0.0
  0
LINE
  5
2AE
330
1F
100
AcDbEntity
  8
仕上
  6
Continuous
 62
     3
370
     9
100
AcDbLine
 10
-81.56506100216433
 20
-404.8993244991306
 30
0.0
 11
-84.56372235272391
 21
-362.0166052014638
 31
0.0
  0
LINE
  5
2AF
330
1F
100
AcDbEntity
  8
仕上
  6
Continuous
 62
     3
370
     9
100
AcDbLine
 10
-73.43485651789493
 20
-404.8993244991306
 30
0.0
 11
-70.41887437975086
 21
-361.7667961425269
 31
0.0
  0
LINE
  5
2B0
330
1F
100
AcDbEntity
  8
仕上
  6
Continuous
 62
     3
370
     9
100
AcDbLine
 10
-267.3053060995567
 20
-368.2458965503077
 30
0.0
 11
-268.3186587771854
 21
-361.0369847576557
 31
0.0
  0
LINE
  5
2B1
330
1F
100
AcDbEntity
  8
仕上
  6
Continuous
 62
     3
370
     9
100
AcDbLine
 10
-267.3053060995567
 20
-368.2458965503077
 30
0.0
 11
-260.9994135676204
 21
-368.2458965503077
 31
0.0
  0
LINE
  5
2B2
330
1F
100
AcDbEntity
  8
仕上
  6
Continuous
 62
     3
370
     9
100
AcDbLine
 10
-260.9994135676204
 20
-368.2458965503077
 30
0.0
 11
-260.9994135676204
 21
-393.2458986123062
 31
0.0
  0
LINE
  5
2B3
330
1F
100
AcDbEntity
  8
仕上
  6
Continuous
 62
     3
370
     9
100
AcDbLine
 10
-263.7919575459249
 20
-393.2458986123062
 30
0.0
 11
-260.9994135676204
 21
-393.2458986123062
 31
0.0
  0
LINE
  5
2B4
330
1F
100
AcDbEntity
  8
仕上
  6
Continuous
 62
     3
370
     9
100
AcDbLine
 10
-262.175668252481
 20
-404.7459056231012
 30
0.0
 11
-263.7919575459249
 21
-393.2458986123062
 31
0.0
  0
LINE
  5
2B5
330
1F
100
AcDbEntity
  8
仕上
  6
Continuous
 62
     3
370
     9
100
AcDbLine
 10
-262.175668252481
 20
-404.7459056231012
 30
0.0
 11
-254.5613634264147
 21
-404.7459056231012
 31
0.0
  0
LINE
  5
2B6
330
1F
100
AcDbEntity
  8
仕上
  6
Continuous
 62
     3
370
     9
100
AcDbLine
 10
-254.5613634264147
 20
-404.7459056231012
 30
0.0
 11
-252.0449128022066
 21
-365.5890609427275
 31
0.0
  0
LINE
  5
2B7
330
1F
100
AcDbEntity
  8
仕上
  6
Continuous
 62
     3
370
     9
100
AcDbLine
 10
271.500054436761
 20
-348.7460239818164
 30
0.0
 11
269.9540009369722
 21
-359.74589325111
 31
0.0
  0
LINE
  5
2B8
330
1F
100
AcDbEntity
  8
仕上
  6
Continuous
 62
     3
370
     9
100
AcDbLine
 10
250.0001938278611
 20
-347.9980690719505
 30
0.0
 11
247.0001468142948
 21
-352.9012376213592
 31
0.0
  0
LINE
  5
2B9
330
1F
100
AcDbEntity
  8
仕上
  6
Continuous
 62
     3
370
     9
100
AcDbLine
 10
269.8040029164907
 20
-359.74589325111
 30
0.0
 11
269.9540009369722
 21
-359.74589325111
 31
0.0
  0
LINE
  5
2BA
330
1F
100
AcDbEntity
  8
仕上
  6
Continuous
 62
     3
370
     9
100
AcDbLine
 10
81.5649743982263
 20
-404.8993244991306
 30
0.0
 11
84.56372235272372
 21
-362.0166052014638
 31
0.0
  0
LINE
  5
2BB
330
1F
100
AcDbEntity
  8
仕上
  6
Continuous
 62
     3
370
     9
100
AcDbLine
 10
73.43494312183276
 20
-404.8993244991306
 30
0.0
 11
70.41878777581283
 21
-361.7667961425269
 31
0.0
  0
LINE
  5
2BC
330
1F
100
AcDbEntity
  8
仕上
  6
Continuous
 62
     3
370
     9
100
AcDbLine
 10
267.3053927034945
 20
-368.2458965503077
 30
0.0
 11
268.3185721732474
 21
-361.0369847576557
 31
0.0
  0
LINE
  5
2BD
330
1F
100
AcDbEntity
  8
仕上
  6
Continuous
 62
     3
370
     9
100
AcDbLine
 10
267.3053927034945
 20
-368.2458965503077
 30
0.0
 11
260.9995867754963
 21
-368.2458965503077
 31
0.0
  0
LINE
  5
2BE
330
1F
100
AcDbEntity
  8
仕上
  6
Continuous
 62
     3
370
     9
100
AcDbLine
 10
260.9995867754963
 20
-368.2458965503077
 30
0.0
 11
260.9995867754963
 21
-393.2458986123062
 31
0.0
  0
LINE
  5
2BF
330
1F
100
AcDbEntity
  8
仕上
  6
Continuous
 62
     3
370
     9
100
AcDbLine
 10
263.791784338049
 20
-393.2458986123062
 30
0.0
 11
260.9995867754963
 21
-393.2458986123062
 31
0.0
  0
LINE
  5
2C0
330
1F
100
AcDbEntity
  8
仕上
  6
Continuous
 62
     3
370
     9
100
AcDbLine
 10
262.1754950446051
 20
-404.7459056231012
 30
0.0
 11
263.791784338049
 21
-393.2458986123062
 31
0.0
  0
LINE
  5
2C1
330
1F
100
AcDbEntity
  8
仕上
  6
Continuous
 62
     3
370
     9
100
AcDbLine
 10
262.1754950446051
 20
-404.7459056231012
 30
0.0
 11
254.5611902185388
 21
-404.7459056231012
 31
0.0
  0
LINE
  5
2C2
330
1F
100
AcDbEntity
  8
仕上
  6
Continuous
 62
     3
370
     9
100
AcDbLine
 10
254.5611902185388
 20
-404.7459056231012
 30
0.0
 11
252.0448261982685
 21
-365.5890609427275
 31
0.0
  0
LINE
  5
2C3
330
1F
100
AcDbEntity
  8
躯体
  6
Continuous
 62
     2
370
     9
100
AcDbLine
 10
282.7390804806271
 20
-401.0259200735869
 30
0.0
 11
278.9999554608319
 21
-347.7458351027517
 31
0.0
  0
LINE
  5
2C4
330
1F
100
AcDbEntity
  8
躯体
  6
Continuous
 62
     2
370
     9
100
AcDbLine
 10
286.7290971085831
 20
-404.7459056231012
 30
0.0
 11
309.8083537333721
 21
-404.7455159053806
 31
0.0
  0
LINE
  5
2C5
330
1F
100
AcDbEntity
  8
躯体
  6
Continuous
 62
     2
370
     9
100
AcDbLine
 10
-319.1226072569152
 20
-405.6044970636628
 30
0.0
 11
-319.9999051480681
 21
-411.7458854155157
 31
0.0
  0
LINE
  5
2C6
330
1F
100
AcDbEntity
  8
躯体
  6
Continuous
 62
     2
370
     9
100
AcDbLine
 10
-309.8083537333721
 20
-404.7459056231012
 30
0.0
 11
-318.1326376425254
 21
-404.7459056231012
 31
0.0
  0
LINE
  5
2C7
330
1F
100
AcDbEntity
  8
躯体
  6
JWW_DASHED1
 62
     2
370
     9
100
AcDbLine
 10
-307.292942356419
 20
-406.4530424474256
 30
0.0
 11
-308.7070114548142
 21
-405.0387135372165
 31
0.0
  0
LINE
  5
2C8
330
1F
100
AcDbEntity
  8
躯体
  6
JWW_DASHED1
 62
     2
370
     9
100
AcDbLine
 10
-294.4143305598079
 20
-406.7458936635098
 30
0.0
 11
-306.5858212032834
 21
-406.7458936635098
 31
0.0
  0
LINE
  5
2C9
330
1F
100
AcDbEntity
  8
躯体
  6
JWW_DASHED1
 62
     2
370
     9
100
AcDbLine
 10
-292.2929671004013
 20
-405.0387135372165
 30
0.0
 11
-293.7072094066723
 21
-406.4530424474256
 31
0.0
  0
LINE
  5
2CA
330
1F
100
AcDbEntity
  8
躯体
  6
Continuous
 62
     2
370
     9
100
AcDbLine
 10
-286.7292703164591
 20
-404.7459056231012
 30
0.0
 11
-309.8083537333721
 21
-404.7455159053806
 31
0.0
  0
LINE
  5
2CB
330
1F
100
AcDbEntity
  8
建具
  6
Continuous
 62
     6
370
     9
100
AcDbLine
 10
-270.3396482725402
 20
-373.7906270718449
 30
0.0
 11
-268.1554103542019
 21
-389.3323532615356
 31
0.0
  0
LINE
  5
2CC
330
1F
100
AcDbEntity
  8
建具
  6
Continuous
 62
     6
370
     9
100
AcDbLine
 10
260.9994135676204
 20
-368.2458965503077
 30
0.0
 11
260.9994135676204
 21
-393.2458986123062
 31
0.0
  0
LINE
  5
2CD
330
1F
100
AcDbEntity
  8
建具
  6
Continuous
 62
     6
370
     9
100
AcDbLine
 10
266.2184266786317
 20
-370.2458412887473
 30
0.0
 11
263.2670510781777
 21
-391.2457806659907
 31
0.0
  0
LINE
  5
2CE
330
1F
100
AcDbEntity
  8
建具
  6
Continuous
 62
     6
370
     9
100
AcDbLine
 10
264.3570482408678
 20
-368.2458965503077
 30
0.0
 11
260.9994135676204
 21
-368.2458965503077
 31
0.0
  0
LINE
  5
2CF
330
1F
100
AcDbEntity
  8
建具
  6
Continuous
 62
     6
370
     9
100
AcDbLine
 10
262.5297917546453
 20
-393.2458986123062
 30
0.0
 11
260.9994135676204
 21
-393.2458986123062
 31
0.0
  0
LINE
  5
2D0
330
1F
100
AcDbEntity
  8
建具
  6
Continuous
 62
     6
370
     9
100
AcDbLine
 10
266.3631418588999
 20
-370.2458412887473
 30
0.0
 11
266.2184266786317
 21
-370.2458412887473
 31
0.0
  0
LINE
  5
2D1
330
1F
100
AcDbEntity
  8
建具
  6
Continuous
 62
     6
370
     9
100
AcDbLine
 10
263.5524976575697
 20
-391.2457806659907
 30
0.0
 11
263.2670510781777
 21
-391.2457806659907
 31
0.0
  0
LINE
  5
2D2
330
1F
100
AcDbEntity
  8
建具
  6
Continuous
 62
     6
370
     9
100
AcDbLine
 10
264.0474391627955
 20
-390.8154456984548
 30
0.0
 11
266.8581699680637
 21
-370.8155652943692
 31
0.0
  0
LINE
  5
2D3
330
1F
100
AcDbEntity
  8
建具
  6
Continuous
 62
     6
370
     9
100
AcDbLine
 10
270.3396482725402
 20
-373.7906270718449
 30
0.0
 11
268.1554969581398
 21
-389.3323532615356
 31
0.0
  0
LINE
  5
2D4
330
1F
100
AcDbEntity
  8
建具
  6
Continuous
 62
     6
370
     9
100
AcDbLine
 10
-192.0110630344701
 20
-350.2250460336533
 30
0.0
 11
-191.9895852578654
 21
-351.2245853831836
 31
0.0
  0
LINE
  5
2D5
330
1F
100
AcDbEntity
  8
建具
  6
Continuous
 62
     6
370
     9
100
AcDbLine
 10
-130.0250739020271
 20
-348.8943765274772
 30
0.0
 11
-130.0036827293602
 21
-349.8940890848833
 31
0.0
  0
LINE
  5
2D6
330
1F
100
AcDbEntity
  8
建具
  6
Continuous
 62
     6
370
     9
100
AcDbLine
 10
-185.5153346706082
 20
-364.0886910201926
 30
0.0
 11
-135.9269590635558
 21
-363.0242853211587
 31
0.0
  0
LINE
  5
2D7
330
1F
100
AcDbEntity
  8
建具
  6
Continuous
 62
     6
370
     9
100
AcDbLine
 10
-141.1120234309016
 20
-345.1315220286914
 30
0.0
 11
-181.102864033467
 21
-345.9899402613771
 31
0.0
  0
LINE
  5
2D8
330
1F
100
AcDbEntity
  8
建具
  6
Continuous
 62
     6
370
     9
100
AcDbLine
 10
-141.1120234309016
 20
-345.1315220286914
 30
0.0
 11
-141.0905456542969
 21
-346.1311479821595
 31
0.0
  0
LINE
  5
2D9
330
1F
100
AcDbEntity
  8
建具
  6
Continuous
 62
     6
370
     9
100
AcDbLine
 10
-181.102864033467
 20
-345.9899402613771
 30
0.0
 11
-181.0812996529245
 21
-346.9894796109074
 31
0.0
  0
LINE
  5
2DA
330
1F
100
AcDbEntity
  8
仕上
  6
Continuous
 62
     3
370
     9
100
AcDbLine
 10
-130.0036827293602
 20
-349.8942189907902
 30
0.0
 11
-129.0073910275023
 21
-349.8728278181234
 31
0.0
  0
LINE
  5
2DB
330
1F
100
AcDbEntity
  8
仕上
  6
Continuous
 62
     3
370
     9
100
AcDbLine
 10
-200.0153453930005
 20
-351.3968839176799
 30
0.0
 11
-191.9895852578654
 21
-351.2245853831836
 31
0.0
  0
LINE
  5
2DC
330
1F
100
AcDbEntity
  8
仕上
  6
Continuous
 62
     3
370
     9
100
AcDbLine
 10
155.0569895151499
 20
-394.4420289009201
 30
0.0
 11
165.0547213167758
 21
-394.6566334590915
 31
0.0
  0
LINE
  5
2DD
330
1F
100
AcDbEntity
  8
仕上
  6
Continuous
 62
     3
370
     9
100
AcDbLine
 10
207.181215028505
 20
-346.692341499896
 30
0.0
 11
210.0364602578652
 21
-351.7115593261206
 31
0.0
  0
LINE
  5
2DE
330
1F
100
AcDbEntity
  8
仕上
  6
Continuous
 62
     3
370
     9
100
AcDbLine
 10
200.120482573638
 20
-346.5005137773981
 30
0.0
 11
200.0153453930003
 21
-351.3968839176799
 31
0.0
  0
LINE
  5
2DF
330
1F
100
AcDbEntity
  8
仕上
  6
Continuous
 62
     3
370
     9
100
AcDbLine
 10
193.0985486829603
 20
-346.3164804093132
 30
0.0
 11
192.9926320668814
 21
-351.2461497637262
 31
0.0
  0
LINE
  5
2E0
330
1F
100
AcDbEntity
  8
仕上
  6
Continuous
 62
     3
370
     9
100
AcDbLine
 10
129.113307643581
 20
-344.9416861967657
 30
0.0
 11
129.0073910275021
 21
-349.8728278181234
 31
0.0
  0
LINE
  5
2E1
330
1F
100
AcDbEntity
  8
仕上
  6
Continuous
 62
     3
370
     9
100
AcDbLine
 10
119.0086199786212
 20
-349.7107052463329
 30
0.0
 11
122.075005608636
 21
-344.8238182372534
 31
0.0
  0
LINE
  5
2E2
330
1F
100
AcDbEntity
  8
建具
  6
Continuous
 62
     6
370
     9
100
AcDbLine
 10
192.0109764305321
 20
-350.2250460336533
 30
0.0
 11
191.9895852578652
 21
-351.2245853831836
 31
0.0
  0
LINE
  5
2E3
330
1F
100
AcDbEntity
  8
建具
  6
Continuous
 62
     6
370
     9
100
AcDbLine
 10
130.0250739020269
 20
-348.8943765274772
 30
0.0
 11
130.0037693332981
 21
-349.8940890848833
 31
0.0
  0
LINE
  5
2E4
330
1F
100
AcDbEntity
  8
建具
  6
Continuous
 62
     6
370
     9
100
AcDbLine
 10
185.5152480666702
 20
-364.0886910201926
 30
0.0
 11
135.9269590635556
 21
-363.0242853211587
 31
0.0
  0
LINE
  5
2E5
330
1F
100
AcDbEntity
  8
建具
  6
Continuous
 62
     6
370
     9
100
AcDbLine
 10
141.1119368269636
 20
-345.1315220286914
 30
0.0
 11
181.102864033467
 21
-345.9899402613771
 31
0.0
  0
LINE
  5
2E6
330
1F
100
AcDbEntity
  8
建具
  6
Continuous
 62
     6
370
     9
100
AcDbLine
 10
141.1119368269636
 20
-345.1315220286914
 30
0.0
 11
141.0905456542969
 21
-346.1311479821595
 31
0.0
  0
LINE
  5
2E7
330
1F
100
AcDbEntity
  8
建具
  6
Continuous
 62
     6
370
     9
100
AcDbLine
 10
181.102864033467
 20
-345.9899402613771
 30
0.0
 11
181.0812996529245
 21
-346.9894796109074
 31
0.0
  0
LINE
  5
2E8
330
1F
100
AcDbEntity
  8
仕上
  6
Continuous
 62
     3
370
     9
100
AcDbLine
 10
130.0037693332981
 20
-349.8942189907902
 30
0.0
 11
129.0073910275021
 21
-349.8728278181234
 31
0.0
  0
LINE
  5
2E9
330
1F
100
AcDbEntity
  8
仕上
  6
Continuous
 62
     3
370
     9
100
AcDbLine
 10
200.0153453930003
 20
-351.3968839176799
 30
0.0
 11
191.9895852578652
 21
-351.2245853831836
 31
0.0
  0
LINE
  5
2EA
330
1F
100
AcDbEntity
  8
仕上
  6
Continuous
 62
     3
370
     9
100
AcDbLine
 10
-185.9941678433805
 20
-351.095891931431
 30
0.0
 11
-185.57569761534
 21
-370.5965006333947
 31
0.0
  0
LINE
  5
2EB
330
1F
100
AcDbEntity
  8
建具
  6
Continuous
 62
     6
370
     9
100
AcDbLine
 10
-185.8547355033255
 20
-357.5951710567477
 30
0.0
 11
-185.5153346706082
 21
-364.0886910201926
 31
0.0
  0
LINE
  5
2EC
330
1F
100
AcDbEntity
  8
仕上
  6
Continuous
 62
     3
370
     9
100
AcDbLine
 10
-136.0056820431273
 20
-350.0229990464806
 30
0.0
 11
-135.5871252111487
 21
-369.5236943523822
 31
0.0
  0
LINE
  5
2ED
330
1F
100
AcDbEntity
  8
建具
  6
Continuous
 62
     6
370
     9
100
AcDbLine
 10
-135.8664229109482
 20
-356.512751738626
 30
0.0
 11
-135.9269590635558
 21
-363.0242853211587
 31
0.0
  0
LINE
  5
2EE
330
1F
100
AcDbEntity
  8
建具
  6
Continuous
 62
     6
370
     9
100
AcDbLine
 10
185.8549087112014
 20
-357.5923564287653
 30
0.0
 11
185.5152480666702
 21
-364.0886910201926
 31
0.0
  0
LINE
  5
2EF
330
1F
100
AcDbEntity
  8
仕上
  6
Continuous
 62
     3
370
     9
100
AcDbLine
 10
185.9943410512564
 20
-351.095891931431
 30
0.0
 11
185.57569761534
 21
-370.5965006333947
 31
0.0
  0
LINE
  5
2F0
330
1F
100
AcDbEntity
  8
仕上
  6
Continuous
 62
     3
370
     9
100
AcDbLine
 10
136.0056820431271
 20
-350.0229990464806
 30
0.0
 11
135.5871252111487
 21
-369.5236943523822
 31
0.0
  0
LINE
  5
2F1
330
1F
100
AcDbEntity
  8
建具
  6
Continuous
 62
     6
370
     9
100
AcDbLine
 10
135.866422910948
 20
-356.512751738626
 30
0.0
 11
135.9269590635556
 21
-363.0242853211587
 31
0.0
  0
LINE
  5
2F2
330
1F
100
AcDbEntity
  8
建具
  6
Continuous
 62
     6
370
     9
100
AcDbLine
 10
-133.0888614139042
 20
-345.9594556752285
 30
0.0
 11
-141.0905456542969
 21
-346.1311479821595
 31
0.0
  0
LINE
  5
2F3
330
1F
100
AcDbEntity
  8
建具
  6
Continuous
 62
     6
370
     9
100
AcDbLine
 10
-181.0812996529245
 20
-346.9894796109074
 30
0.0
 11
-189.0761421822213
 21
-347.1610420119314
 31
0.0
  0
LINE
  5
2F4
330
1F
100
AcDbEntity
  8
建具
  6
Continuous
 62
     6
370
     9
100
AcDbLine
 10
-191.9895852578654
 20
-351.2245853831836
 30
0.0
 11
-185.9941678433805
 21
-351.095891931431
 31
0.0
  0
LINE
  5
2F5
330
1F
100
AcDbEntity
  8
建具
  6
Continuous
 62
     6
370
     9
100
AcDbLine
 10
-136.0056820431273
 20
-350.0229990464806
 30
0.0
 11
-130.0036827293602
 21
-349.8940890848833
 31
0.0
  0
LINE
  5
2F6
330
1F
100
AcDbEntity
  8
建具
  6
Continuous
 62
     6
370
     9
100
AcDbLine
 10
191.9895852578652
 20
-351.2245853831836
 30
0.0
 11
185.9943410512564
 21
-351.095891931431
 31
0.0
  0
LINE
  5
2F7
330
1F
100
AcDbEntity
  8
建具
  6
Continuous
 62
     6
370
     9
100
AcDbLine
 10
136.0056820431271
 20
-350.0229990464806
 30
0.0
 11
130.0037693332981
 21
-349.8940890848833
 31
0.0
  0
LINE
  5
2F8
330
1F
100
AcDbEntity
  8
建具
  6
Continuous
 62
     6
370
     9
100
AcDbLine
 10
133.0887748099662
 20
-345.9594556752285
 30
0.0
 11
141.0905456542969
 21
-346.1311479821595
 31
0.0
  0
LINE
  5
2F9
330
1F
100
AcDbEntity
  8
建具
  6
Continuous
 62
     6
370
     9
100
AcDbLine
 10
181.0812996529245
 20
-346.9894796109074
 30
0.0
 11
189.0761421822213
 21
-347.1610420119314
 31
0.0
  0
LINE
  5
2FA
330
1F
100
AcDbEntity
  8
仕上
  6
Continuous
 62
     3
370
     9
100
AcDbLine
 10
154.1334451211465
 20
-402.4240107454355
 30
0.0
 11
165.6344480772275
 21
-402.6709185724519
 31
0.0
  0
LINE
  5
2FB
330
1F
100
AcDbEntity
  8
仕上
  6
Continuous
 62
     3
370
     9
100
AcDbLine
 10
248.6548016522381
 20
-392.1605347602951
 30
0.0
 11
178.2748124406143
 21
-397.9158860588592
 31
0.0
  0
LINE
  5
2FC
330
1F
100
AcDbEntity
  8
仕上
  6
Continuous
 62
     3
370
     9
100
AcDbLine
 10
147.6487154574008
 20
-400.4203420376652
 30
0.0
 11
81.50010804872252
 21
-405.8298405101367
 31
0.0
  0
LINE
  5
2FD
330
1F
100
AcDbEntity
  8
仕上
  6
Continuous
 62
     3
370
     9
100
AcDbLine
 10
127.6617390400654
 20
-365.9587731537177
 30
0.0
 11
127.5890783361487
 21
-369.3520886493891
 31
0.0
  0
LINE
  5
2FE
330
1F
100
AcDbEntity
  8
仕上
  6
Continuous
 62
     3
370
     9
100
AcDbLine
 10
193.6465784021325
 20
-367.3775188647608
 30
0.0
 11
193.5738310942778
 21
-370.7681496383567
 31
0.0
  0
LINE
  5
2FF
330
1F
100
AcDbEntity
  8
仕上
  6
Continuous
 62
     3
370
     9
100
AcDbLine
 10
-155.0570761190879
 20
-394.4420289009201
 30
0.0
 11
-165.0546347128379
 21
-394.6566334590915
 31
0.0
  0
LINE
  5
300
330
1F
100
AcDbEntity
  8
仕上
  6
Continuous
 62
     3
370
     9
100
AcDbLine
 10
-154.1335317250845
 20
-402.4240107454355
 30
0.0
 11
-165.6344480772277
 21
-402.6709185724519
 31
0.0
  0
LINE
  5
301
330
1F
100
AcDbEntity
  8
仕上
  6
Continuous
 62
     3
370
     9
100
AcDbLine
 10
-127.6617390400654
 20
-365.9587731537177
 30
0.0
 11
-127.5889917322109
 21
-369.3520886493891
 31
0.0
  0
LINE
  5
302
330
1F
100
AcDbEntity
  8
仕上
  6
Continuous
 62
     3
370
     9
100
AcDbLine
 10
-193.6465784021327
 20
-367.3775188647608
 30
0.0
 11
-193.5739176982158
 21
-370.7681496383567
 31
0.0
  0
LINE
  5
303
330
1F
100
AcDbEntity
  8
仕上
  6
Continuous
 62
     3
370
     9
100
AcDbLine
 10
-248.6548882561762
 20
-392.1605347602951
 30
0.0
 11
-178.2749856484904
 21
-397.9158860588592
 31
0.0
  0
LINE
  5
304
330
1F
100
AcDbEntity
  8
躯体
  6
Continuous
 62
     2
370
     9
100
AcDbLine
 10
-280.7063994536529
 20
-372.0620990748537
 30
0.0
 11
-279.0001286687079
 21
-347.7458351027517
 31
0.0
  0
LINE
  5
305
330
1F
100
AcDbEntity
  8
躯体
  6
Continuous
 62
     2
370
     9
100
AcDbLine
 10
-281.2117334314295
 20
-373.2563673788022
 30
0.0
 11
-309.4143058158256
 21
-404.7455159053806
 31
0.0
  0
LINE
  5
306
330
1F
100
AcDbEntity
  8
躯体
  6
Continuous
 62
     2
370
     9
100
AcDbLine
 10
-282.7389938766892
 20
-401.0259200735869
 30
0.0
 11
-280.7063994536529
 21
-372.0620990748537
 31
0.0
  0
LINE
  5
307
330
1F
100
AcDbEntity
  8
躯体
  6
Continuous
 62
     2
370
     9
100
AcDbLine
 10
281.2117334314294
 20
-373.2563673788022
 30
0.0
 11
309.4142192118877
 21
-404.7455159053806
 31
0.0
  0
LINE
  5
308
330
1F
100
AcDbEntity
  8
仕上
  6
JWW_CENTER1
 62
     3
370
     9
100
AcDbLine
 10
161.3521431587838
 20
-334.1530872340334
 30
0.0
 11
160.5724479056693
 21
-370.479195599479
 31
0.0
  0
LINE
  5
309
330
1F
100
AcDbEntity
  8
仕上
  6
JWW_CENTER1
 62
     3
370
     9
100
AcDbLine
 10
-161.2036174052471
 20
-341.076032823666
 30
0.0
 11
-160.424614983636
 21
-377.3685821631666
 31
0.0
  0
LINE
  5
30A
330
1F
100
AcDbEntity
  8
建具
  6
Continuous
 62
     6
370
     9
100
AcDbLine
 10
190.8449410103463
 20
-351.1999465628447
 30
0.0
 11
186.7561958931588
 21
-347.111288049595
 31
0.0
  0
LINE
  5
30B
330
1F
100
AcDbEntity
  8
建具
  6
Continuous
 62
     6
370
     9
100
AcDbLine
 10
190.8449410103463
 20
-351.1999465628447
 30
0.0
 11
186.7561958931588
 21
-347.111288049595
 31
0.0
  0
LINE
  5
30C
330
1F
100
AcDbEntity
  8
建具
  6
Continuous
 62
     6
370
     9
100
AcDbLine
 10
186.5092014622043
 20
-351.1068906315471
 30
0.0
 11
182.4204563450168
 21
-347.0183620242044
 31
0.0
  0
LINE
  5
30D
330
1F
100
AcDbEntity
  8
建具
  6
Continuous
 62
     6
370
     9
100
AcDbLine
 10
190.8449410103463
 20
-351.1999465628447
 30
0.0
 11
186.7561958931588
 21
-347.111288049595
 31
0.0
  0
LINE
  5
30E
330
1F
100
AcDbEntity
  8
建具
  6
Continuous
 62
     6
370
     9
100
AcDbLine
 10
186.5092014622043
 20
-351.1068906315471
 30
0.0
 11
182.4204563450168
 21
-347.0183620242044
 31
0.0
  0
LINE
  5
30F
330
1F
100
AcDbEntity
  8
建具
  6
Continuous
 62
     6
370
     9
100
AcDbLine
 10
185.9157046756229
 20
-354.7559908578721
 30
0.0
 11
177.0628769333298
 21
-345.90311981361
 31
0.0
  0
LINE
  5
310
330
1F
100
AcDbEntity
  8
建具
  6
Continuous
 62
     6
370
     9
100
AcDbLine
 10
186.5092014622043
 20
-351.1068906315471
 30
0.0
 11
182.4204563450168
 21
-347.0183620242044
 31
0.0
  0
LINE
  5
311
330
1F
100
AcDbEntity
  8
建具
  6
Continuous
 62
     6
370
     9
100
AcDbLine
 10
185.9157046756229
 20
-354.7559908578721
 30
0.0
 11
177.0628769333298
 21
-345.90311981361
 31
0.0
  0
LINE
  5
312
330
1F
100
AcDbEntity
  8
建具
  6
Continuous
 62
     6
370
     9
100
AcDbLine
 10
185.7880504711253
 20
-358.8709336662811
 30
0.0
 11
172.7272239891259
 21
-345.8102370901884
 31
0.0
  0
LINE
  5
313
330
1F
100
AcDbEntity
  8
建具
  6
Continuous
 62
     6
370
     9
100
AcDbLine
 10
185.9157046756229
 20
-354.7559908578721
 30
0.0
 11
177.0628769333298
 21
-345.90311981361
 31
0.0
  0
LINE
  5
314
330
1F
100
AcDbEntity
  8
建具
  6
Continuous
 62
     6
370
     9
100
AcDbLine
 10
185.7880504711253
 20
-358.8709336662811
 30
0.0
 11
172.7272239891259
 21
-345.8102370901884
 31
0.0
  0
LINE
  5
315
330
1F
100
AcDbEntity
  8
建具
  6
Continuous
 62
     6
370
     9
100
AcDbLine
 10
185.5772564862225
 20
-362.9028666001915
 30
0.0
 11
168.3915710449219
 21
-345.717007951015
 31
0.0
  0
LINE
  5
316
330
1F
100
AcDbEntity
  8
建具
  6
Continuous
 62
     6
370
     9
100
AcDbLine
 10
185.7880504711253
 20
-358.8709336662811
 30
0.0
 11
172.7272239891259
 21
-345.8102370901884
 31
0.0
  0
LINE
  5
317
330
1F
100
AcDbEntity
  8
建具
  6
Continuous
 62
     6
370
     9
100
AcDbLine
 10
185.5772564862225
 20
-362.9028666001915
 30
0.0
 11
168.3915710449219
 21
-345.717007951015
 31
0.0
  0
LINE
  5
318
330
1F
100
AcDbEntity
  8
建具
  6
Continuous
 62
     6
370
     9
100
AcDbLine
 10
182.4550113162479
 20
-364.0229586313096
 30
0.0
 11
164.0560047046557
 21
-345.6239953216865
 31
0.0
  0
LINE
  5
319
330
1F
100
AcDbEntity
  8
建具
  6
Continuous
 62
     6
370
     9
100
AcDbLine
 10
185.5772564862225
 20
-362.9028666001915
 30
0.0
 11
168.3915710449219
 21
-345.717007951015
 31
0.0
  0
LINE
  5
31A
330
1F
100
AcDbEntity
  8
建具
  6
Continuous
 62
     6
370
     9
100
AcDbLine
 10
182.4550113162479
 20
-364.0229586313096
 30
0.0
 11
164.0560047046557
 21
-345.6239953216865
 31
0.0
  0
LINE
  5
31B
330
1F
100
AcDbEntity
  8
建具
  6
Continuous
 62
     6
370
     9
100
AcDbLine
 10
178.1194449759818
 20
-363.929946001981
 30
0.0
 11
159.7202651565139
 21
-345.5308960884201
 31
0.0
  0
LINE
  5
31C
330
1F
100
AcDbEntity
  8
建具
  6
Continuous
 62
     6
370
     9
100
AcDbLine
 10
182.4550113162479
 20
-364.0229586313096
 30
0.0
 11
164.0560047046557
 21
-345.6239953216865
 31
0.0
  0
LINE
  5
31D
330
1F
100
AcDbEntity
  8
建具
  6
Continuous
 62
     6
370
     9
100
AcDbLine
 10
178.1194449759818
 20
-363.929946001981
 30
0.0
 11
159.7202651565139
 21
-345.5308960884201
 31
0.0
  0
LINE
  5
31E
330
1F
100
AcDbEntity
  8
建具
  6
Continuous
 62
     6
370
     9
100
AcDbLine
 10
173.78370542784
 20
-363.8368900706836
 30
0.0
 11
155.3847854201858
 21
-345.4378834590915
 31
0.0
  0
LINE
  5
31F
330
1F
100
AcDbEntity
  8
建具
  6
Continuous
 62
     6
370
     9
100
AcDbLine
 10
178.1194449759818
 20
-363.929946001981
 30
0.0
 11
159.7202651565139
 21
-345.5308960884201
 31
0.0
  0
LINE
  5
320
330
1F
100
AcDbEntity
  8
建具
  6
Continuous
 62
     6
370
     9
100
AcDbLine
 10
173.78370542784
 20
-363.8368900706836
 30
0.0
 11
155.3847854201858
 21
-345.4378834590915
 31
0.0
  0
LINE
  5
321
330
1F
100
AcDbEntity
  8
建具
  6
Continuous
 62
     6
370
     9
100
AcDbLine
 10
169.4481390875738
 20
-363.7438341393861
 30
0.0
 11
151.049045872044
 21
-345.3448275277939
 31
0.0
  0
LINE
  5
322
330
1F
100
AcDbEntity
  8
建具
  6
Continuous
 62
     6
370
     9
100
AcDbLine
 10
173.78370542784
 20
-363.8368900706836
 30
0.0
 11
155.3847854201858
 21
-345.4378834590915
 31
0.0
  0
LINE
  5
323
330
1F
100
AcDbEntity
  8
建具
  6
Continuous
 62
     6
370
     9
100
AcDbLine
 10
169.4481390875738
 20
-363.7438341393861
 30
0.0
 11
151.049045872044
 21
-345.3448275277939
 31
0.0
  0
LINE
  5
324
330
1F
100
AcDbEntity
  8
建具
  6
Continuous
 62
     6
370
     9
100
AcDbLine
 10
165.1124861433698
 20
-363.6506050002126
 30
0.0
 11
146.71339292784
 21
-345.2517715964965
 31
0.0
  0
LINE
  5
325
330
1F
100
AcDbEntity
  8
建具
  6
Continuous
 62
     6
370
     9
100
AcDbLine
 10
169.4481390875738
 20
-363.7438341393861
 30
0.0
 11
151.049045872044
 21
-345.3448275277939
 31
0.0
  0
LINE
  5
326
330
1F
100
AcDbEntity
  8
建具
  6
Continuous
 62
     6
370
     9
100
AcDbLine
 10
165.1124861433698
 20
-363.6506050002126
 30
0.0
 11
146.71339292784
 21
-345.2517715964965
 31
0.0
  0
LINE
  5
327
330
1F
100
AcDbEntity
  8
建具
  6
Continuous
 62
     6
370
     9
100
AcDbLine
 10
160.776746595228
 20
-363.5577655787599
 30
0.0
 11
142.3778265875738
 21
-345.1587156651989
 31
0.0
  0
LINE
  5
328
330
1F
100
AcDbEntity
  8
建具
  6
Continuous
 62
     6
370
     9
100
AcDbLine
 10
165.1124861433698
 20
-363.6506050002126
 30
0.0
 11
146.71339292784
 21
-345.2517715964965
 31
0.0
  0
LINE
  5
329
330
1F
100
AcDbEntity
  8
建具
  6
Continuous
 62
     6
370
     9
100
AcDbLine
 10
160.776746595228
 20
-363.5577655787599
 30
0.0
 11
142.3778265875738
 21
-345.1587156651989
 31
0.0
  0
LINE
  5
32A
330
1F
100
AcDbEntity
  8
建具
  6
Continuous
 62
     6
370
     9
100
AcDbLine
 10
156.441093651024
 20
-363.4645797415557
 30
0.0
 11
139.0641867147908
 21
-346.0876728053224
 31
0.0
  0
LINE
  5
32B
330
1F
100
AcDbEntity
  8
建具
  6
Continuous
 62
     6
370
     9
100
AcDbLine
 10
160.776746595228
 20
-363.5577655787599
 30
0.0
 11
142.3778265875738
 21
-345.1587156651989
 31
0.0
  0
LINE
  5
32C
330
1F
100
AcDbEntity
  8
建具
  6
Continuous
 62
     6
370
     9
100
AcDbLine
 10
156.441093651024
 20
-363.4645797415557
 30
0.0
 11
139.0641867147908
 21
-346.0876728053224
 31
0.0
  0
LINE
  5
32D
330
1F
100
AcDbEntity
  8
建具
  6
Continuous
 62
     6
370
     9
100
AcDbLine
 10
152.1056139146959
 20
-363.3714805082892
 30
0.0
 11
134.7287069784627
 21
-345.9947034779629
 31
0.0
  0
LINE
  5
32E
330
1F
100
AcDbEntity
  8
建具
  6
Continuous
 62
     6
370
     9
100
AcDbLine
 10
156.441093651024
 20
-363.4645797415557
 30
0.0
 11
139.0641867147908
 21
-346.0876728053224
 31
0.0
  0
LINE
  5
32F
330
1F
100
AcDbEntity
  8
建具
  6
Continuous
 62
     6
370
     9
100
AcDbLine
 10
152.1056139146959
 20
-363.3714805082892
 30
0.0
 11
134.7287069784627
 21
-345.9947034779629
 31
0.0
  0
LINE
  5
330
330
1F
100
AcDbEntity
  8
建具
  6
Continuous
 62
     6
370
     9
100
AcDbLine
 10
147.7698743665541
 20
-363.2784678789606
 30
0.0
 11
135.9742448136612
 21
-351.4829249300058
 31
0.0
  0
LINE
  5
331
330
1F
100
AcDbEntity
  8
建具
  6
Continuous
 62
     6
370
     9
100
AcDbLine
 10
134.4817125475084
 20
-349.990262757946
 30
0.0
 11
131.1267625963365
 21
-346.6352695048052
 31
0.0
  0
LINE
  5
332
330
1F
100
AcDbEntity
  8
建具
  6
Continuous
 62
     6
370
     9
100
AcDbLine
 10
152.1056139146959
 20
-363.3714805082892
 30
0.0
 11
134.7287069784627
 21
-345.9947034779629
 31
0.0
  0
LINE
  5
333
330
1F
100
AcDbEntity
  8
建具
  6
Continuous
 62
     6
370
     9
100
AcDbLine
 10
147.7698743665541
 20
-363.2784678789606
 30
0.0
 11
135.9742448136612
 21
-351.4829249300058
 31
0.0
  0
LINE
  5
334
330
1F
100
AcDbEntity
  8
建具
  6
Continuous
 62
     6
370
     9
100
AcDbLine
 10
134.4817125475084
 20
-349.990262757946
 30
0.0
 11
131.1267625963365
 21
-346.6352695048052
 31
0.0
  0
LINE
  5
335
330
1F
100
AcDbEntity
  8
建具
  6
Continuous
 62
     6
370
     9
100
AcDbLine
 10
143.4341348184121
 20
-363.1854119476631
 30
0.0
 11
135.885302569415
 21
-355.6364064907902
 31
0.0
  0
LINE
  5
336
330
1F
100
AcDbEntity
  8
建具
  6
Continuous
 62
     6
370
     9
100
AcDbLine
 10
130.1459729993666
 20
-349.8972501286174
 30
0.0
 11
130.0067138671875
 21
-349.7579043925005
 31
0.0
  0
LINE
  5
337
330
1F
100
AcDbEntity
  8
建具
  6
Continuous
 62
     6
370
     9
100
AcDbLine
 10
147.7698743665541
 20
-363.2784678789606
 30
0.0
 11
135.9742448136612
 21
-351.4829249300058
 31
0.0
  0
LINE
  5
338
330
1F
100
AcDbEntity
  8
建具
  6
Continuous
 62
     6
370
     9
100
AcDbLine
 10
134.4817125475084
 20
-349.990262757946
 30
0.0
 11
131.1267625963365
 21
-346.6352695048052
 31
0.0
  0
LINE
  5
339
330
1F
100
AcDbEntity
  8
建具
  6
Continuous
 62
     6
370
     9
100
AcDbLine
 10
143.4341348184121
 20
-363.1854119476631
 30
0.0
 11
135.885302569415
 21
-355.6364064907902
 31
0.0
  0
LINE
  5
33A
330
1F
100
AcDbEntity
  8
建具
  6
Continuous
 62
     6
370
     9
100
AcDbLine
 10
130.1459729993666
 20
-349.8972501286174
 30
0.0
 11
130.0067138671875
 21
-349.7579043925005
 31
0.0
  0
LINE
  5
33B
330
1F
100
AcDbEntity
  8
建具
  6
Continuous
 62
     6
370
     9
100
AcDbLine
 10
139.0983952702703
 20
-363.0922261104587
 30
0.0
 11
135.897773536476
 21
-359.8917342825713
 31
0.0
  0
LINE
  5
33C
330
1F
100
AcDbEntity
  8
建具
  6
Continuous
 62
     6
370
     9
100
AcDbLine
 10
143.4341348184121
 20
-363.1854119476631
 30
0.0
 11
135.885302569415
 21
-355.6364064907902
 31
0.0
  0
LINE
  5
33D
330
1F
100
AcDbEntity
  8
建具
  6
Continuous
 62
     6
370
     9
100
AcDbLine
 10
130.1459729993666
 20
-349.8972501286174
 30
0.0
 11
130.0067138671875
 21
-349.7579043925005
 31
0.0
  0
LINE
  5
33E
330
1F
100
AcDbEntity
  8
建具
  6
Continuous
 62
     6
370
     9
100
AcDbLine
 10
139.0983952702703
 20
-363.0922261104587
 30
0.0
 11
135.897773536476
 21
-359.8917342825713
 31
0.0
  0
LINE
  5
33F
330
1F
100
AcDbEntity
  8
建具
  6
Continuous
 62
     6
370
     9
100
AcDbLine
 10
-130.0609279323269
 20
-348.4925775574868
 30
0.0
 11
-132.5580658783784
 21
-345.9952664035594
 31
0.0
  0
LINE
  5
340
330
1F
100
AcDbEntity
  8
建具
  6
Continuous
 62
     6
370
     9
100
AcDbLine
 10
-130.0609279323269
 20
-348.4925775574868
 30
0.0
 11
-132.5580658783784
 21
-345.9952664035594
 31
0.0
  0
LINE
  5
341
330
1F
100
AcDbEntity
  8
建具
  6
Continuous
 62
     6
370
     9
100
AcDbLine
 10
-132.8410009435706
 20
-349.9550149552116
 30
0.0
 11
-136.7578372439823
 21
-346.0382219567689
 31
0.0
  0
LINE
  5
342
330
1F
100
AcDbEntity
  8
建具
  6
Continuous
 62
     6
370
     9
100
AcDbLine
 10
-130.0609279323269
 20
-348.4925775574868
 30
0.0
 11
-132.5580658783784
 21
-345.9952664035594
 31
0.0
  0
LINE
  5
343
330
1F
100
AcDbEntity
  8
建具
  6
Continuous
 62
     6
370
     9
100
AcDbLine
 10
-132.8410009435706
 20
-349.9550149552116
 30
0.0
 11
-136.7578372439823
 21
-346.0382219567689
 31
0.0
  0
LINE
  5
344
330
1F
100
AcDbEntity
  8
建具
  6
Continuous
 62
     6
370
     9
100
AcDbLine
 10
-135.9835114350191
 20
-351.0551014766696
 30
0.0
 11
-140.9113621067358
 21
-346.127207502984
 31
0.0
  0
LINE
  5
345
330
1F
100
AcDbEntity
  8
建具
  6
Continuous
 62
     6
370
     9
100
AcDbLine
 10
-141.0945294354413
 20
-345.9441267782163
 30
0.0
 11
-141.8905062288851
 21
-345.1481932867414
 31
0.0
  0
LINE
  5
346
330
1F
100
AcDbEntity
  8
建具
  6
Continuous
 62
     6
370
     9
100
AcDbLine
 10
-132.8410009435706
 20
-349.9550149552116
 30
0.0
 11
-136.7578372439823
 21
-346.0382219567689
 31
0.0
  0
LINE
  5
347
330
1F
100
AcDbEntity
  8
建具
  6
Continuous
 62
     6
370
     9
100
AcDbLine
 10
-135.9835114350191
 20
-351.0551014766696
 30
0.0
 11
-140.9113621067358
 21
-346.127207502984
 31
0.0
  0
LINE
  5
348
330
1F
100
AcDbEntity
  8
建具
  6
Continuous
 62
     6
370
     9
100
AcDbLine
 10
-141.0945294354413
 20
-345.9441267782163
 30
0.0
 11
-141.8905062288851
 21
-345.1481932867414
 31
0.0
  0
LINE
  5
349
330
1F
100
AcDbEntity
  8
建具
  6
Continuous
 62
     6
370
     9
100
AcDbLine
 10
-135.8904988056904
 20
-355.3910575346563
 30
0.0
 11
-146.0440310916386
 21
-345.2373087388634
 31
0.0
  0
LINE
  5
34A
330
1F
100
AcDbEntity
  8
建具
  6
Continuous
 62
     6
370
     9
100
AcDbLine
 10
-135.9835114350191
 20
-351.0551014766696
 30
0.0
 11
-140.9113621067358
 21
-346.127207502984
 31
0.0
  0
LINE
  5
34B
330
1F
100
AcDbEntity
  8
建具
  6
Continuous
 62
     6
370
     9
100
AcDbLine
 10
-141.0945294354413
 20
-345.9441267782163
 30
0.0
 11
-141.8905062288851
 21
-345.1481932867414
 31
0.0
  0
LINE
  5
34C
330
1F
100
AcDbEntity
  8
建具
  6
Continuous
 62
     6
370
     9
100
AcDbLine
 10
-135.8904988056904
 20
-355.3910575346563
 30
0.0
 11
-146.0440310916386
 21
-345.2373087388634
 31
0.0
  0
LINE
  5
34D
330
1F
100
AcDbEntity
  8
建具
  6
Continuous
 62
     6
370
     9
100
AcDbLine
 10
-135.8952620222763
 20
-359.6287614250701
 30
0.0
 11
-150.197469350454
 21
-345.3265540968923
 31
0.0
  0
LINE
  5
34E
330
1F
100
AcDbEntity
  8
建具
  6
Continuous
 62
     6
370
     9
100
AcDbLine
 10
-135.8904988056904
 20
-355.3910575346563
 30
0.0
 11
-146.0440310916386
 21
-345.2373087388634
 31
0.0
  0
LINE
  5
34F
330
1F
100
AcDbEntity
  8
建具
  6
Continuous
 62
     6
370
     9
100
AcDbLine
 10
-135.8952620222763
 20
-359.6287614250701
 30
0.0
 11
-150.197469350454
 21
-345.3265540968923
 31
0.0
  0
LINE
  5
350
330
1F
100
AcDbEntity
  8
建具
  6
Continuous
 62
     6
370
     9
100
AcDbLine
 10
-136.7252741633235
 20
-363.0413895988983
 30
0.0
 11
-154.3509942132074
 21
-345.4156695490144
 31
0.0
  0
LINE
  5
351
330
1F
100
AcDbEntity
  8
建具
  6
Continuous
 62
     6
370
     9
100
AcDbLine
 10
-135.8952620222763
 20
-359.6287614250701
 30
0.0
 11
-150.197469350454
 21
-345.3265540968923
 31
0.0
  0
LINE
  5
352
330
1F
100
AcDbEntity
  8
建具
  6
Continuous
 62
     6
370
     9
100
AcDbLine
 10
-136.7252741633235
 20
-363.0413895988983
 30
0.0
 11
-154.3509942132074
 21
-345.4156695490144
 31
0.0
  0
LINE
  5
353
330
1F
100
AcDbEntity
  8
建具
  6
Continuous
 62
     6
370
     9
100
AcDbLine
 10
-140.8787124221389
 20
-363.1305483529893
 30
0.0
 11
-158.5044324720228
 21
-345.5049149070434
 31
0.0
  0
LINE
  5
354
330
1F
100
AcDbEntity
  8
建具
  6
Continuous
 62
     6
370
     9
100
AcDbLine
 10
-136.7252741633235
 20
-363.0413895988983
 30
0.0
 11
-154.3509942132074
 21
-345.4156695490144
 31
0.0
  0
LINE
  5
355
330
1F
100
AcDbEntity
  8
建具
  6
Continuous
 62
     6
370
     9
100
AcDbLine
 10
-140.8787124221389
 20
-363.1305483529893
 30
0.0
 11
-158.5044324720228
 21
-345.5049149070434
 31
0.0
  0
LINE
  5
356
330
1F
100
AcDbEntity
  8
建具
  6
Continuous
 62
     6
370
     9
100
AcDbLine
 10
-145.0322372848923
 20
-363.2197504090493
 30
0.0
 11
-162.6579573347763
 21
-345.5939004532585
 31
0.0
  0
LINE
  5
357
330
1F
100
AcDbEntity
  8
建具
  6
Continuous
 62
     6
370
     9
100
AcDbLine
 10
-140.8787124221389
 20
-363.1305483529893
 30
0.0
 11
-158.5044324720228
 21
-345.5049149070434
 31
0.0
  0
LINE
  5
358
330
1F
100
AcDbEntity
  8
建具
  6
Continuous
 62
     6
370
     9
100
AcDbLine
 10
-145.0322372848923
 20
-363.2197504090493
 30
0.0
 11
-162.6579573347763
 21
-345.5939004532585
 31
0.0
  0
LINE
  5
359
330
1F
100
AcDbEntity
  8
建具
  6
Continuous
 62
     6
370
     9
100
AcDbLine
 10
-149.1857621476458
 20
-363.3089091631403
 30
0.0
 11
-166.8114821975295
 21
-345.6831458112874
 31
0.0
  0
LINE
  5
35A
330
1F
100
AcDbEntity
  8
建具
  6
Continuous
 62
     6
370
     9
100
AcDbLine
 10
-145.0322372848923
 20
-363.2197504090493
 30
0.0
 11
-162.6579573347763
 21
-345.5939004532585
 31
0.0
  0
LINE
  5
35B
330
1F
100
AcDbEntity
  8
建具
  6
Continuous
 62
     6
370
     9
100
AcDbLine
 10
-149.1857621476458
 20
-363.3089091631403
 30
0.0
 11
-166.8114821975295
 21
-345.6831458112874
 31
0.0
  0
LINE
  5
35C
330
1F
100
AcDbEntity
  8
建具
  6
Continuous
 62
     6
370
     9
100
AcDbLine
 10
-153.3392004064612
 20
-363.3979813132934
 30
0.0
 11
-170.965007060283
 21
-345.7722612634095
 31
0.0
  0
LINE
  5
35D
330
1F
100
AcDbEntity
  8
建具
  6
Continuous
 62
     6
370
     9
100
AcDbLine
 10
-149.1857621476458
 20
-363.3089091631403
 30
0.0
 11
-166.8114821975295
 21
-345.6831458112874
 31
0.0
  0
LINE
  5
35E
330
1F
100
AcDbEntity
  8
建具
  6
Continuous
 62
     6
370
     9
100
AcDbLine
 10
-153.3392004064612
 20
-363.3979813132934
 30
0.0
 11
-170.965007060283
 21
-345.7722612634095
 31
0.0
  0
LINE
  5
35F
330
1F
100
AcDbEntity
  8
建具
  6
Continuous
 62
     6
370
     9
100
AcDbLine
 10
-157.4927252692146
 20
-363.4872699732912
 30
0.0
 11
-175.1184453190984
 21
-345.8615066214384
 31
0.0
  0
LINE
  5
360
330
1F
100
AcDbEntity
  8
建具
  6
Continuous
 62
     6
370
     9
100
AcDbLine
 10
-153.3392004064612
 20
-363.3979813132934
 30
0.0
 11
-170.965007060283
 21
-345.7722612634095
 31
0.0
  0
LINE
  5
361
330
1F
100
AcDbEntity
  8
建具
  6
Continuous
 62
     6
370
     9
100
AcDbLine
 10
-157.4927252692146
 20
-363.4872699732912
 30
0.0
 11
-175.1184453190984
 21
-345.8615066214384
 31
0.0
  0
LINE
  5
362
330
1F
100
AcDbEntity
  8
建具
  6
Continuous
 62
     6
370
     9
100
AcDbLine
 10
-161.6462501319679
 20
-363.5763421234443
 30
0.0
 11
-179.2720567857897
 21
-345.9506220735605
 31
0.0
  0
LINE
  5
363
330
1F
100
AcDbEntity
  8
建具
  6
Continuous
 62
     6
370
     9
100
AcDbLine
 10
-157.4927252692146
 20
-363.4872699732912
 30
0.0
 11
-175.1184453190984
 21
-345.8615066214384
 31
0.0
  0
LINE
  5
364
330
1F
100
AcDbEntity
  8
建具
  6
Continuous
 62
     6
370
     9
100
AcDbLine
 10
-161.6462501319679
 20
-363.5763421234443
 30
0.0
 11
-179.2720567857897
 21
-345.9506220735605
 31
0.0
  0
LINE
  5
365
330
1F
100
AcDbEntity
  8
建具
  6
Continuous
 62
     6
370
     9
100
AcDbLine
 10
-165.7996883907835
 20
-363.6655008775353
 30
0.0
 11
-182.4464375263935
 21
-347.0188383458629
 31
0.0
  0
LINE
  5
366
330
1F
100
AcDbEntity
  8
建具
  6
Continuous
 62
     6
370
     9
100
AcDbLine
 10
-161.6462501319679
 20
-363.5763421234443
 30
0.0
 11
-179.2720567857897
 21
-345.9506220735605
 31
0.0
  0
LINE
  5
367
330
1F
100
AcDbEntity
  8
建具
  6
Continuous
 62
     6
370
     9
100
AcDbLine
 10
-165.7996883907835
 20
-363.6655008775353
 30
0.0
 11
-182.4464375263935
 21
-347.0188383458629
 31
0.0
  0
LINE
  5
368
330
1F
100
AcDbEntity
  8
建具
  6
Continuous
 62
     6
370
     9
100
AcDbLine
 10
-169.9532132535367
 20
-363.7547029335953
 30
0.0
 11
-186.5998757852092
 21
-347.107953797985
 31
0.0
  0
LINE
  5
369
330
1F
100
AcDbEntity
  8
建具
  6
Continuous
 62
     6
370
     9
100
AcDbLine
 10
-165.7996883907835
 20
-363.6655008775353
 30
0.0
 11
-182.4464375263935
 21
-347.0188383458629
 31
0.0
  0
LINE
  5
36A
330
1F
100
AcDbEntity
  8
建具
  6
Continuous
 62
     6
370
     9
100
AcDbLine
 10
-169.9532132535367
 20
-363.7547029335953
 30
0.0
 11
-186.5998757852092
 21
-347.107953797985
 31
0.0
  0
LINE
  5
36B
330
1F
100
AcDbEntity
  8
建具
  6
Continuous
 62
     6
370
     9
100
AcDbLine
 10
-174.1066515123522
 20
-363.8436884798105
 30
0.0
 11
-185.9753747888515
 21
-351.9752250151251
 31
0.0
  0
LINE
  5
36C
330
1F
100
AcDbEntity
  8
建具
  6
Continuous
 62
     6
370
     9
100
AcDbLine
 10
-186.8364777436128
 20
-351.113818946581
 30
0.0
 11
-190.4323598500845
 21
-347.5180667460161
 31
0.0
  0
LINE
  5
36D
330
1F
100
AcDbEntity
  8
建具
  6
Continuous
 62
     6
370
     9
100
AcDbLine
 10
-169.9532132535367
 20
-363.7547029335953
 30
0.0
 11
-186.5998757852092
 21
-347.107953797985
 31
0.0
  0
LINE
  5
36E
330
1F
100
AcDbEntity
  8
建具
  6
Continuous
 62
     6
370
     9
100
AcDbLine
 10
-174.1066515123522
 20
-363.8436884798105
 30
0.0
 11
-185.9753747888515
 21
-351.9752250151251
 31
0.0
  0
LINE
  5
36F
330
1F
100
AcDbEntity
  8
建具
  6
Continuous
 62
     6
370
     9
100
AcDbLine
 10
-186.8364777436128
 20
-351.113818946581
 30
0.0
 11
-190.4323598500845
 21
-347.5180667460161
 31
0.0
  0
LINE
  5
370
330
1F
100
AcDbEntity
  8
建具
  6
Continuous
 62
     6
370
     9
100
AcDbLine
 10
-178.2601763751056
 20
-363.9329338378394
 30
0.0
 11
-185.882275555585
 21
-356.310921261298
 31
0.0
  0
LINE
  5
371
330
1F
100
AcDbEntity
  8
建具
  6
Continuous
 62
     6
370
     9
100
AcDbLine
 10
-190.9900026063663
 20
-351.2030643046099
 30
0.0
 11
-192.0117558659734
 21
-350.1814409509095
 31
0.0
  0
LINE
  5
372
330
1F
100
AcDbEntity
  8
建具
  6
Continuous
 62
     6
370
     9
100
AcDbLine
 10
-174.1066515123522
 20
-363.8436884798105
 30
0.0
 11
-185.9753747888515
 21
-351.9752250151251
 31
0.0
  0
LINE
  5
373
330
1F
100
AcDbEntity
  8
建具
  6
Continuous
 62
     6
370
     9
100
AcDbLine
 10
-186.8364777436128
 20
-351.113818946581
 30
0.0
 11
-190.4323598500845
 21
-347.5180667460161
 31
0.0
  0
LINE
  5
374
330
1F
100
AcDbEntity
  8
建具
  6
Continuous
 62
     6
370
     9
100
AcDbLine
 10
-178.2601763751056
 20
-363.9329338378394
 30
0.0
 11
-185.882275555585
 21
-356.310921261298
 31
0.0
  0
LINE
  5
375
330
1F
100
AcDbEntity
  8
建具
  6
Continuous
 62
     6
370
     9
100
AcDbLine
 10
-190.9900026063663
 20
-351.2030643046099
 30
0.0
 11
-192.0117558659734
 21
-350.1814409509095
 31
0.0
  0
LINE
  5
376
330
1F
100
AcDbEntity
  8
建具
  6
Continuous
 62
     6
370
     9
100
AcDbLine
 10
-182.413701237859
 20
-364.0221358938994
 30
0.0
 11
-185.6900148133975
 21
-360.7457790163919
 31
0.0
  0
LINE
  5
377
330
1F
100
AcDbEntity
  8
建具
  6
Continuous
 62
     6
370
     9
100
AcDbLine
 10
-178.2601763751056
 20
-363.9329338378394
 30
0.0
 11
-185.882275555585
 21
-356.310921261298
 31
0.0
  0
LINE
  5
378
330
1F
100
AcDbEntity
  8
建具
  6
Continuous
 62
     6
370
     9
100
AcDbLine
 10
-190.9900026063663
 20
-351.2030643046099
 30
0.0
 11
-192.0117558659734
 21
-350.1814409509095
 31
0.0
  0
LINE
  5
379
330
1F
100
AcDbEntity
  8
建具
  6
Continuous
 62
     6
370
     9
100
AcDbLine
 10
-182.413701237859
 20
-364.0221358938994
 30
0.0
 11
-185.6900148133975
 21
-360.7457790163919
 31
0.0
  0
LINE
  5
37A
330
1F
100
AcDbEntity
  8
躯体
  6
JWW_CENTER1
 62
     2
370
     9
100
AcDbLine
 10
300.9999538112332
 20
-398.1552160413075
 30
0.0
 11
300.9999538112332
 21
-420.4720982005664
 31
0.0
  0
LINE
  5
37B
330
1F
100
AcDbEntity
  8
躯体
  6
JWW_CENTER1
 62
     2
370
     9
100
AcDbLine
 10
-301.0000404151711
 20
-420.44234974789
 30
0.0
 11
-301.0000404151711
 21
-399.1473507541454
 31
0.0
  0
LINE
  5
37C
330
1F
100
AcDbEntity
  8
躯体
  6
Continuous
 62
     2
370
     9
100
AcDbLine
 10
-250.9999496872361
 20
-404.7459056231012
 30
0.0
 11
-265.9892726588894
 21
-404.7459056231012
 31
0.0
  0
LINE
  5
37D
330
1F
100
AcDbEntity
  8
躯体
  6
Continuous
 62
     2
370
     9
100
AcDbLine
 10
-250.9999496872361
 20
-404.7459056231012
 30
0.0
 11
-249.9998474121095
 21
-411.7458854155157
 31
0.0
  0
LINE
  5
37E
330
1F
100
AcDbEntity
  8
躯体
  6
Continuous
 62
     2
370
     9
100
AcDbLine
 10
265.9891860549514
 20
-404.7459056231012
 30
0.0
 11
250.9999496872361
 21
-404.7459056231012
 31
0.0
  0
LINE
  5
37F
330
1F
100
AcDbEntity
  8
躯体
  6
Continuous
 62
     2
370
     9
100
AcDbLine
 10
250.9999496872361
 20
-404.7459056231012
 30
0.0
 11
249.9998474121094
 21
-411.7458854155157
 31
0.0
  0
LINE
  5
380
330
1F
100
AcDbEntity
  8
躯体
  6
Continuous
 62
     2
370
     9
100
AcDbLine
 10
274.0000503127639
 20
-347.7458351027517
 30
0.0
 11
278.9999554608319
 21
-347.7458351027517
 31
0.0
  0
LINE
  5
381
330
1F
100
AcDbEntity
  8
躯体
  6
Continuous
 62
     2
370
     9
100
AcDbLine
 10
274.0000503127639
 20
-347.7458351027517
 30
0.0
 11
265.9891860549514
 21
-404.7459056231012
 31
0.0
  0
LINE
  5
382
330
1F
100
AcDbEntity
  8
躯体
  6
Continuous
 62
     2
370
     9
100
AcDbLine
 10
-274.000050312764
 20
-347.7458351027517
 30
0.0
 11
-279.0001286687079
 21
-347.7458351027517
 31
0.0
  0
LINE
  5
383
330
1F
100
AcDbEntity
  8
躯体
  6
Continuous
 62
     2
370
     9
100
AcDbLine
 10
-274.000050312764
 20
-347.7458351027517
 30
0.0
 11
-265.9892726588894
 21
-404.7459056231012
 31
0.0
  0
LINE
  5
384
330
1F
100
AcDbEntity
  8
その他
  6
Continuous
 62
     7
370
     9
100
AcDbLine
 10
47.93233510610216
 20
-356.9831410274509
 30
0.0
 11
50.21642736486487
 21
-374.3333739508039
 31
0.0
  0
LINE
  5
385
330
1F
100
AcDbEntity
  8
その他
  6
Continuous
 62
     7
370
     9
100
AcDbLine
 10
47.93233510610216
 20
-356.9831410274509
 30
0.0
 11
45.64806963946359
 21
-374.3333739508039
 31
0.0
  0
LINE
  5
386
330
1F
100
AcDbEntity
  8
建具
  6
Continuous
 62
     6
370
     9
100
AcDbLine
 10
265.2822381096916
 20
-392.577402815484
 30
0.0
 11
267.8612167770798
 21
-389.99825094022
 31
0.0
  0
LINE
  5
387
330
1F
100
AcDbEntity
  8
建具
  6
Continuous
 62
     6
370
     9
100
AcDbLine
 10
263.7488287848395
 20
-393.1207559220085
 30
0.0
 11
268.2566503576331
 21
-388.6128910472461
 31
0.0
  0
LINE
  5
388
330
1F
100
AcDbEntity
  8
建具
  6
Continuous
 62
     6
370
     9
100
AcDbLine
 10
262.6345825195312
 20
-393.244989270958
 30
0.0
 11
268.4185997215477
 21
-387.4610586728795
 31
0.0
  0
LINE
  5
389
330
1F
100
AcDbEntity
  8
建具
  6
Continuous
 62
     6
370
     9
100
AcDbLine
 10
261.6436602618244
 20
-393.2458986123062
 30
0.0
 11
263.6541706806904
 21
-391.235474797378
 31
0.0
  0
LINE
  5
38A
330
1F
100
AcDbEntity
  8
建具
  6
Continuous
 62
     6
370
     9
100
AcDbLine
 10
264.0421563225822
 20
-390.8475324574551
 30
0.0
 11
268.5803758775866
 21
-386.3091829965439
 31
0.0
  0
LINE
  5
38B
330
1F
100
AcDbEntity
  8
建具
  6
Continuous
 62
     6
370
     9
100
AcDbLine
 10
260.9994135676204
 20
-392.9002189940894
 30
0.0
 11
263.3673384382917
 21
-390.5324240293248
 31
0.0
  0
LINE
  5
38C
330
1F
100
AcDbEntity
  8
建具
  6
Continuous
 62
     6
370
     9
100
AcDbLine
 10
264.2049717258762
 20
-389.6946608358335
 30
0.0
 11
268.7422386375633
 21
-385.1573939241464
 31
0.0
  0
LINE
  5
38D
330
1F
100
AcDbEntity
  8
建具
  6
Continuous
 62
     6
370
     9
100
AcDbLine
 10
260.9994135676204
 20
-391.9101627757617
 30
0.0
 11
263.5291145943307
 21
-389.3804617490513
 31
0.0
  0
LINE
  5
38E
330
1F
100
AcDbEntity
  8
建具
  6
Continuous
 62
     6
370
     9
100
AcDbLine
 10
264.366834485853
 20
-388.54269855556
 30
0.0
 11
268.9041013975402
 21
-384.005431643873
 31
0.0
  0
LINE
  5
38F
330
1F
100
AcDbEntity
  8
建具
  6
Continuous
 62
     6
370
     9
100
AcDbLine
 10
260.9994135676204
 20
-390.9201931613719
 30
0.0
 11
263.6910639582454
 21
-388.2286293746848
 31
0.0
  0
LINE
  5
390
330
1F
100
AcDbEntity
  8
建具
  6
Continuous
 62
     6
370
     9
100
AcDbLine
 10
264.5286972458298
 20
-387.3909527851313
 30
0.0
 11
269.0659641575168
 21
-382.8536858734443
 31
0.0
  0
LINE
  5
391
330
1F
100
AcDbEntity
  8
建具
  6
Continuous
 62
     6
370
     9
100
AcDbLine
 10
260.9994135676204
 20
-389.9302235469821
 30
0.0
 11
263.85301332216
 21
-387.0767536983493
 31
0.0
  0
LINE
  5
392
330
1F
100
AcDbEntity
  8
建具
  6
Continuous
 62
     6
370
     9
100
AcDbLine
 10
264.6906466097445
 20
-386.2390771087959
 30
0.0
 11
269.2279135214314
 21
-381.7018101971088
 31
0.0
  0
LINE
  5
393
330
1F
100
AcDbEntity
  8
建具
  6
Continuous
 62
     6
370
     9
100
AcDbLine
 10
260.9994135676204
 20
-388.9402539325923
 30
0.0
 11
264.0147894781988
 21
-385.9248780220138
 31
0.0
  0
LINE
  5
394
330
1F
100
AcDbEntity
  8
建具
  6
Continuous
 62
     6
370
     9
100
AcDbLine
 10
264.8525093697214
 20
-385.0872014324603
 30
0.0
 11
269.3896896774705
 21
-380.5499345207733
 31
0.0
  0
LINE
  5
395
330
1F
100
AcDbEntity
  8
建具
  6
Continuous
 62
     6
370
     9
100
AcDbLine
 10
260.9994135676204
 20
-387.9502410162336
 30
0.0
 11
264.1766522381756
 21
-384.7730023456782
 31
0.0
  0
LINE
  5
396
330
1F
100
AcDbEntity
  8
建具
  6
Continuous
 62
     6
370
     9
100
AcDbLine
 10
265.014372129698
 20
-383.9353257561248
 30
0.0
 11
269.5516390413851
 21
-379.3981021464068
 31
0.0
  0
LINE
  5
397
330
1F
100
AcDbEntity
  8
建具
  6
Continuous
 62
     6
370
     9
100
AcDbLine
 10
260.9994135676204
 20
-386.9603147038127
 30
0.0
 11
264.3386882060283
 21
-383.6211266693427
 31
0.0
  0
LINE
  5
398
330
1F
100
AcDbEntity
  8
建具
  6
Continuous
 62
     6
370
     9
100
AcDbLine
 10
265.1763214936128
 20
-382.7834933817583
 30
0.0
 11
269.7135884052998
 21
-378.2462264700713
 31
0.0
  0
LINE
  5
399
330
1F
100
AcDbEntity
  8
建具
  6
Continuous
 62
     6
370
     9
100
AcDbLine
 10
260.9994135676204
 20
-385.9703017874541
 30
0.0
 11
264.5004643620671
 21
-382.4692509930072
 31
0.0
  0
LINE
  5
39A
330
1F
100
AcDbEntity
  8
建具
  6
Continuous
 62
     6
370
     9
100
AcDbLine
 10
265.3380976496516
 20
-381.6316177054229
 30
0.0
 11
269.8753645613386
 21
-377.0943507937357
 31
0.0
  0
LINE
  5
39B
330
1F
100
AcDbEntity
  8
建具
  6
Continuous
 62
     6
370
     9
100
AcDbLine
 10
260.9994135676204
 20
-384.9802888710953
 30
0.0
 11
264.662327122044
 21
-381.3173753166717
 31
0.0
  0
LINE
  5
39C
330
1F
100
AcDbEntity
  8
建具
  6
Continuous
 62
     6
370
     9
100
AcDbLine
 10
265.4999604096284
 20
-380.4797420290872
 30
0.0
 11
270.0372273213154
 21
-375.9424751174001
 31
0.0
  0
LINE
  5
39D
330
1F
100
AcDbEntity
  8
建具
  6
Continuous
 62
     6
370
     9
100
AcDbLine
 10
260.9994135676204
 20
-383.9904491626124
 30
0.0
 11
264.8242764859586
 21
-380.1655862442741
 31
0.0
  0
LINE
  5
39E
330
1F
100
AcDbEntity
  8
建具
  6
Continuous
 62
     6
370
     9
100
AcDbLine
 10
265.6619963774809
 20
-379.3279529566896
 30
0.0
 11
270.1990900812922
 21
-374.7907293469716
 31
0.0
  0
LINE
  5
39F
330
1F
100
AcDbEntity
  8
建具
  6
Continuous
 62
     6
370
     9
100
AcDbLine
 10
260.9994135676204
 20
-383.0003496423158
 30
0.0
 11
264.9861392459354
 21
-379.0137105679386
 31
0.0
  0
LINE
  5
3A0
330
1F
100
AcDbEntity
  8
建具
  6
Continuous
 62
     6
370
     9
100
AcDbLine
 10
265.8237725335197
 20
-378.1759906764162
 30
0.0
 11
270.3294290078652
 21
-373.6704208060088
 31
0.0
  0
LINE
  5
3A1
330
1F
100
AcDbEntity
  8
建具
  6
Continuous
 62
     6
370
     9
100
AcDbLine
 10
260.9994135676204
 20
-382.0104666318638
 30
0.0
 11
265.1480020059121
 21
-377.8617915896341
 31
0.0
  0
LINE
  5
3A2
330
1F
100
AcDbEntity
  8
建具
  6
Continuous
 62
     6
370
     9
100
AcDbLine
 10
265.9856352934966
 20
-377.0242449059876
 30
0.0
 11
270.1860994906039
 21
-372.8237807088803
 31
0.0
  0
LINE
  5
3A3
330
1F
100
AcDbEntity
  8
建具
  6
Continuous
 62
     6
370
     9
100
AcDbLine
 10
260.9994135676204
 20
-381.0204104135361
 30
0.0
 11
265.3099513698268
 21
-376.7099159132986
 31
0.0
  0
LINE
  5
3A4
330
1F
100
AcDbEntity
  8
建具
  6
Continuous
 62
     6
370
     9
100
AcDbLine
 10
266.1475846574112
 20
-375.8723259276831
 30
0.0
 11
269.9488913046346
 21
-372.0708460725839
 31
0.0
  0
LINE
  5
3A5
330
1F
100
AcDbEntity
  8
建具
  6
Continuous
 62
     6
370
     9
100
AcDbLine
 10
260.9994135676204
 20
-380.0304841011154
 30
0.0
 11
265.4718141298035
 21
-375.558126840901
 31
0.0
  0
LINE
  5
3A6
330
1F
100
AcDbEntity
  8
建具
  6
Continuous
 62
     6
370
     9
100
AcDbLine
 10
266.3093608134502
 20
-374.7205368552856
 30
0.0
 11
269.6359912769213
 21
-371.3939929957521
 31
0.0
  0
LINE
  5
3A7
330
1F
100
AcDbEntity
  8
建具
  6
Continuous
 62
     6
370
     9
100
AcDbLine
 10
260.9994135676204
 20
-379.0404711847566
 30
0.0
 11
265.6336768897804
 21
-374.4061645606276
 31
0.0
  0
LINE
  5
3A8
330
1F
100
AcDbEntity
  8
建具
  6
Continuous
 62
     6
370
     9
100
AcDbLine
 10
266.4713101773649
 20
-373.56866117895
 30
0.0
 11
269.2569258406355
 21
-370.7829589117414
 31
0.0
  0
LINE
  5
3A9
330
1F
100
AcDbEntity
  8
建具
  6
Continuous
 62
     6
370
     9
100
AcDbLine
 10
260.9994135676204
 20
-378.0504582683978
 30
0.0
 11
265.795626253695
 21
-373.2542888842921
 31
0.0
  0
LINE
  5
3AA
330
1F
100
AcDbEntity
  8
建具
  6
Continuous
 62
     6
370
     9
100
AcDbLine
 10
266.6332595412795
 20
-372.4167422006455
 30
0.0
 11
268.8172376478041
 21
-370.2326341882142
 31
0.0
  0
LINE
  5
3AB
330
1F
100
AcDbEntity
  8
建具
  6
Continuous
 62
     6
370
     9
100
AcDbLine
 10
260.9994135676204
 20
-377.0605319559771
 30
0.0
 11
265.9575756176097
 21
-372.1024132079565
 31
0.0
  0
LINE
  5
3AC
330
1F
100
AcDbEntity
  8
建具
  6
Continuous
 62
     6
370
     9
100
AcDbLine
 10
266.7950356973183
 20
-371.264909826279
 30
0.0
 11
268.3195248165646
 21
-369.7404207070328
 31
0.0
  0
LINE
  5
3AD
330
1F
100
AcDbEntity
  8
建具
  6
Continuous
 62
     6
370
     9
100
AcDbLine
 10
260.9994135676204
 20
-376.0705190396183
 30
0.0
 11
266.1193517736487
 21
-370.9505375316211
 31
0.0
  0
LINE
  5
3AE
330
1F
100
AcDbEntity
  8
建具
  6
Continuous
 62
     6
370
     9
100
AcDbLine
 10
266.6965670199007
 20
-370.3734088893068
 30
0.0
 11
267.7633543272277
 21
-369.3065349780421
 31
0.0
  0
LINE
  5
3AF
330
1F
100
AcDbEntity
  8
建具
  6
Continuous
 62
     6
370
     9
100
AcDbLine
 10
260.9994135676204
 20
-375.0805927271974
 30
0.0
 11
267.1463878734691
 21
-368.9336617233176
 31
0.0
  0
LINE
  5
3B0
330
1F
100
AcDbEntity
  8
建具
  6
Continuous
 62
     6
370
     9
100
AcDbLine
 10
260.9994135676204
 20
-374.0905798108388
 30
0.0
 11
266.4625631796346
 21
-368.6274735007934
 31
0.0
  0
LINE
  5
3B1
330
1F
100
AcDbEntity
  8
建具
  6
Continuous
 62
     6
370
     9
100
AcDbLine
 10
260.9994135676204
 20
-373.100653498418
 30
0.0
 11
265.7015743771115
 21
-368.3984926889268
 31
0.0
  0
LINE
  5
3B2
330
1F
100
AcDbEntity
  8
建具
  6
Continuous
 62
     6
370
     9
100
AcDbLine
 10
260.9994135676204
 20
-372.1106405820591
 30
0.0
 11
264.8443685995564
 21
-368.265728852092
 31
0.0
  0
LINE
  5
3B3
330
1F
100
AcDbEntity
  8
建具
  6
Continuous
 62
     6
370
     9
100
AcDbLine
 10
260.9994135676204
 20
-371.1207142696384
 30
0.0
 11
263.874231286951
 21
-368.2458965503077
 31
0.0
  0
LINE
  5
3B4
330
1F
100
AcDbEntity
  8
建具
  6
Continuous
 62
     6
370
     9
100
AcDbLine
 10
260.9994135676204
 20
-370.1307013532796
 30
0.0
 11
262.8841750686233
 21
-368.2458965503077
 31
0.0
  0
LINE
  5
3B5
330
1F
100
AcDbEntity
  8
建具
  6
Continuous
 62
     6
370
     9
100
AcDbLine
 10
260.9994135676204
 20
-369.1407317388898
 30
0.0
 11
261.8942920581713
 21
-368.2458965503077
 31
0.0
  0
LINE
  5
3B6
330
1F
100
AcDbEntity
  8
建具
  6
Continuous
 62
     6
370
     9
100
AcDbLine
 10
-261.0494706437395
 20
-393.2458986123062
 30
0.0
 11
-260.9994135676204
 21
-393.1957549322492
 31
0.0
  0
LINE
  5
3B7
330
1F
100
AcDbEntity
  8
建具
  6
Continuous
 62
     6
370
     9
100
AcDbLine
 10
-262.0394402581293
 20
-393.2458986123062
 30
0.0
 11
-260.9994135676204
 21
-392.2058719217974
 31
0.0
  0
LINE
  5
3B8
330
1F
100
AcDbEntity
  8
建具
  6
Continuous
 62
     6
370
     9
100
AcDbLine
 10
-263.0100971943624
 20
-393.2265859341496
 30
0.0
 11
-260.9994135676204
 21
-391.2159889113454
 31
0.0
  0
LINE
  5
3B9
330
1F
100
AcDbEntity
  8
建具
  6
Continuous
 62
     6
370
     9
100
AcDbLine
 10
-263.8681690112966
 20
-393.0947747406318
 30
0.0
 11
-260.9994135676204
 21
-390.2259326930177
 31
0.0
  0
LINE
  5
3BA
330
1F
100
AcDbEntity
  8
建具
  6
Continuous
 62
     6
370
     9
100
AcDbLine
 10
-264.6297640413852
 20
-392.8664434582997
 30
0.0
 11
-260.9994135676204
 21
-389.2360496825659
 31
0.0
  0
LINE
  5
3BB
330
1F
100
AcDbEntity
  8
建具
  6
Continuous
 62
     6
370
     9
100
AcDbLine
 10
-265.3140217549093
 20
-392.5608181613719
 30
0.0
 11
-263.8783016720334
 21
-391.125054776527
 31
0.0
  0
LINE
  5
3BC
330
1F
100
AcDbEntity
  8
建具
  6
Continuous
 62
     6
370
     9
100
AcDbLine
 10
-263.357205777555
 20
-390.6040021840176
 30
0.0
 11
-260.9994135676204
 21
-388.2461666721141
 31
0.0
  0
LINE
  5
3BD
330
1F
100
AcDbEntity
  8
建具
  6
Continuous
 62
     6
370
     9
100
AcDbLine
 10
-265.9315944362332
 20
-392.1883346243682
 30
0.0
 11
-264.1104868296031
 21
-390.3671404138001
 31
0.0
  0
LINE
  5
3BE
330
1F
100
AcDbEntity
  8
建具
  6
Continuous
 62
     6
370
     9
100
AcDbLine
 10
-263.4792307260875
 20
-389.7359709142223
 30
0.0
 11
-260.9994135676204
 21
-387.2561970577243
 31
0.0
  0
LINE
  5
3BF
330
1F
100
AcDbEntity
  8
建具
  6
Continuous
 62
     6
370
     9
100
AcDbLine
 10
-266.4881979452598
 20
-391.7549685190049
 30
0.0
 11
-264.2324251741977
 21
-389.4992390499118
 31
0.0
  0
LINE
  5
3C0
330
1F
100
AcDbEntity
  8
建具
  6
Continuous
 62
     6
370
     9
100
AcDbLine
 10
-263.60125567462
 20
-388.8679829463962
 30
0.0
 11
-260.9994135676204
 21
-386.2662274433345
 31
0.0
  0
LINE
  5
3C1
330
1F
100
AcDbEntity
  8
建具
  6
Continuous
 62
     6
370
     9
100
AcDbLine
 10
-266.9864304001267
 20
-391.2632746614511
 30
0.0
 11
-264.3544501227302
 21
-388.6312077801166
 31
0.0
  0
LINE
  5
3C2
330
1F
100
AcDbEntity
  8
建具
  6
Continuous
 62
     6
370
     9
100
AcDbLine
 10
-263.7231940192145
 20
-388.0000382805389
 30
0.0
 11
-260.9994135676204
 21
-385.2762145269758
 31
0.0
  0
LINE
  5
3C3
330
1F
100
AcDbEntity
  8
建具
  6
Continuous
 62
     6
370
     9
100
AcDbLine
 10
-267.4264650087099
 20
-390.7133829576134
 30
0.0
 11
-264.4763884673248
 21
-387.7633064162283
 31
0.0
  0
LINE
  5
3C4
330
1F
100
AcDbEntity
  8
建具
  6
Continuous
 62
     6
370
     9
100
AcDbLine
 10
-263.8452189677471
 20
-387.1320503127126
 30
0.0
 11
-260.9994135676204
 21
-384.2863315165239
 31
0.0
  0
LINE
  5
3C5
330
1F
100
AcDbEntity
  8
建具
  6
Continuous
 62
     6
370
     9
100
AcDbLine
 10
-267.8059634646854
 20
-390.1029117991992
 30
0.0
 11
-264.5984134158573
 21
-386.8953617503711
 31
0.0
  0
LINE
  5
3C6
330
1F
100
AcDbEntity
  8
建具
  6
Continuous
 62
     6
370
     9
100
AcDbLine
 10
-263.9671573123417
 20
-386.2641489488244
 30
0.0
 11
-260.9994135676204
 21
-383.2964052041031
 31
0.0
  0
LINE
  5
3C7
330
1F
100
AcDbEntity
  8
建具
  6
Continuous
 62
     6
370
     9
100
AcDbLine
 10
-268.119556323902
 20
-389.426578345995
 30
0.0
 11
-264.7203517604519
 21
-386.0273304805759
 31
0.0
  0
LINE
  5
3C8
330
1F
100
AcDbEntity
  8
建具
  6
Continuous
 62
     6
370
     9
100
AcDbLine
 10
-264.0891822608742
 20
-385.3961176790292
 30
0.0
 11
-260.9994135676204
 21
-382.3063922877443
 31
0.0
  0
LINE
  5
3C9
330
1F
100
AcDbEntity
  8
建具
  6
Continuous
 62
     6
370
     9
100
AcDbLine
 10
-268.2613269702809
 20
-388.578465981922
 30
0.0
 11
-264.8423767089845
 21
-385.1594291166876
 31
0.0
  0
LINE
  5
3CA
330
1F
100
AcDbEntity
  8
建具
  6
Continuous
 62
     6
370
     9
100
AcDbLine
 10
-264.2111206054689
 20
-384.5282163151409
 30
0.0
 11
-260.9994135676204
 21
-381.3165092772925
 31
0.0
  0
LINE
  5
3CB
330
1F
100
AcDbEntity
  8
建具
  6
Continuous
 62
     6
370
     9
100
AcDbLine
 10
-268.3833519188133
 20
-387.7105213160646
 30
0.0
 11
-264.964315053579
 21
-384.2914844508302
 31
0.0
  0
LINE
  5
3CC
330
1F
100
AcDbEntity
  8
建具
  6
Continuous
 62
     6
370
     9
100
AcDbLine
 10
-264.3331455540013
 20
-383.6602283473146
 30
0.0
 11
-260.9994135676204
 21
-380.3265829648716
 31
0.0
  0
LINE
  5
3CD
330
1F
100
AcDbEntity
  8
建具
  6
Continuous
 62
     6
370
     9
100
AcDbLine
 10
-268.5053768673459
 20
-386.8424900462695
 30
0.0
 11
-265.0863400021115
 21
-383.4234531810351
 31
0.0
  0
LINE
  5
3CE
330
1F
100
AcDbEntity
  8
建具
  6
Continuous
 62
     6
370
     9
100
AcDbLine
 10
-264.4550838985959
 20
-382.7921970775195
 30
0.0
 11
-260.9994135676204
 21
-379.336570048513
 31
0.0
  0
LINE
  5
3CF
330
1F
100
AcDbEntity
  8
建具
  6
Continuous
 62
     6
370
     9
100
AcDbLine
 10
-268.6273152119405
 20
-385.9745453804123
 30
0.0
 11
-265.2082783467062
 21
-382.5555518171468
 31
0.0
  0
LINE
  5
3D0
330
1F
100
AcDbEntity
  8
建具
  6
Continuous
 62
     6
370
     9
100
AcDbLine
 10
-264.5771088471284
 20
-381.9242957136312
 30
0.0
 11
-260.9994135676204
 21
-378.346687038061
 31
0.0
  0
LINE
  5
3D1
330
1F
100
AcDbEntity
  8
建具
  6
Continuous
 62
     6
370
     9
100
AcDbLine
 10
-268.749340160473
 20
-385.106557412586
 30
0.0
 11
-265.3303032952387
 21
-381.6876071512896
 31
0.0
  0
LINE
  5
3D2
330
1F
100
AcDbEntity
  8
建具
  6
Continuous
 62
     6
370
     9
100
AcDbLine
 10
-264.699047191723
 20
-381.0563510477739
 30
0.0
 11
-260.9994135676204
 21
-377.3567174236713
 31
0.0
  0
LINE
  5
3D3
330
1F
100
AcDbEntity
  8
建具
  6
Continuous
 62
     6
370
     9
100
AcDbLine
 10
-268.8712785050677
 20
-384.2386127467287
 30
0.0
 11
-265.4522416398333
 21
-380.8196191834634
 31
0.0
  0
LINE
  5
3D4
330
1F
100
AcDbEntity
  8
建具
  6
Continuous
 62
     6
370
     9
100
AcDbLine
 10
-264.8210721402556
 20
-380.1883630799477
 30
0.0
 11
-260.9994135676204
 21
-376.3667478092815
 31
0.0
  0
LINE
  5
3D5
330
1F
100
AcDbEntity
  8
建具
  6
Continuous
 62
     6
370
     9
100
AcDbLine
 10
-268.9933034536001
 20
-383.3706247789025
 30
0.0
 11
-265.5742665883657
 21
-379.951674517606
 31
0.0
  0
LINE
  5
3D6
330
1F
100
AcDbEntity
  8
建具
  6
Continuous
 62
     6
370
     9
100
AcDbLine
 10
-264.9430104848501
 20
-379.3204184140904
 30
0.0
 11
-260.9994135676204
 21
-375.3768214968607
 31
0.0
  0
LINE
  5
3D7
330
1F
100
AcDbEntity
  8
建具
  6
Continuous
 62
     6
370
     9
100
AcDbLine
 10
-269.1152417981947
 20
-382.5026801130452
 30
0.0
 11
-265.6962915368983
 21
-379.0836865497798
 31
0.0
  0
LINE
  5
3D8
330
1F
100
AcDbEntity
  8
建具
  6
Continuous
 62
     6
370
     9
100
AcDbLine
 10
-265.0650354333827
 20
-378.4524304462641
 30
0.0
 11
-260.9994135676204
 21
-374.3868518824709
 31
0.0
  0
LINE
  5
3D9
330
1F
100
AcDbEntity
  8
建具
  6
Continuous
 62
     6
370
     9
100
AcDbLine
 10
-269.2372667467272
 20
-381.6347787491569
 30
0.0
 11
-265.8182298814929
 21
-378.2156985819536
 31
0.0
  0
LINE
  5
3DA
330
1F
100
AcDbEntity
  8
建具
  6
Continuous
 62
     6
370
     9
100
AcDbLine
 10
-265.1869737779772
 20
-377.584442478438
 30
0.0
 11
-260.9994135676204
 21
-373.3969255700501
 31
0.0
  0
LINE
  5
3DB
330
1F
100
AcDbEntity
  8
建具
  6
Continuous
 62
     6
370
     9
100
AcDbLine
 10
-269.3592050913219
 20
-380.7667907813307
 30
0.0
 11
-265.9401682260875
 21
-377.3477972180654
 31
0.0
  0
LINE
  5
3DC
330
1F
100
AcDbEntity
  8
建具
  6
Continuous
 62
     6
370
     9
100
AcDbLine
 10
-265.3089987265098
 20
-376.7165411145497
 30
0.0
 11
-260.9994135676204
 21
-372.4069992576293
 31
0.0
  0
LINE
  5
3DD
330
1F
100
AcDbEntity
  8
建具
  6
Continuous
 62
     6
370
     9
100
AcDbLine
 10
-269.4812300398544
 20
-379.8987595115356
 30
0.0
 11
-266.06219317462
 21
-376.4797659482701
 31
0.0
  0
LINE
  5
3DE
330
1F
100
AcDbEntity
  8
建具
  6
Continuous
 62
     6
370
     9
100
AcDbLine
 10
-265.4309370711044
 20
-375.8485098447545
 30
0.0
 11
-260.9994135676204
 21
-371.4169863412705
 31
0.0
  0
LINE
  5
3DF
330
1F
100
AcDbEntity
  8
建具
  6
Continuous
 62
     6
370
     9
100
AcDbLine
 10
-269.6031683844489
 20
-379.0308581476472
 30
0.0
 11
-266.1842181231525
 21
-375.6118645843818
 31
0.0
  0
LINE
  5
3E0
330
1F
100
AcDbEntity
  8
建具
  6
Continuous
 62
     6
370
     9
100
AcDbLine
 10
-265.5529620196369
 20
-374.9806084808662
 30
0.0
 11
-260.9994135676204
 21
-370.4271033308187
 31
0.0
  0
LINE
  5
3E1
330
1F
100
AcDbEntity
  8
建具
  6
Continuous
 62
     6
370
     9
100
AcDbLine
 10
-269.7251933329815
 20
-378.162870179821
 30
0.0
 11
-266.3061564677471
 21
-374.7439199185246
 31
0.0
  0
LINE
  5
3E2
330
1F
100
AcDbEntity
  8
建具
  6
Continuous
 62
     6
370
     9
100
AcDbLine
 10
-265.6749003642315
 20
-374.1126638150089
 30
0.0
 11
-260.9994135676204
 21
-369.4371770183978
 31
0.0
  0
LINE
  5
3E3
330
1F
100
AcDbEntity
  8
建具
  6
Continuous
 62
     6
370
     9
100
AcDbLine
 10
-269.847131677576
 20
-377.2949255139638
 30
0.0
 11
-266.4281814162796
 21
-373.8758886487294
 31
0.0
  0
LINE
  5
3E4
330
1F
100
AcDbEntity
  8
建具
  6
Continuous
 62
     6
370
     9
100
AcDbLine
 10
-265.796925312764
 20
-373.2446325452138
 30
0.0
 11
-260.9994135676204
 21
-368.4471641020392
 31
0.0
  0
LINE
  5
3E5
330
1F
100
AcDbEntity
  8
建具
  6
Continuous
 62
     6
370
     9
100
AcDbLine
 10
-269.9691566261086
 20
-376.4269375461375
 30
0.0
 11
-266.5501197608742
 21
-373.0079872848411
 31
0.0
  0
LINE
  5
3E6
330
1F
100
AcDbEntity
  8
建具
  6
Continuous
 62
     6
370
     9
100
AcDbLine
 10
-265.9188636573586
 20
-372.3767311813255
 30
0.0
 11
-261.7881156302788
 21
-368.2458965503077
 31
0.0
  0
LINE
  5
3E7
330
1F
100
AcDbEntity
  8
建具
  6
Continuous
 62
     6
370
     9
100
AcDbLine
 10
-270.0910949707032
 20
-375.5590361822492
 30
0.0
 11
-266.6721447094067
 21
-372.1399993170148
 31
0.0
  0
LINE
  5
3E8
330
1F
100
AcDbEntity
  8
建具
  6
Continuous
 62
     6
370
     9
100
AcDbLine
 10
-266.040888605891
 20
-371.5087432134992
 30
0.0
 11
-262.7779986407306
 21
-368.2458965503077
 31
0.0
  0
LINE
  5
3E9
330
1F
100
AcDbEntity
  8
建具
  6
Continuous
 62
     6
370
     9
100
AcDbLine
 10
-270.2131199192357
 20
-374.691048214423
 30
0.0
 11
-266.7940830540013
 21
-371.2720113491886
 31
0.0
  0
LINE
  5
3EA
330
1F
100
AcDbEntity
  8
建具
  6
Continuous
 62
     6
370
     9
100
AcDbLine
 10
-266.1628269504857
 20
-370.640755245673
 30
0.0
 11
-263.7679682551204
 21
-368.2458965503077
 31
0.0
  0
LINE
  5
3EB
330
1F
100
AcDbEntity
  8
建具
  6
Continuous
 62
     6
370
     9
100
AcDbLine
 10
-270.3350582638303
 20
-373.8231035485658
 30
0.0
 11
-264.7723141232053
 21
-368.2602728040029
 31
0.0
  0
LINE
  5
3EC
330
1F
100
AcDbEntity
  8
建具
  6
Continuous
 62
     6
370
     9
100
AcDbLine
 10
-270.1366486420503
 20
-372.634637708458
 30
0.0
 11
-265.9683145059122
 21
-368.46630357232
 31
0.0
  0
LINE
  5
3ED
330
1F
100
AcDbEntity
  8
建具
  6
Continuous
 62
     6
370
     9
100
AcDbLine
 10
-269.2112855653505
 20
-370.7193916213064
 30
0.0
 11
-267.8835605930638
 21
-369.3916233470508
 31
0.0
  0
LINE
  5
3EE
330
1F
100
AcDbEntity
  8
仕上
  6
Continuous
 62
     3
370
     9
100
AcDbLine
 10
-36.99997360641896
 20
345.4099567211767
 30
0.0
 11
-36.99997360641896
 21
363.4103254065124
 31
0.0
  0
LINE
  5
3EF
330
1F
100
AcDbEntity
  8
仕上
  6
Continuous
 62
     3
370
     9
100
AcDbLine
 10
-36.99997360641896
 20
363.4103254065124
 30
0.0
 11
-8.99988122888513
 21
363.4103254065124
 31
0.0
  0
LINE
  5
3F0
330
1F
100
AcDbEntity
  8
仕上
  6
Continuous
 62
     3
370
     9
100
AcDbLine
 10
-36.99997360641896
 20
345.4099567211767
 30
0.0
 11
-8.99988122888513
 21
345.4099567211767
 31
0.0
  0
LINE
  5
3F1
330
1F
100
AcDbEntity
  8
仕上
  6
Continuous
 62
     3
370
     9
100
AcDbLine
 10
-8.99988122888513
 20
345.4099567211767
 30
0.0
 11
-8.99988122888513
 21
363.4103254065124
 31
0.0
  0
LINE
  5
3F2
330
1F
100
AcDbEntity
  8
仕上
  6
Continuous
 62
     3
370
     9
100
AcDbLine
 10
36.99997360641896
 20
345.4099567211767
 30
0.0
 11
36.99997360641896
 21
363.4103254065124
 31
0.0
  0
LINE
  5
3F3
330
1F
100
AcDbEntity
  8
仕上
  6
Continuous
 62
     3
370
     9
100
AcDbLine
 10
36.99997360641896
 20
363.4103254065124
 30
0.0
 11
8.99988122888513
 21
363.4103254065124
 31
0.0
  0
LINE
  5
3F4
330
1F
100
AcDbEntity
  8
仕上
  6
Continuous
 62
     3
370
     9
100
AcDbLine
 10
8.99988122888513
 20
345.4099567211767
 30
0.0
 11
8.99988122888513
 21
363.4103254065124
 31
0.0
  0
LINE
  5
3F5
330
1F
100
AcDbEntity
  8
仕上
  6
Continuous
 62
     3
370
     9
100
AcDbLine
 10
36.99997360641896
 20
345.4099567211767
 30
0.0
 11
8.99988122888513
 21
345.4099567211767
 31
0.0
  0
LINE
  5
3F6
330
1F
100
AcDbEntity
  8
仕上
  6
Continuous
 62
     3
370
     9
100
AcDbLine
 10
72.0000890783362
 20
288.4100161067342
 30
0.0
 11
112.0001963022593
 21
288.4100161067342
 31
0.0
  0
LINE
  5
3F7
330
1F
100
AcDbEntity
  8
仕上
  6
Continuous
 62
     3
370
     9
100
AcDbLine
 10
72.0000890783362
 20
288.4100161067342
 30
0.0
 11
72.0000890783362
 21
279.4099616699732
 31
0.0
  0
LINE
  5
3F8
330
1F
100
AcDbEntity
  8
仕上
  6
Continuous
 62
     3
370
     9
100
AcDbLine
 10
-72.00000247439817
 20
288.4100161067342
 30
0.0
 11
-112.0000230943834
 21
288.4100161067342
 31
0.0
  0
LINE
  5
3F9
330
1F
100
AcDbEntity
  8
仕上
  6
Continuous
 62
     3
370
     9
100
AcDbLine
 10
-72.00000247439817
 20
288.4100161067342
 30
0.0
 11
-72.00000247439817
 21
279.4099616699732
 31
0.0
  0
LINE
  5
3FA
330
1F
100
AcDbEntity
  8
仕上
  6
Continuous
 62
     3
370
     9
100
AcDbLine
 10
-19.9999670080237
 20
338.4101934386069
 30
0.0
 11
-19.9999670080237
 21
320.4102577729608
 31
0.0
  0
LINE
  5
3FB
330
1F
100
AcDbEntity
  8
仕上
  6
Continuous
 62
     3
370
     9
100
AcDbLine
 10
-65.99990844726562
 20
338.4101934386069
 30
0.0
 11
-65.99990844726562
 21
320.4102577729608
 31
0.0
  0
LINE
  5
3FC
330
1F
100
AcDbEntity
  8
仕上
  6
Continuous
 62
     3
370
     9
100
AcDbLine
 10
-65.99990844726562
 20
320.4102577729608
 30
0.0
 11
-25.99980122334256
 21
320.4102577729608
 31
0.0
  0
LINE
  5
3FD
330
1F
100
AcDbEntity
  8
仕上
  6
Continuous
 62
     3
370
     9
100
AcDbLine
 10
-25.99980122334256
 20
338.4101934386069
 30
0.0
 11
-25.99980122334256
 21
320.4102577729608
 31
0.0
  0
LINE
  5
3FE
330
1F
100
AcDbEntity
  8
仕上
  6
Continuous
 62
     3
370
     9
100
AcDbLine
 10
-65.99990844726562
 20
338.4101934386069
 30
0.0
 11
-25.99980122334256
 21
338.4101934386069
 31
0.0
  0
LINE
  5
3FF
330
1F
100
AcDbEntity
  8
仕上
  6
Continuous
 62
     3
370
     9
100
AcDbLine
 10
-3.999802872941274
 20
345.4103897408662
 30
0.0
 11
-3.999802872941274
 21
363.4104120104504
 31
0.0
  0
LINE
  5
400
330
1F
100
AcDbEntity
  8
仕上
  6
Continuous
 62
     3
370
     9
100
AcDbLine
 10
-3.999802872941274
 20
363.4104120104504
 30
0.0
 11
3.999889476879105
 21
363.4104120104504
 31
0.0
  0
LINE
  5
401
330
1F
100
AcDbEntity
  8
仕上
  6
Continuous
 62
     3
370
     9
100
AcDbLine
 10
-3.999802872941274
 20
345.4103897408662
 30
0.0
 11
3.999889476879105
 21
345.4103897408662
 31
0.0
  0
LINE
  5
402
330
1F
100
AcDbEntity
  8
仕上
  6
Continuous
 62
     3
370
     9
100
AcDbLine
 10
-19.9999670080237
 20
338.4101934386069
 30
0.0
 11
20.00005361196153
 21
338.4101934386069
 31
0.0
  0
LINE
  5
403
330
1F
100
AcDbEntity
  8
仕上
  6
Continuous
 62
     3
370
     9
100
AcDbLine
 10
3.999889476879105
 20
345.4103897408662
 30
0.0
 11
3.999889476879105
 21
363.4104120104504
 31
0.0
  0
LINE
  5
404
330
1F
100
AcDbEntity
  8
仕上
  6
Continuous
 62
     3
370
     9
100
AcDbLine
 10
-19.9999670080237
 20
320.4102577729608
 30
0.0
 11
20.00005361196153
 21
320.4102577729608
 31
0.0
  0
LINE
  5
405
330
1F
100
AcDbEntity
  8
仕上
  6
Continuous
 62
     3
370
     9
100
AcDbLine
 10
20.00005361196153
 20
338.4101934386069
 30
0.0
 11
20.00005361196153
 21
320.4102577729608
 31
0.0
  0
LINE
  5
406
330
1F
100
AcDbEntity
  8
仕上
  6
Continuous
 62
     3
370
     9
100
AcDbLine
 10
65.99999505120346
 20
338.4101934386069
 30
0.0
 11
65.99999505120346
 21
320.4102577729608
 31
0.0
  0
LINE
  5
407
330
1F
100
AcDbEntity
  8
仕上
  6
Continuous
 62
     3
370
     9
100
AcDbLine
 10
65.99999505120346
 20
320.4102577729608
 30
0.0
 11
26.00006103515625
 21
320.4102577729608
 31
0.0
  0
LINE
  5
408
330
1F
100
AcDbEntity
  8
仕上
  6
Continuous
 62
     3
370
     9
100
AcDbLine
 10
26.00006103515625
 20
338.4101934386069
 30
0.0
 11
26.00006103515625
 21
320.4102577729608
 31
0.0
  0
LINE
  5
409
330
1F
100
AcDbEntity
  8
仕上
  6
Continuous
 62
     3
370
     9
100
AcDbLine
 10
65.99999505120346
 20
338.4101934386069
 30
0.0
 11
26.00006103515625
 21
338.4101934386069
 31
0.0
  0
LINE
  5
40A
330
1F
100
AcDbEntity
  8
仕上
  6
Continuous
 62
     3
370
     9
100
AcDbLine
 10
72.0000890783362
 20
338.4101934386069
 30
0.0
 11
72.0000890783362
 21
320.4099979611472
 31
0.0
  0
LINE
  5
40B
330
1F
100
AcDbEntity
  8
仕上
  6
Continuous
 62
     3
370
     9
100
AcDbLine
 10
-71.99991587046034
 20
338.4101934386069
 30
0.0
 11
-71.99991587046034
 21
320.4099979611472
 31
0.0
  0
ARC
  5
40C
330
1F
100
AcDbEntity
  8
躯体
  6
Continuous
 62
     2
370
     9
100
AcDbCircle
 10
0.0
 20
279.4099616699732
 30
0.0
 40
318.9998894768793
100
AcDbArc
 50
359.9999847412109
 51
180.000015258789
  0
ARC
  5
40D
330
1F
100
AcDbEntity
  8
仕上
  6
Continuous
 62
     3
370
     9
100
AcDbCircle
 10
0.0
 20
279.4099616699732
 30
0.0
 40
256.0000280431799
100
AcDbArc
 50
68.99998474121094
 51
111.0000152587891
  0
ARC
  5
40E
330
1F
100
AcDbEntity
  8
仕上
  6
Continuous
 62
     3
370
     9
100
AcDbCircle
 10
0.0
 20
279.4099616699732
 30
0.0
 40
233.00001402159
100
AcDbArc
 50
69.00000000000001
 51
111.0
  0
ARC
  5
40F
330
1F
100
AcDbEntity
  8
仕上
  6
Continuous
 62
     3
370
     9
100
AcDbCircle
 10
0.0
 20
279.4099616699732
 30
0.0
 40
225.9999909272065
100
AcDbArc
 50
100.7101287841797
 51
102.7817993164062
  0
ARC
  5
410
330
1F
100
AcDbEntity
  8
仕上
  6
Continuous
 62
     3
370
     9
100
AcDbCircle
 10
0.0
 20
279.4099616699732
 30
0.0
 40
225.9999909272065
100
AcDbArc
 50
104.0850982666015
 51
107.1079559326171
  0
ARC
  5
411
330
1F
100
AcDbEntity
  8
仕上
  6
Continuous
 62
     3
370
     9
100
AcDbCircle
 10
0.0
 20
279.4099616699732
 30
0.0
 40
225.9999909272065
100
AcDbArc
 50
88.98588562011717
 51
91.0141143798828
  0
ARC
  5
412
330
1F
100
AcDbEntity
  8
仕上
  6
Continuous
 62
     3
370
     9
100
AcDbCircle
 10
0.0
 20
279.4099616699732
 30
0.0
 40
225.9999909272065
100
AcDbArc
 50
92.28227233886719
 51
99.42268371582031
  0
ARC
  5
413
330
1F
100
AcDbEntity
  8
仕上
  6
Continuous
 62
     3
370
     9
100
AcDbCircle
 10
0.0
 20
279.4099616699732
 30
0.0
 40
225.9999909272065
100
AcDbArc
 50
77.21820068359375
 51
79.28987121582031
  0
ARC
  5
414
330
1F
100
AcDbEntity
  8
仕上
  6
Continuous
 62
     3
370
     9
100
AcDbCircle
 10
0.0
 20
279.4099616699732
 30
0.0
 40
225.9999909272065
100
AcDbArc
 50
72.89204406738281
 51
75.91490173339844
  0
ARC
  5
415
330
1F
100
AcDbEntity
  8
仕上
  6
Continuous
 62
     3
370
     9
100
AcDbCircle
 10
0.0
 20
279.4099616699732
 30
0.0
 40
225.9999909272065
100
AcDbArc
 50
80.57731628417972
 51
87.71772766113284
  0
ARC
  5
416
330
1F
100
AcDbEntity
  8
仕上
  6
Continuous
 62
     3
370
     9
100
AcDbCircle
 10
0.0
 20
279.4099616699732
 30
0.0
 40
249.9992844865129
100
AcDbArc
 50
177.9368743896484
 51
180.0
  0
ARC
  5
417
330
1F
100
AcDbEntity
  8
仕上
  6
Continuous
 62
     3
370
     9
100
AcDbCircle
 10
0.0
 20
279.4099616699732
 30
0.0
 40
249.9992844865129
100
AcDbArc
 50
172.1835632324218
 51
176.3305358886718
  0
ARC
  5
418
330
1F
100
AcDbEntity
  8
仕上
  6
Continuous
 62
     3
370
     9
100
AcDbCircle
 10
0.0
 20
279.4099616699732
 30
0.0
 40
249.9992844865129
100
AcDbArc
 50
166.3493804931641
 51
170.5608215332031
  0
ARC
  5
419
330
1F
100
AcDbEntity
  8
仕上
  6
Continuous
 62
     3
370
     9
100
AcDbCircle
 10
0.0
 20
279.4099616699732
 30
0.0
 40
249.9992844865129
100
AcDbArc
 50
162.9409027099609
 51
164.6924133300781
  0
ARC
  5
41A
330
1F
100
AcDbEntity
  8
仕上
  6
Continuous
 62
     3
370
     9
100
AcDbCircle
 10
0.0
 20
279.4099616699732
 30
0.0
 40
249.9992844865129
100
AcDbArc
 50
154.1509857177735
 51
158.6538391113282
  0
ARC
  5
41B
330
1F
100
AcDbEntity
  8
仕上
  6
Continuous
 62
     3
370
     9
100
AcDbCircle
 10
0.0
 20
279.4099616699732
 30
0.0
 40
249.9992844865129
100
AcDbArc
 50
147.5881042480468
 51
152.3544006347656
  0
ARC
  5
41C
330
1F
100
AcDbEntity
  8
仕上
  6
Continuous
 62
     3
370
     9
100
AcDbCircle
 10
0.0
 20
279.4099616699732
 30
0.0
 40
249.9992844865129
100
AcDbArc
 50
140.5056457519532
 51
144.6865386962891
  0
ARC
  5
41D
330
1F
100
AcDbEntity
  8
仕上
  6
Continuous
 62
     3
370
     9
100
AcDbCircle
 10
0.0
 20
279.4099616699732
 30
0.0
 40
249.9992844865129
100
AcDbArc
 50
136.0546264648438
 51
138.3941802978516
  0
ARC
  5
41E
330
1F
100
AcDbEntity
  8
仕上
  6
Continuous
 62
     3
370
     9
100
AcDbCircle
 10
0.0
 20
279.4099616699732
 30
0.0
 40
249.9992844865129
100
AcDbArc
 50
132.6080169677735
 51
134.4271240234375
  0
ARC
  5
41F
330
1F
100
AcDbEntity
  8
仕上
  6
Continuous
 62
     3
370
     9
100
AcDbCircle
 10
0.0
 20
279.4099616699732
 30
0.0
 40
249.9992844865129
100
AcDbArc
 50
123.2796325683594
 51
129.1979217529297
  0
ARC
  5
420
330
1F
100
AcDbEntity
  8
仕上
  6
Continuous
 62
     3
370
     9
100
AcDbCircle
 10
0.0
 20
279.4099616699732
 30
0.0
 40
249.9992844865129
100
AcDbArc
 50
113.8285369873047
 51
120.2309875488282
  0
ARC
  5
421
330
1F
100
AcDbEntity
  8
仕上
  6
Continuous
 62
     3
370
     9
100
AcDbCircle
 10
0.0
 20
279.4099616699732
 30
0.0
 40
249.9992844865129
100
AcDbArc
 50
3.669464111328135
 51
7.816436767578135
  0
ARC
  5
422
330
1F
100
AcDbEntity
  8
仕上
  6
Continuous
 62
     3
370
     9
100
AcDbCircle
 10
0.0
 20
279.4099616699732
 30
0.0
 40
249.9992844865129
100
AcDbArc
 50
9.439178466796886
 51
13.65061950683595
  0
ARC
  5
423
330
1F
100
AcDbEntity
  8
仕上
  6
Continuous
 62
     3
370
     9
100
AcDbCircle
 10
0.0
 20
279.4099616699732
 30
0.0
 40
249.9992844865129
100
AcDbArc
 50
15.30758666992187
 51
17.05909729003906
  0
ARC
  5
424
330
1F
100
AcDbEntity
  8
仕上
  6
Continuous
 62
     3
370
     9
100
AcDbCircle
 10
0.0
 20
279.4099616699732
 30
0.0
 40
249.9992844865129
100
AcDbArc
 50
21.34616088867188
 51
25.84901428222657
  0
ARC
  5
425
330
1F
100
AcDbEntity
  8
仕上
  6
Continuous
 62
     3
370
     9
100
AcDbCircle
 10
0.0
 20
279.4099616699732
 30
0.0
 40
249.9992844865129
100
AcDbArc
 50
27.64559936523438
 51
32.41189575195313
  0
ARC
  5
426
330
1F
100
AcDbEntity
  8
仕上
  6
Continuous
 62
     3
370
     9
100
AcDbCircle
 10
0.0
 20
279.4099616699732
 30
0.0
 40
249.9992844865129
100
AcDbArc
 50
35.31346130371095
 51
39.49435424804689
  0
ARC
  5
427
330
1F
100
AcDbEntity
  8
仕上
  6
Continuous
 62
     3
370
     9
100
AcDbCircle
 10
0.0
 20
279.4099616699732
 30
0.0
 40
249.9992844865129
100
AcDbArc
 50
41.60581970214842
 51
43.94537353515624
  0
ARC
  5
428
330
1F
100
AcDbEntity
  8
仕上
  6
Continuous
 62
     3
370
     9
100
AcDbCircle
 10
0.0
 20
279.4099616699732
 30
0.0
 40
249.9992844865129
100
AcDbArc
 50
45.57287597656251
 51
47.39198303222657
  0
ARC
  5
429
330
1F
100
AcDbEntity
  8
仕上
  6
Continuous
 62
     3
370
     9
100
AcDbCircle
 10
0.0
 20
279.4099616699732
 30
0.0
 40
249.9992844865129
100
AcDbArc
 50
50.80207824707031
 51
56.72036743164063
  0
ARC
  5
42A
330
1F
100
AcDbEntity
  8
仕上
  6
Continuous
 62
     3
370
     9
100
AcDbCircle
 10
0.0
 20
279.4099616699732
 30
0.0
 40
249.9992844865129
100
AcDbArc
 50
59.76901245117187
 51
66.1714630126953
  0
ARC
  5
42B
330
1F
100
AcDbEntity
  8
仕上
  6
Continuous
 62
     3
370
     9
100
AcDbCircle
 10
0.0
 20
279.4099616699732
 30
0.0
 40
249.9992844865129
100
AcDbArc
 50
0.0
 51
2.063125610351562
  0
ARC
  5
42C
330
1F
100
AcDbEntity
  8
建具
  6
Continuous
 62
     4
370
     9
100
AcDbCircle
 10
161.0001847550675
 20
279.4099616699732
 30
0.0
 40
15.49999797666395
100
AcDbArc
 50
45.20895385742189
 51
134.7910461425781
  0
ARC
  5
42D
330
1F
100
AcDbEntity
  8
仕上
  6
JWW_DASHED1
 62
     3
370
     9
100
AcDbCircle
 10
161.0001847550675
 20
279.4099616699732
 30
0.0
 40
9.500000025774982
100
AcDbArc
 50
31.75671386718751
 51
148.2432861328125
  0
ARC
  5
42E
330
1F
100
AcDbEntity
  8
仕上
  6
JWW_DASHED1
 62
     3
370
     9
100
AcDbCircle
 10
181.000324970967
 20
279.4099616699732
 30
0.0
 40
5.000000547718358
100
AcDbArc
 50
0.0
 51
90.0
  0
ARC
  5
42F
330
1F
100
AcDbEntity
  8
仕上
  6
JWW_DASHED1
 62
     3
370
     9
100
AcDbCircle
 10
141.000217747044
 20
279.4099616699732
 30
0.0
 40
5.000000547718358
100
AcDbArc
 50
90.0
 51
180.0
  0
ARC
  5
430
330
1F
100
AcDbEntity
  8
仕上
  6
Continuous
 62
     3
370
     9
100
AcDbCircle
 10
161.0001847550675
 20
279.4099616699732
 30
0.0
 40
16.49999876280089
100
AcDbArc
 50
46.65843200683594
 51
133.3415679931641
  0
ARC
  5
431
330
1F
100
AcDbEntity
  8
仕上
  6
Continuous
 62
     3
370
     9
100
AcDbCircle
 10
161.0001847550675
 20
279.4099616699732
 30
0.0
 40
23.49999749982679
100
AcDbArc
 50
53.95089721679688
 51
126.0491027832031
  0
ARC
  5
432
330
1F
100
AcDbEntity
  8
仕上
  6
Continuous
 62
     3
370
     9
100
AcDbCircle
 10
161.0001847550675
 20
279.4099616699732
 30
0.0
 40
32.99999752560178
100
AcDbArc
 50
180.0
 51
0.0
  0
ARC
  5
433
330
1F
100
AcDbEntity
  8
建具
  6
Continuous
 62
     4
370
     9
100
AcDbCircle
 10
189.9966554383973
 20
288.4100161067342
 30
0.0
 40
2.000000049939027
100
AcDbArc
 50
0.0
 51
90.0
  0
ARC
  5
434
330
1F
100
AcDbEntity
  8
建具
  6
Continuous
 62
     4
370
     9
100
AcDbCircle
 10
132.0034542599239
 20
288.4100161067342
 30
0.0
 40
2.000000049939027
100
AcDbArc
 50
90.0
 51
180.0
  0
ARC
  5
435
330
1F
100
AcDbEntity
  8
建具
  6
Continuous
 62
     4
370
     9
100
AcDbCircle
 10
-161.0001847550677
 20
279.4099616699732
 30
0.0
 40
15.49999797666395
100
AcDbArc
 50
45.20895385742189
 51
134.7910461425781
  0
ARC
  5
436
330
1F
100
AcDbEntity
  8
仕上
  6
JWW_DASHED1
 62
     3
370
     9
100
AcDbCircle
 10
-161.0001847550677
 20
279.4099616699732
 30
0.0
 40
9.500000025774982
100
AcDbArc
 50
31.75671386718751
 51
148.2432861328125
  0
ARC
  5
437
330
1F
100
AcDbEntity
  8
仕上
  6
JWW_DASHED1
 62
     3
370
     9
100
AcDbCircle
 10
-181.0001517630912
 20
279.4099616699732
 30
0.0
 40
5.000000547718358
100
AcDbArc
 50
90.0
 51
180.0
  0
ARC
  5
438
330
1F
100
AcDbEntity
  8
仕上
  6
JWW_DASHED1
 62
     3
370
     9
100
AcDbCircle
 10
-141.000217747044
 20
279.4099616699732
 30
0.0
 40
5.000000547718358
100
AcDbArc
 50
0.0
 51
90.0
  0
ARC
  5
439
330
1F
100
AcDbEntity
  8
仕上
  6
Continuous
 62
     3
370
     9
100
AcDbCircle
 10
-161.0001847550677
 20
279.4099616699732
 30
0.0
 40
16.49999876280089
100
AcDbArc
 50
46.65843200683594
 51
133.3415679931641
  0
ARC
  5
43A
330
1F
100
AcDbEntity
  8
仕上
  6
Continuous
 62
     3
370
     9
100
AcDbCircle
 10
-161.0001847550677
 20
279.4099616699732
 30
0.0
 40
23.49999749982679
100
AcDbArc
 50
53.95089721679688
 51
126.0491027832031
  0
ARC
  5
43B
330
1F
100
AcDbEntity
  8
仕上
  6
Continuous
 62
     3
370
     9
100
AcDbCircle
 10
-161.0001847550677
 20
279.4099616699732
 30
0.0
 40
32.99999752560178
100
AcDbArc
 50
180.0
 51
0.0
  0
ARC
  5
43C
330
1F
100
AcDbEntity
  8
建具
  6
Continuous
 62
     4
370
     9
100
AcDbCircle
 10
-189.9965688344595
 20
288.4100161067342
 30
0.0
 40
2.000000049939027
100
AcDbArc
 50
90.0
 51
180.0
  0
ARC
  5
43D
330
1F
100
AcDbEntity
  8
建具
  6
Continuous
 62
     4
370
     9
100
AcDbCircle
 10
-132.0032810520483
 20
288.4100161067342
 30
0.0
 40
2.000000049939027
100
AcDbArc
 50
0.0
 51
90.0
  0
CIRCLE
  5
43E
330
1F
100
AcDbEntity
  8
躯体
  6
Continuous
 62
     2
370
     9
100
AcDbCircle
 10
0.0
 20
279.4099616699732
 30
0.0
 40
319.9999267990525
  0
ARC
  5
43F
330
1F
100
AcDbEntity
  8
躯体
  6
Continuous
 62
     2
370
     9
100
AcDbCircle
 10
0.0
 20
279.4099616699732
 30
0.0
 40
318.9998894768793
100
AcDbArc
 50
359.9999847412109
 51
180.000015258789
  0
ARC
  5
440
330
1F
100
AcDbEntity
  8
躯体
  6
Continuous
 62
     2
370
     9
100
AcDbCircle
 10
0.0
 20
279.4099616699732
 30
0.0
 40
274.000050312764
100
AcDbArc
 50
359.9999847412109
 51
180.000015258789
  0
ARC
  5
441
330
1F
100
AcDbEntity
  8
躯体
  6
Continuous
 62
     2
370
     9
100
AcDbCircle
 10
306.2108261520798
 20
301.4099600203743
 30
0.0
 40
2.000000049939027
100
AcDbArc
 50
270.0
 51
4.109893798828135
  0
ARC
  5
442
330
1F
100
AcDbEntity
  8
躯体
  6
Continuous
 62
     2
370
     9
100
AcDbCircle
 10
304.0543014938767
 20
303.4099047588139
 30
0.0
 40
2.000000049939027
100
AcDbArc
 50
270.0
 51
4.512573242187517
  0
ARC
  5
443
330
1F
100
AcDbEntity
  8
躯体
  6
Continuous
 62
     2
370
     9
100
AcDbCircle
 10
295.0256677576013
 20
303.4099047588139
 30
0.0
 40
2.000000049939027
100
AcDbArc
 50
184.6509552001953
 51
270.0
  0
ARC
  5
444
330
1F
100
AcDbEntity
  8
躯体
  6
Continuous
 62
     2
370
     9
100
AcDbCircle
 10
293.1758942475191
 20
301.4099600203743
 30
0.0
 40
2.000000049939027
100
AcDbArc
 50
184.2919158935547
 51
270.0
  0
ARC
  5
445
330
1F
100
AcDbEntity
  8
躯体
  6
Continuous
 62
     2
370
     9
100
AcDbCircle
 10
-306.210566340266
 20
301.4099600203743
 30
0.0
 40
2.000000049939027
100
AcDbArc
 50
175.8901062011719
 51
270.0
  0
ARC
  5
446
330
1F
100
AcDbEntity
  8
躯体
  6
Continuous
 62
     2
370
     9
100
AcDbCircle
 10
-304.0543014938767
 20
303.4099047588139
 30
0.0
 40
2.000000049939027
100
AcDbArc
 50
175.4874267578125
 51
270.0000000000001
  0
ARC
  5
447
330
1F
100
AcDbEntity
  8
躯体
  6
Continuous
 62
     2
370
     9
100
AcDbCircle
 10
-295.0254945497255
 20
303.4099047588139
 30
0.0
 40
2.000000049939027
100
AcDbArc
 50
270.0
 51
355.3490447998047
  0
ARC
  5
448
330
1F
100
AcDbEntity
  8
躯体
  6
Continuous
 62
     2
370
     9
100
AcDbCircle
 10
-293.1758076435812
 20
301.4099600203743
 30
0.0
 40
2.000000049939027
100
AcDbArc
 50
270.0
 51
355.7080841064453
  0
ARC
  5
449
330
1F
100
AcDbEntity
  8
躯体
  6
Continuous
 62
     2
370
     9
100
AcDbCircle
 10
24.00002969277867
 20
583.46426316385
 30
0.0
 40
2.000000049939027
100
AcDbArc
 50
90.17884826660156
 51
180.0
  0
ARC
  5
44A
330
1F
100
AcDbEntity
  8
躯体
  6
Continuous
 62
     2
370
     9
100
AcDbCircle
 10
21.99999835040109
 20
585.6205280102392
 30
0.0
 40
2.000000049939027
100
AcDbArc
 50
85.8901062011719
 51
180.0000000000001
  0
ARC
  5
44B
330
1F
100
AcDbEntity
  8
躯体
  6
Continuous
 62
     2
370
     9
100
AcDbCircle
 10
24.00002969277867
 20
574.4356294275746
 30
0.0
 40
2.000000049939027
100
AcDbArc
 50
180.0
 51
265.3491668701172
  0
ARC
  5
44C
330
1F
100
AcDbEntity
  8
躯体
  6
Continuous
 62
     2
370
     9
100
AcDbCircle
 10
21.99999835040109
 20
572.5857693135542
 30
0.0
 40
2.000000049939027
100
AcDbArc
 50
180.0
 51
265.7079772949219
  0
ARC
  5
44D
330
1F
100
AcDbEntity
  8
躯体
  6
Continuous
 62
     2
370
     9
100
AcDbCircle
 10
-23.99994308884084
 20
583.46426316385
 30
0.0
 40
2.000000049939027
100
AcDbArc
 50
0.0
 51
89.82115173339844
  0
ARC
  5
44E
330
1F
100
AcDbEntity
  8
躯体
  6
Continuous
 62
     2
370
     9
100
AcDbCircle
 10
-21.99999835040128
 20
585.6205280102392
 30
0.0
 40
2.000000049939027
100
AcDbArc
 50
0.0
 51
94.10989379882814
  0
ARC
  5
44F
330
1F
100
AcDbEntity
  8
躯体
  6
Continuous
 62
     2
370
     9
100
AcDbCircle
 10
-23.99994308884084
 20
574.4356294275746
 30
0.0
 40
2.000000049939027
100
AcDbArc
 50
274.6508331298828
 51
0.0
  0
ARC
  5
450
330
1F
100
AcDbEntity
  8
躯体
  6
Continuous
 62
     2
370
     9
100
AcDbCircle
 10
-21.99999835040128
 20
572.5857693135542
 30
0.0
 40
2.000000049939027
100
AcDbArc
 50
274.2920227050781
 51
0.0000000000000127
  0
ARC
  5
451
330
1F
100
AcDbEntity
  8
躯体
  6
Continuous
 62
     2
370
     9
100
AcDbCircle
 10
-4.999991752006025
 20
580.4099154812062
 30
0.0
 40
7.500000483280904
100
AcDbArc
 50
90.0
 51
270.0
  0
ARC
  5
452
330
1F
100
AcDbEntity
  8
躯体
  6
Continuous
 62
     2
370
     9
100
AcDbCircle
 10
5.000078355943856
 20
580.4099154812062
 30
0.0
 40
7.500000483280904
100
AcDbArc
 50
270.0
 51
90.0
  0
ARC
  5
453
330
1F
100
AcDbEntity
  8
躯体
  6
Continuous
 62
     2
370
     9
100
AcDbCircle
 10
5.000078355943856
 20
580.4099154812062
 30
0.0
 40
9.000000309299779
100
AcDbArc
 50
270.0
 51
90.0
  0
ARC
  5
454
330
1F
100
AcDbEntity
  8
躯体
  6
Continuous
 62
     2
370
     9
100
AcDbCircle
 10
-4.999991752006025
 20
580.4099154812062
 30
0.0
 40
9.000000309299779
100
AcDbArc
 50
90.0
 51
270.0
  0
ARC
  5
455
330
1F
100
AcDbEntity
  8
躯体
  6
Continuous
 62
     2
370
     9
100
AcDbCircle
 10
300.9999538112332
 20
284.4100400259171
 30
0.0
 40
7.500000483280904
100
AcDbArc
 50
0.0
 51
180.0
  0
ARC
  5
456
330
1F
100
AcDbEntity
  8
躯体
  6
Continuous
 62
     2
370
     9
100
AcDbCircle
 10
300.9999538112332
 20
284.4100400259171
 30
0.0
 40
9.000000309299779
100
AcDbArc
 50
0.0
 51
180.0
  0
ARC
  5
457
330
1F
100
AcDbEntity
  8
躯体
  6
Continuous
 62
     2
370
     9
100
AcDbCircle
 10
300.9999538112332
 20
274.4097967100913
 30
0.0
 40
7.500000483280904
100
AcDbArc
 50
180.0
 51
0.0
  0
ARC
  5
458
330
1F
100
AcDbEntity
  8
躯体
  6
Continuous
 62
     2
370
     9
100
AcDbCircle
 10
-300.9999538112332
 20
284.4100400259171
 30
0.0
 40
7.500000483280904
100
AcDbArc
 50
0.0
 51
180.0
  0
ARC
  5
459
330
1F
100
AcDbEntity
  8
躯体
  6
Continuous
 62
     2
370
     9
100
AcDbCircle
 10
-300.9999538112332
 20
284.4100400259171
 30
0.0
 40
9.000000309299779
100
AcDbArc
 50
0.0
 51
180.0
  0
ARC
  5
45A
330
1F
100
AcDbEntity
  8
躯体
  6
Continuous
 62
     2
370
     9
100
AcDbCircle
 10
-300.9999538112332
 20
274.4097967100913
 30
0.0
 40
7.500000483280904
100
AcDbArc
 50
180.0
 51
0.0
  0
ARC
  5
45B
330
1F
100
AcDbEntity
  8
躯体
  6
Continuous
 62
     2
370
     9
100
AcDbCircle
 10
5.000078355943856
 20
-21.58981893338409
 30
0.0
 40
7.500000483280904
100
AcDbArc
 50
270.0
 51
90.0
  0
ARC
  5
45C
330
1F
100
AcDbEntity
  8
躯体
  6
Continuous
 62
     2
370
     9
100
AcDbCircle
 10
-4.999991752006025
 20
-21.58981893338409
 30
0.0
 40
7.500000483280904
100
AcDbArc
 50
90.0
 51
270.0
  0
ARC
  5
45D
330
1F
100
AcDbEntity
  8
躯体
  6
Continuous
 62
     2
370
     9
100
AcDbCircle
 10
0.0
 20
279.4099616699732
 30
0.0
 40
249.9993277884818
100
AcDbArc
 50
180.0000152587891
 51
359.9999847412109
  0
ARC
  5
45E
330
1F
100
AcDbEntity
  8
躯体
  6
Continuous
 62
     2
370
     9
100
AcDbCircle
 10
0.0
 20
279.4099616699732
 30
0.0
 40
278.999912158863
100
AcDbArc
 50
359.9999847412109
 51
180.000015258789
  0
ARC
  5
45F
330
1F
100
AcDbEntity
  8
躯体
  6
Continuous
 62
     2
370
     9
100
AcDbCircle
 10
0.0
 20
279.4099616699732
 30
0.0
 40
283.0000397965715
100
AcDbArc
 50
0.0
 51
180.0
  0
ARC
  5
460
330
1F
100
AcDbEntity
  8
躯体
  6
Continuous
 62
     2
370
     9
100
AcDbCircle
 10
0.0
 20
279.4099616699732
 30
0.0
 40
308.9998626708984
100
AcDbArc
 50
4.109405517578138
 51
85.89057922363283
  0
ARC
  5
461
330
1F
100
AcDbEntity
  8
躯体
  6
Continuous
 62
     2
370
     9
100
AcDbCircle
 10
0.0
 20
279.4099616699732
 30
0.0
 40
307.0000478383657
100
AcDbArc
 50
4.513183593750009
 51
85.48680114746095
  0
ARC
  5
462
330
1F
100
AcDbEntity
  8
躯体
  6
Continuous
 62
     2
370
     9
100
AcDbCircle
 10
0.0
 20
279.4099616699732
 30
0.0
 40
294.00012557571
100
AcDbArc
 50
4.650695800781258
 51
85.34927368164064
  0
ARC
  5
463
330
1F
100
AcDbEntity
  8
躯体
  6
Continuous
 62
     2
370
     9
100
AcDbCircle
 10
0.0
 20
279.4099616699732
 30
0.0
 40
292.0000292803791
100
AcDbArc
 50
4.291442871093754
 51
85.70855712890626
  0
ARC
  5
464
330
1F
100
AcDbEntity
  8
躯体
  6
Continuous
 62
     2
370
     9
100
AcDbCircle
 10
0.0
 20
279.4099616699732
 30
0.0
 40
292.0000292803791
100
AcDbArc
 50
94.29144287109375
 51
175.7085571289063
  0
ARC
  5
465
330
1F
100
AcDbEntity
  8
躯体
  6
Continuous
 62
     2
370
     9
100
AcDbCircle
 10
0.0
 20
279.4099616699732
 30
0.0
 40
294.00012557571
100
AcDbArc
 50
94.65072631835938
 51
175.3493041992187
  0
ARC
  5
466
330
1F
100
AcDbEntity
  8
躯体
  6
Continuous
 62
     2
370
     9
100
AcDbCircle
 10
0.0
 20
279.4099616699732
 30
0.0
 40
307.0000478383657
100
AcDbArc
 50
94.513198852539
 51
175.48681640625
  0
ARC
  5
467
330
1F
100
AcDbEntity
  8
躯体
  6
Continuous
 62
     2
370
     9
100
AcDbCircle
 10
0.0
 20
279.4099616699732
 30
0.0
 40
308.9998626708984
100
AcDbArc
 50
94.10942077636719
 51
175.8905944824219
  0
ARC
  5
468
330
1F
100
AcDbEntity
  8
仕上
  6
Continuous
 62
     3
370
     9
100
AcDbCircle
 10
-65.09645616686024
 20
214.313505503113
 30
0.0
 40
5.000000547718358
100
AcDbArc
 50
180.0
 51
270.0
  0
ARC
  5
469
330
1F
100
AcDbEntity
  8
仕上
  6
Continuous
 62
     3
370
     9
100
AcDbCircle
 10
-89.89254925702079
 20
214.313505503113
 30
0.0
 40
5.000000547718358
100
AcDbArc
 50
270.0
 51
0.0
  0
ARC
  5
46A
330
1F
100
AcDbEntity
  8
仕上
  6
Continuous
 62
     3
370
     9
100
AcDbCircle
 10
-86.50009980072855
 20
210.9099707427667
 30
0.0
 40
5.000000547718358
100
AcDbArc
 50
270.0
 51
0.0
  0
ARC
  5
46B
330
1F
100
AcDbEntity
  8
仕上
  6
Continuous
 62
     3
370
     9
100
AcDbCircle
 10
-68.5000775311444
 20
210.9099707427667
 30
0.0
 40
5.000000547718358
100
AcDbArc
 50
180.0
 51
270.0
  0
ARC
  5
46C
330
1F
100
AcDbEntity
  8
仕上
  6
Continuous
 62
     3
370
     9
100
AcDbCircle
 10
-65.09645616686024
 20
189.5173258090146
 30
0.0
 40
5.000000547718358
100
AcDbArc
 50
90.0
 51
180.0
  0
ARC
  5
46D
330
1F
100
AcDbEntity
  8
仕上
  6
Continuous
 62
     3
370
     9
100
AcDbCircle
 10
-68.5000775311444
 20
192.9098618692447
 30
0.0
 40
5.000000547718358
100
AcDbArc
 50
90.0
 51
180.0
  0
ARC
  5
46E
330
1F
100
AcDbEntity
  8
仕上
  6
Continuous
 62
     3
370
     9
100
AcDbCircle
 10
-86.50009980072855
 20
192.9098618692447
 30
0.0
 40
5.000000547718358
100
AcDbArc
 50
0.0
 51
90.0
  0
ARC
  5
46F
330
1F
100
AcDbEntity
  8
仕上
  6
Continuous
 62
     3
370
     9
100
AcDbCircle
 10
-89.89254925702079
 20
189.5173258090146
 30
0.0
 40
5.000000547718358
100
AcDbArc
 50
0.0
 51
90.0
  0
ARC
  5
470
330
1F
100
AcDbEntity
  8
仕上
  6
Continuous
 62
     3
370
     9
100
AcDbCircle
 10
65.09654277079807
 20
214.313505503113
 30
0.0
 40
5.000000547718358
100
AcDbArc
 50
270.0
 51
0.0
  0
ARC
  5
471
330
1F
100
AcDbEntity
  8
仕上
  6
Continuous
 62
     3
370
     9
100
AcDbCircle
 10
89.89272246489645
 20
214.313505503113
 30
0.0
 40
5.000000547718358
100
AcDbArc
 50
180.0
 51
270.0
  0
ARC
  5
472
330
1F
100
AcDbEntity
  8
仕上
  6
Continuous
 62
     3
370
     9
100
AcDbCircle
 10
86.50009980072835
 20
210.9099707427667
 30
0.0
 40
5.000000547718358
100
AcDbArc
 50
180.0
 51
270.0
  0
ARC
  5
473
330
1F
100
AcDbEntity
  8
仕上
  6
Continuous
 62
     3
370
     9
100
AcDbCircle
 10
68.49999092720637
 20
210.9099707427667
 30
0.0
 40
5.000000547718358
100
AcDbArc
 50
270.0
 51
0.0
  0
ARC
  5
474
330
1F
100
AcDbEntity
  8
仕上
  6
Continuous
 62
     3
370
     9
100
AcDbCircle
 10
65.09654277079807
 20
189.5173258090146
 30
0.0
 40
5.000000547718358
100
AcDbArc
 50
0.0
 51
90.0
  0
ARC
  5
475
330
1F
100
AcDbEntity
  8
仕上
  6
Continuous
 62
     3
370
     9
100
AcDbCircle
 10
68.49999092720637
 20
192.9098618692447
 30
0.0
 40
5.000000547718358
100
AcDbArc
 50
0.0
 51
90.0
  0
ARC
  5
476
330
1F
100
AcDbEntity
  8
仕上
  6
Continuous
 62
     3
370
     9
100
AcDbCircle
 10
86.50009980072835
 20
192.9098618692447
 30
0.0
 40
5.000000547718358
100
AcDbArc
 50
90.0
 51
180.0
  0
ARC
  5
477
330
1F
100
AcDbEntity
  8
仕上
  6
Continuous
 62
     3
370
     9
100
AcDbCircle
 10
89.89272246489645
 20
189.5173258090146
 30
0.0
 40
5.000000547718358
100
AcDbArc
 50
90.0
 51
180.0
  0
ARC
  5
478
330
1F
100
AcDbEntity
  8
仕上
  6
Continuous
 62
     3
370
     9
100
AcDbCircle
 10
229.7974003972234
 20
189.5173258090146
 30
0.0
 40
5.000000547718358
100
AcDbArc
 50
28.60787963867188
 51
90.00000000000001
  0
ARC
  5
479
330
1F
100
AcDbEntity
  8
仕上
  6
Continuous
 62
     3
370
     9
100
AcDbCircle
 10
233.2001557221284
 20
192.9098618692447
 30
0.0
 40
5.000000547718358
100
AcDbArc
 50
55.45013427734376
 51
90.00000000000001
  0
ARC
  5
47A
330
1F
100
AcDbEntity
  8
仕上
  6
Continuous
 62
     3
370
     9
100
AcDbCircle
 10
238.0127365524705
 20
214.313505503113
 30
0.0
 40
5.000000547718358
100
AcDbArc
 50
270.0
 51
294.7322387695312
  0
ARC
  5
47B
330
1F
100
AcDbEntity
  8
仕上
  6
Continuous
 62
     3
370
     9
100
AcDbCircle
 10
65.09654277079807
 20
41.39722511750276
 30
0.0
 40
5.000000547718358
100
AcDbArc
 50
335.2677612304688
 51
0.0
  0
ARC
  5
47C
330
1F
100
AcDbEntity
  8
仕上
  6
Continuous
 62
     3
370
     9
100
AcDbCircle
 10
86.50009980072835
 20
46.20989255178262
 30
0.0
 40
5.000000547718358
100
AcDbArc
 50
180.0
 51
214.5496978759766
  0
ARC
  5
47D
330
1F
100
AcDbEntity
  8
仕上
  6
Continuous
 62
     3
370
     9
100
AcDbCircle
 10
89.89272246489645
 20
49.61247466881181
 30
0.0
 40
5.000000547718358
100
AcDbArc
 50
180.0
 51
241.392578125
  0
ARC
  5
47E
330
1F
100
AcDbEntity
  8
仕上
  6
Continuous
 62
     3
370
     9
100
AcDbCircle
 10
-65.09645616686024
 20
41.39722511750276
 30
0.0
 40
5.000000547718358
100
AcDbArc
 50
180.0
 51
204.7322387695312
  0
ARC
  5
47F
330
1F
100
AcDbEntity
  8
仕上
  6
Continuous
 62
     3
370
     9
100
AcDbCircle
 10
-86.50009980072855
 20
46.20989255178262
 30
0.0
 40
5.000000547718358
100
AcDbArc
 50
325.4503021240234
 51
0.0
  0
ARC
  5
480
330
1F
100
AcDbEntity
  8
仕上
  6
Continuous
 62
     3
370
     9
100
AcDbCircle
 10
-89.89254925702079
 20
49.61247466881181
 30
0.0
 40
5.000000547718358
100
AcDbArc
 50
298.607421875
 51
0.0000000000000127
  0
ARC
  5
481
330
1F
100
AcDbEntity
  8
仕上
  6
Continuous
 62
     3
370
     9
100
AcDbCircle
 10
-229.7975736050992
 20
189.5173258090146
 30
0.0
 40
5.000000547718358
100
AcDbArc
 50
90.0
 51
151.392578125
  0
ARC
  5
482
330
1F
100
AcDbEntity
  8
仕上
  6
Continuous
 62
     3
370
     9
100
AcDbCircle
 10
-238.0127365524705
 20
214.313505503113
 30
0.0
 40
5.000000547718358
100
AcDbArc
 50
245.2684783935547
 51
270.0
  0
ARC
  5
483
330
1F
100
AcDbEntity
  8
仕上
  6
Continuous
 62
     3
370
     9
100
AcDbCircle
 10
-233.2001557221284
 20
192.9098618692447
 30
0.0
 40
5.000000547718358
100
AcDbArc
 50
90.0
 51
124.5506896972656
  0
ARC
  5
484
330
1F
100
AcDbEntity
  8
躯体
  6
Continuous
 62
     2
370
     9
100
AcDbCircle
 10
318.1327242464632
 20
-405.7458346903521
 30
0.0
 40
1.000000024969514
100
AcDbArc
 50
8.130706787109382
 51
90.00000000000001
  0
ARC
  5
485
330
1F
100
AcDbEntity
  8
建具
  6
Continuous
 62
     6
370
     9
100
AcDbCircle
 10
-266.3631418589
 20
-370.7460223322175
 30
0.0
 40
0.5000000124847568
100
AcDbArc
 50
90.0
 51
187.9976196289062
  0
ARC
  5
486
330
1F
100
AcDbEntity
  8
建具
  6
Continuous
 62
     6
370
     9
100
AcDbCircle
 10
-263.5523244496939
 20
-390.7459027363032
 30
0.0
 40
0.5000000124847568
100
AcDbArc
 50
188.0088653564453
 51
270.0000000000001
  0
ARC
  5
487
330
1F
100
AcDbEntity
  8
躯体
  6
Continuous
 62
     2
370
     9
100
AcDbCircle
 10
-291.1914516139676
 20
-405.7458346903521
 30
0.0
 40
1.000000024969514
100
AcDbArc
 50
90.0
 51
167.9016723632812
  0
ARC
  5
488
330
1F
100
AcDbEntity
  8
躯体
  6
Continuous
 62
     2
370
     9
100
AcDbCircle
 10
-310.8082828006229
 20
-405.7458346903521
 30
0.0
 40
1.000000024969514
100
AcDbArc
 50
12.0927734375
 51
90.00000000000001
  0
ARC
  5
489
330
1F
100
AcDbEntity
  8
躯体
  6
JWW_DASHED1
 62
     2
370
     9
100
AcDbCircle
 10
309.4142192118877
 20
-405.7458346903521
 30
0.0
 40
1.000000024969514
100
AcDbArc
 50
90.0
 51
135.0
  0
ARC
  5
48A
330
1F
100
AcDbEntity
  8
躯体
  6
JWW_DASHED1
 62
     2
370
     9
100
AcDbCircle
 10
306.5858212032833
 20
-405.7458346903521
 30
0.0
 40
1.000000024969514
100
AcDbArc
 50
270.0
 51
315.0
  0
ARC
  5
48B
330
1F
100
AcDbEntity
  8
躯体
  6
JWW_DASHED1
 62
     2
370
     9
100
AcDbCircle
 10
294.4143305598079
 20
-405.7458346903521
 30
0.0
 40
1.000000024969514
100
AcDbArc
 50
225.0000000000001
 51
270.0000000000001
  0
ARC
  5
48C
330
1F
100
AcDbEntity
  8
躯体
  6
JWW_DASHED1
 62
     2
370
     9
100
AcDbCircle
 10
291.5858459472656
 20
-405.7458346903521
 30
0.0
 40
1.000000024969514
100
AcDbArc
 50
45.0
 51
90.0
  0
ARC
  5
48D
330
1F
100
AcDbEntity
  8
仕上
  6
Continuous
 62
     3
370
     9
100
AcDbCircle
 10
-65.43118038692995
 20
-362.1155935025089
 30
0.0
 40
5.000000547718358
100
AcDbArc
 50
90.50590515136719
 51
175.9999542236329
  0
ARC
  5
48E
330
1F
100
AcDbEntity
  8
仕上
  6
Continuous
 62
     3
370
     9
100
AcDbCircle
 10
0.0
 20
-7843.830180327494
 30
0.0
 40
7494.999934016048
100
AcDbArc
 50
89.09049987792967
 51
90.9095001220703
  0
ARC
  5
48F
330
1F
100
AcDbEntity
  8
仕上
  6
Continuous
 62
     3
370
     9
100
AcDbCircle
 10
0.0
 20
-7843.830180327494
 30
0.0
 40
7487.000501478042
100
AcDbArc
 50
89.49893188476564
 51
90.50106811523439
  0
ARC
  5
490
330
1F
100
AcDbEntity
  8
仕上
  6
Continuous
 62
     3
370
     9
100
AcDbCircle
 10
0.0
 20
-7843.830180327494
 30
0.0
 40
7494.999934016048
100
AcDbArc
 50
91.60610961914062
 51
91.8885498046875
  0
ARC
  5
491
330
1F
100
AcDbEntity
  8
仕上
  6
Continuous
 62
     3
370
     9
100
AcDbCircle
 10
-269.8040029164907
 20
-361.2457868519863
 30
0.0
 40
1.499999995167191
100
AcDbArc
 50
7.999755859375007
 51
90.00000000000001
  0
ARC
  5
492
330
1F
100
AcDbEntity
  8
仕上
  6
Continuous
 62
     3
370
     9
100
AcDbCircle
 10
-249.0623597841005
 20
-397.1438119522819
 30
0.0
 40
5.000000547718358
100
AcDbArc
 50
85.32493591308597
 51
176.3230438232422
  0
ARC
  5
493
330
1F
100
AcDbEntity
  8
仕上
  6
Continuous
 62
     3
370
     9
100
AcDbCircle
 10
-247.0551403148754
 20
-365.9097120228848
 30
0.0
 40
5.000000547718358
100
AcDbArc
 50
91.892318725586
 51
176.3230438232422
  0
ARC
  5
494
330
1F
100
AcDbEntity
  8
仕上
  6
Continuous
 62
     3
370
     9
100
AcDbCircle
 10
-80.56755684517532
 20
-404.8296083291031
 30
0.0
 40
1.000000024969514
100
AcDbArc
 50
184.000259399414
 51
270.0
  0
ARC
  5
495
330
1F
100
AcDbEntity
  8
仕上
  6
Continuous
 62
     3
370
     9
100
AcDbCircle
 10
-74.43262048669763
 20
-404.8296083291031
 30
0.0
 40
1.000000024969514
100
AcDbArc
 50
270.0
 51
355.9997406005859
  0
ARC
  5
496
330
1F
100
AcDbEntity
  8
仕上
  6
Continuous
 62
     3
370
     9
100
AcDbCircle
 10
-89.55150294948265
 20
-362.3653592594768
 30
0.0
 40
5.000000547718358
100
AcDbArc
 50
3.999893188476569
 51
89.66047668457033
  0
ARC
  5
497
330
1F
100
AcDbEntity
  8
仕上
  6
Continuous
 62
     3
370
     9
100
AcDbCircle
 10
65.43109378299192
 20
-362.1155935025089
 30
0.0
 40
5.000000547718358
100
AcDbArc
 50
4.000045776367182
 51
89.4940948486328
  0
ARC
  5
498
330
1F
100
AcDbEntity
  8
仕上
  6
Continuous
 62
     3
370
     9
100
AcDbCircle
 10
0.0
 20
-7843.830180327494
 30
0.0
 40
7494.999934016048
100
AcDbArc
 50
88.11145019531251
 51
88.3938903808594
  0
ARC
  5
499
330
1F
100
AcDbEntity
  8
仕上
  6
Continuous
 62
     3
370
     9
100
AcDbCircle
 10
269.8040029164907
 20
-361.2457868519863
 30
0.0
 40
1.499999995167191
100
AcDbArc
 50
90.0
 51
172.000244140625
  0
ARC
  5
49A
330
1F
100
AcDbEntity
  8
仕上
  6
Continuous
 62
     3
370
     9
100
AcDbCircle
 10
249.0625329919763
 20
-397.1438119522819
 30
0.0
 40
5.000000547718358
100
AcDbArc
 50
3.676956176757812
 51
94.67506408691406
  0
ARC
  5
49B
330
1F
100
AcDbEntity
  8
仕上
  6
Continuous
 62
     3
370
     9
100
AcDbCircle
 10
247.0553135227512
 20
-365.9097120228848
 30
0.0
 40
5.000000547718358
100
AcDbArc
 50
3.676956176757812
 51
88.10768127441406
  0
ARC
  5
49C
330
1F
100
AcDbEntity
  8
仕上
  6
Continuous
 62
     3
370
     9
100
AcDbCircle
 10
80.56747024123729
 20
-404.8296083291031
 30
0.0
 40
1.000000024969514
100
AcDbArc
 50
270.0
 51
355.9997406005859
  0
ARC
  5
49D
330
1F
100
AcDbEntity
  8
仕上
  6
Continuous
 62
     3
370
     9
100
AcDbCircle
 10
74.4325338827596
 20
-404.8296083291031
 30
0.0
 40
1.000000024969514
100
AcDbArc
 50
184.000259399414
 51
270.0
  0
ARC
  5
49E
330
1F
100
AcDbEntity
  8
仕上
  6
Continuous
 62
     3
370
     9
100
AcDbCircle
 10
89.55141634554482
 20
-362.3653592594768
 30
0.0
 40
5.000000547718358
100
AcDbArc
 50
90.33952331542969
 51
176.0001068115235
  0
ARC
  5
49F
330
1F
100
AcDbEntity
  8
躯体
  6
Continuous
 62
     2
370
     9
100
AcDbCircle
 10
286.7290971085831
 20
-400.746016146222
 30
0.0
 40
4.000000099878054
100
AcDbArc
 50
184.0132141113281
 51
270.0014190673828
  0
ARC
  5
4A0
330
1F
100
AcDbEntity
  8
躯体
  6
Continuous
 62
     2
370
     9
100
AcDbCircle
 10
-318.1326376425254
 20
-405.7458346903521
 30
0.0
 40
1.000000024969514
100
AcDbArc
 50
90.0
 51
171.8692932128906
  0
ARC
  5
4A1
330
1F
100
AcDbEntity
  8
躯体
  6
JWW_DASHED1
 62
     2
370
     9
100
AcDbCircle
 10
-309.4143058158256
 20
-405.7458346903521
 30
0.0
 40
1.000000024969514
100
AcDbArc
 50
45.0
 51
90.0
  0
ARC
  5
4A2
330
1F
100
AcDbEntity
  8
躯体
  6
JWW_DASHED1
 62
     2
370
     9
100
AcDbCircle
 10
-306.5858212032834
 20
-405.7458346903521
 30
0.0
 40
1.000000024969514
100
AcDbArc
 50
225.0000000000001
 51
270.0000000000001
  0
ARC
  5
4A3
330
1F
100
AcDbEntity
  8
躯体
  6
JWW_DASHED1
 62
     2
370
     9
100
AcDbCircle
 10
-294.4143305598079
 20
-405.7458346903521
 30
0.0
 40
1.000000024969514
100
AcDbArc
 50
270.0
 51
315.0
  0
ARC
  5
4A4
330
1F
100
AcDbEntity
  8
躯体
  6
JWW_DASHED1
 62
     2
370
     9
100
AcDbCircle
 10
-291.5858459472657
 20
-405.7458346903521
 30
0.0
 40
1.000000024969514
100
AcDbArc
 50
90.0
 51
135.0
  0
ARC
  5
4A5
330
1F
100
AcDbEntity
  8
躯体
  6
Continuous
 62
     2
370
     9
100
AcDbCircle
 10
-286.7290971085833
 20
-400.746016146222
 30
0.0
 40
4.000000099878054
100
AcDbArc
 50
269.9985809326172
 51
355.9867858886719
  0
ARC
  5
4A6
330
1F
100
AcDbEntity
  8
建具
  6
Continuous
 62
     6
370
     9
100
AcDbCircle
 10
-264.3570482408679
 20
-374.2459039735024
 30
0.0
 40
5.999999980668765
100
AcDbArc
 50
90.0
 51
175.6476745605469
  0
ARC
  5
4A7
330
1F
100
AcDbEntity
  8
建具
  6
Continuous
 62
     6
370
     9
100
AcDbCircle
 10
-262.5298783585833
 20
-387.2458911891115
 30
0.0
 40
5.999999980668765
100
AcDbArc
 50
200.3499908447266
 51
270.0000000000001
  0
ARC
  5
4A8
330
1F
100
AcDbEntity
  8
建具
  6
Continuous
 62
     6
370
     9
100
AcDbCircle
 10
266.3631418588999
 20
-370.7460223322175
 30
0.0
 40
0.5000000124847568
100
AcDbArc
 50
352.0023803710938
 51
90.0
  0
ARC
  5
4A9
330
1F
100
AcDbEntity
  8
建具
  6
Continuous
 62
     6
370
     9
100
AcDbCircle
 10
263.5524976575697
 20
-390.7459027363032
 30
0.0
 40
0.5000000124847568
100
AcDbArc
 50
270.0
 51
351.9911346435547
  0
ARC
  5
4AA
330
1F
100
AcDbEntity
  8
建具
  6
Continuous
 62
     6
370
     9
100
AcDbCircle
 10
264.3570482408678
 20
-374.2459039735024
 30
0.0
 40
5.999999980668765
100
AcDbArc
 50
4.352325439453136
 51
90.00000000000001
  0
ARC
  5
4AB
330
1F
100
AcDbEntity
  8
建具
  6
Continuous
 62
     6
370
     9
100
AcDbCircle
 10
262.5297917546453
 20
-387.2458911891115
 30
0.0
 40
5.999999980668765
100
AcDbArc
 50
270.0
 51
339.6500091552734
  0
ARC
  5
4AC
330
1F
100
AcDbEntity
  8
建具
  6
Continuous
 62
     6
370
     9
100
AcDbCircle
 10
-189.0117954563451
 20
-350.1604827979323
 30
0.0
 40
2.999999990334382
100
AcDbArc
 50
91.22959899902344
 51
181.2295989990234
  0
ARC
  5
4AD
330
1F
100
AcDbEntity
  8
建具
  6
Continuous
 62
     6
370
     9
100
AcDbCircle
 10
-133.02442808409
 20
-348.9588964612294
 30
0.0
 40
2.999999990334382
100
AcDbArc
 50
1.229598999023434
 51
91.22959899902344
  0
ARC
  5
4AE
330
1F
100
AcDbEntity
  8
仕上
  6
Continuous
 62
     3
370
     9
100
AcDbCircle
 10
0.0
 20
-7843.830180327494
 30
0.0
 40
7499.999406144426
100
AcDbArc
 50
91.3836517333985
 51
92.07455444335943
  0
ARC
  5
4AF
330
1F
100
AcDbEntity
  8
仕上
  6
Continuous
 62
     3
370
     9
100
AcDbCircle
 10
160.5815413191511
 20
-370.0602057478109
 30
0.0
 40
24.99999935562547
100
AcDbArc
 50
178.7705383300781
 51
257.2335052490234
  0
ARC
  5
4B0
330
1F
100
AcDbEntity
  8
仕上
  6
Continuous
 62
     3
370
     9
100
AcDbCircle
 10
160.5815413191511
 20
-370.0602057478109
 30
0.0
 40
24.99999935562547
100
AcDbArc
 50
280.3075561523438
 51
358.7705841064453
  0
ARC
  5
4B1
330
1F
100
AcDbEntity
  8
建具
  6
Continuous
 62
     6
370
     9
100
AcDbCircle
 10
189.0117954563449
 20
-350.1604827979323
 30
0.0
 40
2.999999990334382
100
AcDbArc
 50
358.7697448730469
 51
88.76974487304688
  0
ARC
  5
4B2
330
1F
100
AcDbEntity
  8
建具
  6
Continuous
 62
     6
370
     9
100
AcDbCircle
 10
133.0245146880278
 20
-348.9588964612294
 30
0.0
 40
2.999999990334382
100
AcDbArc
 50
88.76974487304688
 51
178.7697448730469
  0
ARC
  5
4B3
330
1F
100
AcDbEntity
  8
仕上
  6
Continuous
 62
     3
370
     9
100
AcDbCircle
 10
0.0
 20
-7843.830180327494
 30
0.0
 40
7499.999406144426
100
AcDbArc
 50
87.92544555664061
 51
88.61634826660155
  0
ARC
  5
4B4
330
1F
100
AcDbEntity
  8
仕上
  6
Continuous
 62
     3
370
     9
100
AcDbCircle
 10
0.0
 20
-7843.830180327494
 30
0.0
 40
7499.999406144426
100
AcDbArc
 50
88.92192077636719
 51
91.07807922363281
  0
ARC
  5
4B5
330
1F
100
AcDbEntity
  8
仕上
  6
Continuous
 62
     3
370
     9
100
AcDbCircle
 10
160.5815413191511
 20
-370.0602057478109
 30
0.0
 40
32.99999752560178
100
AcDbArc
 50
278.8078308105469
 51
358.7705841064453
  0
ARC
  5
4B6
330
1F
100
AcDbEntity
  8
仕上
  6
Continuous
 62
     3
370
     9
100
AcDbCircle
 10
160.5815413191511
 20
-370.0602057478109
 30
0.0
 40
32.99999752560178
100
AcDbArc
 50
178.7705383300781
 51
258.7323760986328
  0
ARC
  5
4B7
330
1F
100
AcDbEntity
  8
仕上
  6
Continuous
 62
     3
370
     9
100
AcDbCircle
 10
119.6636055611276
 20
-365.7870375448178
 30
0.0
 40
8.000000199756109
100
AcDbArc
 50
358.7706909179688
 51
89.08334350585936
  0
ARC
  5
4B8
330
1F
100
AcDbEntity
  8
仕上
  6
Continuous
 62
     3
370
     9
100
AcDbCircle
 10
0.0
 20
-7843.830180327494
 30
0.0
 40
7487.000501478042
100
AcDbArc
 50
89.08323669433595
 51
89.31489562988283
  0
ARC
  5
4B9
330
1F
100
AcDbEntity
  8
仕上
  6
Continuous
 62
     3
370
     9
100
AcDbCircle
 10
201.6447118810706
 20
-367.5492111716918
 30
0.0
 40
8.000000199756109
100
AcDbArc
 50
88.45484924316405
 51
178.7706909179688
  0
ARC
  5
4BA
330
1F
100
AcDbEntity
  8
仕上
  6
Continuous
 62
     3
370
     9
100
AcDbCircle
 10
0.0
 20
-7843.830180327494
 30
0.0
 40
7487.000501478042
100
AcDbArc
 50
88.10775756835938
 51
88.4550323486328
  0
ARC
  5
4BB
330
1F
100
AcDbEntity
  8
仕上
  6
Continuous
 62
     3
370
     9
100
AcDbCircle
 10
-160.5815413191513
 20
-370.0602057478109
 30
0.0
 40
24.99999935562547
100
AcDbArc
 50
282.7664947509766
 51
1.22946166992188
  0
ARC
  5
4BC
330
1F
100
AcDbEntity
  8
仕上
  6
Continuous
 62
     3
370
     9
100
AcDbCircle
 10
-160.5815413191513
 20
-370.0602057478109
 30
0.0
 40
24.99999935562547
100
AcDbArc
 50
181.2294158935547
 51
259.6924438476562
  0
ARC
  5
4BD
330
1F
100
AcDbEntity
  8
仕上
  6
Continuous
 62
     3
370
     9
100
AcDbCircle
 10
-160.5815413191513
 20
-370.0602057478109
 30
0.0
 40
32.99999752560178
100
AcDbArc
 50
181.2294158935547
 51
261.1921691894531
  0
ARC
  5
4BE
330
1F
100
AcDbEntity
  8
仕上
  6
Continuous
 62
     3
370
     9
100
AcDbCircle
 10
-160.5815413191513
 20
-370.0602057478109
 30
0.0
 40
32.99999752560178
100
AcDbArc
 50
281.2676239013672
 51
1.22946166992188
  0
ARC
  5
4BF
330
1F
100
AcDbEntity
  8
仕上
  6
Continuous
 62
     3
370
     9
100
AcDbCircle
 10
-119.6636921650654
 20
-365.7870375448178
 30
0.0
 40
8.000000199756109
100
AcDbArc
 50
90.91665649414062
 51
181.2293090820312
  0
ARC
  5
4C0
330
1F
100
AcDbEntity
  8
仕上
  6
Continuous
 62
     3
370
     9
100
AcDbCircle
 10
-201.6447118810706
 20
-367.5492111716918
 30
0.0
 40
8.000000199756109
100
AcDbArc
 50
1.229309082031241
 51
91.54515075683594
  0
ARC
  5
4C1
330
1F
100
AcDbEntity
  8
仕上
  6
Continuous
 62
     3
370
     9
100
AcDbCircle
 10
0.0
 20
-7843.830180327494
 30
0.0
 40
7487.000501478042
100
AcDbArc
 50
91.54496765136719
 51
91.89224243164068
  0
ARC
  5
4C2
330
1F
100
AcDbEntity
  8
仕上
  6
Continuous
 62
     3
370
     9
100
AcDbCircle
 10
0.0
 20
-7843.830180327494
 30
0.0
 40
7487.000501478042
100
AcDbArc
 50
90.68510437011724
 51
90.91676330566406
  0
ARC
  5
4C3
330
1F
100
AcDbEntity
  8
躯体
  6
Continuous
 62
     2
370
     9
100
AcDbCircle
 10
-282.7014943715689
 20
-371.9220605072334
 30
0.0
 40
2.000000049939027
100
AcDbArc
 50
318.1521606445312
 51
355.9854736328125
  0
ARC
  5
4C4
330
1F
100
AcDbEntity
  8
躯体
  6
Continuous
 62
     2
370
     9
100
AcDbCircle
 10
282.7014943715689
 20
-371.9220605072334
 30
0.0
 40
2.000000049939027
100
AcDbArc
 50
184.0145263671875
 51
221.8478393554688
  0
TEXT
  5
4C5
330
1F
100
AcDbEntity
  8
その他
  6
Continuous
 62
     2
370
     0
100
AcDbText
 10
115.9132162558066
 20
639.723639787055
 30
0.0
 40
21.336
  1
反対側鋳出は ＫＡＮＥＳＯ
 41
1.115
  7
ＭＳ ゴシック
100
AcDbText
  0
TEXT
  5
4C6
330
1F
100
AcDbEntity
  8
その他
  6
Continuous
 62
     6
370
     0
100
AcDbText
 10
36.17681703309741
 20
-68.14187419494455
 30
0.0
 40
21.336
  1
４－１５×２５
 41
0.792857142857143
  7
ＭＳ ゴシック
100
AcDbText
  0
TEXT
  5
4C7
330
1F
100
AcDbEntity
  8
0-E
  6
Continuous
 62
     6
370
     0
100
AcDbText
 10
347.7140451792124
 20
-242.2996220306708
 30
0.0
 40
21.336
  1
枠：ＦＣ２００
 41
0.7928571428571427
  7
ＭＳ ゴシック
100
AcDbText
  0
TEXT
  5
4C8
330
1F
100
AcDbEntity
  8
0-E
  6
Continuous
 62
     6
370
     0
100
AcDbText
 10
372.2797717944995
 20
-158.1513387681603
 30
0.0
 40
21.336
  1
蓋：ＦＣ２００
 41
0.7928571428571431
  7
ＭＳ ゴシック
100
AcDbText
  0
TEXT
  5
4C9
330
1F
100
AcDbEntity
  8
0-E
  6
Continuous
 62
     6
370
     0
100
AcDbText
 10
394.6796851905617
 20
-193.1512810322016
 30
0.0
 40
21.336
  1
樹脂系塗装
 41
0.7900000000000001
  7
ＭＳ ゴシック
100
AcDbText
  0
TEXT
  5
4CA
330
1F
100
AcDbEntity
  8
0-E
  6
Continuous
 62
     6
370
     0
100
AcDbText
 10
364.9423178183066
 20
-277.2996508986502
 30
0.0
 40
21.336
  1
樹脂系塗装
 41
0.7899999999999996
  7
ＭＳ ゴシック
100
AcDbText
  0
TEXT
  5
4CB
330
1F
100
AcDbEntity
  8
その他
  6
Continuous
 62
     4
370
     0
100
AcDbText
 10
68.12005534633818
 20
522.4713723687112
 30
0.0
 40
13.335
  1
Ｋ
 50
163.29907192999
 41
1.000000000000001
  7
ＭＳ ゴシック
100
AcDbText
  0
TEXT
  5
4CC
330
1F
100
AcDbEntity
  8
その他
  6
Continuous
 62
     4
370
     0
100
AcDbText
 10
51.02045320234033
 20
526.8309743171176
 30
0.0
 40
13.335
  1
Ｃ
 50
167.4993636789498
 41
1.0
  7
ＭＳ ゴシック
100
AcDbText
  0
TEXT
  5
4CD
330
1F
100
AcDbEntity
  8
その他
  6
Continuous
 62
     4
370
     0
100
AcDbText
 10
84.85471721584221
 20
516.871446202808
 30
0.0
 40
13.335
  1
Ｍ
 50
159.1005729008279
 41
0.9999999999999988
  7
ＭＳ ゴシック
100
AcDbText
  0
TEXT
  5
4CE
330
1F
100
AcDbEntity
  8
その他
  6
Continuous
 62
     4
370
     0
100
AcDbText
 10
-36.7002153099493
 20
529.4382296314209
 30
0.0
 40
13.335
  1
５
 50
188.5000609600428
 41
0.999999999999999
  7
ＭＳ ゴシック
100
AcDbText
  0
TEXT
  5
4CF
330
1F
100
AcDbEntity
  8
その他
  6
Continuous
 62
     4
370
     0
100
AcDbText
 10
-54.02837164573177
 20
526.1022634856828
 30
0.0
 40
13.335
  1
０
 50
192.700542880697
 41
0.999999999999999
  7
ＭＳ ゴシック
100
AcDbText
  0
TEXT
  5
4D0
330
1F
100
AcDbEntity
  8
その他
  6
Continuous
 62
     4
370
     0
100
AcDbText
 10
-71.06611027551223
 20
521.505782897393
 30
0.0
 40
13.335
  1
０
 50
196.8994316927014
 41
1.000000000000001
  7
ＭＳ ゴシック
100
AcDbText
  0
TEXT
  5
4D1
330
1F
100
AcDbEntity
  8
その他
  6
Continuous
 62
     4
370
     0
100
AcDbText
 10
-19.17379473283139
 20
531.4963970307844
 30
0.0
 40
13.335
  1
－
 50
184.3003220194497
 41
1.0
  7
ＭＳ ゴシック
100
AcDbText
  0
TEXT
  5
4D2
330
1F
100
AcDbEntity
  8
その他
  6
Continuous
 62
     4
370
     0
100
AcDbText
 10
33.6473568704435
 20
529.9266325116014
 30
0.0
 40
13.335
  1
Ｙ
 50
171.6999966517902
 41
1.000000000000001
  7
ＭＳ ゴシック
100
AcDbText
  0
TEXT
  5
4D3
330
1F
100
AcDbEntity
  8
その他
  6
Continuous
 62
     4
370
     0
100
AcDbText
 10
16.09455437697058
 20
531.7411992943922
 30
0.0
 40
13.335
  1
－
 50
175.8998379448506
 41
1.000000000000001
  7
ＭＳ ゴシック
100
AcDbText
  0
TEXT
  5
4D4
330
1F
100
AcDbEntity
  8
その他
  6
Continuous
 62
     3
370
     0
100
AcDbText
 10
-38.84991339606215
 20
-205.6419937908588
 30
0.0
 40
21.336
  1
φ６４０
 41
0.6937500000000002
  7
ＭＳ ゴシック
100
AcDbText
  0
TEXT
  5
4D5
330
1F
100
AcDbEntity
  8
その他
  6
Continuous
 62
     3
370
     0
100
AcDbText
 10
-38.85008660393791
 20
-261.6420053380505
 30
0.0
 40
21.336
  1
φ５４３
 41
0.6937500000000002
  7
ＭＳ ゴシック
100
AcDbText
  0
TEXT
  5
4D6
330
1F
100
AcDbEntity
  8
その他
  6
Continuous
 62
     3
370
     0
100
AcDbText
 10
429.0518573097023
 20
250.3602214817869
 30
0.0
 40
21.336
  1
６０２
 50
90.0
 41
0.691666666666667
  7
ＭＳ ゴシック
100
AcDbText
  0
TEXT
  5
4D7
330
1F
100
AcDbEntity
  8
その他
  6
Continuous
 62
     3
370
     0
100
AcDbText
 10
40.96722711676509
 20
-392.9887663243786
 30
0.0
 40
21.336
  1
８
 50
90.0
 41
0.6750000000000007
  7
ＭＳ ゴシック
100
AcDbText
  0
TEXT
  5
4D8
330
1F
100
AcDbEntity
  8
その他
  6
Continuous
 62
     3
370
     0
100
AcDbText
 10
42.01340268686659
 20
-328.1258809780949
 30
0.0
 40
21.336
  1
５
 50
90.0
 41
0.6750000000000007
  7
ＭＳ ゴシック
100
AcDbText
  0
TEXT
  5
4D9
330
1F
100
AcDbEntity
  8
その他
  6
Continuous
 62
     4
370
     0
100
AcDbText
 10
-1.544154653767237
 20
532.2654239146998
 30
0.0
 40
13.335
  1
６
 50
180.1003750461376
  7
ＭＳ ゴシック
100
AcDbText
  0
LWPOLYLINE
  5
4DA
330
1F
100
AcDbEntity
  8
その他
  6
Continuous
 62
     7
370
     9
100
AcDbPolyline
 90
        4
 70
     1
 43
0.7000000000000001
 10
48.28233510610216
 20
-348.9834053756614
 42
0.4142135623731
 10
47.93233510610216
 20
-348.6334053756614
 42
0.4142135623731
 10
47.58233510610216
 20
-348.9834053756614
 42
0.4142135623731
 10
47.93233510610216
 20
-349.3334053756614
 42
0.4142135623731
  0
LINE
  5
4DB
330
1F
100
AcDbEntity
  8
仕上
  6
Continuous
 62
     3
370
     9
100
AcDbLine
 10
-17.00000659839526
 20
108.4096202030179
 30
0.0
 11
17.00000659839526
 21
108.4096202030179
 31
0.0
  0
LINE
  5
4DC
330
1F
100
AcDbEntity
  8
仕上
  6
Continuous
 62
     3
370
     9
100
AcDbLine
 10
17.00000659839526
 20
108.4096202030179
 30
0.0
 11
17.00000659839526
 21
95.40976289331559
 31
0.0
  0
LINE
  5
4DD
330
1F
100
AcDbEntity
  8
仕上
  6
Continuous
 62
     3
370
     9
100
AcDbLine
 10
-17.00000659839526
 20
108.4096202030179
 30
0.0
 11
-17.00000659839526
 21
95.40976289331559
 31
0.0
  0
LINE
  5
4DE
330
1F
100
AcDbEntity
  8
仕上
  6
Continuous
 62
     3
370
     9
100
AcDbLine
 10
-17.00000659839526
 20
95.40976289331559
 30
0.0
 11
17.00000659839526
 21
95.40976289331559
 31
0.0
  0
ARC
  5
4DF
330
1F
100
AcDbEntity
  8
仕上
  6
Continuous
 62
     3
370
     9
100
AcDbCircle
 10
0.0
 20
38.8580842615589
 30
0.0
 40
59.05160955480628
100
AcDbArc
 50
73.26866149902342
 51
106.7313385009765
  0
ARC
  5
4E0
330
1F
100
AcDbEntity
  8
仕上
  6
Continuous
 62
     3
370
     9
100
AcDbCircle
 10
0.0
 20
164.9612988347747
 30
0.0
 40
59.05160955480628
100
AcDbArc
 50
253.2686614990234
 51
286.7313385009766
  0
LINE
  5
4E1
330
1F
100
AcDbEntity
  8
仕上
  6
Continuous
 62
     3
370
     9
100
AcDbLine
 10
-41.99996535842479
 20
295.4094329735522
 30
0.0
 11
-41.99996535842479
 21
313.4098016588879
 31
0.0
  0
LINE
  5
4E2
330
1F
100
AcDbEntity
  8
仕上
  6
Continuous
 62
     3
370
     9
100
AcDbLine
 10
-49.99991752005926
 20
295.4094329735522
 30
0.0
 11
-49.99991752005926
 21
313.4098016588879
 31
0.0
  0
LINE
  5
4E3
330
1F
100
AcDbEntity
  8
仕上
  6
Continuous
 62
     3
370
     9
100
AcDbLine
 10
-49.99991752005926
 20
313.4098016588879
 30
0.0
 11
-41.99996535842479
 21
313.4098016588879
 31
0.0
  0
LINE
  5
4E4
330
1F
100
AcDbEntity
  8
仕上
  6
Continuous
 62
     3
370
     9
100
AcDbLine
 10
-49.99991752005926
 20
295.4094329735522
 30
0.0
 11
-41.99996535842479
 21
295.4094329735522
 31
0.0
  0
LINE
  5
4E5
330
1F
100
AcDbEntity
  8
仕上
  6
Continuous
 62
     3
370
     9
100
AcDbLine
 10
41.99996535842479
 20
295.4094329735522
 30
0.0
 11
41.99996535842479
 21
313.4098016588879
 31
0.0
  0
LINE
  5
4E6
330
1F
100
AcDbEntity
  8
仕上
  6
Continuous
 62
     3
370
     9
100
AcDbLine
 10
50.00009072793492
 20
295.4094329735522
 30
0.0
 11
50.00009072793492
 21
313.4098016588879
 31
0.0
  0
LINE
  5
4E7
330
1F
100
AcDbEntity
  8
仕上
  6
Continuous
 62
     3
370
     9
100
AcDbLine
 10
50.00009072793492
 20
313.4098016588879
 30
0.0
 11
41.99996535842479
 21
313.4098016588879
 31
0.0
  0
LINE
  5
4E8
330
1F
100
AcDbEntity
  8
仕上
  6
Continuous
 62
     3
370
     9
100
AcDbLine
 10
50.00009072793492
 20
295.4094329735522
 30
0.0
 11
41.99996535842479
 21
295.4094329735522
 31
0.0
  0
LINE
  5
4E9
330
1F
100
AcDbEntity
  8
仕上
  6
Continuous
 62
     3
370
     9
100
AcDbLine
 10
-36.99997360641896
 20
295.4094329735522
 30
0.0
 11
-36.99997360641896
 21
313.4098016588879
 31
0.0
  0
LINE
  5
4EA
330
1F
100
AcDbEntity
  8
仕上
  6
Continuous
 62
     3
370
     9
100
AcDbLine
 10
-36.99997360641896
 20
313.4098016588879
 30
0.0
 11
-8.99988122888513
 21
313.4098016588879
 31
0.0
  0
LINE
  5
4EB
330
1F
100
AcDbEntity
  8
仕上
  6
Continuous
 62
     3
370
     9
100
AcDbLine
 10
-36.99997360641896
 20
295.4094329735522
 30
0.0
 11
-8.99988122888513
 21
295.4094329735522
 31
0.0
  0
LINE
  5
4EC
330
1F
100
AcDbEntity
  8
仕上
  6
Continuous
 62
     3
370
     9
100
AcDbLine
 10
-8.99988122888513
 20
295.4094329735522
 30
0.0
 11
-8.99988122888513
 21
313.4098016588879
 31
0.0
  0
LINE
  5
4ED
330
1F
100
AcDbEntity
  8
仕上
  6
Continuous
 62
     3
370
     9
100
AcDbLine
 10
36.99997360641896
 20
295.4094329735522
 30
0.0
 11
36.99997360641896
 21
313.4098016588879
 31
0.0
  0
LINE
  5
4EE
330
1F
100
AcDbEntity
  8
仕上
  6
Continuous
 62
     3
370
     9
100
AcDbLine
 10
36.99997360641896
 20
313.4098016588879
 30
0.0
 11
8.99988122888513
 21
313.4098016588879
 31
0.0
  0
LINE
  5
4EF
330
1F
100
AcDbEntity
  8
仕上
  6
Continuous
 62
     3
370
     9
100
AcDbLine
 10
8.99988122888513
 20
295.4094329735522
 30
0.0
 11
8.99988122888513
 21
313.4098016588879
 31
0.0
  0
LINE
  5
4F0
330
1F
100
AcDbEntity
  8
仕上
  6
Continuous
 62
     3
370
     9
100
AcDbLine
 10
36.99997360641896
 20
295.4094329735522
 30
0.0
 11
8.99988122888513
 21
295.4094329735522
 31
0.0
  0
LINE
  5
4F1
330
1F
100
AcDbEntity
  8
仕上
  6
Continuous
 62
     3
370
     9
100
AcDbLine
 10
-3.999802872941274
 20
295.4098659932417
 30
0.0
 11
-3.999802872941274
 21
313.4098882628259
 31
0.0
  0
LINE
  5
4F2
330
1F
100
AcDbEntity
  8
仕上
  6
Continuous
 62
     3
370
     9
100
AcDbLine
 10
-3.999802872941274
 20
313.4098882628259
 30
0.0
 11
3.999889476879105
 21
313.4098882628259
 31
0.0
  0
LINE
  5
4F3
330
1F
100
AcDbEntity
  8
仕上
  6
Continuous
 62
     3
370
     9
100
AcDbLine
 10
-3.999802872941274
 20
295.4098659932417
 30
0.0
 11
3.999889476879105
 21
295.4098659932417
 31
0.0
  0
LINE
  5
4F4
330
1F
100
AcDbEntity
  8
仕上
  6
Continuous
 62
     3
370
     9
100
AcDbLine
 10
3.999889476879105
 20
295.4098659932417
 30
0.0
 11
3.999889476879105
 21
313.4098882628259
 31
0.0
  0
LINE
  5
4F5
330
1F
100
AcDbEntity
  8
仕上
  6
Continuous
 62
     3
370
     9
100
AcDbLine
 10
83.00008825353675
 20
295.4101258050555
 30
0.0
 11
55.00008247994074
 21
295.4101258050555
 31
0.0
  0
LINE
  5
4F6
330
1F
100
AcDbEntity
  8
仕上
  6
Continuous
 62
     3
370
     9
100
AcDbLine
 10
83.00008825353675
 20
313.4098016588879
 30
0.0
 11
55.00008247994074
 21
313.4098016588879
 31
0.0
  0
LINE
  5
4F7
330
1F
100
AcDbEntity
  8
仕上
  6
Continuous
 62
     3
370
     9
100
AcDbLine
 10
55.00008247994074
 20
295.4101258050555
 30
0.0
 11
55.00008247994074
 21
313.4098016588879
 31
0.0
  0
LINE
  5
4F8
330
1F
100
AcDbEntity
  8
仕上
  6
Continuous
 62
     3
370
     9
100
AcDbLine
 10
-82.99974183778502
 20
295.4101258050555
 30
0.0
 11
-55.00008247994094
 21
295.4101258050555
 31
0.0
  0
LINE
  5
4F9
330
1F
100
AcDbEntity
  8
仕上
  6
Continuous
 62
     3
370
     9
100
AcDbLine
 10
-82.99974183778502
 20
313.4098016588879
 30
0.0
 11
-55.00008247994094
 21
313.4098016588879
 31
0.0
  0
LINE
  5
4FA
330
1F
100
AcDbEntity
  8
仕上
  6
Continuous
 62
     3
370
     9
100
AcDbLine
 10
-55.00008247994094
 20
295.4101258050555
 30
0.0
 11
-55.00008247994094
 21
313.4098016588879
 31
0.0
  0
LINE
  5
4FB
330
1F
100
AcDbEntity
  8
仕上
  6
Continuous
 62
     3
370
     9
100
AcDbLine
 10
-65.99990844739818
 20
288.4100161067342
 30
0.0
 11
-65.99990844739818
 21
279.4099616699732
 31
0.0
  0
LINE
  5
4FC
330
1F
100
AcDbEntity
  8
仕上
  6
Continuous
 62
     3
370
     9
100
AcDbLine
 10
-25.99980122739819
 20
288.4100161067342
 30
0.0
 11
-25.99980122739819
 21
279.4099616699732
 31
0.0
  0
LINE
  5
4FD
330
1F
100
AcDbEntity
  8
仕上
  6
Continuous
 62
     3
370
     9
100
AcDbLine
 10
-65.99990844739818
 20
288.4100161067342
 30
0.0
 11
-25.99980122739819
 21
288.4100161067342
 31
0.0
  0
LINE
  5
4FE
330
1F
100
AcDbEntity
  8
仕上
  6
Continuous
 62
     3
370
     9
100
AcDbLine
 10
-19.9997072003982
 20
288.4100161067342
 30
0.0
 11
-19.9997072003982
 21
279.4099616699732
 31
0.0
  0
LINE
  5
4FF
330
1F
100
AcDbEntity
  8
仕上
  6
Continuous
 62
     3
370
     9
100
AcDbLine
 10
20.00040001960178
 20
288.4100161067342
 30
0.0
 11
20.00040001960178
 21
279.4099616699732
 31
0.0
  0
LINE
  5
500
330
1F
100
AcDbEntity
  8
仕上
  6
Continuous
 62
     3
370
     9
100
AcDbLine
 10
-19.9997072003982
 20
288.4100161067342
 30
0.0
 11
20.00040001960178
 21
288.4100161067342
 31
0.0
  0
LINE
  5
501
330
1F
100
AcDbEntity
  8
仕上
  6
Continuous
 62
     3
370
     9
100
AcDbLine
 10
26.00049404660178
 20
288.4100161067342
 30
0.0
 11
26.00049404660178
 21
279.4099616699732
 31
0.0
  0
LINE
  5
502
330
1F
100
AcDbEntity
  8
仕上
  6
Continuous
 62
     3
370
     9
100
AcDbLine
 10
66.00060126660176
 20
288.4100161067342
 30
0.0
 11
66.00060126660176
 21
279.4099616699732
 31
0.0
  0
LINE
  5
503
330
1F
100
AcDbEntity
  8
仕上
  6
Continuous
 62
     3
370
     9
100
AcDbLine
 10
26.00049404660178
 20
288.4100161067342
 30
0.0
 11
66.00060126660176
 21
288.4100161067342
 31
0.0
  0
LINE
  5
504
330
1F
100
AcDbEntity
  8
建具
  6
Continuous
 62
     4
370
     9
100
AcDbLine
 10
-3.500184755067664
 20
-379.166869632153
 30
0.0
 11
-3.500184755067664
 21
-401.8308170726354
 31
0.0
  0
LINE
  5
505
330
1F
100
AcDbEntity
  8
建具
  6
Continuous
 62
     4
370
     9
100
AcDbLine
 10
3.499924943253774
 20
-379.166869632153
 30
0.0
 11
3.499924943253774
 21
-401.8308170726354
 31
0.0
  0
LINE
  5
506
330
1F
100
AcDbEntity
  8
建具
  6
Continuous
 62
     4
370
     9
100
AcDbLine
 10
-1.000102275126721
 20
-364.8307135603096
 30
0.0
 11
-1.000102275126721
 21
-373.8305947891948
 31
0.0
  0
LINE
  5
507
330
1F
100
AcDbEntity
  8
建具
  6
Continuous
 62
     4
370
     9
100
AcDbLine
 10
1.000015671188692
 20
-364.8307135603096
 30
0.0
 11
1.000015671188692
 21
-373.8305947891948
 31
0.0
  0
LINE
  5
508
330
1F
100
AcDbEntity
  8
建具
  6
Continuous
 62
     4
370
     9
100
AcDbLine
 10
-9.00014104069902
 20
-466.3308319190248
 30
0.0
 11
-9.00014104069902
 21
-490.3307750078656
 31
0.0
  0
LINE
  5
509
330
1F
100
AcDbEntity
  8
建具
  6
Continuous
 62
     4
370
     9
100
AcDbLine
 10
3.999976080817135
 20
-466.3308319190248
 30
0.0
 11
3.999976080817135
 21
-490.3307750078656
 31
0.0
  0
LINE
  5
50A
330
1F
100
AcDbEntity
  8
建具
  6
Continuous
 62
     4
370
     9
100
AcDbLine
 10
-4.000235892631025
 20
-466.3308319190248
 30
0.0
 11
-4.000235892631025
 21
-490.3307750078656
 31
0.0
  0
LINE
  5
50B
330
1F
100
AcDbEntity
  8
建具
  6
Continuous
 62
     4
370
     9
100
AcDbLine
 10
8.99988122888513
 20
-466.3308319190248
 30
0.0
 11
8.99988122888513
 21
-490.3307750078656
 31
0.0
  0
LINE
  5
50C
330
1F
100
AcDbEntity
  8
建具
  6
Continuous
 62
     4
370
     9
100
AcDbLine
 10
-8.99988122888513
 20
-512.7422286673356
 30
0.0
 11
8.99988122888513
 21
-507.9193419683809
 31
0.0
  0
LINE
  5
50D
330
1F
100
AcDbEntity
  8
建具
  6
Continuous
 62
     4
370
     9
100
AcDbLine
 10
-9.00014104069902
 20
-402.3308249082298
 30
0.0
 11
-9.00014104069902
 21
-426.3307679970706
 31
0.0
  0
LINE
  5
50E
330
1F
100
AcDbEntity
  8
建具
  6
Continuous
 62
     4
370
     9
100
AcDbLine
 10
3.999976080817135
 20
-402.3308249082298
 30
0.0
 11
3.999976080817135
 21
-426.3307679970706
 31
0.0
  0
LINE
  5
50F
330
1F
100
AcDbEntity
  8
建具
  6
Continuous
 62
     4
370
     9
100
AcDbLine
 10
-4.000235892631025
 20
-402.3308249082298
 30
0.0
 11
-4.000235892631025
 21
-426.3307679970706
 31
0.0
  0
LINE
  5
510
330
1F
100
AcDbEntity
  8
建具
  6
Continuous
 62
     4
370
     9
100
AcDbLine
 10
8.99988122888513
 20
-402.3308249082298
 30
0.0
 11
8.99988122888513
 21
-426.3307679970706
 31
0.0
  0
LINE
  5
511
330
1F
100
AcDbEntity
  8
建具
  6
Continuous
 62
     4
370
     9
100
AcDbLine
 10
-2.500169083878774
 20
-464.8308517142106
 30
0.0
 11
-2.500169083878774
 21
-427.8308348058227
 31
0.0
  0
LINE
  5
512
330
1F
100
AcDbEntity
  8
建具
  6
Continuous
 62
     4
370
     9
100
AcDbLine
 10
2.499909272065082
 20
-427.8308348058227
 30
0.0
 11
2.499909272065082
 21
-464.8308517142106
 31
0.0
  0
LINE
  5
513
330
1F
100
AcDbEntity
  8
建具
  6
Continuous
 62
     4
370
     9
100
AcDbLine
 10
-2.500169083878774
 20
-511.0006234757183
 30
0.0
 11
-2.500169083878774
 21
-491.8306686087419
 31
0.0
  0
LINE
  5
514
330
1F
100
AcDbEntity
  8
建具
  6
Continuous
 62
     4
370
     9
100
AcDbLine
 10
2.499909272065082
 20
-509.6609471599982
 30
0.0
 11
2.499909272065082
 21
-491.8306686087419
 31
0.0
  0
LINE
  5
515
330
1F
100
AcDbEntity
  8
仕上
  6
Continuous
 62
     3
370
     9
100
AcDbLine
 10
-8.166404930320908
 20
-356.8341389522543
 30
0.0
 11
-6.792693266997418
 21
-365.1045552120199
 31
0.0
  0
LINE
  5
516
330
1F
100
AcDbEntity
  8
仕上
  6
Continuous
 62
     3
370
     9
100
AcDbLine
 10
8.165885306693326
 20
-356.8341389522543
 30
0.0
 11
6.792693266997418
 21
-365.1045552120199
 31
0.0
  0
LINE
  5
517
330
1F
100
AcDbEntity
  8
仕上
  6
Continuous
 62
     3
370
     9
100
AcDbLine
 10
18.67561958931574
 20
-356.8529753087524
 30
0.0
 11
16.25218159443611
 21
-370.679510507892
 31
0.0
  0
LINE
  5
518
330
1F
100
AcDbEntity
  8
仕上
  6
Continuous
 62
     3
370
     9
100
AcDbLine
 10
-18.67570619325377
 20
-356.8529753087524
 30
0.0
 11
-16.25235480231217
 21
-370.6793373000161
 31
0.0
  0
ARC
  5
519
330
1F
100
AcDbEntity
  8
建具
  6
Continuous
 62
     4
370
     9
100
AcDbCircle
 10
8.499830091321769
 20
-379.166869632153
 30
0.0
 40
5.000000209421724
100
AcDbArc
 50
130.8322296142578
 51
180.0
  0
ARC
  5
51A
330
1F
100
AcDbEntity
  8
建具
  6
Continuous
 62
     4
370
     9
100
AcDbCircle
 10
-8.50008990313566
 20
-379.166869632153
 30
0.0
 40
5.000000209421724
100
AcDbArc
 50
0.0
 51
49.16777038574219
  0
ARC
  5
51B
330
1F
100
AcDbEntity
  8
建具
  6
Continuous
 62
     4
370
     9
100
AcDbCircle
 10
0.0
 20
-369.3306541747521
 30
0.0
 40
8.000000199756109
100
AcDbArc
 50
310.8321380615234
 51
229.1678619384766
  0
ARC
  5
51C
330
1F
100
AcDbEntity
  8
建具
  6
Continuous
 62
     4
370
     9
100
AcDbCircle
 10
0.0
 20
-373.0806479887566
 30
0.0
 40
1.249991679513777
100
AcDbArc
 50
216.8681945800782
 51
323.1318054199219
  0
ARC
  5
51D
330
1F
100
AcDbEntity
  8
建具
  6
Continuous
 62
     4
370
     9
100
AcDbCircle
 10
0.0
 20
-365.5807902666546
 30
0.0
 40
1.249991679513777
100
AcDbArc
 50
36.86819458007812
 51
143.1318054199219
  0
ARC
  5
51E
330
1F
100
AcDbEntity
  8
建具
  6
Continuous
 62
     4
370
     9
100
AcDbCircle
 10
0.0
 20
-369.3306541747521
 30
0.0
 40
4.500000154649889
100
AcDbArc
 50
102.8397979736328
 51
257.1602020263672
  0
ARC
  5
51F
330
1F
100
AcDbEntity
  8
建具
  6
Continuous
 62
     4
370
     9
100
AcDbCircle
 10
0.0
 20
-369.3306541747521
 30
0.0
 40
4.500000154649889
100
AcDbArc
 50
282.8397979736328
 51
77.1602020263672
  0
ARC
  5
520
330
1F
100
AcDbEntity
  8
建具
  6
Continuous
 62
     4
370
     9
100
AcDbCircle
 10
0.0
 20
-369.3306541747521
 30
0.0
 40
3.499999706809585
100
AcDbArc
 50
106.6018218994141
 51
253.398178100586
  0
ARC
  5
521
330
1F
100
AcDbEntity
  8
建具
  6
Continuous
 62
     4
370
     9
100
AcDbCircle
 10
0.0
 20
-369.3306541747521
 30
0.0
 40
3.499999706809585
100
AcDbArc
 50
286.6018218994141
 51
73.39817810058597
  0
ARC
  5
522
330
1F
100
AcDbEntity
  8
建具
  6
Continuous
 62
     4
370
     9
100
AcDbCircle
 10
0.0
 20
-401.8308170726354
 30
0.0
 40
3.499999368512953
100
AcDbArc
 50
180.0
 51
0.0
  0
ARC
  5
523
330
1F
100
AcDbEntity
  8
建具
  6
Continuous
 62
     4
370
     9
100
AcDbCircle
 10
0.0
 20
-402.3308249082298
 30
0.0
 40
8.999954300957757
100
AcDbArc
 50
0.0
 51
67.11415100097656
  0
ARC
  5
524
330
1F
100
AcDbEntity
  8
建具
  6
Continuous
 62
     4
370
     9
100
AcDbCircle
 10
0.0
 20
-402.3308249082298
 30
0.0
 40
8.999954300957757
100
AcDbArc
 50
112.8858489990234
 51
180.0
  0
ARC
  5
525
330
1F
100
AcDbEntity
  8
建具
  6
Continuous
 62
     4
370
     9
100
AcDbCircle
 10
0.0
 20
-402.3308249082298
 30
0.0
 40
3.999988259495916
100
AcDbArc
 50
0.0
 51
28.95379638671875
  0
ARC
  5
526
330
1F
100
AcDbEntity
  8
建具
  6
Continuous
 62
     4
370
     9
100
AcDbCircle
 10
0.0
 20
-402.3308249082298
 30
0.0
 40
3.999988259495916
100
AcDbArc
 50
151.0462036132813
 51
180.0
  0
ARC
  5
527
330
1F
100
AcDbEntity
  8
建具
  6
Continuous
 62
     4
370
     9
100
AcDbCircle
 10
0.0
 20
-426.3307679970706
 30
0.0
 40
3.999987582902651
100
AcDbArc
 50
180.0
 51
231.3179168701172
  0
ARC
  5
528
330
1F
100
AcDbEntity
  8
建具
  6
Continuous
 62
     4
370
     9
100
AcDbCircle
 10
0.0
 20
-426.3307679970706
 30
0.0
 40
3.999987582902651
100
AcDbArc
 50
308.6820831298828
 51
0.0000000000000064
  0
ARC
  5
529
330
1F
100
AcDbEntity
  8
建具
  6
Continuous
 62
     4
370
     9
100
AcDbCircle
 10
0.0
 20
-426.3307679970706
 30
0.0
 40
8.999954300957757
100
AcDbArc
 50
180.0
 51
253.8723754882812
  0
ARC
  5
52A
330
1F
100
AcDbEntity
  8
建具
  6
Continuous
 62
     4
370
     9
100
AcDbCircle
 10
0.0
 20
-426.3307679970706
 30
0.0
 40
8.999954300957757
100
AcDbArc
 50
286.1276245117188
 51
0.0
  0
ARC
  5
52B
330
1F
100
AcDbEntity
  8
建具
  6
Continuous
 62
     4
370
     9
100
AcDbCircle
 10
0.0
 20
-427.8308348058227
 30
0.0
 40
2.500000104710862
100
AcDbArc
 50
0.0
 51
180.0
  0
ARC
  5
52C
330
1F
100
AcDbEntity
  8
建具
  6
Continuous
 62
     4
370
     9
100
AcDbCircle
 10
0.0
 20
-466.3308319190248
 30
0.0
 40
8.999954300957757
100
AcDbArc
 50
0.0
 51
73.87237548828125
  0
ARC
  5
52D
330
1F
100
AcDbEntity
  8
建具
  6
Continuous
 62
     4
370
     9
100
AcDbCircle
 10
0.0
 20
-466.3308319190248
 30
0.0
 40
8.999954300957757
100
AcDbArc
 50
106.1276245117188
 51
180.0
  0
ARC
  5
52E
330
1F
100
AcDbEntity
  8
建具
  6
Continuous
 62
     4
370
     9
100
AcDbCircle
 10
0.0
 20
-466.3308319190248
 30
0.0
 40
3.999988259495916
100
AcDbArc
 50
0.0
 51
51.31791687011719
  0
ARC
  5
52F
330
1F
100
AcDbEntity
  8
建具
  6
Continuous
 62
     4
370
     9
100
AcDbCircle
 10
0.0
 20
-466.3308319190248
 30
0.0
 40
3.999988259495916
100
AcDbArc
 50
128.6820831298828
 51
180.0
  0
ARC
  5
530
330
1F
100
AcDbEntity
  8
建具
  6
Continuous
 62
     4
370
     9
100
AcDbCircle
 10
0.0
 20
-464.8308517142106
 30
0.0
 40
2.500000104710862
100
AcDbArc
 50
180.0
 51
0.0
  0
ARC
  5
531
330
1F
100
AcDbEntity
  8
建具
  6
Continuous
 62
     4
370
     9
100
AcDbCircle
 10
0.0
 20
-490.3307750078656
 30
0.0
 40
3.999987582902651
100
AcDbArc
 50
180.0
 51
231.3179168701172
  0
ARC
  5
532
330
1F
100
AcDbEntity
  8
建具
  6
Continuous
 62
     4
370
     9
100
AcDbCircle
 10
0.0
 20
-490.3307750078656
 30
0.0
 40
3.999987582902651
100
AcDbArc
 50
308.6820831298828
 51
0.0000000000000064
  0
ARC
  5
533
330
1F
100
AcDbEntity
  8
建具
  6
Continuous
 62
     4
370
     9
100
AcDbCircle
 10
0.0
 20
-490.3307750078656
 30
0.0
 40
8.999954300957757
100
AcDbArc
 50
180.0
 51
253.8723754882812
  0
ARC
  5
534
330
1F
100
AcDbEntity
  8
建具
  6
Continuous
 62
     4
370
     9
100
AcDbCircle
 10
0.0
 20
-490.3307750078656
 30
0.0
 40
8.999954300957757
100
AcDbArc
 50
286.1276245117188
 51
0.0
  0
ARC
  5
535
330
1F
100
AcDbEntity
  8
建具
  6
Continuous
 62
     4
370
     9
100
AcDbCircle
 10
0.0
 20
-491.8306686087419
 30
0.0
 40
2.500000104710862
100
AcDbArc
 50
0.0
 51
180.0
  0
ARC
  5
536
330
1F
100
AcDbEntity
  8
仕上
  6
Continuous
 62
     3
370
     9
100
AcDbCircle
 10
0.0
 20
-367.830630667969
 30
0.0
 40
16.49999876280089
100
AcDbArc
 50
189.9415588378906
 51
257.7531890869141
  0
ARC
  5
537
330
1F
100
AcDbEntity
  8
仕上
  6
Continuous
 62
     3
370
     9
100
AcDbCircle
 10
0.0
 20
-367.830630667969
 30
0.0
 40
16.49999876280089
100
AcDbArc
 50
282.2468109130859
 51
350.0584411621094
  0
LINE
  5
538
330
1F
100
AcDbEntity
  8
躯体
  6
Continuous
 62
     2
370
     9
100
AcDbLine
 10
-3.999988259495908
 20
-411.7458421135455
 30
0.0
 11
3.999988259495908
 21
-411.7458421135455
 31
0.0
  0
LINE
  5
539
330
1F
100
AcDbEntity
  8
仕上
  6
Continuous
 62
     3
370
     9
100
AcDbLine
 10
-3.999988259495908
 20
-405.8297539065455
 30
0.0
 11
3.999988259495908
 21
-405.8297539065455
 31
0.0
  0
LINE
  5
53A
330
1F
100
AcDbEntity
  8
建具
  6
JWW_CENTER1
 62
     4
370
     9
100
AcDbLine
 10
0.0
 20
-608.6474295224876
 30
0.0
 11
0.0
 21
-336.2287671161848
 31
0.0
  0
LINE
  5
53B
330
1F
100
AcDbEntity
  8
仕上
  6
Continuous
 62
     3
370
     9
100
AcDbLine
 10
81.50010804872252
 20
-405.8298405101367
 30
0.0
 11
8.99988122888513
 21
-405.8298405101367
 31
0.0
  0
LINE
  5
53C
330
1F
100
AcDbEntity
  8
仕上
  6
Continuous
 62
     3
370
     9
100
AcDbLine
 10
-9.00014104069902
 20
-405.8298405101367
 30
0.0
 11
-81.5000214447847
 21
-405.8298405101367
 31
0.0
  0
LINE
  5
53D
330
1F
100
AcDbEntity
  8
躯体
  6
Continuous
 62
     2
370
     9
100
AcDbLine
 10
8.99988122888513
 20
-411.7458854155157
 30
0.0
 11
319.999905148068
 21
-411.7458854155157
 31
0.0
  0
LINE
  5
53E
330
1F
100
AcDbEntity
  8
仕上
  6
Continuous
 62
     3
370
     9
100
AcDbLine
 10
-147.6487154574008
 20
-400.4203420376652
 30
0.0
 11
-81.50002713165449
 21
-405.8299100496966
 31
0.0
  0
LINE
  5
53F
330
1F
100
AcDbEntity
  8
躯体
  6
Continuous
 62
     2
370
     9
100
AcDbLine
 10
-319.9999051480681
 20
-411.7458854155157
 30
0.0
 11
-9.00014104069902
 21
-411.7458854155157
 31
0.0
  0
TEXT
  5
540
330
1F
100
AcDbEntity
  8
その他
  6
Continuous
 62
     3
370
     0
100
AcDbText
 10
38.85017320787579
 20
-471.6420919419884
 30
0.0
 40
21.336
  1
φ５００
 41
0.6937500000000002
  7
ＭＳ ゴシック
100
AcDbText
  0
ARC
  5
541
330
1F
100
AcDbEntity
  8
建具
  6
JWW_CENTER1
 62
     4
370
     9
100
AcDbCircle
 10
-10.00000041884344
 20
-608.6474295224876
 30
0.0
 40
10.00000041884345
100
AcDbArc
 50
270.0
 51
0.0
  0
LINE
  5
542
330
1F
100
AcDbEntity
  8
建具
  6
JWW_CENTER1
 62
     4
370
     9
100
AcDbLine
 10
-10.00000041884344
 20
-618.6473697245306
 30
0.0
 11
-203.5001315619495
 21
-618.6473697245306
 31
0.0
  0
LINE
  5
543
330
1F
100
AcDbEntity
  8
建具
  6
Continuous
 62
     4
370
     9
100
AcDbLine
 10
-207.0000565052034
 20
-590.1473994173092
 30
0.0
 11
-213.000063928398
 21
-590.1473994173092
 31
0.0
  0
LINE
  5
544
330
1F
100
AcDbEntity
  8
建具
  6
Continuous
 62
     4
370
     9
100
AcDbLine
 10
-205.9999542300766
 20
-591.1474150884981
 30
0.0
 11
-214.0001662035247
 21
-591.1474150884981
 31
0.0
  0
LINE
  5
545
330
1F
100
AcDbEntity
  8
建具
  6
Continuous
 62
     4
370
     9
100
AcDbLine
 10
-205.9999542300766
 20
-591.1474150884981
 30
0.0
 11
-207.0000565052034
 21
-590.1473994173092
 31
0.0
  0
LINE
  5
546
330
1F
100
AcDbEntity
  8
建具
  6
Continuous
 62
     4
370
     9
100
AcDbLine
 10
-213.000063928398
 20
-590.1473994173092
 30
0.0
 11
-214.0001662035247
 21
-591.1474150884981
 31
0.0
  0
LINE
  5
547
330
1F
100
AcDbEntity
  8
建具
  6
Continuous
 62
     4
370
     9
100
AcDbLine
 10
-206.50000536764
 20
-612.1473111637727
 30
0.0
 11
-206.50000536764
 21
-608.1474216868933
 31
0.0
  0
LINE
  5
548
330
1F
100
AcDbEntity
  8
建具
  6
Continuous
 62
     4
370
     9
100
AcDbLine
 10
-213.5001150659613
 20
-612.1473977677105
 30
0.0
 11
-213.5001150659613
 21
-608.1474216868933
 31
0.0
  0
LINE
  5
549
330
1F
100
AcDbEntity
  8
建具
  6
Continuous
 62
     4
370
     9
100
AcDbLine
 10
-203.5001315619495
 20
-622.1474245736913
 30
0.0
 11
-90.7083752670804
 21
-622.1474245736913
 31
0.0
  0
LINE
  5
54A
330
1F
100
AcDbEntity
  8
建具
  6
Continuous
 62
     4
370
     9
100
AcDbLine
 10
-203.4998717501358
 20
-615.1473581773389
 30
0.0
 11
-90.7083752670804
 21
-615.1473581773389
 31
0.0
  0
LINE
  5
54B
330
1F
100
AcDbEntity
  8
建具
  6
JWW_CENTER1
 62
     4
370
     9
100
AcDbLine
 10
-74.9999797988582
 20
-639.2790258557594
 30
0.0
 11
-74.9999797988582
 21
-599.9913226251851
 31
0.0
  0
LINE
  5
54C
330
1F
100
AcDbEntity
  8
建具
  6
Continuous
 62
     4
370
     9
100
AcDbLine
 10
-81.72832633997943
 20
-616.7160153049253
 30
0.0
 11
-87.68884236748168
 21
-612.7318877447481
 31
0.0
  0
LINE
  5
54D
330
1F
100
AcDbEntity
  8
建具
  6
Continuous
 62
     4
370
     9
100
AcDbLine
 10
-217.5000045428405
 20
-600.3689157945264
 30
0.0
 11
-217.5000045428405
 21
-606.1473037405779
 31
0.0
  0
LINE
  5
54E
330
1F
100
AcDbEntity
  8
建具
  6
Continuous
 62
     4
370
     9
100
AcDbLine
 10
-202.5001158907608
 20
-600.3689157945264
 30
0.0
 11
-202.5001158907608
 21
-606.1473037405779
 31
0.0
  0
LINE
  5
54F
330
1F
100
AcDbEntity
  8
建具
  6
Continuous
 62
     4
370
     9
100
AcDbLine
 10
-213.7471094969158
 20
-600.3689157945264
 30
0.0
 11
-213.7471094969158
 21
-606.1473037405779
 31
0.0
  0
LINE
  5
550
330
1F
100
AcDbEntity
  8
建具
  6
Continuous
 62
     4
370
     9
100
AcDbLine
 10
-206.2526645209338
 20
-600.3689157945264
 30
0.0
 11
-206.2526645209338
 21
-606.1473037405779
 31
0.0
  0
LINE
  5
551
330
1F
100
AcDbEntity
  8
建具
  6
Continuous
 62
     4
370
     9
100
AcDbLine
 10
-215.6235570198781
 20
-599.6471585758819
 30
0.0
 11
-204.3763902058473
 21
-599.6471585758819
 31
0.0
  0
LINE
  5
552
330
1F
100
AcDbEntity
  8
建具
  6
Continuous
 62
     4
370
     9
100
AcDbLine
 10
-198.7498189629736
 20
-608.1474216868933
 30
0.0
 11
-198.7498189629736
 21
-606.1473037405779
 31
0.0
  0
LINE
  5
553
330
1F
100
AcDbEntity
  8
建具
  6
Continuous
 62
     4
370
     9
100
AcDbLine
 10
-221.2499550548761
 20
-608.1474216868933
 30
0.0
 11
-198.7498189629736
 21
-608.1474216868933
 31
0.0
  0
LINE
  5
554
330
1F
100
AcDbEntity
  8
建具
  6
Continuous
 62
     4
370
     9
100
AcDbLine
 10
-221.2499550548761
 20
-608.1474216868933
 30
0.0
 11
-221.2499550548761
 21
-606.1473037405779
 31
0.0
  0
LINE
  5
555
330
1F
100
AcDbEntity
  8
建具
  6
Continuous
 62
     4
370
     9
100
AcDbLine
 10
-221.2499550548761
 20
-606.1473037405779
 30
0.0
 11
-198.7498189629736
 21
-606.1473037405779
 31
0.0
  0
LINE
  5
556
330
1F
100
AcDbEntity
  8
建具
  6
Continuous
 62
     4
370
     9
100
AcDbLine
 10
-213.000063928398
 20
-590.1473994173092
 30
0.0
 11
-213.000063928398
 21
-599.6471585758819
 31
0.0
  0
LINE
  5
557
330
1F
100
AcDbEntity
  8
建具
  6
Continuous
 62
     4
370
     9
100
AcDbLine
 10
-214.0001662035247
 20
-591.1474150884981
 30
0.0
 11
-214.0001662035247
 21
-599.6471585758819
 31
0.0
  0
LINE
  5
558
330
1F
100
AcDbEntity
  8
建具
  6
Continuous
 62
     4
370
     9
100
AcDbLine
 10
-207.0000565052034
 20
-590.1473994173092
 30
0.0
 11
-207.0000565052034
 21
-599.6471585758819
 31
0.0
  0
LINE
  5
559
330
1F
100
AcDbEntity
  8
建具
  6
Continuous
 62
     4
370
     9
100
AcDbLine
 10
-205.9999542300766
 20
-591.1474150884981
 30
0.0
 11
-205.9999542300766
 21
-599.6471585758819
 31
0.0
  0
LINE
  5
55A
330
1F
100
AcDbEntity
  8
建具
  6
JWW_CENTER1
 62
     4
370
     9
100
AcDbLine
 10
-209.9999303108938
 20
-612.1473977677105
 30
0.0
 11
-209.9999303108938
 21
-584.3526433269905
 31
0.0
  0
ARC
  5
55B
330
1F
100
AcDbEntity
  8
建具
  6
Continuous
 62
     4
370
     9
100
AcDbCircle
 10
-203.4998717501358
 20
-612.1473111637727
 30
0.0
 40
2.999999990334382
100
AcDbArc
 50
180.0
 51
270.0
  0
ARC
  5
55C
330
1F
100
AcDbEntity
  8
建具
  6
JWW_CENTER1
 62
     4
370
     9
100
AcDbCircle
 10
-203.5001315619495
 20
-612.1473977677105
 30
0.0
 40
6.499999697143967
100
AcDbArc
 50
180.0
 51
270.0
  0
ARC
  5
55D
330
1F
100
AcDbEntity
  8
建具
  6
Continuous
 62
     4
370
     9
100
AcDbCircle
 10
-203.5001315619495
 20
-612.1473977677105
 30
0.0
 40
10.00000041884345
100
AcDbArc
 50
180.0
 51
270.0
  0
ARC
  5
55E
330
1F
100
AcDbEntity
  8
建具
  6
Continuous
 62
     4
370
     9
100
AcDbCircle
 10
-90.7083752670804
 20
-625.1474715872575
 30
0.0
 40
2.999999990334382
100
AcDbArc
 50
22.48037719726562
 51
90.0
  0
ARC
  5
55F
330
1F
100
AcDbEntity
  8
建具
  6
Continuous
 62
     4
370
     9
100
AcDbCircle
 10
-90.7083752670804
 20
-625.1473416813508
 30
0.0
 40
10.00000041884345
100
AcDbArc
 50
22.47953796386717
 51
89.99999999999999
  0
ARC
  5
560
330
1F
100
AcDbEntity
  8
建具
  6
Continuous
 62
     4
370
     9
100
AcDbCircle
 10
-74.9999797988582
 20
-618.6473697245306
 30
0.0
 40
6.999999413619171
100
AcDbArc
 50
202.4791870117188
 51
163.9838256835939
  0
ARC
  5
561
330
1F
100
AcDbEntity
  8
建具
  6
Continuous
 62
     4
370
     9
100
AcDbCircle
 10
-74.9999797988582
 20
-618.6473697245306
 30
0.0
 40
13.99999882723834
100
AcDbArc
 50
202.4794616699219
 51
155.0050354003906
  0
ARC
  5
562
330
1F
100
AcDbEntity
  8
建具
  6
Continuous
 62
     4
370
     9
100
AcDbCircle
 10
-215.6235570198781
 20
-602.4474969085994
 30
0.0
 40
2.800173582257451
100
AcDbArc
 50
47.92556762695312
 51
132.0746307373047
  0
ARC
  5
563
330
1F
100
AcDbEntity
  8
建具
  6
Continuous
 62
     4
370
     9
100
AcDbCircle
 10
-209.9999303108938
 20
-609.7367771556433
 30
0.0
 40
10.08941018903578
100
AcDbArc
 50
68.19786071777345
 51
111.8021392822266
  0
ARC
  5
564
330
1F
100
AcDbEntity
  8
建具
  6
Continuous
 62
     4
370
     9
100
AcDbCircle
 10
-204.3763902058473
 20
-602.4474969085994
 30
0.0
 40
2.800189820495812
100
AcDbArc
 50
47.92572021484376
 51
132.0742797851562
  0
LINE
  5
565
330
1F
100
AcDbEntity
  8
0-E
  6
Continuous
 62
     7
370
     9
100
AcDbLine
 10
8.999954300957768
 20
-490.3307750078656
 30
0.0
 11
19.6532779126554
 21
-504.2144688060339
 31
0.0
  0
LINE
  5
566
330
1F
100
AcDbEntity
  8
0-E
  6
Continuous
 62
     7
370
     9
100
AcDbLine
 10
8.999954300957768
 20
-490.3307750078656
 30
0.0
 11
53.75660960738719
 21
-567.8514754110275
 31
0.0
  0
LINE
  5
567
330
1F
100
AcDbEntity
  8
0-E
  6
Continuous
 62
     7
370
     9
100
AcDbLine
 10
8.999954300957768
 20
-490.3307750078656
 30
0.0
 11
15.69686361261316
 21
-506.4986476687345
 31
0.0
  0
LINE
  5
568
330
1F
100
AcDbEntity
  8
0-E
  6
Continuous
 62
     7
370
     9
100
AcDbLine
 10
53.75660960738719
 20
-567.8514754110275
 30
0.0
 11
374.9665449761056
 21
-567.8514754110275
 31
0.0
  0
TEXT
  5
569
330
1F
100
AcDbEntity
  8
0-E
  6
Continuous
 62
     6
370
     0
100
AcDbText
 10
138.1995223535074
 20
-560.4034638638359
 30
0.0
 40
21.336
  1
鎖：ＳＷＲＭ
 41
0.7916666666666666
  7
ＭＳ ゴシック
100
AcDbText
  0
TEXT
  5
56A
330
1F
100
AcDbEntity
  8
0-E
  6
Continuous
 62
     6
370
     0
100
AcDbText
 10
57.96764352643812
 20
-595.4034927318152
 30
0.0
 40
21.336
  1
電気亜鉛めっき，φ５×５００
 41
0.7964285714285714
  7
ＭＳ ゴシック
100
AcDbText
  0
TEXT
  5
56B
330
1F
100
AcDbEntity
  8
F-5ﾚｲﾔ
  6
Continuous
 62
     4
370
     9
100
AcDbText
 10
-8.494844591295418
 20
-780.7340020586481
 30
0.0
 40
18.669
  1
密閉型（防水・防臭型）　テーパ・パッキン式
 41
1.027210884353742
  7
ＭＳ ゴシック
100
AcDbText
  0
LINE
  5
56C
330
1F
100
AcDbEntity
  8
寸法
  6
Continuous
 62
     7
370
     9
100
AcDbLine
 10
389.8745503214655
 20
-411.7458854155157
 30
0.0
 11
389.8745503214655
 21
-347.7458351027517
 31
0.0
  0
LINE
  5
56D
330
1F
100
AcDbEntity
  8
寸法
  6
Continuous
 62
     7
370
     9
100
AcDbLine
 10
389.8745503214655
 20
-411.7458854155157
 30
0.0
 11
387.5903419576146
 21
-394.3956003414741
 31
0.0
  0
LINE
  5
56E
330
1F
100
AcDbEntity
  8
寸法
  6
Continuous
 62
     7
370
     9
100
AcDbLine
 10
389.8745503214655
 20
-411.7458854155157
 30
0.0
 11
392.1587586853164
 21
-394.3956003414741
 31
0.0
  0
LINE
  5
56F
330
1F
100
AcDbEntity
  8
寸法
  6
Continuous
 62
     7
370
     9
100
AcDbLine
 10
389.8745503214655
 20
-347.7458351027517
 30
0.0
 11
387.5903419576146
 21
-365.0961201767934
 31
0.0
  0
LINE
  5
570
330
1F
100
AcDbEntity
  8
寸法
  6
Continuous
 62
     7
370
     9
100
AcDbLine
 10
389.8745503214655
 20
-347.7458351027517
 30
0.0
 11
392.1587586853164
 21
-365.0961201767934
 31
0.0
  0
LINE
  5
571
330
1F
100
AcDbEntity
  8
寸法
  6
Continuous
 62
     7
370
     9
100
AcDbLine
 10
391.9745503214655
 20
-411.7458854155157
 30
0.0
 11
333.999905148068
 21
-411.7458854155157
 31
0.0
  0
LINE
  5
572
330
1F
100
AcDbEntity
  8
寸法
  6
Continuous
 62
     7
370
     9
100
AcDbLine
 10
391.9745503214655
 20
-347.7458351027517
 30
0.0
 11
288.0000503127639
 21
-347.7458351027517
 31
0.0
  0
TEXT
  5
573
330
1F
100
AcDbEntity
  8
寸法
  6
Continuous
 62
     3
370
   211
100
AcDbText
 10
378.9265503214655
 20
-398.9958602591337
 30
0.0
 40
21.336
  1
６４
 50
90.0
 41
0.6875
  7
ＭＳ ゴシック
100
AcDbText
  0
TEXT
  5
574
330
1F
100
AcDbEntity
  8
0-E
  6
Continuous
 62
     6
370
     0
100
AcDbText
 10
-528.1078972351473
 20
-158.5013629725435
 30
0.0
 40
21.336
  1
キャップ：クロロプレン
 41
0.7954545454545454
  7
ＭＳ ゴシック
100
AcDbText
  0
LINE
  5
575
330
1F
100
AcDbEntity
  8
0-E
  6
Continuous
 62
     7
370
     9
100
AcDbLine
 10
-282.4543267327387
 20
-166.8804823690366
 30
0.0
 11
-523.2652213186872
 21
-166.8804823690366
 31
0.0
  0
TEXT
  5
576
330
1F
100
AcDbEntity
  8
0-E
  6
Continuous
 62
     6
370
     0
100
AcDbText
 10
318.79110829455
 20
-474.8559686427625
 30
0.0
 40
21.336
  1
パッキン：クロロプレン
 41
0.7954545454545454
  7
ＭＳ ゴシック
100
AcDbText
  0
LINE
  5
577
330
1F
100
AcDbEntity
  8
0-E
  6
Continuous
 62
     7
370
     9
100
AcDbLine
 10
317.7029955064928
 20
-481.3419790830357
 30
0.0
 11
561.9683108438754
 21
-481.3419790830357
 31
0.0
  0
TEXT
  5
578
330
1F
100
AcDbEntity
  8
F-5ﾚｲﾔ
  6
Continuous
 62
     4
370
     9
100
AcDbText
 10
88.65565763454799
 20
-810.6464959897841
 30
0.0
 40
18.669
  1
マンホール鉄蓋　ＭＫＣＹ－６－５００－ｂ
 41
1.027142857142857
  7
ＭＳ ゴシック
100
AcDbText
  0
ENDSEC
  0
SECTION
  2
OBJECTS
  0
DICTIONARY
  5
C
330
0
100
AcDbDictionary
281
     1
  3
ACAD_GROUP
350
D
  3
ACAD_LAYOUT
350
1A
  3
ACAD_MLEADERSTYLE
350
57A
  3
ACAD_MLINESTYLE
350
17
  3
ACAD_PLOTSETTINGS
350
19
  3
ACAD_PLOTSTYLENAME
350
E
  3
ACAD_TABLESTYLE
350
579
  3
ACAD_VISUALSTYLE
350
2A
  0
DICTIONARY
  5
D
102
{ACAD_REACTORS
330
C
102
}
330
C
100
AcDbDictionary
281
     1
  0
DICTIONARY
  5
1A
102
{ACAD_REACTORS
330
C
102
}
330
C
100
AcDbDictionary
281
     1
  3
Layout1
350
1E
  3
Layout2
350
26
  3
Model
350
22
  0
DICTIONARY
  5
57A
102
{ACAD_REACTORS
330
C
102
}
330
C
100
AcDbDictionary
281
     1
  0
DICTIONARY
  5
17
102
{ACAD_REACTORS
330
C
102
}
330
C
100
AcDbDictionary
281
     1
  3
Standard
350
18
  0
DICTIONARY
  5
19
102
{ACAD_REACTORS
330
C
102
}
330
C
100
AcDbDictionary
281
     1
  0
ACDBDICTIONARYWDFLT
  5
E
102
{ACAD_REACTORS
330
C
102
}
330
C
100
AcDbDictionary
281
     1
  3
Normal
350
F
100
AcDbDictionaryWithDefault
340
F
  0
DICTIONARY
  5
579
102
{ACAD_REACTORS
330
C
102
}
330
C
100
AcDbDictionary
281
     1
  0
DICTIONARY
  5
2A
102
{ACAD_REACTORS
330
C
102
}
330
C
100
AcDbDictionary
281
     1
  3
2dWireframe
350
2F
  3
3D Hidden
350
31
  3
3dWireframe
350
30
  3
Basic
350
32
  3
Brighten
350
36
  3
ColorChange
350
3A
  3
Conceptual
350
34
  3
Dim
350
35
  3
Facepattern
350
39
  3
Flat
350
2B
  3
FlatWithEdges
350
2C
  3
Gouraud
350
2D
  3
GouraudWithEdges
350
2E
  3
Linepattern
350
38
  3
Realistic
350
33
  3
Thicken
350
37
  0
LAYOUT
  5
1E
102
{ACAD_REACTORS
330
1A
102
}
330
1A
100
AcDbPlotSettings
  1

  2
none_device
  4

  6

 40
0.0
 41
0.0
 42
0.0
 43
0.0
 44
0.0
 45
0.0
 46
0.0
 47
0.0
 48
0.0
 49
0.0
140
0.0
141
0.0
142
1.0
143
1.0
 70
   688
 72
     0
 73
     0
 74
     5
  7

 75
    16
 76
     0
 77
     5
 78
   300
147
1.0
148
0.0
149
0.0
100
AcDbLayout
  1
Layout1
 70
     1
 71
     1
 10
0.0
 20
0.0
 11
420.0
 21
297.0
 12
0.0
 22
0.0
 32
0.0
 14
1.000000000000000E+20
 24
1.000000000000000E+20
 34
1.000000000000000E+20
 15
-1.000000000000000E+20
 25
-1.000000000000000E+20
 35
-1.000000000000000E+20
146
0.0
 13
0.0
 23
0.0
 33
0.0
 16
1.0
 26
0.0
 36
0.0
 17
0.0
 27
1.0
 37
0.0
 76
     0
330
1B
  0
LAYOUT
  5
26
102
{ACAD_REACTORS
330
1A
102
}
330
1A
100
AcDbPlotSettings
  1

  2
none_device
  4

  6

 40
0.0
 41
0.0
 42
0.0
 43
0.0
 44
0.0
 45
0.0
 46
0.0
 47
0.0
 48
0.0
 49
0.0
140
0.0
141
0.0
142
1.0
143
1.0
 70
   688
 72
     0
 73
     0
 74
     5
  7

 75
    16
 76
     0
 77
     5
 78
   300
147
1.0
148
0.0
149
0.0
100
AcDbLayout
  1
Layout2
 70
     1
 71
     2
 10
0.0
 20
0.0
 11
0.0
 21
0.0
 12
0.0
 22
0.0
 32
0.0
 14
0.0
 24
0.0
 34
0.0
 15
0.0
 25
0.0
 35
0.0
146
0.0
 13
0.0
 23
0.0
 33
0.0
 16
1.0
 26
0.0
 36
0.0
 17
0.0
 27
1.0
 37
0.0
 76
     0
330
23
  0
LAYOUT
  5
22
102
{ACAD_REACTORS
330
1A
102
}
330
1A
100
AcDbPlotSettings
  1

  2
none_device
  4

  6

 40
0.0
 41
0.0
 42
0.0
 43
0.0
 44
0.0
 45
0.0
 46
0.0
 47
0.0
 48
0.0
 49
0.0
140
0.0
141
0.0
142
1.0
143
1.0
 70
  1712
 72
     0
 73
     0
 74
     0
  7

 75
     0
 76
     0
 77
     5
 78
   300
147
1.0
148
0.0
149
0.0
100
AcDbLayout
  1
Model
 70
     1
 71
     0
 10
-1470.0
 20
-1039.5
 11
1470.0
 21
1039.5
 12
0.0
 22
0.0
 32
0.0
 14
-1470.0
 24
-1039.5
 34
0.0
 15
1470.0
 25
1039.5
 35
0.0
146
0.0
 13
0.0
 23
0.0
 33
0.0
 16
1.0
 26
0.0
 36
0.0
 17
0.0
 27
1.0
 37
0.0
 76
     0
330
1F
331
29
  0
MLINESTYLE
  5
18
102
{ACAD_REACTORS
330
17
102
}
330
17
100
AcDbMlineStyle
  2
Standard
 70
     0
  3

 62
   256
 51
90.0
 52
90.0
 71
     2
 49
0.5
 62
   256
  6
BYLAYER
 49
-0.5
 62
   256
  6
BYLAYER
  0
ACDBPLACEHOLDER
  5
F
102
{ACAD_REACTORS
330
E
102
}
330
E
  0
VISUALSTYLE
  5
2F
102
{ACAD_REACTORS
330
2A
102
}
330
2A
100
AcDbVisualStyle
  2
2dWireframe
 70
     4
 71
     0
 72
     2
 73
     0
 90
        0
 40
-0.6
 41
-30.0
 62
     5
 63
     7
421
 16777215
 74
     1
 91
        4
 64
     7
 65
   257
 75
     1
175
     1
 42
1.0
 92
        0
 66
   257
 43
1.0
 76
     1
 77
     6
 78
     2
 67
     7
 79
     5
170
     0
171
     0
290
     0
174
     0
 93
        1
 44
0.0
173
     0
291
     0
 45
0.0
1001
ACAD
1000
AcDbSavedByObjectVersion
1070
     0
  0
VISUALSTYLE
  5
31
102
{ACAD_REACTORS
330
2A
102
}
330
2A
100
AcDbVisualStyle
  2
3D Hidden
 70
     6
 71
     1
 72
     2
 73
     2
 90
        0
 40
-0.6
 41
-30.0
 62
     5
 63
     7
421
 16777215
 74
     2
 91
        2
 64
     7
 65
   257
 75
     2
175
     1
 42
40.0
 92
        0
 66
   257
 43
1.0
 76
     1
 77
     6
 78
     2
 67
     7
 79
     3
170
     0
171
     0
290
     0
174
     0
 93
        1
 44
0.0
173
     0
291
     0
 45
0.0
1001
ACAD
1000
AcDbSavedByObjectVersion
1070
     0
  0
VISUALSTYLE
  5
30
102
{ACAD_REACTORS
330
2A
102
}
330
2A
100
AcDbVisualStyle
  2
3dWireframe
 70
     5
 71
     0
 72
     2
 73
     0
 90
        0
 40
-0.6
 41
-30.0
 62
     5
 63
     7
421
 16777215
 74
     1
 91
        4
 64
     7
 65
   257
 75
     1
175
     1
 42
1.0
 92
        0
 66
   257
 43
1.0
 76
     1
 77
     6
 78
     2
 67
     7
 79
     5
170
     0
171
     0
290
     0
174
     0
 93
        1
 44
0.0
173
     0
291
     0
 45
0.0
1001
ACAD
1000
AcDbSavedByObjectVersion
1070
     0
  0
VISUALSTYLE
  5
32
102
{ACAD_REACTORS
330
2A
102
}
330
2A
100
AcDbVisualStyle
  2
Basic
 70
     7
 71
     1
 72
     0
 73
     1
 90
        0
 40
-0.6
 41
-30.0
 62
     5
 63
     7
421
 16777215
 74
     0
 91
        4
 64
     7
 65
   257
 75
     1
175
     1
 42
1.0
 92
        8
 66
     7
 43
1.0
 76
     1
 77
     6
 78
     2
 67
     7
 79
     5
170
     0
171
     0
290
     0
174
     0
 93
        1
 44
0.0
173
     0
291
     1
 45
0.0
1001
ACAD
1000
AcDbSavedByObjectVersion
1070
     0
  0
VISUALSTYLE
  5
36
102
{ACAD_REACTORS
330
2A
102
}
330
2A
100
AcDbVisualStyle
  2
Brighten
 70
    12
 71
     2
 72
     2
 73
     0
 90
        0
 40
-0.6
 41
-30.0
 62
     5
 63
     7
421
 16777215
 74
     1
 91
        4
 64
     7
 65
   257
 75
     1
175
     1
 42
1.0
 92
        8
 66
     7
 43
1.0
 76
     1
 77
     6
 78
     2
 67
     7
 79
     5
170
     0
171
     0
290
     0
174
     0
 93
        1
 44
50.0
173
     0
291
     1
 45
0.0
1001
ACAD
1000
AcDbSavedByObjectVersion
1070
     0
  0
VISUALSTYLE
  5
3A
102
{ACAD_REACTORS
330
2A
102
}
330
2A
100
AcDbVisualStyle
  2
ColorChange
 70
    16
 71
     2
 72
     2
 73
     3
 90
        0
 40
-0.6
 41
-30.0
 62
     5
 63
     8
421
  8421504
 74
     1
 91
        4
 64
     7
 65
   257
 75
     1
175
     1
 42
1.0
 92
        8
 66
     8
424
  8421504
 43
1.0
 76
     1
 77
     6
 78
     2
 67
     7
 79
     5
170
     0
171
     0
290
     0
174
     0
 93
        1
 44
0.0
173
     0
291
     1
 45
0.0
1001
ACAD
1000
AcDbSavedByObjectVersion
1070
     0
  0
VISUALSTYLE
  5
34
102
{ACAD_REACTORS
330
2A
102
}
330
2A
100
AcDbVisualStyle
  2
Conceptual
 70
     9
 71
     3
 72
     2
 73
     0
 90
        0
 40
-0.6
 41
-30.0
 62
     5
 63
     7
421
 16777215
 74
     2
 91
        2
 64
     7
 65
   257
 75
     1
175
     1
 42
40.0
 92
        8
 66
     7
 43
1.0
 76
     1
 77
     6
 78
     2
 67
     7
 79
     3
170
     0
171
     0
290
     0
174
     0
 93
        1
 44
0.0
173
     0
291
     0
 45
0.0
1001
ACAD
1000
AcDbSavedByObjectVersion
1070
     0
  0
VISUALSTYLE
  5
35
102
{ACAD_REACTORS
330
2A
102
}
330
2A
100
AcDbVisualStyle
  2
Dim
 70
    11
 71
     2
 72
     2
 73
     0
 90
        0
 40
-0.6
 41
-30.0
 62
     5
 63
     7
421
 16777215
 74
     1
 91
        4
 64
     7
 65
   257
 75
     1
175
     1
 42
1.0
 92
        8
 66
     7
 43
1.0
 76
     1
 77
     6
 78
     2
 67
     7
 79
     5
170
     0
171
     0
290
     0
174
     0
 93
        1
 44
-50.0
173
     0
291
     1
 45
0.0
1001
ACAD
1000
AcDbSavedByObjectVersion
1070
     0
  0
VISUALSTYLE
  5
39
102
{ACAD_REACTORS
330
2A
102
}
330
2A
100
AcDbVisualStyle
  2
Facepattern
 70
    15
 71
     2
 72
     2
 73
     0
 90
        0
 40
-0.6
 41
-30.0
 62
     5
 63
     7
421
 16777215
 74
     1
 91
        4
 64
     7
 65
   257
 75
     1
175
     1
 42
1.0
 92
        8
 66
     7
 43
1.0
 76
     1
 77
     6
 78
     2
 67
     7
 79
     5
170
     0
171
     0
290
     0
174
     0
 93
        1
 44
0.0
173
     0
291
     1
 45
0.0
1001
ACAD
1000
AcDbSavedByObjectVersion
1070
     0
  0
VISUALSTYLE
  5
2B
102
{ACAD_REACTORS
330
2A
102
}
330
2A
100
AcDbVisualStyle
  2
Flat
 70
     0
 71
     2
 72
     1
 73
     1
 90
        2
 40
-0.6
 41
30.0
 62
     5
 63
     7
421
 16777215
 74
     0
 91
        4
 64
     7
 65
   257
 75
     1
175
     1
 42
1.0
 92
        8
 66
     7
 43
1.0
 76
     1
 77
     6
 78
     2
 67
     7
 79
     5
170
     0
171
     0
290
     0
174
     0
 93
       13
 44
0.0
173
     0
291
     1
 45
0.0
1001
ACAD
1000
AcDbSavedByObjectVersion
1070
     0
  0
VISUALSTYLE
  5
2C
102
{ACAD_REACTORS
330
2A
102
}
330
2A
100
AcDbVisualStyle
  2
FlatWithEdges
 70
     1
 71
     2
 72
     1
 73
     1
 90
        2
 40
-0.6
 41
30.0
 62
     5
 63
     7
421
 16777215
 74
     1
 91
        4
 64
     7
 65
   257
 75
     1
175
     1
 42
1.0
 92
        0
 66
   257
 43
1.0
 76
     1
 77
     6
 78
     2
 67
     7
 79
     5
170
     0
171
     0
290
     0
174
     0
 93
       13
 44
0.0
173
     0
291
     1
 45
0.0
1001
ACAD
1000
AcDbSavedByObjectVersion
1070
     0
  0
VISUALSTYLE
  5
2D
102
{ACAD_REACTORS
330
2A
102
}
330
2A
100
AcDbVisualStyle
  2
Gouraud
 70
     2
 71
     2
 72
     2
 73
     1
 90
        2
 40
-0.6
 41
30.0
 62
     5
 63
     7
421
 16777215
 74
     0
 91
        4
 64
     7
 65
   257
 75
     1
175
     1
 42
1.0
 92
        0
 66
     7
 43
1.0
 76
     1
 77
     6
 78
     2
 67
     7
 79
     5
170
     0
171
     0
290
     0
174
     0
 93
       13
 44
0.0
173
     0
291
     1
 45
0.0
1001
ACAD
1000
AcDbSavedByObjectVersion
1070
     0
  0
VISUALSTYLE
  5
2E
102
{ACAD_REACTORS
330
2A
102
}
330
2A
100
AcDbVisualStyle
  2
GouraudWithEdges
 70
     3
 71
     2
 72
     2
 73
     1
 90
        2
 40
-0.6
 41
30.0
 62
     5
 63
     7
421
 16777215
 74
     1
 91
        4
 64
     7
 65
   257
 75
     1
175
     1
 42
1.0
 92
        0
 66
   257
 43
1.0
 76
     1
 77
     6
 78
     2
 67
     7
 79
     5
170
     0
171
     0
290
     0
174
     0
 93
       13
 44
0.0
173
     0
291
     1
 45
0.0
1001
ACAD
1000
AcDbSavedByObjectVersion
1070
     0
  0
VISUALSTYLE
  5
38
102
{ACAD_REACTORS
330
2A
102
}
330
2A
100
AcDbVisualStyle
  2
Linepattern
 70
    14
 71
     2
 72
     2
 73
     0
 90
        0
 40
-0.6
 41
-30.0
 62
     5
 63
     7
421
 16777215
 74
     1
 91
        4
 64
     7
 65
   257
 75
     7
175
     7
 42
1.0
 92
        8
 66
     7
 43
1.0
 76
     1
 77
     6
 78
     2
 67
     7
 79
     5
170
     0
171
     0
290
     0
174
     0
 93
        1
 44
0.0
173
     0
291
     1
 45
0.0
1001
ACAD
1000
AcDbSavedByObjectVersion
1070
     0
  0
VISUALSTYLE
  5
33
102
{ACAD_REACTORS
330
2A
102
}
330
2A
100
AcDbVisualStyle
  2
Realistic
 70
     8
 71
     2
 72
     2
 73
     0
 90
        0
 40
-0.6
 41
-30.0
 62
     5
 63
     7
421
 16777215
 74
     1
 91
        0
 64
     7
 65
   257
 75
     1
175
     1
 42
1.0
 92
        8
 66
     8
424
  7895160
 43
1.0
 76
     1
 77
     6
 78
     2
 67
     7
 79
     5
170
     0
171
     0
290
     0
174
     0
 93
       13
 44
0.0
173
     0
291
     0
 45
0.0
1001
ACAD
1000
AcDbSavedByObjectVersion
1070
     0
  0
VISUALSTYLE
  5
37
102
{ACAD_REACTORS
330
2A
102
}
330
2A
100
AcDbVisualStyle
  2
Thicken
 70
    13
 71
     2
 72
     2
 73
     0
 90
        0
 40
-0.6
 41
-30.0
 62
     5
 63
     7
421
 16777215
 74
     1
 91
        4
 64
     7
 65
   257
 75
     1
175
     1
 42
1.0
 92
       12
 66
     7
 43
1.0
 76
     1
 77
     6
 78
     2
 67
     7
 79
     5
170
     0
171
     0
290
     0
174
     0
 93
        1
 44
0.0
173
     0
291
     1
 45
0.0
1001
ACAD
1000
AcDbSavedByObjectVersion
1070
     0
  0
ENDSEC
  0
EOF
