  0
SECTION
  2
HEADER
  9
$ACADVER
  1
AC1018
  9
$ACADMAINTVER
 70
     0
  9
$DWGCODEPAGE
  3
ANSI_932
  9
$INSBASE
 10
0.0
 20
0.0
 30
0.0
  9
$EXTMIN
 10
-1260.0
 20
-891.0
 30
0.0
  9
$EXTMAX
 10
1260.0
 20
891.0
 30
0.0
  9
$LIMMIN
 10
-1260.0
 20
-891.0
  9
$LIMMAX
 10
1260.0
 20
891.0
  9
$ORTHOMODE
 70
     0
  9
$REGENMODE
 70
     1
  9
$FILLMODE
 70
     1
  9
$QTEXTMODE
 70
     0
  9
$MIRRTEXT
 70
     1
  9
$LTSCALE
 40
6.0
  9
$ATTMODE
 70
     1
  9
$TEXTSIZE
 40
2.5
  9
$TRACEWID
 40
1.0
  9
$TEXTSTYLE
  7
Standard
  9
$CLAYER
  8
0
  9
$CELTYPE
  6
ByLayer
  9
$CECOLOR
 62
   256
  9
$CELTSCALE
 40
1.0
  9
$DISPSILH
 70
     0
  9
$DIMSCALE
 40
1.0
  9
$DIMASZ
 40
2.5
  9
$DIMEXO
 40
0.625
  9
$DIMDLI
 40
3.75
  9
$DIMRND
 40
0.0
  9
$DIMDLE
 40
0.0
  9
$DIMEXE
 40
1.25
  9
$DIMTP
 40
0.0
  9
$DIMTM
 40
0.0
  9
$DIMTXT
 40
2.5
  9
$DIMCEN
 40
2.5
  9
$DIMTSZ
 40
0.0
  9
$DIMTOL
 70
     0
  9
$DIMLIM
 70
     0
  9
$DIMTIH
 70
     0
  9
$DIMTOH
 70
     0
  9
$DIMSE1
 70
     0
  9
$DIMSE2
 70
     0
  9
$DIMTAD
 70
     1
  9
$DIMZIN
 70
     8
  9
$DIMBLK
  1

  9
$DIMASO
 70
     1
  9
$DIMSHO
 70
     1
  9
$DIMPOST
  1

  9
$DIMAPOST
  1

  9
$DIMALT
 70
     0
  9
$DIMALTD
 70
     3
  9
$DIMALTF
 40
0.03937007874016
  9
$DIMLFAC
 40
1.0
  9
$DIMTOFL
 70
     1
  9
$DIMTVP
 40
0.0
  9
$DIMTIX
 70
     0
  9
$DIMSOXD
 70
     0
  9
$DIMSAH
 70
     0
  9
$DIMBLK1
  1

  9
$DIMBLK2
  1

  9
$DIMSTYLE
  2
ISO-25
  9
$DIMCLRD
 70
     0
  9
$DIMCLRE
 70
     0
  9
$DIMCLRT
 70
     0
  9
$DIMTFAC
 40
1.0
  9
$DIMGAP
 40
0.625
  9
$DIMJUST
 70
     0
  9
$DIMSD1
 70
     0
  9
$DIMSD2
 70
     0
  9
$DIMTOLJ
 70
     0
  9
$DIMTZIN
 70
     8
  9
$DIMALTZ
 70
     0
  9
$DIMALTTZ
 70
     0
  9
$DIMUPT
 70
     0
  9
$DIMDEC
 70
     2
  9
$DIMTDEC
 70
     2
  9
$DIMALTU
 70
     2
  9
$DIMALTTD
 70
     3
  9
$DIMTXSTY
  7
Standard
  9
$DIMAUNIT
 70
     0
  9
$DIMADEC
 70
     0
  9
$DIMALTRND
 40
0.0
  9
$DIMAZIN
 70
     0
  9
$DIMDSEP
 70
    44
  9
$DIMATFIT
 70
     3
  9
$DIMFRAC
 70
     0
  9
$DIMLDRBLK
  1

  9
$DIMLUNIT
 70
     2
  9
$DIMLWD
 70
    -2
  9
$DIMLWE
 70
    -2
  9
$DIMTMOVE
 70
     0
  9
$LUNITS
 70
     2
  9
$LUPREC
 70
     4
  9
$SKETCHINC
 40
1.0
  9
$FILLETRAD
 40
10.0
  9
$AUNITS
 70
     0
  9
$AUPREC
 70
     0
  9
$MENU
  1
.
  9
$ELEVATION
 40
0.0
  9
$PELEVATION
 40
0.0
  9
$THICKNESS
 40
0.0
  9
$LIMCHECK
 70
     0
  9
$CHAMFERA
 40
10.0
  9
$CHAMFERB
 40
10.0
  9
$CHAMFERC
 40
20.0
  9
$CHAMFERD
 40
0.0
  9
$SKPOLY
 70
     0
  9
$TDCREATE
 40
2457400.414922315
  9
$TDUCREATE
 40
2457400.039922315
  9
$TDUPDATE
 40
2457400.414922326
  9
$TDUUPDATE
 40
2457400.039922326
  9
$TDINDWG
 40
0.0000000116
  9
$TDUSRTIMER
 40
0.0000000116
  9
$USRTIMER
 70
     1
  9
$ANGBASE
 50
0.0
  9
$ANGDIR
 70
     0
  9
$PDMODE
 70
     0
  9
$PDSIZE
 40
0.0
  9
$PLINEWID
 40
0.0
  9
$SPLFRAME
 70
     0
  9
$SPLINETYPE
 70
     6
  9
$SPLINESEGS
 70
     8
  9
$HANDSEED
  5
528
  9
$SURFTAB1
 70
     6
  9
$SURFTAB2
 70
     6
  9
$SURFTYPE
 70
     6
  9
$SURFU
 70
     6
  9
$SURFV
 70
     6
  9
$UCSBASE
  2

  9
$UCSNAME
  2

  9
$UCSORG
 10
0.0
 20
0.0
 30
0.0
  9
$UCSXDIR
 10
1.0
 20
0.0
 30
0.0
  9
$UCSYDIR
 10
0.0
 20
1.0
 30
0.0
  9
$UCSORTHOREF
  2

  9
$UCSORTHOVIEW
 70
     0
  9
$UCSORGTOP
 10
0.0
 20
0.0
 30
0.0
  9
$UCSORGBOTTOM
 10
0.0
 20
0.0
 30
0.0
  9
$UCSORGLEFT
 10
0.0
 20
0.0
 30
0.0
  9
$UCSORGRIGHT
 10
0.0
 20
0.0
 30
0.0
  9
$UCSORGFRONT
 10
0.0
 20
0.0
 30
0.0
  9
$UCSORGBACK
 10
0.0
 20
0.0
 30
0.0
  9
$PUCSBASE
  2

  9
$PUCSNAME
  2

  9
$PUCSORG
 10
0.0
 20
0.0
 30
0.0
  9
$PUCSXDIR
 10
1.0
 20
0.0
 30
0.0
  9
$PUCSYDIR
 10
0.0
 20
1.0
 30
0.0
  9
$PUCSORTHOREF
  2

  9
$PUCSORTHOVIEW
 70
     0
  9
$PUCSORGTOP
 10
0.0
 20
0.0
 30
0.0
  9
$PUCSORGBOTTOM
 10
0.0
 20
0.0
 30
0.0
  9
$PUCSORGLEFT
 10
0.0
 20
0.0
 30
0.0
  9
$PUCSORGRIGHT
 10
0.0
 20
0.0
 30
0.0
  9
$PUCSORGFRONT
 10
0.0
 20
0.0
 30
0.0
  9
$PUCSORGBACK
 10
0.0
 20
0.0
 30
0.0
  9
$USERI1
 70
     0
  9
$USERI2
 70
     0
  9
$USERI3
 70
     0
  9
$USERI4
 70
     0
  9
$USERI5
 70
     0
  9
$USERR1
 40
0.0
  9
$USERR2
 40
0.0
  9
$USERR3
 40
0.0
  9
$USERR4
 40
0.0
  9
$USERR5
 40
0.0
  9
$WORLDVIEW
 70
     1
  9
$SHADEDGE
 70
     3
  9
$SHADEDIF
 70
    70
  9
$TILEMODE
 70
     1
  9
$MAXACTVP
 70
    64
  9
$PINSBASE
 10
0.0
 20
0.0
 30
0.0
  9
$PLIMCHECK
 70
     0
  9
$PEXTMIN
 10
1.000000000000000E+20
 20
1.000000000000000E+20
 30
1.000000000000000E+20
  9
$PEXTMAX
 10
-1.000000000000000E+20
 20
-1.000000000000000E+20
 30
-1.000000000000000E+20
  9
$PLIMMIN
 10
0.0
 20
0.0
  9
$PLIMMAX
 10
420.0
 20
297.0
  9
$UNITMODE
 70
     0
  9
$VISRETAIN
 70
     1
  9
$PLINEGEN
 70
     0
  9
$PSLTSCALE
 70
     1
  9
$TREEDEPTH
 70
  3020
  9
$CMLSTYLE
  2
Standard
  9
$CMLJUST
 70
     0
  9
$CMLSCALE
 40
20.0
  9
$PROXYGRAPHICS
 70
     1
  9
$MEASUREMENT
 70
     1
  9
$CELWEIGHT
370
    -1
  9
$ENDCAPS
280
     0
  9
$JOINSTYLE
280
     0
  9
$LWDISPLAY
290
     0
  9
$INSUNITS
 70
     4
  9
$HYPERLINKBASE
  1

  9
$STYLESHEET
  1

  9
$XEDIT
290
     1
  9
$CEPSNTYPE
380
     0
  9
$PSTYLEMODE
290
     1
  9
$FINGERPRINTGUID
  2
{F38A7942-7F9C-4DF4-9B1E-62B847CBB26D}
  9
$VERSIONGUID
  2
{FAEB1C32-E019-11D5-929B-00C0DF256EC4}
  9
$EXTNAMES
290
     1
  9
$PSVPSCALE
 40
0.0
  9
$OLESTARTUP
290
     0
  9
$SORTENTS
280
   127
  9
$INDEXCTL
280
     0
  9
$HIDETEXT
280
     1
  9
$XCLIPFRAME
290
     0
  9
$HALOGAP
280
     0
  9
$OBSCOLOR
 70
   257
  9
$OBSLTYPE
280
     0
  9
$INTERSECTIONDISPLAY
280
     0
  9
$INTERSECTIONCOLOR
 70
   257
  9
$DIMASSOC
280
     2
  9
$PROJECTNAME
  1

  0
ENDSEC
  0
SECTION
  2
CLASSES
  0
CLASS
  1
ACDBDICTIONARYWDFLT
  2
AcDbDictionaryWithDefault
  3
ObjectDBX Classes
 90
        0
 91
        4
280
     0
281
     0
  0
CLASS
  1
VISUALSTYLE
  2
AcDbVisualStyle
  3
ObjectDBX Classes
 90
     4095
 91
        4
280
     0
281
     0
  0
ENDSEC
  0
SECTION
  2
TABLES
  0
TABLE
  2
VPORT
  5
8
330
0
100
AcDbSymbolTable
 70
     1
  0
VPORT
  5
29
330
8
100
AcDbSymbolTableRecord
100
AcDbViewportTableRecord
  2
*Active
 70
     0
 10
0.0
 20
0.0
 11
1.0
 21
1.0
 12
0.0
 22
0.0
 13
0.0
 23
0.0
 14
10.0
 24
10.0
 15
10.0
 25
10.0
 16
0.0
 26
0.0
 36
1.0
 17
0.0
 27
0.0
 37
0.0
 40
1960.2
 41
1.414141414141414
 42
50.0
 43
0.0
 44
0.0
 50
0.0
 51
0.0
 71
     0
 72
 10000
 73
     1
 74
     3
 75
     0
 76
     0
 77
     0
 78
     0
281
     0
 65
     1
110
0.0
120
0.0
130
0.0
111
1.0
121
0.0
131
0.0
112
0.0
122
1.0
132
0.0
 79
     0
146
0.0
  0
ENDTAB
  0
TABLE
  2
LTYPE
  5
5
330
0
100
AcDbSymbolTable
 70
     5
  0
LTYPE
  5
14
330
5
100
AcDbSymbolTableRecord
100
AcDbLinetypeTableRecord
  2
ByBlock
 70
     0
  3

 72
    65
 73
     0
 40
0.0
  0
LTYPE
  5
15
330
5
100
AcDbSymbolTableRecord
100
AcDbLinetypeTableRecord
  2
ByLayer
 70
     0
  3

 72
    65
 73
     0
 40
0.0
  0
LTYPE
  5
16
330
5
100
AcDbSymbolTableRecord
100
AcDbLinetypeTableRecord
  2
Continuous
 70
     0
  3
Solid line
 72
    65
 73
     0
 40
0.0
  0
LTYPE
  5
3C
330
5
100
AcDbSymbolTableRecord
100
AcDbLinetypeTableRecord
  2
JWW_CENTER2
 70
     0
  3
-------------  --  -------------
 72
    65
 73
     4
 40
13.54666666666667
 49
11.00666666666667
 74
     0
 49
-0.8466666666666667
 74
     0
 49
0.8466666666666667
 74
     0
 49
-0.8466666666666667
 74
     0
  0
LTYPE
  5
3D
330
5
100
AcDbSymbolTableRecord
100
AcDbLinetypeTableRecord
  2
JWW_HOJO
 70
     0
  3
  -   -   -   -   -   -   -   - 
 72
    65
 73
     2
 40
1.693333333333333
 49
-1.27
 74
     0
 49
0.4233333333333333
 74
     0
  0
LTYPE
  5
3E
330
5
100
AcDbSymbolTableRecord
100
AcDbLinetypeTableRecord
  2
JWW_CENTER1
 70
     0
  3
-----  --  ----------  --  -----
 72
    65
 73
     4
 40
6.773333333333333
 49
4.233333333333333
 74
     0
 49
-0.8466666666666667
 74
     0
 49
0.8466666666666667
 74
     0
 49
-0.8466666666666667
 74
     0
  0
LTYPE
  5
3F
330
5
100
AcDbSymbolTableRecord
100
AcDbLinetypeTableRecord
  2
JWW_DASHED1
 70
     0
  3
-  --  --  --  --  --  --  --  -
 72
    65
 73
     2
 40
1.693333333333333
 49
0.8466666666666667
 74
     0
 49
-0.8466666666666667
 74
     0
  0
ENDTAB
  0
TABLE
  2
LAYER
  5
2
330
0
100
AcDbSymbolTable
 70
     9
  0
LAYER
  5
10
330
2
100
AcDbSymbolTableRecord
100
AcDbLayerTableRecord
  2
0
 70
     0
 62
     7
  6
Continuous
370
    -3
390
F
  0
LAYER
  5
40
330
2
100
AcDbSymbolTableRecord
100
AcDbLayerTableRecord
  2
通り芯
 70
     0
 62
     7
  6
Continuous
370
    -3
390
F
  0
LAYER
  5
41
330
2
100
AcDbSymbolTableRecord
100
AcDbLayerTableRecord
  2
躯体
 70
     0
 62
     7
  6
Continuous
370
    -3
390
F
  0
LAYER
  5
42
330
2
100
AcDbSymbolTableRecord
100
AcDbLayerTableRecord
  2
仕上
 70
     0
 62
     7
  6
Continuous
370
    -3
390
F
  0
LAYER
  5
43
330
2
100
AcDbSymbolTableRecord
100
AcDbLayerTableRecord
  2
その他
 70
     0
 62
     7
  6
Continuous
370
    -3
390
F
  0
LAYER
  5
44
330
2
100
AcDbSymbolTableRecord
100
AcDbLayerTableRecord
  2
F-4ﾚｲﾔ
 70
     0
 62
     7
  6
Continuous
370
    -3
390
F
  0
LAYER
  5
45
330
2
100
AcDbSymbolTableRecord
100
AcDbLayerTableRecord
  2
寸法
 70
     0
 62
     7
  6
Continuous
370
    -3
390
F
  0
LAYER
  5
46
330
2
100
AcDbSymbolTableRecord
100
AcDbLayerTableRecord
  2
0-E
 70
     0
 62
     7
  6
Continuous
370
    -3
390
F
  0
LAYER
  5
47
330
2
100
AcDbSymbolTableRecord
100
AcDbLayerTableRecord
  2
建具
 70
     0
 62
     7
  6
Continuous
370
    -3
390
F
  0
ENDTAB
  0
TABLE
  2
STYLE
  5
3
330
0
100
AcDbSymbolTable
 70
     2
  0
STYLE
  5
11
330
3
100
AcDbSymbolTableRecord
100
AcDbTextStyleTableRecord
  2
Standard
 70
     0
 40
0.0
 41
1.0
 50
0.0
 71
     0
 42
2.5
  3
txt
  4

1001
ACAD
1000

1071
        0
  0
STYLE
  5
3B
330
3
100
AcDbSymbolTableRecord
100
AcDbTextStyleTableRecord
  2
ＭＳ ゴシック
 70
     0
 40
1.0
 41
1.0
 50
0.0
 71
     0
 42
10.0
  3

  4

1001
ACAD
1000
MS Gothic
1071
    32817
  0
ENDTAB
  0
TABLE
  2
VIEW
  5
6
330
0
100
AcDbSymbolTable
 70
     0
  0
ENDTAB
  0
TABLE
  2
UCS
  5
7
330
0
100
AcDbSymbolTable
 70
     0
  0
ENDTAB
  0
TABLE
  2
APPID
  5
9
330
0
100
AcDbSymbolTable
 70
     1
  0
APPID
  5
12
330
9
100
AcDbSymbolTableRecord
100
AcDbRegAppTableRecord
  2
ACAD
 70
     0
  0
ENDTAB
  0
TABLE
  2
DIMSTYLE
  5
A
330
0
100
AcDbSymbolTable
 70
     1
100
AcDbDimStyleTable
  0
DIMSTYLE
105
27
330
A
100
AcDbSymbolTableRecord
100
AcDbDimStyleTableRecord
  2
ISO-25
 70
     0
 41
2.5
 42
0.625
 43
3.75
 44
1.25
 73
     0
 74
     0
 77
     1
 78
     8
140
2.5
141
2.5
143
0.03937007874016
147
0.625
171
     3
172
     1
271
     2
272
     2
274
     3
278
    44
283
     0
284
     8
340
11
  0
ENDTAB
  0
TABLE
  2
BLOCK_RECORD
  5
1
330
0
100
AcDbSymbolTable
 70
     1
  0
BLOCK_RECORD
  5
1F
330
1
100
AcDbSymbolTableRecord
100
AcDbBlockTableRecord
  2
*Model_Space
340
22
  0
BLOCK_RECORD
  5
1B
330
1
100
AcDbSymbolTableRecord
100
AcDbBlockTableRecord
  2
*Paper_Space
340
1E
  0
BLOCK_RECORD
  5
23
330
1
100
AcDbSymbolTableRecord
100
AcDbBlockTableRecord
  2
*Paper_Space0
340
26
  0
ENDTAB
  0
ENDSEC
  0
SECTION
  2
BLOCKS
  0
BLOCK
  5
20
330
1F
100
AcDbEntity
  8
0
100
AcDbBlockBegin
  2
*Model_Space
 70
     0
 10
0.0
 20
0.0
 30
0.0
  3
*Model_Space
  1

  0
ENDBLK
  5
21
330
1F
100
AcDbEntity
  8
0
100
AcDbBlockEnd
  0
BLOCK
  5
1C
330
1B
100
AcDbEntity
 67
     1
  8
0
100
AcDbBlockBegin
  2
*Paper_Space
 70
     0
 10
0.0
 20
0.0
 30
0.0
  3
*Paper_Space
  1

  0
ENDBLK
  5
1D
330
1B
100
AcDbEntity
 67
     1
  8
0
100
AcDbBlockEnd
  0
BLOCK
  5
24
330
23
100
AcDbEntity
  8
0
100
AcDbBlockBegin
  2
*Paper_Space0
 70
     0
 10
0.0
 20
0.0
 30
0.0
  3
*Paper_Space0
  1

  0
ENDBLK
  5
25
330
23
100
AcDbEntity
  8
0
100
AcDbBlockEnd
  0
ENDSEC
  0
SECTION
  2
ENTITIES
  0
LINE
  5
48
330
1F
100
AcDbEntity
  8
通り芯
  6
Continuous
 62
     3
370
     9
100
AcDbLine
 10
-87.99989442567579
 20
317.6556062580407
 30
0.0
 11
-87.99989442567579
 21
299.6555468724832
 31
0.0
  0
LINE
  5
49
330
1F
100
AcDbEntity
  8
躯体
  6
JWW_CENTER2
 62
     2
370
     9
100
AcDbLine
 10
199.9413732580236
 20
530.6558635954561
 30
0.0
 11
175.7031579919762
 21
530.6558635954561
 31
0.0
  0
LINE
  5
4A
330
1F
100
AcDbEntity
  8
躯体
  6
JWW_CENTER2
 62
     2
370
     9
100
AcDbLine
 10
188.0005707611908
 20
518.3724064322384
 30
0.0
 11
188.0005707611908
 21
543.2570334909376
 31
0.0
  0
LINE
  5
4B
330
1F
100
AcDbEntity
  8
躯体
  6
Continuous
 62
     2
370
     9
100
AcDbLine
 10
257.0506822740709
 20
515.2503592141218
 30
0.0
 11
257.1632179054053
 21
515.3627463815626
 31
0.0
  0
LINE
  5
4C
330
1F
100
AcDbEntity
  8
躯体
  6
Continuous
 62
     2
370
     9
100
AcDbLine
 10
257.0506822740709
 20
515.2503592141218
 30
0.0
 11
268.9534780141469
 21
527.1530064903042
 31
0.0
  0
LINE
  5
4D
330
1F
100
AcDbEntity
  8
躯体
  6
Continuous
 62
     2
370
     9
100
AcDbLine
 10
268.0006367451436
 20
510.3007214660221
 30
0.0
 11
268.0006367451436
 21
335.085118900566
 31
0.0
  0
LINE
  5
4E
330
1F
100
AcDbEntity
  8
躯体
  6
Continuous
 62
     2
370
     9
100
AcDbLine
 10
269.0006895323058
 20
510.3007214660221
 30
0.0
 11
269.0006895323058
 21
335.085118900566
 31
0.0
  0
LINE
  5
4F
330
1F
100
AcDbEntity
  8
躯体
  6
Continuous
 62
     2
370
     9
100
AcDbLine
 10
257.7581127269848
 20
514.5432256889951
 30
0.0
 11
201.4037426097973
 21
458.1890040357012
 31
0.0
  0
LINE
  5
50
330
1F
100
AcDbEntity
  8
躯体
  6
Continuous
 62
     2
370
     9
100
AcDbLine
 10
241.2225011877111
 20
520.6351446343076
 30
0.0
 11
236.9799969647381
 21
524.877500393387
 31
0.0
  0
LINE
  5
51
330
1F
100
AcDbEntity
  8
躯体
  6
Continuous
 62
     2
370
     9
100
AcDbLine
 10
241.2225011877111
 20
520.6351446343076
 30
0.0
 11
192.5391119879645
 21
468.0156806879393
 31
0.0
  0
LINE
  5
52
330
1F
100
AcDbEntity
  8
躯体
  6
Continuous
 62
     2
370
     9
100
AcDbLine
 10
236.9799969647381
 20
524.877500393387
 30
0.0
 11
184.3605330183698
 21
476.1942596575338
 31
0.0
  0
LINE
  5
53
330
1F
100
AcDbEntity
  8
躯体
  6
Continuous
 62
     2
370
     9
100
AcDbLine
 10
199.9896240234375
 20
459.6032710859545
 30
0.0
 11
267.8419288429053
 21
527.4558728332097
 31
0.0
  0
LINE
  5
54
330
1F
100
AcDbEntity
  8
躯体
  6
Continuous
 62
     2
370
     9
100
AcDbLine
 10
189.3968736803209
 20
468.8101109824917
 30
0.0
 11
241.2225011877111
 21
520.6351446343076
 31
0.0
  0
LINE
  5
55
330
1F
100
AcDbEntity
  8
躯体
  6
Continuous
 62
     2
370
     9
100
AcDbLine
 10
185.154369457348
 20
473.0526152054646
 30
0.0
 11
236.9799969647381
 21
524.877500393387
 31
0.0
  0
LINE
  5
56
330
1F
100
AcDbEntity
  8
躯体
  6
Continuous
 62
     2
370
     9
100
AcDbLine
 10
175.947826488598
 20
483.6449201569004
 30
0.0
 11
243.8001313080658
 21
551.4976703680492
 31
0.0
  0
LINE
  5
57
330
1F
100
AcDbEntity
  8
躯体
  6
Continuous
 62
     2
370
     9
100
AcDbLine
 10
174.5337079022381
 20
485.0591872071539
 30
0.0
 11
230.8877810916384
 21
541.4132603965542
 31
0.0
  0
LINE
  5
58
330
1F
100
AcDbEntity
  8
躯体
  6
Continuous
 62
     2
370
     9
100
AcDbLine
 10
51.42982276710296
 20
551.6560813425001
 30
0.0
 11
226.6449799408783
 21
551.6560813425001
 31
0.0
  0
LINE
  5
59
330
1F
100
AcDbEntity
  8
躯体
  6
Continuous
 62
     2
370
     9
100
AcDbLine
 10
51.42982276710296
 20
552.6561341296623
 30
0.0
 11
226.6449799408783
 21
552.6561341296623
 31
0.0
  0
LINE
  5
5A
330
1F
100
AcDbEntity
  8
躯体
  6
Continuous
 62
     2
370
     9
100
AcDbLine
 10
280.0006763355152
 20
518.6561209328718
 30
0.0
 11
280.0006763355152
 21
48.65588174104323
 31
0.0
  0
LINE
  5
5B
330
1F
100
AcDbEntity
  8
躯体
  6
Continuous
 62
     2
370
     9
100
AcDbLine
 10
-234.9994886243666
 20
563.6558240050847
 30
0.0
 11
235.0006763355152
 21
563.6558240050847
 31
0.0
  0
LINE
  5
5C
330
1F
100
AcDbEntity
  8
躯体
  6
Continuous
 62
     2
370
     9
100
AcDbLine
 10
235.0006763355152
 20
562.6560681457097
 30
0.0
 11
-234.9994886243666
 21
562.6560681457097
 31
0.0
  0
LINE
  5
5D
330
1F
100
AcDbEntity
  8
躯体
  6
JWW_CENTER2
 62
     2
370
     9
100
AcDbLine
 10
-258.7572004988388
 20
542.4139070392907
 30
0.0
 11
-235.5219330658784
 21
519.1785653743835
 31
0.0
  0
LINE
  5
5E
330
1F
100
AcDbEntity
  8
躯体
  6
Continuous
 62
     2
370
     9
100
AcDbLine
 10
-231.5938753695102
 20
540.706275335321
 30
0.0
 11
-243.4963741817991
 21
552.6089226115035
 31
0.0
  0
LINE
  5
5F
330
1F
100
AcDbEntity
  8
躯体
  6
JWW_CENTER2
 62
     2
370
     9
100
AcDbLine
 10
-226.1726420634502
 20
509.8292001400085
 30
0.0
 11
-277.26693643106
 21
560.9234945076184
 31
0.0
  0
LINE
  5
60
330
1F
100
AcDbEntity
  8
躯体
  6
Continuous
 62
     2
370
     9
100
AcDbLine
 10
-226.644089157517
 20
551.6560813425001
 30
0.0
 11
-51.42863505595437
 21
551.6560813425001
 31
0.0
  0
LINE
  5
61
330
1F
100
AcDbEntity
  8
躯体
  6
Continuous
 62
     2
370
     9
100
AcDbLine
 10
-226.644089157517
 20
552.6558372018751
 30
0.0
 11
-51.42863505595437
 21
552.6558372018751
 31
0.0
  0
LINE
  5
62
330
1F
100
AcDbEntity
  8
躯体
  6
Continuous
 62
     2
370
     9
100
AcDbLine
 10
-230.8865933804899
 20
541.4132603965542
 30
0.0
 11
-174.5322232633024
 21
485.0591872071539
 31
0.0
  0
LINE
  5
63
330
1F
100
AcDbEntity
  8
躯体
  6
Continuous
 62
     2
370
     9
100
AcDbLine
 10
-236.9785123258024
 20
524.8777973211742
 30
0.0
 11
-184.3591226113809
 21
476.1942596575338
 31
0.0
  0
LINE
  5
64
330
1F
100
AcDbEntity
  8
躯体
  6
Continuous
 62
     2
370
     9
100
AcDbLine
 10
-241.2210165487754
 20
520.6354415620948
 30
0.0
 11
-192.5376273490288
 21
468.0156806879393
 31
0.0
  0
LINE
  5
65
330
1F
100
AcDbEntity
  8
躯体
  6
Continuous
 62
     2
370
     9
100
AcDbLine
 10
-175.9466387774494
 20
483.6449201569004
 30
0.0
 11
-243.7993147566513
 21
551.4976703680492
 31
0.0
  0
LINE
  5
66
330
1F
100
AcDbEntity
  8
躯体
  6
Continuous
 62
     2
370
     9
100
AcDbLine
 10
-199.9883620803421
 20
459.6032710859545
 30
0.0
 11
-267.841038059544
 21
527.4558728332097
 31
0.0
  0
LINE
  5
67
330
1F
100
AcDbEntity
  8
躯体
  6
Continuous
 62
     2
370
     9
100
AcDbLine
 10
-257.0494203309755
 20
515.2503592141218
 30
0.0
 11
-257.1621044262036
 21
515.3627463815626
 31
0.0
  0
LINE
  5
68
330
1F
100
AcDbEntity
  8
躯体
  6
Continuous
 62
     2
370
     9
100
AcDbLine
 10
-201.4025548986487
 20
458.1890040357012
 30
0.0
 11
-257.7567023199958
 21
514.5432256889951
 31
0.0
  0
LINE
  5
69
330
1F
100
AcDbEntity
  8
躯体
  6
Continuous
 62
     2
370
     9
100
AcDbLine
 10
-267.9995232659418
 20
335.085118900566
 30
0.0
 11
-267.9995232659418
 21
510.3007214660221
 31
0.0
  0
LINE
  5
6A
330
1F
100
AcDbEntity
  8
躯体
  6
Continuous
 62
     2
370
     9
100
AcDbLine
 10
-268.9995760531039
 20
335.085118900566
 30
0.0
 11
-268.9995760531039
 21
510.3007214660221
 31
0.0
  0
LINE
  5
6B
330
1F
100
AcDbEntity
  8
躯体
  6
Continuous
 62
     2
370
     9
100
AcDbLine
 10
-279.9992659285263
 20
48.65588174104323
 30
0.0
 11
-279.9992659285263
 21
518.6558240050847
 31
0.0
  0
LINE
  5
6C
330
1F
100
AcDbEntity
  8
躯体
  6
Continuous
 62
     2
370
     9
100
AcDbLine
 10
235.0006763355152
 20
3.656104436883538
 30
0.0
 11
-234.9991916965795
 21
3.656104436883538
 31
0.0
  0
LINE
  5
6D
330
1F
100
AcDbEntity
  8
躯体
  6
Continuous
 62
     2
370
     9
100
AcDbLine
 10
-185.1534786739866
 20
473.0526152054646
 30
0.0
 11
-236.9785123258024
 21
524.8777973211742
 31
0.0
  0
LINE
  5
6E
330
1F
100
AcDbEntity
  8
躯体
  6
Continuous
 62
     2
370
     9
100
AcDbLine
 10
-236.9785123258024
 20
524.8777973211742
 30
0.0
 11
-241.2210165487754
 21
520.6354415620948
 31
0.0
  0
LINE
  5
6F
330
1F
100
AcDbEntity
  8
躯体
  6
Continuous
 62
     2
370
     9
100
AcDbLine
 10
-189.3959828969595
 20
468.8101109824917
 30
0.0
 11
-241.2213134765626
 21
520.6351446343076
 31
0.0
  0
LINE
  5
70
330
1F
100
AcDbEntity
  8
通り芯
  6
Continuous
 62
     3
370
     9
100
AcDbLine
 10
-19.9998680320947
 20
342.6561836176268
 30
0.0
 11
-19.9998680320947
 21
324.6559757681757
 31
0.0
  0
LINE
  5
71
330
1F
100
AcDbEntity
  8
通り芯
  6
Continuous
 62
     3
370
     9
100
AcDbLine
 10
-65.9996238914697
 20
342.6561836176268
 30
0.0
 11
-25.99944243559969
 21
342.6561836176268
 31
0.0
  0
LINE
  5
72
330
1F
100
AcDbEntity
  8
通り芯
  6
Continuous
 62
     3
370
     9
100
AcDbLine
 10
-25.99944243559969
 20
342.6561836176268
 30
0.0
 11
-25.99944243559969
 21
324.6559757681757
 31
0.0
  0
LINE
  5
73
330
1F
100
AcDbEntity
  8
通り芯
  6
Continuous
 62
     3
370
     9
100
AcDbLine
 10
-65.9996238914697
 20
324.6559757681757
 30
0.0
 11
-25.99944243559969
 21
324.6559757681757
 31
0.0
  0
LINE
  5
74
330
1F
100
AcDbEntity
  8
通り芯
  6
Continuous
 62
     3
370
     9
100
AcDbLine
 10
-65.9996238914697
 20
342.6561836176268
 30
0.0
 11
-65.9996238914697
 21
324.6559757681757
 31
0.0
  0
LINE
  5
75
330
1F
100
AcDbEntity
  8
通り芯
  6
Continuous
 62
     3
370
     9
100
AcDbLine
 10
-111.9998251425253
 20
342.6561836176268
 30
0.0
 11
-71.99956945470859
 21
342.6561836176268
 31
0.0
  0
LINE
  5
76
330
1F
100
AcDbEntity
  8
通り芯
  6
Continuous
 62
     3
370
     9
100
AcDbLine
 10
-111.9998251425253
 20
324.6559757681757
 30
0.0
 11
-71.99956945470859
 21
324.6559757681757
 31
0.0
  0
LINE
  5
77
330
1F
100
AcDbEntity
  8
通り芯
  6
Continuous
 62
     3
370
     9
100
AcDbLine
 10
-111.9998251425253
 20
342.6561836176268
 30
0.0
 11
-111.9998251425253
 21
324.6559757681757
 31
0.0
  0
LINE
  5
78
330
1F
100
AcDbEntity
  8
通り芯
  6
Continuous
 62
     3
370
     9
100
AcDbLine
 10
-157.9997294657939
 20
342.6561836176268
 30
0.0
 11
-117.9996964738177
 21
342.6561836176268
 31
0.0
  0
LINE
  5
79
330
1F
100
AcDbEntity
  8
通り芯
  6
Continuous
 62
     3
370
     9
100
AcDbLine
 10
-117.9996964738177
 20
342.6561836176268
 30
0.0
 11
-117.9996964738177
 21
324.6559757681757
 31
0.0
  0
LINE
  5
7A
330
1F
100
AcDbEntity
  8
通り芯
  6
Continuous
 62
     3
370
     9
100
AcDbLine
 10
-157.9997294657939
 20
324.6559757681757
 30
0.0
 11
-117.9996964738177
 21
324.6559757681757
 31
0.0
  0
LINE
  5
7B
330
1F
100
AcDbEntity
  8
通り芯
  6
Continuous
 62
     3
370
     9
100
AcDbLine
 10
-157.9997294657939
 20
342.6561836176268
 30
0.0
 11
-157.9997294657939
 21
324.6559757681757
 31
0.0
  0
LINE
  5
7C
330
1F
100
AcDbEntity
  8
通り芯
  6
Continuous
 62
     3
370
     9
100
AcDbLine
 10
-203.9996337890626
 20
342.6561836176268
 30
0.0
 11
-163.9997492609799
 21
342.6561836176268
 31
0.0
  0
LINE
  5
7D
330
1F
100
AcDbEntity
  8
通り芯
  6
Continuous
 62
     3
370
     9
100
AcDbLine
 10
-163.9997492609799
 20
342.6561836176268
 30
0.0
 11
-163.9997492609799
 21
324.6559757681757
 31
0.0
  0
LINE
  5
7E
330
1F
100
AcDbEntity
  8
通り芯
  6
Continuous
 62
     3
370
     9
100
AcDbLine
 10
-203.9996337890626
 20
324.6559757681757
 30
0.0
 11
-163.9997492609799
 21
324.6559757681757
 31
0.0
  0
LINE
  5
7F
330
1F
100
AcDbEntity
  8
通り芯
  6
Continuous
 62
     3
370
     9
100
AcDbLine
 10
-203.9996337890626
 20
342.6561836176268
 30
0.0
 11
-203.9996337890626
 21
324.6559757681757
 31
0.0
  0
LINE
  5
80
330
1F
100
AcDbEntity
  8
通り芯
  6
Continuous
 62
     3
370
     9
100
AcDbLine
 10
-209.9996535842484
 20
342.6561836176268
 30
0.0
 11
-209.9996535842484
 21
324.6559757681757
 31
0.0
  0
LINE
  5
81
330
1F
100
AcDbEntity
  8
通り芯
  6
Continuous
 62
     3
370
     9
100
AcDbLine
 10
-128.9997575089739
 20
317.6556062580407
 30
0.0
 11
-100.9996898754223
 21
317.6556062580407
 31
0.0
  0
LINE
  5
82
330
1F
100
AcDbEntity
  8
通り芯
  6
Continuous
 62
     3
370
     9
100
AcDbLine
 10
-95.99972286739876
 20
317.6556062580407
 30
0.0
 11
-87.99989442567579
 21
317.6556062580407
 31
0.0
  0
LINE
  5
83
330
1F
100
AcDbEntity
  8
通り芯
  6
Continuous
 62
     3
370
     9
100
AcDbLine
 10
-95.99972286739876
 20
299.6555468724832
 30
0.0
 11
-87.99989442567579
 21
299.6555468724832
 31
0.0
  0
LINE
  5
84
330
1F
100
AcDbEntity
  8
通り芯
  6
Continuous
 62
     3
370
     9
100
AcDbLine
 10
-95.99972286739876
 20
317.6556062580407
 30
0.0
 11
-95.99972286739876
 21
299.6555468724832
 31
0.0
  0
LINE
  5
85
330
1F
100
AcDbEntity
  8
通り芯
  6
Continuous
 62
     3
370
     9
100
AcDbLine
 10
-174.9996618322424
 20
317.6556062580407
 30
0.0
 11
-146.9997426625845
 21
317.6556062580407
 31
0.0
  0
LINE
  5
86
330
1F
100
AcDbEntity
  8
通り芯
  6
Continuous
 62
     3
370
     9
100
AcDbLine
 10
-141.9997756545608
 20
317.6556062580407
 30
0.0
 11
-133.9998729808911
 21
317.6556062580407
 31
0.0
  0
LINE
  5
87
330
1F
100
AcDbEntity
  8
通り芯
  6
Continuous
 62
     3
370
     9
100
AcDbLine
 10
-220.9997888513514
 20
317.6556062580407
 30
0.0
 11
-192.9997212177998
 21
317.6556062580407
 31
0.0
  0
LINE
  5
88
330
1F
100
AcDbEntity
  8
通り芯
  6
Continuous
 62
     3
370
     9
100
AcDbLine
 10
-187.9997542097763
 20
317.6556062580407
 30
0.0
 11
-179.9997773041597
 21
317.6556062580407
 31
0.0
  0
LINE
  5
89
330
1F
100
AcDbEntity
  8
通り芯
  6
Continuous
 62
     3
370
     9
100
AcDbLine
 10
-179.9997773041597
 20
317.6556062580407
 30
0.0
 11
-179.9997773041597
 21
299.6555468724832
 31
0.0
  0
LINE
  5
8A
330
1F
100
AcDbEntity
  8
通り芯
  6
Continuous
 62
     3
370
     9
100
AcDbLine
 10
-187.9997542097763
 20
299.6555468724832
 30
0.0
 11
-179.9997773041597
 21
299.6555468724832
 31
0.0
  0
LINE
  5
8B
330
1F
100
AcDbEntity
  8
通り芯
  6
Continuous
 62
     3
370
     9
100
AcDbLine
 10
-187.9997542097763
 20
317.6556062580407
 30
0.0
 11
-187.9997542097763
 21
299.6555468724832
 31
0.0
  0
LINE
  5
8C
330
1F
100
AcDbEntity
  8
通り芯
  6
Continuous
 62
     3
370
     9
100
AcDbLine
 10
-192.9997212177998
 20
317.6556062580407
 30
0.0
 11
-192.9997212177998
 21
299.6555468724832
 31
0.0
  0
LINE
  5
8D
330
1F
100
AcDbEntity
  8
通り芯
  6
Continuous
 62
     3
370
     9
100
AcDbLine
 10
-220.9997888513514
 20
299.6555468724832
 30
0.0
 11
-192.9997212177998
 21
299.6555468724832
 31
0.0
  0
LINE
  5
8E
330
1F
100
AcDbEntity
  8
通り芯
  6
Continuous
 62
     3
370
     9
100
AcDbLine
 10
-220.9997888513514
 20
317.6556062580407
 30
0.0
 11
-220.9997888513514
 21
299.6555468724832
 31
0.0
  0
LINE
  5
8F
330
1F
100
AcDbEntity
  8
通り芯
  6
Continuous
 62
     3
370
     9
100
AcDbLine
 10
-225.9999043232686
 20
317.6556062580407
 30
0.0
 11
-225.9999043232686
 21
299.6555468724832
 31
0.0
  0
LINE
  5
90
330
1F
100
AcDbEntity
  8
通り芯
  6
Continuous
 62
     3
370
     9
100
AcDbLine
 10
-111.9998251425253
 20
392.6558536978634
 30
0.0
 11
-71.99956945470859
 21
392.6558536978634
 31
0.0
  0
LINE
  5
91
330
1F
100
AcDbEntity
  8
通り芯
  6
Continuous
 62
     3
370
     9
100
AcDbLine
 10
-71.99956945470859
 20
392.6558536978634
 30
0.0
 11
-71.99956945470859
 21
374.6560912400931
 31
0.0
  0
LINE
  5
92
330
1F
100
AcDbEntity
  8
通り芯
  6
Continuous
 62
     3
370
     9
100
AcDbLine
 10
-111.9998251425253
 20
374.6560912400931
 30
0.0
 11
-71.99956945470859
 21
374.6560912400931
 31
0.0
  0
LINE
  5
93
330
1F
100
AcDbEntity
  8
通り芯
  6
Continuous
 62
     3
370
     9
100
AcDbLine
 10
-111.9998251425253
 20
392.6558536978634
 30
0.0
 11
-111.9998251425253
 21
374.6560912400931
 31
0.0
  0
LINE
  5
94
330
1F
100
AcDbEntity
  8
通り芯
  6
Continuous
 62
     3
370
     9
100
AcDbLine
 10
-157.9997294657939
 20
392.6558536978634
 30
0.0
 11
-117.9996964738177
 21
392.6558536978634
 31
0.0
  0
LINE
  5
95
330
1F
100
AcDbEntity
  8
通り芯
  6
Continuous
 62
     3
370
     9
100
AcDbLine
 10
-117.9996964738177
 20
392.6558536978634
 30
0.0
 11
-117.9996964738177
 21
374.6560912400931
 31
0.0
  0
LINE
  5
96
330
1F
100
AcDbEntity
  8
通り芯
  6
Continuous
 62
     3
370
     9
100
AcDbLine
 10
-157.9997294657939
 20
374.6560912400931
 30
0.0
 11
-117.9996964738177
 21
374.6560912400931
 31
0.0
  0
LINE
  5
97
330
1F
100
AcDbEntity
  8
通り芯
  6
Continuous
 62
     3
370
     9
100
AcDbLine
 10
-157.9997294657939
 20
392.6558536978634
 30
0.0
 11
-157.9997294657939
 21
374.6560912400931
 31
0.0
  0
LINE
  5
98
330
1F
100
AcDbEntity
  8
通り芯
  6
Continuous
 62
     3
370
     9
100
AcDbLine
 10
-163.9997492609799
 20
392.6558536978634
 30
0.0
 11
-163.9997492609799
 21
374.6560912400931
 31
0.0
  0
LINE
  5
99
330
1F
100
AcDbEntity
  8
通り芯
  6
Continuous
 62
     3
370
     9
100
AcDbLine
 10
-203.9996337890626
 20
374.6560912400931
 30
0.0
 11
-163.9997492609799
 21
374.6560912400931
 31
0.0
  0
LINE
  5
9A
330
1F
100
AcDbEntity
  8
通り芯
  6
Continuous
 62
     3
370
     9
100
AcDbLine
 10
-36.99987463048984
 20
367.6560186577451
 30
0.0
 11
-8.999881228885158
 21
367.6560186577451
 31
0.0
  0
LINE
  5
9B
330
1F
100
AcDbEntity
  8
通り芯
  6
Continuous
 62
     3
370
     9
100
AcDbLine
 10
-3.999765756967975
 20
367.6560186577451
 30
0.0
 11
-3.999765756967975
 21
349.6559592721876
 31
0.0
  0
LINE
  5
9C
330
1F
100
AcDbEntity
  8
通り芯
  6
Continuous
 62
     3
370
     9
100
AcDbLine
 10
-8.999881228885158
 20
367.6560186577451
 30
0.0
 11
-8.999881228885158
 21
349.6559592721876
 31
0.0
  0
LINE
  5
9D
330
1F
100
AcDbEntity
  8
通り芯
  6
Continuous
 62
     3
370
     9
100
AcDbLine
 10
-36.99987463048984
 20
349.6559592721876
 30
0.0
 11
-8.999881228885158
 21
349.6559592721876
 31
0.0
  0
LINE
  5
9E
330
1F
100
AcDbEntity
  8
通り芯
  6
Continuous
 62
     3
370
     9
100
AcDbLine
 10
-36.99987463048984
 20
367.6560186577451
 30
0.0
 11
-36.99987463048984
 21
349.6559592721876
 31
0.0
  0
LINE
  5
9F
330
1F
100
AcDbEntity
  8
通り芯
  6
Continuous
 62
     3
370
     9
100
AcDbLine
 10
-82.99992741765203
 20
367.6560186577451
 30
0.0
 11
-54.99963708826016
 21
367.6560186577451
 31
0.0
  0
LINE
  5
A0
330
1F
100
AcDbEntity
  8
通り芯
  6
Continuous
 62
     3
370
     9
100
AcDbLine
 10
-49.99959584828969
 20
367.6560186577451
 30
0.0
 11
-41.9998416385136
 21
367.6560186577451
 31
0.0
  0
LINE
  5
A1
330
1F
100
AcDbEntity
  8
通り芯
  6
Continuous
 62
     3
370
     9
100
AcDbLine
 10
-41.9998416385136
 20
367.6560186577451
 30
0.0
 11
-41.9998416385136
 21
349.6559592721876
 31
0.0
  0
LINE
  5
A2
330
1F
100
AcDbEntity
  8
通り芯
  6
Continuous
 62
     3
370
     9
100
AcDbLine
 10
-49.99959584828969
 20
349.6559592721876
 30
0.0
 11
-41.9998416385136
 21
349.6559592721876
 31
0.0
  0
LINE
  5
A3
330
1F
100
AcDbEntity
  8
通り芯
  6
Continuous
 62
     3
370
     9
100
AcDbLine
 10
-49.99959584828969
 20
367.6560186577451
 30
0.0
 11
-49.99959584828969
 21
349.6559592721876
 31
0.0
  0
LINE
  5
A4
330
1F
100
AcDbEntity
  8
通り芯
  6
Continuous
 62
     3
370
     9
100
AcDbLine
 10
-54.99963708826016
 20
367.6560186577451
 30
0.0
 11
-54.99963708826016
 21
349.6559592721876
 31
0.0
  0
LINE
  5
A5
330
1F
100
AcDbEntity
  8
通り芯
  6
Continuous
 62
     3
370
     9
100
AcDbLine
 10
-82.99992741765203
 20
349.6559592721876
 30
0.0
 11
-54.99963708826016
 21
349.6559592721876
 31
0.0
  0
LINE
  5
A6
330
1F
100
AcDbEntity
  8
通り芯
  6
Continuous
 62
     3
370
     9
100
AcDbLine
 10
-82.99992741765203
 20
367.6560186577451
 30
0.0
 11
-82.99992741765203
 21
349.6559592721876
 31
0.0
  0
LINE
  5
A7
330
1F
100
AcDbEntity
  8
通り芯
  6
Continuous
 62
     3
370
     9
100
AcDbLine
 10
-128.9997575089739
 20
367.6560186577451
 30
0.0
 11
-100.9996898754223
 21
367.6560186577451
 31
0.0
  0
LINE
  5
A8
330
1F
100
AcDbEntity
  8
通り芯
  6
Continuous
 62
     3
370
     9
100
AcDbLine
 10
-95.99972286739876
 20
367.6560186577451
 30
0.0
 11
-87.99989442567579
 21
367.6560186577451
 31
0.0
  0
LINE
  5
A9
330
1F
100
AcDbEntity
  8
通り芯
  6
Continuous
 62
     3
370
     9
100
AcDbLine
 10
-87.99989442567579
 20
367.6560186577451
 30
0.0
 11
-87.99989442567579
 21
349.6559592721876
 31
0.0
  0
LINE
  5
AA
330
1F
100
AcDbEntity
  8
通り芯
  6
Continuous
 62
     3
370
     9
100
AcDbLine
 10
-95.99972286739876
 20
349.6559592721876
 30
0.0
 11
-87.99989442567579
 21
349.6559592721876
 31
0.0
  0
LINE
  5
AB
330
1F
100
AcDbEntity
  8
通り芯
  6
Continuous
 62
     3
370
     9
100
AcDbLine
 10
-95.99972286739876
 20
367.6560186577451
 30
0.0
 11
-95.99972286739876
 21
349.6559592721876
 31
0.0
  0
LINE
  5
AC
330
1F
100
AcDbEntity
  8
通り芯
  6
Continuous
 62
     3
370
     9
100
AcDbLine
 10
-100.9996898754223
 20
367.6560186577451
 30
0.0
 11
-100.9996898754223
 21
349.6559592721876
 31
0.0
  0
LINE
  5
AD
330
1F
100
AcDbEntity
  8
通り芯
  6
Continuous
 62
     3
370
     9
100
AcDbLine
 10
-128.9997575089739
 20
349.6559592721876
 30
0.0
 11
-100.9996898754223
 21
349.6559592721876
 31
0.0
  0
LINE
  5
AE
330
1F
100
AcDbEntity
  8
通り芯
  6
Continuous
 62
     3
370
     9
100
AcDbLine
 10
-128.9997575089739
 20
367.6560186577451
 30
0.0
 11
-128.9997575089739
 21
349.6559592721876
 31
0.0
  0
LINE
  5
AF
330
1F
100
AcDbEntity
  8
通り芯
  6
Continuous
 62
     3
370
     9
100
AcDbLine
 10
-174.9996618322424
 20
367.6560186577451
 30
0.0
 11
-146.9997426625845
 21
367.6560186577451
 31
0.0
  0
LINE
  5
B0
330
1F
100
AcDbEntity
  8
通り芯
  6
Continuous
 62
     3
370
     9
100
AcDbLine
 10
-141.9997756545608
 20
367.6560186577451
 30
0.0
 11
-133.9998729808911
 21
367.6560186577451
 31
0.0
  0
LINE
  5
B1
330
1F
100
AcDbEntity
  8
通り芯
  6
Continuous
 62
     3
370
     9
100
AcDbLine
 10
-133.9998729808911
 20
367.6560186577451
 30
0.0
 11
-133.9998729808911
 21
349.6559592721876
 31
0.0
  0
LINE
  5
B2
330
1F
100
AcDbEntity
  8
通り芯
  6
Continuous
 62
     3
370
     9
100
AcDbLine
 10
-141.9997756545608
 20
349.6559592721876
 30
0.0
 11
-133.9998729808911
 21
349.6559592721876
 31
0.0
  0
LINE
  5
B3
330
1F
100
AcDbEntity
  8
通り芯
  6
Continuous
 62
     3
370
     9
100
AcDbLine
 10
-141.9997756545608
 20
367.6560186577451
 30
0.0
 11
-141.9997756545608
 21
349.6559592721876
 31
0.0
  0
LINE
  5
B4
330
1F
100
AcDbEntity
  8
通り芯
  6
Continuous
 62
     3
370
     9
100
AcDbLine
 10
-146.9997426625845
 20
367.6560186577451
 30
0.0
 11
-146.9997426625845
 21
349.6559592721876
 31
0.0
  0
LINE
  5
B5
330
1F
100
AcDbEntity
  8
通り芯
  6
Continuous
 62
     3
370
     9
100
AcDbLine
 10
-174.9996618322424
 20
349.6559592721876
 30
0.0
 11
-146.9997426625845
 21
349.6559592721876
 31
0.0
  0
LINE
  5
B6
330
1F
100
AcDbEntity
  8
通り芯
  6
Continuous
 62
     3
370
     9
100
AcDbLine
 10
-174.9996618322424
 20
367.6560186577451
 30
0.0
 11
-174.9996618322424
 21
349.6559592721876
 31
0.0
  0
LINE
  5
B7
330
1F
100
AcDbEntity
  8
通り芯
  6
Continuous
 62
     3
370
     9
100
AcDbLine
 10
-187.9997542097763
 20
367.6560186577451
 30
0.0
 11
-179.9997773041597
 21
367.6560186577451
 31
0.0
  0
LINE
  5
B8
330
1F
100
AcDbEntity
  8
通り芯
  6
Continuous
 62
     3
370
     9
100
AcDbLine
 10
-179.9997773041597
 20
367.6560186577451
 30
0.0
 11
-179.9997773041597
 21
349.6559592721876
 31
0.0
  0
LINE
  5
B9
330
1F
100
AcDbEntity
  8
通り芯
  6
Continuous
 62
     3
370
     9
100
AcDbLine
 10
-187.9997542097763
 20
349.6559592721876
 30
0.0
 11
-179.9997773041597
 21
349.6559592721876
 31
0.0
  0
LINE
  5
BA
330
1F
100
AcDbEntity
  8
通り芯
  6
Continuous
 62
     3
370
     9
100
AcDbLine
 10
-187.9997542097763
 20
367.6560186577451
 30
0.0
 11
-187.9997542097763
 21
349.6559592721876
 31
0.0
  0
LINE
  5
BB
330
1F
100
AcDbEntity
  8
通り芯
  6
Continuous
 62
     3
370
     9
100
AcDbLine
 10
-192.9997212177998
 20
367.6560186577451
 30
0.0
 11
-192.9997212177998
 21
349.6559592721876
 31
0.0
  0
LINE
  5
BC
330
1F
100
AcDbEntity
  8
通り芯
  6
Continuous
 62
     3
370
     9
100
AcDbLine
 10
-111.9998251425253
 20
442.655820705887
 30
0.0
 11
-71.99956945470859
 21
442.655820705887
 31
0.0
  0
LINE
  5
BD
330
1F
100
AcDbEntity
  8
通り芯
  6
Continuous
 62
     3
370
     9
100
AcDbLine
 10
-71.99956945470859
 20
442.655820705887
 30
0.0
 11
-71.99956945470859
 21
424.6557613203295
 31
0.0
  0
LINE
  5
BE
330
1F
100
AcDbEntity
  8
通り芯
  6
Continuous
 62
     3
370
     9
100
AcDbLine
 10
-111.9998251425253
 20
424.6557613203295
 30
0.0
 11
-71.99956945470859
 21
424.6557613203295
 31
0.0
  0
LINE
  5
BF
330
1F
100
AcDbEntity
  8
通り芯
  6
Continuous
 62
     3
370
     9
100
AcDbLine
 10
-111.9998251425253
 20
442.655820705887
 30
0.0
 11
-111.9998251425253
 21
424.6557613203295
 31
0.0
  0
LINE
  5
C0
330
1F
100
AcDbEntity
  8
通り芯
  6
Continuous
 62
     3
370
     9
100
AcDbLine
 10
-157.9997294657939
 20
442.655820705887
 30
0.0
 11
-117.9996964738177
 21
442.655820705887
 31
0.0
  0
LINE
  5
C1
330
1F
100
AcDbEntity
  8
通り芯
  6
Continuous
 62
     3
370
     9
100
AcDbLine
 10
-117.9996964738177
 20
442.655820705887
 30
0.0
 11
-117.9996964738177
 21
424.6557613203295
 31
0.0
  0
LINE
  5
C2
330
1F
100
AcDbEntity
  8
通り芯
  6
Continuous
 62
     3
370
     9
100
AcDbLine
 10
-157.9997294657939
 20
424.6557613203295
 30
0.0
 11
-117.9996964738177
 21
424.6557613203295
 31
0.0
  0
LINE
  5
C3
330
1F
100
AcDbEntity
  8
通り芯
  6
Continuous
 62
     3
370
     9
100
AcDbLine
 10
-157.9997294657939
 20
442.655820705887
 30
0.0
 11
-157.9997294657939
 21
424.6557613203295
 31
0.0
  0
LINE
  5
C4
330
1F
100
AcDbEntity
  8
通り芯
  6
Continuous
 62
     3
370
     9
100
AcDbLine
 10
-163.9997492609799
 20
442.655820705887
 30
0.0
 11
-163.9997492609799
 21
424.6557613203295
 31
0.0
  0
LINE
  5
C5
330
1F
100
AcDbEntity
  8
通り芯
  6
Continuous
 62
     3
370
     9
100
AcDbLine
 10
-128.9997575089739
 20
417.6556887379815
 30
0.0
 11
-100.9996898754223
 21
417.6556887379815
 31
0.0
  0
LINE
  5
C6
330
1F
100
AcDbEntity
  8
通り芯
  6
Continuous
 62
     3
370
     9
100
AcDbLine
 10
-95.99972286739876
 20
417.6556887379815
 30
0.0
 11
-87.99989442567579
 21
417.6556887379815
 31
0.0
  0
LINE
  5
C7
330
1F
100
AcDbEntity
  8
通り芯
  6
Continuous
 62
     3
370
     9
100
AcDbLine
 10
-87.99989442567579
 20
417.6556887379815
 30
0.0
 11
-87.99989442567579
 21
399.6559262802114
 31
0.0
  0
LINE
  5
C8
330
1F
100
AcDbEntity
  8
通り芯
  6
Continuous
 62
     3
370
     9
100
AcDbLine
 10
-95.99972286739876
 20
399.6559262802114
 30
0.0
 11
-87.99989442567579
 21
399.6559262802114
 31
0.0
  0
LINE
  5
C9
330
1F
100
AcDbEntity
  8
通り芯
  6
Continuous
 62
     3
370
     9
100
AcDbLine
 10
-95.99972286739876
 20
417.6556887379815
 30
0.0
 11
-95.99972286739876
 21
399.6559262802114
 31
0.0
  0
LINE
  5
CA
330
1F
100
AcDbEntity
  8
通り芯
  6
Continuous
 62
     3
370
     9
100
AcDbLine
 10
-100.9996898754223
 20
417.6556887379815
 30
0.0
 11
-100.9996898754223
 21
399.6559262802114
 31
0.0
  0
LINE
  5
CB
330
1F
100
AcDbEntity
  8
通り芯
  6
Continuous
 62
     3
370
     9
100
AcDbLine
 10
-128.9997575089739
 20
399.6559262802114
 30
0.0
 11
-100.9996898754223
 21
399.6559262802114
 31
0.0
  0
LINE
  5
CC
330
1F
100
AcDbEntity
  8
通り芯
  6
Continuous
 62
     3
370
     9
100
AcDbLine
 10
-128.9997575089739
 20
417.6556887379815
 30
0.0
 11
-128.9997575089739
 21
399.6559262802114
 31
0.0
  0
LINE
  5
CD
330
1F
100
AcDbEntity
  8
通り芯
  6
Continuous
 62
     3
370
     9
100
AcDbLine
 10
-174.9996618322424
 20
417.6556887379815
 30
0.0
 11
-146.9997426625845
 21
417.6556887379815
 31
0.0
  0
LINE
  5
CE
330
1F
100
AcDbEntity
  8
通り芯
  6
Continuous
 62
     3
370
     9
100
AcDbLine
 10
-141.9997756545608
 20
417.6556887379815
 30
0.0
 11
-133.9998729808911
 21
417.6556887379815
 31
0.0
  0
LINE
  5
CF
330
1F
100
AcDbEntity
  8
通り芯
  6
Continuous
 62
     3
370
     9
100
AcDbLine
 10
-133.9998729808911
 20
417.6556887379815
 30
0.0
 11
-133.9998729808911
 21
399.6559262802114
 31
0.0
  0
LINE
  5
D0
330
1F
100
AcDbEntity
  8
通り芯
  6
Continuous
 62
     3
370
     9
100
AcDbLine
 10
-141.9997756545608
 20
399.6559262802114
 30
0.0
 11
-133.9998729808911
 21
399.6559262802114
 31
0.0
  0
LINE
  5
D1
330
1F
100
AcDbEntity
  8
通り芯
  6
Continuous
 62
     3
370
     9
100
AcDbLine
 10
-141.9997756545608
 20
417.6556887379815
 30
0.0
 11
-141.9997756545608
 21
399.6559262802114
 31
0.0
  0
LINE
  5
D2
330
1F
100
AcDbEntity
  8
通り芯
  6
Continuous
 62
     3
370
     9
100
AcDbLine
 10
-146.9997426625845
 20
417.6556887379815
 30
0.0
 11
-146.9997426625845
 21
399.6559262802114
 31
0.0
  0
LINE
  5
D3
330
1F
100
AcDbEntity
  8
通り芯
  6
Continuous
 62
     3
370
     9
100
AcDbLine
 10
-174.9996618322424
 20
399.6559262802114
 30
0.0
 11
-146.9997426625845
 21
399.6559262802114
 31
0.0
  0
LINE
  5
D4
330
1F
100
AcDbEntity
  8
通り芯
  6
Continuous
 62
     3
370
     9
100
AcDbLine
 10
-174.9996618322424
 20
417.6556887379815
 30
0.0
 11
-174.9996618322424
 21
399.6559262802114
 31
0.0
  0
LINE
  5
D5
330
1F
100
AcDbEntity
  8
通り芯
  6
Continuous
 62
     3
370
     9
100
AcDbLine
 10
-179.9997773041597
 20
417.6556887379815
 30
0.0
 11
-179.9997773041597
 21
399.6559262802114
 31
0.0
  0
LINE
  5
D6
330
1F
100
AcDbEntity
  8
通り芯
  6
Continuous
 62
     3
370
     9
100
AcDbLine
 10
-187.9997542097763
 20
399.6559262802114
 30
0.0
 11
-179.9997773041597
 21
399.6559262802114
 31
0.0
  0
LINE
  5
D7
330
1F
100
AcDbEntity
  8
通り芯
  6
Continuous
 62
     3
370
     9
100
AcDbLine
 10
-19.9998680320947
 20
492.6559361778042
 30
0.0
 11
-19.9998680320947
 21
474.6558767922468
 31
0.0
  0
LINE
  5
D8
330
1F
100
AcDbEntity
  8
通り芯
  6
Continuous
 62
     3
370
     9
100
AcDbLine
 10
-25.99944243559969
 20
492.6559361778042
 30
0.0
 11
-25.99944243559969
 21
474.6558767922468
 31
0.0
  0
LINE
  5
D9
330
1F
100
AcDbEntity
  8
通り芯
  6
Continuous
 62
     3
370
     9
100
AcDbLine
 10
-65.9996238914697
 20
474.6558767922468
 30
0.0
 11
-25.99944243559969
 21
474.6558767922468
 31
0.0
  0
LINE
  5
DA
330
1F
100
AcDbEntity
  8
通り芯
  6
Continuous
 62
     3
370
     9
100
AcDbLine
 10
-36.99987463048984
 20
467.6558042098989
 30
0.0
 11
-8.999881228885158
 21
467.6558042098989
 31
0.0
  0
LINE
  5
DB
330
1F
100
AcDbEntity
  8
通り芯
  6
Continuous
 62
     3
370
     9
100
AcDbLine
 10
-3.999765756967975
 20
467.6558042098989
 30
0.0
 11
-3.999765756967975
 21
449.6558932882349
 31
0.0
  0
LINE
  5
DC
330
1F
100
AcDbEntity
  8
通り芯
  6
Continuous
 62
     3
370
     9
100
AcDbLine
 10
-8.999881228885158
 20
467.6558042098989
 30
0.0
 11
-8.999881228885158
 21
449.6558932882349
 31
0.0
  0
LINE
  5
DD
330
1F
100
AcDbEntity
  8
通り芯
  6
Continuous
 62
     3
370
     9
100
AcDbLine
 10
-36.99987463048984
 20
449.6558932882349
 30
0.0
 11
-8.999881228885158
 21
449.6558932882349
 31
0.0
  0
LINE
  5
DE
330
1F
100
AcDbEntity
  8
通り芯
  6
Continuous
 62
     3
370
     9
100
AcDbLine
 10
-36.99987463048984
 20
467.6558042098989
 30
0.0
 11
-36.99987463048984
 21
449.6558932882349
 31
0.0
  0
LINE
  5
DF
330
1F
100
AcDbEntity
  8
通り芯
  6
Continuous
 62
     3
370
     9
100
AcDbLine
 10
-82.99992741765203
 20
467.6558042098989
 30
0.0
 11
-54.99963708826016
 21
467.6558042098989
 31
0.0
  0
LINE
  5
E0
330
1F
100
AcDbEntity
  8
通り芯
  6
Continuous
 62
     3
370
     9
100
AcDbLine
 10
-49.99959584828969
 20
467.6558042098989
 30
0.0
 11
-41.9998416385136
 21
467.6558042098989
 31
0.0
  0
LINE
  5
E1
330
1F
100
AcDbEntity
  8
通り芯
  6
Continuous
 62
     3
370
     9
100
AcDbLine
 10
-41.9998416385136
 20
467.6558042098989
 30
0.0
 11
-41.9998416385136
 21
449.6558932882349
 31
0.0
  0
LINE
  5
E2
330
1F
100
AcDbEntity
  8
通り芯
  6
Continuous
 62
     3
370
     9
100
AcDbLine
 10
-49.99959584828969
 20
449.6558932882349
 30
0.0
 11
-41.9998416385136
 21
449.6558932882349
 31
0.0
  0
LINE
  5
E3
330
1F
100
AcDbEntity
  8
通り芯
  6
Continuous
 62
     3
370
     9
100
AcDbLine
 10
-49.99959584828969
 20
467.6558042098989
 30
0.0
 11
-49.99959584828969
 21
449.6558932882349
 31
0.0
  0
LINE
  5
E4
330
1F
100
AcDbEntity
  8
通り芯
  6
Continuous
 62
     3
370
     9
100
AcDbLine
 10
-54.99963708826016
 20
467.6558042098989
 30
0.0
 11
-54.99963708826016
 21
449.6558932882349
 31
0.0
  0
LINE
  5
E5
330
1F
100
AcDbEntity
  8
通り芯
  6
Continuous
 62
     3
370
     9
100
AcDbLine
 10
-82.99992741765203
 20
449.6558932882349
 30
0.0
 11
-54.99963708826016
 21
449.6558932882349
 31
0.0
  0
LINE
  5
E6
330
1F
100
AcDbEntity
  8
通り芯
  6
Continuous
 62
     3
370
     9
100
AcDbLine
 10
-82.99992741765203
 20
467.6558042098989
 30
0.0
 11
-82.99992741765203
 21
449.6558932882349
 31
0.0
  0
LINE
  5
E7
330
1F
100
AcDbEntity
  8
通り芯
  6
Continuous
 62
     3
370
     9
100
AcDbLine
 10
-128.9997575089739
 20
467.6558042098989
 30
0.0
 11
-100.9996898754223
 21
467.6558042098989
 31
0.0
  0
LINE
  5
E8
330
1F
100
AcDbEntity
  8
通り芯
  6
Continuous
 62
     3
370
     9
100
AcDbLine
 10
-95.99972286739876
 20
467.6558042098989
 30
0.0
 11
-87.99989442567579
 21
467.6558042098989
 31
0.0
  0
LINE
  5
E9
330
1F
100
AcDbEntity
  8
通り芯
  6
Continuous
 62
     3
370
     9
100
AcDbLine
 10
-87.99989442567579
 20
467.6558042098989
 30
0.0
 11
-87.99989442567579
 21
449.6558932882349
 31
0.0
  0
LINE
  5
EA
330
1F
100
AcDbEntity
  8
通り芯
  6
Continuous
 62
     3
370
     9
100
AcDbLine
 10
-95.99972286739876
 20
449.6558932882349
 30
0.0
 11
-87.99989442567579
 21
449.6558932882349
 31
0.0
  0
LINE
  5
EB
330
1F
100
AcDbEntity
  8
通り芯
  6
Continuous
 62
     3
370
     9
100
AcDbLine
 10
-95.99972286739876
 20
467.6558042098989
 30
0.0
 11
-95.99972286739876
 21
449.6558932882349
 31
0.0
  0
LINE
  5
EC
330
1F
100
AcDbEntity
  8
通り芯
  6
Continuous
 62
     3
370
     9
100
AcDbLine
 10
-100.9996898754223
 20
467.6558042098989
 30
0.0
 11
-100.9996898754223
 21
449.6558932882349
 31
0.0
  0
LINE
  5
ED
330
1F
100
AcDbEntity
  8
通り芯
  6
Continuous
 62
     3
370
     9
100
AcDbLine
 10
-128.9997575089739
 20
449.6558932882349
 30
0.0
 11
-100.9996898754223
 21
449.6558932882349
 31
0.0
  0
LINE
  5
EE
330
1F
100
AcDbEntity
  8
通り芯
  6
Continuous
 62
     3
370
     9
100
AcDbLine
 10
-128.9997575089739
 20
467.6558042098989
 30
0.0
 11
-128.9997575089739
 21
449.6558932882349
 31
0.0
  0
LINE
  5
EF
330
1F
100
AcDbEntity
  8
通り芯
  6
Continuous
 62
     3
370
     9
100
AcDbLine
 10
-133.9998729808911
 20
467.6558042098989
 30
0.0
 11
-133.9998729808911
 21
449.6558932882349
 31
0.0
  0
LINE
  5
F0
330
1F
100
AcDbEntity
  8
通り芯
  6
Continuous
 62
     3
370
     9
100
AcDbLine
 10
-141.9997756545608
 20
449.6558932882349
 30
0.0
 11
-133.9998729808911
 21
449.6558932882349
 31
0.0
  0
LINE
  5
F1
330
1F
100
AcDbEntity
  8
通り芯
  6
Continuous
 62
     3
370
     9
100
AcDbLine
 10
-111.9998251425253
 20
484.5437205686404
 30
0.0
 11
-111.9998251425253
 21
474.6558767922468
 31
0.0
  0
LINE
  5
F2
330
1F
100
AcDbEntity
  8
通り芯
  6
Continuous
 62
     3
370
     9
100
AcDbLine
 10
-117.9996964738177
 20
481.0791671480323
 30
0.0
 11
-117.9996964738177
 21
474.6558767922468
 31
0.0
  0
LINE
  5
F3
330
1F
100
AcDbEntity
  8
通り芯
  6
Continuous
 62
     3
370
     9
100
AcDbLine
 10
-128.1365141997467
 20
474.6558767922468
 30
0.0
 11
-117.9996964738177
 21
474.6558767922468
 31
0.0
  0
LINE
  5
F4
330
1F
100
AcDbEntity
  8
通り芯
  6
Continuous
 62
     3
370
     9
100
AcDbLine
 10
-137.9998614336994
 20
467.6558042098989
 30
0.0
 11
-133.9998729808911
 21
467.6558042098989
 31
0.0
  0
LINE
  5
F5
330
1F
100
AcDbEntity
  8
通り芯
  6
Continuous
 62
     3
370
     9
100
AcDbLine
 10
-141.9997756545608
 20
464.5866101378971
 30
0.0
 11
-141.9997756545608
 21
449.6558932882349
 31
0.0
  0
LINE
  5
F6
330
1F
100
AcDbEntity
  8
通り芯
  6
Continuous
 62
     3
370
     9
100
AcDbLine
 10
-159.1978330869933
 20
449.6558932882349
 30
0.0
 11
-146.9997426625845
 21
449.6558932882349
 31
0.0
  0
LINE
  5
F7
330
1F
100
AcDbEntity
  8
通り芯
  6
Continuous
 62
     3
370
     9
100
AcDbLine
 10
-146.9997426625845
 20
460.5486891602789
 30
0.0
 11
-146.9997426625845
 21
449.6558932882349
 31
0.0
  0
LINE
  5
F8
330
1F
100
AcDbEntity
  8
通り芯
  6
Continuous
 62
     3
370
     9
100
AcDbLine
 10
-166.1895916913008
 20
442.655820705887
 30
0.0
 11
-163.9997492609799
 21
442.655820705887
 31
0.0
  0
LINE
  5
F9
330
1F
100
AcDbEntity
  8
通り芯
  6
Continuous
 62
     3
370
     9
100
AcDbLine
 10
-229.8235919024494
 20
292.6557712179224
 30
0.0
 11
-209.9996535842484
 21
292.6557712179224
 31
0.0
  0
LINE
  5
FA
330
1F
100
AcDbEntity
  8
通り芯
  6
Continuous
 62
     3
370
     9
100
AcDbLine
 10
-229.4426335515203
 20
299.6555468724832
 30
0.0
 11
-225.9999043232686
 21
299.6555468724832
 31
0.0
  0
LINE
  5
FB
330
1F
100
AcDbEntity
  8
通り芯
  6
Continuous
 62
     3
370
     9
100
AcDbLine
 10
-227.4728146114866
 20
317.6556062580407
 30
0.0
 11
-225.9999043232686
 21
317.6556062580407
 31
0.0
  0
LINE
  5
FC
330
1F
100
AcDbEntity
  8
通り芯
  6
Continuous
 62
     3
370
     9
100
AcDbLine
 10
-226.3159839527027
 20
324.6559757681757
 30
0.0
 11
-209.9996535842484
 21
324.6559757681757
 31
0.0
  0
LINE
  5
FD
330
1F
100
AcDbEntity
  8
通り芯
  6
Continuous
 62
     3
370
     9
100
AcDbLine
 10
-222.3035987647805
 20
342.6561836176268
 30
0.0
 11
-209.9996535842484
 21
342.6561836176268
 31
0.0
  0
LINE
  5
FE
330
1F
100
AcDbEntity
  8
通り芯
  6
Continuous
 62
     3
370
     9
100
AcDbLine
 10
-220.326950485642
 20
349.6559592721876
 30
0.0
 11
-192.9997212177998
 21
349.6559592721876
 31
0.0
  0
LINE
  5
FF
330
1F
100
AcDbEntity
  8
通り芯
  6
Continuous
 62
     3
370
     9
100
AcDbLine
 10
-214.1118065086571
 20
367.6560186577451
 30
0.0
 11
-192.9997212177998
 21
367.6560186577451
 31
0.0
  0
LINE
  5
100
330
1F
100
AcDbEntity
  8
通り芯
  6
Continuous
 62
     3
370
     9
100
AcDbLine
 10
-203.9996337890626
 20
389.8822512379815
 30
0.0
 11
-203.9996337890626
 21
374.6560912400931
 31
0.0
  0
LINE
  5
101
330
1F
100
AcDbEntity
  8
通り芯
  6
Continuous
 62
     3
370
     9
100
AcDbLine
 10
-202.5313258815456
 20
392.6558536978634
 30
0.0
 11
-163.9997492609799
 21
392.6558536978634
 31
0.0
  0
LINE
  5
102
330
1F
100
AcDbEntity
  8
通り芯
  6
Continuous
 62
     3
370
     9
100
AcDbLine
 10
-198.60482705606
 20
399.6559262802114
 30
0.0
 11
-192.9997212177998
 21
399.6559262802114
 31
0.0
  0
LINE
  5
103
330
1F
100
AcDbEntity
  8
通り芯
  6
Continuous
 62
     3
370
     9
100
AcDbLine
 10
-192.9997212177998
 20
408.7598806984968
 30
0.0
 11
-192.9997212177998
 21
399.6559262802114
 31
0.0
  0
LINE
  5
104
330
1F
100
AcDbEntity
  8
通り芯
  6
Continuous
 62
     3
370
     9
100
AcDbLine
 10
-187.9997542097763
 20
416.1547187738768
 30
0.0
 11
-187.9997542097763
 21
399.6559262802114
 31
0.0
  0
LINE
  5
105
330
1F
100
AcDbEntity
  8
通り芯
  6
Continuous
 62
     3
370
     9
100
AcDbLine
 10
-186.9329669024494
 20
417.6556887379815
 30
0.0
 11
-179.9997773041597
 21
417.6556887379815
 31
0.0
  0
LINE
  5
106
330
1F
100
AcDbEntity
  8
通り芯
  6
Continuous
 62
     3
370
     9
100
AcDbLine
 10
-181.7108979096284
 20
424.6557613203295
 30
0.0
 11
-163.9997492609799
 21
424.6557613203295
 31
0.0
  0
LINE
  5
107
330
1F
100
AcDbEntity
  8
通り芯
  6
Continuous
 62
     3
370
     9
100
AcDbLine
 10
99.42389410895265
 20
478.786290775566
 30
0.0
 11
109.866102063978
 21
499.279355862137
 31
0.0
  0
LINE
  5
108
330
1F
100
AcDbEntity
  8
通り芯
  6
Continuous
 62
     3
370
     9
100
AcDbLine
 10
-99.42374564505923
 20
478.786290775566
 30
0.0
 11
-109.8653597445102
 21
499.279355862137
 31
0.0
  0
LINE
  5
109
330
1F
100
AcDbEntity
  8
通り芯
  6
Continuous
 62
     3
370
     9
100
AcDbLine
 10
-35.53832183013094
 20
492.6559361778042
 30
0.0
 11
-25.99944243559969
 21
492.6559361778042
 31
0.0
  0
LINE
  5
10A
330
1F
100
AcDbEntity
  8
通り芯
  6
Continuous
 62
     3
370
     9
100
AcDbLine
 10
-65.9996238914697
 20
485.1203543313093
 30
0.0
 11
-65.9996238914697
 21
474.6558767922468
 31
0.0
  0
LINE
  5
10B
330
1F
100
AcDbEntity
  8
通り芯
  6
Continuous
 62
     3
370
     9
100
AcDbLine
 10
-91.99446394636828
 20
474.6558767922468
 30
0.0
 11
-71.99956945470859
 21
474.6558767922468
 31
0.0
  0
LINE
  5
10C
330
1F
100
AcDbEntity
  8
通り芯
  6
Continuous
 62
     3
370
     9
100
AcDbLine
 10
-71.99956945470859
 20
483.0549246438093
 30
0.0
 11
-71.99956945470859
 21
474.6558767922468
 31
0.0
  0
LINE
  5
10D
330
1F
100
AcDbEntity
  8
通り芯
  6
Continuous
 62
     3
370
     9
100
AcDbLine
 10
-105.1753853462837
 20
474.6558767922468
 30
0.0
 11
-110.6061945734799
 21
485.3142481763262
 31
0.0
  0
LINE
  5
10E
330
1F
100
AcDbEntity
  8
通り芯
  6
Continuous
 62
     3
370
     9
100
AcDbLine
 10
-111.9998251425253
 20
474.6558767922468
 30
0.0
 11
-105.1753853462837
 21
474.6558767922468
 31
0.0
  0
LINE
  5
10F
330
1F
100
AcDbEntity
  8
通り芯
  6
Continuous
 62
     3
370
     9
100
AcDbLine
 10
-109.9998680320947
 20
298.655494085321
 30
0.0
 11
-165.9997806033574
 21
298.655494085321
 31
0.0
  0
LINE
  5
110
330
1F
100
AcDbEntity
  8
通り芯
  6
Continuous
 62
     3
370
     9
100
AcDbLine
 10
-146.9997426625845
 20
305.655566667669
 30
0.0
 11
-174.9998845280828
 21
305.655566667669
 31
0.0
  0
LINE
  5
111
330
1F
100
AcDbEntity
  8
通り芯
  6
Continuous
 62
     3
370
     9
100
AcDbLine
 10
-100.9996898754223
 20
305.655566667669
 30
0.0
 11
-128.9997575089739
 21
305.655566667669
 31
0.0
  0
LINE
  5
112
330
1F
100
AcDbEntity
  8
通り芯
  6
Continuous
 62
     3
370
     9
100
AcDbLine
 10
-133.9997245169975
 20
305.655566667669
 30
0.0
 11
-141.9997756545608
 21
305.655566667669
 31
0.0
  0
LINE
  5
113
330
1F
100
AcDbEntity
  8
通り芯
  6
Continuous
 62
     3
370
     9
100
AcDbLine
 10
-174.9996618322424
 20
317.6556062580407
 30
0.0
 11
-174.9996618322424
 21
305.655566667669
 31
0.0
  0
LINE
  5
114
330
1F
100
AcDbEntity
  8
通り芯
  6
Continuous
 62
     3
370
     9
100
AcDbLine
 10
-146.9997426625845
 20
317.6556062580407
 30
0.0
 11
-146.9997426625845
 21
305.655566667669
 31
0.0
  0
LINE
  5
115
330
1F
100
AcDbEntity
  8
通り芯
  6
Continuous
 62
     3
370
     9
100
AcDbLine
 10
-141.9997756545608
 20
317.6556062580407
 30
0.0
 11
-141.9997756545608
 21
305.655566667669
 31
0.0
  0
LINE
  5
116
330
1F
100
AcDbEntity
  8
通り芯
  6
Continuous
 62
     3
370
     9
100
AcDbLine
 10
-133.9998729808911
 20
317.6556062580407
 30
0.0
 11
-133.9998729808911
 21
305.655566667669
 31
0.0
  0
LINE
  5
117
330
1F
100
AcDbEntity
  8
通り芯
  6
Continuous
 62
     3
370
     9
100
AcDbLine
 10
-128.9997575089739
 20
317.6556062580407
 30
0.0
 11
-128.9997575089739
 21
305.655566667669
 31
0.0
  0
LINE
  5
118
330
1F
100
AcDbEntity
  8
通り芯
  6
Continuous
 62
     3
370
     9
100
AcDbLine
 10
-100.9996898754223
 20
317.6556062580407
 30
0.0
 11
-100.9996898754223
 21
305.655566667669
 31
0.0
  0
LINE
  5
119
330
1F
100
AcDbEntity
  8
通り芯
  6
Continuous
 62
     3
370
     9
100
AcDbLine
 10
-102.9997212177998
 20
292.6557712179224
 30
0.0
 11
-71.99956945470859
 21
292.6557712179224
 31
0.0
  0
LINE
  5
11A
330
1F
100
AcDbEntity
  8
通り芯
  6
Continuous
 62
     3
370
     9
100
AcDbLine
 10
-203.9996337890626
 20
292.6557712179224
 30
0.0
 11
-172.999927417652
 21
292.6557712179224
 31
0.0
  0
LINE
  5
11B
330
1F
100
AcDbEntity
  8
通り芯
  6
Continuous
 62
     3
370
     9
100
AcDbLine
 10
-234.8565921267949
 20
291.8576293260306
 30
0.0
 11
-244.8505133551521
 21
292.206519475946
 31
0.0
  0
LINE
  5
11C
330
1F
100
AcDbEntity
  8
通り芯
  6
Continuous
 62
     3
370
     9
100
AcDbLine
 10
-233.8484480574325
 20
337.6441910342231
 30
0.0
 11
-228.3803743929477
 21
324.4764829208364
 31
0.0
  0
LINE
  5
11D
330
1F
100
AcDbEntity
  8
通り芯
  6
Continuous
 62
     3
370
     9
100
AcDbLine
 10
-244.1306861671242
 20
327.2919521987079
 30
0.0
 11
-233.8484480574325
 21
337.6441910342231
 31
0.0
  0
LINE
  5
11E
330
1F
100
AcDbEntity
  8
通り芯
  6
Continuous
 62
     3
370
     9
100
AcDbLine
 10
-244.1306861671242
 20
327.2919521987079
 30
0.0
 11
-241.1774423960093
 21
326.7637176653463
 31
0.0
  0
LINE
  5
11F
330
1F
100
AcDbEntity
  8
通り芯
  6
Continuous
 62
     3
370
     9
100
AcDbLine
 10
-231.3333954682222
 20
325.0041235986234
 30
0.0
 11
-228.3803743929477
 21
324.4764829208364
 31
0.0
  0
LINE
  5
120
330
1F
100
AcDbEntity
  8
通り芯
  6
Continuous
 62
     3
370
     9
100
AcDbLine
 10
-200.1483319256757
 20
403.9171369537754
 30
0.0
 11
-211.2915121542441
 21
410.6128585542823
 31
0.0
  0
LINE
  5
121
330
1F
100
AcDbEntity
  8
通り芯
  6
Continuous
 62
     3
370
     9
100
AcDbLine
 10
-225.5433778505068
 20
344.0901963657265
 30
0.0
 11
-238.1004539695946
 21
347.4548335859545
 31
0.0
  0
LINE
  5
122
330
1F
100
AcDbEntity
  8
通り芯
  6
Continuous
 62
     3
370
     9
100
AcDbLine
 10
-246.4997245169975
 20
283.6558899890373
 30
0.0
 11
-233.4997806033574
 21
288.6555600692737
 31
0.0
  0
LINE
  5
123
330
1F
100
AcDbEntity
  8
通り芯
  6
Continuous
 62
     3
370
     9
100
AcDbLine
 10
246.5000956767314
 20
283.6558899890373
 30
0.0
 11
233.5001517630913
 21
288.6555600692737
 31
0.0
  0
LINE
  5
124
330
1F
100
AcDbEntity
  8
通り芯
  6
Continuous
 62
     3
370
     9
100
AcDbLine
 10
-19.9998680320947
 20
342.6561836176268
 30
0.0
 11
0.0
 21
342.6561836176268
 31
0.0
  0
LINE
  5
125
330
1F
100
AcDbEntity
  8
通り芯
  6
Continuous
 62
     3
370
     9
100
AcDbLine
 10
-19.9998680320947
 20
324.6559757681757
 30
0.0
 11
0.0
 21
324.6559757681757
 31
0.0
  0
LINE
  5
126
330
1F
100
AcDbEntity
  8
通り芯
  6
Continuous
 62
     3
370
     9
100
AcDbLine
 10
-3.999765756967975
 20
367.6560186577451
 30
0.0
 11
0.0
 21
367.6560186577451
 31
0.0
  0
LINE
  5
127
330
1F
100
AcDbEntity
  8
通り芯
  6
Continuous
 62
     3
370
     9
100
AcDbLine
 10
-3.999765756967975
 20
349.6559592721876
 30
0.0
 11
0.0
 21
349.6559592721876
 31
0.0
  0
LINE
  5
128
330
1F
100
AcDbEntity
  8
通り芯
  6
Continuous
 62
     3
370
     9
100
AcDbLine
 10
-19.9998680320947
 20
492.6559361778042
 30
0.0
 11
0.0
 21
492.6559361778042
 31
0.0
  0
LINE
  5
129
330
1F
100
AcDbEntity
  8
通り芯
  6
Continuous
 62
     3
370
     9
100
AcDbLine
 10
-19.9998680320947
 20
474.6558767922468
 30
0.0
 11
0.0
 21
474.6558767922468
 31
0.0
  0
LINE
  5
12A
330
1F
100
AcDbEntity
  8
通り芯
  6
Continuous
 62
     3
370
     9
100
AcDbLine
 10
-3.999765756967975
 20
467.6558042098989
 30
0.0
 11
0.0
 21
467.6558042098989
 31
0.0
  0
LINE
  5
12B
330
1F
100
AcDbEntity
  8
通り芯
  6
Continuous
 62
     3
370
     9
100
AcDbLine
 10
-3.999765756967975
 20
449.6558932882349
 30
0.0
 11
0.0
 21
449.6558932882349
 31
0.0
  0
LINE
  5
12C
330
1F
100
AcDbEntity
  8
通り芯
  6
Continuous
 62
     3
370
     9
100
AcDbLine
 10
19.99986803209453
 20
342.6561836176268
 30
0.0
 11
19.99986803209453
 21
324.6559757681757
 31
0.0
  0
LINE
  5
12D
330
1F
100
AcDbEntity
  8
通り芯
  6
Continuous
 62
     3
370
     9
100
AcDbLine
 10
65.99962389146953
 20
342.6561836176268
 30
0.0
 11
25.99944243559969
 21
342.6561836176268
 31
0.0
  0
LINE
  5
12E
330
1F
100
AcDbEntity
  8
通り芯
  6
Continuous
 62
     3
370
     9
100
AcDbLine
 10
25.99944243559969
 20
342.6561836176268
 30
0.0
 11
25.99944243559969
 21
324.6559757681757
 31
0.0
  0
LINE
  5
12F
330
1F
100
AcDbEntity
  8
通り芯
  6
Continuous
 62
     3
370
     9
100
AcDbLine
 10
65.99962389146953
 20
324.6559757681757
 30
0.0
 11
25.99944243559969
 21
324.6559757681757
 31
0.0
  0
LINE
  5
130
330
1F
100
AcDbEntity
  8
通り芯
  6
Continuous
 62
     3
370
     9
100
AcDbLine
 10
65.99962389146953
 20
342.6561836176268
 30
0.0
 11
65.99962389146953
 21
324.6559757681757
 31
0.0
  0
LINE
  5
131
330
1F
100
AcDbEntity
  8
通り芯
  6
Continuous
 62
     3
370
     9
100
AcDbLine
 10
111.9998251425253
 20
342.6561836176268
 30
0.0
 11
71.99949522276171
 21
342.6561836176268
 31
0.0
  0
LINE
  5
132
330
1F
100
AcDbEntity
  8
通り芯
  6
Continuous
 62
     3
370
     9
100
AcDbLine
 10
111.9998251425253
 20
324.6559757681757
 30
0.0
 11
71.99949522276171
 21
324.6559757681757
 31
0.0
  0
LINE
  5
133
330
1F
100
AcDbEntity
  8
通り芯
  6
Continuous
 62
     3
370
     9
100
AcDbLine
 10
111.9998251425253
 20
342.6561836176268
 30
0.0
 11
111.9998251425253
 21
324.6559757681757
 31
0.0
  0
LINE
  5
134
330
1F
100
AcDbEntity
  8
通り芯
  6
Continuous
 62
     3
370
     9
100
AcDbLine
 10
157.9997294657939
 20
342.6561836176268
 30
0.0
 11
117.9996964738175
 21
342.6561836176268
 31
0.0
  0
LINE
  5
135
330
1F
100
AcDbEntity
  8
通り芯
  6
Continuous
 62
     3
370
     9
100
AcDbLine
 10
117.9996964738175
 20
342.6561836176268
 30
0.0
 11
117.9996964738175
 21
324.6559757681757
 31
0.0
  0
LINE
  5
136
330
1F
100
AcDbEntity
  8
通り芯
  6
Continuous
 62
     3
370
     9
100
AcDbLine
 10
157.9997294657939
 20
324.6559757681757
 30
0.0
 11
117.9996964738175
 21
324.6559757681757
 31
0.0
  0
LINE
  5
137
330
1F
100
AcDbEntity
  8
通り芯
  6
Continuous
 62
     3
370
     9
100
AcDbLine
 10
157.9997294657939
 20
342.6561836176268
 30
0.0
 11
157.9997294657939
 21
324.6559757681757
 31
0.0
  0
LINE
  5
138
330
1F
100
AcDbEntity
  8
通り芯
  6
Continuous
 62
     3
370
     9
100
AcDbLine
 10
203.9996337890625
 20
342.6561836176268
 30
0.0
 11
163.9997492609797
 21
342.6561836176268
 31
0.0
  0
LINE
  5
139
330
1F
100
AcDbEntity
  8
通り芯
  6
Continuous
 62
     3
370
     9
100
AcDbLine
 10
163.9997492609797
 20
342.6561836176268
 30
0.0
 11
163.9997492609797
 21
324.6559757681757
 31
0.0
  0
LINE
  5
13A
330
1F
100
AcDbEntity
  8
通り芯
  6
Continuous
 62
     3
370
     9
100
AcDbLine
 10
203.9996337890625
 20
324.6559757681757
 30
0.0
 11
163.9997492609797
 21
324.6559757681757
 31
0.0
  0
LINE
  5
13B
330
1F
100
AcDbEntity
  8
通り芯
  6
Continuous
 62
     3
370
     9
100
AcDbLine
 10
203.9996337890625
 20
342.6561836176268
 30
0.0
 11
203.9996337890625
 21
324.6559757681757
 31
0.0
  0
LINE
  5
13C
330
1F
100
AcDbEntity
  8
通り芯
  6
Continuous
 62
     3
370
     9
100
AcDbLine
 10
209.9996535842483
 20
342.6561836176268
 30
0.0
 11
209.9996535842483
 21
324.6559757681757
 31
0.0
  0
LINE
  5
13D
330
1F
100
AcDbEntity
  8
通り芯
  6
Continuous
 62
     3
370
     9
100
AcDbLine
 10
128.9998317409206
 20
317.6556062580407
 30
0.0
 11
100.9996898754223
 21
317.6556062580407
 31
0.0
  0
LINE
  5
13E
330
1F
100
AcDbEntity
  8
通り芯
  6
Continuous
 62
     3
370
     9
100
AcDbLine
 10
95.99972286739859
 20
317.6556062580407
 30
0.0
 11
87.99989442567562
 21
317.6556062580407
 31
0.0
  0
LINE
  5
13F
330
1F
100
AcDbEntity
  8
通り芯
  6
Continuous
 62
     3
370
     9
100
AcDbLine
 10
87.99989442567562
 20
317.6556062580407
 30
0.0
 11
87.99989442567562
 21
299.6555468724832
 31
0.0
  0
LINE
  5
140
330
1F
100
AcDbEntity
  8
通り芯
  6
Continuous
 62
     3
370
     9
100
AcDbLine
 10
95.99972286739859
 20
299.6555468724832
 30
0.0
 11
87.99989442567562
 21
299.6555468724832
 31
0.0
  0
LINE
  5
141
330
1F
100
AcDbEntity
  8
通り芯
  6
Continuous
 62
     3
370
     9
100
AcDbLine
 10
95.99972286739859
 20
317.6556062580407
 30
0.0
 11
95.99972286739859
 21
299.6555468724832
 31
0.0
  0
LINE
  5
142
330
1F
100
AcDbEntity
  8
通り芯
  6
Continuous
 62
     3
370
     9
100
AcDbLine
 10
174.9995876002956
 20
317.6556062580407
 30
0.0
 11
146.9997426625844
 21
317.6556062580407
 31
0.0
  0
LINE
  5
143
330
1F
100
AcDbEntity
  8
通り芯
  6
Continuous
 62
     3
370
     9
100
AcDbLine
 10
141.9997756545608
 20
317.6556062580407
 30
0.0
 11
133.9997987489442
 21
317.6556062580407
 31
0.0
  0
LINE
  5
144
330
1F
100
AcDbEntity
  8
通り芯
  6
Continuous
 62
     3
370
     9
100
AcDbLine
 10
220.9997888513514
 20
317.6556062580407
 30
0.0
 11
192.999646985853
 21
317.6556062580407
 31
0.0
  0
LINE
  5
145
330
1F
100
AcDbEntity
  8
通り芯
  6
Continuous
 62
     3
370
     9
100
AcDbLine
 10
187.9996799778294
 20
317.6556062580407
 30
0.0
 11
179.9998515361064
 21
317.6556062580407
 31
0.0
  0
LINE
  5
146
330
1F
100
AcDbEntity
  8
通り芯
  6
Continuous
 62
     3
370
     9
100
AcDbLine
 10
179.9998515361064
 20
317.6556062580407
 30
0.0
 11
179.9998515361064
 21
299.6555468724832
 31
0.0
  0
LINE
  5
147
330
1F
100
AcDbEntity
  8
通り芯
  6
Continuous
 62
     3
370
     9
100
AcDbLine
 10
187.9996799778294
 20
299.6555468724832
 30
0.0
 11
179.9998515361064
 21
299.6555468724832
 31
0.0
  0
LINE
  5
148
330
1F
100
AcDbEntity
  8
通り芯
  6
Continuous
 62
     3
370
     9
100
AcDbLine
 10
187.9996799778294
 20
317.6556062580407
 30
0.0
 11
187.9996799778294
 21
299.6555468724832
 31
0.0
  0
LINE
  5
149
330
1F
100
AcDbEntity
  8
通り芯
  6
Continuous
 62
     3
370
     9
100
AcDbLine
 10
192.999646985853
 20
317.6556062580407
 30
0.0
 11
192.999646985853
 21
299.6555468724832
 31
0.0
  0
LINE
  5
14A
330
1F
100
AcDbEntity
  8
通り芯
  6
Continuous
 62
     3
370
     9
100
AcDbLine
 10
220.9997888513514
 20
299.6555468724832
 30
0.0
 11
192.999646985853
 21
299.6555468724832
 31
0.0
  0
LINE
  5
14B
330
1F
100
AcDbEntity
  8
通り芯
  6
Continuous
 62
     3
370
     9
100
AcDbLine
 10
220.9997888513514
 20
317.6556062580407
 30
0.0
 11
220.9997888513514
 21
299.6555468724832
 31
0.0
  0
LINE
  5
14C
330
1F
100
AcDbEntity
  8
通り芯
  6
Continuous
 62
     3
370
     9
100
AcDbLine
 10
225.9999043232686
 20
317.6556062580407
 30
0.0
 11
225.9999043232686
 21
299.6555468724832
 31
0.0
  0
LINE
  5
14D
330
1F
100
AcDbEntity
  8
通り芯
  6
Continuous
 62
     3
370
     9
100
AcDbLine
 10
111.9998251425253
 20
392.6558536978634
 30
0.0
 11
71.99949522276171
 21
392.6558536978634
 31
0.0
  0
LINE
  5
14E
330
1F
100
AcDbEntity
  8
通り芯
  6
Continuous
 62
     3
370
     9
100
AcDbLine
 10
71.99949522276171
 20
392.6558536978634
 30
0.0
 11
71.99949522276171
 21
374.6560912400931
 31
0.0
  0
LINE
  5
14F
330
1F
100
AcDbEntity
  8
通り芯
  6
Continuous
 62
     3
370
     9
100
AcDbLine
 10
111.9998251425253
 20
374.6560912400931
 30
0.0
 11
71.99949522276171
 21
374.6560912400931
 31
0.0
  0
LINE
  5
150
330
1F
100
AcDbEntity
  8
通り芯
  6
Continuous
 62
     3
370
     9
100
AcDbLine
 10
111.9998251425253
 20
392.6558536978634
 30
0.0
 11
111.9998251425253
 21
374.6560912400931
 31
0.0
  0
LINE
  5
151
330
1F
100
AcDbEntity
  8
通り芯
  6
Continuous
 62
     3
370
     9
100
AcDbLine
 10
157.9997294657939
 20
392.6558536978634
 30
0.0
 11
117.9996964738175
 21
392.6558536978634
 31
0.0
  0
LINE
  5
152
330
1F
100
AcDbEntity
  8
通り芯
  6
Continuous
 62
     3
370
     9
100
AcDbLine
 10
117.9996964738175
 20
392.6558536978634
 30
0.0
 11
117.9996964738175
 21
374.6560912400931
 31
0.0
  0
LINE
  5
153
330
1F
100
AcDbEntity
  8
通り芯
  6
Continuous
 62
     3
370
     9
100
AcDbLine
 10
157.9997294657939
 20
374.6560912400931
 30
0.0
 11
117.9996964738175
 21
374.6560912400931
 31
0.0
  0
LINE
  5
154
330
1F
100
AcDbEntity
  8
通り芯
  6
Continuous
 62
     3
370
     9
100
AcDbLine
 10
157.9997294657939
 20
392.6558536978634
 30
0.0
 11
157.9997294657939
 21
374.6560912400931
 31
0.0
  0
LINE
  5
155
330
1F
100
AcDbEntity
  8
通り芯
  6
Continuous
 62
     3
370
     9
100
AcDbLine
 10
163.9997492609797
 20
392.6558536978634
 30
0.0
 11
163.9997492609797
 21
374.6560912400931
 31
0.0
  0
LINE
  5
156
330
1F
100
AcDbEntity
  8
通り芯
  6
Continuous
 62
     3
370
     9
100
AcDbLine
 10
203.9996337890625
 20
374.6560912400931
 30
0.0
 11
163.9997492609797
 21
374.6560912400931
 31
0.0
  0
LINE
  5
157
330
1F
100
AcDbEntity
  8
通り芯
  6
Continuous
 62
     3
370
     9
100
AcDbLine
 10
36.99987463048984
 20
367.6560186577451
 30
0.0
 11
8.999881228885158
 21
367.6560186577451
 31
0.0
  0
LINE
  5
158
330
1F
100
AcDbEntity
  8
通り芯
  6
Continuous
 62
     3
370
     9
100
AcDbLine
 10
3.999765756967804
 20
367.6560186577451
 30
0.0
 11
3.999765756967804
 21
349.6559592721876
 31
0.0
  0
LINE
  5
159
330
1F
100
AcDbEntity
  8
通り芯
  6
Continuous
 62
     3
370
     9
100
AcDbLine
 10
8.999881228885158
 20
367.6560186577451
 30
0.0
 11
8.999881228885158
 21
349.6559592721876
 31
0.0
  0
LINE
  5
15A
330
1F
100
AcDbEntity
  8
通り芯
  6
Continuous
 62
     3
370
     9
100
AcDbLine
 10
36.99987463048984
 20
349.6559592721876
 30
0.0
 11
8.999881228885158
 21
349.6559592721876
 31
0.0
  0
LINE
  5
15B
330
1F
100
AcDbEntity
  8
通り芯
  6
Continuous
 62
     3
370
     9
100
AcDbLine
 10
36.99987463048984
 20
367.6560186577451
 30
0.0
 11
36.99987463048984
 21
349.6559592721876
 31
0.0
  0
LINE
  5
15C
330
1F
100
AcDbEntity
  8
通り芯
  6
Continuous
 62
     3
370
     9
100
AcDbLine
 10
82.99992741765203
 20
367.6560186577451
 30
0.0
 11
54.99963708826016
 21
367.6560186577451
 31
0.0
  0
LINE
  5
15D
330
1F
100
AcDbEntity
  8
通り芯
  6
Continuous
 62
     3
370
     9
100
AcDbLine
 10
49.9995216163428
 20
367.6560186577451
 30
0.0
 11
41.99984163851343
 21
367.6560186577451
 31
0.0
  0
LINE
  5
15E
330
1F
100
AcDbEntity
  8
通り芯
  6
Continuous
 62
     3
370
     9
100
AcDbLine
 10
41.99984163851343
 20
367.6560186577451
 30
0.0
 11
41.99984163851343
 21
349.6559592721876
 31
0.0
  0
LINE
  5
15F
330
1F
100
AcDbEntity
  8
通り芯
  6
Continuous
 62
     3
370
     9
100
AcDbLine
 10
49.9995216163428
 20
349.6559592721876
 30
0.0
 11
41.99984163851343
 21
349.6559592721876
 31
0.0
  0
LINE
  5
160
330
1F
100
AcDbEntity
  8
通り芯
  6
Continuous
 62
     3
370
     9
100
AcDbLine
 10
49.9995216163428
 20
367.6560186577451
 30
0.0
 11
49.9995216163428
 21
349.6559592721876
 31
0.0
  0
LINE
  5
161
330
1F
100
AcDbEntity
  8
通り芯
  6
Continuous
 62
     3
370
     9
100
AcDbLine
 10
54.99963708826016
 20
367.6560186577451
 30
0.0
 11
54.99963708826016
 21
349.6559592721876
 31
0.0
  0
LINE
  5
162
330
1F
100
AcDbEntity
  8
通り芯
  6
Continuous
 62
     3
370
     9
100
AcDbLine
 10
82.99992741765203
 20
349.6559592721876
 30
0.0
 11
54.99963708826016
 21
349.6559592721876
 31
0.0
  0
LINE
  5
163
330
1F
100
AcDbEntity
  8
通り芯
  6
Continuous
 62
     3
370
     9
100
AcDbLine
 10
82.99992741765203
 20
367.6560186577451
 30
0.0
 11
82.99992741765203
 21
349.6559592721876
 31
0.0
  0
LINE
  5
164
330
1F
100
AcDbEntity
  8
通り芯
  6
Continuous
 62
     3
370
     9
100
AcDbLine
 10
128.9998317409206
 20
367.6560186577451
 30
0.0
 11
100.9996898754223
 21
367.6560186577451
 31
0.0
  0
LINE
  5
165
330
1F
100
AcDbEntity
  8
通り芯
  6
Continuous
 62
     3
370
     9
100
AcDbLine
 10
95.99972286739859
 20
367.6560186577451
 30
0.0
 11
87.99989442567562
 21
367.6560186577451
 31
0.0
  0
LINE
  5
166
330
1F
100
AcDbEntity
  8
通り芯
  6
Continuous
 62
     3
370
     9
100
AcDbLine
 10
87.99989442567562
 20
367.6560186577451
 30
0.0
 11
87.99989442567562
 21
349.6559592721876
 31
0.0
  0
LINE
  5
167
330
1F
100
AcDbEntity
  8
通り芯
  6
Continuous
 62
     3
370
     9
100
AcDbLine
 10
95.99972286739859
 20
349.6559592721876
 30
0.0
 11
87.99989442567562
 21
349.6559592721876
 31
0.0
  0
LINE
  5
168
330
1F
100
AcDbEntity
  8
通り芯
  6
Continuous
 62
     3
370
     9
100
AcDbLine
 10
95.99972286739859
 20
367.6560186577451
 30
0.0
 11
95.99972286739859
 21
349.6559592721876
 31
0.0
  0
LINE
  5
169
330
1F
100
AcDbEntity
  8
通り芯
  6
Continuous
 62
     3
370
     9
100
AcDbLine
 10
100.9996898754223
 20
367.6560186577451
 30
0.0
 11
100.9996898754223
 21
349.6559592721876
 31
0.0
  0
LINE
  5
16A
330
1F
100
AcDbEntity
  8
通り芯
  6
Continuous
 62
     3
370
     9
100
AcDbLine
 10
128.9998317409206
 20
349.6559592721876
 30
0.0
 11
100.9996898754223
 21
349.6559592721876
 31
0.0
  0
LINE
  5
16B
330
1F
100
AcDbEntity
  8
通り芯
  6
Continuous
 62
     3
370
     9
100
AcDbLine
 10
128.9998317409206
 20
367.6560186577451
 30
0.0
 11
128.9998317409206
 21
349.6559592721876
 31
0.0
  0
LINE
  5
16C
330
1F
100
AcDbEntity
  8
通り芯
  6
Continuous
 62
     3
370
     9
100
AcDbLine
 10
174.9995876002956
 20
367.6560186577451
 30
0.0
 11
146.9997426625844
 21
367.6560186577451
 31
0.0
  0
LINE
  5
16D
330
1F
100
AcDbEntity
  8
通り芯
  6
Continuous
 62
     3
370
     9
100
AcDbLine
 10
141.9997756545608
 20
367.6560186577451
 30
0.0
 11
133.9997987489442
 21
367.6560186577451
 31
0.0
  0
LINE
  5
16E
330
1F
100
AcDbEntity
  8
通り芯
  6
Continuous
 62
     3
370
     9
100
AcDbLine
 10
133.9997987489442
 20
367.6560186577451
 30
0.0
 11
133.9997987489442
 21
349.6559592721876
 31
0.0
  0
LINE
  5
16F
330
1F
100
AcDbEntity
  8
通り芯
  6
Continuous
 62
     3
370
     9
100
AcDbLine
 10
141.9997756545608
 20
349.6559592721876
 30
0.0
 11
133.9997987489442
 21
349.6559592721876
 31
0.0
  0
LINE
  5
170
330
1F
100
AcDbEntity
  8
通り芯
  6
Continuous
 62
     3
370
     9
100
AcDbLine
 10
141.9997756545608
 20
367.6560186577451
 30
0.0
 11
141.9997756545608
 21
349.6559592721876
 31
0.0
  0
LINE
  5
171
330
1F
100
AcDbEntity
  8
通り芯
  6
Continuous
 62
     3
370
     9
100
AcDbLine
 10
146.9997426625844
 20
367.6560186577451
 30
0.0
 11
146.9997426625844
 21
349.6559592721876
 31
0.0
  0
LINE
  5
172
330
1F
100
AcDbEntity
  8
通り芯
  6
Continuous
 62
     3
370
     9
100
AcDbLine
 10
174.9995876002956
 20
349.6559592721876
 30
0.0
 11
146.9997426625844
 21
349.6559592721876
 31
0.0
  0
LINE
  5
173
330
1F
100
AcDbEntity
  8
通り芯
  6
Continuous
 62
     3
370
     9
100
AcDbLine
 10
174.9995876002956
 20
367.6560186577451
 30
0.0
 11
174.9995876002956
 21
349.6559592721876
 31
0.0
  0
LINE
  5
174
330
1F
100
AcDbEntity
  8
通り芯
  6
Continuous
 62
     3
370
     9
100
AcDbLine
 10
187.9996799778294
 20
367.6560186577451
 30
0.0
 11
179.9998515361064
 21
367.6560186577451
 31
0.0
  0
LINE
  5
175
330
1F
100
AcDbEntity
  8
通り芯
  6
Continuous
 62
     3
370
     9
100
AcDbLine
 10
179.9998515361064
 20
367.6560186577451
 30
0.0
 11
179.9998515361064
 21
349.6559592721876
 31
0.0
  0
LINE
  5
176
330
1F
100
AcDbEntity
  8
通り芯
  6
Continuous
 62
     3
370
     9
100
AcDbLine
 10
187.9996799778294
 20
349.6559592721876
 30
0.0
 11
179.9998515361064
 21
349.6559592721876
 31
0.0
  0
LINE
  5
177
330
1F
100
AcDbEntity
  8
通り芯
  6
Continuous
 62
     3
370
     9
100
AcDbLine
 10
187.9996799778294
 20
367.6560186577451
 30
0.0
 11
187.9996799778294
 21
349.6559592721876
 31
0.0
  0
LINE
  5
178
330
1F
100
AcDbEntity
  8
通り芯
  6
Continuous
 62
     3
370
     9
100
AcDbLine
 10
192.999646985853
 20
367.6560186577451
 30
0.0
 11
192.999646985853
 21
349.6559592721876
 31
0.0
  0
LINE
  5
179
330
1F
100
AcDbEntity
  8
通り芯
  6
Continuous
 62
     3
370
     9
100
AcDbLine
 10
111.9998251425253
 20
442.655820705887
 30
0.0
 11
71.99949522276171
 21
442.655820705887
 31
0.0
  0
LINE
  5
17A
330
1F
100
AcDbEntity
  8
通り芯
  6
Continuous
 62
     3
370
     9
100
AcDbLine
 10
71.99949522276171
 20
442.655820705887
 30
0.0
 11
71.99949522276171
 21
424.6557613203295
 31
0.0
  0
LINE
  5
17B
330
1F
100
AcDbEntity
  8
通り芯
  6
Continuous
 62
     3
370
     9
100
AcDbLine
 10
111.9998251425253
 20
424.6557613203295
 30
0.0
 11
71.99949522276171
 21
424.6557613203295
 31
0.0
  0
LINE
  5
17C
330
1F
100
AcDbEntity
  8
通り芯
  6
Continuous
 62
     3
370
     9
100
AcDbLine
 10
111.9998251425253
 20
442.655820705887
 30
0.0
 11
111.9998251425253
 21
424.6557613203295
 31
0.0
  0
LINE
  5
17D
330
1F
100
AcDbEntity
  8
通り芯
  6
Continuous
 62
     3
370
     9
100
AcDbLine
 10
157.9997294657939
 20
442.655820705887
 30
0.0
 11
117.9996964738175
 21
442.655820705887
 31
0.0
  0
LINE
  5
17E
330
1F
100
AcDbEntity
  8
通り芯
  6
Continuous
 62
     3
370
     9
100
AcDbLine
 10
117.9996964738175
 20
442.655820705887
 30
0.0
 11
117.9996964738175
 21
424.6557613203295
 31
0.0
  0
LINE
  5
17F
330
1F
100
AcDbEntity
  8
通り芯
  6
Continuous
 62
     3
370
     9
100
AcDbLine
 10
157.9997294657939
 20
424.6557613203295
 30
0.0
 11
117.9996964738175
 21
424.6557613203295
 31
0.0
  0
LINE
  5
180
330
1F
100
AcDbEntity
  8
通り芯
  6
Continuous
 62
     3
370
     9
100
AcDbLine
 10
157.9997294657939
 20
442.655820705887
 30
0.0
 11
157.9997294657939
 21
424.6557613203295
 31
0.0
  0
LINE
  5
181
330
1F
100
AcDbEntity
  8
通り芯
  6
Continuous
 62
     3
370
     9
100
AcDbLine
 10
163.9997492609797
 20
442.655820705887
 30
0.0
 11
163.9997492609797
 21
424.6557613203295
 31
0.0
  0
LINE
  5
182
330
1F
100
AcDbEntity
  8
通り芯
  6
Continuous
 62
     3
370
     9
100
AcDbLine
 10
128.9998317409206
 20
417.6556887379815
 30
0.0
 11
100.9996898754223
 21
417.6556887379815
 31
0.0
  0
LINE
  5
183
330
1F
100
AcDbEntity
  8
通り芯
  6
Continuous
 62
     3
370
     9
100
AcDbLine
 10
95.99972286739859
 20
417.6556887379815
 30
0.0
 11
87.99989442567562
 21
417.6556887379815
 31
0.0
  0
LINE
  5
184
330
1F
100
AcDbEntity
  8
通り芯
  6
Continuous
 62
     3
370
     9
100
AcDbLine
 10
87.99989442567562
 20
417.6556887379815
 30
0.0
 11
87.99989442567562
 21
399.6559262802114
 31
0.0
  0
LINE
  5
185
330
1F
100
AcDbEntity
  8
通り芯
  6
Continuous
 62
     3
370
     9
100
AcDbLine
 10
95.99972286739859
 20
399.6559262802114
 30
0.0
 11
87.99989442567562
 21
399.6559262802114
 31
0.0
  0
LINE
  5
186
330
1F
100
AcDbEntity
  8
通り芯
  6
Continuous
 62
     3
370
     9
100
AcDbLine
 10
95.99972286739859
 20
417.6556887379815
 30
0.0
 11
95.99972286739859
 21
399.6559262802114
 31
0.0
  0
LINE
  5
187
330
1F
100
AcDbEntity
  8
通り芯
  6
Continuous
 62
     3
370
     9
100
AcDbLine
 10
100.9996898754223
 20
417.6556887379815
 30
0.0
 11
100.9996898754223
 21
399.6559262802114
 31
0.0
  0
LINE
  5
188
330
1F
100
AcDbEntity
  8
通り芯
  6
Continuous
 62
     3
370
     9
100
AcDbLine
 10
128.9998317409206
 20
399.6559262802114
 30
0.0
 11
100.9996898754223
 21
399.6559262802114
 31
0.0
  0
LINE
  5
189
330
1F
100
AcDbEntity
  8
通り芯
  6
Continuous
 62
     3
370
     9
100
AcDbLine
 10
128.9998317409206
 20
417.6556887379815
 30
0.0
 11
128.9998317409206
 21
399.6559262802114
 31
0.0
  0
LINE
  5
18A
330
1F
100
AcDbEntity
  8
通り芯
  6
Continuous
 62
     3
370
     9
100
AcDbLine
 10
174.9995876002956
 20
417.6556887379815
 30
0.0
 11
146.9997426625844
 21
417.6556887379815
 31
0.0
  0
LINE
  5
18B
330
1F
100
AcDbEntity
  8
通り芯
  6
Continuous
 62
     3
370
     9
100
AcDbLine
 10
141.9997756545608
 20
417.6556887379815
 30
0.0
 11
133.9997987489442
 21
417.6556887379815
 31
0.0
  0
LINE
  5
18C
330
1F
100
AcDbEntity
  8
通り芯
  6
Continuous
 62
     3
370
     9
100
AcDbLine
 10
133.9997987489442
 20
417.6556887379815
 30
0.0
 11
133.9997987489442
 21
399.6559262802114
 31
0.0
  0
LINE
  5
18D
330
1F
100
AcDbEntity
  8
通り芯
  6
Continuous
 62
     3
370
     9
100
AcDbLine
 10
141.9997756545608
 20
399.6559262802114
 30
0.0
 11
133.9997987489442
 21
399.6559262802114
 31
0.0
  0
LINE
  5
18E
330
1F
100
AcDbEntity
  8
通り芯
  6
Continuous
 62
     3
370
     9
100
AcDbLine
 10
141.9997756545608
 20
417.6556887379815
 30
0.0
 11
141.9997756545608
 21
399.6559262802114
 31
0.0
  0
LINE
  5
18F
330
1F
100
AcDbEntity
  8
通り芯
  6
Continuous
 62
     3
370
     9
100
AcDbLine
 10
146.9997426625844
 20
417.6556887379815
 30
0.0
 11
146.9997426625844
 21
399.6559262802114
 31
0.0
  0
LINE
  5
190
330
1F
100
AcDbEntity
  8
通り芯
  6
Continuous
 62
     3
370
     9
100
AcDbLine
 10
174.9995876002956
 20
399.6559262802114
 30
0.0
 11
146.9997426625844
 21
399.6559262802114
 31
0.0
  0
LINE
  5
191
330
1F
100
AcDbEntity
  8
通り芯
  6
Continuous
 62
     3
370
     9
100
AcDbLine
 10
174.9995876002956
 20
417.6556887379815
 30
0.0
 11
174.9995876002956
 21
399.6559262802114
 31
0.0
  0
LINE
  5
192
330
1F
100
AcDbEntity
  8
通り芯
  6
Continuous
 62
     3
370
     9
100
AcDbLine
 10
179.9998515361064
 20
417.6556887379815
 30
0.0
 11
179.9998515361064
 21
399.6559262802114
 31
0.0
  0
LINE
  5
193
330
1F
100
AcDbEntity
  8
通り芯
  6
Continuous
 62
     3
370
     9
100
AcDbLine
 10
187.9996799778294
 20
399.6559262802114
 30
0.0
 11
179.9998515361064
 21
399.6559262802114
 31
0.0
  0
LINE
  5
194
330
1F
100
AcDbEntity
  8
通り芯
  6
Continuous
 62
     3
370
     9
100
AcDbLine
 10
19.99986803209453
 20
492.6559361778042
 30
0.0
 11
19.99986803209453
 21
474.6558767922468
 31
0.0
  0
LINE
  5
195
330
1F
100
AcDbEntity
  8
通り芯
  6
Continuous
 62
     3
370
     9
100
AcDbLine
 10
25.99944243559969
 20
492.6559361778042
 30
0.0
 11
25.99944243559969
 21
474.6558767922468
 31
0.0
  0
LINE
  5
196
330
1F
100
AcDbEntity
  8
通り芯
  6
Continuous
 62
     3
370
     9
100
AcDbLine
 10
65.99962389146953
 20
474.6558767922468
 30
0.0
 11
25.99944243559969
 21
474.6558767922468
 31
0.0
  0
LINE
  5
197
330
1F
100
AcDbEntity
  8
通り芯
  6
Continuous
 62
     3
370
     9
100
AcDbLine
 10
36.99987463048984
 20
467.6558042098989
 30
0.0
 11
8.999881228885158
 21
467.6558042098989
 31
0.0
  0
LINE
  5
198
330
1F
100
AcDbEntity
  8
通り芯
  6
Continuous
 62
     3
370
     9
100
AcDbLine
 10
3.999765756967804
 20
467.6558042098989
 30
0.0
 11
3.999765756967804
 21
449.6558932882349
 31
0.0
  0
LINE
  5
199
330
1F
100
AcDbEntity
  8
通り芯
  6
Continuous
 62
     3
370
     9
100
AcDbLine
 10
8.999881228885158
 20
467.6558042098989
 30
0.0
 11
8.999881228885158
 21
449.6558932882349
 31
0.0
  0
LINE
  5
19A
330
1F
100
AcDbEntity
  8
通り芯
  6
Continuous
 62
     3
370
     9
100
AcDbLine
 10
36.99987463048984
 20
449.6558932882349
 30
0.0
 11
8.999881228885158
 21
449.6558932882349
 31
0.0
  0
LINE
  5
19B
330
1F
100
AcDbEntity
  8
通り芯
  6
Continuous
 62
     3
370
     9
100
AcDbLine
 10
36.99987463048984
 20
467.6558042098989
 30
0.0
 11
36.99987463048984
 21
449.6558932882349
 31
0.0
  0
LINE
  5
19C
330
1F
100
AcDbEntity
  8
通り芯
  6
Continuous
 62
     3
370
     9
100
AcDbLine
 10
82.99992741765203
 20
467.6558042098989
 30
0.0
 11
54.99963708826016
 21
467.6558042098989
 31
0.0
  0
LINE
  5
19D
330
1F
100
AcDbEntity
  8
通り芯
  6
Continuous
 62
     3
370
     9
100
AcDbLine
 10
49.9995216163428
 20
467.6558042098989
 30
0.0
 11
41.99984163851343
 21
467.6558042098989
 31
0.0
  0
LINE
  5
19E
330
1F
100
AcDbEntity
  8
通り芯
  6
Continuous
 62
     3
370
     9
100
AcDbLine
 10
41.99984163851343
 20
467.6558042098989
 30
0.0
 11
41.99984163851343
 21
449.6558932882349
 31
0.0
  0
LINE
  5
19F
330
1F
100
AcDbEntity
  8
通り芯
  6
Continuous
 62
     3
370
     9
100
AcDbLine
 10
49.9995216163428
 20
449.6558932882349
 30
0.0
 11
41.99984163851343
 21
449.6558932882349
 31
0.0
  0
LINE
  5
1A0
330
1F
100
AcDbEntity
  8
通り芯
  6
Continuous
 62
     3
370
     9
100
AcDbLine
 10
49.9995216163428
 20
467.6558042098989
 30
0.0
 11
49.9995216163428
 21
449.6558932882349
 31
0.0
  0
LINE
  5
1A1
330
1F
100
AcDbEntity
  8
通り芯
  6
Continuous
 62
     3
370
     9
100
AcDbLine
 10
54.99963708826016
 20
467.6558042098989
 30
0.0
 11
54.99963708826016
 21
449.6558932882349
 31
0.0
  0
LINE
  5
1A2
330
1F
100
AcDbEntity
  8
通り芯
  6
Continuous
 62
     3
370
     9
100
AcDbLine
 10
82.99992741765203
 20
449.6558932882349
 30
0.0
 11
54.99963708826016
 21
449.6558932882349
 31
0.0
  0
LINE
  5
1A3
330
1F
100
AcDbEntity
  8
通り芯
  6
Continuous
 62
     3
370
     9
100
AcDbLine
 10
82.99992741765203
 20
467.6558042098989
 30
0.0
 11
82.99992741765203
 21
449.6558932882349
 31
0.0
  0
LINE
  5
1A4
330
1F
100
AcDbEntity
  8
通り芯
  6
Continuous
 62
     3
370
     9
100
AcDbLine
 10
128.9998317409206
 20
467.6558042098989
 30
0.0
 11
100.9996898754223
 21
467.6558042098989
 31
0.0
  0
LINE
  5
1A5
330
1F
100
AcDbEntity
  8
通り芯
  6
Continuous
 62
     3
370
     9
100
AcDbLine
 10
95.99972286739859
 20
467.6558042098989
 30
0.0
 11
87.99989442567562
 21
467.6558042098989
 31
0.0
  0
LINE
  5
1A6
330
1F
100
AcDbEntity
  8
通り芯
  6
Continuous
 62
     3
370
     9
100
AcDbLine
 10
87.99989442567562
 20
467.6558042098989
 30
0.0
 11
87.99989442567562
 21
449.6558932882349
 31
0.0
  0
LINE
  5
1A7
330
1F
100
AcDbEntity
  8
通り芯
  6
Continuous
 62
     3
370
     9
100
AcDbLine
 10
95.99972286739859
 20
449.6558932882349
 30
0.0
 11
87.99989442567562
 21
449.6558932882349
 31
0.0
  0
LINE
  5
1A8
330
1F
100
AcDbEntity
  8
通り芯
  6
Continuous
 62
     3
370
     9
100
AcDbLine
 10
95.99972286739859
 20
467.6558042098989
 30
0.0
 11
95.99972286739859
 21
449.6558932882349
 31
0.0
  0
LINE
  5
1A9
330
1F
100
AcDbEntity
  8
通り芯
  6
Continuous
 62
     3
370
     9
100
AcDbLine
 10
100.9996898754223
 20
467.6558042098989
 30
0.0
 11
100.9996898754223
 21
449.6558932882349
 31
0.0
  0
LINE
  5
1AA
330
1F
100
AcDbEntity
  8
通り芯
  6
Continuous
 62
     3
370
     9
100
AcDbLine
 10
128.9998317409206
 20
449.6558932882349
 30
0.0
 11
100.9996898754223
 21
449.6558932882349
 31
0.0
  0
LINE
  5
1AB
330
1F
100
AcDbEntity
  8
通り芯
  6
Continuous
 62
     3
370
     9
100
AcDbLine
 10
128.9998317409206
 20
467.6558042098989
 30
0.0
 11
128.9998317409206
 21
449.6558932882349
 31
0.0
  0
LINE
  5
1AC
330
1F
100
AcDbEntity
  8
通り芯
  6
Continuous
 62
     3
370
     9
100
AcDbLine
 10
133.9997987489442
 20
467.6558042098989
 30
0.0
 11
133.9997987489442
 21
449.6558932882349
 31
0.0
  0
LINE
  5
1AD
330
1F
100
AcDbEntity
  8
通り芯
  6
Continuous
 62
     3
370
     9
100
AcDbLine
 10
141.9997756545608
 20
449.6558932882349
 30
0.0
 11
133.9997987489442
 21
449.6558932882349
 31
0.0
  0
LINE
  5
1AE
330
1F
100
AcDbEntity
  8
通り芯
  6
Continuous
 62
     3
370
     9
100
AcDbLine
 10
111.9998251425253
 20
484.5437205686404
 30
0.0
 11
111.9998251425253
 21
474.6558767922468
 31
0.0
  0
LINE
  5
1AF
330
1F
100
AcDbEntity
  8
通り芯
  6
Continuous
 62
     3
370
     9
100
AcDbLine
 10
117.9996964738175
 20
481.0791671480323
 30
0.0
 11
117.9996964738175
 21
474.6558767922468
 31
0.0
  0
LINE
  5
1B0
330
1F
100
AcDbEntity
  8
通り芯
  6
Continuous
 62
     3
370
     9
100
AcDbLine
 10
128.1365141997466
 20
474.6558767922468
 30
0.0
 11
117.9996964738175
 21
474.6558767922468
 31
0.0
  0
LINE
  5
1B1
330
1F
100
AcDbEntity
  8
通り芯
  6
Continuous
 62
     3
370
     9
100
AcDbLine
 10
137.9998614336994
 20
467.6558042098989
 30
0.0
 11
133.9997987489442
 21
467.6558042098989
 31
0.0
  0
LINE
  5
1B2
330
1F
100
AcDbEntity
  8
通り芯
  6
Continuous
 62
     3
370
     9
100
AcDbLine
 10
141.9997756545608
 20
464.5866101378971
 30
0.0
 11
141.9997756545608
 21
449.6558932882349
 31
0.0
  0
LINE
  5
1B3
330
1F
100
AcDbEntity
  8
通り芯
  6
Continuous
 62
     3
370
     9
100
AcDbLine
 10
159.1978330869933
 20
449.6558932882349
 30
0.0
 11
146.9997426625844
 21
449.6558932882349
 31
0.0
  0
LINE
  5
1B4
330
1F
100
AcDbEntity
  8
通り芯
  6
Continuous
 62
     3
370
     9
100
AcDbLine
 10
146.9997426625844
 20
460.5486891602789
 30
0.0
 11
146.9997426625844
 21
449.6558932882349
 31
0.0
  0
LINE
  5
1B5
330
1F
100
AcDbEntity
  8
通り芯
  6
Continuous
 62
     3
370
     9
100
AcDbLine
 10
166.1895916913006
 20
442.655820705887
 30
0.0
 11
163.9997492609797
 21
442.655820705887
 31
0.0
  0
LINE
  5
1B6
330
1F
100
AcDbEntity
  8
通り芯
  6
Continuous
 62
     3
370
     9
100
AcDbLine
 10
229.8235919024494
 20
292.6557712179224
 30
0.0
 11
209.9996535842483
 21
292.6557712179224
 31
0.0
  0
LINE
  5
1B7
330
1F
100
AcDbEntity
  8
通り芯
  6
Continuous
 62
     3
370
     9
100
AcDbLine
 10
229.4426335515203
 20
299.6555468724832
 30
0.0
 11
225.9999043232686
 21
299.6555468724832
 31
0.0
  0
LINE
  5
1B8
330
1F
100
AcDbEntity
  8
通り芯
  6
Continuous
 62
     3
370
     9
100
AcDbLine
 10
227.4728146114864
 20
317.6556062580407
 30
0.0
 11
225.9999043232686
 21
317.6556062580407
 31
0.0
  0
LINE
  5
1B9
330
1F
100
AcDbEntity
  8
通り芯
  6
Continuous
 62
     3
370
     9
100
AcDbLine
 10
226.3159839527027
 20
324.6559757681757
 30
0.0
 11
209.9996535842483
 21
324.6559757681757
 31
0.0
  0
LINE
  5
1BA
330
1F
100
AcDbEntity
  8
通り芯
  6
Continuous
 62
     3
370
     9
100
AcDbLine
 10
222.3035987647803
 20
342.6561836176268
 30
0.0
 11
209.9996535842483
 21
342.6561836176268
 31
0.0
  0
LINE
  5
1BB
330
1F
100
AcDbEntity
  8
通り芯
  6
Continuous
 62
     3
370
     9
100
AcDbLine
 10
220.3269504856419
 20
349.6559592721876
 30
0.0
 11
192.999646985853
 21
349.6559592721876
 31
0.0
  0
LINE
  5
1BC
330
1F
100
AcDbEntity
  8
通り芯
  6
Continuous
 62
     3
370
     9
100
AcDbLine
 10
214.111806508657
 20
367.6560186577451
 30
0.0
 11
192.999646985853
 21
367.6560186577451
 31
0.0
  0
LINE
  5
1BD
330
1F
100
AcDbEntity
  8
通り芯
  6
Continuous
 62
     3
370
     9
100
AcDbLine
 10
203.9996337890625
 20
389.8822512379815
 30
0.0
 11
203.9996337890625
 21
374.6560912400931
 31
0.0
  0
LINE
  5
1BE
330
1F
100
AcDbEntity
  8
通り芯
  6
Continuous
 62
     3
370
     9
100
AcDbLine
 10
202.5313258815456
 20
392.6558536978634
 30
0.0
 11
163.9997492609797
 21
392.6558536978634
 31
0.0
  0
LINE
  5
1BF
330
1F
100
AcDbEntity
  8
通り芯
  6
Continuous
 62
     3
370
     9
100
AcDbLine
 10
198.6047528241131
 20
399.6559262802114
 30
0.0
 11
192.999646985853
 21
399.6559262802114
 31
0.0
  0
LINE
  5
1C0
330
1F
100
AcDbEntity
  8
通り芯
  6
Continuous
 62
     3
370
     9
100
AcDbLine
 10
192.999646985853
 20
408.7598806984968
 30
0.0
 11
192.999646985853
 21
399.6559262802114
 31
0.0
  0
LINE
  5
1C1
330
1F
100
AcDbEntity
  8
通り芯
  6
Continuous
 62
     3
370
     9
100
AcDbLine
 10
187.9996799778294
 20
416.1547187738768
 30
0.0
 11
187.9996799778294
 21
399.6559262802114
 31
0.0
  0
LINE
  5
1C2
330
1F
100
AcDbEntity
  8
通り芯
  6
Continuous
 62
     3
370
     9
100
AcDbLine
 10
186.9329669024494
 20
417.6556887379815
 30
0.0
 11
179.9998515361064
 21
417.6556887379815
 31
0.0
  0
LINE
  5
1C3
330
1F
100
AcDbEntity
  8
通り芯
  6
Continuous
 62
     3
370
     9
100
AcDbLine
 10
181.7108979096283
 20
424.6557613203295
 30
0.0
 11
163.9997492609797
 21
424.6557613203295
 31
0.0
  0
LINE
  5
1C4
330
1F
100
AcDbEntity
  8
通り芯
  6
Continuous
 62
     3
370
     9
100
AcDbLine
 10
35.53824759818406
 20
492.6559361778042
 30
0.0
 11
25.99944243559969
 21
492.6559361778042
 31
0.0
  0
LINE
  5
1C5
330
1F
100
AcDbEntity
  8
通り芯
  6
Continuous
 62
     3
370
     9
100
AcDbLine
 10
65.99962389146953
 20
485.1203543313093
 30
0.0
 11
65.99962389146953
 21
474.6558767922468
 31
0.0
  0
LINE
  5
1C6
330
1F
100
AcDbEntity
  8
通り芯
  6
Continuous
 62
     3
370
     9
100
AcDbLine
 10
91.99446394636828
 20
474.6558767922468
 30
0.0
 11
71.99949522276171
 21
474.6558767922468
 31
0.0
  0
LINE
  5
1C7
330
1F
100
AcDbEntity
  8
通り芯
  6
Continuous
 62
     3
370
     9
100
AcDbLine
 10
71.99949522276171
 20
483.0549246438093
 30
0.0
 11
71.99949522276171
 21
474.6558767922468
 31
0.0
  0
LINE
  5
1C8
330
1F
100
AcDbEntity
  8
通り芯
  6
Continuous
 62
     3
370
     9
100
AcDbLine
 10
105.1753853462837
 20
474.6558767922468
 30
0.0
 11
110.6061945734797
 21
485.3142481763262
 31
0.0
  0
LINE
  5
1C9
330
1F
100
AcDbEntity
  8
通り芯
  6
Continuous
 62
     3
370
     9
100
AcDbLine
 10
111.9998251425253
 20
474.6558767922468
 30
0.0
 11
105.1753853462837
 21
474.6558767922468
 31
0.0
  0
LINE
  5
1CA
330
1F
100
AcDbEntity
  8
通り芯
  6
Continuous
 62
     3
370
     9
100
AcDbLine
 10
109.9998680320945
 20
298.655494085321
 30
0.0
 11
165.9997063714105
 21
298.655494085321
 31
0.0
  0
LINE
  5
1CB
330
1F
100
AcDbEntity
  8
通り芯
  6
Continuous
 62
     3
370
     9
100
AcDbLine
 10
146.9997426625844
 20
305.655566667669
 30
0.0
 11
174.9998845280828
 21
305.655566667669
 31
0.0
  0
LINE
  5
1CC
330
1F
100
AcDbEntity
  8
通り芯
  6
Continuous
 62
     3
370
     9
100
AcDbLine
 10
100.9996898754223
 20
305.655566667669
 30
0.0
 11
128.9998317409206
 21
305.655566667669
 31
0.0
  0
LINE
  5
1CD
330
1F
100
AcDbEntity
  8
通り芯
  6
Continuous
 62
     3
370
     9
100
AcDbLine
 10
133.9997987489442
 20
305.655566667669
 30
0.0
 11
141.9997756545608
 21
305.655566667669
 31
0.0
  0
LINE
  5
1CE
330
1F
100
AcDbEntity
  8
通り芯
  6
Continuous
 62
     3
370
     9
100
AcDbLine
 10
174.9995876002956
 20
317.6556062580407
 30
0.0
 11
174.9995876002956
 21
305.655566667669
 31
0.0
  0
LINE
  5
1CF
330
1F
100
AcDbEntity
  8
通り芯
  6
Continuous
 62
     3
370
     9
100
AcDbLine
 10
146.9997426625844
 20
317.6556062580407
 30
0.0
 11
146.9997426625844
 21
305.655566667669
 31
0.0
  0
LINE
  5
1D0
330
1F
100
AcDbEntity
  8
通り芯
  6
Continuous
 62
     3
370
     9
100
AcDbLine
 10
141.9997756545608
 20
317.6556062580407
 30
0.0
 11
141.9997756545608
 21
305.655566667669
 31
0.0
  0
LINE
  5
1D1
330
1F
100
AcDbEntity
  8
通り芯
  6
Continuous
 62
     3
370
     9
100
AcDbLine
 10
133.9997987489442
 20
317.6556062580407
 30
0.0
 11
133.9997987489442
 21
305.655566667669
 31
0.0
  0
LINE
  5
1D2
330
1F
100
AcDbEntity
  8
通り芯
  6
Continuous
 62
     3
370
     9
100
AcDbLine
 10
128.9998317409206
 20
317.6556062580407
 30
0.0
 11
128.9998317409206
 21
305.655566667669
 31
0.0
  0
LINE
  5
1D3
330
1F
100
AcDbEntity
  8
通り芯
  6
Continuous
 62
     3
370
     9
100
AcDbLine
 10
100.9996898754223
 20
317.6556062580407
 30
0.0
 11
100.9996898754223
 21
305.655566667669
 31
0.0
  0
LINE
  5
1D4
330
1F
100
AcDbEntity
  8
通り芯
  6
Continuous
 62
     3
370
     9
100
AcDbLine
 10
102.999646985853
 20
292.6557712179224
 30
0.0
 11
71.99949522276171
 21
292.6557712179224
 31
0.0
  0
LINE
  5
1D5
330
1F
100
AcDbEntity
  8
通り芯
  6
Continuous
 62
     3
370
     9
100
AcDbLine
 10
203.9996337890625
 20
292.6557712179224
 30
0.0
 11
172.999927417652
 21
292.6557712179224
 31
0.0
  0
LINE
  5
1D6
330
1F
100
AcDbEntity
  8
通り芯
  6
Continuous
 62
     3
370
     9
100
AcDbLine
 10
19.99986803209453
 20
342.6561836176268
 30
0.0
 11
0.0
 21
342.6561836176268
 31
0.0
  0
LINE
  5
1D7
330
1F
100
AcDbEntity
  8
通り芯
  6
Continuous
 62
     3
370
     9
100
AcDbLine
 10
19.99986803209453
 20
324.6559757681757
 30
0.0
 11
0.0
 21
324.6559757681757
 31
0.0
  0
LINE
  5
1D8
330
1F
100
AcDbEntity
  8
通り芯
  6
Continuous
 62
     3
370
     9
100
AcDbLine
 10
3.999765756967804
 20
367.6560186577451
 30
0.0
 11
0.0
 21
367.6560186577451
 31
0.0
  0
LINE
  5
1D9
330
1F
100
AcDbEntity
  8
通り芯
  6
Continuous
 62
     3
370
     9
100
AcDbLine
 10
3.999765756967804
 20
349.6559592721876
 30
0.0
 11
0.0
 21
349.6559592721876
 31
0.0
  0
LINE
  5
1DA
330
1F
100
AcDbEntity
  8
通り芯
  6
Continuous
 62
     3
370
     9
100
AcDbLine
 10
19.99986803209453
 20
492.6559361778042
 30
0.0
 11
0.0
 21
492.6559361778042
 31
0.0
  0
LINE
  5
1DB
330
1F
100
AcDbEntity
  8
通り芯
  6
Continuous
 62
     3
370
     9
100
AcDbLine
 10
19.99986803209453
 20
474.6558767922468
 30
0.0
 11
0.0
 21
474.6558767922468
 31
0.0
  0
LINE
  5
1DC
330
1F
100
AcDbEntity
  8
通り芯
  6
Continuous
 62
     3
370
     9
100
AcDbLine
 10
3.999765756967804
 20
467.6558042098989
 30
0.0
 11
0.0
 21
467.6558042098989
 31
0.0
  0
LINE
  5
1DD
330
1F
100
AcDbEntity
  8
通り芯
  6
Continuous
 62
     3
370
     9
100
AcDbLine
 10
3.999765756967804
 20
449.6558932882349
 30
0.0
 11
0.0
 21
449.6558932882349
 31
0.0
  0
LINE
  5
1DE
330
1F
100
AcDbEntity
  8
躯体
  6
Continuous
 62
     2
370
     9
100
AcDbLine
 10
-257.0494203309755
 20
515.2503592141218
 30
0.0
 11
-268.952067607158
 21
527.1530064903042
 31
0.0
  0
LINE
  5
1DF
330
1F
100
AcDbEntity
  8
躯体
  6
Continuous
 62
     2
370
     9
100
AcDbLine
 10
231.5947661528716
 20
540.7059784075338
 30
0.0
 11
243.4977103568413
 21
552.6087741476099
 31
0.0
  0
LINE
  5
1E0
330
1F
100
AcDbEntity
  8
仕上
  6
Continuous
 62
     3
370
     9
100
AcDbLine
 10
73.99989772487328
 20
254.2108975112079
 30
0.0
 11
73.99989772487328
 21
283.6558899890373
 31
0.0
  0
LINE
  5
1E1
330
1F
100
AcDbEntity
  8
仕上
  6
Continuous
 62
     3
370
     9
100
AcDbLine
 10
127.7087897223395
 20
220.3153286635517
 30
0.0
 11
76.50002969277875
 21
249.8807995910221
 31
0.0
  0
LINE
  5
1E2
330
1F
100
AcDbEntity
  8
仕上
  6
Continuous
 62
     3
370
     9
100
AcDbLine
 10
118.7089084934544
 20
204.7268425333785
 30
0.0
 11
67.4998515361064
 21
234.2923876927957
 31
0.0
  0
LINE
  5
1E3
330
1F
100
AcDbEntity
  8
仕上
  6
Continuous
 62
     3
370
     9
100
AcDbLine
 10
193.4431086359797
 20
240.449927679071
 30
0.0
 11
140.9952689505913
 21
204.7618800122637
 31
0.0
  0
LINE
  5
1E4
330
1F
100
AcDbEntity
  8
仕上
  6
Continuous
 62
     3
370
     9
100
AcDbLine
 10
196.6307768950591
 20
240.5676595466809
 30
0.0
 11
211.7518244562922
 21
231.8375372124326
 31
0.0
  0
LINE
  5
1E5
330
1F
100
AcDbEntity
  8
仕上
  6
Continuous
 62
     3
370
     9
100
AcDbLine
 10
131.4999637088259
 20
128.0599394242146
 30
0.0
 11
144.5872043918919
 21
120.5040180242992
 31
0.0
  0
LINE
  5
1E6
330
1F
100
AcDbEntity
  8
仕上
  6
Continuous
 62
     3
370
     9
100
AcDbLine
 10
135.6308230838259
 20
134.9125873602367
 30
0.0
 11
150.7518706450591
 21
126.1824650259882
 31
0.0
  0
LINE
  5
1E7
330
1F
100
AcDbEntity
  8
仕上
  6
Continuous
 62
     3
370
     9
100
AcDbLine
 10
125.8610081028294
 20
137.7320651632349
 30
0.0
 11
121.1952333192567
 21
200.7658258526353
 31
0.0
  0
LINE
  5
1E8
330
1F
100
AcDbEntity
  8
仕上
  6
Continuous
 62
     3
370
     9
100
AcDbLine
 10
66.49994721283781
 20
101.5017531251226
 30
0.0
 11
124.3692429001267
 21
134.9125873602367
 31
0.0
  0
LINE
  5
1E9
330
1F
100
AcDbEntity
  8
仕上
  6
Continuous
 62
     3
370
     9
100
AcDbLine
 10
70.5000098975928
 20
94.57361129921463
 30
0.0
 11
128.4999538112331
 21
128.0599394242146
 31
0.0
  0
LINE
  5
1EA
330
1F
100
AcDbEntity
  8
仕上
  6
Continuous
 62
     3
370
     9
100
AcDbLine
 10
68.99993071684969
 20
91.97549316154573
 30
0.0
 11
68.99993071684969
 21
76.86365036171463
 31
0.0
  0
LINE
  5
1EB
330
1F
100
AcDbEntity
  8
仕上
  6
Continuous
 62
     3
370
     9
100
AcDbLine
 10
60.99995381123313
 20
91.97549316154573
 30
0.0
 11
60.99995381123313
 21
74.36411224938354
 31
0.0
  0
LINE
  5
1EC
330
1F
100
AcDbEntity
  8
仕上
  6
Continuous
 62
     3
370
     9
100
AcDbLine
 10
74.99995051203547
 20
254.2108975112079
 30
0.0
 11
74.99995051203547
 21
283.6558899890373
 31
0.0
  0
LINE
  5
1ED
330
1F
100
AcDbEntity
  8
仕上
  6
Continuous
 62
     3
370
     9
100
AcDbLine
 10
128.2088161159206
 20
221.1813927867568
 30
0.0
 11
76.99990762246625
 21
250.7469379461742
 31
0.0
  0
LINE
  5
1EE
330
1F
100
AcDbEntity
  8
仕上
  6
Continuous
 62
     3
370
     9
100
AcDbLine
 10
124.8636276657517
 20
137.6582786081251
 30
0.0
 11
120.1980013460727
 21
200.6920392975254
 31
0.0
  0
LINE
  5
1EF
330
1F
100
AcDbEntity
  8
仕上
  6
Continuous
 62
     3
370
     9
100
AcDbLine
 10
65.99992081925672
 20
102.3678172483278
 30
0.0
 11
123.8692165065456
 21
135.7785772514951
 31
0.0
  0
LINE
  5
1F0
330
1F
100
AcDbEntity
  8
仕上
  6
Continuous
 62
     3
370
     9
100
AcDbLine
 10
118.2088820998733
 20
203.8608526421201
 30
0.0
 11
66.99982514252531
 21
233.4263978015373
 31
0.0
  0
LINE
  5
1F1
330
1F
100
AcDbEntity
  8
仕上
  6
Continuous
 62
     3
370
     9
100
AcDbLine
 10
11.29112449852187
 20
204.7269167653253
 30
0.0
 11
62.49988452808282
 21
234.2923876927957
 31
0.0
  0
LINE
  5
1F2
330
1F
100
AcDbEntity
  8
仕上
  6
Continuous
 62
     3
370
     9
100
AcDbLine
 10
62.99991092166374
 20
233.4263978015373
 30
0.0
 11
11.79115089210296
 21
203.8608526421201
 31
0.0
  0
LINE
  5
1F3
330
1F
100
AcDbEntity
  8
仕上
  6
Continuous
 62
     3
370
     9
100
AcDbLine
 10
196.6243929476352
 20
239.526036869316
 30
0.0
 11
211.7518244562922
 21
231.8375372124326
 31
0.0
  0
LINE
  5
1F4
330
1F
100
AcDbEntity
  8
仕上
  6
Continuous
 62
     3
370
     9
100
AcDbLine
 10
134.1389094172297
 20
137.7320651632349
 30
0.0
 11
138.8217575485642
 21
200.9972068307814
 31
0.0
  0
LINE
  5
1F5
330
1F
100
AcDbEntity
  8
仕上
  6
Continuous
 62
     3
370
     9
100
AcDbLine
 10
141.9568695893158
 20
204.2066992822171
 30
0.0
 11
193.5774684596706
 21
239.331846096512
 31
0.0
  0
LINE
  5
1F6
330
1F
100
AcDbEntity
  8
仕上
  6
Continuous
 62
     3
370
     9
100
AcDbLine
 10
136.5297719594594
 20
135.4390403268751
 30
0.0
 11
150.7518706450591
 21
126.1824650259882
 31
0.0
  0
LINE
  5
1F7
330
1F
100
AcDbEntity
  8
仕上
  6
Continuous
 62
     3
370
     9
100
AcDbLine
 10
135.1744450749578
 20
138.1747844938937
 30
0.0
 11
139.7833581872887
 21
200.4420261007349
 31
0.0
  0
LINE
  5
1F8
330
1F
100
AcDbEntity
  8
仕上
  6
Continuous
 62
     3
370
     9
100
AcDbLine
 10
131.442211254223
 20
127.0527603701606
 30
0.0
 11
144.5872043918919
 21
120.5040180242992
 31
0.0
  0
LINE
  5
1F9
330
1F
100
AcDbEntity
  8
仕上
  6
Continuous
 62
     3
370
     9
100
AcDbLine
 10
71.3955441036739
 20
93.93588464433714
 30
0.0
 11
128.6044723923142
 21
126.9656120646285
 31
0.0
  0
LINE
  5
1FA
330
1F
100
AcDbEntity
  8
仕上
  6
Continuous
 62
     3
370
     9
100
AcDbLine
 10
69.90110655088671
 20
91.52193596665558
 30
0.0
 11
68.99993071684969
 21
76.86365036171463
 31
0.0
  0
LINE
  5
1FB
330
1F
100
AcDbEntity
  8
仕上
  6
Continuous
 62
     3
370
     9
100
AcDbLine
 10
60.08645547402875
 20
91.50530801057448
 30
0.0
 11
60.99995381123313
 21
74.36411224938354
 31
0.0
  0
LINE
  5
1FC
330
1F
100
AcDbEntity
  8
仕上
  6
Continuous
 62
     3
370
     9
100
AcDbLine
 10
-73.99989772487328
 20
254.2108975112079
 30
0.0
 11
-73.99989772487328
 21
283.6558899890373
 31
0.0
  0
LINE
  5
1FD
330
1F
100
AcDbEntity
  8
仕上
  6
Continuous
 62
     3
370
     9
100
AcDbLine
 10
-127.7088639542864
 20
220.3153286635517
 30
0.0
 11
-76.49995546083204
 21
249.8807995910221
 31
0.0
  0
LINE
  5
1FE
330
1F
100
AcDbEntity
  8
仕上
  6
Continuous
 62
     3
370
     9
100
AcDbLine
 10
-118.7089084934544
 20
204.7268425333785
 30
0.0
 11
-67.49992576805329
 21
234.2923876927957
 31
0.0
  0
LINE
  5
1FF
330
1F
100
AcDbEntity
  8
仕上
  6
Continuous
 62
     3
370
     9
100
AcDbLine
 10
-193.4431086359798
 20
240.449927679071
 30
0.0
 11
-140.9952689505913
 21
204.7618800122637
 31
0.0
  0
LINE
  5
200
330
1F
100
AcDbEntity
  8
仕上
  6
Continuous
 62
     3
370
     9
100
AcDbLine
 10
-196.6307768950591
 20
240.5676595466809
 30
0.0
 11
-211.7518986882391
 21
231.8375372124326
 31
0.0
  0
LINE
  5
201
330
1F
100
AcDbEntity
  8
仕上
  6
Continuous
 62
     3
370
     9
100
AcDbLine
 10
-131.4999637088261
 20
128.0599394242146
 30
0.0
 11
-144.5872043918919
 21
120.5040180242992
 31
0.0
  0
LINE
  5
202
330
1F
100
AcDbEntity
  8
仕上
  6
Continuous
 62
     3
370
     9
100
AcDbLine
 10
-135.6307488518792
 20
134.9125873602367
 30
0.0
 11
-150.7518706450592
 21
126.1824650259882
 31
0.0
  0
LINE
  5
203
330
1F
100
AcDbEntity
  8
仕上
  6
Continuous
 62
     3
370
     9
100
AcDbLine
 10
-125.8609338708827
 20
137.7320651632349
 30
0.0
 11
-121.1952333192567
 21
200.7658258526353
 31
0.0
  0
LINE
  5
204
330
1F
100
AcDbEntity
  8
仕上
  6
Continuous
 62
     3
370
     9
100
AcDbLine
 10
-66.49994721283781
 20
101.5017531251226
 30
0.0
 11
-124.36916866818
 21
134.9125873602367
 31
0.0
  0
LINE
  5
205
330
1F
100
AcDbEntity
  8
仕上
  6
Continuous
 62
     3
370
     9
100
AcDbLine
 10
-70.49993566564609
 20
94.57361129921463
 30
0.0
 11
-128.4999538112331
 21
128.0599394242146
 31
0.0
  0
LINE
  5
206
330
1F
100
AcDbEntity
  8
仕上
  6
Continuous
 62
     3
370
     9
100
AcDbLine
 10
-68.99993071684969
 20
91.97549316154573
 30
0.0
 11
-68.99993071684969
 21
76.86365036171463
 31
0.0
  0
LINE
  5
207
330
1F
100
AcDbEntity
  8
仕上
  6
Continuous
 62
     3
370
     9
100
AcDbLine
 10
-60.99995381123313
 20
91.97549316154573
 30
0.0
 11
-60.99995381123313
 21
74.36411224938354
 31
0.0
  0
LINE
  5
208
330
1F
100
AcDbEntity
  8
仕上
  6
Continuous
 62
     3
370
     9
100
AcDbLine
 10
-74.99995051203547
 20
254.2108975112079
 30
0.0
 11
-74.99995051203547
 21
283.6558899890373
 31
0.0
  0
LINE
  5
209
330
1F
100
AcDbEntity
  8
仕上
  6
Continuous
 62
     3
370
     9
100
AcDbLine
 10
-128.2088903478675
 20
221.1813927867568
 30
0.0
 11
-76.99990762246625
 21
250.7469379461742
 31
0.0
  0
LINE
  5
20A
330
1F
100
AcDbEntity
  8
仕上
  6
Continuous
 62
     3
370
     9
100
AcDbLine
 10
-124.8637018976986
 20
137.6582786081251
 30
0.0
 11
-120.1980013460727
 21
200.6920392975254
 31
0.0
  0
LINE
  5
20B
330
1F
100
AcDbEntity
  8
仕上
  6
Continuous
 62
     3
370
     9
100
AcDbLine
 10
-65.99992081925672
 20
102.3678172483278
 30
0.0
 11
-123.8691422745989
 21
135.7785772514951
 31
0.0
  0
LINE
  5
20C
330
1F
100
AcDbEntity
  8
仕上
  6
Continuous
 62
     3
370
     9
100
AcDbLine
 10
-118.2088820998733
 20
203.8608526421201
 30
0.0
 11
-66.9998993744722
 21
233.4263978015373
 31
0.0
  0
LINE
  5
20D
330
1F
100
AcDbEntity
  8
仕上
  6
Continuous
 62
     3
370
     9
100
AcDbLine
 10
-11.29105026657516
 20
204.7269167653253
 30
0.0
 11
-62.49988452808282
 21
234.2923876927957
 31
0.0
  0
LINE
  5
20E
330
1F
100
AcDbEntity
  8
仕上
  6
Continuous
 62
     3
370
     9
100
AcDbLine
 10
-62.99991092166391
 20
233.4263978015373
 30
0.0
 11
-11.79107666015625
 21
203.8608526421201
 31
0.0
  0
LINE
  5
20F
330
1F
100
AcDbEntity
  8
仕上
  6
Continuous
 62
     3
370
     9
100
AcDbLine
 10
-196.6243929476352
 20
239.526036869316
 30
0.0
 11
-211.7518986882391
 21
231.8375372124326
 31
0.0
  0
LINE
  5
210
330
1F
100
AcDbEntity
  8
仕上
  6
Continuous
 62
     3
370
     9
100
AcDbLine
 10
-134.1389094172299
 20
137.7320651632349
 30
0.0
 11
-138.8217575485642
 21
200.9972068307814
 31
0.0
  0
LINE
  5
211
330
1F
100
AcDbEntity
  8
仕上
  6
Continuous
 62
     3
370
     9
100
AcDbLine
 10
-141.9569438212627
 20
204.2066992822171
 30
0.0
 11
-193.5774684596706
 21
239.331846096512
 31
0.0
  0
LINE
  5
212
330
1F
100
AcDbEntity
  8
仕上
  6
Continuous
 62
     3
370
     9
100
AcDbLine
 10
-136.5297719594595
 20
135.4390403268751
 30
0.0
 11
-150.7518706450592
 21
126.1824650259882
 31
0.0
  0
LINE
  5
213
330
1F
100
AcDbEntity
  8
仕上
  6
Continuous
 62
     3
370
     9
100
AcDbLine
 10
-135.1744450749578
 20
138.1747844938937
 30
0.0
 11
-139.7834324192356
 21
200.4420261007349
 31
0.0
  0
LINE
  5
214
330
1F
100
AcDbEntity
  8
仕上
  6
Continuous
 62
     3
370
     9
100
AcDbLine
 10
-131.442211254223
 20
127.0527603701606
 30
0.0
 11
-144.5872043918919
 21
120.5040180242992
 31
0.0
  0
LINE
  5
215
330
1F
100
AcDbEntity
  8
仕上
  6
Continuous
 62
     3
370
     9
100
AcDbLine
 10
-71.39546987172719
 20
93.93588464433714
 30
0.0
 11
-128.6044723923142
 21
126.9656120646285
 31
0.0
  0
LINE
  5
216
330
1F
100
AcDbEntity
  8
仕上
  6
Continuous
 62
     3
370
     9
100
AcDbLine
 10
-69.90110655088688
 20
91.52193596665558
 30
0.0
 11
-68.99993071684969
 21
76.86365036171463
 31
0.0
  0
LINE
  5
217
330
1F
100
AcDbEntity
  8
仕上
  6
Continuous
 62
     3
370
     9
100
AcDbLine
 10
-60.08652970597547
 20
91.50530801057448
 30
0.0
 11
-60.99995381123313
 21
74.36411224938354
 31
0.0
  0
LINE
  5
218
330
1F
100
AcDbEntity
  8
仕上
  6
Continuous
 62
     3
370
     9
100
AcDbLine
 10
124.3998264622044
 20
263.1558470994681
 30
0.0
 11
150.3176137563344
 21
263.1558470994681
 31
0.0
  0
LINE
  5
219
330
1F
100
AcDbEntity
  8
仕上
  6
Continuous
 62
     3
370
     9
100
AcDbLine
 10
150.3176137563344
 20
263.1558470994681
 30
0.0
 11
150.3176137563344
 21
283.6558899890373
 31
0.0
  0
LINE
  5
21A
330
1F
100
AcDbEntity
  8
仕上
  6
Continuous
 62
     3
370
     9
100
AcDbLine
 10
124.3998264622044
 20
263.1558470994681
 30
0.0
 11
124.3998264622044
 21
283.6558899890373
 31
0.0
  0
LINE
  5
21B
330
1F
100
AcDbEntity
  8
仕上
  6
Continuous
 62
     3
370
     9
100
AcDbLine
 10
124.3998264622044
 20
263.1558470994681
 30
0.0
 11
103.2046756228884
 21
261.1558899890373
 31
0.0
  0
LINE
  5
21C
330
1F
100
AcDbEntity
  8
仕上
  6
Continuous
 62
     3
370
     9
100
AcDbLine
 10
150.3176137563344
 20
263.1558470994681
 30
0.0
 11
172.6143666860219
 21
261.1558899890373
 31
0.0
  0
LINE
  5
21D
330
1F
100
AcDbEntity
  8
仕上
  6
Continuous
 62
     3
370
     9
100
AcDbLine
 10
172.6143666860219
 20
261.1558899890373
 30
0.0
 11
172.6143666860219
 21
283.6558899890373
 31
0.0
  0
LINE
  5
21E
330
1F
100
AcDbEntity
  8
仕上
  6
Continuous
 62
     3
370
     9
100
AcDbLine
 10
103.2045271589948
 20
261.1558899890373
 30
0.0
 11
172.6143666860219
 21
261.1558899890373
 31
0.0
  0
LINE
  5
21F
330
1F
100
AcDbEntity
  8
仕上
  6
Continuous
 62
     3
370
     9
100
AcDbLine
 10
103.2045271589948
 20
261.1558899890373
 30
0.0
 11
103.2045271589948
 21
283.6558899890373
 31
0.0
  0
LINE
  5
220
330
1F
100
AcDbEntity
  8
仕上
  6
Continuous
 62
     3
370
     9
100
AcDbLine
 10
-124.3999006941513
 20
263.1558470994681
 30
0.0
 11
-150.3176137563345
 21
263.1558470994681
 31
0.0
  0
LINE
  5
221
330
1F
100
AcDbEntity
  8
仕上
  6
Continuous
 62
     3
370
     9
100
AcDbLine
 10
-150.3176137563345
 20
263.1558470994681
 30
0.0
 11
-150.3176137563345
 21
283.6558899890373
 31
0.0
  0
LINE
  5
222
330
1F
100
AcDbEntity
  8
仕上
  6
Continuous
 62
     3
370
     9
100
AcDbLine
 10
-124.3999006941513
 20
263.1558470994681
 30
0.0
 11
-124.3999006941513
 21
283.6558899890373
 31
0.0
  0
LINE
  5
223
330
1F
100
AcDbEntity
  8
仕上
  6
Continuous
 62
     3
370
     9
100
AcDbLine
 10
-124.3999006941513
 20
263.1558470994681
 30
0.0
 11
-103.2046756228886
 21
261.1558899890373
 31
0.0
  0
LINE
  5
224
330
1F
100
AcDbEntity
  8
仕上
  6
Continuous
 62
     3
370
     9
100
AcDbLine
 10
-150.3176137563345
 20
263.1558470994681
 30
0.0
 11
-172.6142924540752
 21
261.1558899890373
 31
0.0
  0
LINE
  5
225
330
1F
100
AcDbEntity
  8
仕上
  6
Continuous
 62
     3
370
     9
100
AcDbLine
 10
-172.614366686022
 20
261.1558899890373
 30
0.0
 11
-172.614366686022
 21
283.6558899890373
 31
0.0
  0
LINE
  5
226
330
1F
100
AcDbEntity
  8
仕上
  6
Continuous
 62
     3
370
     9
100
AcDbLine
 10
-103.2046013909417
 20
261.1558899890373
 30
0.0
 11
-172.614366686022
 21
261.1558899890373
 31
0.0
  0
LINE
  5
227
330
1F
100
AcDbEntity
  8
仕上
  6
Continuous
 62
     3
370
     9
100
AcDbLine
 10
-103.2046013909417
 20
261.1558899890373
 30
0.0
 11
-103.2046013909417
 21
283.6558899890373
 31
0.0
  0
LINE
  5
228
330
1F
100
AcDbEntity
  8
仕上
  6
Continuous
 62
     3
370
     9
100
AcDbLine
 10
189.7877791121198
 20
278.6557745171201
 30
0.0
 11
189.7877791121198
 21
283.6558899890373
 31
0.0
  0
LINE
  5
229
330
1F
100
AcDbEntity
  8
仕上
  6
Continuous
 62
     3
370
     9
100
AcDbLine
 10
188.7878747888514
 20
269.6558932882349
 30
0.0
 11
200.1425418338259
 21
269.6558932882349
 31
0.0
  0
LINE
  5
22A
330
1F
100
AcDbEntity
  8
仕上
  6
Continuous
 62
     3
370
     9
100
AcDbLine
 10
201.4003279402448
 20
275.0434995223987
 30
0.0
 11
200.1425418338259
 21
269.6558932882349
 31
0.0
  0
LINE
  5
22B
330
1F
100
AcDbEntity
  8
仕上
  6
Continuous
 62
     3
370
     9
100
AcDbLine
 10
188.7878747888514
 20
250.1557547219343
 30
0.0
 11
213.9082625105573
 21
250.1557547219343
 31
0.0
  0
LINE
  5
22C
330
1F
100
AcDbEntity
  8
仕上
  6
Continuous
 62
     3
370
     9
100
AcDbLine
 10
185.7878648912584
 20
253.1559130834207
 30
0.0
 11
185.7878648912584
 21
272.6559031858278
 31
0.0
  0
LINE
  5
22D
330
1F
100
AcDbEntity
  8
仕上
  6
Continuous
 62
     3
370
     9
100
AcDbLine
 10
185.528943860853
 20
251.1558075090963
 30
0.0
 11
185.528943860853
 21
283.6558899890373
 31
0.0
  0
LINE
  5
22E
330
1F
100
AcDbEntity
  8
仕上
  6
Continuous
 62
     3
370
     9
100
AcDbLine
 10
188.5507779508023
 20
247.2552156330407
 30
0.0
 11
132.3824330922719
 21
220.1425909233701
 31
0.0
  0
LINE
  5
22F
330
1F
100
AcDbEntity
  8
仕上
  6
Continuous
 62
     3
370
     9
100
AcDbLine
 10
200.9878952438767
 20
247.2898077202451
 30
0.0
 11
213.5872835726352
 21
240.0155223264528
 31
0.0
  0
LINE
  5
230
330
1F
100
AcDbEntity
  8
仕上
  6
Continuous
 62
     3
370
     9
100
AcDbLine
 10
202.9571203283361
 20
248.1557976115035
 30
0.0
 11
212.7198090424408
 21
248.1557976115035
 31
0.0
  0
LINE
  5
231
330
1F
100
AcDbEntity
  8
仕上
  6
Continuous
 62
     3
370
     9
100
AcDbLine
 10
202.6811259501689
 20
247.2390330686403
 30
0.0
 11
213.5872835726352
 21
240.0155223264528
 31
0.0
  0
LINE
  5
232
330
1F
100
AcDbEntity
  8
仕上
  6
Continuous
 62
     3
370
     9
100
AcDbLine
 10
188.1160756703969
 20
249.1558503986657
 30
0.0
 11
201.4879216374578
 21
249.1558503986657
 31
0.0
  0
LINE
  5
233
330
1F
100
AcDbEntity
  8
仕上
  6
Continuous
 62
     3
370
     9
100
AcDbLine
 10
187.0529257284628
 20
247.6425579313937
 30
0.0
 11
131.9477308118666
 21
221.0431729018329
 31
0.0
  0
LINE
  5
234
330
1F
100
AcDbEntity
  8
仕上
  6
Continuous
 62
     3
370
     9
100
AcDbLine
 10
-189.7878533440668
 20
278.6557745171201
 30
0.0
 11
-189.7878533440668
 21
283.6558899890373
 31
0.0
  0
LINE
  5
235
330
1F
100
AcDbEntity
  8
仕上
  6
Continuous
 62
     3
370
     9
100
AcDbLine
 10
-188.7878747888514
 20
269.6558932882349
 30
0.0
 11
-200.1424676018793
 21
269.6558932882349
 31
0.0
  0
LINE
  5
236
330
1F
100
AcDbEntity
  8
仕上
  6
Continuous
 62
     3
370
     9
100
AcDbLine
 10
-201.4002537082982
 20
275.0434995223987
 30
0.0
 11
-200.1424676018793
 21
269.6558932882349
 31
0.0
  0
LINE
  5
237
330
1F
100
AcDbEntity
  8
仕上
  6
Continuous
 62
     3
370
     9
100
AcDbLine
 10
-188.7878747888514
 20
250.1557547219343
 30
0.0
 11
-213.9082625105575
 21
250.1557547219343
 31
0.0
  0
LINE
  5
238
330
1F
100
AcDbEntity
  8
仕上
  6
Continuous
 62
     3
370
     9
100
AcDbLine
 10
-185.7878648912585
 20
253.1559130834207
 30
0.0
 11
-185.7878648912585
 21
272.6559031858278
 31
0.0
  0
LINE
  5
239
330
1F
100
AcDbEntity
  8
仕上
  6
Continuous
 62
     3
370
     9
100
AcDbLine
 10
-185.5290180927998
 20
251.1558075090963
 30
0.0
 11
-185.5290180927998
 21
283.6558899890373
 31
0.0
  0
LINE
  5
23A
330
1F
100
AcDbEntity
  8
仕上
  6
Continuous
 62
     3
370
     9
100
AcDbLine
 10
-202.957194560283
 20
248.1557976115035
 30
0.0
 11
-212.7198832743877
 21
248.1557976115035
 31
0.0
  0
LINE
  5
23B
330
1F
100
AcDbEntity
  8
仕上
  6
Continuous
 62
     3
370
     9
100
AcDbLine
 10
-188.1160014384502
 20
249.1558503986657
 30
0.0
 11
-201.487847405511
 21
249.1558503986657
 31
0.0
  0
LINE
  5
23C
330
1F
100
AcDbEntity
  8
仕上
  6
Continuous
 62
     3
370
     9
100
AcDbLine
 10
-202.681125950169
 20
247.2390330686403
 30
0.0
 11
-213.5872835726352
 21
240.0155223264528
 31
0.0
  0
LINE
  5
23D
330
1F
100
AcDbEntity
  8
仕上
  6
Continuous
 62
     3
370
     9
100
AcDbLine
 10
-200.9878952438767
 20
247.2898077202451
 30
0.0
 11
-213.5872835726352
 21
240.0155223264528
 31
0.0
  0
LINE
  5
23E
330
1F
100
AcDbEntity
  8
仕上
  6
Continuous
 62
     3
370
     9
100
AcDbLine
 10
-188.5507037188556
 20
247.2552156330407
 30
0.0
 11
-132.382433092272
 21
220.1425909233701
 31
0.0
  0
LINE
  5
23F
330
1F
100
AcDbEntity
  8
仕上
  6
Continuous
 62
     3
370
     9
100
AcDbLine
 10
-187.0528514965161
 20
247.6425579313937
 30
0.0
 11
-131.9477308118666
 21
221.0431729018329
 31
0.0
  0
LINE
  5
240
330
1F
100
AcDbEntity
  8
躯体
  6
Continuous
 62
     2
370
     9
100
AcDbLine
 10
-205.9999620592273
 20
260.6558635954562
 30
0.0
 11
-222.1530563766892
 21
260.6558635954562
 31
0.0
  0
LINE
  5
241
330
1F
100
AcDbEntity
  8
躯体
  6
Continuous
 62
     2
370
     9
100
AcDbLine
 10
-203.0000263935811
 20
263.6558734930492
 30
0.0
 11
-203.0000263935811
 21
274.6558602962585
 31
0.0
  0
LINE
  5
242
330
1F
100
AcDbEntity
  8
躯体
  6
JWW_HOJO
 62
     2
370
     9
100
AcDbLine
 10
-204.9999835040119
 20
283.6558899890373
 30
0.0
 11
-204.9999835040119
 21
276.1557910131082
 31
0.0
  0
LINE
  5
243
330
1F
100
AcDbEntity
  8
躯体
  6
Continuous
 62
     2
370
     9
100
AcDbLine
 10
-203.0000263935811
 20
274.6558602962585
 30
0.0
 11
-223.3740976694468
 21
274.6558602962585
 31
0.0
  0
LINE
  5
244
330
1F
100
AcDbEntity
  8
仕上
  6
Continuous
 62
     3
370
     9
100
AcDbLine
 10
209.7879440720017
 20
277.1558438002704
 30
0.0
 11
209.7879440720017
 21
283.6558899890373
 31
0.0
  0
LINE
  5
245
330
1F
100
AcDbEntity
  8
仕上
  6
Continuous
 62
     3
370
     9
100
AcDbLine
 10
208.2878648912584
 20
275.6559130834207
 30
0.0
 11
192.7879374736064
 21
275.6559130834207
 31
0.0
  0
LINE
  5
246
330
1F
100
AcDbEntity
  8
仕上
  6
Continuous
 62
     3
370
     9
100
AcDbLine
 10
208.9002784522803
 20
275.0434995223987
 30
0.0
 11
201.4003279402448
 21
275.0434995223987
 31
0.0
  0
LINE
  5
247
330
1F
100
AcDbEntity
  8
仕上
  6
Continuous
 62
     3
370
     9
100
AcDbLine
 10
210.40020916913
 20
276.5434302392484
 30
0.0
 11
210.40020916913
 21
283.6558899890373
 31
0.0
  0
LINE
  5
248
330
1F
100
AcDbEntity
  8
仕上
  6
Continuous
 62
     3
370
     9
100
AcDbLine
 10
-208.2878648912585
 20
275.6559130834207
 30
0.0
 11
-192.7878632416597
 21
275.6559130834207
 31
0.0
  0
LINE
  5
249
330
1F
100
AcDbEntity
  8
仕上
  6
Continuous
 62
     3
370
     9
100
AcDbLine
 10
-209.7878698400549
 20
277.1558438002704
 30
0.0
 11
-209.7878698400549
 21
283.6558899890373
 31
0.0
  0
LINE
  5
24A
330
1F
100
AcDbEntity
  8
仕上
  6
Continuous
 62
     3
370
     9
100
AcDbLine
 10
-210.4002834010769
 20
276.5434302392484
 30
0.0
 11
-210.4002834010769
 21
283.6558899890373
 31
0.0
  0
LINE
  5
24B
330
1F
100
AcDbEntity
  8
仕上
  6
Continuous
 62
     3
370
     9
100
AcDbLine
 10
-208.9002784522805
 20
275.0434995223987
 30
0.0
 11
-201.4002537082982
 21
275.0434995223987
 31
0.0
  0
LINE
  5
24C
330
1F
100
AcDbEntity
  8
躯体
  6
Continuous
 62
     2
370
     9
100
AcDbLine
 10
-210.3492860536318
 20
276.1557910131082
 30
0.0
 11
-224.874919169658
 21
276.1557910131082
 31
0.0
  0
LINE
  5
24D
330
1F
100
AcDbEntity
  8
躯体
  6
JWW_HOJO
 62
     2
370
     9
100
AcDbLine
 10
-205.0000577359587
 20
276.1557910131082
 30
0.0
 11
-210.3492860536318
 21
276.1557910131082
 31
0.0
  0
LINE
  5
24E
330
1F
100
AcDbEntity
  8
躯体
  6
JWW_HOJO
 62
     2
370
     9
100
AcDbLine
 10
-203.5169776710305
 20
275.0434995223987
 30
0.0
 11
-204.9999835040119
 21
276.1557910131082
 31
0.0
  0
LINE
  5
24F
330
1F
100
AcDbEntity
  8
躯体
  6
Continuous
 62
     2
370
     9
100
AcDbLine
 10
-203.0000263935811
 20
274.6558602962585
 30
0.0
 11
-203.5169776710305
 21
275.0434995223987
 31
0.0
  0
LINE
  5
250
330
1F
100
AcDbEntity
  8
躯体
  6
Continuous
 62
     2
370
     9
100
AcDbLine
 10
207.9999934016047
 20
262.9058339026774
 30
0.0
 11
223.5956800306166
 21
262.9058339026774
 31
0.0
  0
LINE
  5
251
330
1F
100
AcDbEntity
  8
躯体
  6
JWW_HOJO
 62
     2
370
     9
100
AcDbLine
 10
204.9999835040119
 20
275.0434995223987
 30
0.0
 11
204.9999835040119
 21
283.6558899890373
 31
0.0
  0
LINE
  5
252
330
1F
100
AcDbEntity
  8
躯体
  6
Continuous
 62
     2
370
     9
100
AcDbLine
 10
204.9999835040119
 20
265.9058438002704
 30
0.0
 11
204.9999835040119
 21
275.0434995223987
 31
0.0
  0
LINE
  5
253
330
1F
100
AcDbEntity
  8
通り芯
  6
Continuous
 62
     3
370
     9
100
AcDbLine
 10
-233.4997806033574
 20
288.6555600692737
 30
0.0
 11
-233.4997806033574
 21
283.6558899890373
 31
0.0
  0
LINE
  5
254
330
1F
100
AcDbEntity
  8
通り芯
  6
Continuous
 62
     3
370
     9
100
AcDbLine
 10
-209.9996535842484
 20
292.6557712179224
 30
0.0
 11
-209.9996535842484
 21
283.6558899890373
 31
0.0
  0
LINE
  5
255
330
1F
100
AcDbEntity
  8
通り芯
  6
Continuous
 62
     3
370
     9
100
AcDbLine
 10
-203.9996337890626
 20
292.6557712179224
 30
0.0
 11
-203.9996337890626
 21
283.6558899890373
 31
0.0
  0
LINE
  5
256
330
1F
100
AcDbEntity
  8
通り芯
  6
Continuous
 62
     3
370
     9
100
AcDbLine
 10
-172.999927417652
 20
292.6557712179224
 30
0.0
 11
-172.999927417652
 21
283.6558899890373
 31
0.0
  0
LINE
  5
257
330
1F
100
AcDbEntity
  8
通り芯
  6
Continuous
 62
     3
370
     9
100
AcDbLine
 10
-165.9997806033574
 20
298.655494085321
 30
0.0
 11
-165.9997806033574
 21
283.6558899890373
 31
0.0
  0
LINE
  5
258
330
1F
100
AcDbEntity
  8
通り芯
  6
Continuous
 62
     3
370
     9
100
AcDbLine
 10
-143.4998548353041
 20
298.655494085321
 30
0.0
 11
-143.4998548353041
 21
283.6558899890373
 31
0.0
  0
LINE
  5
259
330
1F
100
AcDbEntity
  8
通り芯
  6
Continuous
 62
     3
370
     9
100
AcDbLine
 10
-132.4998680320947
 20
298.655494085321
 30
0.0
 11
-132.4998680320947
 21
283.6558899890373
 31
0.0
  0
LINE
  5
25A
330
1F
100
AcDbEntity
  8
通り芯
  6
JWW_CENTER2
 62
     3
370
     9
100
AcDbLine
 10
-137.9998614336994
 20
302.401831975946
 30
0.0
 11
-137.9998614336994
 21
283.6558899890373
 31
0.0
  0
LINE
  5
25B
330
1F
100
AcDbEntity
  8
通り芯
  6
Continuous
 62
     3
370
     9
100
AcDbLine
 10
-109.9998680320947
 20
298.655494085321
 30
0.0
 11
-109.9998680320947
 21
283.6558899890373
 31
0.0
  0
LINE
  5
25C
330
1F
100
AcDbEntity
  8
通り芯
  6
Continuous
 62
     3
370
     9
100
AcDbLine
 10
-102.9997212177998
 20
292.6557712179224
 30
0.0
 11
-102.9997212177998
 21
283.6558899890373
 31
0.0
  0
LINE
  5
25D
330
1F
100
AcDbEntity
  8
通り芯
  6
Continuous
 62
     3
370
     9
100
AcDbLine
 10
-71.99956945470859
 20
292.6557712179224
 30
0.0
 11
-71.99956945470859
 21
283.6558899890373
 31
0.0
  0
LINE
  5
25E
330
1F
100
AcDbEntity
  8
通り芯
  6
Continuous
 62
     3
370
     9
100
AcDbLine
 10
71.99949522276171
 20
292.6557712179224
 30
0.0
 11
71.99949522276171
 21
283.6558899890373
 31
0.0
  0
LINE
  5
25F
330
1F
100
AcDbEntity
  8
通り芯
  6
Continuous
 62
     3
370
     9
100
AcDbLine
 10
102.999646985853
 20
292.6557712179224
 30
0.0
 11
102.999646985853
 21
283.6558899890373
 31
0.0
  0
LINE
  5
260
330
1F
100
AcDbEntity
  8
通り芯
  6
Continuous
 62
     3
370
     9
100
AcDbLine
 10
109.9998680320945
 20
298.655494085321
 30
0.0
 11
109.9998680320945
 21
283.6558899890373
 31
0.0
  0
LINE
  5
261
330
1F
100
AcDbEntity
  8
通り芯
  6
Continuous
 62
     3
370
     9
100
AcDbLine
 10
132.4998680320945
 20
298.655494085321
 30
0.0
 11
132.4998680320945
 21
283.6558899890373
 31
0.0
  0
LINE
  5
262
330
1F
100
AcDbEntity
  8
通り芯
  6
Continuous
 62
     3
370
     9
100
AcDbLine
 10
143.4998548353041
 20
298.655494085321
 30
0.0
 11
143.4998548353041
 21
283.6558899890373
 31
0.0
  0
LINE
  5
263
330
1F
100
AcDbEntity
  8
通り芯
  6
Continuous
 62
     3
370
     9
100
AcDbLine
 10
165.9997063714105
 20
298.655494085321
 30
0.0
 11
165.9997063714105
 21
283.6558899890373
 31
0.0
  0
LINE
  5
264
330
1F
100
AcDbEntity
  8
通り芯
  6
JWW_CENTER2
 62
     3
370
     9
100
AcDbLine
 10
137.9998614336994
 20
302.401831975946
 30
0.0
 11
137.9998614336994
 21
283.6558899890373
 31
0.0
  0
LINE
  5
265
330
1F
100
AcDbEntity
  8
通り芯
  6
Continuous
 62
     3
370
     9
100
AcDbLine
 10
172.999927417652
 20
292.6557712179224
 30
0.0
 11
172.999927417652
 21
283.6558899890373
 31
0.0
  0
LINE
  5
266
330
1F
100
AcDbEntity
  8
通り芯
  6
Continuous
 62
     3
370
     9
100
AcDbLine
 10
203.9996337890625
 20
292.6557712179224
 30
0.0
 11
203.9996337890625
 21
283.6558899890373
 31
0.0
  0
LINE
  5
267
330
1F
100
AcDbEntity
  8
通り芯
  6
Continuous
 62
     3
370
     9
100
AcDbLine
 10
209.9996535842483
 20
292.6557712179224
 30
0.0
 11
209.9996535842483
 21
283.6558899890373
 31
0.0
  0
LINE
  5
268
330
1F
100
AcDbEntity
  8
通り芯
  6
Continuous
 62
     3
370
     9
100
AcDbLine
 10
233.5001517630913
 20
283.6558899890373
 30
0.0
 11
233.5001517630913
 21
288.6555600692737
 31
0.0
  0
LINE
  5
269
330
1F
100
AcDbEntity
  8
躯体
  6
Continuous
 62
     2
370
     9
100
AcDbLine
 10
-278.9995100691513
 20
518.6558240050847
 30
0.0
 11
-278.9995100691513
 21
283.6558899890373
 31
0.0
  0
LINE
  5
26A
330
1F
100
AcDbEntity
  8
躯体
  6
Continuous
 62
     2
370
     9
100
AcDbLine
 10
279.000623548353
 20
518.6561209328718
 30
0.0
 11
279.000623548353
 21
283.6558899890373
 31
0.0
  0
LINE
  5
26B
330
1F
100
AcDbEntity
  8
その他
  6
Continuous
 62
     7
370
     9
100
AcDbLine
 10
252.7501286687078
 20
28.16081239190885
 30
0.0
 11
261.8815489073058
 21
16.26054053802369
 31
0.0
  0
LINE
  5
26C
330
1F
100
AcDbEntity
  8
その他
  6
Continuous
 62
     7
370
     9
100
AcDbLine
 10
252.7501286687078
 20
28.16081239190885
 30
0.0
 11
258.4903366501267
 21
14.30259870947651
 31
0.0
  0
LINE
  5
26D
330
1F
100
AcDbEntity
  8
その他
  6
Continuous
 62
     7
370
     9
100
AcDbLine
 10
252.7501286687078
 20
28.16081239190885
 30
0.0
 11
284.2183870882602
 21
-26.34392030709864
 31
0.0
  0
LINE
  5
26E
330
1F
100
AcDbEntity
  8
その他
  6
Continuous
 62
     7
370
     9
100
AcDbLine
 10
284.2183870882602
 20
-26.34392030709864
 30
0.0
 11
396.2416695259712
 21
-26.34392030709864
 31
0.0
  0
LINE
  5
26F
330
1F
100
AcDbEntity
  8
躯体
  6
Continuous
 62
     2
370
     9
100
AcDbLine
 10
-252.9955394847973
 20
285.155820705887
 30
0.0
 11
-257.9763546505491
 21
287.1513238995103
 31
0.0
  0
LINE
  5
270
330
1F
100
AcDbEntity
  8
躯体
  6
Continuous
 62
     2
370
     9
100
AcDbLine
 10
-252.9999934016048
 20
283.6558899890373
 30
0.0
 11
-257.9922402871622
 21
285.6558470994681
 31
0.0
  0
LINE
  5
271
330
1F
100
AcDbEntity
  8
躯体
  6
Continuous
 62
     2
370
     9
100
AcDbLine
 10
252.760669605152
 20
294.6558767922468
 30
0.0
 11
257.6723005964948
 21
296.6558339026774
 31
0.0
  0
LINE
  5
272
330
1F
100
AcDbEntity
  8
躯体
  6
Continuous
 62
     2
370
     9
100
AcDbLine
 10
252.6910400390625
 20
296.1558075090963
 30
0.0
 11
257.5924270217483
 21
298.1517560944004
 31
0.0
  0
LINE
  5
273
330
1F
100
AcDbEntity
  8
躯体
  6
JWW_CENTER2
 62
     2
370
     9
100
AcDbLine
 10
-258.6532015413852
 20
523.0021044896707
 30
0.0
 11
-238.9480343380491
 21
542.7072716930068
 31
0.0
  0
LINE
  5
274
330
1F
100
AcDbEntity
  8
躯体
  6
JWW_CENTER2
 62
     2
370
     9
100
AcDbLine
 10
239.2428836307009
 20
44.41397137364447
 30
0.0
 11
262.4782252956081
 21
21.17862970873745
 31
0.0
  0
LINE
  5
275
330
1F
100
AcDbEntity
  8
躯体
  6
JWW_CENTER2
 62
     2
370
     9
100
AcDbLine
 10
239.3469568201014
 20
25.00216882402464
 30
0.0
 11
259.0521240234375
 21
44.70733602736072
 31
0.0
  0
LINE
  5
276
330
1F
100
AcDbEntity
  8
躯体
  6
JWW_CENTER2
 62
     2
370
     9
100
AcDbLine
 10
-258.7572004988388
 20
24.89787293878385
 30
0.0
 11
-235.5219330658784
 21
48.13321460369104
 31
0.0
  0
LINE
  5
277
330
1F
100
AcDbEntity
  8
躯体
  6
JWW_CENTER2
 62
     2
370
     9
100
AcDbLine
 10
-258.6532015413852
 20
44.30967548840385
 30
0.0
 11
-238.9480343380491
 21
24.6045082850676
 31
0.0
  0
LINE
  5
278
330
1F
100
AcDbEntity
  8
躯体
  6
JWW_CENTER2
 62
     2
370
     9
100
AcDbLine
 10
226.173755542652
 20
509.8292001400085
 30
0.0
 11
277.2677529824747
 21
560.9234945076184
 31
0.0
  0
LINE
  5
279
330
1F
100
AcDbEntity
  8
躯体
  6
JWW_CENTER2
 62
     2
370
     9
100
AcDbLine
 10
239.3472537478884
 20
542.3099823137838
 30
0.0
 11
259.4780669341216
 21
522.179169127551
 31
0.0
  0
LINE
  5
27A
330
1F
100
AcDbEntity
  8
その他
  6
Continuous
 62
     7
370
     9
100
AcDbLine
 10
0.0
 20
600.7538332692316
 30
0.0
 11
-69.99998350401188
 21
600.7538332692316
 31
0.0
  0
LINE
  5
27B
330
1F
100
AcDbEntity
  8
その他
  6
Continuous
 62
     7
370
     9
100
AcDbLine
 10
343.5450043549409
 20
283.6558899890373
 30
0.0
 11
343.5450043549409
 21
213.6559064850254
 31
0.0
  0
LINE
  5
27C
330
1F
100
AcDbEntity
  8
その他
  6
Continuous
 62
     7
370
     9
100
AcDbLine
 10
0.0
 20
600.7538332692316
 30
0.0
 11
-26.02549784892312
 21
597.3274350692739
 31
0.0
  0
LINE
  5
27D
330
1F
100
AcDbEntity
  8
その他
  6
Continuous
 62
     7
370
     9
100
AcDbLine
 10
0.0
 20
600.7538332692316
 30
0.0
 11
-26.02549784892312
 21
604.1803799330829
 31
0.0
  0
LINE
  5
27E
330
1F
100
AcDbEntity
  8
その他
  6
Continuous
 62
     7
370
     9
100
AcDbLine
 10
343.5450043549409
 20
283.6558899890373
 30
0.0
 11
340.1186061549831
 21
257.6303179081673
 31
0.0
  0
LINE
  5
27F
330
1F
100
AcDbEntity
  8
その他
  6
Continuous
 62
     7
370
     9
100
AcDbLine
 10
343.5450043549409
 20
283.6558899890373
 30
0.0
 11
346.9714025548986
 21
257.6303179081673
 31
0.0
  0
LINE
  5
280
330
1F
100
AcDbEntity
  8
通り芯
  6
JWW_CENTER2
 62
     3
370
     9
100
AcDbLine
 10
0.0
 20
609.6781463762838
 30
0.0
 11
0.0
 21
-32.4380662108149
 31
0.0
  0
LINE
  5
281
330
1F
100
AcDbEntity
  8
通り芯
  6
JWW_CENTER2
 62
     3
370
     9
100
AcDbLine
 10
-323.4470016891892
 20
283.6558899890373
 30
0.0
 11
354.2542988545186
 21
283.6558899890373
 31
0.0
  0
LINE
  5
282
330
1F
100
AcDbEntity
  8
通り芯
  6
Continuous
 62
     3
370
     9
100
AcDbLine
 10
-71.99956945470859
 20
342.6561836176268
 30
0.0
 11
-71.99956945470859
 21
324.6559757681757
 31
0.0
  0
LINE
  5
283
330
1F
100
AcDbEntity
  8
通り芯
  6
Continuous
 62
     3
370
     9
100
AcDbLine
 10
71.99949522276171
 20
342.6561836176268
 30
0.0
 11
71.99949522276171
 21
324.6559757681757
 31
0.0
  0
CIRCLE
  5
284
330
1F
100
AcDbEntity
  8
躯体
  6
Continuous
 62
     2
370
     9
100
AcDbCircle
 10
249.0008215002111
 20
532.6559691697805
 30
0.0
 40
7.499999806687639
  0
CIRCLE
  5
285
330
1F
100
AcDbEntity
  8
躯体
  6
Continuous
 62
     2
370
     9
100
AcDbCircle
 10
249.0008215002111
 20
532.6559691697805
 30
0.0
 40
9.500000412399704
  0
ARC
  5
286
330
1F
100
AcDbEntity
  8
躯体
  6
Continuous
 62
     2
370
     9
100
AcDbCircle
 10
235.0006763355152
 20
518.6561209328718
 30
0.0
 40
43.99999360780458
100
AcDbArc
 50
0.0
 51
90.0
  0
ARC
  5
287
330
1F
100
AcDbEntity
  8
躯体
  6
Continuous
 62
     2
370
     9
100
AcDbCircle
 10
235.0006763355152
 20
518.6561209328718
 30
0.0
 40
44.99999536050333
100
AcDbArc
 50
0.0
 51
90.0
  0
ARC
  5
288
330
1F
100
AcDbEntity
  8
躯体
  6
Continuous
 62
     2
370
     9
100
AcDbCircle
 10
235.0006763355152
 20
518.6558240050847
 30
0.0
 40
33.99999927830052
100
AcDbArc
 50
15.00009155273437
 51
75.00006103515625
  0
ARC
  5
289
330
1F
100
AcDbEntity
  8
躯体
  6
Continuous
 62
     2
370
     9
100
AcDbCircle
 10
262.0003200221706
 20
510.3007214660221
 30
0.0
 40
8.000000103099927
100
AcDbArc
 50
134.9996185302734
 51
135.0
  0
ARC
  5
28A
330
1F
100
AcDbEntity
  8
躯体
  6
Continuous
 62
     2
370
     9
100
AcDbCircle
 10
262.0003200221706
 20
510.3007214660221
 30
0.0
 40
5.999999497387861
100
AcDbArc
 50
0.0
 51
135.0
  0
ARC
  5
28B
330
1F
100
AcDbEntity
  8
躯体
  6
Continuous
 62
     2
370
     9
100
AcDbCircle
 10
262.0003200221706
 20
510.3007214660221
 30
0.0
 40
6.999999510275352
100
AcDbArc
 50
0.0
 51
135.0
  0
CIRCLE
  5
28C
330
1F
100
AcDbEntity
  8
躯体
  6
Continuous
 62
     2
370
     9
100
AcDbCircle
 10
188.0005707611908
 20
530.6558635954561
 30
0.0
 40
6.499999793800148
  0
CIRCLE
  5
28D
330
1F
100
AcDbEntity
  8
躯体
  6
Continuous
 62
     2
370
     9
100
AcDbCircle
 10
188.0005707611908
 20
530.6558635954561
 30
0.0
 40
8.000000103099927
  0
ARC
  5
28E
330
1F
100
AcDbEntity
  8
躯体
  6
Continuous
 62
     2
370
     9
100
AcDbCircle
 10
262.0003200221706
 20
335.085118900566
 30
0.0
 40
5.999999497387861
100
AcDbArc
 50
191.1050109863281
 51
0.0
  0
ARC
  5
28F
330
1F
100
AcDbEntity
  8
躯体
  6
Continuous
 62
     2
370
     9
100
AcDbCircle
 10
262.0003200221706
 20
335.085118900566
 30
0.0
 40
6.999999510275352
100
AcDbArc
 50
221.7205352783203
 51
0.0000000000000254
  0
ARC
  5
290
330
1F
100
AcDbEntity
  8
躯体
  6
Continuous
 62
     2
370
     9
100
AcDbCircle
 10
51.42982276710296
 20
545.6557646195272
 30
0.0
 40
5.999999497387861
100
AcDbArc
 50
90.0
 51
258.8949890136719
  0
ARC
  5
291
330
1F
100
AcDbEntity
  8
躯体
  6
Continuous
 62
     2
370
     9
100
AcDbCircle
 10
51.42982276710296
 20
545.6557646195272
 30
0.0
 40
6.999999510275352
100
AcDbArc
 50
90.0
 51
228.2794647216797
  0
ARC
  5
292
330
1F
100
AcDbEntity
  8
躯体
  6
Continuous
 62
     2
370
     9
100
AcDbCircle
 10
205.6462468327703
 20
453.946202884941
 30
0.0
 40
5.999999497387861
100
AcDbArc
 50
135.0
 51
219.6278686523438
  0
ARC
  5
293
330
1F
100
AcDbEntity
  8
躯体
  6
Continuous
 62
     2
370
     9
100
AcDbCircle
 10
196.9429964632602
 20
463.9407922008193
 30
0.0
 40
5.999999497387861
100
AcDbArc
 50
137.2250671386719
 51
222.4719543457031
  0
ARC
  5
294
330
1F
100
AcDbEntity
  8
躯体
  6
Continuous
 62
     2
370
     9
100
AcDbCircle
 10
180.2854960673564
 20
480.5987379884039
 30
0.0
 40
5.999999497387861
100
AcDbArc
 50
227.5280456542969
 51
312.7749328613281
  0
ARC
  5
295
330
1F
100
AcDbEntity
  8
躯体
  6
Continuous
 62
     2
370
     9
100
AcDbCircle
 10
0.000742319467804
 20
283.6558899890373
 30
0.0
 40
261.0000074231947
100
AcDbArc
 50
40.77586364746094
 51
42.47157287597656
  0
ARC
  5
296
330
1F
100
AcDbEntity
  8
躯体
  6
Continuous
 62
     2
370
     9
100
AcDbCircle
 10
205.6462468327703
 20
453.946202884941
 30
0.0
 40
8.000000103099927
100
AcDbArc
 50
135.0
 51
178.7877502441406
  0
ARC
  5
297
330
1F
100
AcDbEntity
  8
躯体
  6
Continuous
 62
     2
370
     9
100
AcDbCircle
 10
193.6396748310811
 20
464.5673098317315
 30
0.0
 40
5.999999497387861
100
AcDbArc
 50
135.0
 51
223.0538024902344
  0
ARC
  5
298
330
1F
100
AcDbEntity
  8
躯体
  6
Continuous
 62
     2
370
     9
100
AcDbCircle
 10
180.911865234375
 20
477.294970964544
 30
0.0
 40
5.999999497387861
100
AcDbArc
 50
226.9461975097656
 51
315.0
  0
ARC
  5
299
330
1F
100
AcDbEntity
  8
躯体
  6
Continuous
 62
     2
370
     9
100
AcDbCircle
 10
0.000742319467804
 20
283.6558899890373
 30
0.0
 40
258.9999946388039
100
AcDbArc
 50
43.05374145507813
 51
46.94624328613282
  0
ARC
  5
29A
330
1F
100
AcDbEntity
  8
躯体
  6
Continuous
 62
     2
370
     9
100
AcDbCircle
 10
170.290906751478
 20
489.301988357914
 30
0.0
 40
5.999999497387861
100
AcDbArc
 50
230.3721313476562
 51
315.0
  0
ARC
  5
29B
330
1F
100
AcDbEntity
  8
躯体
  6
Continuous
 62
     2
370
     9
100
AcDbCircle
 10
170.290906751478
 20
489.301988357914
 30
0.0
 40
8.000000103099927
100
AcDbArc
 50
271.2106475830079
 51
315.0000000000001
  0
ARC
  5
29C
330
1F
100
AcDbEntity
  8
躯体
  6
Continuous
 62
     2
370
     9
100
AcDbCircle
 10
0.000742319467804
 20
283.6558899890373
 30
0.0
 40
261.0000074231947
100
AcDbArc
 50
47.52842712402344
 51
49.22416687011719
  0
ARC
  5
29D
330
1F
100
AcDbEntity
  8
躯体
  6
Continuous
 62
     2
370
     9
100
AcDbCircle
 10
226.6449799408783
 20
545.6557646195272
 30
0.0
 40
8.000000103099927
100
AcDbArc
 50
315.0000000000001
 51
315.0003814697266
  0
ARC
  5
29E
330
1F
100
AcDbEntity
  8
躯体
  6
Continuous
 62
     2
370
     9
100
AcDbCircle
 10
226.6449799408783
 20
545.6557646195272
 30
0.0
 40
5.999999497387861
100
AcDbArc
 50
315.0000000000001
 51
90.00000000000006
  0
ARC
  5
29F
330
1F
100
AcDbEntity
  8
躯体
  6
Continuous
 62
     2
370
     9
100
AcDbCircle
 10
226.6449799408783
 20
545.6557646195272
 30
0.0
 40
6.999999510275352
100
AcDbArc
 50
315.0000000000001
 51
90.00000000000006
  0
CIRCLE
  5
2A0
330
1F
100
AcDbEntity
  8
躯体
  6
Continuous
 62
     2
370
     9
100
AcDbCircle
 10
-248.9993368612754
 20
532.6559691697805
 30
0.0
 40
7.499999806687639
  0
CIRCLE
  5
2A1
330
1F
100
AcDbEntity
  8
躯体
  6
Continuous
 62
     2
370
     9
100
AcDbCircle
 10
-248.9993368612754
 20
532.6559691697805
 30
0.0
 40
9.500000412399704
  0
ARC
  5
2A2
330
1F
100
AcDbEntity
  8
躯体
  6
Continuous
 62
     2
370
     9
100
AcDbCircle
 10
-234.9994886243666
 20
518.6558240050847
 30
0.0
 40
43.99999360780458
100
AcDbArc
 50
90.0
 51
180.0
  0
ARC
  5
2A3
330
1F
100
AcDbEntity
  8
躯体
  6
Continuous
 62
     2
370
     9
100
AcDbCircle
 10
-234.9994886243666
 20
518.6558240050847
 30
0.0
 40
44.99999536050333
100
AcDbArc
 50
90.0
 51
180.0
  0
ARC
  5
2A4
330
1F
100
AcDbEntity
  8
躯体
  6
Continuous
 62
     2
370
     9
100
AcDbCircle
 10
-234.9991916965795
 20
518.6558240050847
 30
0.0
 40
33.99999927830052
100
AcDbArc
 50
105.0000915527344
 51
165.0000610351562
  0
ARC
  5
2A5
330
1F
100
AcDbEntity
  8
躯体
  6
Continuous
 62
     2
370
     9
100
AcDbCircle
 10
-226.644089157517
 20
545.6560615473143
 30
0.0
 40
8.000000103099927
100
AcDbArc
 50
224.9996185302734
 51
225.0
  0
ARC
  5
2A6
330
1F
100
AcDbEntity
  8
躯体
  6
Continuous
 62
     2
370
     9
100
AcDbCircle
 10
-226.644089157517
 20
545.6560615473143
 30
0.0
 40
5.999999497387861
100
AcDbArc
 50
90.0
 51
225.0
  0
ARC
  5
2A7
330
1F
100
AcDbEntity
  8
躯体
  6
Continuous
 62
     2
370
     9
100
AcDbCircle
 10
-226.644089157517
 20
545.6560615473143
 30
0.0
 40
6.999999510275352
100
AcDbArc
 50
90.0
 51
225.0
  0
ARC
  5
2A8
330
1F
100
AcDbEntity
  8
躯体
  6
Continuous
 62
     2
370
     9
100
AcDbCircle
 10
-51.42863505595437
 20
545.6560615473143
 30
0.0
 40
5.999999497387861
100
AcDbArc
 50
281.1050109863281
 51
89.99999999999997
  0
ARC
  5
2A9
330
1F
100
AcDbEntity
  8
躯体
  6
Continuous
 62
     2
370
     9
100
AcDbCircle
 10
-51.42863505595437
 20
545.6560615473143
 30
0.0
 40
6.999999510275352
100
AcDbArc
 50
311.7205352783203
 51
90.00000000000003
  0
ARC
  5
2AA
330
1F
100
AcDbEntity
  8
躯体
  6
Continuous
 62
     2
370
     9
100
AcDbCircle
 10
-261.999132311022
 20
335.085118900566
 30
0.0
 40
5.999999497387861
100
AcDbArc
 50
180.0
 51
348.8949890136719
  0
ARC
  5
2AB
330
1F
100
AcDbEntity
  8
躯体
  6
Continuous
 62
     2
370
     9
100
AcDbCircle
 10
-261.999132311022
 20
335.085118900566
 30
0.0
 40
6.999999510275352
100
AcDbArc
 50
180.0
 51
318.2794647216797
  0
ARC
  5
2AC
330
1F
100
AcDbEntity
  8
躯体
  6
Continuous
 62
     2
370
     9
100
AcDbCircle
 10
0.000742319467804
 20
283.6558899890373
 30
0.0
 40
261.0000074231947
100
AcDbArc
 50
101.1056671142578
 51
129.6273193359375
  0
ARC
  5
2AD
330
1F
100
AcDbEntity
  8
躯体
  6
Continuous
 62
     2
370
     9
100
AcDbCircle
 10
-170.2900159681166
 20
489.301988357914
 30
0.0
 40
5.999999497387861
100
AcDbArc
 50
225.0
 51
309.6278686523438
  0
ARC
  5
2AE
330
1F
100
AcDbEntity
  8
躯体
  6
Continuous
 62
     2
370
     9
100
AcDbCircle
 10
-180.284605283995
 20
480.5987379884039
 30
0.0
 40
5.999999497387861
100
AcDbArc
 50
227.2250671386719
 51
312.4719543457031
  0
ARC
  5
2AF
330
1F
100
AcDbEntity
  8
躯体
  6
Continuous
 62
     2
370
     9
100
AcDbCircle
 10
-196.9421056798987
 20
463.9407922008193
 30
0.0
 40
5.999999497387861
100
AcDbArc
 50
317.5280456542969
 51
42.77493286132817
  0
ARC
  5
2B0
330
1F
100
AcDbEntity
  8
躯体
  6
Continuous
 62
     2
370
     9
100
AcDbCircle
 10
0.000742319467804
 20
283.6558899890373
 30
0.0
 40
261.0000074231947
100
AcDbArc
 50
130.7758636474609
 51
132.4715728759766
  0
ARC
  5
2B1
330
1F
100
AcDbEntity
  8
躯体
  6
Continuous
 62
     2
370
     9
100
AcDbCircle
 10
-170.2900159681166
 20
489.301988357914
 30
0.0
 40
8.000000103099927
100
AcDbArc
 50
225.0
 51
268.7877502441406
  0
ARC
  5
2B2
330
1F
100
AcDbEntity
  8
躯体
  6
Continuous
 62
     2
370
     9
100
AcDbCircle
 10
-180.9106775232264
 20
477.294970964544
 30
0.0
 40
5.999999497387861
100
AcDbArc
 50
225.0
 51
313.0538024902344
  0
ARC
  5
2B3
330
1F
100
AcDbEntity
  8
躯体
  6
Continuous
 62
     2
370
     9
100
AcDbCircle
 10
0.000742319467804
 20
283.6558899890373
 30
0.0
 40
258.9999946388039
100
AcDbArc
 50
133.0537414550782
 51
136.9462432861328
  0
ARC
  5
2B4
330
1F
100
AcDbEntity
  8
躯体
  6
Continuous
 62
     2
370
     9
100
AcDbCircle
 10
-205.6453560494088
 20
453.946202884941
 30
0.0
 40
5.999999497387861
100
AcDbArc
 50
320.3721313476563
 51
45.00000000000003
  0
ARC
  5
2B5
330
1F
100
AcDbEntity
  8
躯体
  6
Continuous
 62
     2
370
     9
100
AcDbCircle
 10
-205.6453560494088
 20
453.946202884941
 30
0.0
 40
8.000000103099927
100
AcDbArc
 50
1.210647583007813
 51
45.00000000000001
  0
ARC
  5
2B6
330
1F
100
AcDbEntity
  8
躯体
  6
Continuous
 62
     2
370
     9
100
AcDbCircle
 10
0.000742319467804
 20
283.6558899890373
 30
0.0
 40
261.0000074231947
100
AcDbArc
 50
137.5284271240234
 51
139.2241668701172
  0
ARC
  5
2B7
330
1F
100
AcDbEntity
  8
躯体
  6
Continuous
 62
     2
370
     9
100
AcDbCircle
 10
-261.999132311022
 20
510.3007214660221
 30
0.0
 40
8.000000103099927
100
AcDbArc
 50
45.0
 51
45.00038146972656
  0
ARC
  5
2B8
330
1F
100
AcDbEntity
  8
躯体
  6
Continuous
 62
     2
370
     9
100
AcDbCircle
 10
-261.999132311022
 20
510.3007214660221
 30
0.0
 40
5.999999497387861
100
AcDbArc
 50
45.0
 51
180.0
  0
ARC
  5
2B9
330
1F
100
AcDbEntity
  8
躯体
  6
Continuous
 62
     2
370
     9
100
AcDbCircle
 10
-261.999132311022
 20
510.3007214660221
 30
0.0
 40
6.999999510275352
100
AcDbArc
 50
45.0
 51
180.0
  0
ARC
  5
2BA
330
1F
100
AcDbEntity
  8
躯体
  6
Continuous
 62
     2
370
     9
100
AcDbCircle
 10
0.000742319467804
 20
283.6558899890373
 30
0.0
 40
261.0000074231947
100
AcDbArc
 50
79.67695617675781
 51
100.3230590820312
  0
CIRCLE
  5
2BB
330
1F
100
AcDbEntity
  8
躯体
  6
Continuous
 62
     2
370
     9
100
AcDbCircle
 10
-248.9993368612754
 20
34.65603350413448
 30
0.0
 40
7.499999806687639
  0
ARC
  5
2BC
330
1F
100
AcDbEntity
  8
躯体
  6
Continuous
 62
     2
370
     9
100
AcDbCircle
 10
-234.9991916965795
 20
48.65588174104323
 30
0.0
 40
44.99999536050333
100
AcDbArc
 50
180.0
 51
270.0
  0
CIRCLE
  5
2BD
330
1F
100
AcDbEntity
  8
躯体
  6
Continuous
 62
     2
370
     9
100
AcDbCircle
 10
249.0008215002111
 20
34.65603350413448
 30
0.0
 40
7.499999806687639
  0
ARC
  5
2BE
330
1F
100
AcDbEntity
  8
躯体
  6
Continuous
 62
     2
370
     9
100
AcDbCircle
 10
235.0006763355152
 20
48.65588174104323
 30
0.0
 40
44.99999536050333
100
AcDbArc
 50
270.0
 51
0.0
  0
ARC
  5
2BF
330
1F
100
AcDbEntity
  8
躯体
  6
Continuous
 62
     2
370
     9
100
AcDbCircle
 10
0.000742319467804
 20
283.6558899890373
 30
0.0
 40
261.0000074231947
100
AcDbArc
 50
50.37266540527343
 51
78.89430236816406
  0
ARC
  5
2C0
330
1F
100
AcDbEntity
  8
躯体
  6
Continuous
 62
     2
370
     9
100
AcDbCircle
 10
-193.6384871199325
 20
464.5673098317315
 30
0.0
 40
5.999999497387861
100
AcDbArc
 50
316.9461975097656
 51
45.00000000000004
  0
ARC
  5
2C1
330
1F
100
AcDbEntity
  8
通り芯
  6
Continuous
 62
     3
370
     9
100
AcDbCircle
 10
0.0
 20
283.6558899890373
 30
0.0
 40
229.9999855660104
100
AcDbArc
 50
120.8667449951172
 51
123.8565826416015
  0
ARC
  5
2C2
330
1F
100
AcDbEntity
  8
通り芯
  6
Continuous
 62
     3
370
     9
100
AcDbCircle
 10
0.0
 20
283.6558899890373
 30
0.0
 40
229.9999855660104
100
AcDbArc
 50
126.8699035644531
 51
128.1258850097656
  0
ARC
  5
2C3
330
1F
100
AcDbEntity
  8
通り芯
  6
Continuous
 62
     3
370
     9
100
AcDbCircle
 10
0.0
 20
283.6558899890373
 30
0.0
 40
229.9999855660104
100
AcDbArc
 50
129.7270050048828
 51
133.8017425537109
  0
ARC
  5
2C4
330
1F
100
AcDbEntity
  8
通り芯
  6
Continuous
 62
     3
370
     9
100
AcDbCircle
 10
0.0
 20
283.6558899890373
 30
0.0
 40
229.9999855660104
100
AcDbArc
 50
136.2665557861328
 51
142.1900939941406
  0
ARC
  5
2C5
330
1F
100
AcDbEntity
  8
通り芯
  6
Continuous
 62
     3
370
     9
100
AcDbCircle
 10
0.0
 20
283.6558899890373
 30
0.0
 40
229.9999855660104
100
AcDbArc
 50
144.3657531738281
 51
144.8244781494141
  0
ARC
  5
2C6
330
1F
100
AcDbEntity
  8
通り芯
  6
Continuous
 62
     3
370
     9
100
AcDbCircle
 10
0.0
 20
283.6558899890373
 30
0.0
 40
229.9999855660104
100
AcDbArc
 50
147.0483856201172
 51
149.7119140625
  0
ARC
  5
2C7
330
1F
100
AcDbEntity
  8
通り芯
  6
Continuous
 62
     3
370
     9
100
AcDbCircle
 10
0.0
 20
283.6558899890373
 30
0.0
 40
229.9999855660104
100
AcDbArc
 50
151.7114105224609
 51
152.4932250976563
  0
ARC
  5
2C8
330
1F
100
AcDbEntity
  8
通り芯
  6
Continuous
 62
     3
370
     9
100
AcDbCircle
 10
0.0
 20
283.6558899890373
 30
0.0
 40
229.9999855660104
100
AcDbArc
 50
158.5790405273438
 51
163.3241729736328
  0
ARC
  5
2C9
330
1F
100
AcDbEntity
  8
通り芯
  6
Continuous
 62
     3
370
     9
100
AcDbCircle
 10
0.0
 20
283.6558899890373
 30
0.0
 40
229.9999855660104
100
AcDbArc
 50
165.13623046875
 51
169.7315216064453
  0
ARC
  5
2CA
330
1F
100
AcDbEntity
  8
通り芯
  6
Continuous
 62
     3
370
     9
100
AcDbCircle
 10
0.0
 20
283.6558899890373
 30
0.0
 40
229.9999855660104
100
AcDbArc
 50
171.4990386962891
 51
176.010971069336
  0
ARC
  5
2CB
330
1F
100
AcDbEntity
  8
通り芯
  6
Continuous
 62
     3
370
     9
100
AcDbCircle
 10
0.0
 20
283.6558899890373
 30
0.0
 40
242.0000065983953
100
AcDbArc
 50
63.0
 51
117.000015258789
  0
ARC
  5
2CC
330
1F
100
AcDbEntity
  8
通り芯
  6
Continuous
 62
     3
370
     9
100
AcDbCircle
 10
0.0
 20
283.6558899890373
 30
0.0
 40
218.9999802048142
100
AcDbArc
 50
63.0
 51
117.000015258789
  0
ARC
  5
2CD
330
1F
100
AcDbEntity
  8
通り芯
  6
Continuous
 62
     3
370
     9
100
AcDbCircle
 10
0.0
 20
283.6558899890373
 30
0.0
 40
229.9999855660104
100
AcDbArc
 50
118.7440643310547
 51
119.1407318115235
  0
ARC
  5
2CE
330
1F
100
AcDbEntity
  8
通り芯
  6
Continuous
 62
     3
370
     9
100
AcDbCircle
 10
0.0
 20
283.6558899890373
 30
0.0
 40
212.0000004123997
100
AcDbArc
 50
99.65040588378908
 51
108.1388244628906
  0
ARC
  5
2CF
330
1F
100
AcDbEntity
  8
通り芯
  6
Continuous
 62
     3
370
     9
100
AcDbCircle
 10
0.0
 20
283.6558899890373
 30
0.0
 40
212.0000004123997
100
AcDbArc
 50
109.8538665771485
 51
115.7176666259766
  0
ARC
  5
2D0
330
1F
100
AcDbEntity
  8
通り芯
  6
Continuous
 62
     3
370
     9
100
AcDbCircle
 10
0.0
 20
283.6558899890373
 30
0.0
 40
244.9999793800148
100
AcDbArc
 50
169.865966796875
 51
178.0
  0
ARC
  5
2D1
330
1F
100
AcDbEntity
  8
通り芯
  6
Continuous
 62
     3
370
     9
100
AcDbCircle
 10
0.0
 20
283.6558899890373
 30
0.0
 40
234.999952574034
100
AcDbArc
 50
169.8659820556641
 51
177.9999847412109
  0
ARC
  5
2D2
330
1F
100
AcDbEntity
  8
通り芯
  6
Continuous
 62
     3
370
     9
100
AcDbCircle
 10
0.0
 20
283.6558899890373
 30
0.0
 40
246.4999657708245
100
AcDbArc
 50
149.0000152587891
 51
164.9999847412109
  0
ARC
  5
2D3
330
1F
100
AcDbEntity
  8
通り芯
  6
Continuous
 62
     3
370
     9
100
AcDbCircle
 10
0.0
 20
283.6558899890373
 30
0.0
 40
233.4999847412109
100
AcDbArc
 50
149.0
 51
164.9999847412109
  0
ARC
  5
2D4
330
1F
100
AcDbEntity
  8
通り芯
  6
Continuous
 62
     3
370
     9
100
AcDbCircle
 10
0.0
 20
283.6558899890373
 30
0.0
 40
229.9999855660104
100
AcDbArc
 50
56.14341735839846
 51
59.13325500488283
  0
ARC
  5
2D5
330
1F
100
AcDbEntity
  8
通り芯
  6
Continuous
 62
     3
370
     9
100
AcDbCircle
 10
0.0
 20
283.6558899890373
 30
0.0
 40
229.9999855660104
100
AcDbArc
 50
51.87411499023442
 51
53.13009643554692
  0
ARC
  5
2D6
330
1F
100
AcDbEntity
  8
通り芯
  6
Continuous
 62
     3
370
     9
100
AcDbCircle
 10
0.0
 20
283.6558899890373
 30
0.0
 40
229.9999855660104
100
AcDbArc
 50
46.19825744628905
 51
50.27299499511717
  0
ARC
  5
2D7
330
1F
100
AcDbEntity
  8
通り芯
  6
Continuous
 62
     3
370
     9
100
AcDbCircle
 10
0.0
 20
283.6558899890373
 30
0.0
 40
229.9999855660104
100
AcDbArc
 50
37.8099060058594
 51
43.73344421386721
  0
ARC
  5
2D8
330
1F
100
AcDbEntity
  8
通り芯
  6
Continuous
 62
     3
370
     9
100
AcDbCircle
 10
0.0
 20
283.6558899890373
 30
0.0
 40
229.9999855660104
100
AcDbArc
 50
35.17552185058597
 51
35.6342468261719
  0
ARC
  5
2D9
330
1F
100
AcDbEntity
  8
通り芯
  6
Continuous
 62
     3
370
     9
100
AcDbCircle
 10
0.0
 20
283.6558899890373
 30
0.0
 40
229.9999855660104
100
AcDbArc
 50
30.28808593750003
 51
32.95161437988283
  0
ARC
  5
2DA
330
1F
100
AcDbEntity
  8
通り芯
  6
Continuous
 62
     3
370
     9
100
AcDbCircle
 10
0.0
 20
283.6558899890373
 30
0.0
 40
229.9999855660104
100
AcDbArc
 50
27.50677490234375
 51
28.28858947753907
  0
ARC
  5
2DB
330
1F
100
AcDbEntity
  8
通り芯
  6
Continuous
 62
     3
370
     9
100
AcDbCircle
 10
0.0
 20
283.6558899890373
 30
0.0
 40
229.9999855660104
100
AcDbArc
 50
16.6758270263672
 51
21.42095947265626
  0
ARC
  5
2DC
330
1F
100
AcDbEntity
  8
通り芯
  6
Continuous
 62
     3
370
     9
100
AcDbCircle
 10
0.0
 20
283.6558899890373
 30
0.0
 40
229.9999855660104
100
AcDbArc
 50
10.26847839355472
 51
14.86376953125004
  0
ARC
  5
2DD
330
1F
100
AcDbEntity
  8
通り芯
  6
Continuous
 62
     3
370
     9
100
AcDbCircle
 10
0.0
 20
283.6558899890373
 30
0.0
 40
229.9999855660104
100
AcDbArc
 50
3.98902893066407
 51
8.500961303710945
  0
ARC
  5
2DE
330
1F
100
AcDbEntity
  8
通り芯
  6
Continuous
 62
     3
370
     9
100
AcDbCircle
 10
0.0
 20
283.6558899890373
 30
0.0
 40
229.9999855660104
100
AcDbArc
 50
60.85926818847656
 51
61.25593566894531
  0
ARC
  5
2DF
330
1F
100
AcDbEntity
  8
通り芯
  6
Continuous
 62
     3
370
     9
100
AcDbCircle
 10
0.0
 20
283.6558899890373
 30
0.0
 40
212.0000004123997
100
AcDbArc
 50
71.86117553710938
 51
80.34959411621094
  0
ARC
  5
2E0
330
1F
100
AcDbEntity
  8
通り芯
  6
Continuous
 62
     3
370
     9
100
AcDbCircle
 10
0.0
 20
283.6558899890373
 30
0.0
 40
212.0000004123997
100
AcDbArc
 50
64.28233337402342
 51
70.14613342285153
  0
ARC
  5
2E1
330
1F
100
AcDbEntity
  8
躯体
  6
Continuous
 62
     2
370
     9
100
AcDbCircle
 10
-234.9991916965795
 20
518.6558240050847
 30
0.0
 40
35.00000103099926
100
AcDbArc
 50
104.0502471923828
 51
165.9495239257812
  0
ARC
  5
2E2
330
1F
100
AcDbEntity
  8
躯体
  6
Continuous
 62
     2
370
     9
100
AcDbCircle
 10
235.0006763355152
 20
518.6558240050847
 30
0.0
 40
35.00000103099926
100
AcDbArc
 50
14.05024719238281
 51
75.94978332519533
  0
ARC
  5
2E3
330
1F
100
AcDbEntity
  8
仕上
  6
Continuous
 62
     3
370
     9
100
AcDbCircle
 10
78.99986473289687
 20
254.2108975112079
 30
0.0
 40
5.000000064437454
100
AcDbArc
 50
180.0
 51
239.9999694824219
  0
ARC
  5
2E4
330
1F
100
AcDbEntity
  8
仕上
  6
Continuous
 62
     3
370
     9
100
AcDbCircle
 10
65.00001649598812
 20
229.9622897726099
 30
0.0
 40
5.000000064437454
100
AcDbArc
 50
59.99996948242188
 51
120.0000305175781
  0
ARC
  5
2E5
330
1F
100
AcDbEntity
  8
仕上
  6
Continuous
 62
     3
370
     9
100
AcDbCircle
 10
130.2089216902448
 20
224.6455008156843
 30
0.0
 40
5.000000064437454
100
AcDbArc
 50
240.0005798339844
 51
295.7671051025391
  0
ARC
  5
2E6
330
1F
100
AcDbEntity
  8
仕上
  6
Continuous
 62
     3
370
     9
100
AcDbCircle
 10
143.8082143422719
 20
200.628051359392
 30
0.0
 40
5.000000064437454
100
AcDbArc
 50
124.2332916259766
 51
175.766357421875
  0
ARC
  5
2E7
330
1F
100
AcDbEntity
  8
仕上
  6
Continuous
 62
     3
370
     9
100
AcDbCircle
 10
116.2089249894425
 20
200.3967446131928
 30
0.0
 40
5.000000064437454
100
AcDbArc
 50
4.233642578125
 51
59.99996948242188
  0
ARC
  5
2E8
330
1F
100
AcDbEntity
  8
仕上
  6
Continuous
 62
     3
370
     9
100
AcDbCircle
 10
195.1308461782094
 20
237.9696898729056
 30
0.0
 40
3.000000038662472
100
AcDbArc
 50
60.00013732910156
 51
124.2336730957032
  0
ARC
  5
2E9
330
1F
100
AcDbEntity
  8
仕上
  6
Continuous
 62
     3
370
     9
100
AcDbCircle
 10
129.9998845280828
 20
125.4618212865457
 30
0.0
 40
3.000000038662472
100
AcDbArc
 50
60.00013732910156
 51
119.9998626708985
  0
ARC
  5
2EA
330
1F
100
AcDbEntity
  8
仕上
  6
Continuous
 62
     3
370
     9
100
AcDbCircle
 10
137.1307538006756
 20
137.5107054979056
 30
0.0
 40
3.000000038662472
100
AcDbArc
 50
175.7677459716797
 51
240.000732421875
  0
ARC
  5
2EB
330
1F
100
AcDbEntity
  8
仕上
  6
Continuous
 62
     3
370
     9
100
AcDbCircle
 10
122.8691637193834
 20
137.5107054979056
 30
0.0
 40
3.000000038662472
100
AcDbArc
 50
299.999267578125
 51
4.232254028320305
  0
ARC
  5
2EC
330
1F
100
AcDbEntity
  8
仕上
  6
Continuous
 62
     3
370
     9
100
AcDbCircle
 10
65.00001649598812
 20
104.0997970308446
 30
0.0
 40
3.000000038662472
100
AcDbArc
 50
240.0001373291016
 51
299.9998626708984
  0
ARC
  5
2ED
330
1F
100
AcDbEntity
  8
仕上
  6
Continuous
 62
     3
370
     9
100
AcDbCircle
 10
72.00008907833609
 20
91.97549316154573
 30
0.0
 40
3.000000038662472
100
AcDbArc
 50
120.0002899169922
 51
180.0
  0
ARC
  5
2EE
330
1F
100
AcDbEntity
  8
仕上
  6
Continuous
 62
     3
370
     9
100
AcDbCircle
 10
57.99994391364015
 20
91.97549316154573
 30
0.0
 40
3.000000038662472
100
AcDbArc
 50
0.0
 51
59.99971008300781
  0
ARC
  5
2EF
330
1F
100
AcDbEntity
  8
仕上
  6
Continuous
 62
     3
370
     9
100
AcDbCircle
 10
78.99986473289687
 20
254.2108975112079
 30
0.0
 40
3.999999761581421
100
AcDbArc
 50
180.0
 51
239.9999694824219
  0
ARC
  5
2F0
330
1F
100
AcDbEntity
  8
仕上
  6
Continuous
 62
     3
370
     9
100
AcDbCircle
 10
130.2089216902448
 20
224.6455008156843
 30
0.0
 40
3.999999761581421
100
AcDbArc
 50
240.0005798339844
 51
295.7671051025391
  0
ARC
  5
2F1
330
1F
100
AcDbEntity
  8
仕上
  6
Continuous
 62
     3
370
     9
100
AcDbCircle
 10
122.8691637193834
 20
137.5107054979056
 30
0.0
 40
1.99999988079071
100
AcDbArc
 50
299.999267578125
 51
4.232254028320305
  0
ARC
  5
2F2
330
1F
100
AcDbEntity
  8
仕上
  6
Continuous
 62
     3
370
     9
100
AcDbCircle
 10
65.00001649598812
 20
229.9622897726099
 30
0.0
 40
3.999999761581421
100
AcDbArc
 50
59.99996948242188
 51
120.0000305175781
  0
ARC
  5
2F3
330
1F
100
AcDbEntity
  8
仕上
  6
Continuous
 62
     3
370
     9
100
AcDbCircle
 10
116.2089249894425
 20
200.3967446131928
 30
0.0
 40
3.999999761581421
100
AcDbArc
 50
4.233642578125
 51
59.99996948242188
  0
ARC
  5
2F4
330
1F
100
AcDbEntity
  8
仕上
  6
Continuous
 62
     3
370
     9
100
AcDbCircle
 10
13.79095953864015
 20
200.3968188451395
 30
0.0
 40
5.000000064437454
100
AcDbArc
 50
120.0000305175781
 51
175.766357421875
  0
ARC
  5
2F5
330
1F
100
AcDbEntity
  8
仕上
  6
Continuous
 62
     3
370
     9
100
AcDbCircle
 10
13.79095953864015
 20
200.3968188451395
 30
0.0
 40
3.999999761581421
100
AcDbArc
 50
120.0000305175781
 51
175.766357421875
  0
ARC
  5
2F6
330
1F
100
AcDbEntity
  8
仕上
  6
Continuous
 62
     3
370
     9
100
AcDbCircle
 10
65.00001649598812
 20
104.0997970308446
 30
0.0
 40
1.99999988079071
100
AcDbArc
 50
240.0001373291016
 51
299.9998626708984
  0
ARC
  5
2F7
330
1F
100
AcDbEntity
  8
仕上
  6
Continuous
 62
     3
370
     9
100
AcDbCircle
 10
195.2652060019003
 20
236.8515340583996
 30
0.0
 40
3.000000038662472
100
AcDbArc
 50
63.05876159667969
 51
124.2326965332031
  0
ARC
  5
2F8
330
1F
100
AcDbEntity
  8
仕上
  6
Continuous
 62
     3
370
     9
100
AcDbCircle
 10
144.769666517103
 20
200.0729448612923
 30
0.0
 40
5.000000064437454
100
AcDbArc
 50
124.2326965332031
 51
175.766357421875
  0
ARC
  5
2F9
330
1F
100
AcDbEntity
  8
仕上
  6
Continuous
 62
     3
370
     9
100
AcDbCircle
 10
138.1662894584038
 20
137.9534248285643
 30
0.0
 40
3.000000038662472
100
AcDbArc
 50
175.7665710449218
 51
236.9417114257812
  0
ARC
  5
2FA
330
1F
100
AcDbEntity
  8
仕上
  6
Continuous
 62
     3
370
     9
100
AcDbCircle
 10
130.1044031091637
 20
124.3674939269596
 30
0.0
 40
3.000000038662472
100
AcDbArc
 50
63.51895141601563
 51
120.0002899169922
  0
ARC
  5
2FB
330
1F
100
AcDbEntity
  8
仕上
  6
Continuous
 62
     3
370
     9
100
AcDbCircle
 10
72.89547482052359
 20
91.33784073861494
 30
0.0
 40
3.000000038662472
100
AcDbArc
 50
119.9998626708985
 51
176.4818115234375
  0
ARC
  5
2FC
330
1F
100
AcDbEntity
  8
仕上
  6
Continuous
 62
     3
370
     9
100
AcDbCircle
 10
57.09075102934969
 20
91.34570932497479
 30
0.0
 40
3.000000038662472
100
AcDbArc
 50
3.049545288085938
 51
60.00013732910156
  0
ARC
  5
2FD
330
1F
100
AcDbEntity
  8
仕上
  6
Continuous
 62
     3
370
     9
100
AcDbCircle
 10
-78.99993896484375
 20
254.2108975112079
 30
0.0
 40
5.000000064437454
100
AcDbArc
 50
300.0000305175782
 51
0.0000000000000568
  0
ARC
  5
2FE
330
1F
100
AcDbEntity
  8
仕上
  6
Continuous
 62
     3
370
     9
100
AcDbCircle
 10
-64.99994226404141
 20
229.9622897726099
 30
0.0
 40
5.000000064437454
100
AcDbArc
 50
59.99996948242189
 51
120.0000305175782
  0
ARC
  5
2FF
330
1F
100
AcDbEntity
  8
仕上
  6
Continuous
 62
     3
370
     9
100
AcDbCircle
 10
-130.2088474582981
 20
224.6455008156843
 30
0.0
 40
5.000000064437454
100
AcDbArc
 50
244.2328948974609
 51
299.9994201660157
  0
ARC
  5
300
330
1F
100
AcDbEntity
  8
仕上
  6
Continuous
 62
     3
370
     9
100
AcDbCircle
 10
-143.8081401103252
 20
200.628051359392
 30
0.0
 40
5.000000064437454
100
AcDbArc
 50
4.233642578125012
 51
55.76670837402346
  0
ARC
  5
301
330
1F
100
AcDbEntity
  8
仕上
  6
Continuous
 62
     3
370
     9
100
AcDbCircle
 10
-116.2089249894427
 20
200.3967446131928
 30
0.0
 40
5.000000064437454
100
AcDbArc
 50
120.0000305175782
 51
175.766357421875
  0
ARC
  5
302
330
1F
100
AcDbEntity
  8
仕上
  6
Continuous
 62
     3
370
     9
100
AcDbCircle
 10
-195.1308461782095
 20
237.9696898729056
 30
0.0
 40
3.000000038662472
100
AcDbArc
 50
55.7663269042969
 51
119.9998626708985
  0
ARC
  5
303
330
1F
100
AcDbEntity
  8
仕上
  6
Continuous
 62
     3
370
     9
100
AcDbCircle
 10
-129.9999587600295
 20
125.4618212865457
 30
0.0
 40
3.000000038662472
100
AcDbArc
 50
60.00013732910155
 51
119.9998626708984
  0
ARC
  5
304
330
1F
100
AcDbEntity
  8
仕上
  6
Continuous
 62
     3
370
     9
100
AcDbCircle
 10
-137.1307538006758
 20
137.5107054979056
 30
0.0
 40
3.000000038662472
100
AcDbArc
 50
299.9992675781251
 51
4.232254028320369
  0
ARC
  5
305
330
1F
100
AcDbEntity
  8
仕上
  6
Continuous
 62
     3
370
     9
100
AcDbCircle
 10
-122.8691637193834
 20
137.5107054979056
 30
0.0
 40
3.000000038662472
100
AcDbArc
 50
175.7677459716797
 51
240.0007324218751
  0
ARC
  5
306
330
1F
100
AcDbEntity
  8
仕上
  6
Continuous
 62
     3
370
     9
100
AcDbCircle
 10
-64.99994226404141
 20
104.0997970308446
 30
0.0
 40
3.000000038662472
100
AcDbArc
 50
240.0001373291016
 51
299.9998626708984
  0
ARC
  5
307
330
1F
100
AcDbEntity
  8
仕上
  6
Continuous
 62
     3
370
     9
100
AcDbCircle
 10
-72.00001484638938
 20
91.97549316154573
 30
0.0
 40
3.000000038662472
100
AcDbArc
 50
0.0
 51
59.99971008300781
  0
ARC
  5
308
330
1F
100
AcDbEntity
  8
仕上
  6
Continuous
 62
     3
370
     9
100
AcDbCircle
 10
-57.99994391364032
 20
91.97549316154573
 30
0.0
 40
3.000000038662472
100
AcDbArc
 50
120.0002899169922
 51
180.0
  0
ARC
  5
309
330
1F
100
AcDbEntity
  8
仕上
  6
Continuous
 62
     3
370
     9
100
AcDbCircle
 10
-78.99993896484375
 20
254.2108975112079
 30
0.0
 40
3.999999761581421
100
AcDbArc
 50
300.0000305175782
 51
0.0000000000000568
  0
ARC
  5
30A
330
1F
100
AcDbEntity
  8
仕上
  6
Continuous
 62
     3
370
     9
100
AcDbCircle
 10
-130.2088474582981
 20
224.6455008156843
 30
0.0
 40
3.999999761581421
100
AcDbArc
 50
244.2328948974609
 51
299.9994201660157
  0
ARC
  5
30B
330
1F
100
AcDbEntity
  8
仕上
  6
Continuous
 62
     3
370
     9
100
AcDbCircle
 10
-122.8691637193834
 20
137.5107054979056
 30
0.0
 40
1.99999988079071
100
AcDbArc
 50
175.7677459716797
 51
240.0007324218751
  0
ARC
  5
30C
330
1F
100
AcDbEntity
  8
仕上
  6
Continuous
 62
     3
370
     9
100
AcDbCircle
 10
-64.99994226404141
 20
229.9622897726099
 30
0.0
 40
3.999999761581421
100
AcDbArc
 50
59.99996948242189
 51
120.0000305175782
  0
ARC
  5
30D
330
1F
100
AcDbEntity
  8
仕上
  6
Continuous
 62
     3
370
     9
100
AcDbCircle
 10
-116.2089249894427
 20
200.3967446131928
 30
0.0
 40
3.999999761581421
100
AcDbArc
 50
120.0000305175782
 51
175.766357421875
  0
ARC
  5
30E
330
1F
100
AcDbEntity
  8
仕上
  6
Continuous
 62
     3
370
     9
100
AcDbCircle
 10
-13.79103377058703
 20
200.3968188451395
 30
0.0
 40
5.000000064437454
100
AcDbArc
 50
4.233642578125012
 51
59.99996948242189
  0
ARC
  5
30F
330
1F
100
AcDbEntity
  8
仕上
  6
Continuous
 62
     3
370
     9
100
AcDbCircle
 10
-13.79103377058703
 20
200.3968188451395
 30
0.0
 40
3.999999761581421
100
AcDbArc
 50
4.233642578125012
 51
59.99996948242189
  0
ARC
  5
310
330
1F
100
AcDbEntity
  8
仕上
  6
Continuous
 62
     3
370
     9
100
AcDbCircle
 10
-64.99994226404141
 20
104.0997970308446
 30
0.0
 40
1.99999988079071
100
AcDbArc
 50
240.0001373291016
 51
299.9998626708984
  0
ARC
  5
311
330
1F
100
AcDbEntity
  8
仕上
  6
Continuous
 62
     3
370
     9
100
AcDbCircle
 10
-195.2651317699536
 20
236.8515340583996
 30
0.0
 40
3.000000038662472
100
AcDbArc
 50
55.76730346679687
 51
116.9412384033203
  0
ARC
  5
312
330
1F
100
AcDbEntity
  8
仕上
  6
Continuous
 62
     3
370
     9
100
AcDbCircle
 10
-144.7697407490498
 20
200.0729448612923
 30
0.0
 40
5.000000064437454
100
AcDbArc
 50
4.233642578125012
 51
55.76730346679689
  0
ARC
  5
313
330
1F
100
AcDbEntity
  8
仕上
  6
Continuous
 62
     3
370
     9
100
AcDbCircle
 10
-138.166215226457
 20
137.9534248285643
 30
0.0
 40
3.000000038662472
100
AcDbArc
 50
303.0582885742188
 51
4.233428955078182
  0
ARC
  5
314
330
1F
100
AcDbEntity
  8
仕上
  6
Continuous
 62
     3
370
     9
100
AcDbCircle
 10
-130.1044773411106
 20
124.3674939269596
 30
0.0
 40
3.000000038662472
100
AcDbArc
 50
59.99971008300781
 51
116.4810485839844
  0
ARC
  5
315
330
1F
100
AcDbEntity
  8
仕上
  6
Continuous
 62
     3
370
     9
100
AcDbCircle
 10
-72.89547482052376
 20
91.33784073861494
 30
0.0
 40
3.000000038662472
100
AcDbArc
 50
3.518188476562503
 51
60.00013732910158
  0
ARC
  5
316
330
1F
100
AcDbEntity
  8
仕上
  6
Continuous
 62
     3
370
     9
100
AcDbCircle
 10
-57.09082526129657
 20
91.34570932497479
 30
0.0
 40
3.000000038662472
100
AcDbArc
 50
119.9998626708985
 51
176.9504547119141
  0
ARC
  5
317
330
1F
100
AcDbEntity
  8
仕上
  6
Continuous
 62
     3
370
     9
100
AcDbCircle
 10
0.0
 20
224.7662019611657
 30
0.0
 40
5.000000064437454
100
AcDbArc
 50
239.9999694824219
 51
300.0000305175781
  0
ARC
  5
318
330
1F
100
AcDbEntity
  8
仕上
  6
Continuous
 62
     3
370
     9
100
AcDbCircle
 10
0.0
 20
225.9209541254393
 30
0.0
 40
5.000000064437454
100
AcDbArc
 50
239.9999694824219
 51
300.0000305175781
  0
ARC
  5
319
330
1F
100
AcDbEntity
  8
仕上
  6
Continuous
 62
     3
370
     9
100
AcDbCircle
 10
192.7879374736064
 20
278.6559229810137
 30
0.0
 40
3.000000038662472
100
AcDbArc
 50
180.0011749267578
 51
270.0
  0
ARC
  5
31A
330
1F
100
AcDbEntity
  8
仕上
  6
Continuous
 62
     3
370
     9
100
AcDbCircle
 10
188.7878747888514
 20
272.6559031858278
 30
0.0
 40
3.000000038662472
100
AcDbArc
 50
180.0
 51
270.0
  0
ARC
  5
31B
330
1F
100
AcDbEntity
  8
仕上
  6
Continuous
 62
     3
370
     9
100
AcDbCircle
 10
212.7198090424408
 20
246.1558405010728
 30
0.0
 40
2.000000025774982
100
AcDbArc
 50
350.0021820068359
 51
90.00000000000001
  0
ARC
  5
31C
330
1F
100
AcDbEntity
  8
仕上
  6
Continuous
 62
     3
370
     9
100
AcDbCircle
 10
213.9082625105573
 20
247.1558932882349
 30
0.0
 40
3.000000038662472
100
AcDbArc
 50
350.3170318603516
 51
90.00000000000001
  0
ARC
  5
31D
330
1F
100
AcDbEntity
  8
仕上
  6
Continuous
 62
     3
370
     9
100
AcDbCircle
 10
188.7878747888514
 20
253.1559130834207
 30
0.0
 40
3.000000038662472
100
AcDbArc
 50
180.0
 51
270.0
  0
ARC
  5
31E
330
1F
100
AcDbEntity
  8
仕上
  6
Continuous
 62
     3
370
     9
100
AcDbCircle
 10
188.1160756703969
 20
248.1557976115035
 30
0.0
 40
1.000000012887491
100
AcDbArc
 50
295.7693328857422
 51
90.00000000000006
  0
ARC
  5
31F
330
1F
100
AcDbEntity
  8
仕上
  6
Continuous
 62
     3
370
     9
100
AcDbCircle
 10
201.4879216374578
 20
248.1557976115035
 30
0.0
 40
1.000000012887491
100
AcDbArc
 50
90.0
 51
239.9997100830078
  0
ARC
  5
320
330
1F
100
AcDbEntity
  8
仕上
  6
Continuous
 62
     3
370
     9
100
AcDbCircle
 10
202.9571203283361
 20
247.6557712179224
 30
0.0
 40
0.5000000064437454
100
AcDbArc
 50
90.0
 51
236.4849090576172
  0
ARC
  5
321
330
1F
100
AcDbEntity
  8
仕上
  6
Continuous
 62
     3
370
     9
100
AcDbCircle
 10
188.5291022223395
 20
251.1558075090963
 30
0.0
 40
3.000000038662472
100
AcDbArc
 50
180.0
 51
241.0614166259766
  0
ARC
  5
322
330
1F
100
AcDbEntity
  8
仕上
  6
Continuous
 62
     3
370
     9
100
AcDbCircle
 10
186.8354261243666
 20
248.0928489206251
 30
0.0
 40
0.5000000064437454
100
AcDbArc
 50
295.7693328857422
 51
61.06312561035161
  0
ARC
  5
323
330
1F
100
AcDbEntity
  8
仕上
  6
Continuous
 62
     3
370
     9
100
AcDbCircle
 10
-192.7878632416597
 20
278.6559229810137
 30
0.0
 40
3.000000038662472
100
AcDbArc
 50
270.0
 51
359.9988250732422
  0
ARC
  5
324
330
1F
100
AcDbEntity
  8
仕上
  6
Continuous
 62
     3
370
     9
100
AcDbCircle
 10
-188.7878747888514
 20
272.6559031858278
 30
0.0
 40
3.000000038662472
100
AcDbArc
 50
270.0
 51
0.0
  0
ARC
  5
325
330
1F
100
AcDbEntity
  8
仕上
  6
Continuous
 62
     3
370
     9
100
AcDbCircle
 10
-188.7878747888514
 20
253.1559130834207
 30
0.0
 40
3.000000038662472
100
AcDbArc
 50
270.0
 51
0.0
  0
ARC
  5
326
330
1F
100
AcDbEntity
  8
仕上
  6
Continuous
 62
     3
370
     9
100
AcDbCircle
 10
-188.1160014384502
 20
248.1557976115035
 30
0.0
 40
1.000000012887491
100
AcDbArc
 50
90.0
 51
244.2306671142578
  0
ARC
  5
327
330
1F
100
AcDbEntity
  8
仕上
  6
Continuous
 62
     3
370
     9
100
AcDbCircle
 10
-201.487847405511
 20
248.1557976115035
 30
0.0
 40
1.000000012887491
100
AcDbArc
 50
300.0002899169922
 51
90.0
  0
ARC
  5
328
330
1F
100
AcDbEntity
  8
仕上
  6
Continuous
 62
     3
370
     9
100
AcDbCircle
 10
-202.957194560283
 20
247.6557712179224
 30
0.0
 40
0.5000000064437454
100
AcDbArc
 50
303.5150909423828
 51
90.0
  0
ARC
  5
329
330
1F
100
AcDbEntity
  8
仕上
  6
Continuous
 62
     3
370
     9
100
AcDbCircle
 10
-188.5290279903928
 20
251.1558075090963
 30
0.0
 40
3.000000038662472
100
AcDbArc
 50
298.9385833740234
 51
0.0
  0
ARC
  5
32A
330
1F
100
AcDbEntity
  8
仕上
  6
Continuous
 62
     3
370
     9
100
AcDbCircle
 10
-186.8355003563134
 20
248.0928489206251
 30
0.0
 40
0.5000000064437454
100
AcDbArc
 50
118.9368743896484
 51
244.2306671142578
  0
ARC
  5
32B
330
1F
100
AcDbEntity
  8
仕上
  6
Continuous
 62
     3
370
     9
100
AcDbCircle
 10
-212.7198832743877
 20
246.1558405010728
 30
0.0
 40
2.000000025774982
100
AcDbArc
 50
90.0
 51
189.9978179931641
  0
ARC
  5
32C
330
1F
100
AcDbEntity
  8
仕上
  6
Continuous
 62
     3
370
     9
100
AcDbCircle
 10
-213.9082625105575
 20
247.1558932882349
 30
0.0
 40
3.000000038662472
100
AcDbArc
 50
90.0
 51
189.6829681396484
  0
ARC
  5
32D
330
1F
100
AcDbEntity
  8
仕上
  6
Continuous
 62
     3
370
     9
100
AcDbCircle
 10
0.0
 20
283.6558899890373
 30
0.0
 40
218.0000016495988
100
AcDbArc
 50
189.9978485107422
 51
350.0021514892578
  0
ARC
  5
32E
330
1F
100
AcDbEntity
  8
仕上
  6
Continuous
 62
     3
370
     9
100
AcDbCircle
 10
0.0
 20
283.6558899890373
 30
0.0
 40
219.999995876003
100
AcDbArc
 50
189.683349609375
 51
350.316650390625
  0
ARC
  5
32F
330
1F
100
AcDbEntity
  8
躯体
  6
Continuous
 62
     2
370
     9
100
AcDbCircle
 10
-222.1530563766892
 20
259.1559328786065
 30
0.0
 40
1.500000019331236
100
AcDbArc
 50
90.0
 51
186.2932281494141
  0
ARC
  5
330
330
1F
100
AcDbEntity
  8
躯体
  6
Continuous
 62
     2
370
     9
100
AcDbCircle
 10
-205.9999620592273
 20
263.6558734930492
 30
0.0
 40
3.000000038662472
100
AcDbArc
 50
270.0
 51
0.0
  0
ARC
  5
331
330
1F
100
AcDbEntity
  8
躯体
  6
Continuous
 62
     2
370
     9
100
AcDbCircle
 10
0.0
 20
283.6558899890373
 30
0.0
 40
225.0
100
AcDbArc
 50
180.0
 51
181.9230499267578
  0
ARC
  5
332
330
1F
100
AcDbEntity
  8
躯体
  6
Continuous
 62
     2
370
     9
100
AcDbCircle
 10
-223.3740976694468
 20
276.1557910131082
 30
0.0
 40
1.500000019331236
100
AcDbArc
 50
180.0
 51
270.0
  0
ARC
  5
333
330
1F
100
AcDbEntity
  8
仕上
  6
Continuous
 62
     3
370
     9
100
AcDbCircle
 10
208.2878648912584
 20
277.1558438002704
 30
0.0
 40
1.500000019331236
100
AcDbArc
 50
270.0
 51
0.0
  0
ARC
  5
334
330
1F
100
AcDbEntity
  8
仕上
  6
Continuous
 62
     3
370
     9
100
AcDbCircle
 10
208.9002784522803
 20
276.5434302392484
 30
0.0
 40
1.500000019331236
100
AcDbArc
 50
270.0
 51
0.0
  0
ARC
  5
335
330
1F
100
AcDbEntity
  8
仕上
  6
Continuous
 62
     3
370
     9
100
AcDbCircle
 10
-208.2878648912585
 20
277.1558438002704
 30
0.0
 40
1.500000019331236
100
AcDbArc
 50
180.0
 51
270.0
  0
ARC
  5
336
330
1F
100
AcDbEntity
  8
仕上
  6
Continuous
 62
     3
370
     9
100
AcDbCircle
 10
-208.9002784522805
 20
276.5434302392484
 30
0.0
 40
1.500000019331236
100
AcDbArc
 50
180.0
 51
270.0
  0
ARC
  5
337
330
1F
100
AcDbEntity
  8
躯体
  6
Continuous
 62
     2
370
     9
100
AcDbCircle
 10
207.9999934016047
 20
265.9058438002704
 30
0.0
 40
3.000000038662472
100
AcDbArc
 50
180.0
 51
270.0
  0
ARC
  5
338
330
1F
100
AcDbEntity
  8
躯体
  6
Continuous
 62
     2
370
     9
100
AcDbCircle
 10
223.5956800306166
 20
261.4057547219343
 30
0.0
 40
1.500000019331236
100
AcDbArc
 50
72.96226501464842
 51
90.0
  0
ARC
  5
339
330
1F
100
AcDbEntity
  8
通り芯
  6
Continuous
 62
     3
370
     9
100
AcDbCircle
 10
0.0
 20
283.6558899890373
 30
0.0
 40
229.9999855660104
100
AcDbArc
 50
177.7574157714844
 51
180.0
  0
ARC
  5
33A
330
1F
100
AcDbEntity
  8
通り芯
  6
Continuous
 62
     3
370
     9
100
AcDbCircle
 10
0.0
 20
283.6558899890373
 30
0.0
 40
249.9999649460252
100
AcDbArc
 50
0.0
 51
180.0
  0
ARC
  5
33B
330
1F
100
AcDbEntity
  8
通り芯
  6
Continuous
 62
     3
370
     9
100
AcDbCircle
 10
0.0
 20
283.6558899890373
 30
0.0
 40
229.9999855660104
100
AcDbArc
 50
0.0
 51
2.242584228515625
  0
ARC
  5
33C
330
1F
100
AcDbEntity
  8
躯体
  6
Continuous
 62
     2
370
     9
100
AcDbCircle
 10
0.000742319467804
 20
283.6558899890373
 30
0.0
 40
261.0000074231947
100
AcDbArc
 50
140.3726654052735
 51
180.0
  0
ARC
  5
33D
330
1F
100
AcDbEntity
  8
躯体
  6
Continuous
 62
     2
370
     9
100
AcDbCircle
 10
0.000742319467804
 20
283.6558899890373
 30
0.0
 40
252.9999934016047
100
AcDbArc
 50
0.0
 51
180.0
  0
ARC
  5
33E
330
1F
100
AcDbEntity
  8
躯体
  6
Continuous
 62
     2
370
     9
100
AcDbCircle
 10
0.000742319467804
 20
283.6558899890373
 30
0.0
 40
257.9999975256018
100
AcDbArc
 50
0.0
 51
180.0
  0
ARC
  5
33F
330
1F
100
AcDbEntity
  8
躯体
  6
Continuous
 62
     2
370
     9
100
AcDbCircle
 10
0.000742319467804
 20
283.6558899890373
 30
0.0
 40
261.0000074231947
100
AcDbArc
 50
0.0
 51
39.6273193359375
  0
ARC
  5
340
330
1F
100
AcDbEntity
  8
躯体
  6
Continuous
 62
     2
370
     9
100
AcDbCircle
 10
0.0
 20
283.6558899890373
 30
0.0
 40
225.0
100
AcDbArc
 50
186.2933959960938
 51
0.0000000000000254
  0
TEXT
  5
341
330
1F
100
AcDbEntity
  8
仕上
  6
Continuous
 62
     7
370
     9
100
AcDbText
 10
104.1394451254456
 20
495.5832637951301
 30
0.0
 40
13.716
  1
Ｍ
 50
155.7009107762506
 41
1.000000000000001
  7
ＭＳ ゴシック
100
AcDbText
  0
TEXT
  5
342
330
1F
100
AcDbEntity
  8
仕上
  6
Continuous
 62
     7
370
     9
100
AcDbText
 10
84.48619977656466
 20
504.3628300443645
 30
0.0
 40
13.716
  1
Ｋ
 50
161.101104585683
 41
0.9999999999999982
  7
ＭＳ ゴシック
100
AcDbText
  0
TEXT
  5
343
330
1F
100
AcDbEntity
  8
仕上
  6
Continuous
 62
     7
370
     9
100
AcDbText
 10
41.53003293668096
 20
517.0939014239157
 30
0.0
 40
13.716
  1
Ｙ
 50
171.9005068618305
 41
0.9999999999999994
  7
ＭＳ ゴシック
100
AcDbText
  0
TEXT
  5
344
330
1F
100
AcDbEntity
  8
仕上
  6
Continuous
 62
     7
370
     9
100
AcDbText
 10
20.07765161543907
 20
519.9493753809089
 30
0.0
 40
13.716
  1
－
 50
177.300595322299
 41
0.9999999999999988
  7
ＭＳ ゴシック
100
AcDbText
  0
TEXT
  5
345
330
1F
100
AcDbEntity
  8
仕上
  6
Continuous
 62
     7
370
     9
100
AcDbText
 10
63.92278753952678
 20
511.6345639342386
 30
0.0
 40
13.716
  1
Ｒ
 50
166.5001677538106
 41
1.0
  7
ＭＳ ゴシック
100
AcDbText
  0
TEXT
  5
346
330
1F
100
AcDbEntity
  8
仕上
  6
Continuous
 62
     7
370
     9
100
AcDbText
 10
104.1394451254456
 20
495.5832637951301
 30
0.0
 40
13.716
  1
Ｍ
 50
155.7009107762506
 41
1.000000000000001
  7
ＭＳ ゴシック
100
AcDbText
  0
TEXT
  5
347
330
1F
100
AcDbEntity
  8
仕上
  6
Continuous
 62
     7
370
     9
100
AcDbText
 10
84.48619977656466
 20
504.3628300443645
 30
0.0
 40
13.716
  1
Ｋ
 50
161.101104585683
 41
0.9999999999999982
  7
ＭＳ ゴシック
100
AcDbText
  0
TEXT
  5
348
330
1F
100
AcDbEntity
  8
仕上
  6
Continuous
 62
     7
370
     9
100
AcDbText
 10
41.53003293668096
 20
517.0939014239157
 30
0.0
 40
13.716
  1
Ｙ
 50
171.9005068618305
 41
0.9999999999999994
  7
ＭＳ ゴシック
100
AcDbText
  0
TEXT
  5
349
330
1F
100
AcDbEntity
  8
仕上
  6
Continuous
 62
     7
370
     9
100
AcDbText
 10
20.07765161543907
 20
519.9493753809089
 30
0.0
 40
13.716
  1
－
 50
177.300595322299
 41
0.9999999999999988
  7
ＭＳ ゴシック
100
AcDbText
  0
TEXT
  5
34A
330
1F
100
AcDbEntity
  8
仕上
  6
Continuous
 62
     7
370
     9
100
AcDbText
 10
63.92278753952678
 20
511.6345639342386
 30
0.0
 40
13.716
  1
Ｒ
 50
166.5001677538106
 41
1.0
  7
ＭＳ ゴシック
100
AcDbText
  0
TEXT
  5
34B
330
1F
100
AcDbEntity
  8
仕上
  6
Continuous
 62
     7
370
     9
100
AcDbText
 10
20.07765161543907
 20
519.9493753809089
 30
0.0
 40
13.716
  1
－
 50
177.300595322299
 41
0.9999999999999988
  7
ＭＳ ゴシック
100
AcDbText
  0
TEXT
  5
34C
330
1F
100
AcDbEntity
  8
仕上
  6
Continuous
 62
     7
370
     9
100
AcDbText
 10
-24.55501230402212
 20
519.5258927625384
 30
0.0
 40
13.716
  1
－
 50
188.0994931381695
 41
0.9999999999999994
  7
ＭＳ ゴシック
100
AcDbText
  0
TEXT
  5
34D
330
1F
100
AcDbEntity
  8
仕上
  6
Continuous
 62
     7
370
     9
100
AcDbText
 10
-46.67417221206674
 20
515.5684131484438
 30
0.0
 40
13.716
  1
４
 50
193.5003469241084
 41
0.9999999999999996
  7
ＭＳ ゴシック
100
AcDbText
  0
TEXT
  5
34E
330
1F
100
AcDbEntity
  8
仕上
  6
Continuous
 62
     7
370
     9
100
AcDbText
 10
-67.72662014562492
 20
510.8237107091721
 30
0.0
 40
13.716
  1
５
 50
198.9003897812476
 41
1.000000000000001
  7
ＭＳ ゴシック
100
AcDbText
  0
TEXT
  5
34F
330
1F
100
AcDbEntity
  8
仕上
  6
Continuous
 62
     7
370
     9
100
AcDbText
 10
-88.71922619147601
 20
503.0015666730839
 30
0.0
 40
13.716
  1
０
 50
204.300145106562
 41
0.999999999999999
  7
ＭＳ ゴシック
100
AcDbText
  0
TEXT
  5
350
330
1F
100
AcDbEntity
  8
仕上
  6
Continuous
 62
     6
370
     9
100
AcDbText
 10
-231.9940300646601
 20
360.333606082635
 30
0.0
 40
9.144
  1
Ｋ
 50
252.9998364622816
 41
0.9999999999999997
  7
ＭＳ ゴシック
100
AcDbText
  0
TEXT
  5
351
330
1F
100
AcDbEntity
  8
仕上
  6
Continuous
 62
     6
370
     9
100
AcDbText
 10
-210.8713142439342
 20
406.8544645638776
 30
0.0
 40
9.144
  1
Ｌ
 50
241.00002909524
 41
1.000000000000001
  7
ＭＳ ゴシック
100
AcDbText
  0
TEXT
  5
352
330
1F
100
AcDbEntity
  8
仕上
  6
Continuous
 62
     6
370
     9
100
AcDbText
 10
-218.9898944022992
 20
391.8521528824152
 30
0.0
 40
9.144
  1
Ｏ
 50
245.0002360982499
 41
0.9999999999999969
  7
ＭＳ ゴシック
100
AcDbText
  0
TEXT
  5
353
330
1F
100
AcDbEntity
  8
仕上
  6
Continuous
 62
     6
370
     9
100
AcDbText
 10
-226.0422572029358
 20
376.3200349130664
 30
0.0
 40
9.144
  1
Ｃ
 50
248.9996666079492
 41
1.000000000000002
  7
ＭＳ ゴシック
100
AcDbText
  0
TEXT
  5
354
330
1F
100
AcDbEntity
  8
仕上
  6
Continuous
 62
     7
370
     9
100
AcDbText
 10
-1.205579752380551
 20
519.895780377312
 30
0.0
 40
13.716
  1
２
 50
182.699404677701
 41
0.9999999999999988
  7
ＭＳ ゴシック
100
AcDbText
  0
LINE
  5
355
330
1F
100
AcDbEntity
  8
通り芯
  6
Continuous
 62
     3
370
     9
100
AcDbLine
 10
-19.9998680320947
 20
392.6558536978634
 30
0.0
 11
-19.9998680320947
 21
374.6556458484123
 31
0.0
  0
LINE
  5
356
330
1F
100
AcDbEntity
  8
通り芯
  6
Continuous
 62
     3
370
     9
100
AcDbLine
 10
-65.9996238914697
 20
392.6558536978634
 30
0.0
 11
-25.99944243559969
 21
392.6558536978634
 31
0.0
  0
LINE
  5
357
330
1F
100
AcDbEntity
  8
通り芯
  6
Continuous
 62
     3
370
     9
100
AcDbLine
 10
-25.99944243559969
 20
392.6558536978634
 30
0.0
 11
-25.99944243559969
 21
374.6556458484123
 31
0.0
  0
LINE
  5
358
330
1F
100
AcDbEntity
  8
通り芯
  6
Continuous
 62
     3
370
     9
100
AcDbLine
 10
-65.9996238914697
 20
374.6556458484123
 30
0.0
 11
-25.99944243559969
 21
374.6556458484123
 31
0.0
  0
LINE
  5
359
330
1F
100
AcDbEntity
  8
通り芯
  6
Continuous
 62
     3
370
     9
100
AcDbLine
 10
-65.9996238914697
 20
392.6558536978634
 30
0.0
 11
-65.9996238914697
 21
374.6556458484123
 31
0.0
  0
LINE
  5
35A
330
1F
100
AcDbEntity
  8
通り芯
  6
Continuous
 62
     3
370
     9
100
AcDbLine
 10
-19.9998680320947
 20
392.6558536978634
 30
0.0
 11
0.0
 21
392.6558536978634
 31
0.0
  0
LINE
  5
35B
330
1F
100
AcDbEntity
  8
通り芯
  6
Continuous
 62
     3
370
     9
100
AcDbLine
 10
-19.9998680320947
 20
374.6556458484123
 30
0.0
 11
0.0
 21
374.6556458484123
 31
0.0
  0
LINE
  5
35C
330
1F
100
AcDbEntity
  8
通り芯
  6
Continuous
 62
     3
370
     9
100
AcDbLine
 10
19.99986803209453
 20
392.6558536978634
 30
0.0
 11
19.99986803209453
 21
374.6556458484123
 31
0.0
  0
LINE
  5
35D
330
1F
100
AcDbEntity
  8
通り芯
  6
Continuous
 62
     3
370
     9
100
AcDbLine
 10
65.99962389146953
 20
392.6558536978634
 30
0.0
 11
25.99944243559969
 21
392.6558536978634
 31
0.0
  0
LINE
  5
35E
330
1F
100
AcDbEntity
  8
通り芯
  6
Continuous
 62
     3
370
     9
100
AcDbLine
 10
25.99944243559969
 20
392.6558536978634
 30
0.0
 11
25.99944243559969
 21
374.6556458484123
 31
0.0
  0
LINE
  5
35F
330
1F
100
AcDbEntity
  8
通り芯
  6
Continuous
 62
     3
370
     9
100
AcDbLine
 10
65.99962389146953
 20
374.6556458484123
 30
0.0
 11
25.99944243559969
 21
374.6556458484123
 31
0.0
  0
LINE
  5
360
330
1F
100
AcDbEntity
  8
通り芯
  6
Continuous
 62
     3
370
     9
100
AcDbLine
 10
65.99962389146953
 20
392.6558536978634
 30
0.0
 11
65.99962389146953
 21
374.6556458484123
 31
0.0
  0
LINE
  5
361
330
1F
100
AcDbEntity
  8
通り芯
  6
Continuous
 62
     3
370
     9
100
AcDbLine
 10
19.99986803209453
 20
392.6558536978634
 30
0.0
 11
0.0
 21
392.6558536978634
 31
0.0
  0
LINE
  5
362
330
1F
100
AcDbEntity
  8
通り芯
  6
Continuous
 62
     3
370
     9
100
AcDbLine
 10
19.99986803209453
 20
374.6556458484123
 30
0.0
 11
0.0
 21
374.6556458484123
 31
0.0
  0
LINE
  5
363
330
1F
100
AcDbEntity
  8
通り芯
  6
Continuous
 62
     3
370
     9
100
AcDbLine
 10
-19.9998680320947
 20
442.655820705887
 30
0.0
 11
-19.9998680320947
 21
424.6556128564359
 31
0.0
  0
LINE
  5
364
330
1F
100
AcDbEntity
  8
通り芯
  6
Continuous
 62
     3
370
     9
100
AcDbLine
 10
-65.9996238914697
 20
442.655820705887
 30
0.0
 11
-25.99944243559969
 21
442.655820705887
 31
0.0
  0
LINE
  5
365
330
1F
100
AcDbEntity
  8
通り芯
  6
Continuous
 62
     3
370
     9
100
AcDbLine
 10
-25.99944243559969
 20
442.655820705887
 30
0.0
 11
-25.99944243559969
 21
424.6556128564359
 31
0.0
  0
LINE
  5
366
330
1F
100
AcDbEntity
  8
通り芯
  6
Continuous
 62
     3
370
     9
100
AcDbLine
 10
-65.9996238914697
 20
424.6556128564359
 30
0.0
 11
-25.99944243559969
 21
424.6556128564359
 31
0.0
  0
LINE
  5
367
330
1F
100
AcDbEntity
  8
通り芯
  6
Continuous
 62
     3
370
     9
100
AcDbLine
 10
-65.9996238914697
 20
442.655820705887
 30
0.0
 11
-65.9996238914697
 21
424.6556128564359
 31
0.0
  0
LINE
  5
368
330
1F
100
AcDbEntity
  8
通り芯
  6
Continuous
 62
     3
370
     9
100
AcDbLine
 10
-19.9998680320947
 20
442.655820705887
 30
0.0
 11
0.0
 21
442.655820705887
 31
0.0
  0
LINE
  5
369
330
1F
100
AcDbEntity
  8
通り芯
  6
Continuous
 62
     3
370
     9
100
AcDbLine
 10
-19.9998680320947
 20
424.6556128564359
 30
0.0
 11
0.0
 21
424.6556128564359
 31
0.0
  0
LINE
  5
36A
330
1F
100
AcDbEntity
  8
通り芯
  6
Continuous
 62
     3
370
     9
100
AcDbLine
 10
19.99986803209453
 20
442.655820705887
 30
0.0
 11
19.99986803209453
 21
424.6556128564359
 31
0.0
  0
LINE
  5
36B
330
1F
100
AcDbEntity
  8
通り芯
  6
Continuous
 62
     3
370
     9
100
AcDbLine
 10
65.99962389146953
 20
442.655820705887
 30
0.0
 11
25.99944243559969
 21
442.655820705887
 31
0.0
  0
LINE
  5
36C
330
1F
100
AcDbEntity
  8
通り芯
  6
Continuous
 62
     3
370
     9
100
AcDbLine
 10
25.99944243559969
 20
442.655820705887
 30
0.0
 11
25.99944243559969
 21
424.6556128564359
 31
0.0
  0
LINE
  5
36D
330
1F
100
AcDbEntity
  8
通り芯
  6
Continuous
 62
     3
370
     9
100
AcDbLine
 10
65.99962389146953
 20
424.6556128564359
 30
0.0
 11
25.99944243559969
 21
424.6556128564359
 31
0.0
  0
LINE
  5
36E
330
1F
100
AcDbEntity
  8
通り芯
  6
Continuous
 62
     3
370
     9
100
AcDbLine
 10
65.99962389146953
 20
442.655820705887
 30
0.0
 11
65.99962389146953
 21
424.6556128564359
 31
0.0
  0
LINE
  5
36F
330
1F
100
AcDbEntity
  8
通り芯
  6
Continuous
 62
     3
370
     9
100
AcDbLine
 10
19.99986803209453
 20
442.655820705887
 30
0.0
 11
0.0
 21
442.655820705887
 31
0.0
  0
LINE
  5
370
330
1F
100
AcDbEntity
  8
通り芯
  6
Continuous
 62
     3
370
     9
100
AcDbLine
 10
19.99986803209453
 20
424.6556128564359
 30
0.0
 11
0.0
 21
424.6556128564359
 31
0.0
  0
LINE
  5
371
330
1F
100
AcDbEntity
  8
通り芯
  6
Continuous
 62
     3
370
     9
100
AcDbLine
 10
-36.99987463048984
 20
417.6556887379815
 30
0.0
 11
-8.999881228885158
 21
417.6556887379815
 31
0.0
  0
LINE
  5
372
330
1F
100
AcDbEntity
  8
通り芯
  6
Continuous
 62
     3
370
     9
100
AcDbLine
 10
-3.999765756967975
 20
417.6556887379815
 30
0.0
 11
-3.999765756967975
 21
399.655629352424
 31
0.0
  0
LINE
  5
373
330
1F
100
AcDbEntity
  8
通り芯
  6
Continuous
 62
     3
370
     9
100
AcDbLine
 10
-8.999881228885158
 20
417.6556887379815
 30
0.0
 11
-8.999881228885158
 21
399.655629352424
 31
0.0
  0
LINE
  5
374
330
1F
100
AcDbEntity
  8
通り芯
  6
Continuous
 62
     3
370
     9
100
AcDbLine
 10
-36.99987463048984
 20
399.655629352424
 30
0.0
 11
-8.999881228885158
 21
399.655629352424
 31
0.0
  0
LINE
  5
375
330
1F
100
AcDbEntity
  8
通り芯
  6
Continuous
 62
     3
370
     9
100
AcDbLine
 10
-36.99987463048984
 20
417.6556887379815
 30
0.0
 11
-36.99987463048984
 21
399.655629352424
 31
0.0
  0
LINE
  5
376
330
1F
100
AcDbEntity
  8
通り芯
  6
Continuous
 62
     3
370
     9
100
AcDbLine
 10
-82.99992741765203
 20
417.6556887379815
 30
0.0
 11
-54.99963708826016
 21
417.6556887379815
 31
0.0
  0
LINE
  5
377
330
1F
100
AcDbEntity
  8
通り芯
  6
Continuous
 62
     3
370
     9
100
AcDbLine
 10
-49.99959584828969
 20
417.6556887379815
 30
0.0
 11
-41.9998416385136
 21
417.6556887379815
 31
0.0
  0
LINE
  5
378
330
1F
100
AcDbEntity
  8
通り芯
  6
Continuous
 62
     3
370
     9
100
AcDbLine
 10
-41.9998416385136
 20
417.6556887379815
 30
0.0
 11
-41.9998416385136
 21
399.655629352424
 31
0.0
  0
LINE
  5
379
330
1F
100
AcDbEntity
  8
通り芯
  6
Continuous
 62
     3
370
     9
100
AcDbLine
 10
-49.99959584828969
 20
399.655629352424
 30
0.0
 11
-41.9998416385136
 21
399.655629352424
 31
0.0
  0
LINE
  5
37A
330
1F
100
AcDbEntity
  8
通り芯
  6
Continuous
 62
     3
370
     9
100
AcDbLine
 10
-49.99959584828969
 20
417.6556887379815
 30
0.0
 11
-49.99959584828969
 21
399.655629352424
 31
0.0
  0
LINE
  5
37B
330
1F
100
AcDbEntity
  8
通り芯
  6
Continuous
 62
     3
370
     9
100
AcDbLine
 10
-54.99963708826016
 20
417.6556887379815
 30
0.0
 11
-54.99963708826016
 21
399.655629352424
 31
0.0
  0
LINE
  5
37C
330
1F
100
AcDbEntity
  8
通り芯
  6
Continuous
 62
     3
370
     9
100
AcDbLine
 10
-82.99992741765203
 20
399.655629352424
 30
0.0
 11
-54.99963708826016
 21
399.655629352424
 31
0.0
  0
LINE
  5
37D
330
1F
100
AcDbEntity
  8
通り芯
  6
Continuous
 62
     3
370
     9
100
AcDbLine
 10
-82.99992741765203
 20
417.6556887379815
 30
0.0
 11
-82.99992741765203
 21
399.655629352424
 31
0.0
  0
LINE
  5
37E
330
1F
100
AcDbEntity
  8
通り芯
  6
Continuous
 62
     3
370
     9
100
AcDbLine
 10
-3.999765756967975
 20
417.6556887379815
 30
0.0
 11
0.0
 21
417.6556887379815
 31
0.0
  0
LINE
  5
37F
330
1F
100
AcDbEntity
  8
通り芯
  6
Continuous
 62
     3
370
     9
100
AcDbLine
 10
-3.999765756967975
 20
399.655629352424
 30
0.0
 11
0.0
 21
399.655629352424
 31
0.0
  0
LINE
  5
380
330
1F
100
AcDbEntity
  8
通り芯
  6
Continuous
 62
     3
370
     9
100
AcDbLine
 10
36.99987463048984
 20
417.6556887379815
 30
0.0
 11
8.999881228885158
 21
417.6556887379815
 31
0.0
  0
LINE
  5
381
330
1F
100
AcDbEntity
  8
通り芯
  6
Continuous
 62
     3
370
     9
100
AcDbLine
 10
3.999765756967804
 20
417.6556887379815
 30
0.0
 11
3.999765756967804
 21
399.655629352424
 31
0.0
  0
LINE
  5
382
330
1F
100
AcDbEntity
  8
通り芯
  6
Continuous
 62
     3
370
     9
100
AcDbLine
 10
8.999881228885158
 20
417.6556887379815
 30
0.0
 11
8.999881228885158
 21
399.655629352424
 31
0.0
  0
LINE
  5
383
330
1F
100
AcDbEntity
  8
通り芯
  6
Continuous
 62
     3
370
     9
100
AcDbLine
 10
36.99987463048984
 20
399.655629352424
 30
0.0
 11
8.999881228885158
 21
399.655629352424
 31
0.0
  0
LINE
  5
384
330
1F
100
AcDbEntity
  8
通り芯
  6
Continuous
 62
     3
370
     9
100
AcDbLine
 10
36.99987463048984
 20
417.6556887379815
 30
0.0
 11
36.99987463048984
 21
399.655629352424
 31
0.0
  0
LINE
  5
385
330
1F
100
AcDbEntity
  8
通り芯
  6
Continuous
 62
     3
370
     9
100
AcDbLine
 10
82.99992741765203
 20
417.6556887379815
 30
0.0
 11
54.99963708826016
 21
417.6556887379815
 31
0.0
  0
LINE
  5
386
330
1F
100
AcDbEntity
  8
通り芯
  6
Continuous
 62
     3
370
     9
100
AcDbLine
 10
49.9995216163428
 20
417.6556887379815
 30
0.0
 11
41.99984163851343
 21
417.6556887379815
 31
0.0
  0
LINE
  5
387
330
1F
100
AcDbEntity
  8
通り芯
  6
Continuous
 62
     3
370
     9
100
AcDbLine
 10
41.99984163851343
 20
417.6556887379815
 30
0.0
 11
41.99984163851343
 21
399.655629352424
 31
0.0
  0
LINE
  5
388
330
1F
100
AcDbEntity
  8
通り芯
  6
Continuous
 62
     3
370
     9
100
AcDbLine
 10
49.9995216163428
 20
399.655629352424
 30
0.0
 11
41.99984163851343
 21
399.655629352424
 31
0.0
  0
LINE
  5
389
330
1F
100
AcDbEntity
  8
通り芯
  6
Continuous
 62
     3
370
     9
100
AcDbLine
 10
49.9995216163428
 20
417.6556887379815
 30
0.0
 11
49.9995216163428
 21
399.655629352424
 31
0.0
  0
LINE
  5
38A
330
1F
100
AcDbEntity
  8
通り芯
  6
Continuous
 62
     3
370
     9
100
AcDbLine
 10
54.99963708826016
 20
417.6556887379815
 30
0.0
 11
54.99963708826016
 21
399.655629352424
 31
0.0
  0
LINE
  5
38B
330
1F
100
AcDbEntity
  8
通り芯
  6
Continuous
 62
     3
370
     9
100
AcDbLine
 10
82.99992741765203
 20
399.655629352424
 30
0.0
 11
54.99963708826016
 21
399.655629352424
 31
0.0
  0
LINE
  5
38C
330
1F
100
AcDbEntity
  8
通り芯
  6
Continuous
 62
     3
370
     9
100
AcDbLine
 10
82.99992741765203
 20
417.6556887379815
 30
0.0
 11
82.99992741765203
 21
399.655629352424
 31
0.0
  0
LINE
  5
38D
330
1F
100
AcDbEntity
  8
通り芯
  6
Continuous
 62
     3
370
     9
100
AcDbLine
 10
3.999765756967804
 20
417.6556887379815
 30
0.0
 11
0.0
 21
417.6556887379815
 31
0.0
  0
LINE
  5
38E
330
1F
100
AcDbEntity
  8
通り芯
  6
Continuous
 62
     3
370
     9
100
AcDbLine
 10
3.999765756967804
 20
399.655629352424
 30
0.0
 11
0.0
 21
399.655629352424
 31
0.0
  0
ARC
  5
38F
330
1F
100
AcDbEntity
  8
仕上
  6
Continuous
 62
     3
370
     9
100
AcDbCircle
 10
13.79103377058703
 20
200.3968188451395
 30
0.0
 40
5.000000064437454
100
AcDbArc
 50
120.0000305175781
 51
175.766357421875
  0
ARC
  5
390
330
1F
100
AcDbEntity
  8
仕上
  6
Continuous
 62
     3
370
     9
100
AcDbCircle
 10
13.79103377058703
 20
200.3968188451395
 30
0.0
 40
3.999999761581421
100
AcDbArc
 50
120.0000305175781
 51
175.766357421875
  0
ARC
  5
391
330
1F
100
AcDbEntity
  8
仕上
  6
Continuous
 62
     3
370
     9
100
AcDbCircle
 10
-13.79103377058703
 20
200.3968188451395
 30
0.0
 40
5.000000064437454
100
AcDbArc
 50
4.233642578125012
 51
59.99996948242189
  0
ARC
  5
392
330
1F
100
AcDbEntity
  8
仕上
  6
Continuous
 62
     3
370
     9
100
AcDbCircle
 10
-13.79103377058703
 20
200.3968188451395
 30
0.0
 40
3.999999761581421
100
AcDbArc
 50
4.233642578125012
 51
59.99996948242189
  0
LINE
  5
393
330
1F
100
AcDbEntity
  8
仕上
  6
Continuous
 62
     3
370
     9
100
AcDbLine
 10
-9.80195741395687
 20
200.6921135294723
 30
0.0
 11
-9.207136824324209
 21
192.6558372018751
 31
0.0
  0
LINE
  5
394
330
1F
100
AcDbEntity
  8
仕上
  6
Continuous
 62
     3
370
     9
100
AcDbLine
 10
-8.204411687077652
 20
192.6558372018751
 30
0.0
 11
-8.804725440772813
 21
200.765900084582
 31
0.0
  0
LINE
  5
395
330
1F
100
AcDbEntity
  8
仕上
  6
Continuous
 62
     3
370
     9
100
AcDbLine
 10
8.204411687077823
 20
192.6558372018751
 30
0.0
 11
8.804725440772813
 21
200.765900084582
 31
0.0
  0
LINE
  5
396
330
1F
100
AcDbEntity
  8
仕上
  6
Continuous
 62
     3
370
     9
100
AcDbLine
 10
9.801957413957041
 20
200.6921135294723
 30
0.0
 11
9.20713682432438
 21
192.6558372018751
 31
0.0
  0
ARC
  5
397
330
1F
100
AcDbEntity
  8
仕上
  6
Continuous
 62
     3
370
     9
100
AcDbCircle
 10
13.79103377058703
 20
200.3968188451395
 30
0.0
 40
5.000000064437454
100
AcDbArc
 50
120.0000305175781
 51
175.766357421875
  0
ARC
  5
398
330
1F
100
AcDbEntity
  8
仕上
  6
Continuous
 62
     3
370
     9
100
AcDbCircle
 10
13.79103377058703
 20
200.3968188451395
 30
0.0
 40
3.999999761581421
100
AcDbArc
 50
120.0000305175781
 51
175.766357421875
  0
ARC
  5
399
330
1F
100
AcDbEntity
  8
仕上
  6
Continuous
 62
     3
370
     9
100
AcDbCircle
 10
-13.79103377058686
 20
200.3968188451395
 30
0.0
 40
5.000000064437454
100
AcDbArc
 50
4.233642578125012
 51
59.99996948242189
  0
ARC
  5
39A
330
1F
100
AcDbEntity
  8
仕上
  6
Continuous
 62
     3
370
     9
100
AcDbCircle
 10
-13.79103377058686
 20
200.3968188451395
 30
0.0
 40
3.999999761581421
100
AcDbArc
 50
4.233642578125012
 51
59.99996948242189
  0
LINE
  5
39B
330
1F
100
AcDbEntity
  8
仕上
  6
Continuous
 62
     3
370
     9
100
AcDbLine
 10
4.139173353040462
 20
137.7320651632349
 30
0.0
 11
8.804799672719525
 21
200.7659743165289
 31
0.0
  0
LINE
  5
39C
330
1F
100
AcDbEntity
  8
仕上
  6
Continuous
 62
     3
370
     9
100
AcDbLine
 10
9.802031645903753
 20
200.6920392975256
 30
0.0
 11
5.136256862331095
 21
137.6582786081253
 31
0.0
  0
LINE
  5
39D
330
1F
100
AcDbEntity
  8
仕上
  6
Continuous
 62
     3
370
     9
100
AcDbLine
 10
-4.138876425253443
 20
137.7320651632349
 30
0.0
 11
-8.804651208826101
 21
200.7659743165289
 31
0.0
  0
LINE
  5
39E
330
1F
100
AcDbEntity
  8
仕上
  6
Continuous
 62
     3
370
     9
100
AcDbLine
 10
-9.801883182010158
 20
200.6920392975256
 30
0.0
 11
-5.1361083984375
 21
137.6582786081253
 31
0.0
  0
ARC
  5
39F
330
1F
100
AcDbEntity
  8
仕上
  6
Continuous
 62
     3
370
     9
100
AcDbCircle
 10
13.79110800253375
 20
200.3968930770864
 30
0.0
 40
5.000000064437454
100
AcDbArc
 50
120.0000305175781
 51
175.766357421875
  0
ARC
  5
3A0
330
1F
100
AcDbEntity
  8
仕上
  6
Continuous
 62
     3
370
     9
100
AcDbCircle
 10
13.79110800253375
 20
200.3968930770864
 30
0.0
 40
3.999999761581421
100
AcDbArc
 50
120.0000305175781
 51
175.766357421875
  0
ARC
  5
3A1
330
1F
100
AcDbEntity
  8
仕上
  6
Continuous
 62
     3
370
     9
100
AcDbCircle
 10
-13.79095953864015
 20
200.3968930770864
 30
0.0
 40
5.000000064437454
100
AcDbArc
 50
4.233642578125012
 51
59.99996948242189
  0
ARC
  5
3A2
330
1F
100
AcDbEntity
  8
仕上
  6
Continuous
 62
     3
370
     9
100
AcDbCircle
 10
-13.79095953864015
 20
200.3968930770864
 30
0.0
 40
3.999999761581421
100
AcDbArc
 50
4.233642578125012
 51
59.99996948242189
  0
ARC
  5
3A3
330
1F
100
AcDbEntity
  8
仕上
  6
Continuous
 62
     3
370
     9
100
AcDbCircle
 10
0.0
 20
124.3070691222721
 30
0.0
 40
3.000000038662472
100
AcDbArc
 50
60.00013732910156
 51
119.9998626708985
  0
ARC
  5
3A4
330
1F
100
AcDbEntity
  8
仕上
  6
Continuous
 62
     3
370
     9
100
AcDbCircle
 10
-7.13072080869938
 20
137.510557034012
 30
0.0
 40
3.000000038662472
100
AcDbArc
 50
299.9992675781251
 51
4.232254028320369
  0
ARC
  5
3A5
330
1F
100
AcDbEntity
  8
仕上
  6
Continuous
 62
     3
370
     9
100
AcDbCircle
 10
-7.13072080869938
 20
137.510557034012
 30
0.0
 40
1.99999988079071
100
AcDbArc
 50
299.9992675781251
 51
4.232254028320369
  0
ARC
  5
3A6
330
1F
100
AcDbEntity
  8
仕上
  6
Continuous
 62
     3
370
     9
100
AcDbCircle
 10
7.130869272592975
 20
137.510557034012
 30
0.0
 40
3.000000038662472
100
AcDbArc
 50
175.7677459716797
 51
240.000732421875
  0
ARC
  5
3A7
330
1F
100
AcDbEntity
  8
仕上
  6
Continuous
 62
     3
370
     9
100
AcDbCircle
 10
7.130869272592975
 20
137.510557034012
 30
0.0
 40
1.99999988079071
100
AcDbArc
 50
175.7677459716797
 51
240.000732421875
  0
ARC
  5
3A8
330
1F
100
AcDbEntity
  8
仕上
  6
Continuous
 62
     3
370
     9
100
AcDbCircle
 10
0.0
 20
125.4618212865457
 30
0.0
 40
3.000000038662472
100
AcDbArc
 50
60.00013732910156
 51
119.9998626708985
  0
LINE
  5
3A9
330
1F
100
AcDbEntity
  8
仕上
  6
Continuous
 62
     3
370
     9
100
AcDbLine
 10
-6.13066802153719
 20
135.7785772514951
 30
0.0
 11
-63.9999637088261
 21
102.3678172483279
 31
0.0
  0
LINE
  5
3AA
330
1F
100
AcDbEntity
  8
仕上
  6
Continuous
 62
     3
370
     9
100
AcDbLine
 10
-5.63079009184969
 20
134.9124388963431
 30
0.0
 11
-63.49993731524501
 21
101.5018273570695
 31
0.0
  0
LINE
  5
3AB
330
1F
100
AcDbEntity
  8
仕上
  6
Continuous
 62
     3
370
     9
100
AcDbLine
 10
-1.49993071684969
 20
128.0599394242148
 30
0.0
 11
-59.49987463048984
 21
94.5736112992148
 31
0.0
  0
LINE
  5
3AC
330
1F
100
AcDbEntity
  8
仕上
  6
Continuous
 62
     3
370
     9
100
AcDbLine
 10
-1.49993071684969
 20
126.905187259941
 30
0.0
 11
-58.59068174619938
 21
93.9438274626437
 31
0.0
  0
LINE
  5
3AD
330
1F
100
AcDbEntity
  8
仕上
  6
Continuous
 62
     3
370
     9
100
AcDbLine
 10
1.500079180743285
 20
126.905187259941
 30
0.0
 11
58.59083021009297
 21
93.9438274626437
 31
0.0
  0
LINE
  5
3AE
330
1F
100
AcDbEntity
  8
仕上
  6
Continuous
 62
     3
370
     9
100
AcDbLine
 10
1.500079180743285
 20
128.0599394242148
 30
0.0
 11
59.50002309438344
 21
94.5736112992148
 31
0.0
  0
LINE
  5
3AF
330
1F
100
AcDbEntity
  8
仕上
  6
Continuous
 62
     3
370
     9
100
AcDbLine
 10
5.630938555743285
 20
134.9124388963431
 30
0.0
 11
63.50008577913843
 21
101.5018273570695
 31
0.0
  0
LINE
  5
3B0
330
1F
100
AcDbEntity
  8
仕上
  6
Continuous
 62
     3
370
     9
100
AcDbLine
 10
6.13096494932438
 20
135.7785772514951
 30
0.0
 11
64.00011217271953
 21
102.3678172483279
 31
0.0
  0
TEXT
  5
3B1
330
1F
100
AcDbEntity
  8
F-4ﾚｲﾔ
  6
Continuous
 62
     6
370
     0
100
AcDbText
 10
9.259991321173572
 20
-667.0243436406046
 30
0.0
 40
18.288
  1
回転ロック式　簡易密閉型（簡易防水・防臭型）角枠
 41
0.7979166666666667
  7
ＭＳ ゴシック
100
AcDbText
  0
LINE
  5
3B2
330
1F
100
AcDbEntity
  8
その他
  6
Continuous
 62
     7
370
     9
100
AcDbLine
 10
321.6260920344172
 20
532.6559691697805
 30
0.0
 11
321.6260920344172
 21
34.65603350413448
 31
0.0
  0
LINE
  5
3B3
330
1F
100
AcDbEntity
  8
その他
  6
Continuous
 62
     7
370
     9
100
AcDbLine
 10
264.0008709881756
 20
34.65603350413448
 30
0.0
 11
323.4260682801942
 21
34.65603350413448
 31
0.0
  0
LINE
  5
3B4
330
1F
100
AcDbEntity
  8
その他
  6
Continuous
 62
     7
370
     9
100
AcDbLine
 10
321.6260920344172
 20
532.6559691697805
 30
0.0
 11
319.6681502058698
 21
517.7843409497636
 31
0.0
  0
LINE
  5
3B5
330
1F
100
AcDbEntity
  8
その他
  6
Continuous
 62
     7
370
     9
100
AcDbLine
 10
321.6260920344172
 20
532.6559691697805
 30
0.0
 11
323.5840338629645
 21
517.7843409497636
 31
0.0
  0
LINE
  5
3B6
330
1F
100
AcDbEntity
  8
その他
  6
Continuous
 62
     7
370
     9
100
AcDbLine
 10
321.6260920344172
 20
34.65603350413448
 30
0.0
 11
319.6681502058698
 21
49.52773595609807
 31
0.0
  0
LINE
  5
3B7
330
1F
100
AcDbEntity
  8
その他
  6
Continuous
 62
     7
370
     9
100
AcDbLine
 10
321.6260920344172
 20
34.65603350413448
 30
0.0
 11
323.5840338629645
 21
49.52773595609807
 31
0.0
  0
LINE
  5
3B8
330
1F
100
AcDbEntity
  8
その他
  6
Continuous
 62
     7
370
     9
100
AcDbLine
 10
260.4163587415541
 20
532.6559691697805
 30
0.0
 11
323.4260682801942
 21
532.6559691697805
 31
0.0
  0
TEXT
  5
3B9
330
1F
100
AcDbEntity
  8
その他
  6
Continuous
 62
     2
370
     9
100
AcDbText
 10
314.6421395428631
 20
297.4591621332518
 30
0.0
 40
18.288
  1
498
 50
90.0
 41
1.083333333333333
  7
ＭＳ ゴシック
100
AcDbText
  0
TEXT
  5
3BA
330
1F
100
AcDbEntity
  8
寸法
  6
Continuous
 62
     2
370
     9
100
AcDbText
 10
289.5400951488598
 20
-19.74411814018568
 30
0.0
 40
18.288
  1
４－φ１５
 41
0.7699999999999999
  7
ＭＳ ゴシック
100
AcDbText
  0
LINE
  5
3BB
330
1F
100
AcDbEntity
  8
通り芯
  6
Continuous
 62
     3
370
     9
100
AcDbLine
 10
-65.9996238914697
 20
292.6557712179224
 30
0.0
 11
-25.99944243559969
 21
292.6557712179224
 31
0.0
  0
LINE
  5
3BC
330
1F
100
AcDbEntity
  8
通り芯
  6
Continuous
 62
     3
370
     9
100
AcDbLine
 10
-36.99987463048984
 20
317.6556062580407
 30
0.0
 11
-8.999881228885158
 21
317.6556062580407
 31
0.0
  0
LINE
  5
3BD
330
1F
100
AcDbEntity
  8
通り芯
  6
Continuous
 62
     3
370
     9
100
AcDbLine
 10
-3.999765756967975
 20
317.6556062580407
 30
0.0
 11
-3.999765756967975
 21
299.6555468724832
 31
0.0
  0
LINE
  5
3BE
330
1F
100
AcDbEntity
  8
通り芯
  6
Continuous
 62
     3
370
     9
100
AcDbLine
 10
-8.999881228885158
 20
317.6556062580407
 30
0.0
 11
-8.999881228885158
 21
299.6555468724832
 31
0.0
  0
LINE
  5
3BF
330
1F
100
AcDbEntity
  8
通り芯
  6
Continuous
 62
     3
370
     9
100
AcDbLine
 10
-36.99987463048984
 20
299.6555468724832
 30
0.0
 11
-8.999881228885158
 21
299.6555468724832
 31
0.0
  0
LINE
  5
3C0
330
1F
100
AcDbEntity
  8
通り芯
  6
Continuous
 62
     3
370
     9
100
AcDbLine
 10
-36.99987463048984
 20
317.6556062580407
 30
0.0
 11
-36.99987463048984
 21
299.6555468724832
 31
0.0
  0
LINE
  5
3C1
330
1F
100
AcDbEntity
  8
通り芯
  6
Continuous
 62
     3
370
     9
100
AcDbLine
 10
-82.99992741765203
 20
317.6556062580407
 30
0.0
 11
-54.99963708826016
 21
317.6556062580407
 31
0.0
  0
LINE
  5
3C2
330
1F
100
AcDbEntity
  8
通り芯
  6
Continuous
 62
     3
370
     9
100
AcDbLine
 10
-49.99959584828969
 20
317.6556062580407
 30
0.0
 11
-41.9998416385136
 21
317.6556062580407
 31
0.0
  0
LINE
  5
3C3
330
1F
100
AcDbEntity
  8
通り芯
  6
Continuous
 62
     3
370
     9
100
AcDbLine
 10
-41.9998416385136
 20
317.6556062580407
 30
0.0
 11
-41.9998416385136
 21
299.6555468724832
 31
0.0
  0
LINE
  5
3C4
330
1F
100
AcDbEntity
  8
通り芯
  6
Continuous
 62
     3
370
     9
100
AcDbLine
 10
-49.99959584828969
 20
299.6555468724832
 30
0.0
 11
-41.9998416385136
 21
299.6555468724832
 31
0.0
  0
LINE
  5
3C5
330
1F
100
AcDbEntity
  8
通り芯
  6
Continuous
 62
     3
370
     9
100
AcDbLine
 10
-49.99959584828969
 20
317.6556062580407
 30
0.0
 11
-49.99959584828969
 21
299.6555468724832
 31
0.0
  0
LINE
  5
3C6
330
1F
100
AcDbEntity
  8
通り芯
  6
Continuous
 62
     3
370
     9
100
AcDbLine
 10
-54.99963708826016
 20
317.6556062580407
 30
0.0
 11
-54.99963708826016
 21
299.6555468724832
 31
0.0
  0
LINE
  5
3C7
330
1F
100
AcDbEntity
  8
通り芯
  6
Continuous
 62
     3
370
     9
100
AcDbLine
 10
-82.99992741765203
 20
299.6555468724832
 30
0.0
 11
-54.99963708826016
 21
299.6555468724832
 31
0.0
  0
LINE
  5
3C8
330
1F
100
AcDbEntity
  8
通り芯
  6
Continuous
 62
     3
370
     9
100
AcDbLine
 10
-82.99992741765203
 20
317.6556062580407
 30
0.0
 11
-82.99992741765203
 21
299.6555468724832
 31
0.0
  0
LINE
  5
3C9
330
1F
100
AcDbEntity
  8
通り芯
  6
Continuous
 62
     3
370
     9
100
AcDbLine
 10
-19.9998680320947
 20
292.6557712179224
 30
0.0
 11
0.0
 21
292.6557712179224
 31
0.0
  0
LINE
  5
3CA
330
1F
100
AcDbEntity
  8
通り芯
  6
Continuous
 62
     3
370
     9
100
AcDbLine
 10
-3.999765756967975
 20
317.6556062580407
 30
0.0
 11
0.0
 21
317.6556062580407
 31
0.0
  0
LINE
  5
3CB
330
1F
100
AcDbEntity
  8
通り芯
  6
Continuous
 62
     3
370
     9
100
AcDbLine
 10
-3.999765756967975
 20
299.6555468724832
 30
0.0
 11
0.0
 21
299.6555468724832
 31
0.0
  0
LINE
  5
3CC
330
1F
100
AcDbEntity
  8
通り芯
  6
Continuous
 62
     3
370
     9
100
AcDbLine
 10
65.99962389146953
 20
292.6557712179224
 30
0.0
 11
25.99944243559969
 21
292.6557712179224
 31
0.0
  0
LINE
  5
3CD
330
1F
100
AcDbEntity
  8
通り芯
  6
Continuous
 62
     3
370
     9
100
AcDbLine
 10
36.99987463048984
 20
317.6556062580407
 30
0.0
 11
8.999881228885158
 21
317.6556062580407
 31
0.0
  0
LINE
  5
3CE
330
1F
100
AcDbEntity
  8
通り芯
  6
Continuous
 62
     3
370
     9
100
AcDbLine
 10
3.999765756967804
 20
317.6556062580407
 30
0.0
 11
3.999765756967804
 21
299.6555468724832
 31
0.0
  0
LINE
  5
3CF
330
1F
100
AcDbEntity
  8
通り芯
  6
Continuous
 62
     3
370
     9
100
AcDbLine
 10
8.999881228885158
 20
317.6556062580407
 30
0.0
 11
8.999881228885158
 21
299.6555468724832
 31
0.0
  0
LINE
  5
3D0
330
1F
100
AcDbEntity
  8
通り芯
  6
Continuous
 62
     3
370
     9
100
AcDbLine
 10
36.99987463048984
 20
299.6555468724832
 30
0.0
 11
8.999881228885158
 21
299.6555468724832
 31
0.0
  0
LINE
  5
3D1
330
1F
100
AcDbEntity
  8
通り芯
  6
Continuous
 62
     3
370
     9
100
AcDbLine
 10
36.99987463048984
 20
317.6556062580407
 30
0.0
 11
36.99987463048984
 21
299.6555468724832
 31
0.0
  0
LINE
  5
3D2
330
1F
100
AcDbEntity
  8
通り芯
  6
Continuous
 62
     3
370
     9
100
AcDbLine
 10
82.99992741765203
 20
317.6556062580407
 30
0.0
 11
54.99963708826016
 21
317.6556062580407
 31
0.0
  0
LINE
  5
3D3
330
1F
100
AcDbEntity
  8
通り芯
  6
Continuous
 62
     3
370
     9
100
AcDbLine
 10
49.9995216163428
 20
317.6556062580407
 30
0.0
 11
41.99984163851343
 21
317.6556062580407
 31
0.0
  0
LINE
  5
3D4
330
1F
100
AcDbEntity
  8
通り芯
  6
Continuous
 62
     3
370
     9
100
AcDbLine
 10
41.99984163851343
 20
317.6556062580407
 30
0.0
 11
41.99984163851343
 21
299.6555468724832
 31
0.0
  0
LINE
  5
3D5
330
1F
100
AcDbEntity
  8
通り芯
  6
Continuous
 62
     3
370
     9
100
AcDbLine
 10
49.9995216163428
 20
299.6555468724832
 30
0.0
 11
41.99984163851343
 21
299.6555468724832
 31
0.0
  0
LINE
  5
3D6
330
1F
100
AcDbEntity
  8
通り芯
  6
Continuous
 62
     3
370
     9
100
AcDbLine
 10
49.9995216163428
 20
317.6556062580407
 30
0.0
 11
49.9995216163428
 21
299.6555468724832
 31
0.0
  0
LINE
  5
3D7
330
1F
100
AcDbEntity
  8
通り芯
  6
Continuous
 62
     3
370
     9
100
AcDbLine
 10
54.99963708826016
 20
317.6556062580407
 30
0.0
 11
54.99963708826016
 21
299.6555468724832
 31
0.0
  0
LINE
  5
3D8
330
1F
100
AcDbEntity
  8
通り芯
  6
Continuous
 62
     3
370
     9
100
AcDbLine
 10
82.99992741765203
 20
299.6555468724832
 30
0.0
 11
54.99963708826016
 21
299.6555468724832
 31
0.0
  0
LINE
  5
3D9
330
1F
100
AcDbEntity
  8
通り芯
  6
Continuous
 62
     3
370
     9
100
AcDbLine
 10
82.99992741765203
 20
317.6556062580407
 30
0.0
 11
82.99992741765203
 21
299.6555468724832
 31
0.0
  0
LINE
  5
3DA
330
1F
100
AcDbEntity
  8
通り芯
  6
Continuous
 62
     3
370
     9
100
AcDbLine
 10
19.99986803209453
 20
292.6557712179224
 30
0.0
 11
0.0
 21
292.6557712179224
 31
0.0
  0
LINE
  5
3DB
330
1F
100
AcDbEntity
  8
通り芯
  6
Continuous
 62
     3
370
     9
100
AcDbLine
 10
3.999765756967804
 20
317.6556062580407
 30
0.0
 11
0.0
 21
317.6556062580407
 31
0.0
  0
LINE
  5
3DC
330
1F
100
AcDbEntity
  8
通り芯
  6
Continuous
 62
     3
370
     9
100
AcDbLine
 10
3.999765756967804
 20
299.6555468724832
 30
0.0
 11
0.0
 21
299.6555468724832
 31
0.0
  0
LINE
  5
3DD
330
1F
100
AcDbEntity
  8
通り芯
  6
Continuous
 62
     3
370
     9
100
AcDbLine
 10
-65.9996238914697
 20
292.6557712179224
 30
0.0
 11
-65.9996238914697
 21
283.6558899890373
 31
0.0
  0
LINE
  5
3DE
330
1F
100
AcDbEntity
  8
通り芯
  6
Continuous
 62
     3
370
     9
100
AcDbLine
 10
-25.99944243559969
 20
292.6557712179224
 30
0.0
 11
-25.99944243559969
 21
283.6558899890373
 31
0.0
  0
LINE
  5
3DF
330
1F
100
AcDbEntity
  8
通り芯
  6
Continuous
 62
     3
370
     9
100
AcDbLine
 10
-19.9998680320947
 20
292.6557712179224
 30
0.0
 11
-19.9998680320947
 21
283.6558899890373
 31
0.0
  0
LINE
  5
3E0
330
1F
100
AcDbEntity
  8
通り芯
  6
Continuous
 62
     3
370
     9
100
AcDbLine
 10
19.99986803209453
 20
292.6557712179224
 30
0.0
 11
19.99986803209453
 21
283.6558899890373
 31
0.0
  0
LINE
  5
3E1
330
1F
100
AcDbEntity
  8
通り芯
  6
Continuous
 62
     3
370
     9
100
AcDbLine
 10
25.99944243559969
 20
292.6557712179224
 30
0.0
 11
25.99944243559969
 21
283.6558899890373
 31
0.0
  0
LINE
  5
3E2
330
1F
100
AcDbEntity
  8
通り芯
  6
Continuous
 62
     3
370
     9
100
AcDbLine
 10
65.99962389146953
 20
292.6557712179224
 30
0.0
 11
65.99962389146953
 21
283.6558899890373
 31
0.0
  0
LINE
  5
3E3
330
1F
100
AcDbEntity
  8
仕上
  6
Continuous
 62
     3
370
     9
100
AcDbLine
 10
-55.20884154888761
 20
254.3316817592423
 30
0.0
 11
-55.20884154888761
 21
284.9313897077794
 31
0.0
  0
LINE
  5
3E4
330
1F
100
AcDbEntity
  8
仕上
  6
Continuous
 62
     3
370
     9
100
AcDbLine
 10
-53.20883904329953
 20
250.8675786975039
 30
0.0
 11
-2.49998350401188
 21
221.5908562052535
 31
0.0
  0
ARC
  5
3E5
330
1F
100
AcDbEntity
  8
仕上
  6
Continuous
 62
     3
370
     9
100
AcDbCircle
 10
-51.20884154888762
 20
254.3316817592423
 30
0.0
 40
4.0
100
AcDbArc
 50
180.0
 51
240.0000414420842
  0
LINE
  5
3E6
330
1F
100
AcDbEntity
  8
仕上
  6
Continuous
 62
     3
370
     9
100
AcDbLine
 10
-56.2088943360498
 20
254.3315837342428
 30
0.0
 11
-56.2088943360498
 21
284.9313897077794
 31
0.0
  0
LINE
  5
3E7
330
1F
100
AcDbEntity
  8
仕上
  6
Continuous
 62
     3
370
     9
100
AcDbLine
 10
-53.70888635928551
 20
250.0014521099434
 30
0.0
 11
-2.49998350401188
 21
220.4361040409798
 31
0.0
  0
ARC
  5
3E8
330
1F
100
AcDbEntity
  8
仕上
  6
Continuous
 62
     3
370
     9
100
AcDbCircle
 10
-51.20889433604978
 20
254.3315837342428
 30
0.0
 40
5.0
100
AcDbArc
 50
180.0
 51
240.0001055476389
  0
LINE
  5
3E9
330
1F
100
AcDbEntity
  8
仕上
  6
Continuous
 62
     3
370
     9
100
AcDbLine
 10
53.70896059123244
 20
250.0014949675957
 30
0.0
 11
2.499983504011709
 21
220.4361040409798
 31
0.0
  0
LINE
  5
3EA
330
1F
100
AcDbEntity
  8
仕上
  6
Continuous
 62
     3
370
     9
100
AcDbLine
 10
56.20896856799668
 20
254.3316265918951
 30
0.0
 11
56.20896856799668
 21
284.9313897077794
 31
0.0
  0
ARC
  5
3EB
330
1F
100
AcDbEntity
  8
仕上
  6
Continuous
 62
     3
370
     9
100
AcDbCircle
 10
51.20896856799666
 20
254.3316265918951
 30
0.0
 40
5.0
100
AcDbArc
 50
299.9998944523611
 51
0.0
  0
LINE
  5
3EC
330
1F
100
AcDbEntity
  8
仕上
  6
Continuous
 62
     3
370
     9
100
AcDbLine
 10
53.20891327524642
 20
250.8676215552669
 30
0.0
 11
2.499983504011709
 21
221.5908562052535
 31
0.0
  0
LINE
  5
3ED
330
1F
100
AcDbEntity
  8
仕上
  6
Continuous
 62
     3
370
     9
100
AcDbLine
 10
55.20891578083449
 20
254.3317246170054
 30
0.0
 11
55.20891578083449
 21
284.9313897077794
 31
0.0
  0
ARC
  5
3EE
330
1F
100
AcDbEntity
  8
仕上
  6
Continuous
 62
     3
370
     9
100
AcDbCircle
 10
51.2089157808345
 20
254.3317246170054
 30
0.0
 40
4.0
100
AcDbArc
 50
299.9999585579158
 51
0.0000000000000254
  0
TEXT
  5
3EF
330
1F
100
AcDbEntity
  8
F-4ﾚｲﾔ
  6
Continuous
 62
     6
370
     0
100
AcDbText
 10
85.62365132473042
 20
-694.8722769783953
 30
0.0
 40
18.288
  1
マンホール鉄蓋　ＭＫＲＹ－２－４５０（角）－ｂ
 41
0.7978260869565218
  7
ＭＳ ゴシック
100
AcDbText
  0
LINE
  5
3F0
330
1F
100
AcDbEntity
  8
躯体
  6
Continuous
 62
     2
370
     9
100
AcDbLine
 10
-253.0001418654984
 20
-271.5866324102361
 30
0.0
 11
-258.000108873522
 21
-271.5866324102361
 31
0.0
  0
LINE
  5
3F1
330
1F
100
AcDbEntity
  8
躯体
  6
Continuous
 62
     2
370
     9
100
AcDbLine
 10
-231.0001682590795
 20
-291.5867231381711
 30
0.0
 11
-232.2071054819468
 21
-310.8985352554641
 31
0.0
  0
LINE
  5
3F2
330
1F
100
AcDbEntity
  8
躯体
  6
Continuous
 62
     2
370
     9
100
AcDbLine
 10
-250.317844700169
 20
-310.9268176271913
 30
0.0
 11
-253.0001418654984
 21
-271.5866324102361
 31
0.0
  0
LINE
  5
3F3
330
1F
100
AcDbEntity
  8
躯体
  6
Continuous
 62
     2
370
     9
100
AcDbLine
 10
-227.000254038218
 20
-291.5867231381711
 30
0.0
 11
-231.0001682590795
 21
-291.5867231381711
 31
0.0
  0
LINE
  5
3F4
330
1F
100
AcDbEntity
  8
躯体
  6
Continuous
 62
     2
370
     9
100
AcDbLine
 10
-237.1972738729941
 20
-315.5866538550208
 30
0.0
 11
-245.3294578758446
 21
-315.5866538550208
 31
0.0
  0
LINE
  5
3F5
330
1F
100
AcDbEntity
  8
躯体
  6
Continuous
 62
     2
370
     9
100
AcDbLine
 10
260.6822575749578
 20
-310.9268176271913
 30
0.0
 11
258.0001088735219
 21
-271.5861870185554
 31
0.0
  0
LINE
  5
3F6
330
1F
100
AcDbEntity
  8
躯体
  6
Continuous
 62
     2
370
     9
100
AcDbLine
 10
237.1973481049408
 20
-315.5866538550208
 30
0.0
 11
245.3291609480573
 21
-315.5866538550208
 31
0.0
  0
LINE
  5
3F7
330
1F
100
AcDbEntity
  8
躯体
  6
Continuous
 62
     2
370
     9
100
AcDbLine
 10
250.3175477723817
 20
-310.9268176271913
 30
0.0
 11
252.9998449377111
 21
-271.5866324102361
 31
0.0
  0
LINE
  5
3F8
330
1F
100
AcDbEntity
  8
躯体
  6
Continuous
 62
     2
370
     9
100
AcDbLine
 10
252.9998449377111
 20
-271.5866324102361
 30
0.0
 11
258.0001088735219
 21
-271.5866324102361
 31
0.0
  0
LINE
  5
3F9
330
1F
100
AcDbEntity
  8
躯体
  6
Continuous
 62
     2
370
     9
100
AcDbLine
 10
225.0004453916808
 20
-321.5866736502065
 30
0.0
 11
226.9949093380489
 21
-291.6589508223983
 31
0.0
  0
LINE
  5
3FA
330
1F
100
AcDbEntity
  8
躯体
  6
Continuous
 62
     2
370
     9
100
AcDbLine
 10
230.9998713312922
 20
-291.5867231381711
 30
0.0
 11
232.2068827861064
 21
-310.8985352554641
 31
0.0
  0
LINE
  5
3FB
330
1F
100
AcDbEntity
  8
躯体
  6
Continuous
 62
     2
370
     9
100
AcDbLine
 10
226.9949093380489
 20
-291.6589508223983
 30
0.0
 11
230.9948235589105
 21
-291.6589508223983
 31
0.0
  0
LINE
  5
3FC
330
1F
100
AcDbEntity
  8
躯体
  6
Continuous
 62
     2
370
     9
100
AcDbLine
 10
223.6546201963683
 20
-289.1588188544929
 30
0.0
 11
231.4948499524916
 21
-289.1588188544929
 31
0.0
  0
LINE
  5
3FD
330
1F
100
AcDbEntity
  8
躯体
  6
Continuous
 62
     2
370
     9
100
AcDbLine
 10
223.6546201963683
 20
-289.1588188544929
 30
0.0
 11
223.08837890625
 21
-297.658970617584
 31
0.0
  0
LINE
  5
3FE
330
1F
100
AcDbEntity
  8
躯体
  6
Continuous
 62
     2
370
     9
100
AcDbLine
 10
231.8385438661317
 20
-305.158772665726
 30
0.0
 11
235.3446671769425
 21
-305.158772665726
 31
0.0
  0
LINE
  5
3FF
330
1F
100
AcDbEntity
  8
躯体
  6
Continuous
 62
     2
370
     9
100
AcDbLine
 10
234.2224286053631
 20
-305.158772665726
 30
0.0
 11
235.2783038165119
 21
-304.102674758737
 31
0.0
  0
LINE
  5
400
330
1F
100
AcDbEntity
  8
躯体
  6
Continuous
 62
     2
370
     9
100
AcDbLine
 10
232.1010280299831
 20
-305.158772665726
 30
0.0
 11
235.1534456820102
 21
-302.105983853965
 31
0.0
  0
LINE
  5
401
330
1F
100
AcDbEntity
  8
躯体
  6
Continuous
 62
     2
370
     9
100
AcDbLine
 10
231.7291259765625
 20
-303.4094968396068
 30
0.0
 11
235.0288844752956
 21
-300.1098125728205
 31
0.0
  0
LINE
  5
402
330
1F
100
AcDbEntity
  8
躯体
  6
Continuous
 62
     2
370
     9
100
AcDbLine
 10
231.604564769848
 20
-301.4127317028881
 30
0.0
 11
234.9043232685811
 21
-298.1128989722083
 31
0.0
  0
LINE
  5
403
330
1F
100
AcDbEntity
  8
躯体
  6
Continuous
 62
     2
370
     9
100
AcDbLine
 10
231.4797066353462
 20
-299.4161892620098
 30
0.0
 11
234.7794651340794
 21
-296.1163565313299
 31
0.0
  0
LINE
  5
404
330
1F
100
AcDbEntity
  8
躯体
  6
Continuous
 62
     2
370
     9
100
AcDbLine
 10
231.3548485008445
 20
-297.4196468211314
 30
0.0
 11
234.6546069995777
 21
-294.1199625543451
 31
0.0
  0
LINE
  5
405
330
1F
100
AcDbEntity
  8
躯体
  6
Continuous
 62
     2
370
     9
100
AcDbLine
 10
231.2299903663428
 20
-295.4231043802531
 30
0.0
 11
234.5270765149916
 21
-292.1262409274448
 31
0.0
  0
LINE
  5
406
330
1F
100
AcDbEntity
  8
躯体
  6
Continuous
 62
     2
370
     9
100
AcDbLine
 10
231.1054291596283
 20
-293.4265619393746
 30
0.0
 11
234.2963636243666
 21
-290.2352563149025
 31
0.0
  0
LINE
  5
407
330
1F
100
AcDbEntity
  8
躯体
  6
Continuous
 62
     2
370
     9
100
AcDbLine
 10
224.7516199060389
 20
-297.658970617584
 30
0.0
 11
226.7264866184544
 21
-295.6840296732218
 31
0.0
  0
LINE
  5
408
330
1F
100
AcDbEntity
  8
躯体
  6
Continuous
 62
     2
370
     9
100
AcDbLine
 10
230.7516397012247
 20
-291.6589508223983
 30
0.0
 11
234.0659476615288
 21
-288.3445686301474
 31
0.0
  0
LINE
  5
409
330
1F
100
AcDbEntity
  8
躯体
  6
Continuous
 62
     2
370
     9
100
AcDbLine
 10
223.1210409628378
 20
-297.1682974492986
 30
0.0
 11
226.8780682538006
 21
-293.4111216944422
 31
0.0
  0
LINE
  5
40A
330
1F
100
AcDbEntity
  8
躯体
  6
Continuous
 62
     2
370
     9
100
AcDbLine
 10
228.6305360536317
 20
-291.6589508223983
 30
0.0
 11
231.13037109375
 21
-289.1588188544929
 31
0.0
  0
LINE
  5
40B
330
1F
100
AcDbEntity
  8
躯体
  6
Continuous
 62
     2
370
     9
100
AcDbLine
 10
223.2723256703969
 20
-294.895389470519
 30
0.0
 11
229.0089705183698
 21
-289.1588188544929
 31
0.0
  0
LINE
  5
40C
330
1F
100
AcDbEntity
  8
躯体
  6
Continuous
 62
     2
370
     9
100
AcDbLine
 10
223.4239073057433
 20
-292.6227041875799
 30
0.0
 11
226.887866870777
 21
-289.1588188544929
 31
0.0
  0
LINE
  5
40D
330
1F
100
AcDbEntity
  8
躯体
  6
Continuous
 62
     2
370
     9
100
AcDbLine
 10
223.5756374049831
 20
-290.3497219768535
 30
0.0
 11
224.7664662953969
 21
-289.1588188544929
 31
0.0
  0
LINE
  5
40E
330
1F
100
AcDbEntity
  8
躯体
  6
Continuous
 62
     2
370
     9
100
AcDbLine
 10
207.643383129223
 20
-297.658970617584
 30
0.0
 11
226.594799144848
 21
-297.658970617584
 31
0.0
  0
LINE
  5
40F
330
1F
100
AcDbEntity
  8
躯体
  6
Continuous
 62
     2
370
     9
100
AcDbLine
 10
-235.3446671769426
 20
-305.158772665726
 30
0.0
 11
-234.5255918760558
 21
-292.0534193876432
 31
0.0
  0
LINE
  5
410
330
1F
100
AcDbEntity
  8
躯体
  6
Continuous
 62
     2
370
     9
100
AcDbLine
 10
-223.6549171241555
 20
-289.1588188544929
 30
0.0
 11
-231.4951468802788
 21
-289.1588188544929
 31
0.0
  0
LINE
  5
411
330
1F
100
AcDbEntity
  8
躯体
  6
Continuous
 62
     2
370
     9
100
AcDbLine
 10
-223.6549171241555
 20
-289.1588188544929
 30
0.0
 11
-223.0883046743033
 21
-297.658970617584
 31
0.0
  0
LINE
  5
412
330
1F
100
AcDbEntity
  8
躯体
  6
Continuous
 62
     2
370
     9
100
AcDbLine
 10
-231.8385438661318
 20
-305.158772665726
 30
0.0
 11
-235.3446671769426
 21
-305.158772665726
 31
0.0
  0
LINE
  5
413
330
1F
100
AcDbEntity
  8
躯体
  6
Continuous
 62
     2
370
     9
100
AcDbLine
 10
-234.2227255331504
 20
-305.158772665726
 30
0.0
 11
-235.2786749762459
 21
-304.102674758737
 31
0.0
  0
LINE
  5
414
330
1F
100
AcDbEntity
  8
躯体
  6
Continuous
 62
     2
370
     9
100
AcDbLine
 10
-232.1010280299831
 20
-305.158772665726
 30
0.0
 11
-235.1537426097973
 21
-302.105983853965
 31
0.0
  0
LINE
  5
415
330
1F
100
AcDbEntity
  8
躯体
  6
Continuous
 62
     2
370
     9
100
AcDbLine
 10
-231.7294229043497
 20
-303.4094968396068
 30
0.0
 11
-235.0292556350296
 21
-300.1098125728205
 31
0.0
  0
LINE
  5
416
330
1F
100
AcDbEntity
  8
躯体
  6
Continuous
 62
     2
370
     9
100
AcDbLine
 10
-231.6045647698481
 20
-301.4127317028881
 30
0.0
 11
-234.9043232685811
 21
-298.1128989722083
 31
0.0
  0
LINE
  5
417
330
1F
100
AcDbEntity
  8
躯体
  6
Continuous
 62
     2
370
     9
100
AcDbLine
 10
-231.4800035631335
 20
-299.4161892620098
 30
0.0
 11
-234.7798362938134
 21
-296.1163565313299
 31
0.0
  0
LINE
  5
418
330
1F
100
AcDbEntity
  8
躯体
  6
Continuous
 62
     2
370
     9
100
AcDbLine
 10
-231.3548485008446
 20
-297.4196468211314
 30
0.0
 11
-234.6546812315245
 21
-294.1199625543451
 31
0.0
  0
LINE
  5
419
330
1F
100
AcDbEntity
  8
躯体
  6
Continuous
 62
     2
370
     9
100
AcDbLine
 10
-231.2302872941301
 20
-295.4231043802531
 30
0.0
 11
-234.5273734427788
 21
-292.1262409274448
 31
0.0
  0
LINE
  5
41A
330
1F
100
AcDbEntity
  8
躯体
  6
Continuous
 62
     2
370
     9
100
AcDbLine
 10
-224.7519168338261
 20
-297.658970617584
 30
0.0
 11
-226.7267835462416
 21
-295.6840296732218
 31
0.0
  0
LINE
  5
41B
330
1F
100
AcDbEntity
  8
躯体
  6
Continuous
 62
     2
370
     9
100
AcDbLine
 10
-223.1210409628379
 20
-297.1682974492986
 30
0.0
 11
-226.8780682538007
 21
-293.4111216944422
 31
0.0
  0
LINE
  5
41C
330
1F
100
AcDbEntity
  8
躯体
  6
Continuous
 62
     2
370
     9
100
AcDbLine
 10
-228.6305360536318
 20
-291.6589508223983
 30
0.0
 11
-231.1303710937501
 21
-289.1588188544929
 31
0.0
  0
LINE
  5
41D
330
1F
100
AcDbEntity
  8
躯体
  6
Continuous
 62
     2
370
     9
100
AcDbLine
 10
-223.2726225981841
 20
-294.895389470519
 30
0.0
 11
-229.0092674461571
 21
-289.1588188544929
 31
0.0
  0
LINE
  5
41E
330
1F
100
AcDbEntity
  8
躯体
  6
Continuous
 62
     2
370
     9
100
AcDbLine
 10
-223.4242042335305
 20
-292.6227041875799
 30
0.0
 11
-226.8878668707771
 21
-289.1588188544929
 31
0.0
  0
LINE
  5
41F
330
1F
100
AcDbEntity
  8
躯体
  6
Continuous
 62
     2
370
     9
100
AcDbLine
 10
-223.5758601008235
 20
-290.3497219768535
 30
0.0
 11
-224.7667632231841
 21
-289.1588188544929
 31
0.0
  0
LINE
  5
420
330
1F
100
AcDbEntity
  8
躯体
  6
Continuous
 62
     2
370
     9
100
AcDbLine
 10
204.6663851351352
 20
-300.2869299978628
 30
0.0
 11
202.0039821315456
 21
-321.5871190418873
 31
0.0
  0
LINE
  5
421
330
1F
100
AcDbEntity
  8
通り芯
  6
Continuous
 62
     3
370
     9
100
AcDbLine
 10
-229.9998185441301
 20
-270.9005065260512
 30
0.0
 11
-228.9998399889148
 21
-272.8689150590959
 31
0.0
  0
LINE
  5
422
330
1F
100
AcDbEntity
  8
通り芯
  6
Continuous
 62
     3
370
     9
100
AcDbLine
 10
-248.9997080210093
 20
-281.5867148901771
 30
0.0
 11
-249.9991669525972
 21
-271.5864839463425
 31
0.0
  0
LINE
  5
423
330
1F
100
AcDbEntity
  8
通り芯
  6
Continuous
 62
     3
370
     9
100
AcDbLine
 10
-243.9998152449325
 20
-312.0866175638468
 30
0.0
 11
-246.274875950169
 21
-284.329733787981
 31
0.0
  0
LINE
  5
424
330
1F
100
AcDbEntity
  8
通り芯
  6
Continuous
 62
     3
370
     9
100
AcDbLine
 10
-233.9284700960727
 20
-287.1027423922885
 30
0.0
 11
-237.0255753800676
 21
-312.5102592841804
 31
0.0
  0
LINE
  5
425
330
1F
100
AcDbEntity
  8
通り芯
  6
Continuous
 62
     3
370
     9
100
AcDbLine
 10
-219.9998845280828
 20
-283.5865235367141
 30
0.0
 11
-218.0003728093328
 21
-280.5210410620521
 31
0.0
  0
LINE
  5
426
330
1F
100
AcDbEntity
  8
通り芯
  6
JWW_CENTER1
 62
     3
370
     9
100
AcDbLine
 10
-194.9998267921242
 20
-276.6958688439355
 30
0.0
 11
-194.9998267921242
 21
-287.6343915952024
 31
0.0
  0
LINE
  5
427
330
1F
100
AcDbEntity
  8
通り芯
  6
JWW_CENTER2
 62
     3
370
     9
100
AcDbLine
 10
145.8469205289273
 20
-276.1375703721237
 30
0.0
 11
129.8445912953969
 21
-275.8220103663172
 31
0.0
  0
LINE
  5
428
330
1F
100
AcDbEntity
  8
通り芯
  6
Continuous
 62
     3
370
     9
100
AcDbLine
 10
148.8617768158783
 20
-300.7016638845815
 30
0.0
 11
126.1724853515625
 21
-300.254267941275
 31
0.0
  0
LINE
  5
429
330
1F
100
AcDbEntity
  8
通り芯
  6
Continuous
 62
     3
370
     9
100
AcDbLine
 10
110.0001649598817
 20
-267.9851952797462
 30
0.0
 11
111.1507601351352
 21
-278.8312250253121
 31
0.0
  0
LINE
  5
42A
330
1F
100
AcDbEntity
  8
通り芯
  6
Continuous
 62
     3
370
     9
100
AcDbLine
 10
166.0005971547719
 20
-269.0894697202024
 30
0.0
 11
164.8142221811655
 21
-279.1457457838637
 31
0.0
  0
LINE
  5
42B
330
1F
100
AcDbEntity
  8
通り芯
  6
Continuous
 62
     3
370
     9
100
AcDbLine
 10
102.0003365181587
 20
-269.8644512446955
 30
0.0
 11
103.0003893053209
 21
-267.8788951319422
 31
0.0
  0
LINE
  5
42C
330
1F
100
AcDbEntity
  8
通り芯
  6
Continuous
 62
     3
370
     9
100
AcDbLine
 10
174.0004255964948
 20
-271.2845083867986
 30
0.0
 11
173.0003728093328
 21
-269.2590897186187
 31
0.0
  0
LINE
  5
42D
330
1F
100
AcDbEntity
  8
通り芯
  6
JWW_CENTER2
 62
     3
370
     9
100
AcDbLine
 10
138.0001583614864
 20
-266.5936432052108
 30
0.0
 11
138.0001583614864
 21
-284.8556671309921
 31
0.0
  0
LINE
  5
42E
330
1F
100
AcDbEntity
  8
通り芯
  6
Continuous
 62
     3
370
     9
100
AcDbLine
 10
230.0001154719172
 20
-270.9005065260512
 30
0.0
 11
228.9999142208614
 21
-272.8689150590959
 31
0.0
  0
LINE
  5
42F
330
1F
100
AcDbEntity
  8
通り芯
  6
Continuous
 62
     3
370
     9
100
AcDbLine
 10
249.0000791807433
 20
-281.5867148901771
 30
0.0
 11
249.9992411845439
 21
-271.5864839463425
 31
0.0
  0
LINE
  5
430
330
1F
100
AcDbEntity
  8
通り芯
  6
Continuous
 62
     3
370
     9
100
AcDbLine
 10
244.0001121727195
 20
-312.0866175638468
 30
0.0
 11
246.2750244140625
 21
-284.329733787981
 31
0.0
  0
LINE
  5
431
330
1F
100
AcDbEntity
  8
通り芯
  6
Continuous
 62
     3
370
     9
100
AcDbLine
 10
233.9290639516469
 20
-287.1027423922885
 30
0.0
 11
237.0258723078547
 21
-312.5102592841804
 31
0.0
  0
LINE
  5
432
330
1F
100
AcDbEntity
  8
通り芯
  6
Continuous
 62
     3
370
     9
100
AcDbLine
 10
189.4461636929898
 20
-311.9760119631288
 30
0.0
 11
185.6490511507602
 21
-282.964237126769
 31
0.0
  0
LINE
  5
433
330
1F
100
AcDbEntity
  8
通り芯
  6
Continuous
 62
     3
370
     9
100
AcDbLine
 10
150.1733068517736
 20
-307.7287568955612
 30
0.0
 11
124.5848124736064
 21
-307.2242765851728
 31
0.0
  0
LINE
  5
434
330
1F
100
AcDbEntity
  8
通り芯
  6
JWW_CENTER2
 62
     3
370
     9
100
AcDbLine
 10
-145.846697833087
 20
-276.1375703721237
 30
0.0
 11
-129.8441459037163
 21
-275.8220103663172
 31
0.0
  0
LINE
  5
435
330
1F
100
AcDbEntity
  8
通り芯
  6
Continuous
 62
     3
370
     9
100
AcDbLine
 10
-148.8614056561445
 20
-300.7016638845815
 30
0.0
 11
-126.1725595835094
 21
-300.254267941275
 31
0.0
  0
LINE
  5
436
330
1F
100
AcDbEntity
  8
通り芯
  6
Continuous
 62
     3
370
     9
100
AcDbLine
 10
-109.9998680320947
 20
-267.9851952797462
 30
0.0
 11
-111.1506859031884
 21
-278.8312250253121
 31
0.0
  0
LINE
  5
437
330
1F
100
AcDbEntity
  8
通り芯
  6
Continuous
 62
     3
370
     9
100
AcDbLine
 10
-166.0001517630913
 20
-269.0894697202024
 30
0.0
 11
-164.8139252533784
 21
-279.1457457838637
 31
0.0
  0
LINE
  5
438
330
1F
100
AcDbEntity
  8
通り芯
  6
Continuous
 62
     3
370
     9
100
AcDbLine
 10
-101.9999653584248
 20
-269.8644512446955
 30
0.0
 11
-103.0000923775337
 21
-267.8788951319422
 31
0.0
  0
LINE
  5
439
330
1F
100
AcDbEntity
  8
通り芯
  6
Continuous
 62
     3
370
     9
100
AcDbLine
 10
-173.9999059728674
 20
-271.2845083867986
 30
0.0
 11
-172.999927417652
 21
-269.2590897186187
 31
0.0
  0
LINE
  5
43A
330
1F
100
AcDbEntity
  8
通り芯
  6
JWW_CENTER2
 62
     3
370
     9
100
AcDbLine
 10
-137.9998614336994
 20
-266.5936432052108
 30
0.0
 11
-137.9998614336994
 21
-284.8556671309921
 31
0.0
  0
LINE
  5
43B
330
1F
100
AcDbEntity
  8
通り芯
  6
Continuous
 62
     3
370
     9
100
AcDbLine
 10
-150.1733068517738
 20
-307.7287568955612
 30
0.0
 11
-124.5846640097128
 21
-307.2242765851728
 31
0.0
  0
LINE
  5
43C
330
1F
100
AcDbEntity
  8
通り芯
  6
Continuous
 62
     3
370
     9
100
AcDbLine
 10
-229.9577290302998
 20
-283.5865235367141
 30
0.0
 11
-220.0020372545398
 21
-283.5865235367141
 31
0.0
  0
LINE
  5
43D
330
1F
100
AcDbEntity
  8
通り芯
  6
Continuous
 62
     3
370
     9
100
AcDbLine
 10
-69.01997334248313
 20
-288.3884397107006
 30
0.0
 11
-105.9087969805744
 21
-287.2152037916762
 31
0.0
  0
LINE
  5
43E
330
1F
100
AcDbEntity
  8
通り芯
  6
JWW_DASHED1
 62
     3
370
     9
100
AcDbLine
 10
220.0000329919764
 20
-283.5865235367141
 30
0.0
 11
218.0005212732264
 21
-280.5210410620521
 31
0.0
  0
LINE
  5
43F
330
1F
100
AcDbEntity
  8
通り芯
  6
JWW_CENTER1
 62
     3
370
     9
100
AcDbLine
 10
195.0000494879645
 20
-276.6958688439355
 30
0.0
 11
195.0000494879645
 21
-287.6343915952024
 31
0.0
  0
LINE
  5
440
330
1F
100
AcDbEntity
  8
通り芯
  6
Continuous
 62
     3
370
     9
100
AcDbLine
 10
170.7400100295608
 20
-285.1532630056753
 30
0.0
 11
185.8720439189189
 21
-284.6719430626855
 31
0.0
  0
LINE
  5
441
330
1F
100
AcDbEntity
  8
通り芯
  6
Continuous
 62
     3
370
     9
100
AcDbLine
 10
69.02027027027032
 20
-288.3884397107006
 30
0.0
 11
105.9089454444678
 21
-287.2152037916762
 31
0.0
  0
LINE
  5
442
330
1F
100
AcDbEntity
  8
通り芯
  6
Continuous
 62
     3
370
     9
100
AcDbLine
 10
201.4001794763514
 20
-307.5866769494043
 30
0.0
 11
200.1756492820945
 21
-284.2170496927531
 31
0.0
  0
LINE
  5
443
330
1F
100
AcDbEntity
  8
通り芯
  6
Continuous
 62
     3
370
     9
100
AcDbLine
 10
200.1756492820945
 20
-284.2170496927531
 30
0.0
 11
220.0000329919764
 21
-283.5865235367141
 31
0.0
  0
LINE
  5
444
330
1F
100
AcDbEntity
  8
通り芯
  6
Continuous
 62
     3
370
     9
100
AcDbLine
 10
220.0000329919764
 20
-283.5865235367141
 30
0.0
 11
229.9585455817145
 21
-283.5865235367141
 31
0.0
  0
LINE
  5
445
330
1F
100
AcDbEntity
  8
通り芯
  6
JWW_DASHED1
 62
     3
370
     9
100
AcDbLine
 10
185.8727862383869
 20
-284.6719430626855
 30
0.0
 11
220.0000329919764
 21
-283.5865235367141
 31
0.0
  0
LINE
  5
446
330
1F
100
AcDbEntity
  8
通り芯
  6
JWW_DASHED1
 62
     3
370
     9
100
AcDbLine
 10
188.205005542652
 20
-284.5978595797885
 30
0.0
 11
187.6239178631756
 21
-282.8983933899659
 31
0.0
  0
LINE
  5
447
330
1F
100
AcDbEntity
  8
通り芯
  6
JWW_DASHED1
 62
     3
370
     9
100
AcDbLine
 10
201.8613083298142
 20
-284.1636026910638
 30
0.0
 11
202.7201719541808
 21
-282.0258710873899
 31
0.0
  0
LINE
  5
448
330
1F
100
AcDbEntity
  8
通り芯
  6
Continuous
 62
     3
370
     9
100
AcDbLine
 10
61.02014490076016
 20
-288.3884397107006
 30
0.0
 11
60.02632759712827
 21
-279.7659536992986
 31
0.0
  0
LINE
  5
449
330
1F
100
AcDbEntity
  8
通り芯
  6
Continuous
 62
     3
370
     9
100
AcDbLine
 10
69.02027027027032
 20
-288.3884397107006
 30
0.0
 11
69.99270877322624
 21
-279.9513851023814
 31
0.0
  0
LINE
  5
44A
330
1F
100
AcDbEntity
  8
通り芯
  6
Continuous
 62
     3
370
     9
100
AcDbLine
 10
-61.01977374102626
 20
-288.3884397107006
 30
0.0
 11
-60.02595643739454
 21
-279.7659536992986
 31
0.0
  0
LINE
  5
44B
330
1F
100
AcDbEntity
  8
通り芯
  6
Continuous
 62
     3
370
     9
100
AcDbLine
 10
-69.01997334248313
 20
-288.3884397107006
 30
0.0
 11
-69.99233761349251
 21
-279.9513851023814
 31
0.0
  0
LINE
  5
44C
330
1F
100
AcDbEntity
  8
通り芯
  6
JWW_CENTER2
 62
     3
370
     9
100
AcDbLine
 10
0.0
 20
-255.9175303858484
 30
0.0
 11
0.0
 21
-326.604085165726
 31
0.0
  0
LINE
  5
44D
330
1F
100
AcDbEntity
  8
通り芯
  6
Continuous
 62
     3
370
     9
100
AcDbLine
 10
203.7539260451858
 20
-307.5866769494043
 30
0.0
 11
201.4001794763514
 21
-307.5866769494043
 31
0.0
  0
LINE
  5
44E
330
1F
100
AcDbEntity
  8
通り芯
  6
Continuous
 62
     3
370
     9
100
AcDbLine
 10
192.4207862647803
 20
-314.5867495317522
 30
0.0
 11
202.8790283203125
 21
-314.5867495317522
 31
0.0
  0
LINE
  5
44F
330
1F
100
AcDbEntity
  8
躯体
  6
Continuous
 62
     2
370
     9
100
AcDbLine
 10
280.0000824799409
 20
-321.5866736502065
 30
0.0
 11
138.9538904138512
 21
-321.5866736502065
 31
0.0
  0
LINE
  5
450
330
1F
100
AcDbEntity
  8
躯体
  6
Continuous
 62
     2
370
     9
100
AcDbLine
 10
-225.7950241501267
 20
-283.8880537045774
 30
0.0
 11
-226.0963316221495
 21
-283.5865235367141
 31
0.0
  0
LINE
  5
451
330
1F
100
AcDbEntity
  8
躯体
  6
Continuous
 62
     2
370
     9
100
AcDbLine
 10
-227.3573097022805
 20
-284.4468718000165
 30
0.0
 11
-228.2175095016892
 21
-283.5865235367141
 31
0.0
  0
LINE
  5
452
330
1F
100
AcDbEntity
  8
躯体
  6
Continuous
 62
     2
370
     9
100
AcDbLine
 10
-228.679009514886
 20
-285.246572562791
 30
0.0
 11
-230.3222078890414
 21
-283.6032257247421
 31
0.0
  0
LINE
  5
453
330
1F
100
AcDbEntity
  8
躯体
  6
Continuous
 62
     2
370
     9
100
AcDbLine
 10
-229.793231036212
 20
-286.2534546890579
 30
0.0
 11
-231.9363815720017
 21
-284.1103041532682
 31
0.0
  0
LINE
  5
454
330
1F
100
AcDbEntity
  8
躯体
  6
Continuous
 62
     2
370
     9
100
AcDbLine
 10
-230.7061355178421
 20
-287.4619507828079
 30
0.0
 11
-233.0809639595651
 21
-285.0874935008189
 31
0.0
  0
LINE
  5
455
330
1F
100
AcDbEntity
  8
躯体
  6
Continuous
 62
     2
370
     9
100
AcDbLine
 10
-231.4005753800676
 20
-288.8886145681753
 30
0.0
 11
-233.8033892657306
 21
-286.4860233783527
 31
0.0
  0
LINE
  5
456
330
1F
100
AcDbEntity
  8
躯体
  6
Continuous
 62
     2
370
     9
100
AcDbLine
 10
-230.7519366290119
 20
-291.6589508223983
 30
0.0
 11
-234.0783443966428
 21
-288.3325430547674
 31
0.0
  0
LINE
  5
457
330
1F
100
AcDbEntity
  8
躯体
  6
Continuous
 62
     2
370
     9
100
AcDbLine
 10
-231.1054291596284
 20
-293.4265619393746
 30
0.0
 11
-234.3088345914274
 21
-290.2231565075756
 31
0.0
  0
LINE
  5
458
330
1F
100
AcDbEntity
  8
躯体
  6
Continuous
 62
     2
370
     9
100
AcDbLine
 10
235.3446671769425
 20
-305.158772665726
 30
0.0
 11
234.5177232896959
 21
-291.9324213143746
 31
0.0
  0
LINE
  5
459
330
1F
100
AcDbEntity
  8
躯体
  6
Continuous
 62
     2
370
     9
100
AcDbLine
 10
231.4005753800675
 20
-288.8886145681753
 30
0.0
 11
233.8039088893581
 21
-286.485206826938
 31
0.0
  0
LINE
  5
45A
330
1F
100
AcDbEntity
  8
躯体
  6
Continuous
 62
     2
370
     9
100
AcDbLine
 10
230.7059128220017
 20
-287.4619507828079
 30
0.0
 11
233.0811866554053
 21
-285.0868254132977
 31
0.0
  0
LINE
  5
45B
330
1F
100
AcDbEntity
  8
躯体
  6
Continuous
 62
     2
370
     9
100
AcDbLine
 10
229.792859876478
 20
-286.2534546890579
 30
0.0
 11
231.9366784997889
 21
-284.110007225481
 31
0.0
  0
LINE
  5
45C
330
1F
100
AcDbEntity
  8
躯体
  6
Continuous
 62
     2
370
     9
100
AcDbLine
 10
228.678638355152
 20
-285.246572562791
 30
0.0
 11
230.3219851932009
 21
-283.6031514927952
 31
0.0
  0
LINE
  5
45D
330
1F
100
AcDbEntity
  8
躯体
  6
Continuous
 62
     2
370
     9
100
AcDbLine
 10
227.3573097022803
 20
-284.4468718000165
 30
0.0
 11
228.217212573902
 21
-283.5865235367141
 31
0.0
  0
LINE
  5
45E
330
1F
100
AcDbEntity
  8
躯体
  6
Continuous
 62
     2
370
     9
100
AcDbLine
 10
225.7947272223395
 20
-283.8880537045774
 30
0.0
 11
226.0961089263091
 21
-283.5865235367141
 31
0.0
  0
LINE
  5
45F
330
1F
100
AcDbEntity
  8
躯体
  6
Continuous
 62
     2
370
     9
100
AcDbLine
 10
-280.0001567118877
 20
-321.5866736502065
 30
0.0
 11
-278.8334532041808
 21
-314.5866752998054
 31
0.0
  0
LINE
  5
460
330
1F
100
AcDbEntity
  8
躯体
  6
Continuous
 62
     2
370
     9
100
AcDbLine
 10
-265.6024994721284
 20
-314.5866752998054
 30
0.0
 11
-278.8334532041808
 21
-314.5866752998054
 31
0.0
  0
LINE
  5
461
330
1F
100
AcDbEntity
  8
躯体
  6
Continuous
 62
     2
370
     9
100
AcDbLine
 10
-260.6140384158574
 20
-309.9267648400293
 30
0.0
 11
-258.000108873522
 21
-271.5861870185554
 31
0.0
  0
LINE
  5
462
330
1F
100
AcDbEntity
  8
躯体
  6
Continuous
 62
     2
370
     9
100
AcDbLine
 10
265.6024994721284
 20
-314.5866752998054
 30
0.0
 11
278.8333047402872
 21
-314.5866752998054
 31
0.0
  0
LINE
  5
463
330
1F
100
AcDbEntity
  8
躯体
  6
Continuous
 62
     2
370
     9
100
AcDbLine
 10
280.0000824799409
 20
-321.5866736502065
 30
0.0
 11
278.8333047402872
 21
-314.5866752998054
 31
0.0
  0
LINE
  5
464
330
1F
100
AcDbEntity
  8
通り芯
  6
Continuous
 62
     3
370
     9
100
AcDbLine
 10
-170.7398615656674
 20
-285.1532630056753
 30
0.0
 11
-220.0020372545398
 21
-283.5865235367141
 31
0.0
  0
LINE
  5
465
330
1F
100
AcDbEntity
  8
通り芯
  6
Continuous
 62
     3
370
     9
100
AcDbLine
 10
-188.2047086148649
 20
-284.5978595797885
 30
0.0
 11
-187.6237693992821
 21
-282.898319158019
 31
0.0
  0
LINE
  5
466
330
1F
100
AcDbEntity
  8
通り芯
  6
Continuous
 62
     3
370
     9
100
AcDbLine
 10
-201.8610856339738
 20
-284.1634542271702
 30
0.0
 11
-202.7197265625001
 21
-282.025796855443
 31
0.0
  0
LINE
  5
467
330
1F
100
AcDbEntity
  8
0-E
  6
Continuous
 62
     7
370
     9
100
AcDbLine
 10
134.4999736064189
 20
-374.6027588882766
 30
0.0
 11
145.1532972181166
 21
-388.4864341284583
 31
0.0
  0
LINE
  5
468
330
1F
100
AcDbEntity
  8
0-E
  6
Continuous
 62
     7
370
     9
100
AcDbLine
 10
134.4999736064189
 20
-374.6027588882766
 30
0.0
 11
185.6735476932009
 21
-463.2380787784793
 31
0.0
  0
LINE
  5
469
330
1F
100
AcDbEntity
  8
躯体
  6
Continuous
 62
     2
370
     9
100
AcDbLine
 10
121.0461755701012
 20
-321.5866736502065
 30
0.0
 11
-280.0001567118877
 21
-321.5866736502065
 31
0.0
  0
LINE
  5
46A
330
1F
100
AcDbEntity
  8
躯体
  6
Continuous
 62
     2
370
     9
100
AcDbLine
 10
-225.0004453916808
 20
-321.5866736502065
 30
0.0
 11
-227.000254038218
 21
-291.5867231381711
 31
0.0
  0
LINE
  5
46B
330
1F
100
AcDbEntity
  8
躯体
  6
Continuous
 62
     2
370
     9
100
AcDbLine
 10
-223.0883046743033
 20
-297.658970617584
 30
0.0
 11
-226.5954672323691
 21
-297.658970617584
 31
0.0
  0
ARC
  5
46C
330
1F
100
AcDbEntity
  8
躯体
  6
Continuous
 62
     2
370
     9
100
AcDbCircle
 10
-237.1972738729941
 20
-310.5866868469971
 30
0.0
 40
5.000000064437454
100
AcDbArc
 50
270.0
 51
356.4232940673828
  0
ARC
  5
46D
330
1F
100
AcDbEntity
  8
躯体
  6
Continuous
 62
     2
370
     9
100
AcDbCircle
 10
-245.3294578758446
 20
-310.5866868469971
 30
0.0
 40
5.000000064437454
100
AcDbArc
 50
183.9006500244141
 51
269.9998474121094
  0
ARC
  5
46E
330
1F
100
AcDbEntity
  8
躯体
  6
Continuous
 62
     2
370
     9
100
AcDbCircle
 10
237.1973481049408
 20
-310.5866868469971
 30
0.0
 40
5.000000064437454
100
AcDbArc
 50
183.5767059326172
 51
270.0
  0
ARC
  5
46F
330
1F
100
AcDbEntity
  8
躯体
  6
Continuous
 62
     2
370
     9
100
AcDbCircle
 10
245.3291609480573
 20
-310.5866868469971
 30
0.0
 40
5.000000064437454
100
AcDbArc
 50
270.0001525878906
 51
356.0993499755859
  0
ARC
  5
470
330
1F
100
AcDbEntity
  8
躯体
  6
Continuous
 62
     2
370
     9
100
AcDbCircle
 10
223.8954286317567
 20
-291.6592477501855
 30
0.0
 40
8.000000103099927
100
AcDbArc
 50
18.21334838867188
 51
90.0
  0
ARC
  5
471
330
1F
100
AcDbEntity
  8
躯体
  6
Continuous
 62
     2
370
     9
100
AcDbCircle
 10
207.643383129223
 20
-300.6588320512834
 30
0.0
 40
2.99999974869393
100
AcDbArc
 50
90.0
 51
172.8746337890625
  0
ARC
  5
472
330
1F
100
AcDbEntity
  8
躯体
  6
Continuous
 62
     2
370
     9
100
AcDbCircle
 10
-223.895725559544
 20
-291.6592477501855
 30
0.0
 40
8.000000103099927
100
AcDbArc
 50
90.0
 51
161.7866516113281
  0
ARC
  5
473
330
1F
100
AcDbEntity
  8
通り芯
  6
Continuous
 62
     3
370
     9
100
AcDbCircle
 10
0.0
 20
-7267.121415850903
 30
0.0
 40
6997.999432538008
100
AcDbArc
 50
91.42475891113283
 51
91.87525939941408
  0
ARC
  5
474
330
1F
100
AcDbEntity
  8
通り芯
  6
Continuous
 62
     3
370
     9
100
AcDbCircle
 10
-249.264938766892
 20
-284.5749961401771
 30
0.0
 40
2.999999458725388
100
AcDbArc
 50
4.685821533203125
 51
84.92924499511719
  0
ARC
  5
475
330
1F
100
AcDbEntity
  8
通り芯
  6
Continuous
 62
     3
370
     9
100
AcDbCircle
 10
-229.9577290302998
 20
-287.5865862214692
 30
0.0
 40
3.999999761581421
100
AcDbArc
 50
90.0
 51
173.0502624511719
  0
ARC
  5
476
330
1F
100
AcDbEntity
  8
通り芯
  6
Continuous
 62
     3
370
     9
100
AcDbCircle
 10
0.0
 20
-7267.121415850903
 30
0.0
 40
6997.999432538008
100
AcDbArc
 50
89.16485595703125
 51
90.83514404296874
  0
ARC
  5
477
330
1F
100
AcDbEntity
  8
通り芯
  6
Continuous
 62
     3
370
     9
100
AcDbCircle
 10
0.0
 20
-7267.121415850903
 30
0.0
 40
6999.999538112332
100
AcDbArc
 50
87.95329284667969
 51
92.04670715332031
  0
ARC
  5
478
330
1F
100
AcDbEntity
  8
通り芯
  6
Continuous
 62
     3
370
     9
100
AcDbCircle
 10
-240.4999274176521
 20
-312.0866175638468
 30
0.0
 40
3.499999755137676
100
AcDbArc
 50
180.0
 51
353.0490722656251
  0
ARC
  5
479
330
1F
100
AcDbEntity
  8
通り芯
  6
Continuous
 62
     3
370
     9
100
AcDbCircle
 10
0.0
 20
-7267.121415850903
 30
0.0
 40
6989.99901024071
100
AcDbArc
 50
91.490234375
 51
91.50038146972655
  0
CIRCLE
  5
47A
330
1F
100
AcDbEntity
  8
通り芯
  6
Continuous
 62
     3
370
     9
100
AcDbCircle
 10
138.0001583614864
 20
-275.9830194589059
 30
0.0
 40
5.499998621038489
  0
ARC
  5
47B
330
1F
100
AcDbEntity
  8
通り芯
  6
Continuous
 62
     3
370
     9
100
AcDbCircle
 10
138.0001583614864
 20
-275.9830194589059
 30
0.0
 40
26.999998608151
100
AcDbArc
 50
186.0559844970703
 51
244.0198822021484
  0
ARC
  5
47C
330
1F
100
AcDbEntity
  8
通り芯
  6
Continuous
 62
     3
370
     9
100
AcDbCircle
 10
138.0001583614864
 20
-275.9830194589059
 30
0.0
 40
26.999998608151
100
AcDbArc
 50
293.7209167480469
 51
353.2721710205078
  0
ARC
  5
47D
330
1F
100
AcDbEntity
  8
通り芯
  6
Continuous
 62
     3
370
     9
100
AcDbCircle
 10
0.0
 20
-7267.121415850903
 30
0.0
 40
6997.999432538008
100
AcDbArc
 50
88.12474060058595
 51
88.5752410888672
  0
ARC
  5
47E
330
1F
100
AcDbEntity
  8
通り芯
  6
Continuous
 62
     3
370
     9
100
AcDbCircle
 10
249.2652356946791
 20
-284.5749961401771
 30
0.0
 40
2.999999458725388
100
AcDbArc
 50
95.07075500488283
 51
175.3141784667969
  0
ARC
  5
47F
330
1F
100
AcDbEntity
  8
通り芯
  6
Continuous
 62
     3
370
     9
100
AcDbCircle
 10
229.9585455817145
 20
-287.5865862214692
 30
0.0
 40
3.999999761581421
100
AcDbArc
 50
6.949737548828124
 51
90.0
  0
ARC
  5
480
330
1F
100
AcDbEntity
  8
通り芯
  6
Continuous
 62
     3
370
     9
100
AcDbCircle
 10
240.5002243454392
 20
-312.0866175638468
 30
0.0
 40
3.499999755137676
100
AcDbArc
 50
186.950927734375
 51
0.0000000000000254
  0
ARC
  5
481
330
1F
100
AcDbEntity
  8
通り芯
  6
Continuous
 62
     3
370
     9
100
AcDbCircle
 10
192.4207862647803
 20
-311.5865911702657
 30
0.0
 40
2.999999458725388
100
AcDbArc
 50
187.457015991211
 51
270.0
  0
ARC
  5
482
330
1F
100
AcDbEntity
  8
通り芯
  6
Continuous
 62
     3
370
     9
100
AcDbCircle
 10
181.682689769848
 20
-283.4834153626221
 30
0.0
 40
3.999999761581421
100
AcDbArc
 50
7.457244873046875
 51
88.51002502441406
  0
ARC
  5
483
330
1F
100
AcDbEntity
  8
通り芯
  6
Continuous
 62
     3
370
     9
100
AcDbCircle
 10
138.0001583614864
 20
-275.9830194589059
 30
0.0
 40
33.99999927830052
100
AcDbArc
 50
185.6735076904297
 51
246.7609252929688
  0
ARC
  5
484
330
1F
100
AcDbEntity
  8
通り芯
  6
Continuous
 62
     3
370
     9
100
AcDbCircle
 10
99.39212283572624
 20
-280.8283613217649
 30
0.0
 40
4.999999484500369
100
AcDbArc
 50
17.26959228515625
 51
89.1851043701172
  0
ARC
  5
485
330
1F
100
AcDbEntity
  8
通り芯
  6
Continuous
 62
     3
370
     9
100
AcDbCircle
 10
0.0
 20
-7267.121415850903
 30
0.0
 40
6989.99901024071
100
AcDbArc
 50
88.50976562499999
 51
88.54876708984374
  0
ARC
  5
486
330
1F
100
AcDbEntity
  8
通り芯
  6
Continuous
 62
     3
370
     9
100
AcDbCircle
 10
176.8776558540962
 20
-285.3625970956246
 30
0.0
 40
5.999998917450776
100
AcDbArc
 50
88.54942321777344
 51
163.8992004394532
  0
ARC
  5
487
330
1F
100
AcDbEntity
  8
通り芯
  6
Continuous
 62
     3
370
     9
100
AcDbCircle
 10
138.0001583614864
 20
-275.9830194589059
 30
0.0
 40
33.99999927830052
100
AcDbArc
 50
290.9797668457031
 51
346.8837585449219
  0
CIRCLE
  5
488
330
1F
100
AcDbEntity
  8
通り芯
  6
Continuous
 62
     3
370
     9
100
AcDbCircle
 10
-137.9998614336994
 20
-275.9830194589059
 30
0.0
 40
5.499998621038489
  0
ARC
  5
489
330
1F
100
AcDbEntity
  8
通り芯
  6
Continuous
 62
     3
370
     9
100
AcDbCircle
 10
-137.9998614336994
 20
-275.9830194589059
 30
0.0
 40
26.999998608151
100
AcDbArc
 50
295.9801177978517
 51
353.9440155029297
  0
ARC
  5
48A
330
1F
100
AcDbEntity
  8
通り芯
  6
Continuous
 62
     3
370
     9
100
AcDbCircle
 10
-137.9998614336994
 20
-275.9830194589059
 30
0.0
 40
26.999998608151
100
AcDbArc
 50
186.7278289794922
 51
246.2790832519531
  0
ARC
  5
48B
330
1F
100
AcDbEntity
  8
通り芯
  6
Continuous
 62
     3
370
     9
100
AcDbCircle
 10
-137.9998614336994
 20
-275.9830194589059
 30
0.0
 40
33.99999927830052
100
AcDbArc
 50
293.2390747070312
 51
354.3264923095704
  0
ARC
  5
48C
330
1F
100
AcDbEntity
  8
通り芯
  6
Continuous
 62
     3
370
     9
100
AcDbCircle
 10
-99.39175167599251
 20
-280.8283613217649
 30
0.0
 40
4.999999484500369
100
AcDbArc
 50
90.81489562988281
 51
162.7304077148438
  0
ARC
  5
48D
330
1F
100
AcDbEntity
  8
通り芯
  6
Continuous
 62
     3
370
     9
100
AcDbCircle
 10
-176.8775073902027
 20
-285.3625970956246
 30
0.0
 40
5.999998917450776
100
AcDbArc
 50
16.10079956054688
 51
91.45057678222656
  0
ARC
  5
48E
330
1F
100
AcDbEntity
  8
通り芯
  6
Continuous
 62
     3
370
     9
100
AcDbCircle
 10
-137.9998614336994
 20
-275.9830194589059
 30
0.0
 40
33.99999927830052
100
AcDbArc
 50
193.1162414550781
 51
249.0202331542969
  0
ARC
  5
48F
330
1F
100
AcDbEntity
  8
通り芯
  6
Continuous
 62
     3
370
     9
100
AcDbCircle
 10
0.0
 20
-7267.121415850903
 30
0.0
 40
6991.999115815033
100
AcDbArc
 50
90.6146240234375
 51
90.81507873535156
  0
ARC
  5
490
330
1F
100
AcDbEntity
  8
通り芯
  6
Continuous
 62
     3
370
     9
100
AcDbCircle
 10
0.0
 20
-7267.121415850903
 30
0.0
 40
6991.999115815033
100
AcDbArc
 50
89.54841613769533
 51
90.45158386230469
  0
ARC
  5
491
330
1F
100
AcDbEntity
  8
通り芯
  6
Continuous
 62
     3
370
     9
100
AcDbCircle
 10
0.0
 20
-7270.122761923538
 30
0.0
 40
6981.999181798987
100
AcDbArc
 50
89.43360900878906
 51
90.56639099121094
  0
ARC
  5
492
330
1F
100
AcDbEntity
  8
通り芯
  6
JWW_DASHED1
 62
     3
370
     9
100
AcDbCircle
 10
0.0
 20
-7267.121415850903
 30
0.0
 40
6989.99901024071
100
AcDbArc
 50
88.21279907226564
 51
88.31455993652345
  0
ARC
  5
493
330
1F
100
AcDbEntity
  8
通り芯
  6
JWW_DASHED1
 62
     3
370
     9
100
AcDbCircle
 10
182.8926705025337
 20
-284.5156105827446
 30
0.0
 40
4.999999484500369
100
AcDbArc
 50
18.87274169921875
 51
88.50270080566406
  0
ARC
  5
494
330
1F
100
AcDbEntity
  8
通り芯
  6
JWW_DASHED1
 62
     3
370
     9
100
AcDbCircle
 10
205.5038699588259
 20
-283.1440269018958
 30
0.0
 40
2.999999458725388
100
AcDbArc
 50
88.32421875000001
 51
158.1173706054688
  0
ARC
  5
495
330
1F
100
AcDbEntity
  8
通り芯
  6
Continuous
 62
     3
370
     9
100
AcDbCircle
 10
55.05902264569249
 20
-280.338504704894
 30
0.0
 40
5.000000064437454
100
AcDbArc
 50
6.5753173828125
 51
89.44197082519531
  0
ARC
  5
496
330
1F
100
AcDbEntity
  8
通り芯
  6
Continuous
 62
     3
370
     9
100
AcDbCircle
 10
74.959716796875
 20
-280.5240103399236
 30
0.0
 40
5.000000064437454
100
AcDbArc
 50
89.38586425781251
 51
173.425537109375
  0
ARC
  5
497
330
1F
100
AcDbEntity
  8
通り芯
  6
Continuous
 62
     3
370
     9
100
AcDbCircle
 10
0.0
 20
-7267.121415850903
 30
0.0
 40
6991.999115815033
100
AcDbArc
 50
89.18492126464845
 51
89.3852996826172
  0
ARC
  5
498
330
1F
100
AcDbEntity
  8
通り芯
  6
Continuous
 62
     3
370
     9
100
AcDbCircle
 10
-55.05902264569266
 20
-280.338504704894
 30
0.0
 40
5.000000064437454
100
AcDbArc
 50
90.55802917480469
 51
173.4246826171875
  0
ARC
  5
499
330
1F
100
AcDbEntity
  8
通り芯
  6
Continuous
 62
     3
370
     9
100
AcDbCircle
 10
-74.959716796875
 20
-280.5240103399236
 30
0.0
 40
5.000000064437454
100
AcDbArc
 50
6.574462890625012
 51
90.61413574218753
  0
ARC
  5
49A
330
1F
100
AcDbEntity
  8
躯体
  6
Continuous
 62
     2
370
     9
100
AcDbCircle
 10
-265.6024994721284
 20
-309.5867082917817
 30
0.0
 40
5.000000064437454
100
AcDbArc
 50
270.0
 51
356.1002655029297
  0
ARC
  5
49B
330
1F
100
AcDbEntity
  8
躯体
  6
Continuous
 62
     2
370
     9
100
AcDbCircle
 10
265.6024994721284
 20
-309.5867082917817
 30
0.0
 40
5.000000064437454
100
AcDbArc
 50
183.8997344970703
 51
270.0
  0
ARC
  5
49C
330
1F
100
AcDbEntity
  8
通り芯
  6
Continuous
 62
     3
370
     9
100
AcDbCircle
 10
-182.8925220386402
 20
-284.5156105827446
 30
0.0
 40
4.999999484500369
100
AcDbArc
 50
91.49729919433594
 51
161.1279296875
  0
ARC
  5
49D
330
1F
100
AcDbEntity
  8
通り芯
  6
Continuous
 62
     3
370
     9
100
AcDbCircle
 10
0.0
 20
-7267.121415850903
 30
0.0
 40
6989.99901024071
100
AcDbArc
 50
91.45123291015625
 51
91.490234375
  0
ARC
  5
49E
330
1F
100
AcDbEntity
  8
通り芯
  6
Continuous
 62
     3
370
     9
100
AcDbCircle
 10
0.0
 20
-7267.121415850903
 30
0.0
 40
6989.99901024071
100
AcDbArc
 50
91.68544006347656
 51
91.78720092773438
  0
ARC
  5
49F
330
1F
100
AcDbEntity
  8
通り芯
  6
Continuous
 62
     3
370
     9
100
AcDbCircle
 10
-205.5035730310389
 20
-283.1440269018958
 30
0.0
 40
2.999999458725388
100
AcDbArc
 50
21.88459777832031
 51
91.68547058105469
  0
LINE
  5
4A0
330
1F
100
AcDbEntity
  8
寸法
  6
Continuous
 62
     7
370
     9
100
AcDbLine
 10
235.2783038165119
 20
-304.102674758737
 30
0.0
 11
244.0250541068413
 21
-316.2885169119253
 31
0.0
  0
LINE
  5
4A1
330
1F
100
AcDbEntity
  8
寸法
  6
Continuous
 62
     7
370
     9
100
AcDbLine
 10
235.2783038165119
 20
-304.102674758737
 30
0.0
 11
240.5731201171875
 21
-318.1371150828502
 31
0.0
  0
LINE
  5
4A2
330
1F
100
AcDbEntity
  8
寸法
  6
Continuous
 62
     7
370
     9
100
AcDbLine
 10
258.0001088735219
 20
-271.5861870185554
 30
0.0
 11
263.7403168549408
 21
-257.727973336123
 31
0.0
  0
LINE
  5
4A3
330
1F
100
AcDbEntity
  8
寸法
  6
Continuous
 62
     7
370
     9
100
AcDbLine
 10
258.0001088735219
 20
-271.5861870185554
 30
0.0
 11
267.1315291121198
 21
-259.6858409327234
 31
0.0
  0
LINE
  5
4A4
330
1F
100
AcDbEntity
  8
寸法
  6
Continuous
 62
     7
370
     9
100
AcDbLine
 10
192.1305393528294
 20
-269.7574087774236
 30
0.0
 11
262.2432069520692
 21
-150.1536341654092
 31
0.0
  0
LINE
  5
4A5
330
1F
100
AcDbEntity
  8
寸法
  6
Continuous
 62
     7
370
     9
100
AcDbLine
 10
192.1305393528294
 20
-269.7574087774236
 30
0.0
 11
197.8707473342483
 21
-255.8991950949912
 31
0.0
  0
LINE
  5
4A6
330
1F
100
AcDbEntity
  8
寸法
  6
Continuous
 62
     7
370
     9
100
AcDbLine
 10
192.1305393528294
 20
-269.7574087774236
 30
0.0
 11
201.2619595914273
 21
-257.8571369235385
 31
0.0
  0
LINE
  5
4A7
330
1F
100
AcDbEntity
  8
寸法
  6
Continuous
 62
     7
370
     9
100
AcDbLine
 10
286.7192613756334
 20
-400.1605954724193
 30
0.0
 11
235.2783038165119
 21
-304.102674758737
 31
0.0
  0
LINE
  5
4A8
330
1F
100
AcDbEntity
  8
その他
  6
Continuous
 62
     7
370
     9
100
AcDbLine
 10
-249.9994638803843
 20
-238.7179140825334
 30
0.0
 11
249.9990927206503
 21
-238.7179140825334
 31
0.0
  0
LINE
  5
4A9
330
1F
100
AcDbEntity
  8
その他
  6
Continuous
 62
     7
370
     9
100
AcDbLine
 10
-249.9994638803843
 20
-256.5858406028037
 30
0.0
 11
-249.9994638803843
 21
-236.9179378367564
 31
0.0
  0
LINE
  5
4AA
330
1F
100
AcDbEntity
  8
その他
  6
Continuous
 62
     7
370
     9
100
AcDbLine
 10
249.9990927206503
 20
-256.5858406028037
 30
0.0
 11
249.9990927206503
 21
-236.9179378367564
 31
0.0
  0
LINE
  5
4AB
330
1F
100
AcDbEntity
  8
その他
  6
Continuous
 62
     7
370
     9
100
AcDbLine
 10
-249.9994638803843
 20
-238.7179140825334
 30
0.0
 11
-235.1277614284206
 21
-236.7600464859329
 31
0.0
  0
LINE
  5
4AC
330
1F
100
AcDbEntity
  8
その他
  6
Continuous
 62
     7
370
     9
100
AcDbLine
 10
-249.9994638803843
 20
-238.7179140825334
 30
0.0
 11
-235.1277614284206
 21
-240.6757816791339
 31
0.0
  0
LINE
  5
4AD
330
1F
100
AcDbEntity
  8
その他
  6
Continuous
 62
     7
370
     9
100
AcDbLine
 10
249.9990927206503
 20
-238.7179140825334
 30
0.0
 11
235.1274645006334
 21
-236.7600464859329
 31
0.0
  0
LINE
  5
4AE
330
1F
100
AcDbEntity
  8
その他
  6
Continuous
 62
     7
370
     9
100
AcDbLine
 10
249.9990927206503
 20
-238.7179140825334
 30
0.0
 11
235.1274645006334
 21
-240.6757816791339
 31
0.0
  0
LINE
  5
4AF
330
1F
100
AcDbEntity
  8
その他
  6
Continuous
 62
     7
370
     9
100
AcDbLine
 10
-280.0001567118877
 20
-200.7324618945055
 30
0.0
 11
280.0000824799409
 21
-200.7324618945055
 31
0.0
  0
LINE
  5
4B0
330
1F
100
AcDbEntity
  8
その他
  6
Continuous
 62
     7
370
     9
100
AcDbLine
 10
-280.0001567118877
 20
-306.5866983941888
 30
0.0
 11
-280.0001567118877
 21
-198.9324856487285
 31
0.0
  0
LINE
  5
4B1
330
1F
100
AcDbEntity
  8
その他
  6
Continuous
 62
     7
370
     9
100
AcDbLine
 10
280.0000824799409
 20
-306.5866983941888
 30
0.0
 11
280.0000824799409
 21
-198.9324856487285
 31
0.0
  0
LINE
  5
4B2
330
1F
100
AcDbEntity
  8
その他
  6
Continuous
 62
     7
370
     9
100
AcDbLine
 10
-280.0001567118877
 20
-200.7324618945055
 30
0.0
 11
-265.1284542599241
 21
-198.774594297905
 31
0.0
  0
LINE
  5
4B3
330
1F
100
AcDbEntity
  8
その他
  6
Continuous
 62
     7
370
     9
100
AcDbLine
 10
-280.0001567118877
 20
-200.7324618945055
 30
0.0
 11
-265.1284542599241
 21
-202.690329491106
 31
0.0
  0
LINE
  5
4B4
330
1F
100
AcDbEntity
  8
その他
  6
Continuous
 62
     7
370
     9
100
AcDbLine
 10
280.0000824799409
 20
-200.7324618945055
 30
0.0
 11
265.1284542599239
 21
-198.774594297905
 31
0.0
  0
LINE
  5
4B5
330
1F
100
AcDbEntity
  8
その他
  6
Continuous
 62
     7
370
     9
100
AcDbLine
 10
280.0000824799409
 20
-200.7324618945055
 30
0.0
 11
265.1284542599239
 21
-202.690329491106
 31
0.0
  0
LINE
  5
4B6
330
1F
100
AcDbEntity
  8
その他
  6
Continuous
 62
     7
370
     9
100
AcDbLine
 10
-225.0004453916808
 20
-416.3915591020647
 30
0.0
 11
225.0004453916808
 21
-416.3915591020647
 31
0.0
  0
LINE
  5
4B7
330
1F
100
AcDbEntity
  8
その他
  6
Continuous
 62
     7
370
     9
100
AcDbLine
 10
-225.0004453916808
 20
-336.5867231381711
 30
0.0
 11
-225.0004453916808
 21
-418.1915353478418
 31
0.0
  0
LINE
  5
4B8
330
1F
100
AcDbEntity
  8
その他
  6
Continuous
 62
     7
370
     9
100
AcDbLine
 10
225.0004453916808
 20
-336.5867231381711
 30
0.0
 11
225.0004453916808
 21
-418.1915353478418
 31
0.0
  0
LINE
  5
4B9
330
1F
100
AcDbEntity
  8
その他
  6
Continuous
 62
     7
370
     9
100
AcDbLine
 10
-225.0004453916808
 20
-416.3915591020647
 30
0.0
 11
-210.1287429397171
 21
-414.4336172735174
 31
0.0
  0
LINE
  5
4BA
330
1F
100
AcDbEntity
  8
その他
  6
Continuous
 62
     7
370
     9
100
AcDbLine
 10
-225.0004453916808
 20
-416.3915591020647
 30
0.0
 11
-210.1287429397171
 21
-418.349500930612
 31
0.0
  0
LINE
  5
4BB
330
1F
100
AcDbEntity
  8
その他
  6
Continuous
 62
     7
370
     9
100
AcDbLine
 10
225.0004453916808
 20
-416.3915591020647
 30
0.0
 11
210.1288171716639
 21
-414.4336172735174
 31
0.0
  0
LINE
  5
4BC
330
1F
100
AcDbEntity
  8
その他
  6
Continuous
 62
     7
370
     9
100
AcDbLine
 10
225.0004453916808
 20
-416.3915591020647
 30
0.0
 11
210.1288171716639
 21
-418.349500930612
 31
0.0
  0
LINE
  5
4BD
330
1F
100
AcDbEntity
  8
その他
  6
Continuous
 62
     7
370
     9
100
AcDbLine
 10
321.6260920344172
 20
-271.5866324102361
 30
0.0
 11
321.6260920344172
 21
-321.5866736502065
 31
0.0
  0
LINE
  5
4BE
330
1F
100
AcDbEntity
  8
その他
  6
Continuous
 62
     7
370
     9
100
AcDbLine
 10
273.0001583614864
 20
-271.5866324102361
 30
0.0
 11
323.4260682801942
 21
-271.5866324102361
 31
0.0
  0
LINE
  5
4BF
330
1F
100
AcDbEntity
  8
その他
  6
Continuous
 62
     7
370
     9
100
AcDbLine
 10
295.0001319679053
 20
-321.5866736502065
 30
0.0
 11
323.4260682801942
 21
-321.5866736502065
 31
0.0
  0
LINE
  5
4C0
330
1F
100
AcDbEntity
  8
その他
  6
Continuous
 62
     7
370
     9
100
AcDbLine
 10
321.6260920344172
 20
-271.5866324102361
 30
0.0
 11
319.6681502058698
 21
-286.4583348621998
 31
0.0
  0
LINE
  5
4C1
330
1F
100
AcDbEntity
  8
その他
  6
Continuous
 62
     7
370
     9
100
AcDbLine
 10
321.6260920344172
 20
-271.5866324102361
 30
0.0
 11
323.5840338629645
 21
-286.4583348621998
 31
0.0
  0
LINE
  5
4C2
330
1F
100
AcDbEntity
  8
その他
  6
Continuous
 62
     7
370
     9
100
AcDbLine
 10
321.6260920344172
 20
-321.5866736502065
 30
0.0
 11
319.6681502058698
 21
-306.7149711982429
 31
0.0
  0
LINE
  5
4C3
330
1F
100
AcDbEntity
  8
その他
  6
Continuous
 62
     7
370
     9
100
AcDbLine
 10
321.6260920344172
 20
-321.5866736502065
 30
0.0
 11
323.5840338629645
 21
-306.7149711982429
 31
0.0
  0
LINE
  5
4C4
330
1F
100
AcDbEntity
  8
その他
  6
Continuous
 62
     7
370
     9
100
AcDbLine
 10
1.213766561972022
 20
-267.1353879528881
 30
0.0
 11
-11.98623244826859
 21
-267.1353879528881
 31
0.0
  0
LINE
  5
4C5
330
1F
100
AcDbEntity
  8
その他
  6
Continuous
 62
     7
370
     9
100
AcDbLine
 10
1.213766561972022
 20
-275.1357360182387
 30
0.0
 11
-11.98623244826859
 21
-275.1357360182387
 31
0.0
  0
LINE
  5
4C6
330
1F
100
AcDbEntity
  8
その他
  6
Continuous
 62
     7
370
     9
100
AcDbLine
 10
-13.78620869404563
 20
-267.1353879528881
 30
0.0
 11
-15.74407629064609
 21
-252.2636855009245
 31
0.0
  0
LINE
  5
4C7
330
1F
100
AcDbEntity
  8
その他
  6
Continuous
 62
     7
370
     9
100
AcDbLine
 10
-13.78620869404563
 20
-267.1353879528881
 30
0.0
 11
-11.82834109744516
 21
-252.2636855009245
 31
0.0
  0
LINE
  5
4C8
330
1F
100
AcDbEntity
  8
その他
  6
Continuous
 62
     7
370
     9
100
AcDbLine
 10
-13.78620869404563
 20
-275.1357360182387
 30
0.0
 11
-15.74407629064609
 21
-290.0074384702024
 31
0.0
  0
LINE
  5
4C9
330
1F
100
AcDbEntity
  8
その他
  6
Continuous
 62
     7
370
     9
100
AcDbLine
 10
-13.78620869404563
 20
-275.1357360182387
 30
0.0
 11
-11.82834109744516
 21
-290.0074384702024
 31
0.0
  0
LINE
  5
4CA
330
1F
100
AcDbEntity
  8
その他
  6
Continuous
 62
     7
370
     9
100
AcDbLine
 10
-13.78620869404563
 20
-308.0192265033527
 30
0.0
 11
-13.78620869404563
 21
-244.7766513476305
 31
0.0
  0
TEXT
  5
4CB
330
1F
100
AcDbEntity
  8
その他
  6
Continuous
 62
     2
370
     9
100
AcDbText
 10
-33.00003711597344
 20
-193.7484351710047
 30
0.0
 40
18.288
  1
□560
 41
1.1
  7
ＭＳ ゴシック
100
AcDbText
  0
TEXT
  5
4CC
330
1F
100
AcDbEntity
  8
その他
  6
Continuous
 62
     2
370
     9
100
AcDbText
 10
-33.00018557986695
 20
-231.7338873590326
 30
0.0
 40
18.288
  1
φ500
 41
1.1
  7
ＭＳ ゴシック
100
AcDbText
  0
TEXT
  5
4CD
330
1F
100
AcDbEntity
  8
その他
  6
Continuous
 62
     2
370
     9
100
AcDbText
 10
-33.00003711597344
 20
-409.4076066105106
 30
0.0
 40
18.288
  1
φ450
 41
1.1
  7
ＭＳ ゴシック
100
AcDbText
  0
TEXT
  5
4CE
330
1F
100
AcDbEntity
  8
その他
  6
Continuous
 62
     2
370
     9
100
AcDbText
 10
314.6421395428631
 20
-309.3366159142479
 30
0.0
 40
18.288
  1
50
 50
90.0
 41
1.0625
  7
ＭＳ ゴシック
100
AcDbText
  0
TEXT
  5
4CF
330
1F
100
AcDbEntity
  8
その他
  6
Continuous
 62
     2
370
     9
100
AcDbText
 10
-20.77023541754657
 20
-302.8681220144643
 30
0.0
 40
18.288
  1
6
 50
90.0
  7
ＭＳ ゴシック
100
AcDbText
  0
TEXT
  5
4D0
330
1F
100
AcDbEntity
  8
その他
  6
Continuous
 62
     2
370
     9
100
AcDbText
 10
-20.77023541754657
 20
-263.3853557857112
 30
0.0
 40
18.288
  1
2
 50
90.0
  7
ＭＳ ゴシック
100
AcDbText
  0
LWPOLYLINE
  5
4D1
330
1F
100
AcDbEntity
  8
その他
  6
Continuous
 62
     7
370
     9
100
AcDbPolyline
 90
        4
 70
     1
 43
0.6000000000000001
 10
-13.48620869404563
 20
-269.1353450633189
 42
0.4142135623731
 10
-13.78620869404563
 20
-268.8353450633189
 42
0.4142135623731
 10
-14.08620869404563
 20
-269.1353450633189
 42
0.4142135623731
 10
-13.78620869404563
 20
-269.4353450633189
 42
0.4142135623731
  0
LINE
  5
4D2
330
1F
100
AcDbEntity
  8
建具
  6
Continuous
 62
     4
370
     9
100
AcDbLine
 10
-76.99989950334705
 20
-441.7465568916023
 30
0.0
 11
-82.99991929853283
 21
-441.7465568916023
 31
0.0
  0
LINE
  5
4D3
330
1F
100
AcDbEntity
  8
建具
  6
Continuous
 62
     4
370
     9
100
AcDbLine
 10
-75.99984671618486
 20
-442.7465354468176
 30
0.0
 11
-83.99997208569502
 21
-442.7465354468176
 31
0.0
  0
LINE
  5
4D4
330
1F
100
AcDbEntity
  8
建具
  6
Continuous
 62
     4
370
     9
100
AcDbLine
 10
-75.99984671618486
 20
-442.7465354468176
 30
0.0
 11
-76.99989950334705
 21
-441.7465568916023
 31
0.0
  0
LINE
  5
4D5
330
1F
100
AcDbEntity
  8
建具
  6
Continuous
 62
     4
370
     9
100
AcDbLine
 10
-82.99991929853283
 20
-441.7465568916023
 30
0.0
 11
-83.99997208569502
 21
-442.7465354468176
 31
0.0
  0
LINE
  5
4D6
330
1F
100
AcDbEntity
  8
建具
  6
Continuous
 62
     4
370
     9
100
AcDbLine
 10
-76.49987310976596
 20
-463.7465304980212
 30
0.0
 11
-76.49987310976596
 21
-459.7466162771597
 31
0.0
  0
LINE
  5
4D7
330
1F
100
AcDbEntity
  8
建具
  6
JWW_CENTER1
 62
     4
370
     9
100
AcDbLine
 10
-79.99990940094003
 20
-463.746604729968
 30
0.0
 11
-79.99990940094003
 21
-440.2014189191571
 31
0.0
  0
LINE
  5
4D8
330
1F
100
AcDbEntity
  8
建具
  6
Continuous
 62
     4
370
     9
100
AcDbLine
 10
-83.49994569211393
 20
-463.746604729968
 30
0.0
 11
-83.49994569211393
 21
-459.7466162771597
 31
0.0
  0
LINE
  5
4D9
330
1F
100
AcDbEntity
  8
建具
  6
Continuous
 62
     4
370
     9
100
AcDbLine
 10
-73.49993744411987
 20
-473.7466872099088
 30
0.0
 11
39.29171987482009
 21
-473.7466872099088
 31
0.0
  0
LINE
  5
4DA
330
1F
100
AcDbEntity
  8
建具
  6
Continuous
 62
     4
370
     9
100
AcDbLine
 10
-73.49986321217298
 20
-466.746540395614
 30
0.0
 11
39.29171987482009
 21
-466.746540395614
 31
0.0
  0
LINE
  5
4DB
330
1F
100
AcDbEntity
  8
建具
  6
JWW_CENTER1
 62
     4
370
     9
100
AcDbLine
 10
55.00009059905993
 20
-490.8781585860702
 30
0.0
 11
55.00009059905993
 21
-451.5905295874426
 31
0.0
  0
LINE
  5
4DC
330
1F
100
AcDbEntity
  8
建具
  6
Continuous
 62
     4
370
     9
100
AcDbLine
 10
48.27170694196541
 20
-468.3152841271385
 30
0.0
 11
42.31117854247212
 21
-464.3310328470499
 31
0.0
  0
LINE
  5
4DD
330
1F
100
AcDbEntity
  8
建具
  6
Continuous
 62
     4
370
     9
100
AcDbLine
 10
-87.4998599129755
 20
-451.9681475007661
 30
0.0
 11
-87.4998599129755
 21
-457.7465107028353
 31
0.0
  0
LINE
  5
4DE
330
1F
100
AcDbEntity
  8
建具
  6
Continuous
 62
     4
370
     9
100
AcDbLine
 10
-72.49988465695768
 20
-451.9681475007661
 30
0.0
 11
-72.49988465695768
 21
-457.7465107028353
 31
0.0
  0
LINE
  5
4DF
330
1F
100
AcDbEntity
  8
建具
  6
Continuous
 62
     4
370
     9
100
AcDbLine
 10
-83.74713807492643
 20
-451.9681475007661
 30
0.0
 11
-83.74713807492643
 21
-457.7465107028353
 31
0.0
  0
LINE
  5
4E0
330
1F
100
AcDbEntity
  8
建具
  6
Continuous
 62
     4
370
     9
100
AcDbLine
 10
-76.25268072695346
 20
-451.9681475007661
 30
0.0
 11
-76.25268072695346
 21
-457.7465107028353
 31
0.0
  0
LINE
  5
4E1
330
1F
100
AcDbEntity
  8
建具
  6
Continuous
 62
     4
370
     9
100
AcDbLine
 10
-85.62349899395096
 20
-451.2464645140684
 30
0.0
 11
-74.37631980792892
 21
-451.2464645140684
 31
0.0
  0
LINE
  5
4E2
330
1F
100
AcDbEntity
  8
建具
  6
Continuous
 62
     4
370
     9
100
AcDbLine
 10
-68.74990940094003
 20
-459.7466162771597
 30
0.0
 11
-68.74990940094003
 21
-457.7465107028353
 31
0.0
  0
LINE
  5
4E3
330
1F
100
AcDbEntity
  8
建具
  6
Continuous
 62
     4
370
     9
100
AcDbLine
 10
-91.24990940093994
 20
-459.7466162771597
 30
0.0
 11
-68.74990940094003
 21
-459.7466162771597
 31
0.0
  0
LINE
  5
4E4
330
1F
100
AcDbEntity
  8
建具
  6
Continuous
 62
     4
370
     9
100
AcDbLine
 10
-91.24990940093994
 20
-459.7466162771597
 30
0.0
 11
-91.24990940093994
 21
-457.7465107028353
 31
0.0
  0
LINE
  5
4E5
330
1F
100
AcDbEntity
  8
建具
  6
Continuous
 62
     4
370
     9
100
AcDbLine
 10
-91.24990940093994
 20
-457.7465107028353
 30
0.0
 11
-68.74990940094003
 21
-457.7465107028353
 31
0.0
  0
LINE
  5
4E6
330
1F
100
AcDbEntity
  8
建具
  6
Continuous
 62
     4
370
     9
100
AcDbLine
 10
-82.99991929853283
 20
-441.7465568916023
 30
0.0
 11
-82.99991929853283
 21
-451.2464645140684
 31
0.0
  0
LINE
  5
4E7
330
1F
100
AcDbEntity
  8
建具
  6
Continuous
 62
     4
370
     9
100
AcDbLine
 10
-83.99997208569502
 20
-442.7465354468176
 30
0.0
 11
-83.99997208569502
 21
-451.2464645140684
 31
0.0
  0
LINE
  5
4E8
330
1F
100
AcDbEntity
  8
建具
  6
Continuous
 62
     4
370
     9
100
AcDbLine
 10
-76.99989950334705
 20
-441.7465568916023
 30
0.0
 11
-76.99989950334705
 21
-451.2464645140684
 31
0.0
  0
LINE
  5
4E9
330
1F
100
AcDbEntity
  8
建具
  6
Continuous
 62
     4
370
     9
100
AcDbLine
 10
-75.99984671618486
 20
-442.7465354468176
 30
0.0
 11
-75.99984671618486
 21
-451.2464645140684
 31
0.0
  0
LINE
  5
4EA
330
1F
100
AcDbEntity
  8
建具
  6
JWW_CENTER1
 62
     4
370
     9
100
AcDbLine
 10
120.0000328631013
 20
-470.246576686788
 30
0.0
 11
-73.49993744411987
 21
-470.246576686788
 31
0.0
  0
ARC
  5
4EB
330
1F
100
AcDbEntity
  8
建具
  6
Continuous
 62
     4
370
     9
100
AcDbCircle
 10
-73.49986321217298
 20
-463.7465304980212
 30
0.0
 40
3.000000038662472
100
AcDbArc
 50
180.0
 51
270.0
  0
ARC
  5
4EC
330
1F
100
AcDbEntity
  8
建具
  6
JWW_CENTER1
 62
     4
370
     9
100
AcDbCircle
 10
-73.49993744411987
 20
-463.746604729968
 30
0.0
 40
6.499999793800148
100
AcDbArc
 50
180.0
 51
270.0
  0
ARC
  5
4ED
330
1F
100
AcDbEntity
  8
建具
  6
Continuous
 62
     4
370
     9
100
AcDbCircle
 10
-73.49993744411987
 20
-463.746604729968
 30
0.0
 40
10.00000012887491
100
AcDbArc
 50
180.0
 51
270.0
  0
ARC
  5
4EE
330
1F
100
AcDbEntity
  8
建具
  6
Continuous
 62
     4
370
     9
100
AcDbCircle
 10
39.29171987482009
 20
-476.7466971075017
 30
0.0
 40
3.000000038662472
100
AcDbArc
 50
22.48037719726562
 51
90.0
  0
ARC
  5
4EF
330
1F
100
AcDbEntity
  8
建具
  6
Continuous
 62
     4
370
     9
100
AcDbCircle
 10
39.29171987482009
 20
-476.7465486436081
 30
0.0
 40
10.00000012887491
100
AcDbArc
 50
22.47953796386717
 51
89.99999999999999
  0
ARC
  5
4F0
330
1F
100
AcDbEntity
  8
建具
  6
Continuous
 62
     4
370
     9
100
AcDbCircle
 10
55.00009059905993
 20
-470.246576686788
 30
0.0
 40
7.000000090212434
100
AcDbArc
 50
202.4791870117188
 51
163.9838256835939
  0
ARC
  5
4F1
330
1F
100
AcDbEntity
  8
建具
  6
Continuous
 62
     4
370
     9
100
AcDbCircle
 10
55.00009059905993
 20
-470.246576686788
 30
0.0
 40
14.00000018042487
100
AcDbArc
 50
202.4794616699219
 51
155.0050354003906
  0
ARC
  5
4F2
330
1F
100
AcDbEntity
  8
建具
  6
Continuous
 62
     4
370
     9
100
AcDbCircle
 10
-85.62349899395096
 20
-454.0466420109012
 30
0.0
 40
2.80017343727318
100
AcDbArc
 50
47.92556762695313
 51
132.0746307373047
  0
ARC
  5
4F3
330
1F
100
AcDbEntity
  8
建具
  6
Continuous
 62
     4
370
     9
100
AcDbCircle
 10
-79.99990940094003
 20
-461.3359222579452
 30
0.0
 40
10.08941018903578
100
AcDbArc
 50
68.19786071777344
 51
111.8021392822266
  0
ARC
  5
4F4
330
1F
100
AcDbEntity
  8
建具
  6
Continuous
 62
     4
370
     9
100
AcDbCircle
 10
-74.37631980792892
 20
-454.0466420109012
 30
0.0
 40
2.800189675511541
100
AcDbArc
 50
47.92572021484374
 51
132.0742797851562
  0
ARC
  5
4F5
330
1F
100
AcDbEntity
  8
建具
  6
JWW_CENTER1
 62
     4
370
     9
100
AcDbCircle
 10
120.0000328631013
 20
-460.246568438794
 30
0.0
 40
10.00000012887491
100
AcDbArc
 50
270.0
 51
0.0
  0
LINE
  5
4F6
330
1F
100
AcDbEntity
  8
通り芯
  6
JWW_CENTER2
 62
     4
370
     9
100
AcDbLine
 10
125.0857296505489
 20
-352.3084556128333
 30
0.0
 11
134.5261032516892
 21
-352.3084556128333
 31
0.0
  0
LINE
  5
4F7
330
1F
100
AcDbEntity
  8
通り芯
  6
Continuous
 62
     4
370
     9
100
AcDbLine
 10
127.4999010240709
 20
-350.6858937198856
 30
0.0
 11
127.4999010240709
 21
-352.3084556128333
 31
0.0
  0
LINE
  5
4F8
330
1F
100
AcDbEntity
  8
通り芯
  6
Continuous
 62
     4
370
     9
100
AcDbLine
 10
132.4998680320945
 20
-350.6858937198856
 30
0.0
 11
132.4998680320945
 21
-352.3084556128333
 31
0.0
  0
LINE
  5
4F9
330
1F
100
AcDbEntity
  8
通り芯
  6
Continuous
 62
     4
370
     9
100
AcDbLine
 10
120.9998548353041
 20
-353.8083120977361
 30
0.0
 11
120.9998548353041
 21
-377.8083170465326
 31
0.0
  0
LINE
  5
4FA
330
1F
100
AcDbEntity
  8
通り芯
  6
Continuous
 62
     4
370
     9
100
AcDbLine
 10
125.9998218433277
 20
-353.8083120977361
 30
0.0
 11
125.9998218433277
 21
-377.8083170465326
 31
0.0
  0
LINE
  5
4FB
330
1F
100
AcDbEntity
  8
通り芯
  6
Continuous
 62
     4
370
     9
100
AcDbLine
 10
133.9999472128378
 20
-353.8083120977361
 30
0.0
 11
133.9999472128378
 21
-377.8083170465326
 31
0.0
  0
LINE
  5
4FC
330
1F
100
AcDbEntity
  8
通り芯
  6
Continuous
 62
     4
370
     9
100
AcDbLine
 10
138.9999142208614
 20
-353.8083120977361
 30
0.0
 11
138.9999142208614
 21
-377.8083170465326
 31
0.0
  0
LINE
  5
4FD
330
1F
100
AcDbEntity
  8
通り芯
  6
JWW_CENTER2
 62
     4
370
     9
100
AcDbLine
 10
125.0857296505489
 20
-379.3084704592226
 30
0.0
 11
134.5261032516892
 21
-379.3084704592226
 31
0.0
  0
LINE
  5
4FE
330
1F
100
AcDbEntity
  8
通り芯
  6
Continuous
 62
     4
370
     9
100
AcDbLine
 10
127.4999010240709
 20
-380.9310323521702
 30
0.0
 11
127.4999010240709
 21
-379.3084704592226
 31
0.0
  0
LINE
  5
4FF
330
1F
100
AcDbEntity
  8
通り芯
  6
Continuous
 62
     4
370
     9
100
AcDbLine
 10
132.4998680320945
 20
-380.9310323521702
 30
0.0
 11
132.4998680320945
 21
-379.3084704592226
 31
0.0
  0
LINE
  5
500
330
1F
100
AcDbEntity
  8
通り芯
  6
Continuous
 62
     4
370
     9
100
AcDbLine
 10
127.4999010240709
 20
-403.847547805612
 30
0.0
 11
127.4999010240709
 21
-386.4542603531204
 31
0.0
  0
LINE
  5
501
330
1F
100
AcDbEntity
  8
通り芯
  6
Continuous
 62
     4
370
     9
100
AcDbLine
 10
132.4998680320945
 20
-400.960964322715
 30
0.0
 11
132.4998680320945
 21
-386.4542603531204
 31
0.0
  0
LINE
  5
502
330
1F
100
AcDbEntity
  8
通り芯
  6
Continuous
 62
     4
370
     9
100
AcDbLine
 10
137.7421281144425
 20
-397.9346020840115
 30
0.0
 11
123.409423828125
 21
-406.2093856566465
 31
0.0
  0
LINE
  5
503
330
1F
100
AcDbEntity
  8
0-E
  6
Continuous
 62
     4
370
     9
100
AcDbLine
 10
134.4999736064189
 20
-374.6027588882766
 30
0.0
 11
141.1970313819678
 21
-390.77062536315
 31
0.0
  0
CIRCLE
  5
504
330
1F
100
AcDbEntity
  8
通り芯
  6
Continuous
 62
     4
370
     9
100
AcDbCircle
 10
130.0000329919762
 20
-352.3084556128333
 30
0.0
 40
2.500000032218727
  0
ARC
  5
505
330
1F
100
AcDbEntity
  8
通り芯
  6
Continuous
 62
     4
370
     9
100
AcDbCircle
 10
130.0000329919762
 20
-353.8083120977361
 30
0.0
 40
3.999998601707252
100
AcDbArc
 50
0.0
 51
180.0
  0
ARC
  5
506
330
1F
100
AcDbEntity
  8
通り芯
  6
Continuous
 62
     4
370
     9
100
AcDbCircle
 10
130.0000329919762
 20
-353.8083120977361
 30
0.0
 40
8.999998376176165
100
AcDbArc
 50
0.0
 51
180.0
  0
ARC
  5
507
330
1F
100
AcDbEntity
  8
通り芯
  6
Continuous
 62
     4
370
     9
100
AcDbCircle
 10
130.0000329919762
 20
-377.8083170465326
 30
0.0
 40
3.999998601707252
100
AcDbArc
 50
180.0
 51
0.0
  0
ARC
  5
508
330
1F
100
AcDbEntity
  8
通り芯
  6
Continuous
 62
     4
370
     9
100
AcDbCircle
 10
130.0000329919762
 20
-377.8083170465326
 30
0.0
 40
8.999998376176165
100
AcDbArc
 50
180.0
 51
0.0
  0
CIRCLE
  5
509
330
1F
100
AcDbEntity
  8
通り芯
  6
Continuous
 62
     4
370
     9
100
AcDbCircle
 10
130.0000329919762
 20
-379.3084704592226
 30
0.0
 40
2.500000032218727
  0
ARC
  5
50A
330
1F
100
AcDbEntity
  8
通り芯
  6
Continuous
 62
     4
370
     9
100
AcDbCircle
 10
129.6125422297297
 20
-311.808321995329
 30
0.0
 40
5.999998917450776
100
AcDbArc
 50
183.9998168945312
 51
269.9999847412109
  0
LINE
  5
50B
330
1F
100
AcDbEntity
  8
通り芯
  6
Continuous
 62
     4
370
     9
100
AcDbLine
 10
123.6270718961148
 20
-312.2269159432809
 30
0.0
 11
123.2342364336994
 21
-306.6091906740663
 31
0.0
  0
LINE
  5
50C
330
1F
100
AcDbEntity
  8
通り芯
  6
Continuous
 62
     4
370
     9
100
AcDbLine
 10
116.6439241976352
 20
-312.715213689269
 30
0.0
 11
115.8811167124155
 21
-301.8042309902615
 31
0.0
  0
LINE
  5
50D
330
1F
100
AcDbEntity
  8
通り芯
  6
Continuous
 62
     4
370
     9
100
AcDbLine
 10
127.4999010240709
 20
-324.6357508646281
 30
0.0
 11
127.4999010240709
 21
-345.1625914869887
 31
0.0
  0
ARC
  5
50E
330
1F
100
AcDbEntity
  8
通り芯
  6
Continuous
 62
     4
370
     9
100
AcDbCircle
 10
130.387523754223
 20
-311.808321995329
 30
0.0
 40
12.99999842772613
100
AcDbArc
 50
269.9999847412109
 51
355.9999084472656
  0
LINE
  5
50F
330
1F
100
AcDbEntity
  8
通り芯
  6
JWW_CENTER2
 62
     4
370
     9
100
AcDbLine
 10
130.0000329919762
 20
-460.246568438794
 30
0.0
 11
130.0000329919762
 21
-307.3305767329768
 31
0.0
  0
ARC
  5
510
330
1F
100
AcDbEntity
  8
通り芯
  6
Continuous
 62
     4
370
     9
100
AcDbCircle
 10
129.6125422297297
 20
-311.808321995329
 30
0.0
 40
12.99999842772613
100
AcDbArc
 50
183.9999237060547
 51
270.0000152587891
  0
LINE
  5
511
330
1F
100
AcDbEntity
  8
通り芯
  6
Continuous
 62
     4
370
     9
100
AcDbLine
 10
130.387523754223
 20
-324.8084886048096
 30
0.0
 11
129.6123937658361
 21
-324.8084886048096
 31
0.0
  0
LINE
  5
512
330
1F
100
AcDbEntity
  8
通り芯
  6
Continuous
 62
     4
370
     9
100
AcDbLine
 10
132.4998680320945
 20
-324.6357508646281
 30
0.0
 11
132.4998680320945
 21
-345.1625914869887
 31
0.0
  0
LINE
  5
513
330
1F
100
AcDbEntity
  8
通り芯
  6
Continuous
 62
     4
370
     9
100
AcDbLine
 10
130.387523754223
 20
-317.8084160224616
 30
0.0
 11
129.6125422297297
 21
-317.8084160224616
 31
0.0
  0
LINE
  5
514
330
1F
100
AcDbEntity
  8
通り芯
  6
Continuous
 62
     4
370
     9
100
AcDbLine
 10
127.5001979518581
 20
-315.3085067503965
 30
0.0
 11
127.5001979518581
 21
-317.4243399297674
 31
0.0
  0
LINE
  5
515
330
1F
100
AcDbEntity
  8
通り芯
  6
Continuous
 62
     4
370
     9
100
AcDbLine
 10
132.5001649598817
 20
-315.3085067503965
 30
0.0
 11
132.5001649598817
 21
-317.4243399297674
 31
0.0
  0
LINE
  5
516
330
1F
100
AcDbEntity
  8
通り芯
  6
Continuous
 62
     4
370
     9
100
AcDbLine
 10
143.3558448585303
 20
-312.715213689269
 30
0.0
 11
143.7133459142736
 21
-307.601597570709
 31
0.0
  0
LINE
  5
517
330
1F
100
AcDbEntity
  8
通り芯
  6
Continuous
 62
     4
370
     9
100
AcDbLine
 10
136.3731425517314
 20
-312.2269159432809
 30
0.0
 11
136.7064439928209
 21
-307.4633034538383
 31
0.0
  0
ARC
  5
518
330
1F
100
AcDbEntity
  8
通り芯
  6
Continuous
 62
     4
370
     9
100
AcDbCircle
 10
130.387523754223
 20
-311.808321995329
 30
0.0
 40
5.999998917450776
100
AcDbArc
 50
269.9999542236329
 51
356.0001831054688
  0
CIRCLE
  5
519
330
1F
100
AcDbEntity
  8
通り芯
  6
Continuous
 62
     4
370
     9
100
AcDbCircle
 10
130.0000329919762
 20
-315.3085067503965
 30
0.0
 40
2.499999742250185
  0
TEXT
  5
51A
330
1F
100
AcDbEntity
  8
0-E
  6
Continuous
 62
     2
370
     9
100
AcDbText
 10
219.0604475691512
 20
-491.3540985736652
 30
0.0
 40
18.288
  1
電気亜鉛めっき，φ５×５００
 41
0.7732142857142856
  7
ＭＳ ゴシック
100
AcDbText
  0
TEXT
  5
51B
330
1F
100
AcDbEntity
  8
0-E
  6
Continuous
 62
     2
370
     9
100
AcDbText
 10
290.660364099451
 20
-453.3540325897125
 30
0.0
 40
18.288
  1
鎖：ＳＷＲＭ
 41
0.7708333333333334
  7
ＭＳ ゴシック
100
AcDbText
  0
LINE
  5
51C
330
1F
100
AcDbEntity
  8
寸法
  6
Continuous
 62
     7
370
     9
100
AcDbLine
 10
258.0001088735219
 20
-271.5861870185554
 30
0.0
 11
286.4891317950224
 21
-222.2412697772153
 31
0.0
  0
TEXT
  5
51D
330
1F
100
AcDbEntity
  8
寸法
  6
Continuous
 62
     2
370
     9
100
AcDbText
 10
309.5147389431388
 20
-247.5696748618379
 30
0.0
 40
18.288
  1
樹脂系塗装
 41
0.7700000000000002
  7
ＭＳ ゴシック
100
AcDbText
  0
LINE
  5
51E
330
1F
100
AcDbEntity
  8
寸法
  6
Continuous
 62
     7
370
     9
100
AcDbLine
 10
286.4891317950224
 20
-222.2412697772153
 30
0.0
 11
424.4904474879183
 21
-222.2412697772153
 31
0.0
  0
LINE
  5
51F
330
1F
100
AcDbEntity
  8
0-E
  6
Continuous
 62
     7
370
     9
100
AcDbLine
 10
185.6735476932009
 20
-463.2380787784793
 30
0.0
 11
481.9527659288933
 21
-463.2380787784793
 31
0.0
  0
TEXT
  5
520
330
1F
100
AcDbEntity
  8
寸法
  6
Continuous
 62
     2
370
     9
100
AcDbText
 10
290.2416983897606
 20
-392.0105280101123
 30
0.0
 40
18.288
  1
パッキン：クロロプレン
 41
0.7727272727272725
  7
ＭＳ ゴシック
100
AcDbText
  0
LINE
  5
521
330
1F
100
AcDbEntity
  8
寸法
  6
Continuous
 62
     7
370
     9
100
AcDbLine
 10
286.7192613756334
 20
-400.1605954724193
 30
0.0
 11
498.5955382412646
 21
-400.1605954724193
 31
0.0
  0
LINE
  5
522
330
1F
100
AcDbEntity
  8
寸法
  6
Continuous
 62
     7
370
     9
100
AcDbLine
 10
262.2432069520692
 20
-150.1536341654092
 30
0.0
 11
396.0677335134937
 21
-150.1536341654092
 31
0.0
  0
TEXT
  5
523
330
1F
100
AcDbEntity
  8
寸法
  6
Continuous
 62
     2
370
     9
100
AcDbText
 10
284.6322272787521
 20
-174.8384837081185
 30
0.0
 40
18.288
  1
樹脂系塗装
 41
0.7699999999999999
  7
ＭＳ ゴシック
100
AcDbText
  0
TEXT
  5
524
330
1F
100
AcDbEntity
  8
寸法
  6
Continuous
 62
     2
370
     9
100
AcDbText
 10
266.0322272787521
 20
-145.0175029496177
 30
0.0
 40
18.288
  1
蓋：ＦＣ２００
 41
0.7714285714285712
  7
ＭＳ ゴシック
100
AcDbText
  0
TEXT
  5
525
330
1F
100
AcDbEntity
  8
寸法
  6
Continuous
 62
     2
370
     9
100
AcDbText
 10
290.4312115357074
 20
-213.8768585192469
 30
0.0
 40
18.288
  1
枠：ＦＣ２００
 41
0.7714285714285716
  7
ＭＳ ゴシック
100
AcDbText
  0
ENDSEC
  0
SECTION
  2
OBJECTS
  0
DICTIONARY
  5
C
330
0
100
AcDbDictionary
281
     1
  3
ACAD_GROUP
350
D
  3
ACAD_LAYOUT
350
1A
  3
ACAD_MLEADERSTYLE
350
527
  3
ACAD_MLINESTYLE
350
17
  3
ACAD_PLOTSETTINGS
350
19
  3
ACAD_PLOTSTYLENAME
350
E
  3
ACAD_TABLESTYLE
350
526
  3
ACAD_VISUALSTYLE
350
2A
  0
DICTIONARY
  5
D
102
{ACAD_REACTORS
330
C
102
}
330
C
100
AcDbDictionary
281
     1
  0
DICTIONARY
  5
1A
102
{ACAD_REACTORS
330
C
102
}
330
C
100
AcDbDictionary
281
     1
  3
Layout1
350
1E
  3
Layout2
350
26
  3
Model
350
22
  0
DICTIONARY
  5
527
102
{ACAD_REACTORS
330
C
102
}
330
C
100
AcDbDictionary
281
     1
  0
DICTIONARY
  5
17
102
{ACAD_REACTORS
330
C
102
}
330
C
100
AcDbDictionary
281
     1
  3
Standard
350
18
  0
DICTIONARY
  5
19
102
{ACAD_REACTORS
330
C
102
}
330
C
100
AcDbDictionary
281
     1
  0
ACDBDICTIONARYWDFLT
  5
E
102
{ACAD_REACTORS
330
C
102
}
330
C
100
AcDbDictionary
281
     1
  3
Normal
350
F
100
AcDbDictionaryWithDefault
340
F
  0
DICTIONARY
  5
526
102
{ACAD_REACTORS
330
C
102
}
330
C
100
AcDbDictionary
281
     1
  0
DICTIONARY
  5
2A
102
{ACAD_REACTORS
330
C
102
}
330
C
100
AcDbDictionary
281
     1
  3
2dWireframe
350
2F
  3
3D Hidden
350
31
  3
3dWireframe
350
30
  3
Basic
350
32
  3
Brighten
350
36
  3
ColorChange
350
3A
  3
Conceptual
350
34
  3
Dim
350
35
  3
Facepattern
350
39
  3
Flat
350
2B
  3
FlatWithEdges
350
2C
  3
Gouraud
350
2D
  3
GouraudWithEdges
350
2E
  3
Linepattern
350
38
  3
Realistic
350
33
  3
Thicken
350
37
  0
LAYOUT
  5
1E
102
{ACAD_REACTORS
330
1A
102
}
330
1A
100
AcDbPlotSettings
  1

  2
none_device
  4

  6

 40
0.0
 41
0.0
 42
0.0
 43
0.0
 44
0.0
 45
0.0
 46
0.0
 47
0.0
 48
0.0
 49
0.0
140
0.0
141
0.0
142
1.0
143
1.0
 70
   688
 72
     0
 73
     0
 74
     5
  7

 75
    16
 76
     0
 77
     5
 78
   300
147
1.0
148
0.0
149
0.0
100
AcDbLayout
  1
Layout1
 70
     1
 71
     1
 10
0.0
 20
0.0
 11
420.0
 21
297.0
 12
0.0
 22
0.0
 32
0.0
 14
1.000000000000000E+20
 24
1.000000000000000E+20
 34
1.000000000000000E+20
 15
-1.000000000000000E+20
 25
-1.000000000000000E+20
 35
-1.000000000000000E+20
146
0.0
 13
0.0
 23
0.0
 33
0.0
 16
1.0
 26
0.0
 36
0.0
 17
0.0
 27
1.0
 37
0.0
 76
     0
330
1B
  0
LAYOUT
  5
26
102
{ACAD_REACTORS
330
1A
102
}
330
1A
100
AcDbPlotSettings
  1

  2
none_device
  4

  6

 40
0.0
 41
0.0
 42
0.0
 43
0.0
 44
0.0
 45
0.0
 46
0.0
 47
0.0
 48
0.0
 49
0.0
140
0.0
141
0.0
142
1.0
143
1.0
 70
   688
 72
     0
 73
     0
 74
     5
  7

 75
    16
 76
     0
 77
     5
 78
   300
147
1.0
148
0.0
149
0.0
100
AcDbLayout
  1
Layout2
 70
     1
 71
     2
 10
0.0
 20
0.0
 11
0.0
 21
0.0
 12
0.0
 22
0.0
 32
0.0
 14
0.0
 24
0.0
 34
0.0
 15
0.0
 25
0.0
 35
0.0
146
0.0
 13
0.0
 23
0.0
 33
0.0
 16
1.0
 26
0.0
 36
0.0
 17
0.0
 27
1.0
 37
0.0
 76
     0
330
23
  0
LAYOUT
  5
22
102
{ACAD_REACTORS
330
1A
102
}
330
1A
100
AcDbPlotSettings
  1

  2
none_device
  4

  6

 40
0.0
 41
0.0
 42
0.0
 43
0.0
 44
0.0
 45
0.0
 46
0.0
 47
0.0
 48
0.0
 49
0.0
140
0.0
141
0.0
142
1.0
143
1.0
 70
  1712
 72
     0
 73
     0
 74
     0
  7

 75
     0
 76
     0
 77
     5
 78
   300
147
1.0
148
0.0
149
0.0
100
AcDbLayout
  1
Model
 70
     1
 71
     0
 10
-1260.0
 20
-891.0
 11
1260.0
 21
891.0
 12
0.0
 22
0.0
 32
0.0
 14
-1260.0
 24
-891.0
 34
0.0
 15
1260.0
 25
891.0
 35
0.0
146
0.0
 13
0.0
 23
0.0
 33
0.0
 16
1.0
 26
0.0
 36
0.0
 17
0.0
 27
1.0
 37
0.0
 76
     0
330
1F
331
29
  0
MLINESTYLE
  5
18
102
{ACAD_REACTORS
330
17
102
}
330
17
100
AcDbMlineStyle
  2
Standard
 70
     0
  3

 62
   256
 51
90.0
 52
90.0
 71
     2
 49
0.5
 62
   256
  6
BYLAYER
 49
-0.5
 62
   256
  6
BYLAYER
  0
ACDBPLACEHOLDER
  5
F
102
{ACAD_REACTORS
330
E
102
}
330
E
  0
VISUALSTYLE
  5
2F
102
{ACAD_REACTORS
330
2A
102
}
330
2A
100
AcDbVisualStyle
  2
2dWireframe
 70
     4
 71
     0
 72
     2
 73
     0
 90
        0
 40
-0.6
 41
-30.0
 62
     5
 63
     7
421
 16777215
 74
     1
 91
        4
 64
     7
 65
   257
 75
     1
175
     1
 42
1.0
 92
        0
 66
   257
 43
1.0
 76
     1
 77
     6
 78
     2
 67
     7
 79
     5
170
     0
171
     0
290
     0
174
     0
 93
        1
 44
0.0
173
     0
291
     0
 45
0.0
1001
ACAD
1000
AcDbSavedByObjectVersion
1070
     0
  0
VISUALSTYLE
  5
31
102
{ACAD_REACTORS
330
2A
102
}
330
2A
100
AcDbVisualStyle
  2
3D Hidden
 70
     6
 71
     1
 72
     2
 73
     2
 90
        0
 40
-0.6
 41
-30.0
 62
     5
 63
     7
421
 16777215
 74
     2
 91
        2
 64
     7
 65
   257
 75
     2
175
     1
 42
40.0
 92
        0
 66
   257
 43
1.0
 76
     1
 77
     6
 78
     2
 67
     7
 79
     3
170
     0
171
     0
290
     0
174
     0
 93
        1
 44
0.0
173
     0
291
     0
 45
0.0
1001
ACAD
1000
AcDbSavedByObjectVersion
1070
     0
  0
VISUALSTYLE
  5
30
102
{ACAD_REACTORS
330
2A
102
}
330
2A
100
AcDbVisualStyle
  2
3dWireframe
 70
     5
 71
     0
 72
     2
 73
     0
 90
        0
 40
-0.6
 41
-30.0
 62
     5
 63
     7
421
 16777215
 74
     1
 91
        4
 64
     7
 65
   257
 75
     1
175
     1
 42
1.0
 92
        0
 66
   257
 43
1.0
 76
     1
 77
     6
 78
     2
 67
     7
 79
     5
170
     0
171
     0
290
     0
174
     0
 93
        1
 44
0.0
173
     0
291
     0
 45
0.0
1001
ACAD
1000
AcDbSavedByObjectVersion
1070
     0
  0
VISUALSTYLE
  5
32
102
{ACAD_REACTORS
330
2A
102
}
330
2A
100
AcDbVisualStyle
  2
Basic
 70
     7
 71
     1
 72
     0
 73
     1
 90
        0
 40
-0.6
 41
-30.0
 62
     5
 63
     7
421
 16777215
 74
     0
 91
        4
 64
     7
 65
   257
 75
     1
175
     1
 42
1.0
 92
        8
 66
     7
 43
1.0
 76
     1
 77
     6
 78
     2
 67
     7
 79
     5
170
     0
171
     0
290
     0
174
     0
 93
        1
 44
0.0
173
     0
291
     1
 45
0.0
1001
ACAD
1000
AcDbSavedByObjectVersion
1070
     0
  0
VISUALSTYLE
  5
36
102
{ACAD_REACTORS
330
2A
102
}
330
2A
100
AcDbVisualStyle
  2
Brighten
 70
    12
 71
     2
 72
     2
 73
     0
 90
        0
 40
-0.6
 41
-30.0
 62
     5
 63
     7
421
 16777215
 74
     1
 91
        4
 64
     7
 65
   257
 75
     1
175
     1
 42
1.0
 92
        8
 66
     7
 43
1.0
 76
     1
 77
     6
 78
     2
 67
     7
 79
     5
170
     0
171
     0
290
     0
174
     0
 93
        1
 44
50.0
173
     0
291
     1
 45
0.0
1001
ACAD
1000
AcDbSavedByObjectVersion
1070
     0
  0
VISUALSTYLE
  5
3A
102
{ACAD_REACTORS
330
2A
102
}
330
2A
100
AcDbVisualStyle
  2
ColorChange
 70
    16
 71
     2
 72
     2
 73
     3
 90
        0
 40
-0.6
 41
-30.0
 62
     5
 63
     8
421
  8421504
 74
     1
 91
        4
 64
     7
 65
   257
 75
     1
175
     1
 42
1.0
 92
        8
 66
     8
424
  8421504
 43
1.0
 76
     1
 77
     6
 78
     2
 67
     7
 79
     5
170
     0
171
     0
290
     0
174
     0
 93
        1
 44
0.0
173
     0
291
     1
 45
0.0
1001
ACAD
1000
AcDbSavedByObjectVersion
1070
     0
  0
VISUALSTYLE
  5
34
102
{ACAD_REACTORS
330
2A
102
}
330
2A
100
AcDbVisualStyle
  2
Conceptual
 70
     9
 71
     3
 72
     2
 73
     0
 90
        0
 40
-0.6
 41
-30.0
 62
     5
 63
     7
421
 16777215
 74
     2
 91
        2
 64
     7
 65
   257
 75
     1
175
     1
 42
40.0
 92
        8
 66
     7
 43
1.0
 76
     1
 77
     6
 78
     2
 67
     7
 79
     3
170
     0
171
     0
290
     0
174
     0
 93
        1
 44
0.0
173
     0
291
     0
 45
0.0
1001
ACAD
1000
AcDbSavedByObjectVersion
1070
     0
  0
VISUALSTYLE
  5
35
102
{ACAD_REACTORS
330
2A
102
}
330
2A
100
AcDbVisualStyle
  2
Dim
 70
    11
 71
     2
 72
     2
 73
     0
 90
        0
 40
-0.6
 41
-30.0
 62
     5
 63
     7
421
 16777215
 74
     1
 91
        4
 64
     7
 65
   257
 75
     1
175
     1
 42
1.0
 92
        8
 66
     7
 43
1.0
 76
     1
 77
     6
 78
     2
 67
     7
 79
     5
170
     0
171
     0
290
     0
174
     0
 93
        1
 44
-50.0
173
     0
291
     1
 45
0.0
1001
ACAD
1000
AcDbSavedByObjectVersion
1070
     0
  0
VISUALSTYLE
  5
39
102
{ACAD_REACTORS
330
2A
102
}
330
2A
100
AcDbVisualStyle
  2
Facepattern
 70
    15
 71
     2
 72
     2
 73
     0
 90
        0
 40
-0.6
 41
-30.0
 62
     5
 63
     7
421
 16777215
 74
     1
 91
        4
 64
     7
 65
   257
 75
     1
175
     1
 42
1.0
 92
        8
 66
     7
 43
1.0
 76
     1
 77
     6
 78
     2
 67
     7
 79
     5
170
     0
171
     0
290
     0
174
     0
 93
        1
 44
0.0
173
     0
291
     1
 45
0.0
1001
ACAD
1000
AcDbSavedByObjectVersion
1070
     0
  0
VISUALSTYLE
  5
2B
102
{ACAD_REACTORS
330
2A
102
}
330
2A
100
AcDbVisualStyle
  2
Flat
 70
     0
 71
     2
 72
     1
 73
     1
 90
        2
 40
-0.6
 41
30.0
 62
     5
 63
     7
421
 16777215
 74
     0
 91
        4
 64
     7
 65
   257
 75
     1
175
     1
 42
1.0
 92
        8
 66
     7
 43
1.0
 76
     1
 77
     6
 78
     2
 67
     7
 79
     5
170
     0
171
     0
290
     0
174
     0
 93
       13
 44
0.0
173
     0
291
     1
 45
0.0
1001
ACAD
1000
AcDbSavedByObjectVersion
1070
     0
  0
VISUALSTYLE
  5
2C
102
{ACAD_REACTORS
330
2A
102
}
330
2A
100
AcDbVisualStyle
  2
FlatWithEdges
 70
     1
 71
     2
 72
     1
 73
     1
 90
        2
 40
-0.6
 41
30.0
 62
     5
 63
     7
421
 16777215
 74
     1
 91
        4
 64
     7
 65
   257
 75
     1
175
     1
 42
1.0
 92
        0
 66
   257
 43
1.0
 76
     1
 77
     6
 78
     2
 67
     7
 79
     5
170
     0
171
     0
290
     0
174
     0
 93
       13
 44
0.0
173
     0
291
     1
 45
0.0
1001
ACAD
1000
AcDbSavedByObjectVersion
1070
     0
  0
VISUALSTYLE
  5
2D
102
{ACAD_REACTORS
330
2A
102
}
330
2A
100
AcDbVisualStyle
  2
Gouraud
 70
     2
 71
     2
 72
     2
 73
     1
 90
        2
 40
-0.6
 41
30.0
 62
     5
 63
     7
421
 16777215
 74
     0
 91
        4
 64
     7
 65
   257
 75
     1
175
     1
 42
1.0
 92
        0
 66
     7
 43
1.0
 76
     1
 77
     6
 78
     2
 67
     7
 79
     5
170
     0
171
     0
290
     0
174
     0
 93
       13
 44
0.0
173
     0
291
     1
 45
0.0
1001
ACAD
1000
AcDbSavedByObjectVersion
1070
     0
  0
VISUALSTYLE
  5
2E
102
{ACAD_REACTORS
330
2A
102
}
330
2A
100
AcDbVisualStyle
  2
GouraudWithEdges
 70
     3
 71
     2
 72
     2
 73
     1
 90
        2
 40
-0.6
 41
30.0
 62
     5
 63
     7
421
 16777215
 74
     1
 91
        4
 64
     7
 65
   257
 75
     1
175
     1
 42
1.0
 92
        0
 66
   257
 43
1.0
 76
     1
 77
     6
 78
     2
 67
     7
 79
     5
170
     0
171
     0
290
     0
174
     0
 93
       13
 44
0.0
173
     0
291
     1
 45
0.0
1001
ACAD
1000
AcDbSavedByObjectVersion
1070
     0
  0
VISUALSTYLE
  5
38
102
{ACAD_REACTORS
330
2A
102
}
330
2A
100
AcDbVisualStyle
  2
Linepattern
 70
    14
 71
     2
 72
     2
 73
     0
 90
        0
 40
-0.6
 41
-30.0
 62
     5
 63
     7
421
 16777215
 74
     1
 91
        4
 64
     7
 65
   257
 75
     7
175
     7
 42
1.0
 92
        8
 66
     7
 43
1.0
 76
     1
 77
     6
 78
     2
 67
     7
 79
     5
170
     0
171
     0
290
     0
174
     0
 93
        1
 44
0.0
173
     0
291
     1
 45
0.0
1001
ACAD
1000
AcDbSavedByObjectVersion
1070
     0
  0
VISUALSTYLE
  5
33
102
{ACAD_REACTORS
330
2A
102
}
330
2A
100
AcDbVisualStyle
  2
Realistic
 70
     8
 71
     2
 72
     2
 73
     0
 90
        0
 40
-0.6
 41
-30.0
 62
     5
 63
     7
421
 16777215
 74
     1
 91
        0
 64
     7
 65
   257
 75
     1
175
     1
 42
1.0
 92
        8
 66
     8
424
  7895160
 43
1.0
 76
     1
 77
     6
 78
     2
 67
     7
 79
     5
170
     0
171
     0
290
     0
174
     0
 93
       13
 44
0.0
173
     0
291
     0
 45
0.0
1001
ACAD
1000
AcDbSavedByObjectVersion
1070
     0
  0
VISUALSTYLE
  5
37
102
{ACAD_REACTORS
330
2A
102
}
330
2A
100
AcDbVisualStyle
  2
Thicken
 70
    13
 71
     2
 72
     2
 73
     0
 90
        0
 40
-0.6
 41
-30.0
 62
     5
 63
     7
421
 16777215
 74
     1
 91
        4
 64
     7
 65
   257
 75
     1
175
     1
 42
1.0
 92
       12
 66
     7
 43
1.0
 76
     1
 77
     6
 78
     2
 67
     7
 79
     5
170
     0
171
     0
290
     0
174
     0
 93
        1
 44
0.0
173
     0
291
     1
 45
0.0
1001
ACAD
1000
AcDbSavedByObjectVersion
1070
     0
  0
ENDSEC
  0
EOF
