  0
SECTION
  2
HEADER
  9
$ACADVER
  1
AC1018
  9
$ACADMAINTVER
 70
     0
  9
$DWGCODEPAGE
  3
ANSI_932
  9
$INSBASE
 10
0.0
 20
0.0
 30
0.0
  9
$EXTMIN
 10
-1470.0
 20
-1039.5
 30
0.0
  9
$EXTMAX
 10
1470.0
 20
1039.5
 30
0.0
  9
$LIMMIN
 10
-1470.0
 20
-1039.5
  9
$LIMMAX
 10
1470.0
 20
1039.5
  9
$ORTHOMODE
 70
     0
  9
$REGENMODE
 70
     1
  9
$FILLMODE
 70
     1
  9
$QTEXTMODE
 70
     0
  9
$MIRRTEXT
 70
     1
  9
$LTSCALE
 40
7.0
  9
$ATTMODE
 70
     1
  9
$TEXTSIZE
 40
2.5
  9
$TRACEWID
 40
1.0
  9
$TEXTSTYLE
  7
Standard
  9
$CLAYER
  8
0
  9
$CELTYPE
  6
ByLayer
  9
$CECOLOR
 62
   256
  9
$CELTSCALE
 40
1.0
  9
$DISPSILH
 70
     0
  9
$DIMSCALE
 40
1.0
  9
$DIMASZ
 40
2.5
  9
$DIMEXO
 40
0.625
  9
$DIMDLI
 40
3.75
  9
$DIMRND
 40
0.0
  9
$DIMDLE
 40
0.0
  9
$DIMEXE
 40
1.25
  9
$DIMTP
 40
0.0
  9
$DIMTM
 40
0.0
  9
$DIMTXT
 40
2.5
  9
$DIMCEN
 40
2.5
  9
$DIMTSZ
 40
0.0
  9
$DIMTOL
 70
     0
  9
$DIMLIM
 70
     0
  9
$DIMTIH
 70
     0
  9
$DIMTOH
 70
     0
  9
$DIMSE1
 70
     0
  9
$DIMSE2
 70
     0
  9
$DIMTAD
 70
     1
  9
$DIMZIN
 70
     8
  9
$DIMBLK
  1

  9
$DIMASO
 70
     1
  9
$DIMSHO
 70
     1
  9
$DIMPOST
  1

  9
$DIMAPOST
  1

  9
$DIMALT
 70
     0
  9
$DIMALTD
 70
     3
  9
$DIMALTF
 40
0.03937007874016
  9
$DIMLFAC
 40
1.0
  9
$DIMTOFL
 70
     1
  9
$DIMTVP
 40
0.0
  9
$DIMTIX
 70
     0
  9
$DIMSOXD
 70
     0
  9
$DIMSAH
 70
     0
  9
$DIMBLK1
  1

  9
$DIMBLK2
  1

  9
$DIMSTYLE
  2
ISO-25
  9
$DIMCLRD
 70
     0
  9
$DIMCLRE
 70
     0
  9
$DIMCLRT
 70
     0
  9
$DIMTFAC
 40
1.0
  9
$DIMGAP
 40
0.625
  9
$DIMJUST
 70
     0
  9
$DIMSD1
 70
     0
  9
$DIMSD2
 70
     0
  9
$DIMTOLJ
 70
     0
  9
$DIMTZIN
 70
     8
  9
$DIMALTZ
 70
     0
  9
$DIMALTTZ
 70
     0
  9
$DIMUPT
 70
     0
  9
$DIMDEC
 70
     2
  9
$DIMTDEC
 70
     2
  9
$DIMALTU
 70
     2
  9
$DIMALTTD
 70
     3
  9
$DIMTXSTY
  7
Standard
  9
$DIMAUNIT
 70
     0
  9
$DIMADEC
 70
     0
  9
$DIMALTRND
 40
0.0
  9
$DIMAZIN
 70
     0
  9
$DIMDSEP
 70
    44
  9
$DIMATFIT
 70
     3
  9
$DIMFRAC
 70
     0
  9
$DIMLDRBLK
  1

  9
$DIMLUNIT
 70
     2
  9
$DIMLWD
 70
    -2
  9
$DIMLWE
 70
    -2
  9
$DIMTMOVE
 70
     0
  9
$LUNITS
 70
     2
  9
$LUPREC
 70
     4
  9
$SKETCHINC
 40
1.0
  9
$FILLETRAD
 40
10.0
  9
$AUNITS
 70
     0
  9
$AUPREC
 70
     0
  9
$MENU
  1
.
  9
$ELEVATION
 40
0.0
  9
$PELEVATION
 40
0.0
  9
$THICKNESS
 40
0.0
  9
$LIMCHECK
 70
     0
  9
$CHAMFERA
 40
10.0
  9
$CHAMFERB
 40
10.0
  9
$CHAMFERC
 40
20.0
  9
$CHAMFERD
 40
0.0
  9
$SKPOLY
 70
     0
  9
$TDCREATE
 40
2457400.414924757
  9
$TDUCREATE
 40
2457400.039924757
  9
$TDUPDATE
 40
2457400.414924769
  9
$TDUUPDATE
 40
2457400.039924769
  9
$TDINDWG
 40
0.0000000116
  9
$TDUSRTIMER
 40
0.0000000116
  9
$USRTIMER
 70
     1
  9
$ANGBASE
 50
0.0
  9
$ANGDIR
 70
     0
  9
$PDMODE
 70
     0
  9
$PDSIZE
 40
0.0
  9
$PLINEWID
 40
0.0
  9
$SPLFRAME
 70
     0
  9
$SPLINETYPE
 70
     6
  9
$SPLINESEGS
 70
     8
  9
$HANDSEED
  5
666
  9
$SURFTAB1
 70
     6
  9
$SURFTAB2
 70
     6
  9
$SURFTYPE
 70
     6
  9
$SURFU
 70
     6
  9
$SURFV
 70
     6
  9
$UCSBASE
  2

  9
$UCSNAME
  2

  9
$UCSORG
 10
0.0
 20
0.0
 30
0.0
  9
$UCSXDIR
 10
1.0
 20
0.0
 30
0.0
  9
$UCSYDIR
 10
0.0
 20
1.0
 30
0.0
  9
$UCSORTHOREF
  2

  9
$UCSORTHOVIEW
 70
     0
  9
$UCSORGTOP
 10
0.0
 20
0.0
 30
0.0
  9
$UCSORGBOTTOM
 10
0.0
 20
0.0
 30
0.0
  9
$UCSORGLEFT
 10
0.0
 20
0.0
 30
0.0
  9
$UCSORGRIGHT
 10
0.0
 20
0.0
 30
0.0
  9
$UCSORGFRONT
 10
0.0
 20
0.0
 30
0.0
  9
$UCSORGBACK
 10
0.0
 20
0.0
 30
0.0
  9
$PUCSBASE
  2

  9
$PUCSNAME
  2

  9
$PUCSORG
 10
0.0
 20
0.0
 30
0.0
  9
$PUCSXDIR
 10
1.0
 20
0.0
 30
0.0
  9
$PUCSYDIR
 10
0.0
 20
1.0
 30
0.0
  9
$PUCSORTHOREF
  2

  9
$PUCSORTHOVIEW
 70
     0
  9
$PUCSORGTOP
 10
0.0
 20
0.0
 30
0.0
  9
$PUCSORGBOTTOM
 10
0.0
 20
0.0
 30
0.0
  9
$PUCSORGLEFT
 10
0.0
 20
0.0
 30
0.0
  9
$PUCSORGRIGHT
 10
0.0
 20
0.0
 30
0.0
  9
$PUCSORGFRONT
 10
0.0
 20
0.0
 30
0.0
  9
$PUCSORGBACK
 10
0.0
 20
0.0
 30
0.0
  9
$USERI1
 70
     0
  9
$USERI2
 70
     0
  9
$USERI3
 70
     0
  9
$USERI4
 70
     0
  9
$USERI5
 70
     0
  9
$USERR1
 40
0.0
  9
$USERR2
 40
0.0
  9
$USERR3
 40
0.0
  9
$USERR4
 40
0.0
  9
$USERR5
 40
0.0
  9
$WORLDVIEW
 70
     1
  9
$SHADEDGE
 70
     3
  9
$SHADEDIF
 70
    70
  9
$TILEMODE
 70
     1
  9
$MAXACTVP
 70
    64
  9
$PINSBASE
 10
0.0
 20
0.0
 30
0.0
  9
$PLIMCHECK
 70
     0
  9
$PEXTMIN
 10
1.000000000000000E+20
 20
1.000000000000000E+20
 30
1.000000000000000E+20
  9
$PEXTMAX
 10
-1.000000000000000E+20
 20
-1.000000000000000E+20
 30
-1.000000000000000E+20
  9
$PLIMMIN
 10
0.0
 20
0.0
  9
$PLIMMAX
 10
420.0
 20
297.0
  9
$UNITMODE
 70
     0
  9
$VISRETAIN
 70
     1
  9
$PLINEGEN
 70
     0
  9
$PSLTSCALE
 70
     1
  9
$TREEDEPTH
 70
  3020
  9
$CMLSTYLE
  2
Standard
  9
$CMLJUST
 70
     0
  9
$CMLSCALE
 40
20.0
  9
$PROXYGRAPHICS
 70
     1
  9
$MEASUREMENT
 70
     1
  9
$CELWEIGHT
370
    -1
  9
$ENDCAPS
280
     0
  9
$JOINSTYLE
280
     0
  9
$LWDISPLAY
290
     0
  9
$INSUNITS
 70
     4
  9
$HYPERLINKBASE
  1

  9
$STYLESHEET
  1

  9
$XEDIT
290
     1
  9
$CEPSNTYPE
380
     0
  9
$PSTYLEMODE
290
     1
  9
$FINGERPRINTGUID
  2
{997C8531-2001-4CA6-A087-00640EE0F68E}
  9
$VERSIONGUID
  2
{FAEB1C32-E019-11D5-929B-00C0DF256EC4}
  9
$EXTNAMES
290
     1
  9
$PSVPSCALE
 40
0.0
  9
$OLESTARTUP
290
     0
  9
$SORTENTS
280
   127
  9
$INDEXCTL
280
     0
  9
$HIDETEXT
280
     1
  9
$XCLIPFRAME
290
     0
  9
$HALOGAP
280
     0
  9
$OBSCOLOR
 70
   257
  9
$OBSLTYPE
280
     0
  9
$INTERSECTIONDISPLAY
280
     0
  9
$INTERSECTIONCOLOR
 70
   257
  9
$DIMASSOC
280
     2
  9
$PROJECTNAME
  1

  0
ENDSEC
  0
SECTION
  2
CLASSES
  0
CLASS
  1
ACDBDICTIONARYWDFLT
  2
AcDbDictionaryWithDefault
  3
ObjectDBX Classes
 90
        0
 91
        4
280
     0
281
     0
  0
CLASS
  1
VISUALSTYLE
  2
AcDbVisualStyle
  3
ObjectDBX Classes
 90
     4095
 91
        4
280
     0
281
     0
  0
ENDSEC
  0
SECTION
  2
TABLES
  0
TABLE
  2
VPORT
  5
8
330
0
100
AcDbSymbolTable
 70
     1
  0
VPORT
  5
29
330
8
100
AcDbSymbolTableRecord
100
AcDbViewportTableRecord
  2
*Active
 70
     0
 10
0.0
 20
0.0
 11
1.0
 21
1.0
 12
0.0
 22
0.0
 13
0.0
 23
0.0
 14
10.0
 24
10.0
 15
10.0
 25
10.0
 16
0.0
 26
0.0
 36
1.0
 17
0.0
 27
0.0
 37
0.0
 40
2286.9
 41
1.414141414141414
 42
50.0
 43
0.0
 44
0.0
 50
0.0
 51
0.0
 71
     0
 72
 10000
 73
     1
 74
     3
 75
     0
 76
     0
 77
     0
 78
     0
281
     0
 65
     1
110
0.0
120
0.0
130
0.0
111
1.0
121
0.0
131
0.0
112
0.0
122
1.0
132
0.0
 79
     0
146
0.0
  0
ENDTAB
  0
TABLE
  2
LTYPE
  5
5
330
0
100
AcDbSymbolTable
 70
     3
  0
LTYPE
  5
14
330
5
100
AcDbSymbolTableRecord
100
AcDbLinetypeTableRecord
  2
ByBlock
 70
     0
  3

 72
    65
 73
     0
 40
0.0
  0
LTYPE
  5
15
330
5
100
AcDbSymbolTableRecord
100
AcDbLinetypeTableRecord
  2
ByLayer
 70
     0
  3

 72
    65
 73
     0
 40
0.0
  0
LTYPE
  5
16
330
5
100
AcDbSymbolTableRecord
100
AcDbLinetypeTableRecord
  2
Continuous
 70
     0
  3
Solid line
 72
    65
 73
     0
 40
0.0
  0
LTYPE
  5
3C
330
5
100
AcDbSymbolTableRecord
100
AcDbLinetypeTableRecord
  2
JWW_CENTER1
 70
     0
  3
-----  --  ----------  --  -----
 72
    65
 73
     4
 40
6.773333333333333
 49
4.233333333333333
 74
     0
 49
-0.8466666666666667
 74
     0
 49
0.8466666666666667
 74
     0
 49
-0.8466666666666667
 74
     0
  0
LTYPE
  5
3D
330
5
100
AcDbSymbolTableRecord
100
AcDbLinetypeTableRecord
  2
JWW_HOJO
 70
     0
  3
  -   -   -   -   -   -   -   - 
 72
    65
 73
     2
 40
1.693333333333333
 49
-1.27
 74
     0
 49
0.4233333333333333
 74
     0
  0
ENDTAB
  0
TABLE
  2
LAYER
  5
2
330
0
100
AcDbSymbolTable
 70
     8
  0
LAYER
  5
10
330
2
100
AcDbSymbolTableRecord
100
AcDbLayerTableRecord
  2
0
 70
     0
 62
     7
  6
Continuous
370
    -3
390
F
  0
LAYER
  5
3E
330
2
100
AcDbSymbolTableRecord
100
AcDbLayerTableRecord
  2
F-0ﾚｲﾔ
 70
     0
 62
     7
  6
Continuous
370
    -3
390
F
  0
LAYER
  5
3F
330
2
100
AcDbSymbolTableRecord
100
AcDbLayerTableRecord
  2
仕上
 70
     0
 62
     7
  6
Continuous
370
    -3
390
F
  0
LAYER
  5
40
330
2
100
AcDbSymbolTableRecord
100
AcDbLayerTableRecord
  2
建具
 70
     0
 62
     7
  6
Continuous
370
    -3
390
F
  0
LAYER
  5
41
330
2
100
AcDbSymbolTableRecord
100
AcDbLayerTableRecord
  2
躯体
 70
     0
 62
     7
  6
Continuous
370
    -3
390
F
  0
LAYER
  5
42
330
2
100
AcDbSymbolTableRecord
100
AcDbLayerTableRecord
  2
その他
 70
     0
 62
     7
  6
Continuous
370
    -3
390
F
  0
LAYER
  5
43
330
2
100
AcDbSymbolTableRecord
100
AcDbLayerTableRecord
  2
0-E
 70
     0
 62
     7
  6
Continuous
370
    -3
390
F
  0
LAYER
  5
44
330
2
100
AcDbSymbolTableRecord
100
AcDbLayerTableRecord
  2
0-A
 70
     0
 62
     7
  6
Continuous
370
    -3
390
F
  0
ENDTAB
  0
TABLE
  2
STYLE
  5
3
330
0
100
AcDbSymbolTable
 70
     2
  0
STYLE
  5
11
330
3
100
AcDbSymbolTableRecord
100
AcDbTextStyleTableRecord
  2
Standard
 70
     0
 40
0.0
 41
1.0
 50
0.0
 71
     0
 42
2.5
  3
txt
  4

1001
ACAD
1000

1071
        0
  0
STYLE
  5
3B
330
3
100
AcDbSymbolTableRecord
100
AcDbTextStyleTableRecord
  2
ＭＳ ゴシック
 70
     0
 40
1.0
 41
1.0
 50
0.0
 71
     0
 42
10.0
  3

  4

1001
ACAD
1000
MS Gothic
1071
    32817
  0
ENDTAB
  0
TABLE
  2
VIEW
  5
6
330
0
100
AcDbSymbolTable
 70
     0
  0
ENDTAB
  0
TABLE
  2
UCS
  5
7
330
0
100
AcDbSymbolTable
 70
     0
  0
ENDTAB
  0
TABLE
  2
APPID
  5
9
330
0
100
AcDbSymbolTable
 70
     1
  0
APPID
  5
12
330
9
100
AcDbSymbolTableRecord
100
AcDbRegAppTableRecord
  2
ACAD
 70
     0
  0
ENDTAB
  0
TABLE
  2
DIMSTYLE
  5
A
330
0
100
AcDbSymbolTable
 70
     1
100
AcDbDimStyleTable
  0
DIMSTYLE
105
27
330
A
100
AcDbSymbolTableRecord
100
AcDbDimStyleTableRecord
  2
ISO-25
 70
     0
 41
2.5
 42
0.625
 43
3.75
 44
1.25
 73
     0
 74
     0
 77
     1
 78
     8
140
2.5
141
2.5
143
0.03937007874016
147
0.625
171
     3
172
     1
271
     2
272
     2
274
     3
278
    44
283
     0
284
     8
340
11
  0
ENDTAB
  0
TABLE
  2
BLOCK_RECORD
  5
1
330
0
100
AcDbSymbolTable
 70
     1
  0
BLOCK_RECORD
  5
1F
330
1
100
AcDbSymbolTableRecord
100
AcDbBlockTableRecord
  2
*Model_Space
340
22
  0
BLOCK_RECORD
  5
1B
330
1
100
AcDbSymbolTableRecord
100
AcDbBlockTableRecord
  2
*Paper_Space
340
1E
  0
BLOCK_RECORD
  5
23
330
1
100
AcDbSymbolTableRecord
100
AcDbBlockTableRecord
  2
*Paper_Space0
340
26
  0
ENDTAB
  0
ENDSEC
  0
SECTION
  2
BLOCKS
  0
BLOCK
  5
20
330
1F
100
AcDbEntity
  8
0
100
AcDbBlockBegin
  2
*Model_Space
 70
     0
 10
0.0
 20
0.0
 30
0.0
  3
*Model_Space
  1

  0
ENDBLK
  5
21
330
1F
100
AcDbEntity
  8
0
100
AcDbBlockEnd
  0
BLOCK
  5
1C
330
1B
100
AcDbEntity
 67
     1
  8
0
100
AcDbBlockBegin
  2
*Paper_Space
 70
     0
 10
0.0
 20
0.0
 30
0.0
  3
*Paper_Space
  1

  0
ENDBLK
  5
1D
330
1B
100
AcDbEntity
 67
     1
  8
0
100
AcDbBlockEnd
  0
BLOCK
  5
24
330
23
100
AcDbEntity
  8
0
100
AcDbBlockBegin
  2
*Paper_Space0
 70
     0
 10
0.0
 20
0.0
 30
0.0
  3
*Paper_Space0
  1

  0
ENDBLK
  5
25
330
23
100
AcDbEntity
  8
0
100
AcDbBlockEnd
  0
ENDSEC
  0
SECTION
  2
ENTITIES
  0
TEXT
  5
45
330
1F
100
AcDbEntity
  8
F-0ﾚｲﾔ
  6
Continuous
 62
     6
370
     0
100
AcDbText
 10
30.59960800284851
 20
-785.9757201972836
 30
0.0
 40
21.336
  1
回転ロック式　簡易密閉型（簡易防水・防臭型）角枠
 41
0.7979166666666666
  7
ＭＳ ゴシック
100
AcDbText
  0
TEXT
  5
46
330
1F
100
AcDbEntity
  8
F-0ﾚｲﾔ
  6
Continuous
 62
     6
370
     0
100
AcDbText
 10
117.8035777133358
 20
-819.5831366086874
 30
0.0
 40
21.336
  1
マンホール鉄蓋　ＭＫＲＹ－２－６００（角）－ｂ
 41
0.7978260869565218
  7
ＭＳ ゴシック
100
AcDbText
  0
LINE
  5
47
330
1F
100
AcDbEntity
  8
仕上
  6
JWW_CENTER1
 62
     3
370
     9
100
AcDbLine
 10
-376.0001765070735
 20
291.4958579581117
 30
0.0
 11
375.9993970716322
 21
291.4958579581117
 31
0.0
  0
LINE
  5
48
330
1F
100
AcDbEntity
  8
建具
  6
Continuous
 62
     4
370
     9
100
AcDbLine
 10
-79.25784549197635
 20
-496.2593638469454
 30
0.0
 11
-85.25776631123324
 21
-496.2593638469454
 31
0.0
  0
LINE
  5
49
330
1F
100
AcDbEntity
  8
建具
  6
Continuous
 62
     4
370
     9
100
AcDbLine
 10
-78.25774321684983
 20
-497.2593795181341
 30
0.0
 11
-86.25786858635996
 21
-497.2593795181341
 31
0.0
  0
LINE
  5
4A
330
1F
100
AcDbEntity
  8
建具
  6
Continuous
 62
     4
370
     9
100
AcDbLine
 10
-78.25774321684983
 20
-497.2593795181341
 30
0.0
 11
-79.25784549197635
 21
-496.2593638469454
 31
0.0
  0
LINE
  5
4B
330
1F
100
AcDbEntity
  8
建具
  6
Continuous
 62
     4
370
     9
100
AcDbLine
 10
-85.25776631123324
 20
-496.2593638469454
 30
0.0
 11
-86.25786858635996
 21
-497.2593795181341
 31
0.0
  0
LINE
  5
4C
330
1F
100
AcDbEntity
  8
建具
  6
Continuous
 62
     4
370
     9
100
AcDbLine
 10
-78.75779435441319
 20
-518.2593621973466
 30
0.0
 11
-78.75779435441319
 21
-514.2593861165294
 31
0.0
  0
LINE
  5
4D
330
1F
100
AcDbEntity
  8
建具
  6
JWW_CENTER1
 62
     4
370
     9
100
AcDbLine
 10
-82.2578059016048
 20
-518.2593621973466
 30
0.0
 11
-82.2578059016048
 21
-494.7141763865357
 31
0.0
  0
LINE
  5
4E
330
1F
100
AcDbEntity
  8
建具
  6
Continuous
 62
     4
370
     9
100
AcDbLine
 10
-85.7578174487966
 20
-518.2593621973466
 30
0.0
 11
-85.7578174487966
 21
-514.2593861165294
 31
0.0
  0
LINE
  5
4F
330
1F
100
AcDbEntity
  8
建具
  6
Continuous
 62
     4
370
     9
100
AcDbLine
 10
-75.75783394478475
 20
-528.2593457013585
 30
0.0
 11
37.03374914220862
 21
-528.2593457013585
 31
0.0
  0
LINE
  5
50
330
1F
100
AcDbEntity
  8
建具
  6
Continuous
 62
     4
370
     9
100
AcDbLine
 10
-75.75783394478475
 20
-521.2593226069749
 30
0.0
 11
37.03374914220862
 21
-521.2593226069749
 31
0.0
  0
LINE
  5
51
330
1F
100
AcDbEntity
  8
建具
  6
JWW_CENTER1
 62
     4
370
     9
100
AcDbLine
 10
52.74214461043061
 20
-545.3909902853956
 30
0.0
 11
52.74214461043061
 21
-506.1033736587591
 31
0.0
  0
LINE
  5
52
330
1F
100
AcDbEntity
  8
建具
  6
Continuous
 62
     4
370
     9
100
AcDbLine
 10
46.01388467324742
 20
-522.8280663384994
 30
0.0
 11
40.05328204180734
 21
-518.8438521743842
 31
0.0
  0
LINE
  5
53
330
1F
100
AcDbEntity
  8
建具
  6
Continuous
 62
     4
370
     9
100
AcDbLine
 10
-89.7577069256757
 20
-506.4810534320383
 30
0.0
 11
-89.7577069256757
 21
-512.259268170214
 31
0.0
  0
LINE
  5
54
330
1F
100
AcDbEntity
  8
建具
  6
Continuous
 62
     4
370
     9
100
AcDbLine
 10
-74.75773166965797
 20
-506.4810534320383
 30
0.0
 11
-74.75773166965797
 21
-512.259268170214
 31
0.0
  0
LINE
  5
55
330
1F
100
AcDbEntity
  8
建具
  6
Continuous
 62
     4
370
     9
100
AcDbLine
 10
-86.00498508762678
 20
-506.4810534320383
 30
0.0
 11
-86.00498508762678
 21
-512.259268170214
 31
0.0
  0
LINE
  5
56
330
1F
100
AcDbEntity
  8
建具
  6
Continuous
 62
     4
370
     9
100
AcDbLine
 10
-78.51062671558282
 20
-506.4810534320383
 30
0.0
 11
-78.51062671558282
 21
-512.259268170214
 31
0.0
  0
LINE
  5
57
330
1F
100
AcDbEntity
  8
建具
  6
Continuous
 62
     4
370
     9
100
AcDbLine
 10
-87.88134600665134
 20
-505.759209609456
 30
0.0
 11
-76.63426579655845
 21
-505.759209609456
 31
0.0
  0
LINE
  5
58
330
1F
100
AcDbEntity
  8
建具
  6
Continuous
 62
     4
370
     9
100
AcDbLine
 10
-71.00778115762242
 20
-514.2593861165294
 30
0.0
 11
-71.00778115762242
 21
-512.259268170214
 31
0.0
  0
LINE
  5
59
330
1F
100
AcDbEntity
  8
建具
  6
Continuous
 62
     4
370
     9
100
AcDbLine
 10
-93.50783064558712
 20
-514.2593861165294
 30
0.0
 11
-71.00778115762242
 21
-514.2593861165294
 31
0.0
  0
LINE
  5
5A
330
1F
100
AcDbEntity
  8
建具
  6
Continuous
 62
     4
370
     9
100
AcDbLine
 10
-93.50783064558712
 20
-514.2593861165294
 30
0.0
 11
-93.50783064558712
 21
-512.259268170214
 31
0.0
  0
LINE
  5
5B
330
1F
100
AcDbEntity
  8
建具
  6
Continuous
 62
     4
370
     9
100
AcDbLine
 10
-93.50783064558712
 20
-512.259268170214
 30
0.0
 11
-71.00778115762242
 21
-512.259268170214
 31
0.0
  0
LINE
  5
5C
330
1F
100
AcDbEntity
  8
建具
  6
Continuous
 62
     4
370
     9
100
AcDbLine
 10
-85.25776631123324
 20
-496.2593638469454
 30
0.0
 11
-85.25776631123324
 21
-505.759209609456
 31
0.0
  0
LINE
  5
5D
330
1F
100
AcDbEntity
  8
建具
  6
Continuous
 62
     4
370
     9
100
AcDbLine
 10
-86.25786858635996
 20
-497.2593795181341
 30
0.0
 11
-86.25786858635996
 21
-505.759209609456
 31
0.0
  0
LINE
  5
5E
330
1F
100
AcDbEntity
  8
建具
  6
Continuous
 62
     4
370
     9
100
AcDbLine
 10
-79.25784549197635
 20
-496.2593638469454
 30
0.0
 11
-79.25784549197635
 21
-505.759209609456
 31
0.0
  0
LINE
  5
5F
330
1F
100
AcDbEntity
  8
建具
  6
Continuous
 62
     4
370
     9
100
AcDbLine
 10
-78.25774321684983
 20
-497.2593795181341
 30
0.0
 11
-78.25774321684983
 21
-505.759209609456
 31
0.0
  0
LINE
  5
60
330
1F
100
AcDbEntity
  8
躯体
  6
Continuous
 62
     2
370
     9
100
AcDbLine
 10
-299.2427599107897
 20
646.4959651820348
 30
0.0
 11
299.2425000989759
 21
646.4956187662832
 31
0.0
  0
LINE
  5
61
330
1F
100
AcDbEntity
  8
躯体
  6
Continuous
 62
     2
370
     9
100
AcDbLine
 10
-299.2427599107897
 20
645.4962093226598
 30
0.0
 11
299.2425000989759
 21
645.4955164911565
 31
0.0
  0
LINE
  5
62
330
1F
100
AcDbEntity
  8
躯体
  6
Continuous
 62
     2
370
     9
100
AcDbLine
 10
299.8480348329285
 20
625.2845822903541
 30
0.0
 11
309.0457194560283
 21
634.4822669134537
 31
0.0
  0
LINE
  5
63
330
1F
100
AcDbEntity
  8
躯体
  6
Continuous
 62
     2
370
     9
100
AcDbLine
 10
239.1556487212309
 20
524.6873532864479
 30
0.0
 11
233.1921881598394
 21
530.6512468675289
 31
0.0
  0
LINE
  5
64
330
1F
100
AcDbEntity
  8
躯体
  6
Continuous
 62
     2
370
     9
100
AcDbLine
 10
236.2260973131334
 20
531.9641625664309
 30
0.0
 11
307.0209193874051
 21
602.7590712446404
 31
0.0
  0
LINE
  5
65
330
1F
100
AcDbEntity
  8
躯体
  6
Continuous
 62
     2
370
     9
100
AcDbLine
 10
311.2636463062182
 20
598.5159979100753
 30
0.0
 11
307.0209193874051
 21
602.7590712446404
 31
0.0
  0
LINE
  5
66
330
1F
100
AcDbEntity
  8
躯体
  6
Continuous
 62
     2
370
     9
100
AcDbLine
 10
68.94123799092048
 20
634.4956039198938
 30
0.0
 11
292.1595970360008
 21
634.4956039198938
 31
0.0
  0
LINE
  5
67
330
1F
100
AcDbEntity
  8
躯体
  6
Continuous
 62
     2
370
     9
100
AcDbLine
 10
68.94123799092048
 20
635.4957061950205
 30
0.0
 11
292.1595970360008
 21
635.4957061950205
 31
0.0
  0
LINE
  5
68
330
1F
100
AcDbEntity
  8
躯体
  6
Continuous
 62
     2
370
     9
100
AcDbLine
 10
225.2814380542651
 20
549.3040030172333
 30
0.0
 11
309.3308196196684
 21
633.3532979786987
 31
0.0
  0
LINE
  5
69
330
1F
100
AcDbEntity
  8
躯体
  6
Continuous
 62
     2
370
     9
100
AcDbLine
 10
224.5744035050675
 20
550.0112107743067
 30
0.0
 11
297.1092719000738
 21
622.5458193574995
 31
0.0
  0
LINE
  5
6A
330
1F
100
AcDbEntity
  8
躯体
  6
Continuous
 62
     2
370
     9
100
AcDbLine
 10
307.0209193874051
 20
602.7590712446404
 30
0.0
 11
237.4996948242188
 21
537.1273161374824
 31
0.0
  0
LINE
  5
6B
330
1F
100
AcDbEntity
  8
躯体
  6
Continuous
 62
     2
370
     9
100
AcDbLine
 10
333.789157351932
 20
591.343113355599
 30
0.0
 11
342.9868419750316
 21
600.5409711865747
 31
0.0
  0
LINE
  5
6C
330
1F
100
AcDbEntity
  8
躯体
  6
Continuous
 62
     2
370
     9
100
AcDbLine
 10
240.4686510240709
 20
527.7214356476176
 30
0.0
 11
311.2638195140941
 21
598.516344325827
 31
0.0
  0
LINE
  5
6D
330
1F
100
AcDbEntity
  8
躯体
  6
Continuous
 62
     2
370
     9
100
AcDbLine
 10
343.0000057735958
 20
360.4365763254048
 30
0.0
 11
343.0000057735958
 21
583.654935370485
 31
0.0
  0
LINE
  5
6E
330
1F
100
AcDbEntity
  8
躯体
  6
Continuous
 62
     2
370
     9
100
AcDbLine
 10
344.0001080487225
 20
360.4365763254048
 30
0.0
 11
344.0001080487225
 21
583.654935370485
 31
0.0
  0
LINE
  5
6F
330
1F
100
AcDbEntity
  8
躯体
  6
Continuous
 62
     2
370
     9
100
AcDbLine
 10
257.8084914748733
 20
516.7771228045011
 30
0.0
 11
341.8578730402766
 21
600.8260713502148
 31
0.0
  0
LINE
  5
70
330
1F
100
AcDbEntity
  8
躯体
  6
Continuous
 62
     2
370
     9
100
AcDbLine
 10
258.5156992319468
 20
516.0697418395517
 30
0.0
 11
331.0503944190773
 21
588.6045236306201
 31
0.0
  0
LINE
  5
71
330
1F
100
AcDbEntity
  8
躯体
  6
Continuous
 62
     2
370
     9
100
AcDbLine
 10
311.2638195140941
 20
598.516344325827
 30
0.0
 11
245.6316313872466
 21
528.9952063665787
 31
0.0
  0
LINE
  5
72
330
1F
100
AcDbEntity
  8
仕上
  6
Continuous
 62
     3
370
     9
100
AcDbLine
 10
-324.9999835040119
 20
-322.5048439461852
 30
0.0
 11
-323.9998812288852
 21
-332.504827450197
 31
0.0
  0
LINE
  5
73
330
1F
100
AcDbEntity
  8
仕上
  6
Continuous
 62
     3
370
     9
100
AcDbLine
 10
-322.0000230943834
 20
-334.5047721886367
 30
0.0
 11
-319.4999406144427
 21
-363.0048290997959
 31
0.0
  0
LINE
  5
74
330
1F
100
AcDbEntity
  8
仕上
  6
Continuous
 62
     3
370
     9
100
AcDbLine
 10
-309.4313667915964
 20
-338.0172547028891
 30
0.0
 11
-312.4999175200591
 21
-363.0048290997959
 31
0.0
  0
LINE
  5
75
330
1F
100
AcDbEntity
  8
仕上
  6
Continuous
 62
     3
370
     9
100
AcDbLine
 10
-304.9998432881123
 20
-321.8040448805181
 30
0.0
 11
-302.9999851536106
 21
-323.7373045867575
 31
0.0
  0
LINE
  5
76
330
1F
100
AcDbEntity
  8
躯体
  6
Continuous
 62
     2
370
     9
100
AcDbLine
 10
354.0000915527344
 20
-365.5050847876126
 30
0.0
 11
355.0001938278611
 21
-372.5051078819961
 31
0.0
  0
LINE
  5
77
330
1F
100
AcDbEntity
  8
躯体
  6
Continuous
 62
     2
370
     9
100
AcDbLine
 10
343.0003521893475
 20
-365.5050847876126
 30
0.0
 11
354.0000915527344
 21
-365.5050847876126
 31
0.0
  0
LINE
  5
78
330
1F
100
AcDbEntity
  8
躯体
  6
Continuous
 62
     2
370
     9
100
AcDbLine
 10
343.0003521893475
 20
-365.5050847876126
 30
0.0
 11
341.0001476390941
 21
-367.5051161299901
 31
0.0
  0
LINE
  5
79
330
1F
100
AcDbEntity
  8
躯体
  6
Continuous
 62
     2
370
     9
100
AcDbLine
 10
302.0003158981736
 20
-342.5051573699606
 30
0.0
 11
307.0004808580553
 21
-342.5051573699606
 31
0.0
  0
LINE
  5
7A
330
1F
100
AcDbEntity
  8
躯体
  6
Continuous
 62
     2
370
     9
100
AcDbLine
 10
308.2073933369404
 20
-361.8169694872536
 30
0.0
 11
307.0004808580553
 21
-342.5051573699606
 31
0.0
  0
LINE
  5
7B
330
1F
100
AcDbEntity
  8
躯体
  6
Continuous
 62
     2
370
     9
100
AcDbLine
 10
313.1975122400232
 20
-366.5051004588013
 30
0.0
 11
320.3295197358003
 21
-366.5051004588013
 31
0.0
  0
LINE
  5
7C
330
1F
100
AcDbEntity
  8
躯体
  6
Continuous
 62
     2
370
     9
100
AcDbLine
 10
335.7824335871516
 20
-364.2379825718715
 30
0.0
 11
333.0003686853357
 21
-322.505103757999
 31
0.0
  0
LINE
  5
7D
330
1F
100
AcDbEntity
  8
躯体
  6
Continuous
 62
     2
370
     9
100
AcDbLine
 10
325.3179065601245
 20
-361.8452889749543
 30
0.0
 11
328.000203725454
 21
-322.505103757999
 31
0.0
  0
LINE
  5
7E
330
1F
100
AcDbEntity
  8
躯体
  6
Continuous
 62
     2
370
     9
100
AcDbLine
 10
328.000203725454
 20
-322.505103757999
 30
0.0
 11
333.0003686853357
 21
-322.505103757999
 31
0.0
  0
LINE
  5
7F
330
1F
100
AcDbEntity
  8
躯体
  6
Continuous
 62
     2
370
     9
100
AcDbLine
 10
339.2746507799303
 20
-367.5051161299901
 30
0.0
 11
341.0001476390941
 21
-367.5051161299901
 31
0.0
  0
LINE
  5
80
330
1F
100
AcDbEntity
  8
躯体
  6
Continuous
 62
     2
370
     9
100
AcDbLine
 10
302.0003158981736
 20
-342.5051573699606
 30
0.0
 11
300.0004577636719
 21
-372.5051078819961
 31
0.0
  0
LINE
  5
81
330
1F
100
AcDbEntity
  8
躯体
  6
Continuous
 62
     2
370
     9
100
AcDbLine
 10
134.1268962138408
 20
-372.5051078819961
 30
0.0
 11
355.0001938278611
 21
-372.5051078819961
 31
0.0
  0
LINE
  5
82
330
1F
100
AcDbEntity
  8
躯体
  6
Continuous
 62
     2
370
     9
100
AcDbLine
 10
-353.9996585330449
 20
-365.5050847876126
 30
0.0
 11
-354.9995876002957
 21
-372.5051078819961
 31
0.0
  0
LINE
  5
83
330
1F
100
AcDbEntity
  8
躯体
  6
Continuous
 62
     2
370
     9
100
AcDbLine
 10
-342.9995727539063
 20
-365.5050847876126
 30
0.0
 11
-353.9996585330449
 21
-365.5050847876126
 31
0.0
  0
LINE
  5
84
330
1F
100
AcDbEntity
  8
躯体
  6
Continuous
 62
     2
370
     9
100
AcDbLine
 10
-342.9995727539063
 20
-365.5050847876126
 30
0.0
 11
-340.9995414115287
 21
-367.5051161299901
 31
0.0
  0
LINE
  5
85
330
1F
100
AcDbEntity
  8
躯体
  6
Continuous
 62
     2
370
     9
100
AcDbLine
 10
-301.9995364627324
 20
-342.5051573699606
 30
0.0
 11
-306.9997014226141
 21
-342.5051573699606
 31
0.0
  0
LINE
  5
86
330
1F
100
AcDbEntity
  8
躯体
  6
Continuous
 62
     2
370
     9
100
AcDbLine
 10
-308.2066139014992
 20
-361.8169694872536
 30
0.0
 11
-306.9997014226141
 21
-342.5051573699606
 31
0.0
  0
LINE
  5
87
330
1F
100
AcDbEntity
  8
躯体
  6
Continuous
 62
     2
370
     9
100
AcDbLine
 10
-313.1969060124578
 20
-366.5051004588013
 30
0.0
 11
-320.328913508235
 21
-366.5051004588013
 31
0.0
  0
LINE
  5
88
330
1F
100
AcDbEntity
  8
躯体
  6
Continuous
 62
     2
370
     9
100
AcDbLine
 10
-335.7818273595863
 20
-364.2379825718715
 30
0.0
 11
-332.9995892498944
 21
-322.505103757999
 31
0.0
  0
LINE
  5
89
330
1F
100
AcDbEntity
  8
躯体
  6
Continuous
 62
     2
370
     9
100
AcDbLine
 10
-325.3173003325591
 20
-361.8452889749543
 30
0.0
 11
-327.9995974978886
 21
-322.505103757999
 31
0.0
  0
LINE
  5
8A
330
1F
100
AcDbEntity
  8
躯体
  6
Continuous
 62
     2
370
     9
100
AcDbLine
 10
-327.9995974978886
 20
-322.505103757999
 30
0.0
 11
-332.9995892498944
 21
-322.505103757999
 31
0.0
  0
LINE
  5
8B
330
1F
100
AcDbEntity
  8
躯体
  6
Continuous
 62
     2
370
     9
100
AcDbLine
 10
-339.2740445523649
 20
-367.5051161299901
 30
0.0
 11
-340.9995414115287
 21
-367.5051161299901
 31
0.0
  0
LINE
  5
8C
330
1F
100
AcDbEntity
  8
躯体
  6
Continuous
 62
     2
370
     9
100
AcDbLine
 10
-301.9995364627324
 20
-342.5051573699606
 30
0.0
 11
-299.9996783282306
 21
-372.5051078819961
 31
0.0
  0
LINE
  5
8D
330
1F
100
AcDbEntity
  8
躯体
  6
Continuous
 62
     2
370
     9
100
AcDbLine
 10
125.8728480983423
 20
-372.5051078819961
 30
0.0
 11
-354.9995876002957
 21
-372.5051078819961
 31
0.0
  0
LINE
  5
8E
330
1F
100
AcDbEntity
  8
躯体
  6
Continuous
 62
     2
370
     9
100
AcDbLine
 10
-301.2663475242821
 20
-354.5052588202878
 30
0.0
 11
-279.2796861803209
 21
-354.5052588202878
 31
0.0
  0
LINE
  5
8F
330
1F
100
AcDbEntity
  8
躯体
  6
Continuous
 62
     2
370
     9
100
AcDbLine
 10
-277.839635900549
 20
-365.5056044112401
 30
0.0
 11
-276.9997509105785
 21
-372.5051078819961
 31
0.0
  0
LINE
  5
90
330
1F
100
AcDbEntity
  8
躯体
  6
Continuous
 62
     2
370
     9
100
AcDbLine
 10
307.8440032134184
 20
-356.0049792132883
 30
0.0
 11
310.8498526908255
 21
-356.0049792132883
 31
0.0
  0
LINE
  5
91
330
1F
100
AcDbEntity
  8
躯体
  6
Continuous
 62
     2
370
     9
100
AcDbLine
 10
310.8498526908255
 20
-356.0049792132883
 30
0.0
 11
310.0309258538322
 21
-342.8996383071966
 31
0.0
  0
LINE
  5
92
330
1F
100
AcDbEntity
  8
躯体
  6
Continuous
 62
     2
370
     9
100
AcDbLine
 10
299.1603995658255
 20
-340.0050748900197
 30
0.0
 11
307.0004808580553
 21
-340.0050748900197
 31
0.0
  0
LINE
  5
93
330
1F
100
AcDbEntity
  8
躯体
  6
Continuous
 62
     2
370
     9
100
AcDbLine
 10
307.7161758010452
 20
-353.9574023089914
 30
0.0
 11
309.7634928935283
 21
-356.0049792132883
 31
0.0
  0
LINE
  5
94
330
1F
100
AcDbEntity
  8
躯体
  6
Continuous
 62
     2
370
     9
100
AcDbLine
 10
298.9556678565773
 20
-343.0756175090548
 30
0.0
 11
301.7744528280721
 21
-345.8942292726738
 31
0.0
  0
LINE
  5
95
330
1F
100
AcDbEntity
  8
躯体
  6
Continuous
 62
     2
370
     9
100
AcDbLine
 10
307.5748381743559
 20
-351.6945280150197
 30
0.0
 11
310.7809159562394
 21
-354.900779004779
 31
0.0
  0
LINE
  5
96
330
1F
100
AcDbEntity
  8
躯体
  6
Continuous
 62
     2
370
     9
100
AcDbLine
 10
299.0883450894743
 20
-341.0867580746692
 30
0.0
 11
301.9067836452176
 21
-343.9055430461642
 31
0.0
  0
LINE
  5
97
330
1F
100
AcDbEntity
  8
躯体
  6
Continuous
 62
     2
370
     9
100
AcDbLine
 10
307.4335005476667
 20
-349.4317403249859
 30
0.0
 11
310.6395783295503
 21
-352.6380779186831
 31
0.0
  0
LINE
  5
98
330
1F
100
AcDbEntity
  8
躯体
  6
Continuous
 62
     2
370
     9
100
AcDbLine
 10
300.1279387602934
 20
-340.0050748900197
 30
0.0
 11
302.6280212402344
 21
-342.5051573699606
 31
0.0
  0
LINE
  5
99
330
1F
100
AcDbEntity
  8
躯体
  6
Continuous
 62
     2
370
     9
100
AcDbLine
 10
307.2918165052259
 20
-347.1692124467659
 30
0.0
 11
310.4982407028611
 21
-350.3753768325872
 31
0.0
  0
LINE
  5
9A
330
1F
100
AcDbEntity
  8
躯体
  6
Continuous
 62
     2
370
     9
100
AcDbLine
 10
302.2490424078863
 20
-340.0050748900197
 30
0.0
 11
304.7491248878273
 21
-342.5051573699606
 31
0.0
  0
LINE
  5
9B
330
1F
100
AcDbEntity
  8
躯体
  6
Continuous
 62
     2
370
     9
100
AcDbLine
 10
307.1504788785368
 20
-344.9064247567321
 30
0.0
 11
310.3565566604202
 21
-348.1126757464914
 31
0.0
  0
LINE
  5
9C
330
1F
100
AcDbEntity
  8
躯体
  6
Continuous
 62
     2
370
     9
100
AcDbLine
 10
304.3701460554792
 20
-340.0050748900197
 30
0.0
 11
306.8702285354202
 21
-342.5051573699606
 31
0.0
  0
LINE
  5
9D
330
1F
100
AcDbEntity
  8
躯体
  6
Continuous
 62
     2
370
     9
100
AcDbLine
 10
307.0091412518475
 20
-342.6437236706362
 30
0.0
 11
310.2152190337309
 21
-345.8498880564576
 31
0.0
  0
LINE
  5
9E
330
1F
100
AcDbEntity
  8
躯体
  6
Continuous
 62
     2
370
     9
100
AcDbLine
 10
306.4915961188238
 20
-340.0050748900197
 30
0.0
 11
310.0738814070417
 21
-343.5871869703618
 31
0.0
  0
LINE
  5
9F
330
1F
100
AcDbEntity
  8
躯体
  6
Continuous
 62
     2
370
     9
100
AcDbLine
 10
303.1133497083509
 20
-334.50546502014
 30
0.0
 11
309.8241156500738
 21
-341.2162309618629
 31
0.0
  0
LINE
  5
A0
330
1F
100
AcDbEntity
  8
躯体
  6
Continuous
 62
     2
370
     9
100
AcDbLine
 10
305.2347997716956
 20
-334.50546502014
 30
0.0
 11
309.5268909351245
 21
-338.7979025993208
 31
0.0
  0
LINE
  5
A1
330
1F
100
AcDbEntity
  8
躯体
  6
Continuous
 62
     2
370
     9
100
AcDbLine
 10
-307.8433969858531
 20
-356.0049792132883
 30
0.0
 11
-310.8492464632602
 21
-356.0049792132883
 31
0.0
  0
LINE
  5
A2
330
1F
100
AcDbEntity
  8
躯体
  6
Continuous
 62
     2
370
     9
100
AcDbLine
 10
-310.8492464632602
 20
-356.0049792132883
 30
0.0
 11
-310.030146418391
 21
-342.8996383071966
 31
0.0
  0
LINE
  5
A3
330
1F
100
AcDbEntity
  8
躯体
  6
Continuous
 62
     2
370
     9
100
AcDbLine
 10
-299.1596201303843
 20
-340.0050748900197
 30
0.0
 11
-306.9997014226141
 21
-340.0050748900197
 31
0.0
  0
LINE
  5
A4
330
1F
100
AcDbEntity
  8
躯体
  6
Continuous
 62
     2
370
     9
100
AcDbLine
 10
-307.7153963656039
 20
-353.9574023089914
 30
0.0
 11
-309.7630598738388
 21
-356.0049792132883
 31
0.0
  0
LINE
  5
A5
330
1F
100
AcDbEntity
  8
躯体
  6
Continuous
 62
     2
370
     9
100
AcDbLine
 10
-298.954888421136
 20
-343.0756175090548
 30
0.0
 11
-301.7736733926309
 21
-345.8942292726738
 31
0.0
  0
LINE
  5
A6
330
1F
100
AcDbEntity
  8
躯体
  6
Continuous
 62
     2
370
     9
100
AcDbLine
 10
-307.5740587389147
 20
-351.6945280150197
 30
0.0
 11
-310.7801365207981
 21
-354.900779004779
 31
0.0
  0
LINE
  5
A7
330
1F
100
AcDbEntity
  8
躯体
  6
Continuous
 62
     2
370
     9
100
AcDbLine
 10
-299.087565654033
 20
-341.0867580746692
 30
0.0
 11
-301.9063506255279
 21
-343.9055430461642
 31
0.0
  0
LINE
  5
A8
330
1F
100
AcDbEntity
  8
躯体
  6
Continuous
 62
     2
370
     9
100
AcDbLine
 10
-307.4327211122255
 20
-349.4317403249859
 30
0.0
 11
-310.6387988941091
 21
-352.6380779186831
 31
0.0
  0
LINE
  5
A9
330
1F
100
AcDbEntity
  8
躯体
  6
Continuous
 62
     2
370
     9
100
AcDbLine
 10
-300.1271593248522
 20
-340.0050748900197
 30
0.0
 11
-302.6272418047931
 21
-342.5051573699606
 31
0.0
  0
LINE
  5
AA
330
1F
100
AcDbEntity
  8
躯体
  6
Continuous
 62
     2
370
     9
100
AcDbLine
 10
-307.2912102776606
 20
-347.1692124467659
 30
0.0
 11
-310.4974612674199
 21
-350.3753768325872
 31
0.0
  0
LINE
  5
AB
330
1F
100
AcDbEntity
  8
躯体
  6
Continuous
 62
     2
370
     9
100
AcDbLine
 10
-302.2484361803209
 20
-340.0050748900197
 30
0.0
 11
-304.748345452386
 21
-342.5051573699606
 31
0.0
  0
LINE
  5
AC
330
1F
100
AcDbEntity
  8
躯体
  6
Continuous
 62
     2
370
     9
100
AcDbLine
 10
-307.1498726509714
 20
-344.9064247567321
 30
0.0
 11
-310.3561236407306
 21
-348.1126757464914
 31
0.0
  0
LINE
  5
AD
330
1F
100
AcDbEntity
  8
躯体
  6
Continuous
 62
     2
370
     9
100
AcDbLine
 10
-304.3697130357897
 20
-340.0050748900197
 30
0.0
 11
-306.8697955157306
 21
-342.5051573699606
 31
0.0
  0
LINE
  5
AE
330
1F
100
AcDbEntity
  8
躯体
  6
Continuous
 62
     2
370
     9
100
AcDbLine
 10
-307.0083618164063
 20
-342.6437236706362
 30
0.0
 11
-310.2146128061656
 21
-345.8498880564576
 31
0.0
  0
LINE
  5
AF
330
1F
100
AcDbEntity
  8
躯体
  6
Continuous
 62
     2
370
     9
100
AcDbLine
 10
-306.4909898912584
 20
-340.0050748900197
 30
0.0
 11
-310.0732751794764
 21
-343.5871869703618
 31
0.0
  0
LINE
  5
B0
330
1F
100
AcDbEntity
  8
躯体
  6
Continuous
 62
     2
370
     9
100
AcDbLine
 10
-303.1127434807856
 20
-334.50546502014
 30
0.0
 11
-309.8235094225084
 21
-341.2162309618629
 31
0.0
  0
LINE
  5
B1
330
1F
100
AcDbEntity
  8
躯体
  6
Continuous
 62
     2
370
     9
100
AcDbLine
 10
-305.2341935441302
 20
-334.50546502014
 30
0.0
 11
-309.5264579154349
 21
-338.7979025993208
 31
0.0
  0
LINE
  5
B2
330
1F
100
AcDbEntity
  8
躯体
  6
Continuous
 62
     2
370
     9
100
AcDbLine
 10
-299.8479482289908
 20
625.2845822903541
 30
0.0
 11
-309.0458060599662
 21
634.4824401213295
 31
0.0
  0
LINE
  5
B3
330
1F
100
AcDbEntity
  8
躯体
  6
Continuous
 62
     2
370
     9
100
AcDbLine
 10
-239.155648721231
 20
524.6878729100753
 30
0.0
 11
-233.1921881598395
 21
530.6512468675289
 31
0.0
  0
LINE
  5
B4
330
1F
100
AcDbEntity
  8
躯体
  6
Continuous
 62
     2
370
     9
100
AcDbLine
 10
-236.2260973131335
 20
531.9643357743067
 30
0.0
 11
-307.0210059913429
 21
602.759417660392
 31
0.0
  0
LINE
  5
B5
330
1F
100
AcDbEntity
  8
躯体
  6
Continuous
 62
     2
370
     9
100
AcDbLine
 10
-311.2636463062184
 20
598.516344325827
 30
0.0
 11
-307.0210059913429
 21
602.759417660392
 31
0.0
  0
LINE
  5
B6
330
1F
100
AcDbEntity
  8
躯体
  6
Continuous
 62
     2
370
     9
100
AcDbLine
 10
-68.94123799092068
 20
634.4959503356455
 30
0.0
 11
-292.1595970360009
 21
634.4959503356455
 31
0.0
  0
LINE
  5
B7
330
1F
100
AcDbEntity
  8
躯体
  6
Continuous
 62
     2
370
     9
100
AcDbLine
 10
-68.94123799092068
 20
635.4957061950205
 30
0.0
 11
-292.1595970360009
 21
635.4957061950205
 31
0.0
  0
LINE
  5
B8
330
1F
100
AcDbEntity
  8
躯体
  6
Continuous
 62
     2
370
     9
100
AcDbLine
 10
-225.281611262141
 20
549.3041762251091
 30
0.0
 11
-309.3307330157306
 21
633.3534711865747
 31
0.0
  0
LINE
  5
B9
330
1F
100
AcDbEntity
  8
躯体
  6
Continuous
 62
     2
370
     9
100
AcDbLine
 10
-224.5744035050677
 20
550.0112107743067
 30
0.0
 11
-297.109185296136
 21
622.5459925653753
 31
0.0
  0
LINE
  5
BA
330
1F
100
AcDbEntity
  8
躯体
  6
Continuous
 62
     2
370
     9
100
AcDbLine
 10
-307.0210059913429
 20
602.759417660392
 30
0.0
 11
-237.4998680320947
 21
537.1274893453583
 31
0.0
  0
LINE
  5
BB
330
1F
100
AcDbEntity
  8
躯体
  6
Continuous
 62
     2
370
     9
100
AcDbLine
 10
-333.7890707479942
 20
591.3432865634749
 30
0.0
 11
-342.9869285789696
 21
600.5411443944503
 31
0.0
  0
LINE
  5
BC
330
1F
100
AcDbEntity
  8
躯体
  6
Continuous
 62
     2
370
     9
100
AcDbLine
 10
-240.4688242319468
 20
527.7217820633692
 30
0.0
 11
-311.2637329101563
 21
598.5165175337029
 31
0.0
  0
LINE
  5
BD
330
1F
100
AcDbEntity
  8
躯体
  6
Continuous
 62
     2
370
     9
100
AcDbLine
 10
-343.0002655854097
 20
360.4369227411565
 30
0.0
 11
-343.0000923775339
 21
583.654935370485
 31
0.0
  0
LINE
  5
BE
330
1F
100
AcDbEntity
  8
躯体
  6
Continuous
 62
     2
370
     9
100
AcDbLine
 10
-344.0000214447847
 20
360.4369227411565
 30
0.0
 11
-344.0001946526606
 21
583.654935370485
 31
0.0
  0
LINE
  5
BF
330
1F
100
AcDbEntity
  8
躯体
  6
Continuous
 62
     2
370
     9
100
AcDbLine
 10
-257.8084914748733
 20
516.7771228045011
 30
0.0
 11
-341.8577864363388
 21
600.8264177659664
 31
0.0
  0
LINE
  5
C0
330
1F
100
AcDbEntity
  8
躯体
  6
Continuous
 62
     2
370
     9
100
AcDbLine
 10
-258.5156992319468
 20
516.0700882553035
 30
0.0
 11
-331.0503078151395
 21
588.604696838496
 31
0.0
  0
LINE
  5
C1
330
1F
100
AcDbEntity
  8
躯体
  6
Continuous
 62
     2
370
     9
100
AcDbLine
 10
-311.2637329101563
 20
598.5165175337029
 30
0.0
 11
-245.6318045951225
 21
528.9953795744545
 31
0.0
  0
LINE
  5
C2
330
1F
100
AcDbEntity
  8
躯体
  6
Continuous
 62
     2
370
     9
100
AcDbLine
 10
282.5420565218539
 20
-348.5051647931552
 30
0.0
 11
301.6670639450486
 21
-348.5051647931552
 31
0.0
  0
LINE
  5
C3
330
1F
100
AcDbEntity
  8
躯体
  6
Continuous
 62
     2
370
     9
100
AcDbLine
 10
-282.5411904824746
 20
-348.5051647931552
 30
0.0
 11
-301.6662845096074
 21
-348.5051647931552
 31
0.0
  0
LINE
  5
C4
330
1F
100
AcDbEntity
  8
躯体
  6
Continuous
 62
     2
370
     9
100
AcDbLine
 10
-279.5625346415753
 20
-351.1477107509783
 30
0.0
 11
-278.6796940983953
 21
-358.5055813168567
 31
0.0
  0
LINE
  5
C5
330
1F
100
AcDbEntity
  8
仕上
  6
Continuous
 62
     3
370
     9
100
AcDbLine
 10
-284.9001085436022
 20
-358.5048018814153
 30
0.0
 11
-284.2878187024916
 21
-365.5048249757988
 31
0.0
  0
LINE
  5
C6
330
1F
100
AcDbEntity
  8
仕上
  6
Continuous
 62
     3
370
     9
100
AcDbLine
 10
-266.9471122123099
 20
-365.5048249757988
 30
0.0
 11
-284.2878187024916
 21
-365.5048249757988
 31
0.0
  0
LINE
  5
C7
330
1F
100
AcDbEntity
  8
仕上
  6
Continuous
 62
     3
370
     9
100
AcDbLine
 10
-305.4610958614865
 20
-334.5047721886367
 30
0.0
 11
-274.7421594568201
 21
-334.5047721886367
 31
0.0
  0
LINE
  5
C8
330
1F
100
AcDbEntity
  8
仕上
  6
Continuous
 62
     3
370
     9
100
AcDbLine
 10
-284.9001085436022
 20
-358.5048018814153
 30
0.0
 11
-275.9999950512035
 21
-358.5048018814153
 31
0.0
  0
LINE
  5
C9
330
1F
100
AcDbEntity
  8
仕上
  6
Continuous
 62
     3
370
     9
100
AcDbLine
 10
-275.9999950512035
 20
-358.5048018814153
 30
0.0
 11
-274.7421594568201
 21
-334.5047721886367
 31
0.0
  0
LINE
  5
CA
330
1F
100
AcDbEntity
  8
仕上
  6
Continuous
 62
     3
370
     9
100
AcDbLine
 10
-210.3639097471496
 20
-331.0955215683875
 30
0.0
 11
-211.9927566115921
 21
-319.1300616932292
 31
0.0
  0
LINE
  5
CB
330
1F
100
AcDbEntity
  8
躯体
  6
Continuous
 62
     2
370
     9
100
AcDbLine
 10
-299.1596201303843
 20
-340.0050748900197
 30
0.0
 11
-298.5928839606207
 21
-348.5051647931552
 31
0.0
  0
LINE
  5
CC
330
1F
100
AcDbEntity
  8
躯体
  6
Continuous
 62
     2
370
     9
100
AcDbLine
 10
-298.8223843961149
 20
-345.0643037355645
 30
0.0
 11
-301.6409961597341
 21
-347.8830021031215
 31
0.0
  0
LINE
  5
CD
330
1F
100
AcDbEntity
  8
躯体
  6
Continuous
 62
     2
370
     9
100
AcDbLine
 10
-298.6897071632179
 20
-347.0529033581362
 30
0.0
 11
-300.1417087864231
 21
-348.5051647931552
 31
0.0
  0
LINE
  5
CE
330
1F
100
AcDbEntity
  8
躯体
  6
Continuous
 62
     2
370
     9
100
AcDbLine
 10
299.1603995658255
 20
-340.0050748900197
 30
0.0
 11
298.593663396062
 21
-348.5051647931552
 31
0.0
  0
LINE
  5
CF
330
1F
100
AcDbEntity
  8
躯体
  6
Continuous
 62
     2
370
     9
100
AcDbLine
 10
298.8229906236803
 20
-345.0643037355645
 30
0.0
 11
301.6417755951753
 21
-347.8831753109973
 31
0.0
  0
LINE
  5
D0
330
1F
100
AcDbEntity
  8
躯体
  6
Continuous
 62
     2
370
     9
100
AcDbLine
 10
298.6903133907833
 20
-347.0529033581362
 30
0.0
 11
300.1424882218644
 21
-348.5051647931552
 31
0.0
  0
LINE
  5
D1
330
1F
100
AcDbEntity
  8
仕上
  6
Continuous
 62
     3
370
     9
100
AcDbLine
 10
-220.9512411581505
 20
-321.3472957119158
 30
0.0
 11
-218.9907012114654
 21
-319.2972938973571
 31
0.0
  0
LINE
  5
D2
330
1F
100
AcDbEntity
  8
仕上
  6
Continuous
 62
     3
370
     9
100
AcDbLine
 10
-149.0053661449537
 20
-317.8689351492047
 30
0.0
 11
-146.9661898226352
 21
-319.8344981242892
 31
0.0
  0
LINE
  5
D3
330
1F
100
AcDbEntity
  8
仕上
  6
JWW_HOJO
 62
     3
370
     9
100
AcDbLine
 10
-293.5003992029139
 20
-334.5047721886367
 30
0.0
 11
-291.4995018211571
 21
-329.3599786524247
 31
0.0
  0
LINE
  5
D4
330
1F
100
AcDbEntity
  8
仕上
  6
Continuous
 62
     3
370
     9
100
AcDbLine
 10
-72.9574090081293
 20
-329.6960885355011
 30
0.0
 11
-70.9994671795819
 21
-338.633874740896
 31
0.0
  0
LINE
  5
D5
330
1F
100
AcDbEntity
  8
仕上
  6
Continuous
 62
     3
370
     9
100
AcDbLine
 10
-57.01916668866141
 20
-329.5072919508306
 30
0.0
 11
-58.99945233319266
 21
-338.633874740896
 31
0.0
  0
LINE
  5
D6
330
1F
100
AcDbEntity
  8
仕上
  6
Continuous
 62
     3
370
     9
100
AcDbLine
 10
-263.9686295792865
 20
-362.8646173242997
 30
0.0
 11
-260.2157345333615
 21
-331.8077523538605
 31
0.0
  0
LINE
  5
D7
330
1F
100
AcDbEntity
  8
仕上
  6
Continuous
 62
     3
370
     9
100
AcDbLine
 10
-274.7859810494089
 20
-335.3402403777731
 30
0.0
 11
-293.5003992029139
 21
-334.5047721886367
 31
0.0
  0
LINE
  5
D8
330
1F
100
AcDbEntity
  8
仕上
  6
JWW_HOJO
 62
     3
370
     9
100
AcDbLine
 10
-260.7185569969384
 20
-335.9682055316476
 30
0.0
 11
-274.7859810494089
 21
-335.3402403777731
 31
0.0
  0
LINE
  5
D9
330
1F
100
AcDbEntity
  8
仕上
  6
Continuous
 62
     3
370
     9
100
AcDbLine
 10
-157.1437113993878
 20
-330.0093349789661
 30
0.0
 11
-156.004349992082
 21
-317.9873227323444
 31
0.0
  0
LINE
  5
DA
330
1F
100
AcDbEntity
  8
仕上
  6
Continuous
 62
     3
370
     9
100
AcDbLine
 10
-216.7552803658151
 20
-337.9306507649669
 30
0.0
 11
-260.7185569969384
 21
-335.9682055316476
 31
0.0
  0
LINE
  5
DB
330
1F
100
AcDbEntity
  8
仕上
  6
Continuous
 62
     3
370
     9
100
AcDbLine
 10
325.000936147329
 20
-322.5048439461852
 30
0.0
 11
324.0008338722023
 21
-332.504827450197
 31
0.0
  0
LINE
  5
DC
330
1F
100
AcDbEntity
  8
仕上
  6
Continuous
 62
     3
370
     9
100
AcDbLine
 10
322.0013221534523
 20
-334.5047721886367
 30
0.0
 11
319.5008932577596
 21
-363.0048290997959
 31
0.0
  0
LINE
  5
DD
330
1F
100
AcDbEntity
  8
仕上
  6
Continuous
 62
     3
370
     9
100
AcDbLine
 10
309.4326658506652
 20
-338.0172547028891
 30
0.0
 11
312.5012165791279
 21
-363.0048290997959
 31
0.0
  0
LINE
  5
DE
330
1F
100
AcDbEntity
  8
仕上
  6
Continuous
 62
     3
370
     9
100
AcDbLine
 10
305.0009691393053
 20
-321.8040448805181
 30
0.0
 11
303.0011110048035
 21
-323.7373045867575
 31
0.0
  0
LINE
  5
DF
330
1F
100
AcDbEntity
  8
仕上
  6
JWW_HOJO
 62
     3
370
     9
100
AcDbLine
 10
284.9011477908573
 20
-358.5048018814153
 30
0.0
 11
284.2888579497466
 21
-365.5048249757988
 31
0.0
  0
LINE
  5
E0
330
1F
100
AcDbEntity
  8
仕上
  6
Continuous
 62
     3
370
     9
100
AcDbLine
 10
305.4623949205553
 20
-334.5047721886367
 30
0.0
 11
274.743371911951
 21
-334.5047721886367
 31
0.0
  0
LINE
  5
E1
330
1F
100
AcDbEntity
  8
仕上
  6
Continuous
 62
     3
370
     9
100
AcDbLine
 10
276.0010342984586
 20
-358.5048018814153
 30
0.0
 11
274.743371911951
 21
-334.5047721886367
 31
0.0
  0
LINE
  5
E2
330
1F
100
AcDbEntity
  8
仕上
  6
Continuous
 62
     3
370
     9
100
AcDbLine
 10
210.3649489944045
 20
-331.0955215683875
 30
0.0
 11
211.9937958588472
 21
-319.1300616932292
 31
0.0
  0
LINE
  5
E3
330
1F
100
AcDbEntity
  8
仕上
  6
Continuous
 62
     3
370
     9
100
AcDbLine
 10
220.9522804054054
 20
-321.3472957119158
 30
0.0
 11
218.9919136665963
 21
-319.2972938973571
 31
0.0
  0
LINE
  5
E4
330
1F
100
AcDbEntity
  8
仕上
  6
Continuous
 62
     3
370
     9
100
AcDbLine
 10
149.0064053922086
 20
-317.8689351492047
 30
0.0
 11
146.96722906989
 21
-319.8344981242892
 31
0.0
  0
LINE
  5
E5
330
1F
100
AcDbEntity
  8
仕上
  6
JWW_HOJO
 62
     3
370
     9
100
AcDbLine
 10
293.501438450169
 20
-334.5047721886367
 30
0.0
 11
291.5005410684121
 21
-329.3599786524247
 31
0.0
  0
LINE
  5
E6
330
1F
100
AcDbEntity
  8
仕上
  6
Continuous
 62
     3
370
     9
100
AcDbLine
 10
72.95844825538427
 20
-329.6960885355011
 30
0.0
 11
71.00067963471272
 21
-338.633874740896
 31
0.0
  0
LINE
  5
E7
330
1F
100
AcDbEntity
  8
仕上
  6
Continuous
 62
     3
370
     9
100
AcDbLine
 10
57.02020593591638
 20
-329.5072919508306
 30
0.0
 11
59.00066478832349
 21
-338.633874740896
 31
0.0
  0
LINE
  5
E8
330
1F
100
AcDbEntity
  8
仕上
  6
Continuous
 62
     3
370
     9
100
AcDbLine
 10
263.9698420344172
 20
-362.8646173242997
 30
0.0
 11
260.2167737806166
 21
-331.8077523538605
 31
0.0
  0
LINE
  5
E9
330
1F
100
AcDbEntity
  8
仕上
  6
Continuous
 62
     3
370
     9
100
AcDbLine
 10
274.7870202966638
 20
-335.3402403777731
 30
0.0
 11
293.501438450169
 21
-334.5047721886367
 31
0.0
  0
LINE
  5
EA
330
1F
100
AcDbEntity
  8
仕上
  6
JWW_HOJO
 62
     3
370
     9
100
AcDbLine
 10
260.7197694520692
 20
-335.9682055316476
 30
0.0
 11
274.7870202966638
 21
-335.3402403777731
 31
0.0
  0
LINE
  5
EB
330
1F
100
AcDbEntity
  8
仕上
  6
Continuous
 62
     3
370
     9
100
AcDbLine
 10
157.1449238545185
 20
-330.0093349789661
 30
0.0
 11
156.0053892393368
 21
-317.9873227323444
 31
0.0
  0
LINE
  5
EC
330
1F
100
AcDbEntity
  8
仕上
  6
Continuous
 62
     3
370
     9
100
AcDbLine
 10
216.7564928209459
 20
-337.9306507649669
 30
0.0
 11
260.7197694520692
 21
-335.9682055316476
 31
0.0
  0
LINE
  5
ED
330
1F
100
AcDbEntity
  8
仕上
  6
Continuous
 62
     3
370
     9
100
AcDbLine
 10
278.6805601377746
 20
-358.5048018814153
 30
0.0
 11
276.0010342984586
 21
-358.5048018814153
 31
0.0
  0
LINE
  5
EE
330
1F
100
AcDbEntity
  8
仕上
  6
Continuous
 62
     3
370
     9
100
AcDbLine
 10
266.9479782516892
 20
-365.5048249757988
 30
0.0
 11
277.8405019399282
 21
-365.5048249757988
 31
0.0
  0
LINE
  5
EF
330
1F
100
AcDbEntity
  8
仕上
  6
JWW_HOJO
 62
     3
370
     9
100
AcDbLine
 10
284.9011477908573
 20
-358.5048018814153
 30
0.0
 11
278.6805601377746
 21
-358.5048018814153
 31
0.0
  0
LINE
  5
F0
330
1F
100
AcDbEntity
  8
躯体
  6
Continuous
 62
     2
370
     9
100
AcDbLine
 10
279.5634006809543
 20
-351.1477107509783
 30
0.0
 11
277.000270534206
 21
-372.5051078819961
 31
0.0
  0
LINE
  5
F1
330
1F
100
AcDbEntity
  8
仕上
  6
JWW_HOJO
 62
     3
370
     9
100
AcDbLine
 10
277.8405019399282
 20
-365.5048249757988
 30
0.0
 11
284.2888579497466
 21
-365.5048249757988
 31
0.0
  0
LINE
  5
F2
330
1F
100
AcDbEntity
  8
仕上
  6
Continuous
 62
     3
370
     9
100
AcDbLine
 10
26.00006103515625
 20
350.4961763306835
 30
0.0
 11
66.00008165514149
 21
350.4961763306835
 31
0.0
  0
LINE
  5
F3
330
1F
100
AcDbEntity
  8
仕上
  6
Continuous
 62
     3
370
     9
100
AcDbLine
 10
66.00008165514149
 20
350.4961763306835
 30
0.0
 11
66.00008165514149
 21
332.4960674571615
 31
0.0
  0
LINE
  5
F4
330
1F
100
AcDbEntity
  8
仕上
  6
Continuous
 62
     3
370
     9
100
AcDbLine
 10
26.00006103515625
 20
332.4960674571615
 30
0.0
 11
66.00008165514149
 21
332.4960674571615
 31
0.0
  0
LINE
  5
F5
330
1F
100
AcDbEntity
  8
仕上
  6
Continuous
 62
     3
370
     9
100
AcDbLine
 10
26.00006103515625
 20
350.4961763306835
 30
0.0
 11
26.00006103515625
 21
332.4960674571615
 31
0.0
  0
LINE
  5
F6
330
1F
100
AcDbEntity
  8
仕上
  6
Continuous
 62
     3
370
     9
100
AcDbLine
 10
88.00025321341843
 20
325.4960443627781
 30
0.0
 11
88.00025321341843
 21
307.4961086971319
 31
0.0
  0
LINE
  5
F7
330
1F
100
AcDbEntity
  8
仕上
  6
Continuous
 62
     3
370
     9
100
AcDbLine
 10
88.00025321341843
 20
307.4961086971319
 30
0.0
 11
96.0002053750527
 21
307.4961086971319
 31
0.0
  0
LINE
  5
F8
330
1F
100
AcDbEntity
  8
仕上
  6
Continuous
 62
     3
370
     9
100
AcDbLine
 10
96.0002053750527
 20
325.4960443627781
 30
0.0
 11
96.0002053750527
 21
307.4961086971319
 31
0.0
  0
LINE
  5
F9
330
1F
100
AcDbEntity
  8
仕上
  6
Continuous
 62
     3
370
     9
100
AcDbLine
 10
88.00025321341843
 20
325.4960443627781
 30
0.0
 11
96.0002053750527
 21
325.4960443627781
 31
0.0
  0
LINE
  5
FA
330
1F
100
AcDbEntity
  8
仕上
  6
Continuous
 62
     3
370
     9
100
AcDbLine
 10
72.0000890783362
 20
350.4961763306835
 30
0.0
 11
112.0001096983212
 21
350.4961763306835
 31
0.0
  0
LINE
  5
FB
330
1F
100
AcDbEntity
  8
仕上
  6
Continuous
 62
     3
370
     9
100
AcDbLine
 10
112.0001096983212
 20
350.4961763306835
 30
0.0
 11
112.0001096983212
 21
332.4960674571615
 31
0.0
  0
LINE
  5
FC
330
1F
100
AcDbEntity
  8
仕上
  6
Continuous
 62
     3
370
     9
100
AcDbLine
 10
72.0000890783362
 20
332.4960674571615
 30
0.0
 11
112.0001096983212
 21
332.4960674571615
 31
0.0
  0
LINE
  5
FD
330
1F
100
AcDbEntity
  8
仕上
  6
Continuous
 62
     3
370
     9
100
AcDbLine
 10
129.0001162967166
 20
325.4960443627781
 30
0.0
 11
129.0001162967166
 21
307.4961086971319
 31
0.0
  0
LINE
  5
FE
330
1F
100
AcDbEntity
  8
仕上
  6
Continuous
 62
     3
370
     9
100
AcDbLine
 10
101.0001971270587
 20
325.4960443627781
 30
0.0
 11
129.0001162967166
 21
325.4960443627781
 31
0.0
  0
LINE
  5
FF
330
1F
100
AcDbEntity
  8
仕上
  6
Continuous
 62
     3
370
     9
100
AcDbLine
 10
101.0001971270587
 20
325.4960443627781
 30
0.0
 11
101.0001971270587
 21
307.4961086971319
 31
0.0
  0
LINE
  5
100
330
1F
100
AcDbEntity
  8
仕上
  6
Continuous
 62
     3
370
     9
100
AcDbLine
 10
101.0001971270587
 20
307.4961086971319
 30
0.0
 11
129.0001162967166
 21
307.4961086971319
 31
0.0
  0
LINE
  5
101
330
1F
100
AcDbEntity
  8
仕上
  6
Continuous
 62
     3
370
     9
100
AcDbLine
 10
134.0001080487225
 20
325.4960443627781
 30
0.0
 11
134.0001080487225
 21
307.4961086971319
 31
0.0
  0
LINE
  5
102
330
1F
100
AcDbEntity
  8
仕上
  6
Continuous
 62
     3
370
     9
100
AcDbLine
 10
134.0001080487225
 20
307.4961086971319
 30
0.0
 11
142.0000602103567
 21
307.4961086971319
 31
0.0
  0
LINE
  5
103
330
1F
100
AcDbEntity
  8
仕上
  6
Continuous
 62
     3
370
     9
100
AcDbLine
 10
142.0000602103567
 20
325.4960443627781
 30
0.0
 11
142.0000602103567
 21
307.4961086971319
 31
0.0
  0
LINE
  5
104
330
1F
100
AcDbEntity
  8
仕上
  6
Continuous
 62
     3
370
     9
100
AcDbLine
 10
134.0001080487225
 20
325.4960443627781
 30
0.0
 11
142.0000602103567
 21
325.4960443627781
 31
0.0
  0
LINE
  5
105
330
1F
100
AcDbEntity
  8
仕上
  6
Continuous
 62
     3
370
     9
100
AcDbLine
 10
118.0002037254539
 20
350.4961763306835
 30
0.0
 11
158.0000511375633
 21
350.4961763306835
 31
0.0
  0
LINE
  5
106
330
1F
100
AcDbEntity
  8
仕上
  6
Continuous
 62
     3
370
     9
100
AcDbLine
 10
158.0000511375633
 20
350.4961763306835
 30
0.0
 11
158.0000511375633
 21
332.4960674571615
 31
0.0
  0
LINE
  5
107
330
1F
100
AcDbEntity
  8
仕上
  6
Continuous
 62
     3
370
     9
100
AcDbLine
 10
118.0002037254539
 20
332.4960674571615
 30
0.0
 11
158.0000511375633
 21
332.4960674571615
 31
0.0
  0
LINE
  5
108
330
1F
100
AcDbEntity
  8
仕上
  6
Continuous
 62
     3
370
     9
100
AcDbLine
 10
118.0002037254539
 20
350.4961763306835
 30
0.0
 11
118.0002037254539
 21
332.4960674571615
 31
0.0
  0
LINE
  5
109
330
1F
100
AcDbEntity
  8
仕上
  6
Continuous
 62
     3
370
     9
100
AcDbLine
 10
147.0002251702384
 20
325.4960443627781
 30
0.0
 11
175.0000577359586
 21
325.4960443627781
 31
0.0
  0
LINE
  5
10A
330
1F
100
AcDbEntity
  8
仕上
  6
Continuous
 62
     3
370
     9
100
AcDbLine
 10
180.0001360919024
 20
325.4960443627781
 30
0.0
 11
188.0001748574745
 21
325.4960443627781
 31
0.0
  0
LINE
  5
10B
330
1F
100
AcDbEntity
  8
仕上
  6
Continuous
 62
     3
370
     9
100
AcDbLine
 10
164.000058560758
 20
350.4961763306835
 30
0.0
 11
204.0000791807433
 21
350.4961763306835
 31
0.0
  0
LINE
  5
10C
330
1F
100
AcDbEntity
  8
仕上
  6
Continuous
 62
     3
370
     9
100
AcDbLine
 10
204.0000791807433
 20
350.4961763306835
 30
0.0
 11
204.0000791807433
 21
332.4960674571615
 31
0.0
  0
LINE
  5
10D
330
1F
100
AcDbEntity
  8
仕上
  6
Continuous
 62
     3
370
     9
100
AcDbLine
 10
164.000058560758
 20
332.4960674571615
 30
0.0
 11
204.0000791807433
 21
332.4960674571615
 31
0.0
  0
LINE
  5
10E
330
1F
100
AcDbEntity
  8
仕上
  6
Continuous
 62
     3
370
     9
100
AcDbLine
 10
164.000058560758
 20
350.4961763306835
 30
0.0
 11
164.000058560758
 21
332.4960674571615
 31
0.0
  0
LINE
  5
10F
330
1F
100
AcDbEntity
  8
仕上
  6
Continuous
 62
     3
370
     9
100
AcDbLine
 10
193.0000800055425
 20
325.4960443627781
 30
0.0
 11
221.0000857791385
 21
325.4960443627781
 31
0.0
  0
LINE
  5
110
330
1F
100
AcDbEntity
  8
仕上
  6
Continuous
 62
     3
370
     9
100
AcDbLine
 10
226.0000775311444
 20
325.4960443627781
 30
0.0
 11
226.0000775311444
 21
307.4961086971319
 31
0.0
  0
LINE
  5
111
330
1F
100
AcDbEntity
  8
仕上
  6
Continuous
 62
     3
370
     9
100
AcDbLine
 10
226.0000775311444
 20
307.4961086971319
 30
0.0
 11
234.0000296927787
 21
307.4961086971319
 31
0.0
  0
LINE
  5
112
330
1F
100
AcDbEntity
  8
仕上
  6
Continuous
 62
     3
370
     9
100
AcDbLine
 10
234.0000296927787
 20
325.4960443627781
 30
0.0
 11
234.0000296927787
 21
307.4961086971319
 31
0.0
  0
LINE
  5
113
330
1F
100
AcDbEntity
  8
仕上
  6
Continuous
 62
     3
370
     9
100
AcDbLine
 10
226.0000775311444
 20
325.4960443627781
 30
0.0
 11
234.0000296927787
 21
325.4960443627781
 31
0.0
  0
LINE
  5
114
330
1F
100
AcDbEntity
  8
仕上
  6
Continuous
 62
     3
370
     9
100
AcDbLine
 10
210.0000866039378
 20
350.4961763306835
 30
0.0
 11
250.0000206199852
 21
350.4961763306835
 31
0.0
  0
LINE
  5
115
330
1F
100
AcDbEntity
  8
仕上
  6
Continuous
 62
     3
370
     9
100
AcDbLine
 10
250.0000206199852
 20
350.4961763306835
 30
0.0
 11
250.0000206199852
 21
332.4960674571615
 31
0.0
  0
LINE
  5
116
330
1F
100
AcDbEntity
  8
仕上
  6
Continuous
 62
     3
370
     9
100
AcDbLine
 10
210.0000866039378
 20
332.4960674571615
 30
0.0
 11
250.0000206199852
 21
332.4960674571615
 31
0.0
  0
LINE
  5
117
330
1F
100
AcDbEntity
  8
仕上
  6
Continuous
 62
     3
370
     9
100
AcDbLine
 10
210.0000866039378
 20
350.4961763306835
 30
0.0
 11
210.0000866039378
 21
332.4960674571615
 31
0.0
  0
LINE
  5
118
330
1F
100
AcDbEntity
  8
仕上
  6
Continuous
 62
     3
370
     9
100
AcDbLine
 10
267.0002004262564
 20
325.4960443627781
 30
0.0
 11
267.0002004262564
 21
307.4961086971319
 31
0.0
  0
LINE
  5
119
330
1F
100
AcDbEntity
  8
仕上
  6
Continuous
 62
     3
370
     9
100
AcDbLine
 10
239.0001946526604
 20
325.4960443627781
 30
0.0
 11
267.0002004262564
 21
325.4960443627781
 31
0.0
  0
LINE
  5
11A
330
1F
100
AcDbEntity
  8
仕上
  6
Continuous
 62
     3
370
     9
100
AcDbLine
 10
239.0001946526604
 20
325.4960443627781
 30
0.0
 11
239.0001946526604
 21
307.4961086971319
 31
0.0
  0
LINE
  5
11B
330
1F
100
AcDbEntity
  8
仕上
  6
Continuous
 62
     3
370
     9
100
AcDbLine
 10
239.0001946526604
 20
307.4961086971319
 30
0.0
 11
267.0002004262564
 21
307.4961086971319
 31
0.0
  0
LINE
  5
11C
330
1F
100
AcDbEntity
  8
仕上
  6
Continuous
 62
     3
370
     9
100
AcDbLine
 10
272.0001055743244
 20
325.4960443627781
 30
0.0
 11
272.0001055743244
 21
307.4961086971319
 31
0.0
  0
LINE
  5
11D
330
1F
100
AcDbEntity
  8
仕上
  6
Continuous
 62
     3
370
     9
100
AcDbLine
 10
272.0001055743244
 20
307.4961086971319
 30
0.0
 11
280.0001443398965
 21
307.4961086971319
 31
0.0
  0
LINE
  5
11E
330
1F
100
AcDbEntity
  8
仕上
  6
Continuous
 62
     3
370
     9
100
AcDbLine
 10
280.0001443398965
 20
325.4960443627781
 30
0.0
 11
280.0001443398965
 21
307.4961086971319
 31
0.0
  0
LINE
  5
11F
330
1F
100
AcDbEntity
  8
仕上
  6
Continuous
 62
     3
370
     9
100
AcDbLine
 10
272.0001055743244
 20
325.4960443627781
 30
0.0
 11
280.0001443398965
 21
325.4960443627781
 31
0.0
  0
LINE
  5
120
330
1F
100
AcDbEntity
  8
仕上
  6
Continuous
 62
     3
370
     9
100
AcDbLine
 10
256.00002804318
 20
350.4961763306835
 30
0.0
 11
296.0000486631652
 21
350.4961763306835
 31
0.0
  0
LINE
  5
121
330
1F
100
AcDbEntity
  8
仕上
  6
Continuous
 62
     3
370
     9
100
AcDbLine
 10
296.0000486631652
 20
350.4961763306835
 30
0.0
 11
296.0000486631652
 21
332.4960674571615
 31
0.0
  0
LINE
  5
122
330
1F
100
AcDbEntity
  8
仕上
  6
Continuous
 62
     3
370
     9
100
AcDbLine
 10
256.00002804318
 20
332.4960674571615
 30
0.0
 11
296.0000486631652
 21
332.4960674571615
 31
0.0
  0
LINE
  5
123
330
1F
100
AcDbEntity
  8
仕上
  6
Continuous
 62
     3
370
     9
100
AcDbLine
 10
256.00002804318
 20
350.4961763306835
 30
0.0
 11
256.00002804318
 21
332.4960674571615
 31
0.0
  0
LINE
  5
124
330
1F
100
AcDbEntity
  8
仕上
  6
Continuous
 62
     3
370
     9
100
AcDbLine
 10
285.0002226958403
 20
325.4960443627781
 30
0.0
 11
285.0002226958403
 21
307.4961086971319
 31
0.0
  0
LINE
  5
125
330
1F
100
AcDbEntity
  8
仕上
  6
Continuous
 62
     3
370
     9
100
AcDbLine
 10
20.00005361196153
 20
350.4961763306835
 30
0.0
 11
20.00005361196153
 21
332.4960674571615
 31
0.0
  0
LINE
  5
126
330
1F
100
AcDbEntity
  8
仕上
  6
Continuous
 62
     3
370
     9
100
AcDbLine
 10
-19.9999670080237
 20
332.4960674571615
 30
0.0
 11
20.00005361196153
 21
332.4960674571615
 31
0.0
  0
LINE
  5
127
330
1F
100
AcDbEntity
  8
仕上
  6
Continuous
 62
     3
370
     9
100
AcDbLine
 10
-19.9999670080237
 20
350.4961763306835
 30
0.0
 11
20.00005361196153
 21
350.4961763306835
 31
0.0
  0
LINE
  5
128
330
1F
100
AcDbEntity
  8
仕上
  6
Continuous
 62
     3
370
     9
100
AcDbLine
 10
72.0000890783362
 20
300.4960856027486
 30
0.0
 11
112.0001096983212
 21
300.4960856027486
 31
0.0
  0
LINE
  5
129
330
1F
100
AcDbEntity
  8
仕上
  6
Continuous
 62
     3
370
     9
100
AcDbLine
 10
256.00002804318
 20
300.4960856027486
 30
0.0
 11
296.0000486631652
 21
300.4960856027486
 31
0.0
  0
LINE
  5
12A
330
1F
100
AcDbEntity
  8
仕上
  6
Continuous
 62
     3
370
     9
100
AcDbLine
 10
112.0001096983212
 20
300.4960856027486
 30
0.0
 11
112.0001096983212
 21
291.4958579581117
 31
0.0
  0
LINE
  5
12B
330
1F
100
AcDbEntity
  8
仕上
  6
Continuous
 62
     3
370
     9
100
AcDbLine
 10
72.0000890783362
 20
300.4960856027486
 30
0.0
 11
72.0000890783362
 21
291.4958579581117
 31
0.0
  0
LINE
  5
12C
330
1F
100
AcDbEntity
  8
仕上
  6
Continuous
 62
     3
370
     9
100
AcDbLine
 10
118.0002037254539
 20
300.4960856027486
 30
0.0
 11
118.0002037254539
 21
291.4958579581117
 31
0.0
  0
LINE
  5
12D
330
1F
100
AcDbEntity
  8
仕上
  6
Continuous
 62
     3
370
     9
100
AcDbLine
 10
250.0000206199852
 20
300.4960856027486
 30
0.0
 11
250.0000206199852
 21
291.4958579581117
 31
0.0
  0
LINE
  5
12E
330
1F
100
AcDbEntity
  8
仕上
  6
Continuous
 62
     3
370
     9
100
AcDbLine
 10
296.0000486631652
 20
300.4960856027486
 30
0.0
 11
296.0000486631652
 21
291.4958579581117
 31
0.0
  0
LINE
  5
12F
330
1F
100
AcDbEntity
  8
仕上
  6
Continuous
 62
     3
370
     9
100
AcDbLine
 10
256.00002804318
 20
300.4960856027486
 30
0.0
 11
256.00002804318
 21
291.4958579581117
 31
0.0
  0
LINE
  5
130
330
1F
100
AcDbEntity
  8
仕上
  6
Continuous
 62
     3
370
     9
100
AcDbLine
 10
301.9999694824219
 20
300.4960856027486
 30
0.0
 11
301.9999694824219
 21
291.4958579581117
 31
0.0
  0
LINE
  5
131
330
1F
100
AcDbEntity
  8
仕上
  6
Continuous
 62
     3
370
     9
100
AcDbLine
 10
285.0002226958403
 20
325.4960443627781
 30
0.0
 11
302.0928089038745
 21
325.4960443627781
 31
0.0
  0
LINE
  5
132
330
1F
100
AcDbEntity
  8
仕上
  6
Continuous
 62
     3
370
     9
100
AcDbLine
 10
285.0002226958403
 20
307.4961086971319
 30
0.0
 11
303.5785860628695
 21
307.4961086971319
 31
0.0
  0
LINE
  5
133
330
1F
100
AcDbEntity
  8
仕上
  6
Continuous
 62
     3
370
     9
100
AcDbLine
 10
301.9999694824219
 20
300.4960856027486
 30
0.0
 11
303.8668039682749
 21
300.4960856027486
 31
0.0
  0
LINE
  5
134
330
1F
100
AcDbEntity
  8
仕上
  6
Continuous
 62
     3
370
     9
100
AcDbLine
 10
37.00006021035679
 20
375.4959618828372
 30
0.0
 11
37.00006021035679
 21
357.4958530093152
 31
0.0
  0
LINE
  5
135
330
1F
100
AcDbEntity
  8
仕上
  6
Continuous
 62
     3
370
     9
100
AcDbLine
 10
9.000227644636851
 20
375.4959618828372
 30
0.0
 11
37.00006021035679
 21
375.4959618828372
 31
0.0
  0
LINE
  5
136
330
1F
100
AcDbEntity
  8
仕上
  6
Continuous
 62
     3
370
     9
100
AcDbLine
 10
9.000227644636851
 20
375.4959618828372
 30
0.0
 11
9.000227644636851
 21
357.4958530093152
 31
0.0
  0
LINE
  5
137
330
1F
100
AcDbEntity
  8
仕上
  6
Continuous
 62
     3
370
     9
100
AcDbLine
 10
9.000227644636851
 20
357.4958530093152
 30
0.0
 11
37.00006021035679
 21
357.4958530093152
 31
0.0
  0
LINE
  5
138
330
1F
100
AcDbEntity
  8
仕上
  6
Continuous
 62
     3
370
     9
100
AcDbLine
 10
42.00013856630065
 20
375.4959618828372
 30
0.0
 11
42.00013856630065
 21
357.4958530093152
 31
0.0
  0
LINE
  5
139
330
1F
100
AcDbEntity
  8
仕上
  6
Continuous
 62
     3
370
     9
100
AcDbLine
 10
42.00013856630065
 20
357.4958530093152
 30
0.0
 11
50.00017733187295
 21
357.4958530093152
 31
0.0
  0
LINE
  5
13A
330
1F
100
AcDbEntity
  8
仕上
  6
Continuous
 62
     3
370
     9
100
AcDbLine
 10
50.00017733187295
 20
375.4959618828372
 30
0.0
 11
50.00017733187295
 21
357.4958530093152
 31
0.0
  0
LINE
  5
13B
330
1F
100
AcDbEntity
  8
仕上
  6
Continuous
 62
     3
370
     9
100
AcDbLine
 10
42.00013856630065
 20
375.4959618828372
 30
0.0
 11
50.00017733187295
 21
375.4959618828372
 31
0.0
  0
LINE
  5
13C
330
1F
100
AcDbEntity
  8
仕上
  6
Continuous
 62
     3
370
     9
100
AcDbLine
 10
26.00006103515625
 20
400.4960938507425
 30
0.0
 11
66.00008165514149
 21
400.4960938507425
 31
0.0
  0
LINE
  5
13D
330
1F
100
AcDbEntity
  8
仕上
  6
Continuous
 62
     3
370
     9
100
AcDbLine
 10
66.00008165514149
 20
400.4960938507425
 30
0.0
 11
66.00008165514149
 21
382.4959849772205
 31
0.0
  0
LINE
  5
13E
330
1F
100
AcDbEntity
  8
仕上
  6
Continuous
 62
     3
370
     9
100
AcDbLine
 10
26.00006103515625
 20
382.4959849772205
 30
0.0
 11
66.00008165514149
 21
382.4959849772205
 31
0.0
  0
LINE
  5
13F
330
1F
100
AcDbEntity
  8
仕上
  6
Continuous
 62
     3
370
     9
100
AcDbLine
 10
26.00006103515625
 20
400.4960938507425
 30
0.0
 11
26.00006103515625
 21
382.4959849772205
 31
0.0
  0
LINE
  5
140
330
1F
100
AcDbEntity
  8
仕上
  6
Continuous
 62
     3
370
     9
100
AcDbLine
 10
83.00008825353675
 20
375.4959618828372
 30
0.0
 11
83.00008825353675
 21
357.4958530093152
 31
0.0
  0
LINE
  5
141
330
1F
100
AcDbEntity
  8
仕上
  6
Continuous
 62
     3
370
     9
100
AcDbLine
 10
55.00008247994074
 20
375.4959618828372
 30
0.0
 11
83.00008825353675
 21
375.4959618828372
 31
0.0
  0
LINE
  5
142
330
1F
100
AcDbEntity
  8
仕上
  6
Continuous
 62
     3
370
     9
100
AcDbLine
 10
55.00008247994074
 20
375.4959618828372
 30
0.0
 11
55.00008247994074
 21
357.4958530093152
 31
0.0
  0
LINE
  5
143
330
1F
100
AcDbEntity
  8
仕上
  6
Continuous
 62
     3
370
     9
100
AcDbLine
 10
55.00008247994074
 20
357.4958530093152
 30
0.0
 11
83.00008825353675
 21
357.4958530093152
 31
0.0
  0
LINE
  5
144
330
1F
100
AcDbEntity
  8
仕上
  6
Continuous
 62
     3
370
     9
100
AcDbLine
 10
88.00025321341843
 20
375.4959618828372
 30
0.0
 11
88.00025321341843
 21
357.4958530093152
 31
0.0
  0
LINE
  5
145
330
1F
100
AcDbEntity
  8
仕上
  6
Continuous
 62
     3
370
     9
100
AcDbLine
 10
88.00025321341843
 20
357.4958530093152
 30
0.0
 11
96.0002053750527
 21
357.4958530093152
 31
0.0
  0
LINE
  5
146
330
1F
100
AcDbEntity
  8
仕上
  6
Continuous
 62
     3
370
     9
100
AcDbLine
 10
96.0002053750527
 20
375.4959618828372
 30
0.0
 11
96.0002053750527
 21
357.4958530093152
 31
0.0
  0
LINE
  5
147
330
1F
100
AcDbEntity
  8
仕上
  6
Continuous
 62
     3
370
     9
100
AcDbLine
 10
88.00025321341843
 20
375.4959618828372
 30
0.0
 11
96.0002053750527
 21
375.4959618828372
 31
0.0
  0
LINE
  5
148
330
1F
100
AcDbEntity
  8
仕上
  6
Continuous
 62
     3
370
     9
100
AcDbLine
 10
72.0000890783362
 20
400.4960938507425
 30
0.0
 11
112.0001096983212
 21
400.4960938507425
 31
0.0
  0
LINE
  5
149
330
1F
100
AcDbEntity
  8
仕上
  6
Continuous
 62
     3
370
     9
100
AcDbLine
 10
112.0001096983212
 20
400.4960938507425
 30
0.0
 11
112.0001096983212
 21
382.4959849772205
 31
0.0
  0
LINE
  5
14A
330
1F
100
AcDbEntity
  8
仕上
  6
Continuous
 62
     3
370
     9
100
AcDbLine
 10
72.0000890783362
 20
382.4959849772205
 30
0.0
 11
112.0001096983212
 21
382.4959849772205
 31
0.0
  0
LINE
  5
14B
330
1F
100
AcDbEntity
  8
仕上
  6
Continuous
 62
     3
370
     9
100
AcDbLine
 10
72.0000890783362
 20
400.4960938507425
 30
0.0
 11
72.0000890783362
 21
382.4959849772205
 31
0.0
  0
LINE
  5
14C
330
1F
100
AcDbEntity
  8
仕上
  6
Continuous
 62
     3
370
     9
100
AcDbLine
 10
129.0001162967166
 20
375.4959618828372
 30
0.0
 11
129.0001162967166
 21
357.4958530093152
 31
0.0
  0
LINE
  5
14D
330
1F
100
AcDbEntity
  8
仕上
  6
Continuous
 62
     3
370
     9
100
AcDbLine
 10
101.0001971270587
 20
375.4959618828372
 30
0.0
 11
129.0001162967166
 21
375.4959618828372
 31
0.0
  0
LINE
  5
14E
330
1F
100
AcDbEntity
  8
仕上
  6
Continuous
 62
     3
370
     9
100
AcDbLine
 10
101.0001971270587
 20
375.4959618828372
 30
0.0
 11
101.0001971270587
 21
357.4958530093152
 31
0.0
  0
LINE
  5
14F
330
1F
100
AcDbEntity
  8
仕上
  6
Continuous
 62
     3
370
     9
100
AcDbLine
 10
101.0001971270587
 20
357.4958530093152
 30
0.0
 11
129.0001162967166
 21
357.4958530093152
 31
0.0
  0
LINE
  5
150
330
1F
100
AcDbEntity
  8
仕上
  6
Continuous
 62
     3
370
     9
100
AcDbLine
 10
134.0001080487225
 20
375.4959618828372
 30
0.0
 11
134.0001080487225
 21
357.4958530093152
 31
0.0
  0
LINE
  5
151
330
1F
100
AcDbEntity
  8
仕上
  6
Continuous
 62
     3
370
     9
100
AcDbLine
 10
134.0001080487225
 20
357.4958530093152
 30
0.0
 11
142.0000602103567
 21
357.4958530093152
 31
0.0
  0
LINE
  5
152
330
1F
100
AcDbEntity
  8
仕上
  6
Continuous
 62
     3
370
     9
100
AcDbLine
 10
142.0000602103567
 20
375.4959618828372
 30
0.0
 11
142.0000602103567
 21
357.4958530093152
 31
0.0
  0
LINE
  5
153
330
1F
100
AcDbEntity
  8
仕上
  6
Continuous
 62
     3
370
     9
100
AcDbLine
 10
134.0001080487225
 20
375.4959618828372
 30
0.0
 11
142.0000602103567
 21
375.4959618828372
 31
0.0
  0
LINE
  5
154
330
1F
100
AcDbEntity
  8
仕上
  6
Continuous
 62
     3
370
     9
100
AcDbLine
 10
118.0002037254539
 20
400.4960938507425
 30
0.0
 11
158.0000511375633
 21
400.4960938507425
 31
0.0
  0
LINE
  5
155
330
1F
100
AcDbEntity
  8
仕上
  6
Continuous
 62
     3
370
     9
100
AcDbLine
 10
158.0000511375633
 20
400.4960938507425
 30
0.0
 11
158.0000511375633
 21
382.4959849772205
 31
0.0
  0
LINE
  5
156
330
1F
100
AcDbEntity
  8
仕上
  6
Continuous
 62
     3
370
     9
100
AcDbLine
 10
118.0002037254539
 20
382.4959849772205
 30
0.0
 11
158.0000511375633
 21
382.4959849772205
 31
0.0
  0
LINE
  5
157
330
1F
100
AcDbEntity
  8
仕上
  6
Continuous
 62
     3
370
     9
100
AcDbLine
 10
118.0002037254539
 20
400.4960938507425
 30
0.0
 11
118.0002037254539
 21
382.4959849772205
 31
0.0
  0
LINE
  5
158
330
1F
100
AcDbEntity
  8
仕上
  6
Continuous
 62
     3
370
     9
100
AcDbLine
 10
175.0000577359586
 20
375.4959618828372
 30
0.0
 11
175.0000577359586
 21
357.4958530093152
 31
0.0
  0
LINE
  5
159
330
1F
100
AcDbEntity
  8
仕上
  6
Continuous
 62
     3
370
     9
100
AcDbLine
 10
147.0002251702384
 20
375.4959618828372
 30
0.0
 11
175.0000577359586
 21
375.4959618828372
 31
0.0
  0
LINE
  5
15A
330
1F
100
AcDbEntity
  8
仕上
  6
Continuous
 62
     3
370
     9
100
AcDbLine
 10
147.0002251702384
 20
375.4959618828372
 30
0.0
 11
147.0002251702384
 21
357.4958530093152
 31
0.0
  0
LINE
  5
15B
330
1F
100
AcDbEntity
  8
仕上
  6
Continuous
 62
     3
370
     9
100
AcDbLine
 10
147.0002251702384
 20
357.4958530093152
 30
0.0
 11
175.0000577359586
 21
357.4958530093152
 31
0.0
  0
LINE
  5
15C
330
1F
100
AcDbEntity
  8
仕上
  6
Continuous
 62
     3
370
     9
100
AcDbLine
 10
180.0001360919024
 20
375.4959618828372
 30
0.0
 11
180.0001360919024
 21
357.4958530093152
 31
0.0
  0
LINE
  5
15D
330
1F
100
AcDbEntity
  8
仕上
  6
Continuous
 62
     3
370
     9
100
AcDbLine
 10
180.0001360919024
 20
357.4958530093152
 30
0.0
 11
188.0001748574745
 21
357.4958530093152
 31
0.0
  0
LINE
  5
15E
330
1F
100
AcDbEntity
  8
仕上
  6
Continuous
 62
     3
370
     9
100
AcDbLine
 10
188.0001748574745
 20
375.4959618828372
 30
0.0
 11
188.0001748574745
 21
357.4958530093152
 31
0.0
  0
LINE
  5
15F
330
1F
100
AcDbEntity
  8
仕上
  6
Continuous
 62
     3
370
     9
100
AcDbLine
 10
180.0001360919024
 20
375.4959618828372
 30
0.0
 11
188.0001748574745
 21
375.4959618828372
 31
0.0
  0
LINE
  5
160
330
1F
100
AcDbEntity
  8
仕上
  6
Continuous
 62
     3
370
     9
100
AcDbLine
 10
164.000058560758
 20
400.4960938507425
 30
0.0
 11
204.0000791807433
 21
400.4960938507425
 31
0.0
  0
LINE
  5
161
330
1F
100
AcDbEntity
  8
仕上
  6
Continuous
 62
     3
370
     9
100
AcDbLine
 10
204.0000791807433
 20
400.4960938507425
 30
0.0
 11
204.0000791807433
 21
382.4959849772205
 31
0.0
  0
LINE
  5
162
330
1F
100
AcDbEntity
  8
仕上
  6
Continuous
 62
     3
370
     9
100
AcDbLine
 10
164.000058560758
 20
382.4959849772205
 30
0.0
 11
204.0000791807433
 21
382.4959849772205
 31
0.0
  0
LINE
  5
163
330
1F
100
AcDbEntity
  8
仕上
  6
Continuous
 62
     3
370
     9
100
AcDbLine
 10
164.000058560758
 20
400.4960938507425
 30
0.0
 11
164.000058560758
 21
382.4959849772205
 31
0.0
  0
LINE
  5
164
330
1F
100
AcDbEntity
  8
仕上
  6
Continuous
 62
     3
370
     9
100
AcDbLine
 10
221.0000857791385
 20
375.4959618828372
 30
0.0
 11
221.0000857791385
 21
357.4958530093152
 31
0.0
  0
LINE
  5
165
330
1F
100
AcDbEntity
  8
仕上
  6
Continuous
 62
     3
370
     9
100
AcDbLine
 10
193.0000800055425
 20
375.4959618828372
 30
0.0
 11
221.0000857791385
 21
375.4959618828372
 31
0.0
  0
LINE
  5
166
330
1F
100
AcDbEntity
  8
仕上
  6
Continuous
 62
     3
370
     9
100
AcDbLine
 10
193.0000800055425
 20
375.4959618828372
 30
0.0
 11
193.0000800055425
 21
357.4958530093152
 31
0.0
  0
LINE
  5
167
330
1F
100
AcDbEntity
  8
仕上
  6
Continuous
 62
     3
370
     9
100
AcDbLine
 10
193.0000800055425
 20
357.4958530093152
 30
0.0
 11
221.0000857791385
 21
357.4958530093152
 31
0.0
  0
LINE
  5
168
330
1F
100
AcDbEntity
  8
仕上
  6
Continuous
 62
     3
370
     9
100
AcDbLine
 10
226.0000775311444
 20
375.4959618828372
 30
0.0
 11
226.0000775311444
 21
357.4958530093152
 31
0.0
  0
LINE
  5
169
330
1F
100
AcDbEntity
  8
仕上
  6
Continuous
 62
     3
370
     9
100
AcDbLine
 10
226.0000775311444
 20
357.4958530093152
 30
0.0
 11
234.0000296927787
 21
357.4958530093152
 31
0.0
  0
LINE
  5
16A
330
1F
100
AcDbEntity
  8
仕上
  6
Continuous
 62
     3
370
     9
100
AcDbLine
 10
234.0000296927787
 20
375.4959618828372
 30
0.0
 11
234.0000296927787
 21
357.4958530093152
 31
0.0
  0
LINE
  5
16B
330
1F
100
AcDbEntity
  8
仕上
  6
Continuous
 62
     3
370
     9
100
AcDbLine
 10
226.0000775311444
 20
375.4959618828372
 30
0.0
 11
234.0000296927787
 21
375.4959618828372
 31
0.0
  0
LINE
  5
16C
330
1F
100
AcDbEntity
  8
仕上
  6
Continuous
 62
     3
370
     9
100
AcDbLine
 10
210.0000866039378
 20
400.4960938507425
 30
0.0
 11
250.0000206199852
 21
400.4960938507425
 31
0.0
  0
LINE
  5
16D
330
1F
100
AcDbEntity
  8
仕上
  6
Continuous
 62
     3
370
     9
100
AcDbLine
 10
250.0000206199852
 20
400.4960938507425
 30
0.0
 11
250.0000206199852
 21
382.4959849772205
 31
0.0
  0
LINE
  5
16E
330
1F
100
AcDbEntity
  8
仕上
  6
Continuous
 62
     3
370
     9
100
AcDbLine
 10
210.0000866039378
 20
382.4959849772205
 30
0.0
 11
250.0000206199852
 21
382.4959849772205
 31
0.0
  0
LINE
  5
16F
330
1F
100
AcDbEntity
  8
仕上
  6
Continuous
 62
     3
370
     9
100
AcDbLine
 10
210.0000866039378
 20
400.4960938507425
 30
0.0
 11
210.0000866039378
 21
382.4959849772205
 31
0.0
  0
LINE
  5
170
330
1F
100
AcDbEntity
  8
仕上
  6
Continuous
 62
     3
370
     9
100
AcDbLine
 10
267.0002004262564
 20
375.4959618828372
 30
0.0
 11
267.0002004262564
 21
357.4958530093152
 31
0.0
  0
LINE
  5
171
330
1F
100
AcDbEntity
  8
仕上
  6
Continuous
 62
     3
370
     9
100
AcDbLine
 10
239.0001946526604
 20
375.4959618828372
 30
0.0
 11
267.0002004262564
 21
375.4959618828372
 31
0.0
  0
LINE
  5
172
330
1F
100
AcDbEntity
  8
仕上
  6
Continuous
 62
     3
370
     9
100
AcDbLine
 10
239.0001946526604
 20
375.4959618828372
 30
0.0
 11
239.0001946526604
 21
357.4958530093152
 31
0.0
  0
LINE
  5
173
330
1F
100
AcDbEntity
  8
仕上
  6
Continuous
 62
     3
370
     9
100
AcDbLine
 10
239.0001946526604
 20
357.4958530093152
 30
0.0
 11
267.0002004262564
 21
357.4958530093152
 31
0.0
  0
LINE
  5
174
330
1F
100
AcDbEntity
  8
仕上
  6
Continuous
 62
     3
370
     9
100
AcDbLine
 10
272.0001055743244
 20
375.4959618828372
 30
0.0
 11
272.0001055743244
 21
357.4958530093152
 31
0.0
  0
LINE
  5
175
330
1F
100
AcDbEntity
  8
仕上
  6
Continuous
 62
     3
370
     9
100
AcDbLine
 10
272.0001055743244
 20
357.4958530093152
 30
0.0
 11
280.0001443398965
 21
357.4958530093152
 31
0.0
  0
LINE
  5
176
330
1F
100
AcDbEntity
  8
仕上
  6
Continuous
 62
     3
370
     9
100
AcDbLine
 10
280.0001443398965
 20
375.4959618828372
 30
0.0
 11
280.0001443398965
 21
357.4958530093152
 31
0.0
  0
LINE
  5
177
330
1F
100
AcDbEntity
  8
仕上
  6
Continuous
 62
     3
370
     9
100
AcDbLine
 10
272.0001055743244
 20
375.4959618828372
 30
0.0
 11
280.0001443398965
 21
375.4959618828372
 31
0.0
  0
LINE
  5
178
330
1F
100
AcDbEntity
  8
仕上
  6
Continuous
 62
     3
370
     9
100
AcDbLine
 10
256.00002804318
 20
400.4960938507425
 30
0.0
 11
256.00002804318
 21
382.4959849772205
 31
0.0
  0
LINE
  5
179
330
1F
100
AcDbEntity
  8
仕上
  6
Continuous
 62
     3
370
     9
100
AcDbLine
 10
285.0002226958403
 20
375.4959618828372
 30
0.0
 11
285.0002226958403
 21
357.4958530093152
 31
0.0
  0
LINE
  5
17A
330
1F
100
AcDbEntity
  8
仕上
  6
Continuous
 62
     3
370
     9
100
AcDbLine
 10
4.000062684754965
 20
375.4959618828372
 30
0.0
 11
4.000062684754965
 21
357.4958530093152
 31
0.0
  0
LINE
  5
17B
330
1F
100
AcDbEntity
  8
仕上
  6
Continuous
 62
     3
370
     9
100
AcDbLine
 10
20.00005361196153
 20
400.4960938507425
 30
0.0
 11
20.00005361196153
 21
382.4959849772205
 31
0.0
  0
LINE
  5
17C
330
1F
100
AcDbEntity
  8
仕上
  6
Continuous
 62
     3
370
     9
100
AcDbLine
 10
-19.9999670080237
 20
382.4959849772205
 30
0.0
 11
20.00005361196153
 21
382.4959849772205
 31
0.0
  0
LINE
  5
17D
330
1F
100
AcDbEntity
  8
仕上
  6
Continuous
 62
     3
370
     9
100
AcDbLine
 10
-19.9999670080237
 20
400.4960938507425
 30
0.0
 11
20.00005361196153
 21
400.4960938507425
 31
0.0
  0
LINE
  5
17E
330
1F
100
AcDbEntity
  8
仕上
  6
Continuous
 62
     3
370
     9
100
AcDbLine
 10
-3.999889476879304
 20
375.4959618828372
 30
0.0
 11
4.000062684754965
 21
375.4959618828372
 31
0.0
  0
LINE
  5
17F
330
1F
100
AcDbEntity
  8
仕上
  6
Continuous
 62
     3
370
     9
100
AcDbLine
 10
-3.999889476879304
 20
357.4958530093152
 30
0.0
 11
4.000062684754965
 21
357.4958530093152
 31
0.0
  0
LINE
  5
180
330
1F
100
AcDbEntity
  8
仕上
  6
Continuous
 62
     3
370
     9
100
AcDbLine
 10
37.00006021035679
 20
425.4962258186479
 30
0.0
 11
37.00006021035679
 21
407.4961169451261
 31
0.0
  0
LINE
  5
181
330
1F
100
AcDbEntity
  8
仕上
  6
Continuous
 62
     3
370
     9
100
AcDbLine
 10
9.000227644636851
 20
425.4962258186479
 30
0.0
 11
37.00006021035679
 21
425.4962258186479
 31
0.0
  0
LINE
  5
182
330
1F
100
AcDbEntity
  8
仕上
  6
Continuous
 62
     3
370
     9
100
AcDbLine
 10
9.000227644636851
 20
425.4962258186479
 30
0.0
 11
9.000227644636851
 21
407.4961169451261
 31
0.0
  0
LINE
  5
183
330
1F
100
AcDbEntity
  8
仕上
  6
Continuous
 62
     3
370
     9
100
AcDbLine
 10
9.000227644636851
 20
407.4961169451261
 30
0.0
 11
37.00006021035679
 21
407.4961169451261
 31
0.0
  0
LINE
  5
184
330
1F
100
AcDbEntity
  8
仕上
  6
Continuous
 62
     3
370
     9
100
AcDbLine
 10
42.00013856630065
 20
425.4962258186479
 30
0.0
 11
42.00013856630065
 21
407.4961169451261
 31
0.0
  0
LINE
  5
185
330
1F
100
AcDbEntity
  8
仕上
  6
Continuous
 62
     3
370
     9
100
AcDbLine
 10
42.00013856630065
 20
407.4961169451261
 30
0.0
 11
50.00017733187295
 21
407.4961169451261
 31
0.0
  0
LINE
  5
186
330
1F
100
AcDbEntity
  8
仕上
  6
Continuous
 62
     3
370
     9
100
AcDbLine
 10
50.00017733187295
 20
425.4962258186479
 30
0.0
 11
50.00017733187295
 21
407.4961169451261
 31
0.0
  0
LINE
  5
187
330
1F
100
AcDbEntity
  8
仕上
  6
Continuous
 62
     3
370
     9
100
AcDbLine
 10
42.00013856630065
 20
425.4962258186479
 30
0.0
 11
50.00017733187295
 21
425.4962258186479
 31
0.0
  0
LINE
  5
188
330
1F
100
AcDbEntity
  8
仕上
  6
Continuous
 62
     3
370
     9
100
AcDbLine
 10
26.00006103515625
 20
450.4960113708018
 30
0.0
 11
66.00008165514149
 21
450.4960113708018
 31
0.0
  0
LINE
  5
189
330
1F
100
AcDbEntity
  8
仕上
  6
Continuous
 62
     3
370
     9
100
AcDbLine
 10
66.00008165514149
 20
450.4960113708018
 30
0.0
 11
66.00008165514149
 21
432.4960757051556
 31
0.0
  0
LINE
  5
18A
330
1F
100
AcDbEntity
  8
仕上
  6
Continuous
 62
     3
370
     9
100
AcDbLine
 10
26.00006103515625
 20
432.4960757051556
 30
0.0
 11
66.00008165514149
 21
432.4960757051556
 31
0.0
  0
LINE
  5
18B
330
1F
100
AcDbEntity
  8
仕上
  6
Continuous
 62
     3
370
     9
100
AcDbLine
 10
26.00006103515625
 20
450.4960113708018
 30
0.0
 11
26.00006103515625
 21
432.4960757051556
 31
0.0
  0
LINE
  5
18C
330
1F
100
AcDbEntity
  8
仕上
  6
Continuous
 62
     3
370
     9
100
AcDbLine
 10
83.00008825353675
 20
425.4962258186479
 30
0.0
 11
83.00008825353675
 21
407.4961169451261
 31
0.0
  0
LINE
  5
18D
330
1F
100
AcDbEntity
  8
仕上
  6
Continuous
 62
     3
370
     9
100
AcDbLine
 10
55.00008247994074
 20
425.4962258186479
 30
0.0
 11
83.00008825353675
 21
425.4962258186479
 31
0.0
  0
LINE
  5
18E
330
1F
100
AcDbEntity
  8
仕上
  6
Continuous
 62
     3
370
     9
100
AcDbLine
 10
55.00008247994074
 20
425.4962258186479
 30
0.0
 11
55.00008247994074
 21
407.4961169451261
 31
0.0
  0
LINE
  5
18F
330
1F
100
AcDbEntity
  8
仕上
  6
Continuous
 62
     3
370
     9
100
AcDbLine
 10
55.00008247994074
 20
407.4961169451261
 30
0.0
 11
83.00008825353675
 21
407.4961169451261
 31
0.0
  0
LINE
  5
190
330
1F
100
AcDbEntity
  8
仕上
  6
Continuous
 62
     3
370
     9
100
AcDbLine
 10
88.00025321341843
 20
425.4962258186479
 30
0.0
 11
88.00025321341843
 21
407.4961169451261
 31
0.0
  0
LINE
  5
191
330
1F
100
AcDbEntity
  8
仕上
  6
Continuous
 62
     3
370
     9
100
AcDbLine
 10
88.00025321341843
 20
407.4961169451261
 30
0.0
 11
96.0002053750527
 21
407.4961169451261
 31
0.0
  0
LINE
  5
192
330
1F
100
AcDbEntity
  8
仕上
  6
Continuous
 62
     3
370
     9
100
AcDbLine
 10
96.0002053750527
 20
425.4962258186479
 30
0.0
 11
96.0002053750527
 21
407.4961169451261
 31
0.0
  0
LINE
  5
193
330
1F
100
AcDbEntity
  8
仕上
  6
Continuous
 62
     3
370
     9
100
AcDbLine
 10
88.00025321341843
 20
425.4962258186479
 30
0.0
 11
96.0002053750527
 21
425.4962258186479
 31
0.0
  0
LINE
  5
194
330
1F
100
AcDbEntity
  8
仕上
  6
Continuous
 62
     3
370
     9
100
AcDbLine
 10
72.0000890783362
 20
450.4960113708018
 30
0.0
 11
112.0001096983212
 21
450.4960113708018
 31
0.0
  0
LINE
  5
195
330
1F
100
AcDbEntity
  8
仕上
  6
Continuous
 62
     3
370
     9
100
AcDbLine
 10
112.0001096983212
 20
450.4960113708018
 30
0.0
 11
112.0001096983212
 21
432.4960757051556
 31
0.0
  0
LINE
  5
196
330
1F
100
AcDbEntity
  8
仕上
  6
Continuous
 62
     3
370
     9
100
AcDbLine
 10
72.0000890783362
 20
432.4960757051556
 30
0.0
 11
112.0001096983212
 21
432.4960757051556
 31
0.0
  0
LINE
  5
197
330
1F
100
AcDbEntity
  8
仕上
  6
Continuous
 62
     3
370
     9
100
AcDbLine
 10
72.0000890783362
 20
450.4960113708018
 30
0.0
 11
72.0000890783362
 21
432.4960757051556
 31
0.0
  0
LINE
  5
198
330
1F
100
AcDbEntity
  8
仕上
  6
Continuous
 62
     3
370
     9
100
AcDbLine
 10
129.0001162967166
 20
425.4962258186479
 30
0.0
 11
129.0001162967166
 21
407.4961169451261
 31
0.0
  0
LINE
  5
199
330
1F
100
AcDbEntity
  8
仕上
  6
Continuous
 62
     3
370
     9
100
AcDbLine
 10
101.0001971270587
 20
425.4962258186479
 30
0.0
 11
129.0001162967166
 21
425.4962258186479
 31
0.0
  0
LINE
  5
19A
330
1F
100
AcDbEntity
  8
仕上
  6
Continuous
 62
     3
370
     9
100
AcDbLine
 10
101.0001971270587
 20
425.4962258186479
 30
0.0
 11
101.0001971270587
 21
407.4961169451261
 31
0.0
  0
LINE
  5
19B
330
1F
100
AcDbEntity
  8
仕上
  6
Continuous
 62
     3
370
     9
100
AcDbLine
 10
101.0001971270587
 20
407.4961169451261
 30
0.0
 11
129.0001162967166
 21
407.4961169451261
 31
0.0
  0
LINE
  5
19C
330
1F
100
AcDbEntity
  8
仕上
  6
Continuous
 62
     3
370
     9
100
AcDbLine
 10
134.0001080487225
 20
425.4962258186479
 30
0.0
 11
134.0001080487225
 21
407.4961169451261
 31
0.0
  0
LINE
  5
19D
330
1F
100
AcDbEntity
  8
仕上
  6
Continuous
 62
     3
370
     9
100
AcDbLine
 10
134.0001080487225
 20
407.4961169451261
 30
0.0
 11
142.0000602103567
 21
407.4961169451261
 31
0.0
  0
LINE
  5
19E
330
1F
100
AcDbEntity
  8
仕上
  6
Continuous
 62
     3
370
     9
100
AcDbLine
 10
142.0000602103567
 20
425.4962258186479
 30
0.0
 11
142.0000602103567
 21
407.4961169451261
 31
0.0
  0
LINE
  5
19F
330
1F
100
AcDbEntity
  8
仕上
  6
Continuous
 62
     3
370
     9
100
AcDbLine
 10
134.0001080487225
 20
425.4962258186479
 30
0.0
 11
142.0000602103567
 21
425.4962258186479
 31
0.0
  0
LINE
  5
1A0
330
1F
100
AcDbEntity
  8
仕上
  6
Continuous
 62
     3
370
     9
100
AcDbLine
 10
118.0002037254539
 20
450.4960113708018
 30
0.0
 11
158.0000511375633
 21
450.4960113708018
 31
0.0
  0
LINE
  5
1A1
330
1F
100
AcDbEntity
  8
仕上
  6
Continuous
 62
     3
370
     9
100
AcDbLine
 10
158.0000511375633
 20
450.4960113708018
 30
0.0
 11
158.0000511375633
 21
432.4960757051556
 31
0.0
  0
LINE
  5
1A2
330
1F
100
AcDbEntity
  8
仕上
  6
Continuous
 62
     3
370
     9
100
AcDbLine
 10
118.0002037254539
 20
432.4960757051556
 30
0.0
 11
158.0000511375633
 21
432.4960757051556
 31
0.0
  0
LINE
  5
1A3
330
1F
100
AcDbEntity
  8
仕上
  6
Continuous
 62
     3
370
     9
100
AcDbLine
 10
118.0002037254539
 20
450.4960113708018
 30
0.0
 11
118.0002037254539
 21
432.4960757051556
 31
0.0
  0
LINE
  5
1A4
330
1F
100
AcDbEntity
  8
仕上
  6
Continuous
 62
     3
370
     9
100
AcDbLine
 10
175.0000577359586
 20
425.4962258186479
 30
0.0
 11
175.0000577359586
 21
407.4961169451261
 31
0.0
  0
LINE
  5
1A5
330
1F
100
AcDbEntity
  8
仕上
  6
Continuous
 62
     3
370
     9
100
AcDbLine
 10
147.0002251702384
 20
425.4962258186479
 30
0.0
 11
175.0000577359586
 21
425.4962258186479
 31
0.0
  0
LINE
  5
1A6
330
1F
100
AcDbEntity
  8
仕上
  6
Continuous
 62
     3
370
     9
100
AcDbLine
 10
147.0002251702384
 20
425.4962258186479
 30
0.0
 11
147.0002251702384
 21
407.4961169451261
 31
0.0
  0
LINE
  5
1A7
330
1F
100
AcDbEntity
  8
仕上
  6
Continuous
 62
     3
370
     9
100
AcDbLine
 10
147.0002251702384
 20
407.4961169451261
 30
0.0
 11
175.0000577359586
 21
407.4961169451261
 31
0.0
  0
LINE
  5
1A8
330
1F
100
AcDbEntity
  8
仕上
  6
Continuous
 62
     3
370
     9
100
AcDbLine
 10
180.0001360919024
 20
425.4962258186479
 30
0.0
 11
180.0001360919024
 21
407.4961169451261
 31
0.0
  0
LINE
  5
1A9
330
1F
100
AcDbEntity
  8
仕上
  6
Continuous
 62
     3
370
     9
100
AcDbLine
 10
180.0001360919024
 20
407.4961169451261
 30
0.0
 11
188.0001748574745
 21
407.4961169451261
 31
0.0
  0
LINE
  5
1AA
330
1F
100
AcDbEntity
  8
仕上
  6
Continuous
 62
     3
370
     9
100
AcDbLine
 10
188.0001748574745
 20
425.4962258186479
 30
0.0
 11
188.0001748574745
 21
407.4961169451261
 31
0.0
  0
LINE
  5
1AB
330
1F
100
AcDbEntity
  8
仕上
  6
Continuous
 62
     3
370
     9
100
AcDbLine
 10
180.0001360919024
 20
425.4962258186479
 30
0.0
 11
188.0001748574745
 21
425.4962258186479
 31
0.0
  0
LINE
  5
1AC
330
1F
100
AcDbEntity
  8
仕上
  6
Continuous
 62
     3
370
     9
100
AcDbLine
 10
164.000058560758
 20
450.4960113708018
 30
0.0
 11
204.0000791807433
 21
450.4960113708018
 31
0.0
  0
LINE
  5
1AD
330
1F
100
AcDbEntity
  8
仕上
  6
Continuous
 62
     3
370
     9
100
AcDbLine
 10
204.0000791807433
 20
450.4960113708018
 30
0.0
 11
204.0000791807433
 21
432.4960757051556
 31
0.0
  0
LINE
  5
1AE
330
1F
100
AcDbEntity
  8
仕上
  6
Continuous
 62
     3
370
     9
100
AcDbLine
 10
164.000058560758
 20
432.4960757051556
 30
0.0
 11
204.0000791807433
 21
432.4960757051556
 31
0.0
  0
LINE
  5
1AF
330
1F
100
AcDbEntity
  8
仕上
  6
Continuous
 62
     3
370
     9
100
AcDbLine
 10
164.000058560758
 20
450.4960113708018
 30
0.0
 11
164.000058560758
 21
432.4960757051556
 31
0.0
  0
LINE
  5
1B0
330
1F
100
AcDbEntity
  8
仕上
  6
Continuous
 62
     3
370
     9
100
AcDbLine
 10
221.0000857791385
 20
425.4962258186479
 30
0.0
 11
221.0000857791385
 21
407.4961169451261
 31
0.0
  0
LINE
  5
1B1
330
1F
100
AcDbEntity
  8
仕上
  6
Continuous
 62
     3
370
     9
100
AcDbLine
 10
193.0000800055425
 20
425.4962258186479
 30
0.0
 11
221.0000857791385
 21
425.4962258186479
 31
0.0
  0
LINE
  5
1B2
330
1F
100
AcDbEntity
  8
仕上
  6
Continuous
 62
     3
370
     9
100
AcDbLine
 10
193.0000800055425
 20
425.4962258186479
 30
0.0
 11
193.0000800055425
 21
407.4961169451261
 31
0.0
  0
LINE
  5
1B3
330
1F
100
AcDbEntity
  8
仕上
  6
Continuous
 62
     3
370
     9
100
AcDbLine
 10
193.0000800055425
 20
407.4961169451261
 30
0.0
 11
221.0000857791385
 21
407.4961169451261
 31
0.0
  0
LINE
  5
1B4
330
1F
100
AcDbEntity
  8
仕上
  6
Continuous
 62
     3
370
     9
100
AcDbLine
 10
226.0000775311444
 20
425.4962258186479
 30
0.0
 11
226.0000775311444
 21
407.4961169451261
 31
0.0
  0
LINE
  5
1B5
330
1F
100
AcDbEntity
  8
仕上
  6
Continuous
 62
     3
370
     9
100
AcDbLine
 10
226.0000775311444
 20
407.4961169451261
 30
0.0
 11
234.0000296927787
 21
407.4961169451261
 31
0.0
  0
LINE
  5
1B6
330
1F
100
AcDbEntity
  8
仕上
  6
Continuous
 62
     3
370
     9
100
AcDbLine
 10
234.0000296927787
 20
425.4962258186479
 30
0.0
 11
234.0000296927787
 21
407.4961169451261
 31
0.0
  0
LINE
  5
1B7
330
1F
100
AcDbEntity
  8
仕上
  6
Continuous
 62
     3
370
     9
100
AcDbLine
 10
226.0000775311444
 20
425.4962258186479
 30
0.0
 11
234.0000296927787
 21
425.4962258186479
 31
0.0
  0
LINE
  5
1B8
330
1F
100
AcDbEntity
  8
仕上
  6
Continuous
 62
     3
370
     9
100
AcDbLine
 10
210.0000866039378
 20
450.4960113708018
 30
0.0
 11
250.0000206199852
 21
450.4960113708018
 31
0.0
  0
LINE
  5
1B9
330
1F
100
AcDbEntity
  8
仕上
  6
Continuous
 62
     3
370
     9
100
AcDbLine
 10
250.0000206199852
 20
450.4960113708018
 30
0.0
 11
250.0000206199852
 21
432.4960757051556
 31
0.0
  0
LINE
  5
1BA
330
1F
100
AcDbEntity
  8
仕上
  6
Continuous
 62
     3
370
     9
100
AcDbLine
 10
210.0000866039378
 20
432.4960757051556
 30
0.0
 11
250.0000206199852
 21
432.4960757051556
 31
0.0
  0
LINE
  5
1BB
330
1F
100
AcDbEntity
  8
仕上
  6
Continuous
 62
     3
370
     9
100
AcDbLine
 10
210.0000866039378
 20
450.4960113708018
 30
0.0
 11
210.0000866039378
 21
432.4960757051556
 31
0.0
  0
LINE
  5
1BC
330
1F
100
AcDbEntity
  8
仕上
  6
Continuous
 62
     3
370
     9
100
AcDbLine
 10
267.0002004262564
 20
425.4962258186479
 30
0.0
 11
267.0002004262564
 21
407.4961169451261
 31
0.0
  0
LINE
  5
1BD
330
1F
100
AcDbEntity
  8
仕上
  6
Continuous
 62
     3
370
     9
100
AcDbLine
 10
239.0001946526604
 20
425.4962258186479
 30
0.0
 11
267.0002004262564
 21
425.4962258186479
 31
0.0
  0
LINE
  5
1BE
330
1F
100
AcDbEntity
  8
仕上
  6
Continuous
 62
     3
370
     9
100
AcDbLine
 10
239.0001946526604
 20
425.4962258186479
 30
0.0
 11
239.0001946526604
 21
407.4961169451261
 31
0.0
  0
LINE
  5
1BF
330
1F
100
AcDbEntity
  8
仕上
  6
Continuous
 62
     3
370
     9
100
AcDbLine
 10
239.0001946526604
 20
407.4961169451261
 30
0.0
 11
267.0002004262564
 21
407.4961169451261
 31
0.0
  0
LINE
  5
1C0
330
1F
100
AcDbEntity
  8
仕上
  6
Continuous
 62
     3
370
     9
100
AcDbLine
 10
272.0001055743244
 20
425.4962258186479
 30
0.0
 11
272.0001055743244
 21
407.4961169451261
 31
0.0
  0
LINE
  5
1C1
330
1F
100
AcDbEntity
  8
仕上
  6
Continuous
 62
     3
370
     9
100
AcDbLine
 10
272.0001055743244
 20
407.4961169451261
 30
0.0
 11
280.0001443398965
 21
407.4961169451261
 31
0.0
  0
LINE
  5
1C2
330
1F
100
AcDbEntity
  8
仕上
  6
Continuous
 62
     3
370
     9
100
AcDbLine
 10
256.00002804318
 20
450.4960113708018
 30
0.0
 11
256.00002804318
 21
432.4960757051556
 31
0.0
  0
LINE
  5
1C3
330
1F
100
AcDbEntity
  8
仕上
  6
Continuous
 62
     3
370
     9
100
AcDbLine
 10
4.000062684754965
 20
425.4962258186479
 30
0.0
 11
4.000062684754965
 21
407.4961169451261
 31
0.0
  0
LINE
  5
1C4
330
1F
100
AcDbEntity
  8
仕上
  6
Continuous
 62
     3
370
     9
100
AcDbLine
 10
20.00005361196153
 20
450.4960113708018
 30
0.0
 11
20.00005361196153
 21
432.4960757051556
 31
0.0
  0
LINE
  5
1C5
330
1F
100
AcDbEntity
  8
仕上
  6
Continuous
 62
     3
370
     9
100
AcDbLine
 10
-19.9999670080237
 20
432.4960757051556
 30
0.0
 11
20.00005361196153
 21
432.4960757051556
 31
0.0
  0
LINE
  5
1C6
330
1F
100
AcDbEntity
  8
仕上
  6
Continuous
 62
     3
370
     9
100
AcDbLine
 10
-19.9999670080237
 20
450.4960113708018
 30
0.0
 11
20.00005361196153
 21
450.4960113708018
 31
0.0
  0
LINE
  5
1C7
330
1F
100
AcDbEntity
  8
仕上
  6
Continuous
 62
     3
370
     9
100
AcDbLine
 10
-3.999889476879304
 20
425.4962258186479
 30
0.0
 11
4.000062684754965
 21
425.4962258186479
 31
0.0
  0
LINE
  5
1C8
330
1F
100
AcDbEntity
  8
仕上
  6
Continuous
 62
     3
370
     9
100
AcDbLine
 10
-3.999889476879304
 20
407.4961169451261
 30
0.0
 11
4.000062684754965
 21
407.4961169451261
 31
0.0
  0
LINE
  5
1C9
330
1F
100
AcDbEntity
  8
仕上
  6
Continuous
 62
     3
370
     9
100
AcDbLine
 10
37.00006021035679
 20
475.4961433387072
 30
0.0
 11
37.00006021035679
 21
457.4960344651852
 31
0.0
  0
LINE
  5
1CA
330
1F
100
AcDbEntity
  8
仕上
  6
Continuous
 62
     3
370
     9
100
AcDbLine
 10
9.000227644636851
 20
475.4961433387072
 30
0.0
 11
37.00006021035679
 21
475.4961433387072
 31
0.0
  0
LINE
  5
1CB
330
1F
100
AcDbEntity
  8
仕上
  6
Continuous
 62
     3
370
     9
100
AcDbLine
 10
9.000227644636851
 20
475.4961433387072
 30
0.0
 11
9.000227644636851
 21
457.4960344651852
 31
0.0
  0
LINE
  5
1CC
330
1F
100
AcDbEntity
  8
仕上
  6
Continuous
 62
     3
370
     9
100
AcDbLine
 10
9.000227644636851
 20
457.4960344651852
 30
0.0
 11
37.00006021035679
 21
457.4960344651852
 31
0.0
  0
LINE
  5
1CD
330
1F
100
AcDbEntity
  8
仕上
  6
Continuous
 62
     3
370
     9
100
AcDbLine
 10
42.00013856630065
 20
475.4961433387072
 30
0.0
 11
42.00013856630065
 21
457.4960344651852
 31
0.0
  0
LINE
  5
1CE
330
1F
100
AcDbEntity
  8
仕上
  6
Continuous
 62
     3
370
     9
100
AcDbLine
 10
42.00013856630065
 20
457.4960344651852
 30
0.0
 11
50.00017733187295
 21
457.4960344651852
 31
0.0
  0
LINE
  5
1CF
330
1F
100
AcDbEntity
  8
仕上
  6
Continuous
 62
     3
370
     9
100
AcDbLine
 10
50.00017733187295
 20
475.4961433387072
 30
0.0
 11
50.00017733187295
 21
457.4960344651852
 31
0.0
  0
LINE
  5
1D0
330
1F
100
AcDbEntity
  8
仕上
  6
Continuous
 62
     3
370
     9
100
AcDbLine
 10
42.00013856630065
 20
475.4961433387072
 30
0.0
 11
50.00017733187295
 21
475.4961433387072
 31
0.0
  0
LINE
  5
1D1
330
1F
100
AcDbEntity
  8
仕上
  6
Continuous
 62
     3
370
     9
100
AcDbLine
 10
26.00006103515625
 20
500.4961020987367
 30
0.0
 11
66.00008165514149
 21
500.4961020987367
 31
0.0
  0
LINE
  5
1D2
330
1F
100
AcDbEntity
  8
仕上
  6
Continuous
 62
     3
370
     9
100
AcDbLine
 10
66.00008165514149
 20
500.4961020987367
 30
0.0
 11
66.00008165514149
 21
482.4959932252147
 31
0.0
  0
LINE
  5
1D3
330
1F
100
AcDbEntity
  8
仕上
  6
Continuous
 62
     3
370
     9
100
AcDbLine
 10
26.00006103515625
 20
482.4959932252147
 30
0.0
 11
66.00008165514149
 21
482.4959932252147
 31
0.0
  0
LINE
  5
1D4
330
1F
100
AcDbEntity
  8
仕上
  6
Continuous
 62
     3
370
     9
100
AcDbLine
 10
26.00006103515625
 20
500.4961020987367
 30
0.0
 11
26.00006103515625
 21
482.4959932252147
 31
0.0
  0
LINE
  5
1D5
330
1F
100
AcDbEntity
  8
仕上
  6
Continuous
 62
     3
370
     9
100
AcDbLine
 10
83.00008825353675
 20
475.4961433387072
 30
0.0
 11
83.00008825353675
 21
457.4960344651852
 31
0.0
  0
LINE
  5
1D6
330
1F
100
AcDbEntity
  8
仕上
  6
Continuous
 62
     3
370
     9
100
AcDbLine
 10
55.00008247994074
 20
475.4961433387072
 30
0.0
 11
83.00008825353675
 21
475.4961433387072
 31
0.0
  0
LINE
  5
1D7
330
1F
100
AcDbEntity
  8
仕上
  6
Continuous
 62
     3
370
     9
100
AcDbLine
 10
55.00008247994074
 20
475.4961433387072
 30
0.0
 11
55.00008247994074
 21
457.4960344651852
 31
0.0
  0
LINE
  5
1D8
330
1F
100
AcDbEntity
  8
仕上
  6
Continuous
 62
     3
370
     9
100
AcDbLine
 10
55.00008247994074
 20
457.4960344651852
 30
0.0
 11
83.00008825353675
 21
457.4960344651852
 31
0.0
  0
LINE
  5
1D9
330
1F
100
AcDbEntity
  8
仕上
  6
Continuous
 62
     3
370
     9
100
AcDbLine
 10
88.00025321341843
 20
475.4961433387072
 30
0.0
 11
88.00025321341843
 21
457.4960344651852
 31
0.0
  0
LINE
  5
1DA
330
1F
100
AcDbEntity
  8
仕上
  6
Continuous
 62
     3
370
     9
100
AcDbLine
 10
88.00025321341843
 20
457.4960344651852
 30
0.0
 11
96.0002053750527
 21
457.4960344651852
 31
0.0
  0
LINE
  5
1DB
330
1F
100
AcDbEntity
  8
仕上
  6
Continuous
 62
     3
370
     9
100
AcDbLine
 10
96.0002053750527
 20
475.4961433387072
 30
0.0
 11
96.0002053750527
 21
457.4960344651852
 31
0.0
  0
LINE
  5
1DC
330
1F
100
AcDbEntity
  8
仕上
  6
Continuous
 62
     3
370
     9
100
AcDbLine
 10
88.00025321341843
 20
475.4961433387072
 30
0.0
 11
96.0002053750527
 21
475.4961433387072
 31
0.0
  0
LINE
  5
1DD
330
1F
100
AcDbEntity
  8
仕上
  6
Continuous
 62
     3
370
     9
100
AcDbLine
 10
72.0000890783362
 20
500.4961020987367
 30
0.0
 11
112.0001096983212
 21
500.4961020987367
 31
0.0
  0
LINE
  5
1DE
330
1F
100
AcDbEntity
  8
仕上
  6
Continuous
 62
     3
370
     9
100
AcDbLine
 10
112.0001096983212
 20
500.4961020987367
 30
0.0
 11
112.0001096983212
 21
482.4959932252147
 31
0.0
  0
LINE
  5
1DF
330
1F
100
AcDbEntity
  8
仕上
  6
Continuous
 62
     3
370
     9
100
AcDbLine
 10
72.0000890783362
 20
482.4959932252147
 30
0.0
 11
112.0001096983212
 21
482.4959932252147
 31
0.0
  0
LINE
  5
1E0
330
1F
100
AcDbEntity
  8
仕上
  6
Continuous
 62
     3
370
     9
100
AcDbLine
 10
72.0000890783362
 20
500.4961020987367
 30
0.0
 11
72.0000890783362
 21
482.4959932252147
 31
0.0
  0
LINE
  5
1E1
330
1F
100
AcDbEntity
  8
仕上
  6
Continuous
 62
     3
370
     9
100
AcDbLine
 10
129.0001162967166
 20
475.4961433387072
 30
0.0
 11
129.0001162967166
 21
457.4960344651852
 31
0.0
  0
LINE
  5
1E2
330
1F
100
AcDbEntity
  8
仕上
  6
Continuous
 62
     3
370
     9
100
AcDbLine
 10
101.0001971270587
 20
475.4961433387072
 30
0.0
 11
129.0001162967166
 21
475.4961433387072
 31
0.0
  0
LINE
  5
1E3
330
1F
100
AcDbEntity
  8
仕上
  6
Continuous
 62
     3
370
     9
100
AcDbLine
 10
101.0001971270587
 20
475.4961433387072
 30
0.0
 11
101.0001971270587
 21
457.4960344651852
 31
0.0
  0
LINE
  5
1E4
330
1F
100
AcDbEntity
  8
仕上
  6
Continuous
 62
     3
370
     9
100
AcDbLine
 10
101.0001971270587
 20
457.4960344651852
 30
0.0
 11
129.0001162967166
 21
457.4960344651852
 31
0.0
  0
LINE
  5
1E5
330
1F
100
AcDbEntity
  8
仕上
  6
Continuous
 62
     3
370
     9
100
AcDbLine
 10
134.0001080487225
 20
475.4961433387072
 30
0.0
 11
134.0001080487225
 21
457.4960344651852
 31
0.0
  0
LINE
  5
1E6
330
1F
100
AcDbEntity
  8
仕上
  6
Continuous
 62
     3
370
     9
100
AcDbLine
 10
134.0001080487225
 20
457.4960344651852
 30
0.0
 11
142.0000602103567
 21
457.4960344651852
 31
0.0
  0
LINE
  5
1E7
330
1F
100
AcDbEntity
  8
仕上
  6
Continuous
 62
     3
370
     9
100
AcDbLine
 10
142.0000602103567
 20
475.4961433387072
 30
0.0
 11
142.0000602103567
 21
457.4960344651852
 31
0.0
  0
LINE
  5
1E8
330
1F
100
AcDbEntity
  8
仕上
  6
Continuous
 62
     3
370
     9
100
AcDbLine
 10
134.0001080487225
 20
475.4961433387072
 30
0.0
 11
142.0000602103567
 21
475.4961433387072
 31
0.0
  0
LINE
  5
1E9
330
1F
100
AcDbEntity
  8
仕上
  6
Continuous
 62
     3
370
     9
100
AcDbLine
 10
118.0002037254539
 20
500.4961020987367
 30
0.0
 11
158.0000511375633
 21
500.4961020987367
 31
0.0
  0
LINE
  5
1EA
330
1F
100
AcDbEntity
  8
仕上
  6
Continuous
 62
     3
370
     9
100
AcDbLine
 10
158.0000511375633
 20
500.4961020987367
 30
0.0
 11
158.0000511375633
 21
482.4959932252147
 31
0.0
  0
LINE
  5
1EB
330
1F
100
AcDbEntity
  8
仕上
  6
Continuous
 62
     3
370
     9
100
AcDbLine
 10
118.0002037254539
 20
482.4959932252147
 30
0.0
 11
158.0000511375633
 21
482.4959932252147
 31
0.0
  0
LINE
  5
1EC
330
1F
100
AcDbEntity
  8
仕上
  6
Continuous
 62
     3
370
     9
100
AcDbLine
 10
118.0002037254539
 20
500.4961020987367
 30
0.0
 11
118.0002037254539
 21
482.4959932252147
 31
0.0
  0
LINE
  5
1ED
330
1F
100
AcDbEntity
  8
仕上
  6
Continuous
 62
     3
370
     9
100
AcDbLine
 10
175.0000577359586
 20
475.4961433387072
 30
0.0
 11
175.0000577359586
 21
457.4960344651852
 31
0.0
  0
LINE
  5
1EE
330
1F
100
AcDbEntity
  8
仕上
  6
Continuous
 62
     3
370
     9
100
AcDbLine
 10
147.0002251702384
 20
475.4961433387072
 30
0.0
 11
175.0000577359586
 21
475.4961433387072
 31
0.0
  0
LINE
  5
1EF
330
1F
100
AcDbEntity
  8
仕上
  6
Continuous
 62
     3
370
     9
100
AcDbLine
 10
147.0002251702384
 20
475.4961433387072
 30
0.0
 11
147.0002251702384
 21
457.4960344651852
 31
0.0
  0
LINE
  5
1F0
330
1F
100
AcDbEntity
  8
仕上
  6
Continuous
 62
     3
370
     9
100
AcDbLine
 10
147.0002251702384
 20
457.4960344651852
 30
0.0
 11
175.0000577359586
 21
457.4960344651852
 31
0.0
  0
LINE
  5
1F1
330
1F
100
AcDbEntity
  8
仕上
  6
Continuous
 62
     3
370
     9
100
AcDbLine
 10
180.0001360919024
 20
475.4961433387072
 30
0.0
 11
180.0001360919024
 21
457.4960344651852
 31
0.0
  0
LINE
  5
1F2
330
1F
100
AcDbEntity
  8
仕上
  6
Continuous
 62
     3
370
     9
100
AcDbLine
 10
180.0001360919024
 20
457.4960344651852
 30
0.0
 11
188.0001748574745
 21
457.4960344651852
 31
0.0
  0
LINE
  5
1F3
330
1F
100
AcDbEntity
  8
仕上
  6
Continuous
 62
     3
370
     9
100
AcDbLine
 10
188.0001748574745
 20
475.4961433387072
 30
0.0
 11
188.0001748574745
 21
457.4960344651852
 31
0.0
  0
LINE
  5
1F4
330
1F
100
AcDbEntity
  8
仕上
  6
Continuous
 62
     3
370
     9
100
AcDbLine
 10
180.0001360919024
 20
475.4961433387072
 30
0.0
 11
188.0001748574745
 21
475.4961433387072
 31
0.0
  0
LINE
  5
1F5
330
1F
100
AcDbEntity
  8
仕上
  6
Continuous
 62
     3
370
     9
100
AcDbLine
 10
164.000058560758
 20
500.4961020987367
 30
0.0
 11
204.0000791807433
 21
500.4961020987367
 31
0.0
  0
LINE
  5
1F6
330
1F
100
AcDbEntity
  8
仕上
  6
Continuous
 62
     3
370
     9
100
AcDbLine
 10
204.0000791807433
 20
500.4961020987367
 30
0.0
 11
204.0000791807433
 21
482.4959932252147
 31
0.0
  0
LINE
  5
1F7
330
1F
100
AcDbEntity
  8
仕上
  6
Continuous
 62
     3
370
     9
100
AcDbLine
 10
164.000058560758
 20
482.4959932252147
 30
0.0
 11
204.0000791807433
 21
482.4959932252147
 31
0.0
  0
LINE
  5
1F8
330
1F
100
AcDbEntity
  8
仕上
  6
Continuous
 62
     3
370
     9
100
AcDbLine
 10
164.000058560758
 20
500.4961020987367
 30
0.0
 11
164.000058560758
 21
482.4959932252147
 31
0.0
  0
LINE
  5
1F9
330
1F
100
AcDbEntity
  8
仕上
  6
Continuous
 62
     3
370
     9
100
AcDbLine
 10
221.0000857791385
 20
475.4961433387072
 30
0.0
 11
221.0000857791385
 21
457.4960344651852
 31
0.0
  0
LINE
  5
1FA
330
1F
100
AcDbEntity
  8
仕上
  6
Continuous
 62
     3
370
     9
100
AcDbLine
 10
193.0000800055425
 20
475.4961433387072
 30
0.0
 11
221.0000857791385
 21
475.4961433387072
 31
0.0
  0
LINE
  5
1FB
330
1F
100
AcDbEntity
  8
仕上
  6
Continuous
 62
     3
370
     9
100
AcDbLine
 10
193.0000800055425
 20
475.4961433387072
 30
0.0
 11
193.0000800055425
 21
457.4960344651852
 31
0.0
  0
LINE
  5
1FC
330
1F
100
AcDbEntity
  8
仕上
  6
Continuous
 62
     3
370
     9
100
AcDbLine
 10
193.0000800055425
 20
457.4960344651852
 30
0.0
 11
221.0000857791385
 21
457.4960344651852
 31
0.0
  0
LINE
  5
1FD
330
1F
100
AcDbEntity
  8
仕上
  6
Continuous
 62
     3
370
     9
100
AcDbLine
 10
226.0000775311444
 20
475.4961433387072
 30
0.0
 11
226.0000775311444
 21
457.4960344651852
 31
0.0
  0
LINE
  5
1FE
330
1F
100
AcDbEntity
  8
仕上
  6
Continuous
 62
     3
370
     9
100
AcDbLine
 10
226.0000775311444
 20
457.4960344651852
 30
0.0
 11
234.0000296927787
 21
457.4960344651852
 31
0.0
  0
LINE
  5
1FF
330
1F
100
AcDbEntity
  8
仕上
  6
Continuous
 62
     3
370
     9
100
AcDbLine
 10
234.0000296927787
 20
475.4961433387072
 30
0.0
 11
234.0000296927787
 21
457.4960344651852
 31
0.0
  0
LINE
  5
200
330
1F
100
AcDbEntity
  8
仕上
  6
Continuous
 62
     3
370
     9
100
AcDbLine
 10
226.0000775311444
 20
475.4961433387072
 30
0.0
 11
234.0000296927787
 21
475.4961433387072
 31
0.0
  0
LINE
  5
201
330
1F
100
AcDbEntity
  8
仕上
  6
Continuous
 62
     3
370
     9
100
AcDbLine
 10
210.0000866039378
 20
500.4961020987367
 30
0.0
 11
210.0000866039378
 21
482.4959932252147
 31
0.0
  0
LINE
  5
202
330
1F
100
AcDbEntity
  8
仕上
  6
Continuous
 62
     3
370
     9
100
AcDbLine
 10
239.0001946526604
 20
475.4961433387072
 30
0.0
 11
239.0001946526604
 21
457.4960344651852
 31
0.0
  0
LINE
  5
203
330
1F
100
AcDbEntity
  8
仕上
  6
Continuous
 62
     3
370
     9
100
AcDbLine
 10
4.000062684754965
 20
475.4961433387072
 30
0.0
 11
4.000062684754965
 21
457.4960344651852
 31
0.0
  0
LINE
  5
204
330
1F
100
AcDbEntity
  8
仕上
  6
Continuous
 62
     3
370
     9
100
AcDbLine
 10
20.00005361196153
 20
500.4961020987367
 30
0.0
 11
20.00005361196153
 21
482.4959932252147
 31
0.0
  0
LINE
  5
205
330
1F
100
AcDbEntity
  8
仕上
  6
Continuous
 62
     3
370
     9
100
AcDbLine
 10
-19.9999670080237
 20
482.4959932252147
 30
0.0
 11
20.00005361196153
 21
482.4959932252147
 31
0.0
  0
LINE
  5
206
330
1F
100
AcDbEntity
  8
仕上
  6
Continuous
 62
     3
370
     9
100
AcDbLine
 10
-19.9999670080237
 20
500.4961020987367
 30
0.0
 11
20.00005361196153
 21
500.4961020987367
 31
0.0
  0
LINE
  5
207
330
1F
100
AcDbEntity
  8
仕上
  6
Continuous
 62
     3
370
     9
100
AcDbLine
 10
-3.999889476879304
 20
475.4961433387072
 30
0.0
 11
4.000062684754965
 21
475.4961433387072
 31
0.0
  0
LINE
  5
208
330
1F
100
AcDbEntity
  8
仕上
  6
Continuous
 62
     3
370
     9
100
AcDbLine
 10
-3.999889476879304
 20
457.4960344651852
 30
0.0
 11
4.000062684754965
 21
457.4960344651852
 31
0.0
  0
LINE
  5
209
330
1F
100
AcDbEntity
  8
仕上
  6
Continuous
 62
     3
370
     9
100
AcDbLine
 10
37.00006021035679
 20
525.4960608587662
 30
0.0
 11
37.00006021035679
 21
507.4959519852442
 31
0.0
  0
LINE
  5
20A
330
1F
100
AcDbEntity
  8
仕上
  6
Continuous
 62
     3
370
     9
100
AcDbLine
 10
9.000227644636851
 20
525.4960608587662
 30
0.0
 11
37.00006021035679
 21
525.4960608587662
 31
0.0
  0
LINE
  5
20B
330
1F
100
AcDbEntity
  8
仕上
  6
Continuous
 62
     3
370
     9
100
AcDbLine
 10
9.000227644636851
 20
525.4960608587662
 30
0.0
 11
9.000227644636851
 21
507.4959519852442
 31
0.0
  0
LINE
  5
20C
330
1F
100
AcDbEntity
  8
仕上
  6
Continuous
 62
     3
370
     9
100
AcDbLine
 10
9.000227644636851
 20
507.4959519852442
 30
0.0
 11
37.00006021035679
 21
507.4959519852442
 31
0.0
  0
LINE
  5
20D
330
1F
100
AcDbEntity
  8
仕上
  6
Continuous
 62
     3
370
     9
100
AcDbLine
 10
42.00013856630065
 20
525.4960608587662
 30
0.0
 11
42.00013856630065
 21
507.4959519852442
 31
0.0
  0
LINE
  5
20E
330
1F
100
AcDbEntity
  8
仕上
  6
Continuous
 62
     3
370
     9
100
AcDbLine
 10
42.00013856630065
 20
507.4959519852442
 30
0.0
 11
50.00017733187295
 21
507.4959519852442
 31
0.0
  0
LINE
  5
20F
330
1F
100
AcDbEntity
  8
仕上
  6
Continuous
 62
     3
370
     9
100
AcDbLine
 10
50.00017733187295
 20
525.4960608587662
 30
0.0
 11
50.00017733187295
 21
507.4959519852442
 31
0.0
  0
LINE
  5
210
330
1F
100
AcDbEntity
  8
仕上
  6
Continuous
 62
     3
370
     9
100
AcDbLine
 10
42.00013856630065
 20
525.4960608587662
 30
0.0
 11
50.00017733187295
 21
525.4960608587662
 31
0.0
  0
LINE
  5
211
330
1F
100
AcDbEntity
  8
仕上
  6
Continuous
 62
     3
370
     9
100
AcDbLine
 10
26.00006103515625
 20
550.4960196187958
 30
0.0
 11
66.00008165514149
 21
550.4960196187958
 31
0.0
  0
LINE
  5
212
330
1F
100
AcDbEntity
  8
仕上
  6
Continuous
 62
     3
370
     9
100
AcDbLine
 10
66.00008165514149
 20
550.4960196187958
 30
0.0
 11
66.00008165514149
 21
532.4960839531497
 31
0.0
  0
LINE
  5
213
330
1F
100
AcDbEntity
  8
仕上
  6
Continuous
 62
     3
370
     9
100
AcDbLine
 10
26.00006103515625
 20
532.4960839531497
 30
0.0
 11
66.00008165514149
 21
532.4960839531497
 31
0.0
  0
LINE
  5
214
330
1F
100
AcDbEntity
  8
仕上
  6
Continuous
 62
     3
370
     9
100
AcDbLine
 10
26.00006103515625
 20
550.4960196187958
 30
0.0
 11
26.00006103515625
 21
532.4960839531497
 31
0.0
  0
LINE
  5
215
330
1F
100
AcDbEntity
  8
仕上
  6
Continuous
 62
     3
370
     9
100
AcDbLine
 10
83.00008825353675
 20
525.4960608587662
 30
0.0
 11
83.00008825353675
 21
507.4959519852442
 31
0.0
  0
LINE
  5
216
330
1F
100
AcDbEntity
  8
仕上
  6
Continuous
 62
     3
370
     9
100
AcDbLine
 10
55.00008247994074
 20
525.4960608587662
 30
0.0
 11
83.00008825353675
 21
525.4960608587662
 31
0.0
  0
LINE
  5
217
330
1F
100
AcDbEntity
  8
仕上
  6
Continuous
 62
     3
370
     9
100
AcDbLine
 10
55.00008247994074
 20
525.4960608587662
 30
0.0
 11
55.00008247994074
 21
507.4959519852442
 31
0.0
  0
LINE
  5
218
330
1F
100
AcDbEntity
  8
仕上
  6
Continuous
 62
     3
370
     9
100
AcDbLine
 10
55.00008247994074
 20
507.4959519852442
 30
0.0
 11
83.00008825353675
 21
507.4959519852442
 31
0.0
  0
LINE
  5
219
330
1F
100
AcDbEntity
  8
仕上
  6
Continuous
 62
     3
370
     9
100
AcDbLine
 10
88.00025321341843
 20
525.4960608587662
 30
0.0
 11
88.00025321341843
 21
507.4959519852442
 31
0.0
  0
LINE
  5
21A
330
1F
100
AcDbEntity
  8
仕上
  6
Continuous
 62
     3
370
     9
100
AcDbLine
 10
88.00025321341843
 20
507.4959519852442
 30
0.0
 11
96.0002053750527
 21
507.4959519852442
 31
0.0
  0
LINE
  5
21B
330
1F
100
AcDbEntity
  8
仕上
  6
Continuous
 62
     3
370
     9
100
AcDbLine
 10
96.0002053750527
 20
525.4960608587662
 30
0.0
 11
96.0002053750527
 21
507.4959519852442
 31
0.0
  0
LINE
  5
21C
330
1F
100
AcDbEntity
  8
仕上
  6
Continuous
 62
     3
370
     9
100
AcDbLine
 10
88.00025321341843
 20
525.4960608587662
 30
0.0
 11
96.0002053750527
 21
525.4960608587662
 31
0.0
  0
LINE
  5
21D
330
1F
100
AcDbEntity
  8
仕上
  6
Continuous
 62
     3
370
     9
100
AcDbLine
 10
72.0000890783362
 20
550.4960196187958
 30
0.0
 11
112.0001096983212
 21
550.4960196187958
 31
0.0
  0
LINE
  5
21E
330
1F
100
AcDbEntity
  8
仕上
  6
Continuous
 62
     3
370
     9
100
AcDbLine
 10
112.0001096983212
 20
550.4960196187958
 30
0.0
 11
112.0001096983212
 21
532.4960839531497
 31
0.0
  0
LINE
  5
21F
330
1F
100
AcDbEntity
  8
仕上
  6
Continuous
 62
     3
370
     9
100
AcDbLine
 10
72.0000890783362
 20
532.4960839531497
 30
0.0
 11
112.0001096983212
 21
532.4960839531497
 31
0.0
  0
LINE
  5
220
330
1F
100
AcDbEntity
  8
仕上
  6
Continuous
 62
     3
370
     9
100
AcDbLine
 10
72.0000890783362
 20
550.4960196187958
 30
0.0
 11
72.0000890783362
 21
532.4960839531497
 31
0.0
  0
LINE
  5
221
330
1F
100
AcDbEntity
  8
仕上
  6
Continuous
 62
     3
370
     9
100
AcDbLine
 10
129.0001162967166
 20
525.4960608587662
 30
0.0
 11
129.0001162967166
 21
507.4959519852442
 31
0.0
  0
LINE
  5
222
330
1F
100
AcDbEntity
  8
仕上
  6
Continuous
 62
     3
370
     9
100
AcDbLine
 10
101.0001971270587
 20
525.4960608587662
 30
0.0
 11
129.0001162967166
 21
525.4960608587662
 31
0.0
  0
LINE
  5
223
330
1F
100
AcDbEntity
  8
仕上
  6
Continuous
 62
     3
370
     9
100
AcDbLine
 10
101.0001971270587
 20
525.4960608587662
 30
0.0
 11
101.0001971270587
 21
507.4959519852442
 31
0.0
  0
LINE
  5
224
330
1F
100
AcDbEntity
  8
仕上
  6
Continuous
 62
     3
370
     9
100
AcDbLine
 10
101.0001971270587
 20
507.4959519852442
 30
0.0
 11
129.0001162967166
 21
507.4959519852442
 31
0.0
  0
LINE
  5
225
330
1F
100
AcDbEntity
  8
仕上
  6
Continuous
 62
     3
370
     9
100
AcDbLine
 10
134.0001080487225
 20
525.4960608587662
 30
0.0
 11
134.0001080487225
 21
507.4959519852442
 31
0.0
  0
LINE
  5
226
330
1F
100
AcDbEntity
  8
仕上
  6
Continuous
 62
     3
370
     9
100
AcDbLine
 10
134.0001080487225
 20
507.4959519852442
 30
0.0
 11
142.0000602103567
 21
507.4959519852442
 31
0.0
  0
LINE
  5
227
330
1F
100
AcDbEntity
  8
仕上
  6
Continuous
 62
     3
370
     9
100
AcDbLine
 10
142.0000602103567
 20
525.4960608587662
 30
0.0
 11
142.0000602103567
 21
507.4959519852442
 31
0.0
  0
LINE
  5
228
330
1F
100
AcDbEntity
  8
仕上
  6
Continuous
 62
     3
370
     9
100
AcDbLine
 10
134.0001080487225
 20
525.4960608587662
 30
0.0
 11
142.0000602103567
 21
525.4960608587662
 31
0.0
  0
LINE
  5
229
330
1F
100
AcDbEntity
  8
仕上
  6
Continuous
 62
     3
370
     9
100
AcDbLine
 10
118.0002037254539
 20
550.4960196187958
 30
0.0
 11
158.0000511375633
 21
550.4960196187958
 31
0.0
  0
LINE
  5
22A
330
1F
100
AcDbEntity
  8
仕上
  6
Continuous
 62
     3
370
     9
100
AcDbLine
 10
158.0000511375633
 20
550.4960196187958
 30
0.0
 11
158.0000511375633
 21
532.4960839531497
 31
0.0
  0
LINE
  5
22B
330
1F
100
AcDbEntity
  8
仕上
  6
Continuous
 62
     3
370
     9
100
AcDbLine
 10
118.0002037254539
 20
532.4960839531497
 30
0.0
 11
158.0000511375633
 21
532.4960839531497
 31
0.0
  0
LINE
  5
22C
330
1F
100
AcDbEntity
  8
仕上
  6
Continuous
 62
     3
370
     9
100
AcDbLine
 10
118.0002037254539
 20
550.4960196187958
 30
0.0
 11
118.0002037254539
 21
532.4960839531497
 31
0.0
  0
LINE
  5
22D
330
1F
100
AcDbEntity
  8
仕上
  6
Continuous
 62
     3
370
     9
100
AcDbLine
 10
175.0000577359586
 20
525.4960608587662
 30
0.0
 11
175.0000577359586
 21
507.4959519852442
 31
0.0
  0
LINE
  5
22E
330
1F
100
AcDbEntity
  8
仕上
  6
Continuous
 62
     3
370
     9
100
AcDbLine
 10
147.0002251702384
 20
525.4960608587662
 30
0.0
 11
175.0000577359586
 21
525.4960608587662
 31
0.0
  0
LINE
  5
22F
330
1F
100
AcDbEntity
  8
仕上
  6
Continuous
 62
     3
370
     9
100
AcDbLine
 10
147.0002251702384
 20
525.4960608587662
 30
0.0
 11
147.0002251702384
 21
507.4959519852442
 31
0.0
  0
LINE
  5
230
330
1F
100
AcDbEntity
  8
仕上
  6
Continuous
 62
     3
370
     9
100
AcDbLine
 10
147.0002251702384
 20
507.4959519852442
 30
0.0
 11
175.0000577359586
 21
507.4959519852442
 31
0.0
  0
LINE
  5
231
330
1F
100
AcDbEntity
  8
仕上
  6
Continuous
 62
     3
370
     9
100
AcDbLine
 10
180.0001360919024
 20
525.4960608587662
 30
0.0
 11
180.0001360919024
 21
507.4959519852442
 31
0.0
  0
LINE
  5
232
330
1F
100
AcDbEntity
  8
仕上
  6
Continuous
 62
     3
370
     9
100
AcDbLine
 10
180.0001360919024
 20
507.4959519852442
 30
0.0
 11
188.0001748574745
 21
507.4959519852442
 31
0.0
  0
LINE
  5
233
330
1F
100
AcDbEntity
  8
仕上
  6
Continuous
 62
     3
370
     9
100
AcDbLine
 10
188.0001748574745
 20
525.4960608587662
 30
0.0
 11
188.0001748574745
 21
507.4959519852442
 31
0.0
  0
LINE
  5
234
330
1F
100
AcDbEntity
  8
仕上
  6
Continuous
 62
     3
370
     9
100
AcDbLine
 10
180.0001360919024
 20
525.4960608587662
 30
0.0
 11
188.0001748574745
 21
525.4960608587662
 31
0.0
  0
LINE
  5
235
330
1F
100
AcDbEntity
  8
仕上
  6
Continuous
 62
     3
370
     9
100
AcDbLine
 10
193.0000800055425
 20
525.4960608587662
 30
0.0
 11
193.0000800055425
 21
507.4959519852442
 31
0.0
  0
LINE
  5
236
330
1F
100
AcDbEntity
  8
仕上
  6
Continuous
 62
     3
370
     9
100
AcDbLine
 10
4.000062684754965
 20
525.4960608587662
 30
0.0
 11
4.000062684754965
 21
507.4959519852442
 31
0.0
  0
LINE
  5
237
330
1F
100
AcDbEntity
  8
仕上
  6
Continuous
 62
     3
370
     9
100
AcDbLine
 10
20.00005361196153
 20
550.4960196187958
 30
0.0
 11
20.00005361196153
 21
532.4960839531497
 31
0.0
  0
LINE
  5
238
330
1F
100
AcDbEntity
  8
仕上
  6
Continuous
 62
     3
370
     9
100
AcDbLine
 10
-19.9999670080237
 20
532.4960839531497
 30
0.0
 11
20.00005361196153
 21
532.4960839531497
 31
0.0
  0
LINE
  5
239
330
1F
100
AcDbEntity
  8
仕上
  6
Continuous
 62
     3
370
     9
100
AcDbLine
 10
-19.9999670080237
 20
550.4960196187958
 30
0.0
 11
20.00005361196153
 21
550.4960196187958
 31
0.0
  0
LINE
  5
23A
330
1F
100
AcDbEntity
  8
仕上
  6
Continuous
 62
     3
370
     9
100
AcDbLine
 10
-3.999889476879304
 20
525.4960608587662
 30
0.0
 11
4.000062684754965
 21
525.4960608587662
 31
0.0
  0
LINE
  5
23B
330
1F
100
AcDbEntity
  8
仕上
  6
Continuous
 62
     3
370
     9
100
AcDbLine
 10
-3.999889476879304
 20
507.4959519852442
 30
0.0
 11
4.000062684754965
 21
507.4959519852442
 31
0.0
  0
LINE
  5
23C
330
1F
100
AcDbEntity
  8
仕上
  6
Continuous
 62
     3
370
     9
100
AcDbLine
 10
9.000227644636851
 20
575.4959783788253
 30
0.0
 11
9.000227644636851
 21
557.4960427131791
 31
0.0
  0
LINE
  5
23D
330
1F
100
AcDbEntity
  8
仕上
  6
Continuous
 62
     3
370
     9
100
AcDbLine
 10
9.000227644636851
 20
557.4960427131791
 30
0.0
 11
37.00006021035679
 21
557.4960427131791
 31
0.0
  0
LINE
  5
23E
330
1F
100
AcDbEntity
  8
仕上
  6
Continuous
 62
     3
370
     9
100
AcDbLine
 10
42.00013856630065
 20
557.4960427131791
 30
0.0
 11
50.00017733187295
 21
557.4960427131791
 31
0.0
  0
LINE
  5
23F
330
1F
100
AcDbEntity
  8
仕上
  6
Continuous
 62
     3
370
     9
100
AcDbLine
 10
55.00008247994074
 20
557.4960427131791
 30
0.0
 11
83.00008825353675
 21
557.4960427131791
 31
0.0
  0
LINE
  5
240
330
1F
100
AcDbEntity
  8
仕上
  6
Continuous
 62
     3
370
     9
100
AcDbLine
 10
88.00025321341843
 20
557.4960427131791
 30
0.0
 11
96.0002053750527
 21
557.4960427131791
 31
0.0
  0
LINE
  5
241
330
1F
100
AcDbEntity
  8
仕上
  6
Continuous
 62
     3
370
     9
100
AcDbLine
 10
134.0001080487225
 20
557.4960427131791
 30
0.0
 11
142.0000602103567
 21
557.4960427131791
 31
0.0
  0
LINE
  5
242
330
1F
100
AcDbEntity
  8
仕上
  6
Continuous
 62
     3
370
     9
100
AcDbLine
 10
4.000062684754965
 20
575.4959783788253
 30
0.0
 11
4.000062684754965
 21
557.4960427131791
 31
0.0
  0
LINE
  5
243
330
1F
100
AcDbEntity
  8
仕上
  6
Continuous
 62
     3
370
     9
100
AcDbLine
 10
-3.999889476879304
 20
575.4959783788253
 30
0.0
 11
4.000062684754965
 21
575.4959783788253
 31
0.0
  0
LINE
  5
244
330
1F
100
AcDbEntity
  8
仕上
  6
Continuous
 62
     3
370
     9
100
AcDbLine
 10
-3.999889476879304
 20
557.4960427131791
 30
0.0
 11
4.000062684754965
 21
557.4960427131791
 31
0.0
  0
LINE
  5
245
330
1F
100
AcDbEntity
  8
仕上
  6
Continuous
 62
     3
370
     9
100
AcDbLine
 10
285.0002226958403
 20
375.4959618828372
 30
0.0
 11
292.1643602525866
 21
375.4959618828372
 31
0.0
  0
LINE
  5
246
330
1F
100
AcDbEntity
  8
仕上
  6
Continuous
 62
     3
370
     9
100
AcDbLine
 10
285.0002226958403
 20
357.4958530093152
 30
0.0
 11
296.7489995183171
 21
357.4958530093152
 31
0.0
  0
LINE
  5
247
330
1F
100
AcDbEntity
  8
仕上
  6
Continuous
 62
     3
370
     9
100
AcDbLine
 10
256.00002804318
 20
382.4959849772205
 30
0.0
 11
290.0604907886401
 21
382.4959849772205
 31
0.0
  0
LINE
  5
248
330
1F
100
AcDbEntity
  8
仕上
  6
Continuous
 62
     3
370
     9
100
AcDbLine
 10
256.00002804318
 20
400.4960938507425
 30
0.0
 11
283.786988129487
 21
400.4960938507425
 31
0.0
  0
LINE
  5
249
330
1F
100
AcDbEntity
  8
仕上
  6
Continuous
 62
     3
370
     9
100
AcDbLine
 10
272.0001055743244
 20
425.4962258186479
 30
0.0
 11
272.8736794961465
 21
425.4962258186479
 31
0.0
  0
LINE
  5
24A
330
1F
100
AcDbEntity
  8
仕上
  6
Continuous
 62
     3
370
     9
100
AcDbLine
 10
280.0001443398965
 20
409.8849999687747
 30
0.0
 11
280.0001443398965
 21
407.4961169451261
 31
0.0
  0
LINE
  5
24B
330
1F
100
AcDbEntity
  8
仕上
  6
Continuous
 62
     3
370
     9
100
AcDbLine
 10
256.00002804318
 20
432.4960757051556
 30
0.0
 11
269.323351061022
 21
432.4960757051556
 31
0.0
  0
LINE
  5
24C
330
1F
100
AcDbEntity
  8
仕上
  6
Continuous
 62
     3
370
     9
100
AcDbLine
 10
256.00002804318
 20
450.4960113708018
 30
0.0
 11
259.1042595940666
 21
450.4960113708018
 31
0.0
  0
LINE
  5
24D
330
1F
100
AcDbEntity
  8
仕上
  6
Continuous
 62
     3
370
     9
100
AcDbLine
 10
239.0001946526604
 20
457.4960344651852
 30
0.0
 11
254.6762868520376
 21
457.4960344651852
 31
0.0
  0
LINE
  5
24E
330
1F
100
AcDbEntity
  8
仕上
  6
Continuous
 62
     3
370
     9
100
AcDbLine
 10
239.0001946526604
 20
475.4961433387072
 30
0.0
 11
241.9917544803104
 21
475.4961433387072
 31
0.0
  0
LINE
  5
24F
330
1F
100
AcDbEntity
  8
仕上
  6
Continuous
 62
     3
370
     9
100
AcDbLine
 10
210.0000866039378
 20
482.4959932252147
 30
0.0
 11
236.5058280326224
 21
482.4959932252147
 31
0.0
  0
LINE
  5
250
330
1F
100
AcDbEntity
  8
仕上
  6
Continuous
 62
     3
370
     9
100
AcDbLine
 10
210.0000866039378
 20
500.4961020987367
 30
0.0
 11
220.7600196632179
 21
500.4961020987367
 31
0.0
  0
LINE
  5
251
330
1F
100
AcDbEntity
  8
仕上
  6
Continuous
 62
     3
370
     9
100
AcDbLine
 10
193.0000800055425
 20
507.4959519852442
 30
0.0
 11
213.9158836570946
 21
507.4959519852442
 31
0.0
  0
LINE
  5
252
330
1F
100
AcDbEntity
  8
仕上
  6
Continuous
 62
     3
370
     9
100
AcDbLine
 10
193.0000800055425
 20
525.4960608587662
 30
0.0
 11
194.0619308884079
 21
525.4960608587662
 31
0.0
  0
LINE
  5
253
330
1F
100
AcDbEntity
  8
仕上
  6
Continuous
 62
     3
370
     9
100
AcDbLine
 10
164.000058560758
 20
532.4960839531497
 30
0.0
 11
185.2970927470439
 21
532.4960839531497
 31
0.0
  0
LINE
  5
254
330
1F
100
AcDbEntity
  8
仕上
  6
Continuous
 62
     3
370
     9
100
AcDbLine
 10
164.000058560758
 20
547.4647085836395
 30
0.0
 11
164.000058560758
 21
532.4960839531497
 31
0.0
  0
LINE
  5
255
330
1F
100
AcDbEntity
  8
仕上
  6
Continuous
 62
     3
370
     9
100
AcDbLine
 10
142.0000602103567
 20
560.2933499080694
 30
0.0
 11
142.0000602103567
 21
557.4960427131791
 31
0.0
  0
LINE
  5
256
330
1F
100
AcDbEntity
  8
仕上
  6
Continuous
 62
     3
370
     9
100
AcDbLine
 10
134.0001080487225
 20
564.3696240581962
 30
0.0
 11
134.0001080487225
 21
557.4960427131791
 31
0.0
  0
LINE
  5
257
330
1F
100
AcDbEntity
  8
仕上
  6
Continuous
 62
     3
370
     9
100
AcDbLine
 10
129.0001162967166
 20
566.768379930768
 30
0.0
 11
129.0001162967166
 21
557.4960427131791
 31
0.0
  0
LINE
  5
258
330
1F
100
AcDbEntity
  8
仕上
  6
Continuous
 62
     3
370
     9
100
AcDbLine
 10
99.8699291332347
 20
565.8862322190914
 30
0.0
 11
107.7364246265307
 21
587.4992841748559
 31
0.0
  0
LINE
  5
259
330
1F
100
AcDbEntity
  8
仕上
  6
Continuous
 62
     3
370
     9
100
AcDbLine
 10
-99.8697559253591
 20
565.8862322190914
 30
0.0
 11
-107.7362514186551
 21
587.4992841748559
 31
0.0
  0
LINE
  5
25A
330
1F
100
AcDbEntity
  8
仕上
  6
Continuous
 62
     3
370
     9
100
AcDbLine
 10
42.00013856630065
 20
573.3842279565281
 30
0.0
 11
42.00013856630065
 21
557.4960427131791
 31
0.0
  0
LINE
  5
25B
330
1F
100
AcDbEntity
  8
仕上
  6
Continuous
 62
     3
370
     9
100
AcDbLine
 10
37.00006021035679
 20
574.0839877749402
 30
0.0
 11
37.00006021035679
 21
557.4960427131791
 31
0.0
  0
LINE
  5
25C
330
1F
100
AcDbEntity
  8
仕上
  6
Continuous
 62
     3
370
     9
100
AcDbLine
 10
9.000227644636851
 20
575.4959783788253
 30
0.0
 11
23.85340922587619
 21
575.4959783788253
 31
0.0
  0
LINE
  5
25D
330
1F
100
AcDbEntity
  8
仕上
  6
Continuous
 62
     3
370
     9
100
AcDbLine
 10
55.00008247994074
 20
571.138414638327
 30
0.0
 11
55.00008247994074
 21
557.4960427131791
 31
0.0
  0
LINE
  5
25E
330
1F
100
AcDbEntity
  8
仕上
  6
Continuous
 62
     3
370
     9
100
AcDbLine
 10
50.00017733187295
 20
572.0758156623979
 30
0.0
 11
50.00017733187295
 21
557.4960427131791
 31
0.0
  0
LINE
  5
25F
330
1F
100
AcDbEntity
  8
仕上
  6
Continuous
 62
     3
370
     9
100
AcDbLine
 10
83.00008825353675
 20
564.1422021172122
 30
0.0
 11
83.00008825353675
 21
557.4960427131791
 31
0.0
  0
LINE
  5
260
330
1F
100
AcDbEntity
  8
仕上
  6
Continuous
 62
     3
370
     9
100
AcDbLine
 10
88.00025321341843
 20
562.5698210202949
 30
0.0
 11
88.00025321341843
 21
557.4960427131791
 31
0.0
  0
LINE
  5
261
330
1F
100
AcDbEntity
  8
仕上
  6
Continuous
 62
     3
370
     9
100
AcDbLine
 10
96.0002053750527
 20
559.8409309363634
 30
0.0
 11
96.0002053750527
 21
557.4960427131791
 31
0.0
  0
LINE
  5
262
330
1F
100
AcDbEntity
  8
仕上
  6
Continuous
 62
     3
370
     9
100
AcDbLine
 10
104.2655120024809
 20
557.4960427131791
 30
0.0
 11
129.0001162967166
 21
557.4960427131791
 31
0.0
  0
LINE
  5
263
330
1F
100
AcDbEntity
  8
仕上
  6
Continuous
 62
     3
370
     9
100
AcDbLine
 10
104.2655120024809
 20
557.4960427131791
 30
0.0
 11
110.5245518040012
 21
574.6926402506582
 31
0.0
  0
LINE
  5
264
330
1F
100
AcDbEntity
  8
仕上
  6
Continuous
 62
     3
370
     9
100
AcDbLine
 10
284.900281751478
 20
282.5926267239479
 30
0.0
 11
284.900281751478
 21
291.4958579581117
 31
0.0
  0
LINE
  5
265
330
1F
100
AcDbEntity
  8
仕上
  6
Continuous
 62
     3
370
     9
100
AcDbLine
 10
284.2879053064294
 20
283.4959057964774
 30
0.0
 11
284.2879053064294
 21
291.4958579581117
 31
0.0
  0
LINE
  5
266
330
1F
100
AcDbEntity
  8
仕上
  6
Continuous
 62
     3
370
     9
100
AcDbLine
 10
274.6426515321473
 20
277.4958117693449
 30
0.0
 11
275.9003139186549
 21
282.5926267239479
 31
0.0
  0
LINE
  5
267
330
1F
100
AcDbEntity
  8
仕上
  6
Continuous
 62
     3
370
     9
100
AcDbLine
 10
275.9003139186549
 20
282.5926267239479
 30
0.0
 11
284.900281751478
 21
282.5926267239479
 31
0.0
  0
LINE
  5
268
330
1F
100
AcDbEntity
  8
仕上
  6
Continuous
 62
     3
370
     9
100
AcDbLine
 10
267.2878987080342
 20
283.4959057964774
 30
0.0
 11
284.2879053064294
 21
283.4959057964774
 31
0.0
  0
LINE
  5
269
330
1F
100
AcDbEntity
  8
仕上
  6
Continuous
 62
     3
370
     9
100
AcDbLine
 10
264.2878516944679
 20
286.4960394139815
 30
0.0
 11
264.2878516944679
 21
291.4958579581117
 31
0.0
  0
LINE
  5
26A
330
1F
100
AcDbEntity
  8
仕上
  6
Continuous
 62
     3
370
     9
100
AcDbLine
 10
263.7879737647804
 20
277.4958117693449
 30
0.0
 11
274.6426515321473
 21
277.4958117693449
 31
0.0
  0
LINE
  5
26B
330
1F
100
AcDbEntity
  8
仕上
  6
Continuous
 62
     3
370
     9
100
AcDbLine
 10
260.2879622175886
 20
255.9959511604448
 30
0.0
 11
260.2879622175886
 21
291.4958579581117
 31
0.0
  0
LINE
  5
26C
330
1F
100
AcDbEntity
  8
仕上
  6
Continuous
 62
     3
370
     9
100
AcDbLine
 10
263.7879737647804
 20
257.4958447613212
 30
0.0
 11
263.7879737647804
 21
277.4958117693449
 31
0.0
  0
LINE
  5
26D
330
1F
100
AcDbEntity
  8
仕上
  6
Continuous
 62
     3
370
     9
100
AcDbLine
 10
264.7879028320312
 20
256.4960022980081
 30
0.0
 11
290.2763078019425
 21
256.4960022980081
 31
0.0
  0
LINE
  5
26E
330
1F
100
AcDbEntity
  8
仕上
  6
Continuous
 62
     3
370
     9
100
AcDbLine
 10
263.2878360232792
 20
252.9959041468785
 30
0.0
 11
285.4998408137141
 21
252.9959041468785
 31
0.0
  0
LINE
  5
26F
330
1F
100
AcDbEntity
  8
仕上
  6
Continuous
 62
     3
370
     9
100
AcDbLine
 10
-284.9001951475402
 20
282.5926267239479
 30
0.0
 11
-284.9001951475402
 21
291.4958579581117
 31
0.0
  0
LINE
  5
270
330
1F
100
AcDbEntity
  8
仕上
  6
Continuous
 62
     3
370
     9
100
AcDbLine
 10
-284.2877320985536
 20
283.4959057964774
 30
0.0
 11
-284.2877320985536
 21
291.4958579581117
 31
0.0
  0
LINE
  5
271
330
1F
100
AcDbEntity
  8
仕上
  6
Continuous
 62
     3
370
     9
100
AcDbLine
 10
-274.6423917203336
 20
277.4958117693449
 30
0.0
 11
-275.9001407107792
 21
282.5926267239479
 31
0.0
  0
LINE
  5
272
330
1F
100
AcDbEntity
  8
仕上
  6
Continuous
 62
     3
370
     9
100
AcDbLine
 10
-275.9001407107792
 20
282.5926267239479
 30
0.0
 11
-284.9001951475402
 21
282.5926267239479
 31
0.0
  0
LINE
  5
273
330
1F
100
AcDbEntity
  8
仕上
  6
Continuous
 62
     3
370
     9
100
AcDbLine
 10
-267.2876388962205
 20
283.4959057964774
 30
0.0
 11
-284.2877320985536
 21
283.4959057964774
 31
0.0
  0
LINE
  5
274
330
1F
100
AcDbEntity
  8
仕上
  6
Continuous
 62
     3
370
     9
100
AcDbLine
 10
-264.2875918826542
 20
286.4960394139815
 30
0.0
 11
-264.2875918826542
 21
291.4958579581117
 31
0.0
  0
LINE
  5
275
330
1F
100
AcDbEntity
  8
仕上
  6
Continuous
 62
     3
370
     9
100
AcDbLine
 10
-263.7877139529667
 20
277.4958117693449
 30
0.0
 11
-274.6423917203336
 21
277.4958117693449
 31
0.0
  0
LINE
  5
276
330
1F
100
AcDbEntity
  8
仕上
  6
Continuous
 62
     3
370
     9
100
AcDbLine
 10
-260.287702405775
 20
255.9959511604448
 30
0.0
 11
-260.287702405775
 21
291.4958579581117
 31
0.0
  0
LINE
  5
277
330
1F
100
AcDbEntity
  8
仕上
  6
Continuous
 62
     3
370
     9
100
AcDbLine
 10
-263.7877139529667
 20
257.4958447613212
 30
0.0
 11
-263.7877139529667
 21
277.4958117693449
 31
0.0
  0
LINE
  5
278
330
1F
100
AcDbEntity
  8
仕上
  6
Continuous
 62
     3
370
     9
100
AcDbLine
 10
-264.7876430202176
 20
256.4960022980081
 30
0.0
 11
-290.2760479901288
 21
256.4960022980081
 31
0.0
  0
LINE
  5
279
330
1F
100
AcDbEntity
  8
仕上
  6
Continuous
 62
     3
370
     9
100
AcDbLine
 10
-263.2876628154034
 20
252.9959041468785
 30
0.0
 11
-285.4995810019005
 21
252.9959041468785
 31
0.0
  0
LINE
  5
27A
330
1F
100
AcDbEntity
  8
仕上
  6
Continuous
 62
     3
370
     9
100
AcDbLine
 10
155.5000552615604
 20
306.4960064220052
 30
0.0
 11
211.500066808752
 21
306.4960064220052
 31
0.0
  0
LINE
  5
27B
330
1F
100
AcDbEntity
  8
仕上
  6
Continuous
 62
     3
370
     9
100
AcDbLine
 10
175.0000577359586
 20
325.4960443627781
 30
0.0
 11
175.0000577359586
 21
314.4959585836395
 31
0.0
  0
LINE
  5
27C
330
1F
100
AcDbEntity
  8
仕上
  6
Continuous
 62
     3
370
     9
100
AcDbLine
 10
180.0001360919024
 20
325.4960443627781
 30
0.0
 11
180.0001360919024
 21
314.4959585836395
 31
0.0
  0
LINE
  5
27D
330
1F
100
AcDbEntity
  8
仕上
  6
Continuous
 62
     3
370
     9
100
AcDbLine
 10
180.0001360919024
 20
314.4959585836395
 30
0.0
 11
188.0001748574745
 21
314.4959585836395
 31
0.0
  0
LINE
  5
27E
330
1F
100
AcDbEntity
  8
仕上
  6
Continuous
 62
     3
370
     9
100
AcDbLine
 10
188.0001748574745
 20
325.4960443627781
 30
0.0
 11
188.0001748574745
 21
314.4959585836395
 31
0.0
  0
LINE
  5
27F
330
1F
100
AcDbEntity
  8
仕上
  6
Continuous
 62
     3
370
     9
100
AcDbLine
 10
193.0000800055425
 20
325.4960443627781
 30
0.0
 11
193.0000800055425
 21
314.4959585836395
 31
0.0
  0
LINE
  5
280
330
1F
100
AcDbEntity
  8
仕上
  6
Continuous
 62
     3
370
     9
100
AcDbLine
 10
218.5000899031354
 20
300.4960856027486
 30
0.0
 11
250.0000206199852
 21
300.4960856027486
 31
0.0
  0
LINE
  5
281
330
1F
100
AcDbEntity
  8
仕上
  6
Continuous
 62
     3
370
     9
100
AcDbLine
 10
118.0002037254539
 20
300.4960856027486
 30
0.0
 11
148.5000321671768
 21
300.4960856027486
 31
0.0
  0
LINE
  5
282
330
1F
100
AcDbEntity
  8
仕上
  6
Continuous
 62
     3
370
     9
100
AcDbLine
 10
155.5000552615604
 20
291.4958579581117
 30
0.0
 11
155.5000552615604
 21
306.4960064220052
 31
0.0
  0
LINE
  5
283
330
1F
100
AcDbEntity
  8
仕上
  6
Continuous
 62
     3
370
     9
100
AcDbLine
 10
148.5000321671768
 20
291.4958579581117
 30
0.0
 11
148.5000321671768
 21
300.4960856027486
 31
0.0
  0
LINE
  5
284
330
1F
100
AcDbEntity
  8
仕上
  6
Continuous
 62
     3
370
     9
100
AcDbLine
 10
178.0001047495249
 20
291.4958579581117
 30
0.0
 11
178.0001047495249
 21
306.4960064220052
 31
0.0
  0
LINE
  5
285
330
1F
100
AcDbEntity
  8
仕上
  6
Continuous
 62
     3
370
     9
100
AcDbLine
 10
189.0000173207876
 20
291.4958579581117
 30
0.0
 11
189.0000173207876
 21
306.4960064220052
 31
0.0
  0
LINE
  5
286
330
1F
100
AcDbEntity
  8
仕上
  6
Continuous
 62
     3
370
     9
100
AcDbLine
 10
211.500066808752
 20
291.4958579581117
 30
0.0
 11
211.500066808752
 21
306.4960064220052
 31
0.0
  0
LINE
  5
287
330
1F
100
AcDbEntity
  8
仕上
  6
Continuous
 62
     3
370
     9
100
AcDbLine
 10
218.5000899031354
 20
291.4958579581117
 30
0.0
 11
218.5000899031354
 21
300.4960856027486
 31
0.0
  0
LINE
  5
288
330
1F
100
AcDbEntity
  8
仕上
  6
Continuous
 62
     3
370
     9
100
AcDbLine
 10
147.0002251702384
 20
314.4959585836395
 30
0.0
 11
175.0000577359586
 21
314.4959585836395
 31
0.0
  0
LINE
  5
289
330
1F
100
AcDbEntity
  8
仕上
  6
Continuous
 62
     3
370
     9
100
AcDbLine
 10
147.0002251702384
 20
325.4960443627781
 30
0.0
 11
147.0002251702384
 21
314.4959585836395
 31
0.0
  0
LINE
  5
28A
330
1F
100
AcDbEntity
  8
仕上
  6
Continuous
 62
     3
370
     9
100
AcDbLine
 10
193.0000800055425
 20
314.4959585836395
 30
0.0
 11
221.0000857791385
 21
314.4959585836395
 31
0.0
  0
LINE
  5
28B
330
1F
100
AcDbEntity
  8
仕上
  6
Continuous
 62
     3
370
     9
100
AcDbLine
 10
221.0000857791385
 20
325.4960443627781
 30
0.0
 11
221.0000857791385
 21
314.4959585836395
 31
0.0
  0
LINE
  5
28C
330
1F
100
AcDbEntity
  8
仕上
  6
Continuous
 62
     3
370
     9
100
AcDbLine
 10
-25.99988782728039
 20
350.4961763306835
 30
0.0
 11
-65.99990844726562
 21
350.4961763306835
 31
0.0
  0
LINE
  5
28D
330
1F
100
AcDbEntity
  8
仕上
  6
Continuous
 62
     3
370
     9
100
AcDbLine
 10
-65.99990844726562
 20
350.4961763306835
 30
0.0
 11
-65.99990844726562
 21
332.4960674571615
 31
0.0
  0
LINE
  5
28E
330
1F
100
AcDbEntity
  8
仕上
  6
Continuous
 62
     3
370
     9
100
AcDbLine
 10
-25.99988782728039
 20
332.4960674571615
 30
0.0
 11
-65.99990844726562
 21
332.4960674571615
 31
0.0
  0
LINE
  5
28F
330
1F
100
AcDbEntity
  8
仕上
  6
Continuous
 62
     3
370
     9
100
AcDbLine
 10
-25.99988782728039
 20
350.4961763306835
 30
0.0
 11
-25.99988782728039
 21
332.4960674571615
 31
0.0
  0
LINE
  5
290
330
1F
100
AcDbEntity
  8
仕上
  6
Continuous
 62
     3
370
     9
100
AcDbLine
 10
-88.00008000554283
 20
325.4960443627781
 30
0.0
 11
-88.00008000554283
 21
307.4961086971319
 31
0.0
  0
LINE
  5
291
330
1F
100
AcDbEntity
  8
仕上
  6
Continuous
 62
     3
370
     9
100
AcDbLine
 10
-88.00008000554283
 20
307.4961086971319
 30
0.0
 11
-95.99994556323907
 21
307.4961086971319
 31
0.0
  0
LINE
  5
292
330
1F
100
AcDbEntity
  8
仕上
  6
Continuous
 62
     3
370
     9
100
AcDbLine
 10
-95.99994556323907
 20
325.4960443627781
 30
0.0
 11
-95.99994556323907
 21
307.4961086971319
 31
0.0
  0
LINE
  5
293
330
1F
100
AcDbEntity
  8
仕上
  6
Continuous
 62
     3
370
     9
100
AcDbLine
 10
-88.00008000554283
 20
325.4960443627781
 30
0.0
 11
-95.99994556323907
 21
325.4960443627781
 31
0.0
  0
LINE
  5
294
330
1F
100
AcDbEntity
  8
仕上
  6
Continuous
 62
     3
370
     9
100
AcDbLine
 10
-71.99982926652251
 20
350.4961763306835
 30
0.0
 11
-111.9999364904456
 21
350.4961763306835
 31
0.0
  0
LINE
  5
295
330
1F
100
AcDbEntity
  8
仕上
  6
Continuous
 62
     3
370
     9
100
AcDbLine
 10
-111.9999364904456
 20
350.4961763306835
 30
0.0
 11
-111.9999364904456
 21
332.4960674571615
 31
0.0
  0
LINE
  5
296
330
1F
100
AcDbEntity
  8
仕上
  6
Continuous
 62
     3
370
     9
100
AcDbLine
 10
-71.99982926652251
 20
332.4960674571615
 30
0.0
 11
-111.9999364904456
 21
332.4960674571615
 31
0.0
  0
LINE
  5
297
330
1F
100
AcDbEntity
  8
仕上
  6
Continuous
 62
     3
370
     9
100
AcDbLine
 10
-128.999769880965
 20
325.4960443627781
 30
0.0
 11
-128.999769880965
 21
307.4961086971319
 31
0.0
  0
LINE
  5
298
330
1F
100
AcDbEntity
  8
仕上
  6
Continuous
 62
     3
370
     9
100
AcDbLine
 10
-101.0000239191829
 20
325.4960443627781
 30
0.0
 11
-128.999769880965
 21
325.4960443627781
 31
0.0
  0
LINE
  5
299
330
1F
100
AcDbEntity
  8
仕上
  6
Continuous
 62
     3
370
     9
100
AcDbLine
 10
-101.0000239191829
 20
325.4960443627781
 30
0.0
 11
-101.0000239191829
 21
307.4961086971319
 31
0.0
  0
LINE
  5
29A
330
1F
100
AcDbEntity
  8
仕上
  6
Continuous
 62
     3
370
     9
100
AcDbLine
 10
-101.0000239191829
 20
307.4961086971319
 30
0.0
 11
-128.999769880965
 21
307.4961086971319
 31
0.0
  0
LINE
  5
29B
330
1F
100
AcDbEntity
  8
仕上
  6
Continuous
 62
     3
370
     9
100
AcDbLine
 10
-133.9998482369089
 20
325.4960443627781
 30
0.0
 11
-133.9998482369089
 21
307.4961086971319
 31
0.0
  0
LINE
  5
29C
330
1F
100
AcDbEntity
  8
仕上
  6
Continuous
 62
     3
370
     9
100
AcDbLine
 10
-133.9998482369089
 20
307.4961086971319
 30
0.0
 11
-141.9998870024812
 21
307.4961086971319
 31
0.0
  0
LINE
  5
29D
330
1F
100
AcDbEntity
  8
仕上
  6
Continuous
 62
     3
370
     9
100
AcDbLine
 10
-141.9998870024812
 20
325.4960443627781
 30
0.0
 11
-141.9998870024812
 21
307.4961086971319
 31
0.0
  0
LINE
  5
29E
330
1F
100
AcDbEntity
  8
仕上
  6
Continuous
 62
     3
370
     9
100
AcDbLine
 10
-133.9998482369089
 20
325.4960443627781
 30
0.0
 11
-141.9998870024812
 21
325.4960443627781
 31
0.0
  0
LINE
  5
29F
330
1F
100
AcDbEntity
  8
仕上
  6
Continuous
 62
     3
370
     9
100
AcDbLine
 10
-117.9998573097023
 20
350.4961763306835
 30
0.0
 11
-157.9997913257497
 21
350.4961763306835
 31
0.0
  0
LINE
  5
2A0
330
1F
100
AcDbEntity
  8
仕上
  6
Continuous
 62
     3
370
     9
100
AcDbLine
 10
-157.9997913257497
 20
350.4961763306835
 30
0.0
 11
-157.9997913257497
 21
332.4960674571615
 31
0.0
  0
LINE
  5
2A1
330
1F
100
AcDbEntity
  8
仕上
  6
Continuous
 62
     3
370
     9
100
AcDbLine
 10
-117.9998573097023
 20
332.4960674571615
 30
0.0
 11
-157.9997913257497
 21
332.4960674571615
 31
0.0
  0
LINE
  5
2A2
330
1F
100
AcDbEntity
  8
仕上
  6
Continuous
 62
     3
370
     9
100
AcDbLine
 10
-117.9998573097023
 20
350.4961763306835
 30
0.0
 11
-117.9998573097023
 21
332.4960674571615
 31
0.0
  0
LINE
  5
2A3
330
1F
100
AcDbEntity
  8
仕上
  6
Continuous
 62
     3
370
     9
100
AcDbLine
 10
-146.999878754487
 20
325.4960443627781
 30
0.0
 11
-174.9998845280828
 21
325.4960443627781
 31
0.0
  0
LINE
  5
2A4
330
1F
100
AcDbEntity
  8
仕上
  6
Continuous
 62
     3
370
     9
100
AcDbLine
 10
-179.9999628840267
 20
325.4960443627781
 30
0.0
 11
-187.9999150456609
 21
325.4960443627781
 31
0.0
  0
LINE
  5
2A5
330
1F
100
AcDbEntity
  8
仕上
  6
Continuous
 62
     3
370
     9
100
AcDbLine
 10
-163.9998853528823
 20
350.4961763306835
 30
0.0
 11
-203.9998193689297
 21
350.4961763306835
 31
0.0
  0
LINE
  5
2A6
330
1F
100
AcDbEntity
  8
仕上
  6
Continuous
 62
     3
370
     9
100
AcDbLine
 10
-203.9998193689297
 20
350.4961763306835
 30
0.0
 11
-203.9998193689297
 21
332.4960674571615
 31
0.0
  0
LINE
  5
2A7
330
1F
100
AcDbEntity
  8
仕上
  6
Continuous
 62
     3
370
     9
100
AcDbLine
 10
-163.9998853528823
 20
332.4960674571615
 30
0.0
 11
-203.9998193689297
 21
332.4960674571615
 31
0.0
  0
LINE
  5
2A8
330
1F
100
AcDbEntity
  8
仕上
  6
Continuous
 62
     3
370
     9
100
AcDbLine
 10
-163.9998853528823
 20
350.4961763306835
 30
0.0
 11
-163.9998853528823
 21
332.4960674571615
 31
0.0
  0
LINE
  5
2A9
330
1F
100
AcDbEntity
  8
仕上
  6
Continuous
 62
     3
370
     9
100
AcDbLine
 10
-192.999906797667
 20
325.4960443627781
 30
0.0
 11
-220.9998259673247
 21
325.4960443627781
 31
0.0
  0
LINE
  5
2AA
330
1F
100
AcDbEntity
  8
仕上
  6
Continuous
 62
     3
370
     9
100
AcDbLine
 10
-225.9998177193308
 20
325.4960443627781
 30
0.0
 11
-225.9998177193308
 21
307.4961086971319
 31
0.0
  0
LINE
  5
2AB
330
1F
100
AcDbEntity
  8
仕上
  6
Continuous
 62
     3
370
     9
100
AcDbLine
 10
-225.9998177193308
 20
307.4961086971319
 30
0.0
 11
-233.9998564849029
 21
307.4961086971319
 31
0.0
  0
LINE
  5
2AC
330
1F
100
AcDbEntity
  8
仕上
  6
Continuous
 62
     3
370
     9
100
AcDbLine
 10
-233.9998564849029
 20
325.4960443627781
 30
0.0
 11
-233.9998564849029
 21
307.4961086971319
 31
0.0
  0
LINE
  5
2AD
330
1F
100
AcDbEntity
  8
仕上
  6
Continuous
 62
     3
370
     9
100
AcDbLine
 10
-225.9998177193308
 20
325.4960443627781
 30
0.0
 11
-233.9998564849029
 21
325.4960443627781
 31
0.0
  0
LINE
  5
2AE
330
1F
100
AcDbEntity
  8
仕上
  6
Continuous
 62
     3
370
     9
100
AcDbLine
 10
-209.9998267921242
 20
350.4961763306835
 30
0.0
 11
-249.9998474121094
 21
350.4961763306835
 31
0.0
  0
LINE
  5
2AF
330
1F
100
AcDbEntity
  8
仕上
  6
Continuous
 62
     3
370
     9
100
AcDbLine
 10
-249.9998474121094
 20
350.4961763306835
 30
0.0
 11
-249.9998474121094
 21
332.4960674571615
 31
0.0
  0
LINE
  5
2B0
330
1F
100
AcDbEntity
  8
仕上
  6
Continuous
 62
     3
370
     9
100
AcDbLine
 10
-209.9998267921242
 20
332.4960674571615
 30
0.0
 11
-249.9998474121094
 21
332.4960674571615
 31
0.0
  0
LINE
  5
2B1
330
1F
100
AcDbEntity
  8
仕上
  6
Continuous
 62
     3
370
     9
100
AcDbLine
 10
-209.9998267921242
 20
350.4961763306835
 30
0.0
 11
-209.9998267921242
 21
332.4960674571615
 31
0.0
  0
LINE
  5
2B2
330
1F
100
AcDbEntity
  8
仕上
  6
Continuous
 62
     3
370
     9
100
AcDbLine
 10
-266.9998540105047
 20
325.4960443627781
 30
0.0
 11
-266.9998540105047
 21
307.4961086971319
 31
0.0
  0
LINE
  5
2B3
330
1F
100
AcDbEntity
  8
仕上
  6
Continuous
 62
     3
370
     9
100
AcDbLine
 10
-238.9997616329709
 20
325.4960443627781
 30
0.0
 11
-266.9998540105047
 21
325.4960443627781
 31
0.0
  0
LINE
  5
2B4
330
1F
100
AcDbEntity
  8
仕上
  6
Continuous
 62
     3
370
     9
100
AcDbLine
 10
-238.9997616329709
 20
325.4960443627781
 30
0.0
 11
-238.9997616329709
 21
307.4961086971319
 31
0.0
  0
LINE
  5
2B5
330
1F
100
AcDbEntity
  8
仕上
  6
Continuous
 62
     3
370
     9
100
AcDbLine
 10
-238.9997616329709
 20
307.4961086971319
 30
0.0
 11
-266.9998540105047
 21
307.4961086971319
 31
0.0
  0
LINE
  5
2B6
330
1F
100
AcDbEntity
  8
仕上
  6
Continuous
 62
     3
370
     9
100
AcDbLine
 10
-271.9998457625107
 20
325.4960443627781
 30
0.0
 11
-271.9998457625107
 21
307.4961086971319
 31
0.0
  0
LINE
  5
2B7
330
1F
100
AcDbEntity
  8
仕上
  6
Continuous
 62
     3
370
     9
100
AcDbLine
 10
-271.9998457625107
 20
307.4961086971319
 30
0.0
 11
-279.9998845280828
 21
307.4961086971319
 31
0.0
  0
LINE
  5
2B8
330
1F
100
AcDbEntity
  8
仕上
  6
Continuous
 62
     3
370
     9
100
AcDbLine
 10
-279.9998845280828
 20
325.4960443627781
 30
0.0
 11
-279.9998845280828
 21
307.4961086971319
 31
0.0
  0
LINE
  5
2B9
330
1F
100
AcDbEntity
  8
仕上
  6
Continuous
 62
     3
370
     9
100
AcDbLine
 10
-271.9998457625107
 20
325.4960443627781
 30
0.0
 11
-279.9998845280828
 21
325.4960443627781
 31
0.0
  0
LINE
  5
2BA
330
1F
100
AcDbEntity
  8
仕上
  6
Continuous
 62
     3
370
     9
100
AcDbLine
 10
-255.9998548353041
 20
350.4961763306835
 30
0.0
 11
-295.9997888513514
 21
350.4961763306835
 31
0.0
  0
LINE
  5
2BB
330
1F
100
AcDbEntity
  8
仕上
  6
Continuous
 62
     3
370
     9
100
AcDbLine
 10
-295.9997888513514
 20
350.4961763306835
 30
0.0
 11
-295.9997888513514
 21
332.4960674571615
 31
0.0
  0
LINE
  5
2BC
330
1F
100
AcDbEntity
  8
仕上
  6
Continuous
 62
     3
370
     9
100
AcDbLine
 10
-255.9998548353041
 20
332.4960674571615
 30
0.0
 11
-295.9997888513514
 21
332.4960674571615
 31
0.0
  0
LINE
  5
2BD
330
1F
100
AcDbEntity
  8
仕上
  6
Continuous
 62
     3
370
     9
100
AcDbLine
 10
-255.9998548353041
 20
350.4961763306835
 30
0.0
 11
-255.9998548353041
 21
332.4960674571615
 31
0.0
  0
LINE
  5
2BE
330
1F
100
AcDbEntity
  8
仕上
  6
Continuous
 62
     3
370
     9
100
AcDbLine
 10
-284.9999628840267
 20
325.4960443627781
 30
0.0
 11
-284.9999628840267
 21
307.4961086971319
 31
0.0
  0
LINE
  5
2BF
330
1F
100
AcDbEntity
  8
仕上
  6
Continuous
 62
     3
370
     9
100
AcDbLine
 10
-19.9999670080237
 20
350.4961763306835
 30
0.0
 11
-19.9999670080237
 21
332.4960674571615
 31
0.0
  0
LINE
  5
2C0
330
1F
100
AcDbEntity
  8
仕上
  6
Continuous
 62
     3
370
     9
100
AcDbLine
 10
-71.99982926652251
 20
300.4960856027486
 30
0.0
 11
-111.9999364904456
 21
300.4960856027486
 31
0.0
  0
LINE
  5
2C1
330
1F
100
AcDbEntity
  8
仕上
  6
Continuous
 62
     3
370
     9
100
AcDbLine
 10
-255.9998548353041
 20
300.4960856027486
 30
0.0
 11
-295.9997888513514
 21
300.4960856027486
 31
0.0
  0
LINE
  5
2C2
330
1F
100
AcDbEntity
  8
仕上
  6
Continuous
 62
     3
370
     9
100
AcDbLine
 10
-111.9999364904456
 20
300.4960856027486
 30
0.0
 11
-111.9999364904456
 21
291.4958579581117
 31
0.0
  0
LINE
  5
2C3
330
1F
100
AcDbEntity
  8
仕上
  6
Continuous
 62
     3
370
     9
100
AcDbLine
 10
-71.99982926652251
 20
300.4960856027486
 30
0.0
 11
-71.99982926652251
 21
291.4958579581117
 31
0.0
  0
LINE
  5
2C4
330
1F
100
AcDbEntity
  8
仕上
  6
Continuous
 62
     3
370
     9
100
AcDbLine
 10
-117.9998573097023
 20
300.4960856027486
 30
0.0
 11
-117.9998573097023
 21
291.4958579581117
 31
0.0
  0
LINE
  5
2C5
330
1F
100
AcDbEntity
  8
仕上
  6
Continuous
 62
     3
370
     9
100
AcDbLine
 10
-249.9998474121094
 20
300.4960856027486
 30
0.0
 11
-249.9998474121094
 21
291.4958579581117
 31
0.0
  0
LINE
  5
2C6
330
1F
100
AcDbEntity
  8
仕上
  6
Continuous
 62
     3
370
     9
100
AcDbLine
 10
-295.9997888513514
 20
300.4960856027486
 30
0.0
 11
-295.9997888513514
 21
291.4958579581117
 31
0.0
  0
LINE
  5
2C7
330
1F
100
AcDbEntity
  8
仕上
  6
Continuous
 62
     3
370
     9
100
AcDbLine
 10
-255.9998548353041
 20
300.4960856027486
 30
0.0
 11
-255.9998548353041
 21
291.4958579581117
 31
0.0
  0
LINE
  5
2C8
330
1F
100
AcDbEntity
  8
仕上
  6
Continuous
 62
     3
370
     9
100
AcDbLine
 10
-301.999796274546
 20
300.4960856027486
 30
0.0
 11
-301.999796274546
 21
291.4958579581117
 31
0.0
  0
LINE
  5
2C9
330
1F
100
AcDbEntity
  8
仕上
  6
Continuous
 62
     3
370
     9
100
AcDbLine
 10
-284.9999628840267
 20
325.4960443627781
 30
0.0
 11
-302.092462488123
 21
325.4960443627781
 31
0.0
  0
LINE
  5
2CA
330
1F
100
AcDbEntity
  8
仕上
  6
Continuous
 62
     3
370
     9
100
AcDbLine
 10
-284.9999628840267
 20
307.4961086971319
 30
0.0
 11
-303.5785860628695
 21
307.4961086971319
 31
0.0
  0
LINE
  5
2CB
330
1F
100
AcDbEntity
  8
仕上
  6
Continuous
 62
     3
370
     9
100
AcDbLine
 10
-301.999796274546
 20
300.4960856027486
 30
0.0
 11
-303.8664575525232
 21
300.4960856027486
 31
0.0
  0
LINE
  5
2CC
330
1F
100
AcDbEntity
  8
仕上
  6
Continuous
 62
     3
370
     9
100
AcDbLine
 10
-36.99997360641896
 20
375.4959618828372
 30
0.0
 11
-36.99997360641896
 21
357.4958530093152
 31
0.0
  0
LINE
  5
2CD
330
1F
100
AcDbEntity
  8
仕上
  6
Continuous
 62
     3
370
     9
100
AcDbLine
 10
-8.99988122888513
 20
375.4959618828372
 30
0.0
 11
-36.99997360641896
 21
375.4959618828372
 31
0.0
  0
LINE
  5
2CE
330
1F
100
AcDbEntity
  8
仕上
  6
Continuous
 62
     3
370
     9
100
AcDbLine
 10
-8.99988122888513
 20
375.4959618828372
 30
0.0
 11
-8.99988122888513
 21
357.4958530093152
 31
0.0
  0
LINE
  5
2CF
330
1F
100
AcDbEntity
  8
仕上
  6
Continuous
 62
     3
370
     9
100
AcDbLine
 10
-8.99988122888513
 20
357.4958530093152
 30
0.0
 11
-36.99997360641896
 21
357.4958530093152
 31
0.0
  0
LINE
  5
2D0
330
1F
100
AcDbEntity
  8
仕上
  6
Continuous
 62
     3
370
     9
100
AcDbLine
 10
-41.99996535842479
 20
375.4959618828372
 30
0.0
 11
-41.99996535842479
 21
357.4958530093152
 31
0.0
  0
LINE
  5
2D1
330
1F
100
AcDbEntity
  8
仕上
  6
Continuous
 62
     3
370
     9
100
AcDbLine
 10
-41.99996535842479
 20
357.4958530093152
 30
0.0
 11
-50.00000412399709
 21
357.4958530093152
 31
0.0
  0
LINE
  5
2D2
330
1F
100
AcDbEntity
  8
仕上
  6
Continuous
 62
     3
370
     9
100
AcDbLine
 10
-50.00000412399709
 20
375.4959618828372
 30
0.0
 11
-50.00000412399709
 21
357.4958530093152
 31
0.0
  0
LINE
  5
2D3
330
1F
100
AcDbEntity
  8
仕上
  6
Continuous
 62
     3
370
     9
100
AcDbLine
 10
-41.99996535842479
 20
375.4959618828372
 30
0.0
 11
-50.00000412399709
 21
375.4959618828372
 31
0.0
  0
LINE
  5
2D4
330
1F
100
AcDbEntity
  8
仕上
  6
Continuous
 62
     3
370
     9
100
AcDbLine
 10
-25.99988782728039
 20
400.4960938507425
 30
0.0
 11
-65.99990844726562
 21
400.4960938507425
 31
0.0
  0
LINE
  5
2D5
330
1F
100
AcDbEntity
  8
仕上
  6
Continuous
 62
     3
370
     9
100
AcDbLine
 10
-65.99990844726562
 20
400.4960938507425
 30
0.0
 11
-65.99990844726562
 21
382.4959849772205
 31
0.0
  0
LINE
  5
2D6
330
1F
100
AcDbEntity
  8
仕上
  6
Continuous
 62
     3
370
     9
100
AcDbLine
 10
-25.99988782728039
 20
382.4959849772205
 30
0.0
 11
-65.99990844726562
 21
382.4959849772205
 31
0.0
  0
LINE
  5
2D7
330
1F
100
AcDbEntity
  8
仕上
  6
Continuous
 62
     3
370
     9
100
AcDbLine
 10
-25.99988782728039
 20
400.4960938507425
 30
0.0
 11
-25.99988782728039
 21
382.4959849772205
 31
0.0
  0
LINE
  5
2D8
330
1F
100
AcDbEntity
  8
仕上
  6
Continuous
 62
     3
370
     9
100
AcDbLine
 10
-82.99991504566094
 20
375.4959618828372
 30
0.0
 11
-82.99991504566094
 21
357.4958530093152
 31
0.0
  0
LINE
  5
2D9
330
1F
100
AcDbEntity
  8
仕上
  6
Continuous
 62
     3
370
     9
100
AcDbLine
 10
-54.99990927206508
 20
375.4959618828372
 30
0.0
 11
-82.99991504566094
 21
375.4959618828372
 31
0.0
  0
LINE
  5
2DA
330
1F
100
AcDbEntity
  8
仕上
  6
Continuous
 62
     3
370
     9
100
AcDbLine
 10
-54.99990927206508
 20
375.4959618828372
 30
0.0
 11
-54.99990927206508
 21
357.4958530093152
 31
0.0
  0
LINE
  5
2DB
330
1F
100
AcDbEntity
  8
仕上
  6
Continuous
 62
     3
370
     9
100
AcDbLine
 10
-54.99990927206508
 20
357.4958530093152
 30
0.0
 11
-82.99991504566094
 21
357.4958530093152
 31
0.0
  0
LINE
  5
2DC
330
1F
100
AcDbEntity
  8
仕上
  6
Continuous
 62
     3
370
     9
100
AcDbLine
 10
-88.00008000554283
 20
375.4959618828372
 30
0.0
 11
-88.00008000554283
 21
357.4958530093152
 31
0.0
  0
LINE
  5
2DD
330
1F
100
AcDbEntity
  8
仕上
  6
Continuous
 62
     3
370
     9
100
AcDbLine
 10
-88.00008000554283
 20
357.4958530093152
 30
0.0
 11
-95.99994556323907
 21
357.4958530093152
 31
0.0
  0
LINE
  5
2DE
330
1F
100
AcDbEntity
  8
仕上
  6
Continuous
 62
     3
370
     9
100
AcDbLine
 10
-95.99994556323907
 20
375.4959618828372
 30
0.0
 11
-95.99994556323907
 21
357.4958530093152
 31
0.0
  0
LINE
  5
2DF
330
1F
100
AcDbEntity
  8
仕上
  6
Continuous
 62
     3
370
     9
100
AcDbLine
 10
-88.00008000554283
 20
375.4959618828372
 30
0.0
 11
-95.99994556323907
 21
375.4959618828372
 31
0.0
  0
LINE
  5
2E0
330
1F
100
AcDbEntity
  8
仕上
  6
Continuous
 62
     3
370
     9
100
AcDbLine
 10
-71.99982926652251
 20
400.4960938507425
 30
0.0
 11
-111.9999364904456
 21
400.4960938507425
 31
0.0
  0
LINE
  5
2E1
330
1F
100
AcDbEntity
  8
仕上
  6
Continuous
 62
     3
370
     9
100
AcDbLine
 10
-111.9999364904456
 20
400.4960938507425
 30
0.0
 11
-111.9999364904456
 21
382.4959849772205
 31
0.0
  0
LINE
  5
2E2
330
1F
100
AcDbEntity
  8
仕上
  6
Continuous
 62
     3
370
     9
100
AcDbLine
 10
-71.99982926652251
 20
382.4959849772205
 30
0.0
 11
-111.9999364904456
 21
382.4959849772205
 31
0.0
  0
LINE
  5
2E3
330
1F
100
AcDbEntity
  8
仕上
  6
Continuous
 62
     3
370
     9
100
AcDbLine
 10
-71.99982926652251
 20
400.4960938507425
 30
0.0
 11
-71.99982926652251
 21
382.4959849772205
 31
0.0
  0
LINE
  5
2E4
330
1F
100
AcDbEntity
  8
仕上
  6
Continuous
 62
     3
370
     9
100
AcDbLine
 10
-128.999769880965
 20
375.4959618828372
 30
0.0
 11
-128.999769880965
 21
357.4958530093152
 31
0.0
  0
LINE
  5
2E5
330
1F
100
AcDbEntity
  8
仕上
  6
Continuous
 62
     3
370
     9
100
AcDbLine
 10
-101.0000239191829
 20
375.4959618828372
 30
0.0
 11
-128.999769880965
 21
375.4959618828372
 31
0.0
  0
LINE
  5
2E6
330
1F
100
AcDbEntity
  8
仕上
  6
Continuous
 62
     3
370
     9
100
AcDbLine
 10
-101.0000239191829
 20
375.4959618828372
 30
0.0
 11
-101.0000239191829
 21
357.4958530093152
 31
0.0
  0
LINE
  5
2E7
330
1F
100
AcDbEntity
  8
仕上
  6
Continuous
 62
     3
370
     9
100
AcDbLine
 10
-101.0000239191829
 20
357.4958530093152
 30
0.0
 11
-128.999769880965
 21
357.4958530093152
 31
0.0
  0
LINE
  5
2E8
330
1F
100
AcDbEntity
  8
仕上
  6
Continuous
 62
     3
370
     9
100
AcDbLine
 10
-133.9998482369089
 20
375.4959618828372
 30
0.0
 11
-133.9998482369089
 21
357.4958530093152
 31
0.0
  0
LINE
  5
2E9
330
1F
100
AcDbEntity
  8
仕上
  6
Continuous
 62
     3
370
     9
100
AcDbLine
 10
-133.9998482369089
 20
357.4958530093152
 30
0.0
 11
-141.9998870024812
 21
357.4958530093152
 31
0.0
  0
LINE
  5
2EA
330
1F
100
AcDbEntity
  8
仕上
  6
Continuous
 62
     3
370
     9
100
AcDbLine
 10
-141.9998870024812
 20
375.4959618828372
 30
0.0
 11
-141.9998870024812
 21
357.4958530093152
 31
0.0
  0
LINE
  5
2EB
330
1F
100
AcDbEntity
  8
仕上
  6
Continuous
 62
     3
370
     9
100
AcDbLine
 10
-133.9998482369089
 20
375.4959618828372
 30
0.0
 11
-141.9998870024812
 21
375.4959618828372
 31
0.0
  0
LINE
  5
2EC
330
1F
100
AcDbEntity
  8
仕上
  6
Continuous
 62
     3
370
     9
100
AcDbLine
 10
-117.9998573097023
 20
400.4960938507425
 30
0.0
 11
-157.9997913257497
 21
400.4960938507425
 31
0.0
  0
LINE
  5
2ED
330
1F
100
AcDbEntity
  8
仕上
  6
Continuous
 62
     3
370
     9
100
AcDbLine
 10
-157.9997913257497
 20
400.4960938507425
 30
0.0
 11
-157.9997913257497
 21
382.4959849772205
 31
0.0
  0
LINE
  5
2EE
330
1F
100
AcDbEntity
  8
仕上
  6
Continuous
 62
     3
370
     9
100
AcDbLine
 10
-117.9998573097023
 20
382.4959849772205
 30
0.0
 11
-157.9997913257497
 21
382.4959849772205
 31
0.0
  0
LINE
  5
2EF
330
1F
100
AcDbEntity
  8
仕上
  6
Continuous
 62
     3
370
     9
100
AcDbLine
 10
-117.9998573097023
 20
400.4960938507425
 30
0.0
 11
-117.9998573097023
 21
382.4959849772205
 31
0.0
  0
LINE
  5
2F0
330
1F
100
AcDbEntity
  8
仕上
  6
Continuous
 62
     3
370
     9
100
AcDbLine
 10
-174.9998845280828
 20
375.4959618828372
 30
0.0
 11
-174.9998845280828
 21
357.4958530093152
 31
0.0
  0
LINE
  5
2F1
330
1F
100
AcDbEntity
  8
仕上
  6
Continuous
 62
     3
370
     9
100
AcDbLine
 10
-146.999878754487
 20
375.4959618828372
 30
0.0
 11
-174.9998845280828
 21
375.4959618828372
 31
0.0
  0
LINE
  5
2F2
330
1F
100
AcDbEntity
  8
仕上
  6
Continuous
 62
     3
370
     9
100
AcDbLine
 10
-146.999878754487
 20
375.4959618828372
 30
0.0
 11
-146.999878754487
 21
357.4958530093152
 31
0.0
  0
LINE
  5
2F3
330
1F
100
AcDbEntity
  8
仕上
  6
Continuous
 62
     3
370
     9
100
AcDbLine
 10
-146.999878754487
 20
357.4958530093152
 30
0.0
 11
-174.9998845280828
 21
357.4958530093152
 31
0.0
  0
LINE
  5
2F4
330
1F
100
AcDbEntity
  8
仕上
  6
Continuous
 62
     3
370
     9
100
AcDbLine
 10
-179.9999628840267
 20
375.4959618828372
 30
0.0
 11
-179.9999628840267
 21
357.4958530093152
 31
0.0
  0
LINE
  5
2F5
330
1F
100
AcDbEntity
  8
仕上
  6
Continuous
 62
     3
370
     9
100
AcDbLine
 10
-179.9999628840267
 20
357.4958530093152
 30
0.0
 11
-187.9999150456609
 21
357.4958530093152
 31
0.0
  0
LINE
  5
2F6
330
1F
100
AcDbEntity
  8
仕上
  6
Continuous
 62
     3
370
     9
100
AcDbLine
 10
-187.9999150456609
 20
375.4959618828372
 30
0.0
 11
-187.9999150456609
 21
357.4958530093152
 31
0.0
  0
LINE
  5
2F7
330
1F
100
AcDbEntity
  8
仕上
  6
Continuous
 62
     3
370
     9
100
AcDbLine
 10
-179.9999628840267
 20
375.4959618828372
 30
0.0
 11
-187.9999150456609
 21
375.4959618828372
 31
0.0
  0
LINE
  5
2F8
330
1F
100
AcDbEntity
  8
仕上
  6
Continuous
 62
     3
370
     9
100
AcDbLine
 10
-163.9998853528823
 20
400.4960938507425
 30
0.0
 11
-203.9998193689297
 21
400.4960938507425
 31
0.0
  0
LINE
  5
2F9
330
1F
100
AcDbEntity
  8
仕上
  6
Continuous
 62
     3
370
     9
100
AcDbLine
 10
-203.9998193689297
 20
400.4960938507425
 30
0.0
 11
-203.9998193689297
 21
382.4959849772205
 31
0.0
  0
LINE
  5
2FA
330
1F
100
AcDbEntity
  8
仕上
  6
Continuous
 62
     3
370
     9
100
AcDbLine
 10
-163.9998853528823
 20
382.4959849772205
 30
0.0
 11
-203.9998193689297
 21
382.4959849772205
 31
0.0
  0
LINE
  5
2FB
330
1F
100
AcDbEntity
  8
仕上
  6
Continuous
 62
     3
370
     9
100
AcDbLine
 10
-163.9998853528823
 20
400.4960938507425
 30
0.0
 11
-163.9998853528823
 21
382.4959849772205
 31
0.0
  0
LINE
  5
2FC
330
1F
100
AcDbEntity
  8
仕上
  6
Continuous
 62
     3
370
     9
100
AcDbLine
 10
-220.9998259673247
 20
375.4959618828372
 30
0.0
 11
-220.9998259673247
 21
357.4958530093152
 31
0.0
  0
LINE
  5
2FD
330
1F
100
AcDbEntity
  8
仕上
  6
Continuous
 62
     3
370
     9
100
AcDbLine
 10
-192.999906797667
 20
375.4959618828372
 30
0.0
 11
-220.9998259673247
 21
375.4959618828372
 31
0.0
  0
LINE
  5
2FE
330
1F
100
AcDbEntity
  8
仕上
  6
Continuous
 62
     3
370
     9
100
AcDbLine
 10
-192.999906797667
 20
375.4959618828372
 30
0.0
 11
-192.999906797667
 21
357.4958530093152
 31
0.0
  0
LINE
  5
2FF
330
1F
100
AcDbEntity
  8
仕上
  6
Continuous
 62
     3
370
     9
100
AcDbLine
 10
-192.999906797667
 20
357.4958530093152
 30
0.0
 11
-220.9998259673247
 21
357.4958530093152
 31
0.0
  0
LINE
  5
300
330
1F
100
AcDbEntity
  8
仕上
  6
Continuous
 62
     3
370
     9
100
AcDbLine
 10
-225.9998177193308
 20
375.4959618828372
 30
0.0
 11
-225.9998177193308
 21
357.4958530093152
 31
0.0
  0
LINE
  5
301
330
1F
100
AcDbEntity
  8
仕上
  6
Continuous
 62
     3
370
     9
100
AcDbLine
 10
-225.9998177193308
 20
357.4958530093152
 30
0.0
 11
-233.9998564849029
 21
357.4958530093152
 31
0.0
  0
LINE
  5
302
330
1F
100
AcDbEntity
  8
仕上
  6
Continuous
 62
     3
370
     9
100
AcDbLine
 10
-233.9998564849029
 20
375.4959618828372
 30
0.0
 11
-233.9998564849029
 21
357.4958530093152
 31
0.0
  0
LINE
  5
303
330
1F
100
AcDbEntity
  8
仕上
  6
Continuous
 62
     3
370
     9
100
AcDbLine
 10
-225.9998177193308
 20
375.4959618828372
 30
0.0
 11
-233.9998564849029
 21
375.4959618828372
 31
0.0
  0
LINE
  5
304
330
1F
100
AcDbEntity
  8
仕上
  6
Continuous
 62
     3
370
     9
100
AcDbLine
 10
-209.9998267921242
 20
400.4960938507425
 30
0.0
 11
-249.9998474121094
 21
400.4960938507425
 31
0.0
  0
LINE
  5
305
330
1F
100
AcDbEntity
  8
仕上
  6
Continuous
 62
     3
370
     9
100
AcDbLine
 10
-249.9998474121094
 20
400.4960938507425
 30
0.0
 11
-249.9998474121094
 21
382.4959849772205
 31
0.0
  0
LINE
  5
306
330
1F
100
AcDbEntity
  8
仕上
  6
Continuous
 62
     3
370
     9
100
AcDbLine
 10
-209.9998267921242
 20
382.4959849772205
 30
0.0
 11
-249.9998474121094
 21
382.4959849772205
 31
0.0
  0
LINE
  5
307
330
1F
100
AcDbEntity
  8
仕上
  6
Continuous
 62
     3
370
     9
100
AcDbLine
 10
-209.9998267921242
 20
400.4960938507425
 30
0.0
 11
-209.9998267921242
 21
382.4959849772205
 31
0.0
  0
LINE
  5
308
330
1F
100
AcDbEntity
  8
仕上
  6
Continuous
 62
     3
370
     9
100
AcDbLine
 10
-266.9998540105047
 20
375.4959618828372
 30
0.0
 11
-266.9998540105047
 21
357.4958530093152
 31
0.0
  0
LINE
  5
309
330
1F
100
AcDbEntity
  8
仕上
  6
Continuous
 62
     3
370
     9
100
AcDbLine
 10
-238.9997616329709
 20
375.4959618828372
 30
0.0
 11
-266.9998540105047
 21
375.4959618828372
 31
0.0
  0
LINE
  5
30A
330
1F
100
AcDbEntity
  8
仕上
  6
Continuous
 62
     3
370
     9
100
AcDbLine
 10
-238.9997616329709
 20
375.4959618828372
 30
0.0
 11
-238.9997616329709
 21
357.4958530093152
 31
0.0
  0
LINE
  5
30B
330
1F
100
AcDbEntity
  8
仕上
  6
Continuous
 62
     3
370
     9
100
AcDbLine
 10
-238.9997616329709
 20
357.4958530093152
 30
0.0
 11
-266.9998540105047
 21
357.4958530093152
 31
0.0
  0
LINE
  5
30C
330
1F
100
AcDbEntity
  8
仕上
  6
Continuous
 62
     3
370
     9
100
AcDbLine
 10
-271.9998457625107
 20
375.4959618828372
 30
0.0
 11
-271.9998457625107
 21
357.4958530093152
 31
0.0
  0
LINE
  5
30D
330
1F
100
AcDbEntity
  8
仕上
  6
Continuous
 62
     3
370
     9
100
AcDbLine
 10
-271.9998457625107
 20
357.4958530093152
 30
0.0
 11
-279.9998845280828
 21
357.4958530093152
 31
0.0
  0
LINE
  5
30E
330
1F
100
AcDbEntity
  8
仕上
  6
Continuous
 62
     3
370
     9
100
AcDbLine
 10
-279.9998845280828
 20
375.4959618828372
 30
0.0
 11
-279.9998845280828
 21
357.4958530093152
 31
0.0
  0
LINE
  5
30F
330
1F
100
AcDbEntity
  8
仕上
  6
Continuous
 62
     3
370
     9
100
AcDbLine
 10
-271.9998457625107
 20
375.4959618828372
 30
0.0
 11
-279.9998845280828
 21
375.4959618828372
 31
0.0
  0
LINE
  5
310
330
1F
100
AcDbEntity
  8
仕上
  6
Continuous
 62
     3
370
     9
100
AcDbLine
 10
-255.9998548353041
 20
400.4960938507425
 30
0.0
 11
-255.9998548353041
 21
382.4959849772205
 31
0.0
  0
LINE
  5
311
330
1F
100
AcDbEntity
  8
仕上
  6
Continuous
 62
     3
370
     9
100
AcDbLine
 10
-284.9999628840267
 20
375.4959618828372
 30
0.0
 11
-284.9999628840267
 21
357.4958530093152
 31
0.0
  0
LINE
  5
312
330
1F
100
AcDbEntity
  8
仕上
  6
Continuous
 62
     3
370
     9
100
AcDbLine
 10
-3.999889476879304
 20
375.4959618828372
 30
0.0
 11
-3.999889476879304
 21
357.4958530093152
 31
0.0
  0
LINE
  5
313
330
1F
100
AcDbEntity
  8
仕上
  6
Continuous
 62
     3
370
     9
100
AcDbLine
 10
-19.9999670080237
 20
400.4960938507425
 30
0.0
 11
-19.9999670080237
 21
382.4959849772205
 31
0.0
  0
LINE
  5
314
330
1F
100
AcDbEntity
  8
仕上
  6
Continuous
 62
     3
370
     9
100
AcDbLine
 10
-36.99997360641896
 20
425.4962258186479
 30
0.0
 11
-36.99997360641896
 21
407.4961169451261
 31
0.0
  0
LINE
  5
315
330
1F
100
AcDbEntity
  8
仕上
  6
Continuous
 62
     3
370
     9
100
AcDbLine
 10
-8.99988122888513
 20
425.4962258186479
 30
0.0
 11
-36.99997360641896
 21
425.4962258186479
 31
0.0
  0
LINE
  5
316
330
1F
100
AcDbEntity
  8
仕上
  6
Continuous
 62
     3
370
     9
100
AcDbLine
 10
-8.99988122888513
 20
425.4962258186479
 30
0.0
 11
-8.99988122888513
 21
407.4961169451261
 31
0.0
  0
LINE
  5
317
330
1F
100
AcDbEntity
  8
仕上
  6
Continuous
 62
     3
370
     9
100
AcDbLine
 10
-8.99988122888513
 20
407.4961169451261
 30
0.0
 11
-36.99997360641896
 21
407.4961169451261
 31
0.0
  0
LINE
  5
318
330
1F
100
AcDbEntity
  8
仕上
  6
Continuous
 62
     3
370
     9
100
AcDbLine
 10
-41.99996535842479
 20
425.4962258186479
 30
0.0
 11
-41.99996535842479
 21
407.4961169451261
 31
0.0
  0
LINE
  5
319
330
1F
100
AcDbEntity
  8
仕上
  6
Continuous
 62
     3
370
     9
100
AcDbLine
 10
-41.99996535842479
 20
407.4961169451261
 30
0.0
 11
-50.00000412399709
 21
407.4961169451261
 31
0.0
  0
LINE
  5
31A
330
1F
100
AcDbEntity
  8
仕上
  6
Continuous
 62
     3
370
     9
100
AcDbLine
 10
-50.00000412399709
 20
425.4962258186479
 30
0.0
 11
-50.00000412399709
 21
407.4961169451261
 31
0.0
  0
LINE
  5
31B
330
1F
100
AcDbEntity
  8
仕上
  6
Continuous
 62
     3
370
     9
100
AcDbLine
 10
-41.99996535842479
 20
425.4962258186479
 30
0.0
 11
-50.00000412399709
 21
425.4962258186479
 31
0.0
  0
LINE
  5
31C
330
1F
100
AcDbEntity
  8
仕上
  6
Continuous
 62
     3
370
     9
100
AcDbLine
 10
-25.99988782728039
 20
450.4960113708018
 30
0.0
 11
-65.99990844726562
 21
450.4960113708018
 31
0.0
  0
LINE
  5
31D
330
1F
100
AcDbEntity
  8
仕上
  6
Continuous
 62
     3
370
     9
100
AcDbLine
 10
-65.99990844726562
 20
450.4960113708018
 30
0.0
 11
-65.99990844726562
 21
432.4960757051556
 31
0.0
  0
LINE
  5
31E
330
1F
100
AcDbEntity
  8
仕上
  6
Continuous
 62
     3
370
     9
100
AcDbLine
 10
-25.99988782728039
 20
432.4960757051556
 30
0.0
 11
-65.99990844726562
 21
432.4960757051556
 31
0.0
  0
LINE
  5
31F
330
1F
100
AcDbEntity
  8
仕上
  6
Continuous
 62
     3
370
     9
100
AcDbLine
 10
-25.99988782728039
 20
450.4960113708018
 30
0.0
 11
-25.99988782728039
 21
432.4960757051556
 31
0.0
  0
LINE
  5
320
330
1F
100
AcDbEntity
  8
仕上
  6
Continuous
 62
     3
370
     9
100
AcDbLine
 10
-82.99991504566094
 20
425.4962258186479
 30
0.0
 11
-82.99991504566094
 21
407.4961169451261
 31
0.0
  0
LINE
  5
321
330
1F
100
AcDbEntity
  8
仕上
  6
Continuous
 62
     3
370
     9
100
AcDbLine
 10
-54.99990927206508
 20
425.4962258186479
 30
0.0
 11
-82.99991504566094
 21
425.4962258186479
 31
0.0
  0
LINE
  5
322
330
1F
100
AcDbEntity
  8
仕上
  6
Continuous
 62
     3
370
     9
100
AcDbLine
 10
-54.99990927206508
 20
425.4962258186479
 30
0.0
 11
-54.99990927206508
 21
407.4961169451261
 31
0.0
  0
LINE
  5
323
330
1F
100
AcDbEntity
  8
仕上
  6
Continuous
 62
     3
370
     9
100
AcDbLine
 10
-54.99990927206508
 20
407.4961169451261
 30
0.0
 11
-82.99991504566094
 21
407.4961169451261
 31
0.0
  0
LINE
  5
324
330
1F
100
AcDbEntity
  8
仕上
  6
Continuous
 62
     3
370
     9
100
AcDbLine
 10
-88.00008000554283
 20
425.4962258186479
 30
0.0
 11
-88.00008000554283
 21
407.4961169451261
 31
0.0
  0
LINE
  5
325
330
1F
100
AcDbEntity
  8
仕上
  6
Continuous
 62
     3
370
     9
100
AcDbLine
 10
-88.00008000554283
 20
407.4961169451261
 30
0.0
 11
-95.99994556323907
 21
407.4961169451261
 31
0.0
  0
LINE
  5
326
330
1F
100
AcDbEntity
  8
仕上
  6
Continuous
 62
     3
370
     9
100
AcDbLine
 10
-95.99994556323907
 20
425.4962258186479
 30
0.0
 11
-95.99994556323907
 21
407.4961169451261
 31
0.0
  0
LINE
  5
327
330
1F
100
AcDbEntity
  8
仕上
  6
Continuous
 62
     3
370
     9
100
AcDbLine
 10
-88.00008000554283
 20
425.4962258186479
 30
0.0
 11
-95.99994556323907
 21
425.4962258186479
 31
0.0
  0
LINE
  5
328
330
1F
100
AcDbEntity
  8
仕上
  6
Continuous
 62
     3
370
     9
100
AcDbLine
 10
-71.99982926652251
 20
450.4960113708018
 30
0.0
 11
-111.9999364904456
 21
450.4960113708018
 31
0.0
  0
LINE
  5
329
330
1F
100
AcDbEntity
  8
仕上
  6
Continuous
 62
     3
370
     9
100
AcDbLine
 10
-111.9999364904456
 20
450.4960113708018
 30
0.0
 11
-111.9999364904456
 21
432.4960757051556
 31
0.0
  0
LINE
  5
32A
330
1F
100
AcDbEntity
  8
仕上
  6
Continuous
 62
     3
370
     9
100
AcDbLine
 10
-71.99982926652251
 20
432.4960757051556
 30
0.0
 11
-111.9999364904456
 21
432.4960757051556
 31
0.0
  0
LINE
  5
32B
330
1F
100
AcDbEntity
  8
仕上
  6
Continuous
 62
     3
370
     9
100
AcDbLine
 10
-71.99982926652251
 20
450.4960113708018
 30
0.0
 11
-71.99982926652251
 21
432.4960757051556
 31
0.0
  0
LINE
  5
32C
330
1F
100
AcDbEntity
  8
仕上
  6
Continuous
 62
     3
370
     9
100
AcDbLine
 10
-128.999769880965
 20
425.4962258186479
 30
0.0
 11
-128.999769880965
 21
407.4961169451261
 31
0.0
  0
LINE
  5
32D
330
1F
100
AcDbEntity
  8
仕上
  6
Continuous
 62
     3
370
     9
100
AcDbLine
 10
-101.0000239191829
 20
425.4962258186479
 30
0.0
 11
-128.999769880965
 21
425.4962258186479
 31
0.0
  0
LINE
  5
32E
330
1F
100
AcDbEntity
  8
仕上
  6
Continuous
 62
     3
370
     9
100
AcDbLine
 10
-101.0000239191829
 20
425.4962258186479
 30
0.0
 11
-101.0000239191829
 21
407.4961169451261
 31
0.0
  0
LINE
  5
32F
330
1F
100
AcDbEntity
  8
仕上
  6
Continuous
 62
     3
370
     9
100
AcDbLine
 10
-101.0000239191829
 20
407.4961169451261
 30
0.0
 11
-128.999769880965
 21
407.4961169451261
 31
0.0
  0
LINE
  5
330
330
1F
100
AcDbEntity
  8
仕上
  6
Continuous
 62
     3
370
     9
100
AcDbLine
 10
-133.9998482369089
 20
425.4962258186479
 30
0.0
 11
-133.9998482369089
 21
407.4961169451261
 31
0.0
  0
LINE
  5
331
330
1F
100
AcDbEntity
  8
仕上
  6
Continuous
 62
     3
370
     9
100
AcDbLine
 10
-133.9998482369089
 20
407.4961169451261
 30
0.0
 11
-141.9998870024812
 21
407.4961169451261
 31
0.0
  0
LINE
  5
332
330
1F
100
AcDbEntity
  8
仕上
  6
Continuous
 62
     3
370
     9
100
AcDbLine
 10
-141.9998870024812
 20
425.4962258186479
 30
0.0
 11
-141.9998870024812
 21
407.4961169451261
 31
0.0
  0
LINE
  5
333
330
1F
100
AcDbEntity
  8
仕上
  6
Continuous
 62
     3
370
     9
100
AcDbLine
 10
-133.9998482369089
 20
425.4962258186479
 30
0.0
 11
-141.9998870024812
 21
425.4962258186479
 31
0.0
  0
LINE
  5
334
330
1F
100
AcDbEntity
  8
仕上
  6
Continuous
 62
     3
370
     9
100
AcDbLine
 10
-117.9998573097023
 20
450.4960113708018
 30
0.0
 11
-157.9997913257497
 21
450.4960113708018
 31
0.0
  0
LINE
  5
335
330
1F
100
AcDbEntity
  8
仕上
  6
Continuous
 62
     3
370
     9
100
AcDbLine
 10
-157.9997913257497
 20
450.4960113708018
 30
0.0
 11
-157.9997913257497
 21
432.4960757051556
 31
0.0
  0
LINE
  5
336
330
1F
100
AcDbEntity
  8
仕上
  6
Continuous
 62
     3
370
     9
100
AcDbLine
 10
-117.9998573097023
 20
432.4960757051556
 30
0.0
 11
-157.9997913257497
 21
432.4960757051556
 31
0.0
  0
LINE
  5
337
330
1F
100
AcDbEntity
  8
仕上
  6
Continuous
 62
     3
370
     9
100
AcDbLine
 10
-117.9998573097023
 20
450.4960113708018
 30
0.0
 11
-117.9998573097023
 21
432.4960757051556
 31
0.0
  0
LINE
  5
338
330
1F
100
AcDbEntity
  8
仕上
  6
Continuous
 62
     3
370
     9
100
AcDbLine
 10
-174.9998845280828
 20
425.4962258186479
 30
0.0
 11
-174.9998845280828
 21
407.4961169451261
 31
0.0
  0
LINE
  5
339
330
1F
100
AcDbEntity
  8
仕上
  6
Continuous
 62
     3
370
     9
100
AcDbLine
 10
-146.999878754487
 20
425.4962258186479
 30
0.0
 11
-174.9998845280828
 21
425.4962258186479
 31
0.0
  0
LINE
  5
33A
330
1F
100
AcDbEntity
  8
仕上
  6
Continuous
 62
     3
370
     9
100
AcDbLine
 10
-146.999878754487
 20
425.4962258186479
 30
0.0
 11
-146.999878754487
 21
407.4961169451261
 31
0.0
  0
LINE
  5
33B
330
1F
100
AcDbEntity
  8
仕上
  6
Continuous
 62
     3
370
     9
100
AcDbLine
 10
-146.999878754487
 20
407.4961169451261
 30
0.0
 11
-174.9998845280828
 21
407.4961169451261
 31
0.0
  0
LINE
  5
33C
330
1F
100
AcDbEntity
  8
仕上
  6
Continuous
 62
     3
370
     9
100
AcDbLine
 10
-179.9999628840267
 20
425.4962258186479
 30
0.0
 11
-179.9999628840267
 21
407.4961169451261
 31
0.0
  0
LINE
  5
33D
330
1F
100
AcDbEntity
  8
仕上
  6
Continuous
 62
     3
370
     9
100
AcDbLine
 10
-179.9999628840267
 20
407.4961169451261
 30
0.0
 11
-187.9999150456609
 21
407.4961169451261
 31
0.0
  0
LINE
  5
33E
330
1F
100
AcDbEntity
  8
仕上
  6
Continuous
 62
     3
370
     9
100
AcDbLine
 10
-187.9999150456609
 20
425.4962258186479
 30
0.0
 11
-187.9999150456609
 21
407.4961169451261
 31
0.0
  0
LINE
  5
33F
330
1F
100
AcDbEntity
  8
仕上
  6
Continuous
 62
     3
370
     9
100
AcDbLine
 10
-179.9999628840267
 20
425.4962258186479
 30
0.0
 11
-187.9999150456609
 21
425.4962258186479
 31
0.0
  0
LINE
  5
340
330
1F
100
AcDbEntity
  8
仕上
  6
Continuous
 62
     3
370
     9
100
AcDbLine
 10
-163.9998853528823
 20
450.4960113708018
 30
0.0
 11
-203.9998193689297
 21
450.4960113708018
 31
0.0
  0
LINE
  5
341
330
1F
100
AcDbEntity
  8
仕上
  6
Continuous
 62
     3
370
     9
100
AcDbLine
 10
-203.9998193689297
 20
450.4960113708018
 30
0.0
 11
-203.9998193689297
 21
432.4960757051556
 31
0.0
  0
LINE
  5
342
330
1F
100
AcDbEntity
  8
仕上
  6
Continuous
 62
     3
370
     9
100
AcDbLine
 10
-163.9998853528823
 20
432.4960757051556
 30
0.0
 11
-203.9998193689297
 21
432.4960757051556
 31
0.0
  0
LINE
  5
343
330
1F
100
AcDbEntity
  8
仕上
  6
Continuous
 62
     3
370
     9
100
AcDbLine
 10
-163.9998853528823
 20
450.4960113708018
 30
0.0
 11
-163.9998853528823
 21
432.4960757051556
 31
0.0
  0
LINE
  5
344
330
1F
100
AcDbEntity
  8
仕上
  6
Continuous
 62
     3
370
     9
100
AcDbLine
 10
-220.9998259673247
 20
425.4962258186479
 30
0.0
 11
-220.9998259673247
 21
407.4961169451261
 31
0.0
  0
LINE
  5
345
330
1F
100
AcDbEntity
  8
仕上
  6
Continuous
 62
     3
370
     9
100
AcDbLine
 10
-192.999906797667
 20
425.4962258186479
 30
0.0
 11
-220.9998259673247
 21
425.4962258186479
 31
0.0
  0
LINE
  5
346
330
1F
100
AcDbEntity
  8
仕上
  6
Continuous
 62
     3
370
     9
100
AcDbLine
 10
-192.999906797667
 20
425.4962258186479
 30
0.0
 11
-192.999906797667
 21
407.4961169451261
 31
0.0
  0
LINE
  5
347
330
1F
100
AcDbEntity
  8
仕上
  6
Continuous
 62
     3
370
     9
100
AcDbLine
 10
-192.999906797667
 20
407.4961169451261
 30
0.0
 11
-220.9998259673247
 21
407.4961169451261
 31
0.0
  0
LINE
  5
348
330
1F
100
AcDbEntity
  8
仕上
  6
Continuous
 62
     3
370
     9
100
AcDbLine
 10
-225.9998177193308
 20
425.4962258186479
 30
0.0
 11
-225.9998177193308
 21
407.4961169451261
 31
0.0
  0
LINE
  5
349
330
1F
100
AcDbEntity
  8
仕上
  6
Continuous
 62
     3
370
     9
100
AcDbLine
 10
-225.9998177193308
 20
407.4961169451261
 30
0.0
 11
-233.9998564849029
 21
407.4961169451261
 31
0.0
  0
LINE
  5
34A
330
1F
100
AcDbEntity
  8
仕上
  6
Continuous
 62
     3
370
     9
100
AcDbLine
 10
-233.9998564849029
 20
425.4962258186479
 30
0.0
 11
-233.9998564849029
 21
407.4961169451261
 31
0.0
  0
LINE
  5
34B
330
1F
100
AcDbEntity
  8
仕上
  6
Continuous
 62
     3
370
     9
100
AcDbLine
 10
-225.9998177193308
 20
425.4962258186479
 30
0.0
 11
-233.9998564849029
 21
425.4962258186479
 31
0.0
  0
LINE
  5
34C
330
1F
100
AcDbEntity
  8
仕上
  6
Continuous
 62
     3
370
     9
100
AcDbLine
 10
-209.9998267921242
 20
450.4960113708018
 30
0.0
 11
-249.9998474121094
 21
450.4960113708018
 31
0.0
  0
LINE
  5
34D
330
1F
100
AcDbEntity
  8
仕上
  6
Continuous
 62
     3
370
     9
100
AcDbLine
 10
-249.9998474121094
 20
450.4960113708018
 30
0.0
 11
-249.9998474121094
 21
432.4960757051556
 31
0.0
  0
LINE
  5
34E
330
1F
100
AcDbEntity
  8
仕上
  6
Continuous
 62
     3
370
     9
100
AcDbLine
 10
-209.9998267921242
 20
432.4960757051556
 30
0.0
 11
-249.9998474121094
 21
432.4960757051556
 31
0.0
  0
LINE
  5
34F
330
1F
100
AcDbEntity
  8
仕上
  6
Continuous
 62
     3
370
     9
100
AcDbLine
 10
-209.9998267921242
 20
450.4960113708018
 30
0.0
 11
-209.9998267921242
 21
432.4960757051556
 31
0.0
  0
LINE
  5
350
330
1F
100
AcDbEntity
  8
仕上
  6
Continuous
 62
     3
370
     9
100
AcDbLine
 10
-266.9998540105047
 20
425.4962258186479
 30
0.0
 11
-266.9998540105047
 21
407.4961169451261
 31
0.0
  0
LINE
  5
351
330
1F
100
AcDbEntity
  8
仕上
  6
Continuous
 62
     3
370
     9
100
AcDbLine
 10
-238.9997616329709
 20
425.4962258186479
 30
0.0
 11
-266.9998540105047
 21
425.4962258186479
 31
0.0
  0
LINE
  5
352
330
1F
100
AcDbEntity
  8
仕上
  6
Continuous
 62
     3
370
     9
100
AcDbLine
 10
-238.9997616329709
 20
425.4962258186479
 30
0.0
 11
-238.9997616329709
 21
407.4961169451261
 31
0.0
  0
LINE
  5
353
330
1F
100
AcDbEntity
  8
仕上
  6
Continuous
 62
     3
370
     9
100
AcDbLine
 10
-238.9997616329709
 20
407.4961169451261
 30
0.0
 11
-266.9998540105047
 21
407.4961169451261
 31
0.0
  0
LINE
  5
354
330
1F
100
AcDbEntity
  8
仕上
  6
Continuous
 62
     3
370
     9
100
AcDbLine
 10
-271.9998457625107
 20
425.4962258186479
 30
0.0
 11
-271.9998457625107
 21
407.4961169451261
 31
0.0
  0
LINE
  5
355
330
1F
100
AcDbEntity
  8
仕上
  6
Continuous
 62
     3
370
     9
100
AcDbLine
 10
-271.9998457625107
 20
407.4961169451261
 30
0.0
 11
-279.9998845280828
 21
407.4961169451261
 31
0.0
  0
LINE
  5
356
330
1F
100
AcDbEntity
  8
仕上
  6
Continuous
 62
     3
370
     9
100
AcDbLine
 10
-255.9998548353041
 20
450.4960113708018
 30
0.0
 11
-255.9998548353041
 21
432.4960757051556
 31
0.0
  0
LINE
  5
357
330
1F
100
AcDbEntity
  8
仕上
  6
Continuous
 62
     3
370
     9
100
AcDbLine
 10
-3.999889476879304
 20
425.4962258186479
 30
0.0
 11
-3.999889476879304
 21
407.4961169451261
 31
0.0
  0
LINE
  5
358
330
1F
100
AcDbEntity
  8
仕上
  6
Continuous
 62
     3
370
     9
100
AcDbLine
 10
-19.9999670080237
 20
450.4960113708018
 30
0.0
 11
-19.9999670080237
 21
432.4960757051556
 31
0.0
  0
LINE
  5
359
330
1F
100
AcDbEntity
  8
仕上
  6
Continuous
 62
     3
370
     9
100
AcDbLine
 10
-36.99997360641896
 20
475.4961433387072
 30
0.0
 11
-36.99997360641896
 21
457.4960344651852
 31
0.0
  0
LINE
  5
35A
330
1F
100
AcDbEntity
  8
仕上
  6
Continuous
 62
     3
370
     9
100
AcDbLine
 10
-8.99988122888513
 20
475.4961433387072
 30
0.0
 11
-36.99997360641896
 21
475.4961433387072
 31
0.0
  0
LINE
  5
35B
330
1F
100
AcDbEntity
  8
仕上
  6
Continuous
 62
     3
370
     9
100
AcDbLine
 10
-8.99988122888513
 20
475.4961433387072
 30
0.0
 11
-8.99988122888513
 21
457.4960344651852
 31
0.0
  0
LINE
  5
35C
330
1F
100
AcDbEntity
  8
仕上
  6
Continuous
 62
     3
370
     9
100
AcDbLine
 10
-8.99988122888513
 20
457.4960344651852
 30
0.0
 11
-36.99997360641896
 21
457.4960344651852
 31
0.0
  0
LINE
  5
35D
330
1F
100
AcDbEntity
  8
仕上
  6
Continuous
 62
     3
370
     9
100
AcDbLine
 10
-41.99996535842479
 20
475.4961433387072
 30
0.0
 11
-41.99996535842479
 21
457.4960344651852
 31
0.0
  0
LINE
  5
35E
330
1F
100
AcDbEntity
  8
仕上
  6
Continuous
 62
     3
370
     9
100
AcDbLine
 10
-41.99996535842479
 20
457.4960344651852
 30
0.0
 11
-50.00000412399709
 21
457.4960344651852
 31
0.0
  0
LINE
  5
35F
330
1F
100
AcDbEntity
  8
仕上
  6
Continuous
 62
     3
370
     9
100
AcDbLine
 10
-50.00000412399709
 20
475.4961433387072
 30
0.0
 11
-50.00000412399709
 21
457.4960344651852
 31
0.0
  0
LINE
  5
360
330
1F
100
AcDbEntity
  8
仕上
  6
Continuous
 62
     3
370
     9
100
AcDbLine
 10
-41.99996535842479
 20
475.4961433387072
 30
0.0
 11
-50.00000412399709
 21
475.4961433387072
 31
0.0
  0
LINE
  5
361
330
1F
100
AcDbEntity
  8
仕上
  6
Continuous
 62
     3
370
     9
100
AcDbLine
 10
-25.99988782728039
 20
500.4961020987367
 30
0.0
 11
-65.99990844726562
 21
500.4961020987367
 31
0.0
  0
LINE
  5
362
330
1F
100
AcDbEntity
  8
仕上
  6
Continuous
 62
     3
370
     9
100
AcDbLine
 10
-65.99990844726562
 20
500.4961020987367
 30
0.0
 11
-65.99990844726562
 21
482.4959932252147
 31
0.0
  0
LINE
  5
363
330
1F
100
AcDbEntity
  8
仕上
  6
Continuous
 62
     3
370
     9
100
AcDbLine
 10
-25.99988782728039
 20
482.4959932252147
 30
0.0
 11
-65.99990844726562
 21
482.4959932252147
 31
0.0
  0
LINE
  5
364
330
1F
100
AcDbEntity
  8
仕上
  6
Continuous
 62
     3
370
     9
100
AcDbLine
 10
-25.99988782728039
 20
500.4961020987367
 30
0.0
 11
-25.99988782728039
 21
482.4959932252147
 31
0.0
  0
LINE
  5
365
330
1F
100
AcDbEntity
  8
仕上
  6
Continuous
 62
     3
370
     9
100
AcDbLine
 10
-82.99991504566094
 20
475.4961433387072
 30
0.0
 11
-82.99991504566094
 21
457.4960344651852
 31
0.0
  0
LINE
  5
366
330
1F
100
AcDbEntity
  8
仕上
  6
Continuous
 62
     3
370
     9
100
AcDbLine
 10
-54.99990927206508
 20
475.4961433387072
 30
0.0
 11
-82.99991504566094
 21
475.4961433387072
 31
0.0
  0
LINE
  5
367
330
1F
100
AcDbEntity
  8
仕上
  6
Continuous
 62
     3
370
     9
100
AcDbLine
 10
-54.99990927206508
 20
475.4961433387072
 30
0.0
 11
-54.99990927206508
 21
457.4960344651852
 31
0.0
  0
LINE
  5
368
330
1F
100
AcDbEntity
  8
仕上
  6
Continuous
 62
     3
370
     9
100
AcDbLine
 10
-54.99990927206508
 20
457.4960344651852
 30
0.0
 11
-82.99991504566094
 21
457.4960344651852
 31
0.0
  0
LINE
  5
369
330
1F
100
AcDbEntity
  8
仕上
  6
Continuous
 62
     3
370
     9
100
AcDbLine
 10
-88.00008000554283
 20
475.4961433387072
 30
0.0
 11
-88.00008000554283
 21
457.4960344651852
 31
0.0
  0
LINE
  5
36A
330
1F
100
AcDbEntity
  8
仕上
  6
Continuous
 62
     3
370
     9
100
AcDbLine
 10
-88.00008000554283
 20
457.4960344651852
 30
0.0
 11
-95.99994556323907
 21
457.4960344651852
 31
0.0
  0
LINE
  5
36B
330
1F
100
AcDbEntity
  8
仕上
  6
Continuous
 62
     3
370
     9
100
AcDbLine
 10
-95.99994556323907
 20
475.4961433387072
 30
0.0
 11
-95.99994556323907
 21
457.4960344651852
 31
0.0
  0
LINE
  5
36C
330
1F
100
AcDbEntity
  8
仕上
  6
Continuous
 62
     3
370
     9
100
AcDbLine
 10
-88.00008000554283
 20
475.4961433387072
 30
0.0
 11
-95.99994556323907
 21
475.4961433387072
 31
0.0
  0
LINE
  5
36D
330
1F
100
AcDbEntity
  8
仕上
  6
Continuous
 62
     3
370
     9
100
AcDbLine
 10
-71.99982926652251
 20
500.4961020987367
 30
0.0
 11
-111.9999364904456
 21
500.4961020987367
 31
0.0
  0
LINE
  5
36E
330
1F
100
AcDbEntity
  8
仕上
  6
Continuous
 62
     3
370
     9
100
AcDbLine
 10
-111.9999364904456
 20
500.4961020987367
 30
0.0
 11
-111.9999364904456
 21
482.4959932252147
 31
0.0
  0
LINE
  5
36F
330
1F
100
AcDbEntity
  8
仕上
  6
Continuous
 62
     3
370
     9
100
AcDbLine
 10
-71.99982926652251
 20
482.4959932252147
 30
0.0
 11
-111.9999364904456
 21
482.4959932252147
 31
0.0
  0
LINE
  5
370
330
1F
100
AcDbEntity
  8
仕上
  6
Continuous
 62
     3
370
     9
100
AcDbLine
 10
-71.99982926652251
 20
500.4961020987367
 30
0.0
 11
-71.99982926652251
 21
482.4959932252147
 31
0.0
  0
LINE
  5
371
330
1F
100
AcDbEntity
  8
仕上
  6
Continuous
 62
     3
370
     9
100
AcDbLine
 10
-128.999769880965
 20
475.4961433387072
 30
0.0
 11
-128.999769880965
 21
457.4960344651852
 31
0.0
  0
LINE
  5
372
330
1F
100
AcDbEntity
  8
仕上
  6
Continuous
 62
     3
370
     9
100
AcDbLine
 10
-101.0000239191829
 20
475.4961433387072
 30
0.0
 11
-128.999769880965
 21
475.4961433387072
 31
0.0
  0
LINE
  5
373
330
1F
100
AcDbEntity
  8
仕上
  6
Continuous
 62
     3
370
     9
100
AcDbLine
 10
-101.0000239191829
 20
475.4961433387072
 30
0.0
 11
-101.0000239191829
 21
457.4960344651852
 31
0.0
  0
LINE
  5
374
330
1F
100
AcDbEntity
  8
仕上
  6
Continuous
 62
     3
370
     9
100
AcDbLine
 10
-101.0000239191829
 20
457.4960344651852
 30
0.0
 11
-128.999769880965
 21
457.4960344651852
 31
0.0
  0
LINE
  5
375
330
1F
100
AcDbEntity
  8
仕上
  6
Continuous
 62
     3
370
     9
100
AcDbLine
 10
-133.9998482369089
 20
475.4961433387072
 30
0.0
 11
-133.9998482369089
 21
457.4960344651852
 31
0.0
  0
LINE
  5
376
330
1F
100
AcDbEntity
  8
仕上
  6
Continuous
 62
     3
370
     9
100
AcDbLine
 10
-133.9998482369089
 20
457.4960344651852
 30
0.0
 11
-141.9998870024812
 21
457.4960344651852
 31
0.0
  0
LINE
  5
377
330
1F
100
AcDbEntity
  8
仕上
  6
Continuous
 62
     3
370
     9
100
AcDbLine
 10
-141.9998870024812
 20
475.4961433387072
 30
0.0
 11
-141.9998870024812
 21
457.4960344651852
 31
0.0
  0
LINE
  5
378
330
1F
100
AcDbEntity
  8
仕上
  6
Continuous
 62
     3
370
     9
100
AcDbLine
 10
-133.9998482369089
 20
475.4961433387072
 30
0.0
 11
-141.9998870024812
 21
475.4961433387072
 31
0.0
  0
LINE
  5
379
330
1F
100
AcDbEntity
  8
仕上
  6
Continuous
 62
     3
370
     9
100
AcDbLine
 10
-117.9998573097023
 20
500.4961020987367
 30
0.0
 11
-157.9997913257497
 21
500.4961020987367
 31
0.0
  0
LINE
  5
37A
330
1F
100
AcDbEntity
  8
仕上
  6
Continuous
 62
     3
370
     9
100
AcDbLine
 10
-157.9997913257497
 20
500.4961020987367
 30
0.0
 11
-157.9997913257497
 21
482.4959932252147
 31
0.0
  0
LINE
  5
37B
330
1F
100
AcDbEntity
  8
仕上
  6
Continuous
 62
     3
370
     9
100
AcDbLine
 10
-117.9998573097023
 20
482.4959932252147
 30
0.0
 11
-157.9997913257497
 21
482.4959932252147
 31
0.0
  0
LINE
  5
37C
330
1F
100
AcDbEntity
  8
仕上
  6
Continuous
 62
     3
370
     9
100
AcDbLine
 10
-117.9998573097023
 20
500.4961020987367
 30
0.0
 11
-117.9998573097023
 21
482.4959932252147
 31
0.0
  0
LINE
  5
37D
330
1F
100
AcDbEntity
  8
仕上
  6
Continuous
 62
     3
370
     9
100
AcDbLine
 10
-174.9998845280828
 20
475.4961433387072
 30
0.0
 11
-174.9998845280828
 21
457.4960344651852
 31
0.0
  0
LINE
  5
37E
330
1F
100
AcDbEntity
  8
仕上
  6
Continuous
 62
     3
370
     9
100
AcDbLine
 10
-146.999878754487
 20
475.4961433387072
 30
0.0
 11
-174.9998845280828
 21
475.4961433387072
 31
0.0
  0
LINE
  5
37F
330
1F
100
AcDbEntity
  8
仕上
  6
Continuous
 62
     3
370
     9
100
AcDbLine
 10
-146.999878754487
 20
475.4961433387072
 30
0.0
 11
-146.999878754487
 21
457.4960344651852
 31
0.0
  0
LINE
  5
380
330
1F
100
AcDbEntity
  8
仕上
  6
Continuous
 62
     3
370
     9
100
AcDbLine
 10
-146.999878754487
 20
457.4960344651852
 30
0.0
 11
-174.9998845280828
 21
457.4960344651852
 31
0.0
  0
LINE
  5
381
330
1F
100
AcDbEntity
  8
仕上
  6
Continuous
 62
     3
370
     9
100
AcDbLine
 10
-179.9999628840267
 20
475.4961433387072
 30
0.0
 11
-179.9999628840267
 21
457.4960344651852
 31
0.0
  0
LINE
  5
382
330
1F
100
AcDbEntity
  8
仕上
  6
Continuous
 62
     3
370
     9
100
AcDbLine
 10
-179.9999628840267
 20
457.4960344651852
 30
0.0
 11
-187.9999150456609
 21
457.4960344651852
 31
0.0
  0
LINE
  5
383
330
1F
100
AcDbEntity
  8
仕上
  6
Continuous
 62
     3
370
     9
100
AcDbLine
 10
-187.9999150456609
 20
475.4961433387072
 30
0.0
 11
-187.9999150456609
 21
457.4960344651852
 31
0.0
  0
LINE
  5
384
330
1F
100
AcDbEntity
  8
仕上
  6
Continuous
 62
     3
370
     9
100
AcDbLine
 10
-179.9999628840267
 20
475.4961433387072
 30
0.0
 11
-187.9999150456609
 21
475.4961433387072
 31
0.0
  0
LINE
  5
385
330
1F
100
AcDbEntity
  8
仕上
  6
Continuous
 62
     3
370
     9
100
AcDbLine
 10
-163.9998853528823
 20
500.4961020987367
 30
0.0
 11
-203.9998193689297
 21
500.4961020987367
 31
0.0
  0
LINE
  5
386
330
1F
100
AcDbEntity
  8
仕上
  6
Continuous
 62
     3
370
     9
100
AcDbLine
 10
-203.9998193689297
 20
500.4961020987367
 30
0.0
 11
-203.9998193689297
 21
482.4959932252147
 31
0.0
  0
LINE
  5
387
330
1F
100
AcDbEntity
  8
仕上
  6
Continuous
 62
     3
370
     9
100
AcDbLine
 10
-163.9998853528823
 20
482.4959932252147
 30
0.0
 11
-203.9998193689297
 21
482.4959932252147
 31
0.0
  0
LINE
  5
388
330
1F
100
AcDbEntity
  8
仕上
  6
Continuous
 62
     3
370
     9
100
AcDbLine
 10
-163.9998853528823
 20
500.4961020987367
 30
0.0
 11
-163.9998853528823
 21
482.4959932252147
 31
0.0
  0
LINE
  5
389
330
1F
100
AcDbEntity
  8
仕上
  6
Continuous
 62
     3
370
     9
100
AcDbLine
 10
-220.9998259673247
 20
475.4961433387072
 30
0.0
 11
-220.9998259673247
 21
457.4960344651852
 31
0.0
  0
LINE
  5
38A
330
1F
100
AcDbEntity
  8
仕上
  6
Continuous
 62
     3
370
     9
100
AcDbLine
 10
-192.999906797667
 20
475.4961433387072
 30
0.0
 11
-220.9998259673247
 21
475.4961433387072
 31
0.0
  0
LINE
  5
38B
330
1F
100
AcDbEntity
  8
仕上
  6
Continuous
 62
     3
370
     9
100
AcDbLine
 10
-192.999906797667
 20
475.4961433387072
 30
0.0
 11
-192.999906797667
 21
457.4960344651852
 31
0.0
  0
LINE
  5
38C
330
1F
100
AcDbEntity
  8
仕上
  6
Continuous
 62
     3
370
     9
100
AcDbLine
 10
-192.999906797667
 20
457.4960344651852
 30
0.0
 11
-220.9998259673247
 21
457.4960344651852
 31
0.0
  0
LINE
  5
38D
330
1F
100
AcDbEntity
  8
仕上
  6
Continuous
 62
     3
370
     9
100
AcDbLine
 10
-225.9998177193308
 20
475.4961433387072
 30
0.0
 11
-225.9998177193308
 21
457.4960344651852
 31
0.0
  0
LINE
  5
38E
330
1F
100
AcDbEntity
  8
仕上
  6
Continuous
 62
     3
370
     9
100
AcDbLine
 10
-225.9998177193308
 20
457.4960344651852
 30
0.0
 11
-233.9998564849029
 21
457.4960344651852
 31
0.0
  0
LINE
  5
38F
330
1F
100
AcDbEntity
  8
仕上
  6
Continuous
 62
     3
370
     9
100
AcDbLine
 10
-233.9998564849029
 20
475.4961433387072
 30
0.0
 11
-233.9998564849029
 21
457.4960344651852
 31
0.0
  0
LINE
  5
390
330
1F
100
AcDbEntity
  8
仕上
  6
Continuous
 62
     3
370
     9
100
AcDbLine
 10
-225.9998177193308
 20
475.4961433387072
 30
0.0
 11
-233.9998564849029
 21
475.4961433387072
 31
0.0
  0
LINE
  5
391
330
1F
100
AcDbEntity
  8
仕上
  6
Continuous
 62
     3
370
     9
100
AcDbLine
 10
-209.9998267921242
 20
500.4961020987367
 30
0.0
 11
-209.9998267921242
 21
482.4959932252147
 31
0.0
  0
LINE
  5
392
330
1F
100
AcDbEntity
  8
仕上
  6
Continuous
 62
     3
370
     9
100
AcDbLine
 10
-238.9997616329709
 20
475.4961433387072
 30
0.0
 11
-238.9997616329709
 21
457.4960344651852
 31
0.0
  0
LINE
  5
393
330
1F
100
AcDbEntity
  8
仕上
  6
Continuous
 62
     3
370
     9
100
AcDbLine
 10
-3.999889476879304
 20
475.4961433387072
 30
0.0
 11
-3.999889476879304
 21
457.4960344651852
 31
0.0
  0
LINE
  5
394
330
1F
100
AcDbEntity
  8
仕上
  6
Continuous
 62
     3
370
     9
100
AcDbLine
 10
-19.9999670080237
 20
500.4961020987367
 30
0.0
 11
-19.9999670080237
 21
482.4959932252147
 31
0.0
  0
LINE
  5
395
330
1F
100
AcDbEntity
  8
仕上
  6
Continuous
 62
     3
370
     9
100
AcDbLine
 10
-36.99997360641896
 20
525.4960608587662
 30
0.0
 11
-36.99997360641896
 21
507.4959519852442
 31
0.0
  0
LINE
  5
396
330
1F
100
AcDbEntity
  8
仕上
  6
Continuous
 62
     3
370
     9
100
AcDbLine
 10
-8.99988122888513
 20
525.4960608587662
 30
0.0
 11
-36.99997360641896
 21
525.4960608587662
 31
0.0
  0
LINE
  5
397
330
1F
100
AcDbEntity
  8
仕上
  6
Continuous
 62
     3
370
     9
100
AcDbLine
 10
-8.99988122888513
 20
525.4960608587662
 30
0.0
 11
-8.99988122888513
 21
507.4959519852442
 31
0.0
  0
LINE
  5
398
330
1F
100
AcDbEntity
  8
仕上
  6
Continuous
 62
     3
370
     9
100
AcDbLine
 10
-8.99988122888513
 20
507.4959519852442
 30
0.0
 11
-36.99997360641896
 21
507.4959519852442
 31
0.0
  0
LINE
  5
399
330
1F
100
AcDbEntity
  8
仕上
  6
Continuous
 62
     3
370
     9
100
AcDbLine
 10
-41.99996535842479
 20
525.4960608587662
 30
0.0
 11
-41.99996535842479
 21
507.4959519852442
 31
0.0
  0
LINE
  5
39A
330
1F
100
AcDbEntity
  8
仕上
  6
Continuous
 62
     3
370
     9
100
AcDbLine
 10
-41.99996535842479
 20
507.4959519852442
 30
0.0
 11
-50.00000412399709
 21
507.4959519852442
 31
0.0
  0
LINE
  5
39B
330
1F
100
AcDbEntity
  8
仕上
  6
Continuous
 62
     3
370
     9
100
AcDbLine
 10
-50.00000412399709
 20
525.4960608587662
 30
0.0
 11
-50.00000412399709
 21
507.4959519852442
 31
0.0
  0
LINE
  5
39C
330
1F
100
AcDbEntity
  8
仕上
  6
Continuous
 62
     3
370
     9
100
AcDbLine
 10
-41.99996535842479
 20
525.4960608587662
 30
0.0
 11
-50.00000412399709
 21
525.4960608587662
 31
0.0
  0
LINE
  5
39D
330
1F
100
AcDbEntity
  8
仕上
  6
Continuous
 62
     3
370
     9
100
AcDbLine
 10
-25.99988782728039
 20
550.4960196187958
 30
0.0
 11
-65.99990844726562
 21
550.4960196187958
 31
0.0
  0
LINE
  5
39E
330
1F
100
AcDbEntity
  8
仕上
  6
Continuous
 62
     3
370
     9
100
AcDbLine
 10
-65.99990844726562
 20
550.4960196187958
 30
0.0
 11
-65.99990844726562
 21
532.4960839531497
 31
0.0
  0
LINE
  5
39F
330
1F
100
AcDbEntity
  8
仕上
  6
Continuous
 62
     3
370
     9
100
AcDbLine
 10
-25.99988782728039
 20
532.4960839531497
 30
0.0
 11
-65.99990844726562
 21
532.4960839531497
 31
0.0
  0
LINE
  5
3A0
330
1F
100
AcDbEntity
  8
仕上
  6
Continuous
 62
     3
370
     9
100
AcDbLine
 10
-25.99988782728039
 20
550.4960196187958
 30
0.0
 11
-25.99988782728039
 21
532.4960839531497
 31
0.0
  0
LINE
  5
3A1
330
1F
100
AcDbEntity
  8
仕上
  6
Continuous
 62
     3
370
     9
100
AcDbLine
 10
-82.99991504566094
 20
525.4960608587662
 30
0.0
 11
-82.99991504566094
 21
507.4959519852442
 31
0.0
  0
LINE
  5
3A2
330
1F
100
AcDbEntity
  8
仕上
  6
Continuous
 62
     3
370
     9
100
AcDbLine
 10
-54.99990927206508
 20
525.4960608587662
 30
0.0
 11
-82.99991504566094
 21
525.4960608587662
 31
0.0
  0
LINE
  5
3A3
330
1F
100
AcDbEntity
  8
仕上
  6
Continuous
 62
     3
370
     9
100
AcDbLine
 10
-54.99990927206508
 20
525.4960608587662
 30
0.0
 11
-54.99990927206508
 21
507.4959519852442
 31
0.0
  0
LINE
  5
3A4
330
1F
100
AcDbEntity
  8
仕上
  6
Continuous
 62
     3
370
     9
100
AcDbLine
 10
-54.99990927206508
 20
507.4959519852442
 30
0.0
 11
-82.99991504566094
 21
507.4959519852442
 31
0.0
  0
LINE
  5
3A5
330
1F
100
AcDbEntity
  8
仕上
  6
Continuous
 62
     3
370
     9
100
AcDbLine
 10
-88.00008000554283
 20
525.4960608587662
 30
0.0
 11
-88.00008000554283
 21
507.4959519852442
 31
0.0
  0
LINE
  5
3A6
330
1F
100
AcDbEntity
  8
仕上
  6
Continuous
 62
     3
370
     9
100
AcDbLine
 10
-88.00008000554283
 20
507.4959519852442
 30
0.0
 11
-95.99994556323907
 21
507.4959519852442
 31
0.0
  0
LINE
  5
3A7
330
1F
100
AcDbEntity
  8
仕上
  6
Continuous
 62
     3
370
     9
100
AcDbLine
 10
-95.99994556323907
 20
525.4960608587662
 30
0.0
 11
-95.99994556323907
 21
507.4959519852442
 31
0.0
  0
LINE
  5
3A8
330
1F
100
AcDbEntity
  8
仕上
  6
Continuous
 62
     3
370
     9
100
AcDbLine
 10
-88.00008000554283
 20
525.4960608587662
 30
0.0
 11
-95.99994556323907
 21
525.4960608587662
 31
0.0
  0
LINE
  5
3A9
330
1F
100
AcDbEntity
  8
仕上
  6
Continuous
 62
     3
370
     9
100
AcDbLine
 10
-71.99982926652251
 20
550.4960196187958
 30
0.0
 11
-111.9999364904456
 21
550.4960196187958
 31
0.0
  0
LINE
  5
3AA
330
1F
100
AcDbEntity
  8
仕上
  6
Continuous
 62
     3
370
     9
100
AcDbLine
 10
-111.9999364904456
 20
550.4960196187958
 30
0.0
 11
-111.9999364904456
 21
532.4960839531497
 31
0.0
  0
LINE
  5
3AB
330
1F
100
AcDbEntity
  8
仕上
  6
Continuous
 62
     3
370
     9
100
AcDbLine
 10
-71.99982926652251
 20
532.4960839531497
 30
0.0
 11
-111.9999364904456
 21
532.4960839531497
 31
0.0
  0
LINE
  5
3AC
330
1F
100
AcDbEntity
  8
仕上
  6
Continuous
 62
     3
370
     9
100
AcDbLine
 10
-71.99982926652251
 20
550.4960196187958
 30
0.0
 11
-71.99982926652251
 21
532.4960839531497
 31
0.0
  0
LINE
  5
3AD
330
1F
100
AcDbEntity
  8
仕上
  6
Continuous
 62
     3
370
     9
100
AcDbLine
 10
-128.999769880965
 20
525.4960608587662
 30
0.0
 11
-128.999769880965
 21
507.4959519852442
 31
0.0
  0
LINE
  5
3AE
330
1F
100
AcDbEntity
  8
仕上
  6
Continuous
 62
     3
370
     9
100
AcDbLine
 10
-101.0000239191829
 20
525.4960608587662
 30
0.0
 11
-128.999769880965
 21
525.4960608587662
 31
0.0
  0
LINE
  5
3AF
330
1F
100
AcDbEntity
  8
仕上
  6
Continuous
 62
     3
370
     9
100
AcDbLine
 10
-101.0000239191829
 20
525.4960608587662
 30
0.0
 11
-101.0000239191829
 21
507.4959519852442
 31
0.0
  0
LINE
  5
3B0
330
1F
100
AcDbEntity
  8
仕上
  6
Continuous
 62
     3
370
     9
100
AcDbLine
 10
-101.0000239191829
 20
507.4959519852442
 30
0.0
 11
-128.999769880965
 21
507.4959519852442
 31
0.0
  0
LINE
  5
3B1
330
1F
100
AcDbEntity
  8
仕上
  6
Continuous
 62
     3
370
     9
100
AcDbLine
 10
-133.9998482369089
 20
525.4960608587662
 30
0.0
 11
-133.9998482369089
 21
507.4959519852442
 31
0.0
  0
LINE
  5
3B2
330
1F
100
AcDbEntity
  8
仕上
  6
Continuous
 62
     3
370
     9
100
AcDbLine
 10
-133.9998482369089
 20
507.4959519852442
 30
0.0
 11
-141.9998870024812
 21
507.4959519852442
 31
0.0
  0
LINE
  5
3B3
330
1F
100
AcDbEntity
  8
仕上
  6
Continuous
 62
     3
370
     9
100
AcDbLine
 10
-141.9998870024812
 20
525.4960608587662
 30
0.0
 11
-141.9998870024812
 21
507.4959519852442
 31
0.0
  0
LINE
  5
3B4
330
1F
100
AcDbEntity
  8
仕上
  6
Continuous
 62
     3
370
     9
100
AcDbLine
 10
-133.9998482369089
 20
525.4960608587662
 30
0.0
 11
-141.9998870024812
 21
525.4960608587662
 31
0.0
  0
LINE
  5
3B5
330
1F
100
AcDbEntity
  8
仕上
  6
Continuous
 62
     3
370
     9
100
AcDbLine
 10
-117.9998573097023
 20
550.4960196187958
 30
0.0
 11
-157.9997913257497
 21
550.4960196187958
 31
0.0
  0
LINE
  5
3B6
330
1F
100
AcDbEntity
  8
仕上
  6
Continuous
 62
     3
370
     9
100
AcDbLine
 10
-157.9997913257497
 20
550.4960196187958
 30
0.0
 11
-157.9997913257497
 21
532.4960839531497
 31
0.0
  0
LINE
  5
3B7
330
1F
100
AcDbEntity
  8
仕上
  6
Continuous
 62
     3
370
     9
100
AcDbLine
 10
-117.9998573097023
 20
532.4960839531497
 30
0.0
 11
-157.9997913257497
 21
532.4960839531497
 31
0.0
  0
LINE
  5
3B8
330
1F
100
AcDbEntity
  8
仕上
  6
Continuous
 62
     3
370
     9
100
AcDbLine
 10
-117.9998573097023
 20
550.4960196187958
 30
0.0
 11
-117.9998573097023
 21
532.4960839531497
 31
0.0
  0
LINE
  5
3B9
330
1F
100
AcDbEntity
  8
仕上
  6
Continuous
 62
     3
370
     9
100
AcDbLine
 10
-174.9998845280828
 20
525.4960608587662
 30
0.0
 11
-174.9998845280828
 21
507.4959519852442
 31
0.0
  0
LINE
  5
3BA
330
1F
100
AcDbEntity
  8
仕上
  6
Continuous
 62
     3
370
     9
100
AcDbLine
 10
-146.999878754487
 20
525.4960608587662
 30
0.0
 11
-174.9998845280828
 21
525.4960608587662
 31
0.0
  0
LINE
  5
3BB
330
1F
100
AcDbEntity
  8
仕上
  6
Continuous
 62
     3
370
     9
100
AcDbLine
 10
-146.999878754487
 20
525.4960608587662
 30
0.0
 11
-146.999878754487
 21
507.4959519852442
 31
0.0
  0
LINE
  5
3BC
330
1F
100
AcDbEntity
  8
仕上
  6
Continuous
 62
     3
370
     9
100
AcDbLine
 10
-146.999878754487
 20
507.4959519852442
 30
0.0
 11
-174.9998845280828
 21
507.4959519852442
 31
0.0
  0
LINE
  5
3BD
330
1F
100
AcDbEntity
  8
仕上
  6
Continuous
 62
     3
370
     9
100
AcDbLine
 10
-179.9999628840267
 20
525.4960608587662
 30
0.0
 11
-179.9999628840267
 21
507.4959519852442
 31
0.0
  0
LINE
  5
3BE
330
1F
100
AcDbEntity
  8
仕上
  6
Continuous
 62
     3
370
     9
100
AcDbLine
 10
-179.9999628840267
 20
507.4959519852442
 30
0.0
 11
-187.9999150456609
 21
507.4959519852442
 31
0.0
  0
LINE
  5
3BF
330
1F
100
AcDbEntity
  8
仕上
  6
Continuous
 62
     3
370
     9
100
AcDbLine
 10
-187.9999150456609
 20
525.4960608587662
 30
0.0
 11
-187.9999150456609
 21
507.4959519852442
 31
0.0
  0
LINE
  5
3C0
330
1F
100
AcDbEntity
  8
仕上
  6
Continuous
 62
     3
370
     9
100
AcDbLine
 10
-179.9999628840267
 20
525.4960608587662
 30
0.0
 11
-187.9999150456609
 21
525.4960608587662
 31
0.0
  0
LINE
  5
3C1
330
1F
100
AcDbEntity
  8
仕上
  6
Continuous
 62
     3
370
     9
100
AcDbLine
 10
-192.999906797667
 20
525.4960608587662
 30
0.0
 11
-192.999906797667
 21
507.4959519852442
 31
0.0
  0
LINE
  5
3C2
330
1F
100
AcDbEntity
  8
仕上
  6
Continuous
 62
     3
370
     9
100
AcDbLine
 10
-3.999889476879304
 20
525.4960608587662
 30
0.0
 11
-3.999889476879304
 21
507.4959519852442
 31
0.0
  0
LINE
  5
3C3
330
1F
100
AcDbEntity
  8
仕上
  6
Continuous
 62
     3
370
     9
100
AcDbLine
 10
-19.9999670080237
 20
550.4960196187958
 30
0.0
 11
-19.9999670080237
 21
532.4960839531497
 31
0.0
  0
LINE
  5
3C4
330
1F
100
AcDbEntity
  8
仕上
  6
Continuous
 62
     3
370
     9
100
AcDbLine
 10
-8.99988122888513
 20
575.4959783788253
 30
0.0
 11
-8.99988122888513
 21
557.4960427131791
 31
0.0
  0
LINE
  5
3C5
330
1F
100
AcDbEntity
  8
仕上
  6
Continuous
 62
     3
370
     9
100
AcDbLine
 10
-8.99988122888513
 20
557.4960427131791
 30
0.0
 11
-36.99997360641896
 21
557.4960427131791
 31
0.0
  0
LINE
  5
3C6
330
1F
100
AcDbEntity
  8
仕上
  6
Continuous
 62
     3
370
     9
100
AcDbLine
 10
-41.99996535842479
 20
557.4960427131791
 30
0.0
 11
-50.00000412399709
 21
557.4960427131791
 31
0.0
  0
LINE
  5
3C7
330
1F
100
AcDbEntity
  8
仕上
  6
Continuous
 62
     3
370
     9
100
AcDbLine
 10
-54.99990927206508
 20
557.4960427131791
 30
0.0
 11
-82.99991504566094
 21
557.4960427131791
 31
0.0
  0
LINE
  5
3C8
330
1F
100
AcDbEntity
  8
仕上
  6
Continuous
 62
     3
370
     9
100
AcDbLine
 10
-88.00008000554283
 20
557.4960427131791
 30
0.0
 11
-95.99994556323907
 21
557.4960427131791
 31
0.0
  0
LINE
  5
3C9
330
1F
100
AcDbEntity
  8
仕上
  6
Continuous
 62
     3
370
     9
100
AcDbLine
 10
-133.9998482369089
 20
557.4960427131791
 30
0.0
 11
-141.9998870024812
 21
557.4960427131791
 31
0.0
  0
LINE
  5
3CA
330
1F
100
AcDbEntity
  8
仕上
  6
Continuous
 62
     3
370
     9
100
AcDbLine
 10
-3.999889476879304
 20
575.4959783788253
 30
0.0
 11
-3.999889476879304
 21
557.4960427131791
 31
0.0
  0
LINE
  5
3CB
330
1F
100
AcDbEntity
  8
仕上
  6
Continuous
 62
     3
370
     9
100
AcDbLine
 10
-284.9999628840267
 20
375.4959618828372
 30
0.0
 11
-292.1641870447107
 21
375.4959618828372
 31
0.0
  0
LINE
  5
3CC
330
1F
100
AcDbEntity
  8
仕上
  6
Continuous
 62
     3
370
     9
100
AcDbLine
 10
-284.9999628840267
 20
357.4958530093152
 30
0.0
 11
-296.7489129143793
 21
357.4958530093152
 31
0.0
  0
LINE
  5
3CD
330
1F
100
AcDbEntity
  8
仕上
  6
Continuous
 62
     3
370
     9
100
AcDbLine
 10
-255.9998548353041
 20
382.4959849772205
 30
0.0
 11
-290.0602309768265
 21
382.4959849772205
 31
0.0
  0
LINE
  5
3CE
330
1F
100
AcDbEntity
  8
仕上
  6
Continuous
 62
     3
370
     9
100
AcDbLine
 10
-255.9998548353041
 20
400.4960938507425
 30
0.0
 11
-283.7867283176731
 21
400.4960938507425
 31
0.0
  0
LINE
  5
3CF
330
1F
100
AcDbEntity
  8
仕上
  6
Continuous
 62
     3
370
     9
100
AcDbLine
 10
-271.9998457625107
 20
425.4962258186479
 30
0.0
 11
-272.873333080395
 21
425.4962258186479
 31
0.0
  0
LINE
  5
3D0
330
1F
100
AcDbEntity
  8
仕上
  6
Continuous
 62
     3
370
     9
100
AcDbLine
 10
-279.9998845280828
 20
409.8849999687747
 30
0.0
 11
-279.9998845280828
 21
407.4961169451261
 31
0.0
  0
LINE
  5
3D1
330
1F
100
AcDbEntity
  8
仕上
  6
Continuous
 62
     3
370
     9
100
AcDbLine
 10
-255.9998548353041
 20
432.4960757051556
 30
0.0
 11
-269.3230046452703
 21
432.4960757051556
 31
0.0
  0
LINE
  5
3D2
330
1F
100
AcDbEntity
  8
仕上
  6
Continuous
 62
     3
370
     9
100
AcDbLine
 10
-255.9998548353041
 20
450.4960113708018
 30
0.0
 11
-259.103999782253
 21
450.4960113708018
 31
0.0
  0
LINE
  5
3D3
330
1F
100
AcDbEntity
  8
仕上
  6
Continuous
 62
     3
370
     9
100
AcDbLine
 10
-238.9997616329709
 20
457.4960344651852
 30
0.0
 11
-254.6761136441618
 21
457.4960344651852
 31
0.0
  0
LINE
  5
3D4
330
1F
100
AcDbEntity
  8
仕上
  6
Continuous
 62
     3
370
     9
100
AcDbLine
 10
-238.9997616329709
 20
475.4961433387072
 30
0.0
 11
-241.9914946684966
 21
475.4961433387072
 31
0.0
  0
LINE
  5
3D5
330
1F
100
AcDbEntity
  8
仕上
  6
Continuous
 62
     3
370
     9
100
AcDbLine
 10
-209.9998267921242
 20
482.4959932252147
 30
0.0
 11
-236.5055682208088
 21
482.4959932252147
 31
0.0
  0
LINE
  5
3D6
330
1F
100
AcDbEntity
  8
仕上
  6
Continuous
 62
     3
370
     9
100
AcDbLine
 10
-209.9998267921242
 20
500.4961020987367
 30
0.0
 11
-220.7597598514043
 21
500.4961020987367
 31
0.0
  0
LINE
  5
3D7
330
1F
100
AcDbEntity
  8
仕上
  6
Continuous
 62
     3
370
     9
100
AcDbLine
 10
-192.999906797667
 20
507.4959519852442
 30
0.0
 11
-213.9157104492188
 21
507.4959519852442
 31
0.0
  0
LINE
  5
3D8
330
1F
100
AcDbEntity
  8
仕上
  6
Continuous
 62
     3
370
     9
100
AcDbLine
 10
-192.999906797667
 20
525.4960608587662
 30
0.0
 11
-194.0616710765943
 21
525.4960608587662
 31
0.0
  0
LINE
  5
3D9
330
1F
100
AcDbEntity
  8
仕上
  6
Continuous
 62
     3
370
     9
100
AcDbLine
 10
-163.9998853528823
 20
532.4960839531497
 30
0.0
 11
-185.2968329352303
 21
532.4960839531497
 31
0.0
  0
LINE
  5
3DA
330
1F
100
AcDbEntity
  8
仕上
  6
Continuous
 62
     3
370
     9
100
AcDbLine
 10
-163.9998853528823
 20
547.4647085836395
 30
0.0
 11
-163.9998853528823
 21
532.4960839531497
 31
0.0
  0
LINE
  5
3DB
330
1F
100
AcDbEntity
  8
仕上
  6
Continuous
 62
     3
370
     9
100
AcDbLine
 10
-141.9998870024812
 20
560.2933499080694
 30
0.0
 11
-141.9998870024812
 21
557.4960427131791
 31
0.0
  0
LINE
  5
3DC
330
1F
100
AcDbEntity
  8
仕上
  6
Continuous
 62
     3
370
     9
100
AcDbLine
 10
-133.9998482369089
 20
564.3696240581962
 30
0.0
 11
-133.9998482369089
 21
557.4960427131791
 31
0.0
  0
LINE
  5
3DD
330
1F
100
AcDbEntity
  8
仕上
  6
Continuous
 62
     3
370
     9
100
AcDbLine
 10
-128.999769880965
 20
566.768379930768
 30
0.0
 11
-128.999769880965
 21
557.4960427131791
 31
0.0
  0
LINE
  5
3DE
330
1F
100
AcDbEntity
  8
仕上
  6
Continuous
 62
     3
370
     9
100
AcDbLine
 10
-41.99996535842479
 20
573.3842279565281
 30
0.0
 11
-41.99996535842479
 21
557.4960427131791
 31
0.0
  0
LINE
  5
3DF
330
1F
100
AcDbEntity
  8
仕上
  6
Continuous
 62
     3
370
     9
100
AcDbLine
 10
-36.99997360641896
 20
574.0839877749402
 30
0.0
 11
-36.99997360641896
 21
557.4960427131791
 31
0.0
  0
LINE
  5
3E0
330
1F
100
AcDbEntity
  8
仕上
  6
Continuous
 62
     3
370
     9
100
AcDbLine
 10
-8.99988122888513
 20
575.4959783788253
 30
0.0
 11
-23.85332262193836
 21
575.4959783788253
 31
0.0
  0
LINE
  5
3E1
330
1F
100
AcDbEntity
  8
仕上
  6
Continuous
 62
     3
370
     9
100
AcDbLine
 10
-54.99990927206508
 20
571.138414638327
 30
0.0
 11
-54.99990927206508
 21
557.4960427131791
 31
0.0
  0
LINE
  5
3E2
330
1F
100
AcDbEntity
  8
仕上
  6
Continuous
 62
     3
370
     9
100
AcDbLine
 10
-50.00000412399709
 20
572.0758156623979
 30
0.0
 11
-50.00000412399709
 21
557.4960427131791
 31
0.0
  0
LINE
  5
3E3
330
1F
100
AcDbEntity
  8
仕上
  6
Continuous
 62
     3
370
     9
100
AcDbLine
 10
-82.99991504566094
 20
564.1422021172122
 30
0.0
 11
-82.99991504566094
 21
557.4960427131791
 31
0.0
  0
LINE
  5
3E4
330
1F
100
AcDbEntity
  8
仕上
  6
Continuous
 62
     3
370
     9
100
AcDbLine
 10
-88.00008000554283
 20
562.5698210202949
 30
0.0
 11
-88.00008000554283
 21
557.4960427131791
 31
0.0
  0
LINE
  5
3E5
330
1F
100
AcDbEntity
  8
仕上
  6
Continuous
 62
     3
370
     9
100
AcDbLine
 10
-95.99994556323907
 20
559.8409309363634
 30
0.0
 11
-95.99994556323907
 21
557.4960427131791
 31
0.0
  0
LINE
  5
3E6
330
1F
100
AcDbEntity
  8
仕上
  6
Continuous
 62
     3
370
     9
100
AcDbLine
 10
-104.2652521906673
 20
557.4960427131791
 30
0.0
 11
-128.999769880965
 21
557.4960427131791
 31
0.0
  0
LINE
  5
3E7
330
1F
100
AcDbEntity
  8
仕上
  6
Continuous
 62
     3
370
     9
100
AcDbLine
 10
-104.2652521906673
 20
557.4960427131791
 30
0.0
 11
-110.5243785961256
 21
574.6926402506582
 31
0.0
  0
LINE
  5
3E8
330
1F
100
AcDbEntity
  8
仕上
  6
Continuous
 62
     3
370
     9
100
AcDbLine
 10
-155.4997954497468
 20
306.4960064220052
 30
0.0
 11
-211.4998069969384
 21
306.4960064220052
 31
0.0
  0
LINE
  5
3E9
330
1F
100
AcDbEntity
  8
仕上
  6
Continuous
 62
     3
370
     9
100
AcDbLine
 10
-174.9998845280828
 20
325.4960443627781
 30
0.0
 11
-174.9998845280828
 21
314.4959585836395
 31
0.0
  0
LINE
  5
3EA
330
1F
100
AcDbEntity
  8
仕上
  6
Continuous
 62
     3
370
     9
100
AcDbLine
 10
-179.9999628840267
 20
325.4960443627781
 30
0.0
 11
-179.9999628840267
 21
314.4959585836395
 31
0.0
  0
LINE
  5
3EB
330
1F
100
AcDbEntity
  8
仕上
  6
Continuous
 62
     3
370
     9
100
AcDbLine
 10
-179.9999628840267
 20
314.4959585836395
 30
0.0
 11
-187.9999150456609
 21
314.4959585836395
 31
0.0
  0
LINE
  5
3EC
330
1F
100
AcDbEntity
  8
仕上
  6
Continuous
 62
     3
370
     9
100
AcDbLine
 10
-187.9999150456609
 20
325.4960443627781
 30
0.0
 11
-187.9999150456609
 21
314.4959585836395
 31
0.0
  0
LINE
  5
3ED
330
1F
100
AcDbEntity
  8
仕上
  6
Continuous
 62
     3
370
     9
100
AcDbLine
 10
-192.999906797667
 20
325.4960443627781
 30
0.0
 11
-192.999906797667
 21
314.4959585836395
 31
0.0
  0
LINE
  5
3EE
330
1F
100
AcDbEntity
  8
仕上
  6
Continuous
 62
     3
370
     9
100
AcDbLine
 10
-218.4999166952599
 20
300.4960856027486
 30
0.0
 11
-249.9998474121094
 21
300.4960856027486
 31
0.0
  0
LINE
  5
3EF
330
1F
100
AcDbEntity
  8
仕上
  6
Continuous
 62
     3
370
     9
100
AcDbLine
 10
-117.9998573097023
 20
300.4960856027486
 30
0.0
 11
-148.4998589593012
 21
300.4960856027486
 31
0.0
  0
LINE
  5
3F0
330
1F
100
AcDbEntity
  8
仕上
  6
Continuous
 62
     3
370
     9
100
AcDbLine
 10
-155.4997954497468
 20
291.4958579581117
 30
0.0
 11
-155.4997954497468
 21
306.4960064220052
 31
0.0
  0
LINE
  5
3F1
330
1F
100
AcDbEntity
  8
仕上
  6
Continuous
 62
     3
370
     9
100
AcDbLine
 10
-148.4998589593012
 20
291.4958579581117
 30
0.0
 11
-148.4998589593012
 21
300.4960856027486
 31
0.0
  0
LINE
  5
3F2
330
1F
100
AcDbEntity
  8
仕上
  6
Continuous
 62
     3
370
     9
100
AcDbLine
 10
-177.9997583337734
 20
291.4958579581117
 30
0.0
 11
-177.9997583337734
 21
306.4960064220052
 31
0.0
  0
LINE
  5
3F3
330
1F
100
AcDbEntity
  8
仕上
  6
Continuous
 62
     3
370
     9
100
AcDbLine
 10
-188.9998441129118
 20
291.4958579581117
 30
0.0
 11
-188.9998441129118
 21
306.4960064220052
 31
0.0
  0
LINE
  5
3F4
330
1F
100
AcDbEntity
  8
仕上
  6
Continuous
 62
     3
370
     9
100
AcDbLine
 10
-211.4998069969384
 20
291.4958579581117
 30
0.0
 11
-211.4998069969384
 21
306.4960064220052
 31
0.0
  0
LINE
  5
3F5
330
1F
100
AcDbEntity
  8
仕上
  6
Continuous
 62
     3
370
     9
100
AcDbLine
 10
-218.4999166952599
 20
291.4958579581117
 30
0.0
 11
-218.4999166952599
 21
300.4960856027486
 31
0.0
  0
LINE
  5
3F6
330
1F
100
AcDbEntity
  8
仕上
  6
Continuous
 62
     3
370
     9
100
AcDbLine
 10
-146.999878754487
 20
314.4959585836395
 30
0.0
 11
-174.9998845280828
 21
314.4959585836395
 31
0.0
  0
LINE
  5
3F7
330
1F
100
AcDbEntity
  8
仕上
  6
Continuous
 62
     3
370
     9
100
AcDbLine
 10
-146.999878754487
 20
325.4960443627781
 30
0.0
 11
-146.999878754487
 21
314.4959585836395
 31
0.0
  0
LINE
  5
3F8
330
1F
100
AcDbEntity
  8
仕上
  6
Continuous
 62
     3
370
     9
100
AcDbLine
 10
-192.999906797667
 20
314.4959585836395
 30
0.0
 11
-220.9998259673247
 21
314.4959585836395
 31
0.0
  0
LINE
  5
3F9
330
1F
100
AcDbEntity
  8
仕上
  6
Continuous
 62
     3
370
     9
100
AcDbLine
 10
-220.9998259673247
 20
325.4960443627781
 30
0.0
 11
-220.9998259673247
 21
314.4959585836395
 31
0.0
  0
LINE
  5
3FA
330
1F
100
AcDbEntity
  8
仕上
  6
Continuous
 62
     3
370
     9
100
AcDbLine
 10
-195.8249272526922
 20
270.9960130204005
 30
0.0
 11
-169.8495483398438
 21
270.9960130204005
 31
0.0
  0
LINE
  5
3FB
330
1F
100
AcDbEntity
  8
仕上
  6
Continuous
 62
     3
370
     9
100
AcDbLine
 10
-169.8495483398438
 20
270.9960130204005
 30
0.0
 11
-169.8495483398438
 21
291.4958579581117
 31
0.0
  0
LINE
  5
3FC
330
1F
100
AcDbEntity
  8
仕上
  6
Continuous
 62
     3
370
     9
100
AcDbLine
 10
-148.7132510623418
 20
268.9961548858988
 30
0.0
 11
-148.7132510623418
 21
291.4958579581117
 31
0.0
  0
LINE
  5
3FD
330
1F
100
AcDbEntity
  8
仕上
  6
Continuous
 62
     3
370
     9
100
AcDbLine
 10
-195.8249272526922
 20
270.9960130204005
 30
0.0
 11
-195.8249272526922
 21
291.4958579581117
 31
0.0
  0
LINE
  5
3FE
330
1F
100
AcDbEntity
  8
仕上
  6
Continuous
 62
     3
370
     9
100
AcDbLine
 10
-218.0740851324958
 20
268.9961548858988
 30
0.0
 11
-218.0740851324958
 21
291.4958579581117
 31
0.0
  0
LINE
  5
3FF
330
1F
100
AcDbEntity
  8
仕上
  6
Continuous
 62
     3
370
     9
100
AcDbLine
 10
-218.0740851324958
 20
268.9961548858988
 30
0.0
 11
-195.8249272526922
 21
270.9960130204005
 31
0.0
  0
LINE
  5
400
330
1F
100
AcDbEntity
  8
仕上
  6
Continuous
 62
     3
370
     9
100
AcDbLine
 10
-148.7132510623418
 20
268.9961548858988
 30
0.0
 11
-169.8495483398438
 21
270.9960130204005
 31
0.0
  0
LINE
  5
401
330
1F
100
AcDbEntity
  8
仕上
  6
Continuous
 62
     3
370
     9
100
AcDbLine
 10
-318.9714833852408
 20
335.5542257130738
 30
0.0
 11
-309.2294930122995
 21
346.0215240661143
 31
0.0
  0
LINE
  5
402
330
1F
100
AcDbEntity
  8
仕上
  6
Continuous
 62
     3
370
     9
100
AcDbLine
 10
-309.2294064083615
 20
346.0215240661143
 30
0.0
 11
-303.2029847841005
 21
332.7737196821404
 31
0.0
  0
LINE
  5
403
330
1F
100
AcDbEntity
  8
仕上
  6
Continuous
 62
     3
370
     9
100
AcDbLine
 10
-318.8056368441195
 20
302.6289673858988
 30
0.0
 11
-308.8116290118244
 21
302.2797803081962
 31
0.0
  0
LINE
  5
404
330
1F
100
AcDbEntity
  8
仕上
  6
Continuous
 62
     3
370
     9
100
AcDbLine
 10
-318.9714833852408
 20
335.5542257130738
 30
0.0
 11
-316.0149981524494
 21
335.0328700067815
 31
0.0
  0
LINE
  5
405
330
1F
100
AcDbEntity
  8
仕上
  6
Continuous
 62
     3
370
     9
100
AcDbLine
 10
-306.1595566208299
 20
333.2949021805567
 30
0.0
 11
-303.2029847841005
 21
332.7737196821404
 31
0.0
  0
LINE
  5
406
330
1F
100
AcDbEntity
  8
仕上
  6
Continuous
 62
     3
370
     9
100
AcDbLine
 10
-292.7911995552682
 20
421.8547034368912
 30
0.0
 11
-280.9152015479835
 21
416.5671866109832
 31
0.0
  0
LINE
  5
407
330
1F
100
AcDbEntity
  8
仕上
  6
Continuous
 62
     3
370
     9
100
AcDbLine
 10
-313.4962092219173
 20
358.1313527057891
 30
0.0
 11
-300.7802396207243
 21
355.42861701111
 31
0.0
  0
LINE
  5
408
330
1F
100
AcDbEntity
  8
仕上
  6
Continuous
 62
     3
370
     9
100
AcDbLine
 10
-323.9998812288852
 20
291.4958579581117
 30
0.0
 11
-308.9998193689295
 21
297.4959519852442
 31
0.0
  0
LINE
  5
409
330
1F
100
AcDbEntity
  8
仕上
  6
Continuous
 62
     3
370
     9
100
AcDbLine
 10
-71.00007340714751
 20
260.8963483838401
 30
0.0
 11
-71.00007340714751
 21
291.4958579581117
 31
0.0
  0
LINE
  5
40A
330
1F
100
AcDbEntity
  8
仕上
  6
Continuous
 62
     3
370
     9
100
AcDbLine
 10
-74.00003381677575
 20
262.6284271422862
 30
0.0
 11
-74.00003381677575
 21
291.4958579581117
 31
0.0
  0
LINE
  5
40B
330
1F
100
AcDbEntity
  8
仕上
  6
Continuous
 62
     3
370
     9
100
AcDbLine
 10
-126.9999983504013
 20
225.1006025342307
 30
0.0
 11
-74.00003381677575
 21
255.7001987124402
 31
0.0
  0
LINE
  5
40C
330
1F
100
AcDbEntity
  8
仕上
  6
Continuous
 62
     3
370
     9
100
AcDbLine
 10
-133.0000057735961
 20
225.1006025342307
 30
0.0
 11
-189.0001039247257
 21
257.4322774708863
 31
0.0
  0
LINE
  5
40D
330
1F
100
AcDbEntity
  8
仕上
  6
Continuous
 62
     3
370
     9
100
AcDbLine
 10
-126.9999983504013
 20
228.5647600511227
 30
0.0
 11
-77.00008083034209
 21
257.4321908669482
 31
0.0
  0
LINE
  5
40E
330
1F
100
AcDbEntity
  8
仕上
  6
Continuous
 62
     3
370
     9
100
AcDbLine
 10
-133.0000057735961
 20
228.5647600511227
 30
0.0
 11
-186.0000569111592
 21
259.1643562293322
 31
0.0
  0
LINE
  5
40F
330
1F
100
AcDbEntity
  8
仕上
  6
Continuous
 62
     3
370
     9
100
AcDbLine
 10
-120.9999909272066
 20
214.7083031914309
 30
0.0
 11
-68.00002639358104
 21
245.3078993696404
 31
0.0
  0
LINE
  5
410
330
1F
100
AcDbEntity
  8
仕上
  6
Continuous
 62
     3
370
     9
100
AcDbLine
 10
-118.0000305175782
 20
212.9761378290472
 30
0.0
 11
-68.00002639358104
 21
241.8437418527486
 31
0.0
  0
LINE
  5
411
330
1F
100
AcDbEntity
  8
仕上
  6
Continuous
 62
     3
370
     9
100
AcDbLine
 10
-9.00005443676099
 20
214.7083031914309
 30
0.0
 11
-62.00001897038652
 21
245.3078993696404
 31
0.0
  0
LINE
  5
412
330
1F
100
AcDbEntity
  8
仕上
  6
Continuous
 62
     3
370
     9
100
AcDbLine
 10
-6.000094027132548
 20
148.3131343714879
 30
0.0
 11
-6.000094027132548
 21
209.5120669160931
 31
0.0
  0
LINE
  5
413
330
1F
100
AcDbEntity
  8
仕上
  6
Continuous
 62
     3
370
     9
100
AcDbLine
 10
-12.00001484638943
 20
212.9763110369228
 30
0.0
 11
-62.00001897038652
 21
241.8437418527486
 31
0.0
  0
LINE
  5
414
330
1F
100
AcDbEntity
  8
仕上
  6
Continuous
 62
     3
370
     9
100
AcDbLine
 10
-9.00005443676099
 20
150.045126525996
 30
0.0
 11
-9.00005443676099
 21
207.780247969461
 31
0.0
  0
LINE
  5
415
330
1F
100
AcDbEntity
  8
仕上
  6
Continuous
 62
     3
370
     9
100
AcDbLine
 10
-123.9999513368351
 20
148.3131343714879
 30
0.0
 11
-123.9999513368351
 21
209.5120669160931
 31
0.0
  0
LINE
  5
416
330
1F
100
AcDbEntity
  8
仕上
  6
Continuous
 62
     3
370
     9
100
AcDbLine
 10
-120.9999909272066
 20
150.045126525996
 30
0.0
 11
-120.9999909272066
 21
207.7800747615851
 31
0.0
  0
LINE
  5
417
330
1F
100
AcDbEntity
  8
仕上
  6
Continuous
 62
     3
370
     9
100
AcDbLine
 10
-62.00001897038652
 20
115.9815460387705
 30
0.0
 11
-12.00001484638943
 21
144.8489768545961
 31
0.0
  0
LINE
  5
418
330
1F
100
AcDbEntity
  8
仕上
  6
Continuous
 62
     3
370
     9
100
AcDbLine
 10
-68.00002639358104
 20
115.9815460387705
 30
0.0
 11
-118.0000305175782
 21
144.8489768545961
 31
0.0
  0
LINE
  5
419
330
1F
100
AcDbEntity
  8
仕上
  6
Continuous
 62
     3
370
     9
100
AcDbLine
 10
-68.00002639358104
 20
112.5173885218785
 30
0.0
 11
-120.9999909272066
 21
143.116984700088
 31
0.0
  0
LINE
  5
41A
330
1F
100
AcDbEntity
  8
仕上
  6
Continuous
 62
     3
370
     9
100
AcDbLine
 10
-62.00001897038652
 20
112.5173885218785
 30
0.0
 11
-9.00005443676099
 21
143.116984700088
 31
0.0
  0
LINE
  5
41B
330
1F
100
AcDbEntity
  8
仕上
  6
Continuous
 62
     3
370
     9
100
AcDbLine
 10
-3.000133617504304
 20
228.5647600511227
 30
0.0
 11
-52.99996453362553
 21
257.4321908669482
 31
0.0
  0
LINE
  5
41C
330
1F
100
AcDbEntity
  8
仕上
  6
Continuous
 62
     3
370
     9
100
AcDbLine
 10
-3.000133617504304
 20
225.1006025342307
 30
0.0
 11
-55.99992494325377
 21
255.7001987124402
 31
0.0
  0
LINE
  5
41D
330
1F
100
AcDbEntity
  8
仕上
  6
Continuous
 62
     3
370
     9
100
AcDbLine
 10
-277.5088954616239
 20
195.9393245570348
 30
0.0
 11
-198.0001583614867
 21
241.8440016645623
 31
0.0
  0
LINE
  5
41E
330
1F
100
AcDbEntity
  8
仕上
  6
Continuous
 62
     3
370
     9
100
AcDbLine
 10
-282.9668488373629
 20
213.5726657534558
 30
0.0
 11
-281.1765722326331
 21
214.6061971486207
 31
0.0
  0
LINE
  5
41F
330
1F
100
AcDbEntity
  8
仕上
  6
Continuous
 62
     3
370
     9
100
AcDbLine
 10
-204.1693898793814
 20
255.7363991584917
 30
0.0
 11
-282.9668488373629
 21
213.5726657534558
 31
0.0
  0
LINE
  5
420
330
1F
100
AcDbEntity
  8
仕上
  6
Continuous
 62
     3
370
     9
100
AcDbLine
 10
-198.0511680809228
 20
245.1501935986838
 30
0.0
 11
-277.5088954616239
 21
195.9393245570348
 31
0.0
  0
LINE
  5
421
330
1F
100
AcDbEntity
  8
仕上
  6
Continuous
 62
     3
370
     9
100
AcDbLine
 10
-191.891896015889
 20
245.2453713264604
 30
0.0
 11
-139.0000998007286
 21
214.7083031914309
 31
0.0
  0
LINE
  5
422
330
1F
100
AcDbEntity
  8
仕上
  6
Continuous
 62
     3
370
     9
100
AcDbLine
 10
-207.0001261943096
 20
257.4320176590724
 30
0.0
 11
-281.1765722326331
 21
214.6061971486207
 31
0.0
  0
LINE
  5
423
330
1F
100
AcDbEntity
  8
仕上
  6
Continuous
 62
     3
370
     9
100
AcDbLine
 10
-191.9999777304161
 20
241.8437418527486
 30
0.0
 11
-142.0000602103568
 21
212.9761378290472
 31
0.0
  0
LINE
  5
424
330
1F
100
AcDbEntity
  8
仕上
  6
Continuous
 62
     3
370
     9
100
AcDbLine
 10
-185.0000412399705
 20
268.9961548858988
 30
0.0
 11
-148.7132510623418
 21
268.9961548858988
 31
0.0
  0
LINE
  5
425
330
1F
100
AcDbEntity
  8
仕上
  6
Continuous
 62
     3
370
     9
100
AcDbLine
 10
-186.0000569111592
 20
267.996052610772
 30
0.0
 11
-186.0000569111592
 21
259.1643562293322
 31
0.0
  0
LINE
  5
426
330
1F
100
AcDbEntity
  8
仕上
  6
Continuous
 62
     3
370
     9
100
AcDbLine
 10
-205.0000948519321
 20
268.9961548858988
 30
0.0
 11
-218.0740851324958
 21
268.9961548858988
 31
0.0
  0
LINE
  5
427
330
1F
100
AcDbEntity
  8
仕上
  6
Continuous
 62
     3
370
     9
100
AcDbLine
 10
-203.9999925768053
 20
267.996052610772
 30
0.0
 11
-203.9999925768053
 21
262.6282539344103
 31
0.0
  0
LINE
  5
428
330
1F
100
AcDbEntity
  8
仕上
  6
Continuous
 62
     3
370
     9
100
AcDbLine
 10
-201.0000321671771
 20
268.9961548858988
 30
0.0
 11
-201.0000321671771
 21
261.0266873104132
 31
0.0
  0
LINE
  5
429
330
1F
100
AcDbEntity
  8
仕上
  6
Continuous
 62
     3
370
     9
100
AcDbLine
 10
-189.0001039247257
 20
268.9961548858988
 30
0.0
 11
-189.0001039247257
 21
257.4322774708863
 31
0.0
  0
LINE
  5
42A
330
1F
100
AcDbEntity
  8
仕上
  6
Continuous
 62
     3
370
     9
100
AcDbLine
 10
-202.0000478383658
 20
269.9960839531497
 30
0.0
 11
-188.0000882535368
 21
269.9960839531497
 31
0.0
  0
LINE
  5
42B
330
1F
100
AcDbEntity
  8
仕上
  6
Continuous
 62
     3
370
     9
100
AcDbLine
 10
-221.5089705183701
 20
98.94455955888229
 30
0.0
 11
-219.7444152832032
 21
99.96328168066235
 31
0.0
  0
LINE
  5
42C
330
1F
100
AcDbEntity
  8
仕上
  6
Continuous
 62
     3
370
     9
100
AcDbLine
 10
-208.966901624525
 20
85.40108933084177
 30
0.0
 11
-207.1767982276711
 21
86.43462072600643
 31
0.0
  0
LINE
  5
42D
330
1F
100
AcDbEntity
  8
仕上
  6
Continuous
 62
     3
370
     9
100
AcDbLine
 10
-55.99992494325377
 20
3.387852949929695
 30
0.0
 11
-55.99992494325377
 21
95.19694735317076
 31
0.0
  0
LINE
  5
42E
330
1F
100
AcDbEntity
  8
仕上
  6
Continuous
 62
     3
370
     9
100
AcDbLine
 10
-74.00003381677575
 20
7.477897126186051
 30
0.0
 11
-74.00003381677575
 21
95.19694735317076
 31
0.0
  0
LINE
  5
42F
330
1F
100
AcDbEntity
  8
仕上
  6
Continuous
 62
     3
370
     9
100
AcDbLine
 10
195.8249272526921
 20
270.9960130204005
 30
0.0
 11
169.8495483398437
 21
270.9960130204005
 31
0.0
  0
LINE
  5
430
330
1F
100
AcDbEntity
  8
仕上
  6
Continuous
 62
     3
370
     9
100
AcDbLine
 10
169.8495483398437
 20
270.9960130204005
 30
0.0
 11
169.8495483398437
 21
291.4958579581117
 31
0.0
  0
LINE
  5
431
330
1F
100
AcDbEntity
  8
仕上
  6
Continuous
 62
     3
370
     9
100
AcDbLine
 10
148.7131644584036
 20
268.9961548858988
 30
0.0
 11
148.7131644584036
 21
291.4958579581117
 31
0.0
  0
LINE
  5
432
330
1F
100
AcDbEntity
  8
仕上
  6
Continuous
 62
     3
370
     9
100
AcDbLine
 10
195.8249272526921
 20
270.9960130204005
 30
0.0
 11
195.8249272526921
 21
291.4958579581117
 31
0.0
  0
LINE
  5
433
330
1F
100
AcDbEntity
  8
仕上
  6
Continuous
 62
     3
370
     9
100
AcDbLine
 10
218.0739985285578
 20
268.9961548858988
 30
0.0
 11
218.0739985285578
 21
291.4958579581117
 31
0.0
  0
LINE
  5
434
330
1F
100
AcDbEntity
  8
仕上
  6
Continuous
 62
     3
370
     9
100
AcDbLine
 10
218.0739985285578
 20
268.9961548858988
 30
0.0
 11
195.8249272526921
 21
270.9960130204005
 31
0.0
  0
LINE
  5
435
330
1F
100
AcDbEntity
  8
仕上
  6
Continuous
 62
     3
370
     9
100
AcDbLine
 10
148.7131644584036
 20
268.9961548858988
 30
0.0
 11
169.8495483398437
 21
270.9960130204005
 31
0.0
  0
LINE
  5
436
330
1F
100
AcDbEntity
  8
仕上
  6
Continuous
 62
     3
370
     9
100
AcDbLine
 10
71.00007340714731
 20
260.8963483838401
 30
0.0
 11
71.00007340714731
 21
291.4958579581117
 31
0.0
  0
LINE
  5
437
330
1F
100
AcDbEntity
  8
仕上
  6
Continuous
 62
     3
370
     9
100
AcDbLine
 10
74.00003381677575
 20
262.6284271422862
 30
0.0
 11
74.00003381677575
 21
291.4958579581117
 31
0.0
  0
LINE
  5
438
330
1F
100
AcDbEntity
  8
仕上
  6
Continuous
 62
     3
370
     9
100
AcDbLine
 10
127.0000849543391
 20
225.1006025342307
 30
0.0
 11
74.00003381677575
 21
255.7001987124402
 31
0.0
  0
LINE
  5
439
330
1F
100
AcDbEntity
  8
仕上
  6
Continuous
 62
     3
370
     9
100
AcDbLine
 10
133.0000923775338
 20
225.1006025342307
 30
0.0
 11
189.0000173207876
 21
257.4322774708863
 31
0.0
  0
LINE
  5
43A
330
1F
100
AcDbEntity
  8
仕上
  6
Continuous
 62
     3
370
     9
100
AcDbLine
 10
127.0000849543391
 20
228.5647600511227
 30
0.0
 11
77.00008083034203
 21
257.4321908669482
 31
0.0
  0
LINE
  5
43B
330
1F
100
AcDbEntity
  8
仕上
  6
Continuous
 62
     3
370
     9
100
AcDbLine
 10
133.0000923775338
 20
228.5647600511227
 30
0.0
 11
186.0000569111591
 21
259.1643562293322
 31
0.0
  0
LINE
  5
43C
330
1F
100
AcDbEntity
  8
仕上
  6
Continuous
 62
     3
370
     9
100
AcDbLine
 10
120.9999909272065
 20
214.7083031914309
 30
0.0
 11
68.00002639358104
 21
245.3078993696404
 31
0.0
  0
LINE
  5
43D
330
1F
100
AcDbEntity
  8
仕上
  6
Continuous
 62
     3
370
     9
100
AcDbLine
 10
118.0000305175781
 20
212.9761378290472
 30
0.0
 11
68.00002639358104
 21
241.8437418527486
 31
0.0
  0
LINE
  5
43E
330
1F
100
AcDbEntity
  8
仕上
  6
Continuous
 62
     3
370
     9
100
AcDbLine
 10
9.000141040698821
 20
214.7083031914309
 30
0.0
 11
62.00001897038632
 21
245.3078993696404
 31
0.0
  0
LINE
  5
43F
330
1F
100
AcDbEntity
  8
仕上
  6
Continuous
 62
     3
370
     9
100
AcDbLine
 10
5.999920819256687
 20
148.3131343714879
 30
0.0
 11
5.999920819256687
 21
209.5120669160931
 31
0.0
  0
LINE
  5
440
330
1F
100
AcDbEntity
  8
仕上
  6
Continuous
 62
     3
370
     9
100
AcDbLine
 10
12.00010145032726
 20
212.9763110369228
 30
0.0
 11
62.00001897038632
 21
241.8437418527486
 31
0.0
  0
LINE
  5
441
330
1F
100
AcDbEntity
  8
仕上
  6
Continuous
 62
     3
370
     9
100
AcDbLine
 10
9.000141040698821
 20
150.045126525996
 30
0.0
 11
9.000141040698821
 21
207.780247969461
 31
0.0
  0
LINE
  5
442
330
1F
100
AcDbEntity
  8
仕上
  6
Continuous
 62
     3
370
     9
100
AcDbLine
 10
124.0000379407728
 20
148.3131343714879
 30
0.0
 11
124.0000379407728
 21
209.5120669160931
 31
0.0
  0
LINE
  5
443
330
1F
100
AcDbEntity
  8
仕上
  6
Continuous
 62
     3
370
     9
100
AcDbLine
 10
120.9999909272065
 20
150.045126525996
 30
0.0
 11
120.9999909272065
 21
207.7800747615851
 31
0.0
  0
LINE
  5
444
330
1F
100
AcDbEntity
  8
仕上
  6
Continuous
 62
     3
370
     9
100
AcDbLine
 10
62.00001897038632
 20
115.9815460387705
 30
0.0
 11
12.00010145032726
 21
144.8489768545961
 31
0.0
  0
LINE
  5
445
330
1F
100
AcDbEntity
  8
仕上
  6
Continuous
 62
     3
370
     9
100
AcDbLine
 10
68.00002639358104
 20
115.9815460387705
 30
0.0
 11
118.0000305175781
 21
144.8489768545961
 31
0.0
  0
LINE
  5
446
330
1F
100
AcDbEntity
  8
仕上
  6
Continuous
 62
     3
370
     9
100
AcDbLine
 10
68.00002639358104
 20
112.5173885218785
 30
0.0
 11
120.9999909272065
 21
143.116984700088
 31
0.0
  0
LINE
  5
447
330
1F
100
AcDbEntity
  8
仕上
  6
Continuous
 62
     3
370
     9
100
AcDbLine
 10
62.00001897038632
 20
112.5173885218785
 30
0.0
 11
9.000141040698821
 21
143.116984700088
 31
0.0
  0
LINE
  5
448
330
1F
100
AcDbEntity
  8
仕上
  6
Continuous
 62
     3
370
     9
100
AcDbLine
 10
2.999960409628244
 20
228.5647600511227
 30
0.0
 11
52.99996453362533
 21
257.4321908669482
 31
0.0
  0
LINE
  5
449
330
1F
100
AcDbEntity
  8
仕上
  6
Continuous
 62
     3
370
     9
100
AcDbLine
 10
2.999960409628244
 20
225.1006025342307
 30
0.0
 11
56.0000115471916
 21
255.7001987124402
 31
0.0
  0
LINE
  5
44A
330
1F
100
AcDbEntity
  8
仕上
  6
Continuous
 62
     3
370
     9
100
AcDbLine
 10
277.5088954616236
 20
195.9393245570348
 30
0.0
 11
275.7442536225191
 21
196.9580466788148
 31
0.0
  0
LINE
  5
44B
330
1F
100
AcDbEntity
  8
仕上
  6
Continuous
 62
     3
370
     9
100
AcDbLine
 10
282.9668488373628
 20
213.5726657534558
 30
0.0
 11
281.1766588365709
 21
214.6061971486207
 31
0.0
  0
LINE
  5
44C
330
1F
100
AcDbEntity
  8
仕上
  6
Continuous
 62
     3
370
     9
100
AcDbLine
 10
204.1692166715055
 20
255.7363991584917
 30
0.0
 11
282.9668488373628
 21
213.5726657534558
 31
0.0
  0
LINE
  5
44D
330
1F
100
AcDbEntity
  8
仕上
  6
Continuous
 62
     3
370
     9
100
AcDbLine
 10
198.0509948730468
 20
245.1501935986838
 30
0.0
 11
277.5088954616236
 21
195.9393245570348
 31
0.0
  0
LINE
  5
44E
330
1F
100
AcDbEntity
  8
仕上
  6
Continuous
 62
     3
370
     9
100
AcDbLine
 10
191.891809411951
 20
245.2453713264604
 30
0.0
 11
139.0000998007283
 21
214.7083031914309
 31
0.0
  0
LINE
  5
44F
330
1F
100
AcDbEntity
  8
仕上
  6
Continuous
 62
     3
370
     9
100
AcDbLine
 10
206.9999529864337
 20
257.4320176590724
 30
0.0
 11
281.1766588365709
 21
214.6061971486207
 31
0.0
  0
LINE
  5
450
330
1F
100
AcDbEntity
  8
仕上
  6
Continuous
 62
     3
370
     9
100
AcDbLine
 10
197.9998985496727
 20
241.8437418527486
 30
0.0
 11
275.7442536225191
 21
196.9580466788148
 31
0.0
  0
LINE
  5
451
330
1F
100
AcDbEntity
  8
仕上
  6
Continuous
 62
     3
370
     9
100
AcDbLine
 10
191.999891126478
 20
241.8437418527486
 30
0.0
 11
142.0000602103567
 21
212.9761378290472
 31
0.0
  0
LINE
  5
452
330
1F
100
AcDbEntity
  8
仕上
  6
Continuous
 62
     3
370
     9
100
AcDbLine
 10
184.9999546360324
 20
268.9961548858988
 30
0.0
 11
148.7131644584036
 21
268.9961548858988
 31
0.0
  0
LINE
  5
453
330
1F
100
AcDbEntity
  8
仕上
  6
Continuous
 62
     3
370
     9
100
AcDbLine
 10
186.0000569111591
 20
267.996052610772
 30
0.0
 11
186.0000569111591
 21
259.1643562293322
 31
0.0
  0
LINE
  5
454
330
1F
100
AcDbEntity
  8
仕上
  6
Continuous
 62
     3
370
     9
100
AcDbLine
 10
205.0000082479939
 20
268.9961548858988
 30
0.0
 11
218.0739985285578
 21
268.9961548858988
 31
0.0
  0
LINE
  5
455
330
1F
100
AcDbEntity
  8
仕上
  6
Continuous
 62
     3
370
     9
100
AcDbLine
 10
203.9999925768053
 20
267.996052610772
 30
0.0
 11
203.9999925768053
 21
262.6282539344103
 31
0.0
  0
LINE
  5
456
330
1F
100
AcDbEntity
  8
仕上
  6
Continuous
 62
     3
370
     9
100
AcDbLine
 10
200.999945563239
 20
268.9961548858988
 30
0.0
 11
200.999945563239
 21
261.0266873104132
 31
0.0
  0
LINE
  5
457
330
1F
100
AcDbEntity
  8
仕上
  6
Continuous
 62
     3
370
     9
100
AcDbLine
 10
189.0000173207876
 20
268.9961548858988
 30
0.0
 11
189.0000173207876
 21
257.4322774708863
 31
0.0
  0
LINE
  5
458
330
1F
100
AcDbEntity
  8
仕上
  6
Continuous
 62
     3
370
     9
100
AcDbLine
 10
201.9999612344277
 20
269.9960839531497
 30
0.0
 11
188.0000016495987
 21
269.9960839531497
 31
0.0
  0
LINE
  5
459
330
1F
100
AcDbEntity
  8
仕上
  6
Continuous
 62
     3
370
     9
100
AcDbLine
 10
221.508883914432
 20
98.94455955888229
 30
0.0
 11
142.0001468142948
 21
144.8491500624719
 31
0.0
  0
LINE
  5
45A
330
1F
100
AcDbEntity
  8
仕上
  6
Continuous
 62
     3
370
     9
100
AcDbLine
 10
208.9669882284627
 20
85.40108933084177
 30
0.0
 11
207.176798227671
 21
86.43462072600643
 31
0.0
  0
LINE
  5
45B
330
1F
100
AcDbEntity
  8
仕上
  6
Continuous
 62
     3
370
     9
100
AcDbLine
 10
56.0000115471916
 20
3.387852949929695
 30
0.0
 11
56.0000115471916
 21
95.19694735317076
 31
0.0
  0
LINE
  5
45C
330
1F
100
AcDbEntity
  8
仕上
  6
Continuous
 62
     3
370
     9
100
AcDbLine
 10
74.00003381677575
 20
7.477897126186051
 30
0.0
 11
74.00003381677575
 21
95.19694735317076
 31
0.0
  0
LINE
  5
45D
330
1F
100
AcDbEntity
  8
仕上
  6
Continuous
 62
     3
370
     9
100
AcDbLine
 10
-139.0000998007286
 20
150.045126525996
 30
0.0
 11
-139.0000998007286
 21
207.7800747615851
 31
0.0
  0
LINE
  5
45E
330
1F
100
AcDbEntity
  8
仕上
  6
Continuous
 62
     3
370
     9
100
AcDbLine
 10
-142.0000602103568
 20
144.8489768545961
 30
0.0
 11
-219.7444152832032
 21
99.96328168066235
 31
0.0
  0
LINE
  5
45F
330
1F
100
AcDbEntity
  8
仕上
  6
Continuous
 62
     3
370
     9
100
AcDbLine
 10
-136.0000527871623
 20
148.4379306460339
 30
0.0
 11
-136.0000527871623
 21
209.5120669160931
 31
0.0
  0
LINE
  5
460
330
1F
100
AcDbEntity
  8
仕上
  6
Continuous
 62
     3
370
     9
100
AcDbLine
 10
-139.1620491646433
 20
143.1515396713189
 30
0.0
 11
-221.5089705183701
 21
98.94455955888229
 31
0.0
  0
LINE
  5
461
330
1F
100
AcDbEntity
  8
仕上
  6
Continuous
 62
     3
370
     9
100
AcDbLine
 10
-133.0531805914803
 20
132.5600512712978
 30
0.0
 11
-208.966901624525
 21
85.40108933084177
 31
0.0
  0
LINE
  5
462
330
1F
100
AcDbEntity
  8
仕上
  6
Continuous
 62
     3
370
     9
100
AcDbLine
 10
-133.0000057735961
 20
129.2605278403964
 30
0.0
 11
-207.1767982276711
 21
86.43462072600643
 31
0.0
  0
LINE
  5
463
330
1F
100
AcDbEntity
  8
仕上
  6
Continuous
 62
     3
370
     9
100
AcDbLine
 10
-52.99996453362553
 20
100.3930970245707
 30
0.0
 11
-3.000133617504304
 21
129.2605278403964
 31
0.0
  0
LINE
  5
464
330
1F
100
AcDbEntity
  8
仕上
  6
Continuous
 62
     3
370
     9
100
AcDbLine
 10
-74.11287874788857
 20
102.1902153403964
 30
0.0
 11
-126.8871534192885
 21
132.6594725920327
 31
0.0
  0
LINE
  5
465
330
1F
100
AcDbEntity
  8
仕上
  6
Continuous
 62
     3
370
     9
100
AcDbLine
 10
-71.11612268396325
 20
96.80050586774014
 30
0.0
 11
-74.00003381677575
 21
7.477897126186051
 31
0.0
  0
LINE
  5
466
330
1F
100
AcDbEntity
  8
仕上
  6
Continuous
 62
     3
370
     9
100
AcDbLine
 10
-77.00008083034209
 20
100.3930970245707
 30
0.0
 11
-126.9999983504013
 21
129.2605278403964
 31
0.0
  0
LINE
  5
467
330
1F
100
AcDbEntity
  8
仕上
  6
Continuous
 62
     3
370
     9
100
AcDbLine
 10
-55.89184322872683
 20
102.1875306183207
 30
0.0
 11
-3.000133617504304
 21
132.7246853572882
 31
0.0
  0
LINE
  5
468
330
1F
100
AcDbEntity
  8
仕上
  6
Continuous
 62
     3
370
     9
100
AcDbLine
 10
-58.8890323123417
 20
96.80587531189123
 30
0.0
 11
-55.99992494325377
 21
3.387852949929695
 31
0.0
  0
LINE
  5
469
330
1F
100
AcDbEntity
  8
仕上
  6
Continuous
 62
     3
370
     9
100
AcDbLine
 10
133.05318059148
 20
132.5600512712978
 30
0.0
 11
208.9669882284627
 21
85.40108933084177
 31
0.0
  0
LINE
  5
46A
330
1F
100
AcDbEntity
  8
仕上
  6
Continuous
 62
     3
370
     9
100
AcDbLine
 10
74.11287874788857
 20
102.1902153403964
 30
0.0
 11
126.8872400232262
 21
132.6594725920327
 31
0.0
  0
LINE
  5
46B
330
1F
100
AcDbEntity
  8
仕上
  6
Continuous
 62
     3
370
     9
100
AcDbLine
 10
71.11603608002522
 20
96.80050586774014
 30
0.0
 11
74.00003381677575
 21
7.477897126186051
 31
0.0
  0
LINE
  5
46C
330
1F
100
AcDbEntity
  8
仕上
  6
Continuous
 62
     3
370
     9
100
AcDbLine
 10
133.0000923775338
 20
129.2605278403964
 30
0.0
 11
207.176798227671
 21
86.43462072600643
 31
0.0
  0
LINE
  5
46D
330
1F
100
AcDbEntity
  8
仕上
  6
Continuous
 62
     3
370
     9
100
AcDbLine
 10
77.00008083034203
 20
100.3930970245707
 30
0.0
 11
127.0000849543391
 21
129.2605278403964
 31
0.0
  0
LINE
  5
46E
330
1F
100
AcDbEntity
  8
仕上
  6
Continuous
 62
     3
370
     9
100
AcDbLine
 10
58.88911891627953
 20
96.80587531189123
 30
0.0
 11
56.0000115471916
 21
3.387852949929695
 31
0.0
  0
LINE
  5
46F
330
1F
100
AcDbEntity
  8
仕上
  6
Continuous
 62
     3
370
     9
100
AcDbLine
 10
55.89192983266466
 20
102.1875306183207
 30
0.0
 11
2.999960409628244
 21
132.7246853572882
 31
0.0
  0
LINE
  5
470
330
1F
100
AcDbEntity
  8
仕上
  6
Continuous
 62
     3
370
     9
100
AcDbLine
 10
52.99996453362533
 20
100.3930970245707
 30
0.0
 11
2.999960409628244
 21
129.2605278403964
 31
0.0
  0
LINE
  5
471
330
1F
100
AcDbEntity
  8
仕上
  6
Continuous
 62
     3
370
     9
100
AcDbLine
 10
139.1620491646432
 20
143.1515396713189
 30
0.0
 11
221.508883914432
 21
98.94455955888229
 31
0.0
  0
LINE
  5
472
330
1F
100
AcDbEntity
  8
仕上
  6
Continuous
 62
     3
370
     9
100
AcDbLine
 10
136.000052787162
 20
148.4379306460339
 30
0.0
 11
136.000052787162
 21
209.5120669160931
 31
0.0
  0
LINE
  5
473
330
1F
100
AcDbEntity
  8
仕上
  6
Continuous
 62
     3
370
     9
100
AcDbLine
 10
139.0000998007283
 20
150.045126525996
 30
0.0
 11
139.0000998007283
 21
207.7800747615851
 31
0.0
  0
LINE
  5
474
330
1F
100
AcDbEntity
  8
仕上
  6
Continuous
 62
     3
370
     9
100
AcDbLine
 10
132.2177124023437
 20
-352.0741996788711
 30
0.0
 11
127.7819453059016
 21
-352.0741996788711
 31
0.0
  0
LINE
  5
475
330
1F
100
AcDbEntity
  8
建具
  6
Continuous
 62
     4
370
     9
100
AcDbLine
 10
145.2498729808909
 20
-332.5741106005348
 30
0.0
 11
145.2498729808909
 21
-357.8241815332841
 31
0.0
  0
LINE
  5
476
330
1F
100
AcDbEntity
  8
建具
  6
Continuous
 62
     4
370
     9
100
AcDbLine
 10
138.2498498865075
 20
-332.5741106005348
 30
0.0
 11
138.2498498865075
 21
-357.8241815332841
 31
0.0
  0
LINE
  5
477
330
1F
100
AcDbEntity
  8
建具
  6
Continuous
 62
     4
370
     9
100
AcDbLine
 10
114.7498713312922
 20
-332.5741972044728
 30
0.0
 11
114.7498713312922
 21
-357.8241815332841
 31
0.0
  0
LINE
  5
478
330
1F
100
AcDbEntity
  8
建具
  6
Continuous
 62
     4
370
     9
100
AcDbLine
 10
121.7498944256756
 20
-332.5741972044728
 30
0.0
 11
121.7498944256756
 21
-357.8241815332841
 31
0.0
  0
LINE
  5
479
330
1F
100
AcDbEntity
  8
建具
  6
Continuous
 62
     4
370
     9
100
AcDbLine
 10
149.2498490617081
 20
-342.0740429669834
 30
0.0
 11
153.3082828006229
 21
-342.0740429669834
 31
0.0
  0
LINE
  5
47A
330
1F
100
AcDbEntity
  8
建具
  6
Continuous
 62
     4
370
     9
100
AcDbLine
 10
149.2498490617081
 20
-332.0741460669095
 30
0.0
 11
153.3082828006229
 21
-332.0741460669095
 31
0.0
  0
LINE
  5
47B
330
1F
100
AcDbEntity
  8
建具
  6
Continuous
 62
     4
370
     9
100
AcDbLine
 10
145.2498729808909
 20
-333.5741262717236
 30
0.0
 11
145.6793419090477
 21
-333.5741262717236
 31
0.0
  0
LINE
  5
47C
330
1F
100
AcDbEntity
  8
建具
  6
Continuous
 62
     4
370
     9
100
AcDbLine
 10
145.2498729808909
 20
-340.5741493661071
 30
0.0
 11
145.6793419090477
 21
-340.5741493661071
 31
0.0
  0
LINE
  5
47D
330
1F
100
AcDbEntity
  8
建具
  6
Continuous
 62
     4
370
     9
100
AcDbLine
 10
114.2499067976667
 20
-334.5740553389745
 30
0.0
 11
114.2499067976667
 21
-339.5741336949184
 31
0.0
  0
LINE
  5
47E
330
1F
100
AcDbEntity
  8
建具
  6
Continuous
 62
     4
370
     9
100
AcDbLine
 10
114.2499067976667
 20
-334.5740553389745
 30
0.0
 11
114.7498713312922
 21
-334.0740908053491
 31
0.0
  0
LINE
  5
47F
330
1F
100
AcDbEntity
  8
建具
  6
Continuous
 62
     4
370
     9
100
AcDbLine
 10
114.2499067976667
 20
-339.5741336949184
 30
0.0
 11
114.7498713312922
 21
-340.0740116246059
 31
0.0
  0
LINE
  5
480
330
1F
100
AcDbEntity
  8
建具
  6
Continuous
 62
     4
370
     9
100
AcDbLine
 10
114.2499067976667
 20
-334.5740553389745
 30
0.0
 11
114.7498713312922
 21
-334.5740553389745
 31
0.0
  0
LINE
  5
481
330
1F
100
AcDbEntity
  8
建具
  6
Continuous
 62
     4
370
     9
100
AcDbLine
 10
114.2499067976667
 20
-339.5741336949184
 30
0.0
 11
114.7498713312922
 21
-339.5741336949184
 31
0.0
  0
LINE
  5
482
330
1F
100
AcDbEntity
  8
建具
  6
Continuous
 62
     4
370
     9
100
AcDbLine
 10
120.9999043232685
 20
-402.0742038028681
 30
0.0
 11
120.9999043232685
 21
-426.0741468917089
 31
0.0
  0
LINE
  5
483
330
1F
100
AcDbEntity
  8
建具
  6
Continuous
 62
     4
370
     9
100
AcDbLine
 10
133.9998482369088
 20
-402.0742038028681
 30
0.0
 11
133.9998482369088
 21
-426.0741468917089
 31
0.0
  0
LINE
  5
484
330
1F
100
AcDbEntity
  8
建具
  6
Continuous
 62
     4
370
     9
100
AcDbLine
 10
125.9998960752743
 20
-402.0742038028681
 30
0.0
 11
125.9998960752743
 21
-426.0741468917089
 31
0.0
  0
LINE
  5
485
330
1F
100
AcDbEntity
  8
建具
  6
Continuous
 62
     4
370
     9
100
AcDbLine
 10
132.4998680320946
 20
-427.574213700461
 30
0.0
 11
132.4998680320946
 21
-429.1966518734973
 31
0.0
  0
LINE
  5
486
330
1F
100
AcDbEntity
  8
建具
  6
Continuous
 62
     4
370
     9
100
AcDbLine
 10
127.4998762800885
 20
-427.574213700461
 30
0.0
 11
127.4998762800885
 21
-429.1966518734973
 31
0.0
  0
LINE
  5
487
330
1F
100
AcDbEntity
  8
建具
  6
Continuous
 62
     4
370
     9
100
AcDbLine
 10
132.4998680320946
 20
-400.574136994116
 30
0.0
 11
132.4998680320946
 21
-398.9516988210797
 31
0.0
  0
LINE
  5
488
330
1F
100
AcDbEntity
  8
建具
  6
Continuous
 62
     4
370
     9
100
AcDbLine
 10
127.4998762800885
 20
-400.574136994116
 30
0.0
 11
127.4998762800885
 21
-398.9516988210797
 31
0.0
  0
LINE
  5
489
330
1F
100
AcDbEntity
  8
建具
  6
Continuous
 62
     4
370
     9
100
AcDbLine
 10
132.4998680320946
 20
-372.8678917779525
 30
0.0
 11
132.4998680320946
 21
-393.4282728682714
 31
0.0
  0
LINE
  5
48A
330
1F
100
AcDbEntity
  8
建具
  6
Continuous
 62
     4
370
     9
100
AcDbLine
 10
127.4998762800885
 20
-372.8678917779525
 30
0.0
 11
127.4998762800885
 21
-393.4282728682714
 31
0.0
  0
LINE
  5
48B
330
1F
100
AcDbEntity
  8
建具
  6
Continuous
 62
     4
370
     9
100
AcDbLine
 10
127.4998762800885
 20
-363.5742499916349
 30
0.0
 11
127.4998762800885
 21
-365.6862602257461
 31
0.0
  0
LINE
  5
48C
330
1F
100
AcDbEntity
  8
建具
  6
Continuous
 62
     4
370
     9
100
AcDbLine
 10
132.4998680320946
 20
-363.5742499916349
 30
0.0
 11
132.4998680320946
 21
-365.6862602257461
 31
0.0
  0
LINE
  5
48D
330
1F
100
AcDbEntity
  8
建具
  6
Continuous
 62
     4
370
     9
100
AcDbLine
 10
132.4998680320946
 20
-445.4042324399036
 30
0.0
 11
132.4998680320946
 21
-434.7199912223677
 31
0.0
  0
LINE
  5
48E
330
1F
100
AcDbEntity
  8
建具
  6
Continuous
 62
     4
370
     9
100
AcDbLine
 10
127.4998762800885
 20
-446.7439953595615
 30
0.0
 11
127.4998762800885
 21
-434.7199912223677
 31
0.0
  0
LINE
  5
48F
330
1F
100
AcDbEntity
  8
建具
  6
Continuous
 62
     4
370
     9
100
AcDbLine
 10
138.9998399889146
 20
-402.0742038028681
 30
0.0
 11
138.9998399889146
 21
-426.0741468917089
 31
0.0
  0
LINE
  5
490
330
1F
100
AcDbEntity
  8
建具
  6
Continuous
 62
     4
370
     9
100
AcDbLine
 10
120.9999043232685
 20
-448.485513947241
 30
0.0
 11
138.9998399889146
 21
-443.6626272482861
 31
0.0
  0
LINE
  5
491
330
1F
100
AcDbEntity
  8
建具
  6
Continuous
 62
     4
370
     9
100
AcDbLine
 10
145.6792553051096
 20
-333.5740396677857
 30
0.0
 11
145.6792553051096
 21
-340.5741493661071
 31
0.0
  0
LINE
  5
492
330
1F
100
AcDbEntity
  8
建具
  6
Continuous
 62
     4
370
     9
100
AcDbLine
 10
121.7498944256756
 20
-333.5741262717236
 30
0.0
 11
123.6036517169024
 21
-333.5741262717236
 31
0.0
  0
LINE
  5
493
330
1F
100
AcDbEntity
  8
建具
  6
Continuous
 62
     4
370
     9
100
AcDbLine
 10
136.3960925952807
 20
-333.5741262717236
 30
0.0
 11
138.2498498865075
 21
-333.5741262717236
 31
0.0
  0
LINE
  5
494
330
1F
100
AcDbEntity
  8
建具
  6
Continuous
 62
     4
370
     9
100
AcDbLine
 10
121.7498944256756
 20
-340.5741493661071
 30
0.0
 11
124.1319357382283
 21
-340.5741493661071
 31
0.0
  0
LINE
  5
495
330
1F
100
AcDbEntity
  8
建具
  6
Continuous
 62
     4
370
     9
100
AcDbLine
 10
135.8678085739548
 20
-340.5741493661071
 30
0.0
 11
138.2498498865075
 21
-340.5741493661071
 31
0.0
  0
LINE
  5
496
330
1F
100
AcDbEntity
  8
建具
  6
Continuous
 62
     4
370
     9
100
AcDbLine
 10
121.7498944256756
 20
-334.5740553389745
 30
0.0
 11
123.6790837468327
 21
-334.5740553389745
 31
0.0
  0
LINE
  5
497
330
1F
100
AcDbEntity
  8
建具
  6
Continuous
 62
     4
370
     9
100
AcDbLine
 10
121.7498944256756
 20
-339.5741336949184
 30
0.0
 11
124.056503708298
 21
-339.5741336949184
 31
0.0
  0
LINE
  5
498
330
1F
100
AcDbEntity
  8
仕上
  6
Continuous
 62
     3
370
     9
100
AcDbLine
 10
309.0001657846811
 20
297.4959519852442
 30
0.0
 11
324.0001410406988
 21
291.4958579581117
 31
0.0
  0
LINE
  5
499
330
1F
100
AcDbEntity
  8
躯体
  6
Continuous
 62
     2
370
     9
100
AcDbLine
 10
353.9997451369827
 20
291.4958579581117
 30
0.0
 11
354.0000915527344
 21
590.7380982452738
 31
0.0
  0
LINE
  5
49A
330
1F
100
AcDbEntity
  8
仕上
  6
Continuous
 62
     3
370
     9
100
AcDbLine
 10
309.0001657846811
 20
291.4958579581117
 30
0.0
 11
309.0001657846811
 21
297.4959519852442
 31
0.0
  0
LINE
  5
49B
330
1F
100
AcDbEntity
  8
躯体
  6
Continuous
 62
     2
370
     9
100
AcDbLine
 10
-354.0001781566725
 20
291.4958579581117
 30
0.0
 11
-354.0001781566725
 21
590.7382714531497
 31
0.0
  0
LINE
  5
49C
330
1F
100
AcDbEntity
  8
仕上
  6
Continuous
 62
     3
370
     9
100
AcDbLine
 10
-308.9998193689295
 20
297.4959519852442
 30
0.0
 11
-308.9998193689295
 21
291.4958579581117
 31
0.0
  0
LINE
  5
49D
330
1F
100
AcDbEntity
  8
仕上
  6
Continuous
 62
     3
370
     9
100
AcDbLine
 10
135.2092722299936
 20
-349.3000157354061
 30
0.0
 11
136.9920142921241
 21
-325.6780122316582
 31
0.0
  0
LINE
  5
49E
330
1F
100
AcDbEntity
  8
仕上
  6
Continuous
 62
     3
370
     9
100
AcDbLine
 10
124.7904720821895
 20
-349.3000157354061
 30
0.0
 11
122.9924011230468
 21
-325.4756188287338
 31
0.0
  0
LINE
  5
49F
330
1F
100
AcDbEntity
  8
仕上
  6
JWW_CENTER1
 62
     3
370
     9
100
AcDbLine
 10
0.0
 20
667.4958612573093
 30
0.0
 11
0.0
 21
-84.50379892533431
 31
0.0
  0
LINE
  5
4A0
330
1F
100
AcDbEntity
  8
躯体
  6
JWW_CENTER1
 62
     2
370
     9
100
AcDbLine
 10
330.8354434451542
 20
598.6602800706539
 30
0.0
 11
307.1652015479835
 21
622.3305219678247
 31
0.0
  0
LINE
  5
4A1
330
1F
100
AcDbEntity
  8
躯体
  6
JWW_CENTER1
 62
     2
370
     9
100
AcDbLine
 10
307.1652015479835
 20
598.6602800706539
 30
0.0
 11
330.8354434451542
 21
622.3305219678247
 31
0.0
  0
LINE
  5
4A2
330
1F
100
AcDbEntity
  8
躯体
  6
Continuous
 62
     2
370
     9
100
AcDbLine
 10
354.9995009963577
 20
-7.746468932988407
 30
0.0
 11
355.0001938278611
 21
590.7380982452738
 31
0.0
  0
LINE
  5
4A3
330
1F
100
AcDbEntity
  8
躯体
  6
Continuous
 62
     2
370
     9
100
AcDbLine
 10
299.2416340595967
 20
-63.50485549337698
 30
0.0
 11
-299.2429331186656
 21
-63.50346983037019
 31
0.0
  0
LINE
  5
4A4
330
1F
100
AcDbEntity
  8
躯体
  6
Continuous
 62
     2
370
     9
100
AcDbLine
 10
-355.000280431799
 20
-7.746555536926437
 30
0.0
 11
-355.000280431799
 21
590.7382714531497
 31
0.0
  0
LINE
  5
4A5
330
1F
100
AcDbEntity
  8
躯体
  6
JWW_CENTER1
 62
     2
370
     9
100
AcDbLine
 10
330.8354434451542
 20
-15.66856415443054
 30
0.0
 11
307.1652015479835
 21
-39.33880605160122
 31
0.0
  0
LINE
  5
4A6
330
1F
100
AcDbEntity
  8
躯体
  6
JWW_CENTER1
 62
     2
370
     9
100
AcDbLine
 10
307.1652015479835
 20
-15.66856415443054
 30
0.0
 11
330.8354434451542
 21
-39.33880605160122
 31
0.0
  0
LINE
  5
4A7
330
1F
100
AcDbEntity
  8
躯体
  6
JWW_CENTER1
 62
     2
370
     9
100
AcDbLine
 10
-330.8354434451542
 20
-15.66856415443054
 30
0.0
 11
-307.1652015479835
 21
-39.33880605160122
 31
0.0
  0
LINE
  5
4A8
330
1F
100
AcDbEntity
  8
躯体
  6
JWW_CENTER1
 62
     2
370
     9
100
AcDbLine
 10
-307.1652015479835
 20
-15.66856415443054
 30
0.0
 11
-330.8354434451542
 21
-39.33880605160122
 31
0.0
  0
LINE
  5
4A9
330
1F
100
AcDbEntity
  8
躯体
  6
JWW_CENTER1
 62
     2
370
     9
100
AcDbLine
 10
-330.8354434451542
 20
598.6602800706539
 30
0.0
 11
-307.1652015479835
 21
622.3305219678247
 31
0.0
  0
LINE
  5
4AA
330
1F
100
AcDbEntity
  8
躯体
  6
JWW_CENTER1
 62
     2
370
     9
100
AcDbLine
 10
-307.1652015479835
 20
598.6602800706539
 30
0.0
 11
-330.8354434451542
 21
622.3305219678247
 31
0.0
  0
LINE
  5
4AB
330
1F
100
AcDbEntity
  8
仕上
  6
JWW_CENTER1
 62
     3
370
     9
100
AcDbLine
 10
0.0005196236275822
 20
-384.9436850700239
 30
0.0
 11
0.0005196236275822
 21
-303.2818874692005
 31
0.0
  0
LINE
  5
4AC
330
1F
100
AcDbEntity
  8
その他
  6
Continuous
 62
     7
370
     9
100
AcDbLine
 10
424.999905148068
 20
-27.50368510301588
 30
0.0
 11
424.999905148068
 21
610.4954010192392
 31
0.0
  0
LINE
  5
4AD
330
1F
100
AcDbEntity
  8
その他
  6
Continuous
 62
     7
370
     9
100
AcDbLine
 10
329.5003571381441
 20
-27.50368510301588
 30
0.0
 11
427.0998774348079
 21
-27.50368510301588
 31
0.0
  0
LINE
  5
4AE
330
1F
100
AcDbEntity
  8
その他
  6
Continuous
 62
     7
370
     9
100
AcDbLine
 10
329.5003571381441
 20
610.4954010192392
 30
0.0
 11
427.0998774348079
 21
610.4954010192392
 31
0.0
  0
LINE
  5
4AF
330
1F
100
AcDbEntity
  8
その他
  6
Continuous
 62
     7
370
     9
100
AcDbLine
 10
424.999905148068
 20
-27.50368510301588
 30
0.0
 11
422.7156396814294
 21
-10.15336557572483
 31
0.0
  0
LINE
  5
4B0
330
1F
100
AcDbEntity
  8
その他
  6
Continuous
 62
     7
370
     9
100
AcDbLine
 10
424.999905148068
 20
-27.50368510301588
 30
0.0
 11
427.2841706147066
 21
-10.15336557572483
 31
0.0
  0
LINE
  5
4B1
330
1F
100
AcDbEntity
  8
その他
  6
Continuous
 62
     7
370
     9
100
AcDbLine
 10
424.999905148068
 20
610.4954010192392
 30
0.0
 11
422.7156396814294
 21
593.1451680958862
 31
0.0
  0
LINE
  5
4B2
330
1F
100
AcDbEntity
  8
その他
  6
Continuous
 62
     7
370
     9
100
AcDbLine
 10
424.999905148068
 20
610.4954010192392
 30
0.0
 11
427.2841706147066
 21
593.1451680958862
 31
0.0
  0
LINE
  5
4B3
330
1F
100
AcDbEntity
  8
その他
  6
Continuous
 62
     7
370
     9
100
AcDbLine
 10
424.999905148068
 20
-372.5051078819961
 30
0.0
 11
424.999905148068
 21
-322.505103757999
 31
0.0
  0
LINE
  5
4B4
330
1F
100
AcDbEntity
  8
その他
  6
Continuous
 62
     7
370
     9
100
AcDbLine
 10
365.5002284694363
 20
-372.5051078819961
 30
0.0
 11
427.0998774348079
 21
-372.5051078819961
 31
0.0
  0
LINE
  5
4B5
330
1F
100
AcDbEntity
  8
その他
  6
Continuous
 62
     7
370
     9
100
AcDbLine
 10
343.5004033269109
 20
-322.505103757999
 30
0.0
 11
427.0998774348079
 21
-322.505103757999
 31
0.0
  0
LINE
  5
4B6
330
1F
100
AcDbEntity
  8
その他
  6
Continuous
 62
     7
370
     9
100
AcDbLine
 10
424.999905148068
 20
-372.5051078819961
 30
0.0
 11
422.7156396814294
 21
-355.1548749586431
 31
0.0
  0
LINE
  5
4B7
330
1F
100
AcDbEntity
  8
その他
  6
Continuous
 62
     7
370
     9
100
AcDbLine
 10
424.999905148068
 20
-372.5051078819961
 30
0.0
 11
427.2841706147066
 21
-355.1548749586431
 31
0.0
  0
LINE
  5
4B8
330
1F
100
AcDbEntity
  8
その他
  6
Continuous
 62
     7
370
     9
100
AcDbLine
 10
424.999905148068
 20
-322.505103757999
 30
0.0
 11
422.7156396814294
 21
-339.8554232852899
 31
0.0
  0
LINE
  5
4B9
330
1F
100
AcDbEntity
  8
その他
  6
Continuous
 62
     7
370
     9
100
AcDbLine
 10
424.999905148068
 20
-322.505103757999
 30
0.0
 11
427.2841706147066
 21
-339.8554232852899
 31
0.0
  0
LINE
  5
4BA
330
1F
100
AcDbEntity
  8
その他
  6
Continuous
 62
     7
370
     9
100
AcDbLine
 10
322.7493203652871
 20
-33.99993309050522
 30
0.0
 11
333.4026439769847
 21
-47.88358358670457
 31
0.0
  0
LINE
  5
4BB
330
1F
100
AcDbEntity
  8
その他
  6
Continuous
 62
     7
370
     9
100
AcDbLine
 10
322.7493203652871
 20
-33.99993309050522
 30
0.0
 11
329.4463162808805
 21
-50.16784905334315
 31
0.0
  0
LINE
  5
4BC
330
1F
100
AcDbEntity
  8
その他
  6
Continuous
 62
     7
370
     9
100
AcDbLine
 10
-325.0000701079497
 20
-252.5051326259783
 30
0.0
 11
325.0010227512668
 21
-252.5051326259783
 31
0.0
  0
LINE
  5
4BD
330
1F
100
AcDbEntity
  8
その他
  6
Continuous
 62
     7
370
     9
100
AcDbLine
 10
-325.0000701079497
 20
-312.0041164731067
 30
0.0
 11
-325.0000701079497
 21
-250.4050737353005
 31
0.0
  0
LINE
  5
4BE
330
1F
100
AcDbEntity
  8
その他
  6
Continuous
 62
     7
370
     9
100
AcDbLine
 10
325.0010227512668
 20
-312.0041164731067
 30
0.0
 11
325.0010227512668
 21
-250.4050737353005
 31
0.0
  0
LINE
  5
4BF
330
1F
100
AcDbEntity
  8
その他
  6
Continuous
 62
     7
370
     9
100
AcDbLine
 10
-325.0000701079497
 20
-252.5051326259783
 30
0.0
 11
-307.6497505806589
 21
-250.2208671593398
 31
0.0
  0
LINE
  5
4C0
330
1F
100
AcDbEntity
  8
その他
  6
Continuous
 62
     7
370
     9
100
AcDbLine
 10
-325.0000701079497
 20
-252.5051326259783
 30
0.0
 11
-307.6497505806589
 21
-254.7893114886789
 31
0.0
  0
LINE
  5
4C1
330
1F
100
AcDbEntity
  8
その他
  6
Continuous
 62
     7
370
     9
100
AcDbLine
 10
325.0010227512668
 20
-252.5051326259783
 30
0.0
 11
307.6507032239759
 21
-250.2208671593398
 31
0.0
  0
LINE
  5
4C2
330
1F
100
AcDbEntity
  8
その他
  6
Continuous
 62
     7
370
     9
100
AcDbLine
 10
325.0010227512668
 20
-252.5051326259783
 30
0.0
 11
307.6507032239759
 21
-254.7893114886789
 31
0.0
  0
LINE
  5
4C3
330
1F
100
AcDbEntity
  8
その他
  6
Continuous
 62
     7
370
     9
100
AcDbLine
 10
-354.9995876002957
 20
-196.5051210787866
 30
0.0
 11
355.0001938278611
 21
-196.5051210787866
 31
0.0
  0
LINE
  5
4C4
330
1F
100
AcDbEntity
  8
その他
  6
Continuous
 62
     7
370
     9
100
AcDbLine
 10
-354.9995876002957
 20
-362.0050732404209
 30
0.0
 11
-354.9995876002957
 21
-194.4050621881088
 31
0.0
  0
LINE
  5
4C5
330
1F
100
AcDbEntity
  8
その他
  6
Continuous
 62
     7
370
     9
100
AcDbLine
 10
355.0001938278611
 20
-362.0050732404209
 30
0.0
 11
355.0001938278611
 21
-194.4050621881088
 31
0.0
  0
LINE
  5
4C6
330
1F
100
AcDbEntity
  8
その他
  6
Continuous
 62
     7
370
     9
100
AcDbLine
 10
-354.9995876002957
 20
-196.5051210787866
 30
0.0
 11
-337.6492680730047
 21
-194.2208556121481
 31
0.0
  0
LINE
  5
4C7
330
1F
100
AcDbEntity
  8
その他
  6
Continuous
 62
     7
370
     9
100
AcDbLine
 10
-354.9995876002957
 20
-196.5051210787866
 30
0.0
 11
-337.6492680730047
 21
-198.7892999414872
 31
0.0
  0
LINE
  5
4C8
330
1F
100
AcDbEntity
  8
その他
  6
Continuous
 62
     7
370
     9
100
AcDbLine
 10
355.0001938278611
 20
-196.5051210787866
 30
0.0
 11
337.64987430057
 21
-194.2208556121481
 31
0.0
  0
LINE
  5
4C9
330
1F
100
AcDbEntity
  8
その他
  6
Continuous
 62
     7
370
     9
100
AcDbLine
 10
355.0001938278611
 20
-196.5051210787866
 30
0.0
 11
337.64987430057
 21
-198.7892999414872
 31
0.0
  0
LINE
  5
4CA
330
1F
100
AcDbEntity
  8
その他
  6
Continuous
 62
     7
370
     9
100
AcDbLine
 10
-299.9996783282306
 20
-442.5051656179547
 30
0.0
 11
300.0004577636719
 21
-442.5051656179547
 31
0.0
  0
LINE
  5
4CB
330
1F
100
AcDbEntity
  8
その他
  6
Continuous
 62
     7
370
     9
100
AcDbLine
 10
-299.9996783282306
 20
-383.0051425235712
 30
0.0
 11
-299.9996783282306
 21
-444.6051379046945
 31
0.0
  0
LINE
  5
4CC
330
1F
100
AcDbEntity
  8
その他
  6
Continuous
 62
     7
370
     9
100
AcDbLine
 10
300.0004577636719
 20
-383.0051425235712
 30
0.0
 11
300.0004577636719
 21
-444.6051379046945
 31
0.0
  0
LINE
  5
4CD
330
1F
100
AcDbEntity
  8
その他
  6
Continuous
 62
     7
370
     9
100
AcDbLine
 10
-299.9996783282306
 20
-442.5051656179547
 30
0.0
 11
-282.6493588009396
 21
-440.2209001513161
 31
0.0
  0
LINE
  5
4CE
330
1F
100
AcDbEntity
  8
その他
  6
Continuous
 62
     7
370
     9
100
AcDbLine
 10
-299.9996783282306
 20
-442.5051656179547
 30
0.0
 11
-282.6493588009396
 21
-444.7893444806552
 31
0.0
  0
LINE
  5
4CF
330
1F
100
AcDbEntity
  8
その他
  6
Continuous
 62
     7
370
     9
100
AcDbLine
 10
300.0004577636719
 20
-442.5051656179547
 30
0.0
 11
282.6501382363808
 21
-440.2209001513161
 31
0.0
  0
LINE
  5
4D0
330
1F
100
AcDbEntity
  8
その他
  6
Continuous
 62
     7
370
     9
100
AcDbLine
 10
300.0004577636719
 20
-442.5051656179547
 30
0.0
 11
282.6501382363808
 21
-444.7893444806552
 31
0.0
  0
LINE
  5
4D1
330
1F
100
AcDbEntity
  8
その他
  6
Continuous
 62
     7
370
     9
100
AcDbLine
 10
46.68298669763513
 20
-316.7552085075239
 30
0.0
 11
44.48878932643578
 21
-299.3933706564893
 31
0.0
  0
LINE
  5
4D2
330
1F
100
AcDbEntity
  8
その他
  6
Continuous
 62
     7
370
     9
100
AcDbLine
 10
46.68298669763513
 20
-316.7552085075239
 30
0.0
 11
49.05714705183686
 21
-299.41710013548
 31
0.0
  0
LINE
  5
4D3
330
1F
100
AcDbEntity
  8
その他
  6
Continuous
 62
     7
370
     9
100
AcDbLine
 10
46.64150341137037
 20
-324.7555936888478
 30
0.0
 11
48.83570078256972
 21
-342.1175181438204
 31
0.0
  0
LINE
  5
4D4
330
1F
100
AcDbEntity
  8
その他
  6
Continuous
 62
     7
370
     9
100
AcDbLine
 10
46.64150341137037
 20
-324.7555936888478
 30
0.0
 11
44.26734305716843
 21
-342.0937886648297
 31
0.0
  0
LINE
  5
4D5
330
1F
100
AcDbEntity
  8
仕上
  6
Continuous
 62
     3
370
     9
100
AcDbLine
 10
-151.2009491791597
 20
-338.633874740896
 30
0.0
 11
8.87785628035249
 21
-338.633874740896
 31
0.0
  0
LINE
  5
4D6
330
1F
100
AcDbEntity
  8
仕上
  6
Continuous
 62
     3
370
     9
100
AcDbLine
 10
59.00066478832349
 20
-338.633874740896
 30
0.0
 11
114.2499067976667
 21
-338.633874740896
 31
0.0
  0
LINE
  5
4D7
330
1F
100
AcDbEntity
  8
その他
  6
Continuous
 62
     7
370
     9
100
AcDbLine
 10
46.43694490999795
 20
-364.1779660428913
 30
0.0
 11
46.90131522513718
 21
-274.656168244116
 31
0.0
  0
LINE
  5
4D8
330
1F
100
AcDbEntity
  8
その他
  6
Continuous
 62
     7
370
     9
100
AcDbLine
 10
322.7493203652871
 20
-33.99993309050522
 30
0.0
 11
359.9913519781988
 21
-98.50505756923205
 31
0.0
  0
LINE
  5
4D9
330
1F
100
AcDbEntity
  8
その他
  6
Continuous
 62
     7
370
     9
100
AcDbLine
 10
359.9913519781988
 20
-98.50505756923205
 30
0.0
 11
485.8209847115182
 21
-98.50505756923205
 31
0.0
  0
LINE
  5
4DA
330
1F
100
AcDbEntity
  8
0-E
  6
Continuous
 62
     7
370
     9
100
AcDbLine
 10
333.0003686853357
 20
-322.505103757999
 30
0.0
 11
339.6973646009291
 21
-306.3372743990991
 31
0.0
  0
LINE
  5
4DB
330
1F
100
AcDbEntity
  8
0-E
  6
Continuous
 62
     7
370
     9
100
AcDbLine
 10
333.0003686853357
 20
-322.505103757999
 30
0.0
 11
343.6536922970333
 21
-308.6213666578618
 31
0.0
  0
LINE
  5
4DC
330
1F
100
AcDbEntity
  8
0-E
  6
Continuous
 62
     7
370
     9
100
AcDbLine
 10
313.3927175161001
 20
-322.0922627859234
 30
0.0
 11
320.0897134316933
 21
-305.9244334270235
 31
0.0
  0
LINE
  5
4DD
330
1F
100
AcDbEntity
  8
0-E
  6
Continuous
 62
     7
370
     9
100
AcDbLine
 10
313.3927175161001
 20
-322.0922627859234
 30
0.0
 11
324.0460411277977
 21
-308.2086122897241
 31
0.0
  0
LINE
  5
4DE
330
1F
100
AcDbEntity
  8
0-E
  6
Continuous
 62
     7
370
     9
100
AcDbLine
 10
310.8498526908255
 20
-356.0049792132883
 30
0.0
 11
321.5031763025232
 21
-369.8886297094876
 31
0.0
  0
LINE
  5
4DF
330
1F
100
AcDbEntity
  8
0-E
  6
Continuous
 62
     7
370
     9
100
AcDbLine
 10
310.8498526908255
 20
-356.0049792132883
 30
0.0
 11
317.546848606419
 21
-372.1728951761261
 31
0.0
  0
LINE
  5
4E0
330
1F
100
AcDbEntity
  8
0-E
  6
Continuous
 62
     7
370
     9
100
AcDbLine
 10
134.4998127705341
 20
-433.8683280968398
 30
0.0
 11
145.1531363822317
 21
-447.7519785930392
 31
0.0
  0
LINE
  5
4E1
330
1F
100
AcDbEntity
  8
0-E
  6
Continuous
 62
     7
370
     9
100
AcDbLine
 10
134.4998127705341
 20
-433.8683280968398
 30
0.0
 11
141.1968086861275
 21
-450.0362440596776
 31
0.0
  0
LINE
  5
4E2
330
1F
100
AcDbEntity
  8
0-E
  6
Continuous
 62
     7
370
     9
100
AcDbLine
 10
333.0003686853357
 20
-322.505103757999
 30
0.0
 11
373.4149623561551
 21
-252.5051326259783
 31
0.0
  0
LINE
  5
4E3
330
1F
100
AcDbEntity
  8
0-E
  6
Continuous
 62
     7
370
     9
100
AcDbLine
 10
313.3927175161001
 20
-322.0922627859234
 30
0.0
 11
402.0663163468644
 21
-168.5050287012529
 31
0.0
  0
LINE
  5
4E4
330
1F
100
AcDbEntity
  8
0-E
  6
Continuous
 62
     7
370
     9
100
AcDbLine
 10
310.8498526908255
 20
-356.0049792132883
 30
0.0
 11
360.7908795330975
 21
-442.5051656179547
 31
0.0
  0
LINE
  5
4E5
330
1F
100
AcDbEntity
  8
0-E
  6
Continuous
 62
     7
370
     9
100
AcDbLine
 10
134.4998127705341
 20
-433.8683280968398
 30
0.0
 11
187.9837201092694
 21
-526.5050963348043
 31
0.0
  0
LINE
  5
4E6
330
1F
100
AcDbEntity
  8
建具
  6
JWW_CENTER1
 62
     4
370
     9
100
AcDbLine
 10
129.9998721560916
 20
-514.7593506501548
 30
0.0
 11
129.9998721560916
 21
-321.3864406918567
 31
0.0
  0
LINE
  5
4E7
330
1F
100
AcDbEntity
  8
建具
  6
JWW_CENTER1
 62
     4
370
     9
100
AcDbLine
 10
119.9998886520798
 20
-524.7593341541666
 30
0.0
 11
-75.75783394478475
 21
-524.7593341541666
 31
0.0
  0
LINE
  5
4E8
330
1F
100
AcDbEntity
  8
0-E
  6
Continuous
 62
     7
370
     9
100
AcDbLine
 10
187.9837201092694
 20
-526.5050963348043
 30
0.0
 11
511.9320719950908
 21
-526.5050963348043
 31
0.0
  0
LINE
  5
4E9
330
1F
100
AcDbEntity
  8
その他
  6
Continuous
 62
     7
370
     9
100
AcDbLine
 10
81.52799451673351
 20
595.7625123077738
 30
0.0
 11
83.81217337943406
 21
613.112745231127
 31
0.0
  0
LINE
  5
4EA
330
1F
100
AcDbEntity
  8
その他
  6
Continuous
 62
     7
370
     9
100
AcDbLine
 10
81.52799451673351
 20
595.7625123077738
 30
0.0
 11
88.22499043232673
 21
611.9304282706117
 31
0.0
  0
LINE
  5
4EB
330
1F
100
AcDbEntity
  8
その他
  6
Continuous
 62
     7
370
     9
100
AcDbLine
 10
81.52799451673351
 20
595.7625123077738
 30
0.0
 11
104.5001220703125
 21
681.4957342382003
 31
0.0
  0
LINE
  5
4EC
330
1F
100
AcDbEntity
  8
その他
  6
Continuous
 62
     7
370
     9
100
AcDbLine
 10
104.5001220703125
 20
681.4957342382003
 30
0.0
 11
494.6741588695628
 21
681.4955610303247
 31
0.0
  0
LINE
  5
4ED
330
1F
100
AcDbEntity
  8
0-E
  6
Continuous
 62
     7
370
     9
100
AcDbLine
 10
402.0663163468644
 20
-168.5050287012529
 30
0.0
 11
567.247219601193
 21
-168.5050287012529
 31
0.0
  0
LINE
  5
4EE
330
1F
100
AcDbEntity
  8
0-E
  6
Continuous
 62
     7
370
     9
100
AcDbLine
 10
373.4149623561551
 20
-252.5051326259783
 30
0.0
 11
539.5433126913535
 21
-252.5051326259783
 31
0.0
  0
LINE
  5
4EF
330
1F
100
AcDbEntity
  8
仕上
  6
Continuous
 62
     3
370
     9
100
AcDbLine
 10
-71.99982926652251
 20
350.4961763306835
 30
0.0
 11
-71.99982926652251
 21
332.4960674571615
 31
0.0
  0
LINE
  5
4F0
330
1F
100
AcDbEntity
  8
仕上
  6
Continuous
 62
     3
370
     9
100
AcDbLine
 10
72.0000890783362
 20
350.4961763306835
 30
0.0
 11
72.0000890783362
 21
332.4960674571615
 31
0.0
  0
ARC
  5
4F1
330
1F
100
AcDbEntity
  8
建具
  6
Continuous
 62
     4
370
     9
100
AcDbCircle
 10
-75.75783394478475
 20
-518.2593621973466
 30
0.0
 40
2.999999990334382
100
AcDbArc
 50
180.0
 51
270.0
  0
ARC
  5
4F2
330
1F
100
AcDbEntity
  8
建具
  6
JWW_CENTER1
 62
     4
370
     9
100
AcDbCircle
 10
-75.75783394478475
 20
-518.2593621973466
 30
0.0
 40
6.499999697143967
100
AcDbArc
 50
180.0
 51
270.0
  0
ARC
  5
4F3
330
1F
100
AcDbEntity
  8
建具
  6
Continuous
 62
     4
370
     9
100
AcDbCircle
 10
-75.75783394478475
 20
-518.2593621973466
 30
0.0
 40
10.00000041884345
100
AcDbArc
 50
180.0
 51
270.0
  0
ARC
  5
4F4
330
1F
100
AcDbEntity
  8
建具
  6
Continuous
 62
     4
370
     9
100
AcDbCircle
 10
37.03374914220862
 20
-531.2594793188625
 30
0.0
 40
2.999999990334382
100
AcDbArc
 50
22.48037719726562
 51
90.0
  0
ARC
  5
4F5
330
1F
100
AcDbEntity
  8
建具
  6
Continuous
 62
     4
370
     9
100
AcDbCircle
 10
37.03374914220862
 20
-531.2593927149247
 30
0.0
 40
10.00000041884345
100
AcDbArc
 50
22.47953796386719
 51
90.0
  0
ARC
  5
4F6
330
1F
100
AcDbEntity
  8
建具
  6
Continuous
 62
     4
370
     9
100
AcDbCircle
 10
52.74214461043061
 20
-524.7593341541666
 30
0.0
 40
7.000000090212436
100
AcDbArc
 50
202.4791870117188
 51
163.9838256835938
  0
ARC
  5
4F7
330
1F
100
AcDbEntity
  8
建具
  6
Continuous
 62
     4
370
     9
100
AcDbCircle
 10
52.74214461043061
 20
-524.7593341541666
 30
0.0
 40
14.00000018042487
100
AcDbArc
 50
202.4794616699219
 51
155.0050354003907
  0
ARC
  5
4F8
330
1F
100
AcDbEntity
  8
建具
  6
Continuous
 62
     4
370
     9
100
AcDbCircle
 10
-87.88134600665134
 20
-508.5593747342975
 30
0.0
 40
2.800173582257451
100
AcDbArc
 50
47.92556762695313
 51
132.0746307373047
  0
ARC
  5
4F9
330
1F
100
AcDbEntity
  8
建具
  6
Continuous
 62
     4
370
     9
100
AcDbCircle
 10
-82.2578059016048
 20
-515.8487415852794
 30
0.0
 40
10.08941018903578
100
AcDbArc
 50
68.19786071777344
 51
111.8021392822266
  0
ARC
  5
4FA
330
1F
100
AcDbEntity
  8
建具
  6
Continuous
 62
     4
370
     9
100
AcDbCircle
 10
-76.63426579655845
 20
-508.5593747342975
 30
0.0
 40
2.800189820495812
100
AcDbArc
 50
47.92572021484374
 51
132.0742797851562
  0
ARC
  5
4FB
330
1F
100
AcDbEntity
  8
躯体
  6
Continuous
 62
     2
370
     9
100
AcDbCircle
 10
299.2425000989759
 20
586.4955445343363
 30
0.0
 40
58.9999990205507
100
AcDbArc
 50
47.87466430664063
 51
89.99995422363283
  0
ARC
  5
4FC
330
1F
100
AcDbEntity
  8
躯体
  6
Continuous
 62
     2
370
     9
100
AcDbCircle
 10
299.2425000989759
 20
586.4955445343363
 30
0.0
 40
59.99999845350112
100
AcDbArc
 50
47.87466430664063
 51
89.99995422363283
  0
ARC
  5
4FD
330
1F
100
AcDbEntity
  8
躯体
  6
Continuous
 62
     2
370
     9
100
AcDbCircle
 10
292.1595970360008
 20
627.4955808255104
 30
0.0
 40
6.999999413619171
100
AcDbArc
 50
315.0000000000001
 51
90.00000000000006
  0
ARC
  5
4FE
330
1F
100
AcDbEntity
  8
躯体
  6
Continuous
 62
     2
370
     9
100
AcDbCircle
 10
292.1595970360008
 20
627.4955808255104
 30
0.0
 40
8.000000199756109
100
AcDbArc
 50
343.9552917480469
 51
90.0
  0
ARC
  5
4FF
330
1F
100
AcDbEntity
  8
躯体
  6
Continuous
 62
     2
370
     9
100
AcDbCircle
 10
295.0000329919763
 20
586.4955445343363
 30
0.0
 40
49.00000469104664
100
AcDbArc
 50
17.00543212890625
 51
72.99444580078125
  0
ARC
  5
500
330
1F
100
AcDbEntity
  8
躯体
  6
Continuous
 62
     2
370
     9
100
AcDbCircle
 10
295.0000329919763
 20
586.4955445343363
 30
0.0
 40
50.00000412399705
100
AcDbArc
 50
16.31452941894531
 51
73.6853485107422
  0
ARC
  5
501
330
1F
100
AcDbEntity
  8
躯体
  6
Continuous
 62
     2
370
     9
100
AcDbCircle
 10
231.195447767103
 20
539.4269971050712
 30
0.0
 40
9.000000309299779
100
AcDbArc
 50
282.8186187744141
 51
303.9845733642578
  0
CIRCLE
  5
502
330
1F
100
AcDbEntity
  8
躯体
  6
Continuous
 62
     2
370
     9
100
AcDbCircle
 10
319.0003224965689
 20
610.4954010192392
 30
0.0
 40
7.49999980668764
  0
CIRCLE
  5
503
330
1F
100
AcDbEntity
  8
躯体
  6
Continuous
 62
     2
370
     9
100
AcDbCircle
 10
319.0003224965689
 20
610.4954010192392
 30
0.0
 40
9.500000025774982
  0
ARC
  5
504
330
1F
100
AcDbEntity
  8
躯体
  6
Continuous
 62
     2
370
     9
100
AcDbCircle
 10
68.94123799092048
 20
627.4955808255104
 30
0.0
 40
6.999999413619171
100
AcDbArc
 50
90.0
 51
258.4048309326172
  0
ARC
  5
505
330
1F
100
AcDbEntity
  8
躯体
  6
Continuous
 62
     2
370
     9
100
AcDbCircle
 10
68.94123799092048
 20
627.4955808255104
 30
0.0
 40
8.000000199756109
100
AcDbArc
 50
90.0
 51
229.7738189697266
  0
ARC
  5
506
330
1F
100
AcDbEntity
  8
躯体
  6
Continuous
 62
     2
370
     9
100
AcDbCircle
 10
219.6246420370564
 20
554.9611454501936
 30
0.0
 40
6.999999413619171
100
AcDbArc
 50
230.1853027343751
 51
315.0000000000001
  0
ARC
  5
507
330
1F
100
AcDbEntity
  8
躯体
  6
Continuous
 62
     2
370
     9
100
AcDbCircle
 10
219.6246420370564
 20
554.9611454501936
 30
0.0
 40
8.000000199756109
100
AcDbArc
 50
258.8163299560547
 51
315.0000000000001
  0
ARC
  5
508
330
1F
100
AcDbEntity
  8
躯体
  6
Continuous
 62
     2
370
     9
100
AcDbCircle
 10
233.3808115366343
 20
541.490249322132
 30
0.0
 40
5.999999980668765
100
AcDbArc
 50
226.9684753417969
 51
313.3512420654297
  0
ARC
  5
509
330
1F
100
AcDbEntity
  8
躯体
  6
Continuous
 62
     2
370
     9
100
AcDbCircle
 10
295.0000329919763
 20
590.7380982452738
 30
0.0
 40
58.9999990205507
100
AcDbArc
 50
359.9999542236328
 51
42.12524414062501
  0
ARC
  5
50A
330
1F
100
AcDbEntity
  8
躯体
  6
Continuous
 62
     2
370
     9
100
AcDbCircle
 10
295.0000329919763
 20
590.7380982452738
 30
0.0
 40
59.99999845350112
100
AcDbArc
 50
359.9999542236328
 51
42.12524414062501
  0
ARC
  5
50B
330
1F
100
AcDbEntity
  8
躯体
  6
Continuous
 62
     2
370
     9
100
AcDbCircle
 10
335.9999826792124
 20
583.654935370485
 30
0.0
 40
6.999999413619171
100
AcDbArc
 50
0.0
 51
135.0
  0
ARC
  5
50C
330
1F
100
AcDbEntity
  8
躯体
  6
Continuous
 62
     2
370
     9
100
AcDbCircle
 10
335.9999826792124
 20
583.654935370485
 30
0.0
 40
8.000000199756109
100
AcDbArc
 50
0.0
 51
106.0447082519531
  0
ARC
  5
50D
330
1F
100
AcDbEntity
  8
躯体
  6
Continuous
 62
     2
370
     9
100
AcDbCircle
 10
247.9314855627112
 20
522.6906128937113
 30
0.0
 40
9.000000309299779
100
AcDbArc
 50
146.0154266357422
 51
167.181381225586
  0
ARC
  5
50E
330
1F
100
AcDbEntity
  8
躯体
  6
Continuous
 62
     2
370
     9
100
AcDbCircle
 10
335.9999826792124
 20
360.4365763254048
 30
0.0
 40
6.999999413619171
100
AcDbArc
 50
191.5951690673828
 51
0.0
  0
ARC
  5
50F
330
1F
100
AcDbEntity
  8
躯体
  6
Continuous
 62
     2
370
     9
100
AcDbCircle
 10
335.9999826792124
 20
360.4365763254048
 30
0.0
 40
8.000000199756109
100
AcDbArc
 50
220.2261810302734
 51
0.0
  0
ARC
  5
510
330
1F
100
AcDbEntity
  8
躯体
  6
Continuous
 62
     2
370
     9
100
AcDbCircle
 10
263.4654606999578
 20
511.1201535794166
 30
0.0
 40
6.999999413619171
100
AcDbArc
 50
135.0
 51
219.814697265625
  0
ARC
  5
511
330
1F
100
AcDbEntity
  8
躯体
  6
Continuous
 62
     2
370
     9
100
AcDbCircle
 10
263.4654606999578
 20
511.1201535794166
 30
0.0
 40
8.000000199756109
100
AcDbArc
 50
135.0
 51
191.1836700439453
  0
ARC
  5
512
330
1F
100
AcDbEntity
  8
躯体
  6
Continuous
 62
     2
370
     9
100
AcDbCircle
 10
249.994737779772
 20
524.8763230789942
 30
0.0
 40
5.999999980668765
100
AcDbArc
 50
136.6487579345703
 51
223.0315246582031
  0
ARC
  5
513
330
1F
100
AcDbEntity
  8
躯体
  6
Continuous
 62
     2
370
     9
100
AcDbCircle
 10
-0.0003464157517215
 20
291.4958579581117
 30
0.0
 40
336.0000043301969
100
AcDbArc
 50
40.46817016601562
 51
43.03141784667969
  0
CIRCLE
  5
514
330
1F
100
AcDbEntity
  8
躯体
  6
Continuous
 62
     2
370
     9
100
AcDbCircle
 10
233.0001006255278
 20
598.4953861728499
 30
0.0
 40
6.499999697143967
  0
CIRCLE
  5
515
330
1F
100
AcDbEntity
  8
躯体
  6
Continuous
 62
     2
370
     9
100
AcDbCircle
 10
233.0001006255278
 20
598.4953861728499
 30
0.0
 40
8.000000199756109
  0
ARC
  5
516
330
1F
100
AcDbEntity
  8
仕上
  6
Continuous
 62
     3
370
     9
100
AcDbCircle
 10
-323.9998812288852
 20
-334.5047721886367
 30
0.0
 40
2.000000049939027
100
AcDbArc
 50
0.0
 51
90.0
  0
ARC
  5
517
330
1F
100
AcDbEntity
  8
仕上
  6
Continuous
 62
     3
370
     9
100
AcDbCircle
 10
-315.9999290672509
 20
-363.0048290997959
 30
0.0
 40
3.499996323843261
100
AcDbArc
 50
180.0
 51
0.0
  0
ARC
  5
518
330
1F
100
AcDbEntity
  8
仕上
  6
Continuous
 62
     3
370
     9
100
AcDbCircle
 10
-305.4610958614865
 20
-338.5048348733918
 30
0.0
 40
4.000000099878054
100
AcDbArc
 50
90.0
 51
172.9975280761719
  0
ARC
  5
519
330
1F
100
AcDbEntity
  8
仕上
  6
Continuous
 62
     3
370
     9
100
AcDbCircle
 10
0.0
 20
-9316.634965125715
 30
0.0
 40
9000.00108873522
100
AcDbArc
 50
90.0
 51
92.0694580078125
  0
ARC
  5
51A
330
1F
100
AcDbEntity
  8
躯体
  6
Continuous
 62
     2
370
     9
100
AcDbCircle
 10
339.2746507799303
 20
-364.0051045827984
 30
0.0
 40
3.499999706809585
100
AcDbArc
 50
183.8146514892578
 51
270.0
  0
ARC
  5
51B
330
1F
100
AcDbEntity
  8
躯体
  6
Continuous
 62
     2
370
     9
100
AcDbCircle
 10
320.3295197358003
 20
-361.5050221028576
 30
0.0
 40
5.000000209421725
100
AcDbArc
 50
270.0
 51
356.0990905761719
  0
ARC
  5
51C
330
1F
100
AcDbEntity
  8
躯体
  6
Continuous
 62
     2
370
     9
100
AcDbCircle
 10
313.1975122400232
 20
-361.5050221028576
 30
0.0
 40
5.000000209421725
100
AcDbArc
 50
183.5765533447266
 51
270.0
  0
ARC
  5
51D
330
1F
100
AcDbEntity
  8
躯体
  6
Continuous
 62
     2
370
     9
100
AcDbCircle
 10
-339.2740445523649
 20
-364.0051045827984
 30
0.0
 40
3.499999706809585
100
AcDbArc
 50
270.0
 51
356.1853485107422
  0
ARC
  5
51E
330
1F
100
AcDbEntity
  8
躯体
  6
Continuous
 62
     2
370
     9
100
AcDbCircle
 10
-320.328913508235
 20
-361.5050221028576
 30
0.0
 40
5.000000209421725
100
AcDbArc
 50
183.9009094238282
 51
270.0
  0
ARC
  5
51F
330
1F
100
AcDbEntity
  8
躯体
  6
Continuous
 62
     2
370
     9
100
AcDbCircle
 10
-313.1969060124578
 20
-361.5050221028576
 30
0.0
 40
5.000000209421725
100
AcDbArc
 50
270.0
 51
356.4234466552734
  0
ARC
  5
520
330
1F
100
AcDbEntity
  8
躯体
  6
Continuous
 62
     2
370
     9
100
AcDbCircle
 10
299.4011585132495
 20
-342.5055037857122
 30
0.0
 40
8.000000199756109
100
AcDbArc
 50
18.21334838867188
 51
90.0
  0
ARC
  5
521
330
1F
100
AcDbEntity
  8
躯体
  6
Continuous
 62
     2
370
     9
100
AcDbCircle
 10
-299.4003790778082
 20
-342.5055037857122
 30
0.0
 40
8.000000199756109
100
AcDbArc
 50
90.0
 51
161.7866516113281
  0
ARC
  5
522
330
1F
100
AcDbEntity
  8
躯体
  6
Continuous
 62
     2
370
     9
100
AcDbCircle
 10
0.0
 20
291.4956847502359
 30
0.0
 40
332.9999789676151
100
AcDbArc
 50
359.9999389648437
 51
179.9999694824218
  0
ARC
  5
523
330
1F
100
AcDbEntity
  8
躯体
  6
Continuous
 62
     2
370
     9
100
AcDbCircle
 10
0.0
 20
291.4956847502359
 30
0.0
 40
336.0000043301969
100
AcDbArc
 50
79.05856323242188
 51
100.94140625
  0
ARC
  5
524
330
1F
100
AcDbEntity
  8
躯体
  6
Continuous
 62
     2
370
     9
100
AcDbCircle
 10
-0.0003464157517215
 20
291.4960311659876
 30
0.0
 40
336.0000043301969
100
AcDbArc
 50
359.9998779296876
 51
10.94131469726566
  0
ARC
  5
525
330
1F
100
AcDbEntity
  8
躯体
  6
Continuous
 62
     2
370
     9
100
AcDbCircle
 10
-299.2427599107897
 20
586.4957177422122
 30
0.0
 40
58.9999990205507
100
AcDbArc
 50
90.0
 51
132.1252899169922
  0
ARC
  5
526
330
1F
100
AcDbEntity
  8
躯体
  6
Continuous
 62
     2
370
     9
100
AcDbCircle
 10
-299.2427599107897
 20
586.4957177422122
 30
0.0
 40
59.99999845350112
100
AcDbArc
 50
90.0
 51
132.1252899169922
  0
ARC
  5
527
330
1F
100
AcDbEntity
  8
躯体
  6
Continuous
 62
     2
370
     9
100
AcDbCircle
 10
-292.1595970360009
 20
627.4957540333862
 30
0.0
 40
6.999999413619171
100
AcDbArc
 50
90.0
 51
225.0
  0
ARC
  5
528
330
1F
100
AcDbEntity
  8
躯体
  6
Continuous
 62
     2
370
     9
100
AcDbCircle
 10
-292.1595970360009
 20
627.4957540333862
 30
0.0
 40
8.000000199756109
100
AcDbArc
 50
90.0
 51
196.0447082519531
  0
ARC
  5
529
330
1F
100
AcDbEntity
  8
躯体
  6
Continuous
 62
     2
370
     9
100
AcDbCircle
 10
-295.0002061998522
 20
586.4957177422122
 30
0.0
 40
49.00000469104664
100
AcDbArc
 50
107.0054931640625
 51
162.9945068359375
  0
ARC
  5
52A
330
1F
100
AcDbEntity
  8
躯体
  6
Continuous
 62
     2
370
     9
100
AcDbCircle
 10
-295.0002061998522
 20
586.4957177422122
 30
0.0
 40
50.00000412399705
100
AcDbArc
 50
106.3147125244141
 51
163.6854095458984
  0
ARC
  5
52B
330
1F
100
AcDbEntity
  8
躯体
  6
Continuous
 62
     2
370
     9
100
AcDbCircle
 10
-231.1954477671031
 20
539.4269971050712
 30
0.0
 40
9.000000309299779
100
AcDbArc
 50
236.0154266357422
 51
257.1813812255859
  0
CIRCLE
  5
52C
330
1F
100
AcDbEntity
  8
躯体
  6
Continuous
 62
     2
370
     9
100
AcDbCircle
 10
-319.0000626847552
 20
610.4955742271152
 30
0.0
 40
7.49999980668764
  0
CIRCLE
  5
52D
330
1F
100
AcDbEntity
  8
躯体
  6
Continuous
 62
     2
370
     9
100
AcDbCircle
 10
-319.0000626847552
 20
610.4955742271152
 30
0.0
 40
9.500000025774982
  0
ARC
  5
52E
330
1F
100
AcDbEntity
  8
躯体
  6
Continuous
 62
     2
370
     9
100
AcDbCircle
 10
-68.94123799092068
 20
627.4957540333862
 30
0.0
 40
6.999999413619171
100
AcDbArc
 50
281.5951690673828
 51
90.0
  0
ARC
  5
52F
330
1F
100
AcDbEntity
  8
躯体
  6
Continuous
 62
     2
370
     9
100
AcDbCircle
 10
-68.94123799092068
 20
627.4957540333862
 30
0.0
 40
8.000000199756109
100
AcDbArc
 50
310.2261810302734
 51
90.00000000000003
  0
ARC
  5
530
330
1F
100
AcDbEntity
  8
躯体
  6
Continuous
 62
     2
370
     9
100
AcDbCircle
 10
-219.6246420370567
 20
554.9611454501936
 30
0.0
 40
6.999999413619171
100
AcDbArc
 50
225.0
 51
309.814697265625
  0
ARC
  5
531
330
1F
100
AcDbEntity
  8
躯体
  6
Continuous
 62
     2
370
     9
100
AcDbCircle
 10
-219.6246420370567
 20
554.9611454501936
 30
0.0
 40
8.000000199756109
100
AcDbArc
 50
225.0
 51
281.1836700439453
  0
ARC
  5
532
330
1F
100
AcDbEntity
  8
躯体
  6
Continuous
 62
     2
370
     9
100
AcDbCircle
 10
-233.3809847445102
 20
541.4904225300078
 30
0.0
 40
5.999999980668765
100
AcDbArc
 50
226.6487579345703
 51
313.0315246582031
  0
ARC
  5
533
330
1F
100
AcDbEntity
  8
躯体
  6
Continuous
 62
     2
370
     9
100
AcDbCircle
 10
-0.0001732078758607
 20
291.49551154236
 30
0.0
 40
336.0000043301969
100
AcDbArc
 50
130.4682159423828
 51
133.0314636230469
  0
ARC
  5
534
330
1F
100
AcDbEntity
  8
躯体
  6
Continuous
 62
     2
370
     9
100
AcDbCircle
 10
-295.0002061998522
 20
590.7382714531497
 30
0.0
 40
58.9999990205507
100
AcDbArc
 50
137.8747100830078
 51
180.0
  0
ARC
  5
535
330
1F
100
AcDbEntity
  8
躯体
  6
Continuous
 62
     2
370
     9
100
AcDbCircle
 10
-295.0002061998522
 20
590.7382714531497
 30
0.0
 40
59.99999845350112
100
AcDbArc
 50
137.8747100830078
 51
180.0
  0
ARC
  5
536
330
1F
100
AcDbEntity
  8
躯体
  6
Continuous
 62
     2
370
     9
100
AcDbCircle
 10
-336.0000692831505
 20
583.654935370485
 30
0.0
 40
6.999999413619171
100
AcDbArc
 50
45.0
 51
180.0
  0
ARC
  5
537
330
1F
100
AcDbEntity
  8
躯体
  6
Continuous
 62
     2
370
     9
100
AcDbCircle
 10
-336.0000692831505
 20
583.654935370485
 30
0.0
 40
8.000000199756109
100
AcDbArc
 50
73.95529174804688
 51
180.0
  0
ARC
  5
538
330
1F
100
AcDbEntity
  8
躯体
  6
Continuous
 62
     2
370
     9
100
AcDbCircle
 10
-247.9314855627113
 20
522.690959309463
 30
0.0
 40
9.000000309299779
100
AcDbArc
 50
12.81861877441406
 51
33.98457336425782
  0
ARC
  5
539
330
1F
100
AcDbEntity
  8
躯体
  6
Continuous
 62
     2
370
     9
100
AcDbCircle
 10
-336.0000692831505
 20
360.4369227411565
 30
0.0
 40
6.999999413619171
100
AcDbArc
 50
180.0
 51
348.4048309326172
  0
ARC
  5
53A
330
1F
100
AcDbEntity
  8
躯体
  6
Continuous
 62
     2
370
     9
100
AcDbCircle
 10
-336.0000692831505
 20
360.4369227411565
 30
0.0
 40
8.000000199756109
100
AcDbArc
 50
180.0
 51
319.7738189697266
  0
ARC
  5
53B
330
1F
100
AcDbEntity
  8
躯体
  6
Continuous
 62
     2
370
     9
100
AcDbCircle
 10
-263.4654606999578
 20
511.1203267872925
 30
0.0
 40
8.000000199756109
100
AcDbArc
 50
348.8163299560547
 51
44.99999999999999
  0
ARC
  5
53C
330
1F
100
AcDbEntity
  8
躯体
  6
Continuous
 62
     2
370
     9
100
AcDbCircle
 10
-249.9949109876479
 20
524.8764962868701
 30
0.0
 40
5.999999980668765
100
AcDbArc
 50
316.9684753417969
 51
43.35124206542971
  0
ARC
  5
53D
330
1F
100
AcDbEntity
  8
躯体
  6
Continuous
 62
     2
370
     9
100
AcDbCircle
 10
0.0
 20
291.49551154236
 30
0.0
 40
336.0000043301969
100
AcDbArc
 50
46.968505859375
 51
49.53175354003906
  0
ARC
  5
53E
330
1F
100
AcDbEntity
  8
躯体
  6
Continuous
 62
     2
370
     9
100
AcDbCircle
 10
0.0
 20
291.4956847502359
 30
0.0
 40
336.0000043301969
100
AcDbArc
 50
50.1854248046875
 51
78.40486145019533
  0
ARC
  5
53F
330
1F
100
AcDbEntity
  8
躯体
  6
Continuous
 62
     2
370
     9
100
AcDbCircle
 10
-0.0003464157517215
 20
291.4960311659876
 30
0.0
 40
336.0000043301969
100
AcDbArc
 50
11.59500122070312
 51
39.814453125
  0
ARC
  5
540
330
1F
100
AcDbEntity
  8
躯体
  6
Continuous
 62
     2
370
     9
100
AcDbCircle
 10
-0.0003464157517215
 20
291.4956847502359
 30
0.0
 40
336.0000043301969
100
AcDbArc
 50
101.5951080322266
 51
129.8145446777344
  0
ARC
  5
541
330
1F
100
AcDbEntity
  8
躯体
  6
Continuous
 62
     2
370
     9
100
AcDbCircle
 10
0.0
 20
291.4958579581117
 30
0.0
 40
336.0000043301969
100
AcDbArc
 50
136.9685363769531
 51
139.5317687988281
  0
ARC
  5
542
330
1F
100
AcDbEntity
  8
躯体
  6
Continuous
 62
     2
370
     9
100
AcDbCircle
 10
-263.4654606999578
 20
511.1203267872925
 30
0.0
 40
6.999999413619171
100
AcDbArc
 50
320.185302734375
 51
45.0
  0
ARC
  5
543
330
1F
100
AcDbEntity
  8
躯体
  6
Continuous
 62
     2
370
     9
100
AcDbCircle
 10
0.0
 20
291.4960311659876
 30
0.0
 40
336.0000043301969
100
AcDbArc
 50
140.1855010986328
 51
168.4049682617188
  0
CIRCLE
  5
544
330
1F
100
AcDbEntity
  8
躯体
  6
Continuous
 62
     2
370
     9
100
AcDbCircle
 10
318.9992832493137
 20
-27.50472435027085
 30
0.0
 40
7.49999980668764
  0
ARC
  5
545
330
1F
100
AcDbEntity
  8
躯体
  6
Continuous
 62
     2
370
     9
100
AcDbCircle
 10
282.5420565218539
 20
-351.5052118067216
 30
0.0
 40
2.999999990334382
100
AcDbArc
 50
90.0
 51
173.1566925048828
  0
ARC
  5
546
330
1F
100
AcDbEntity
  8
躯体
  6
Continuous
 62
     2
370
     9
100
AcDbCircle
 10
-282.5411904824746
 20
-351.5052118067216
 30
0.0
 40
2.999999990334382
100
AcDbArc
 50
6.842605590820312
 51
90.00000000000001
  0
ARC
  5
547
330
1F
100
AcDbEntity
  8
仕上
  6
Continuous
 62
     3
370
     9
100
AcDbCircle
 10
-266.9471122123099
 20
-362.5047779622326
 30
0.0
 40
2.999999990334382
100
AcDbArc
 50
270.0
 51
353.1095581054688
  0
CIRCLE
  5
548
330
1F
100
AcDbEntity
  8
仕上
  6
Continuous
 62
     3
370
     9
100
AcDbCircle
 10
-183.8464767868455
 20
-326.0137756989829
 30
0.0
 40
5.499999587600296
  0
ARC
  5
549
330
1F
100
AcDbEntity
  8
仕上
  6
Continuous
 62
     3
370
     9
100
AcDbCircle
 10
-0.3465889595650822
 20
-9316.641893440748
 30
0.0
 40
8968.001280088683
100
AcDbArc
 50
91.09645080566408
 51
91.24205017089844
  0
ARC
  5
54A
330
1F
100
AcDbEntity
  8
仕上
  6
Continuous
 62
     3
370
     9
100
AcDbCircle
 10
-183.8464767868455
 20
-326.0137756989829
 30
0.0
 40
27.00000092789934
100
AcDbArc
 50
296.1070556640625
 51
351.5938720703125
  0
ARC
  5
54B
330
1F
100
AcDbEntity
  8
仕上
  6
Continuous
 62
     3
370
     9
100
AcDbCircle
 10
-0.3465889595650822
 20
-9316.641893440748
 30
0.0
 40
8960.001154719173
100
AcDbArc
 50
91.08596801757812
 51
91.25253295898439
  0
ARC
  5
54C
330
1F
100
AcDbEntity
  8
仕上
  6
Continuous
 62
     3
370
     9
100
AcDbCircle
 10
-183.8464767868455
 20
-326.0137756989829
 30
0.0
 40
27.00000092789934
100
AcDbArc
 50
190.9425354003907
 51
246.2315216064453
  0
ARC
  5
54D
330
1F
100
AcDbEntity
  8
仕上
  6
Continuous
 62
     3
370
     9
100
AcDbCircle
 10
0.0
 20
-9316.634965125715
 30
0.0
 40
8998.000191353463
100
AcDbArc
 50
91.40707397460938
 51
91.92974853515625
  0
ARC
  5
54E
330
1F
100
AcDbEntity
  8
仕上
  6
Continuous
 62
     3
370
     9
100
AcDbCircle
 10
0.0
 20
-9316.634965125715
 30
0.0
 40
8998.000191353463
100
AcDbArc
 50
90.0
 51
90.93586730957031
  0
ARC
  5
54F
330
1F
100
AcDbEntity
  8
仕上
  6
Continuous
 62
     3
370
     9
100
AcDbCircle
 10
-78.81841711095868
 20
-330.9799053112612
 30
0.0
 40
5.999999980668765
100
AcDbArc
 50
12.35542297363281
 51
90.50254821777344
  0
ARC
  5
550
330
1F
100
AcDbEntity
  8
仕上
  6
Continuous
 62
     3
370
     9
100
AcDbCircle
 10
0.0
 20
-9316.634965125715
 30
0.0
 40
8992.00096336571
100
AcDbArc
 50
90.0
 51
90.326171875
  0
ARC
  5
551
330
1F
100
AcDbEntity
  8
仕上
  6
Continuous
 62
     3
370
     9
100
AcDbCircle
 10
-51.15556046769439
 20
-330.779590402847
 30
0.0
 40
5.999999980668765
100
AcDbArc
 50
90.3260498046875
 51
167.7572174072266
  0
ARC
  5
552
330
1F
100
AcDbEntity
  8
仕上
  6
Continuous
 62
     3
370
     9
100
AcDbCircle
 10
-256.2445975638724
 20
-332.287624773888
 30
0.0
 40
4.000000099878054
100
AcDbArc
 50
91.63330078125
 51
173.1092071533203
  0
ARC
  5
553
330
1F
100
AcDbEntity
  8
仕上
  6
JWW_HOJO
 62
     3
370
     9
100
AcDbCircle
 10
0.0
 20
-9316.634965125715
 30
0.0
 40
8992.00096336571
100
AcDbArc
 50
91.63369750976562
 51
91.85771179199219
  0
ARC
  5
554
330
1F
100
AcDbEntity
  8
仕上
  6
Continuous
 62
     3
370
     9
100
AcDbCircle
 10
-183.8464767868455
 20
-326.0137756989829
 30
0.0
 40
35.0000018042487
100
AcDbArc
 50
293.0004577636719
 51
351.9212646484375
  0
ARC
  5
555
330
1F
100
AcDbEntity
  8
仕上
  6
Continuous
 62
     3
370
     9
100
AcDbCircle
 10
-143.2534790039063
 20
-331.7756222928913
 30
0.0
 40
5.999999980668765
100
AcDbArc
 50
100.7452850341797
 51
171.9213256835938
  0
ARC
  5
556
330
1F
100
AcDbEntity
  8
仕上
  6
Continuous
 62
     3
370
     9
100
AcDbCircle
 10
0.0
 20
-9316.634965125715
 30
0.0
 40
8992.00096336571
100
AcDbArc
 50
90.5025634765625
 51
90.91996765136719
  0
ARC
  5
557
330
1F
100
AcDbEntity
  8
仕上
  6
Continuous
 62
     3
370
     9
100
AcDbCircle
 10
-183.8464767868455
 20
-326.0137756989829
 30
0.0
 40
35.0000018042487
100
AcDbArc
 50
190.421630859375
 51
249.3380584716797
  0
ARC
  5
558
330
1F
100
AcDbEntity
  8
仕上
  6
Continuous
 62
     3
370
     9
100
AcDbCircle
 10
0.0
 20
-9316.634965125715
 30
0.0
 40
8992.00096336571
100
AcDbArc
 50
91.4228515625
 51
91.63369750976562
  0
ARC
  5
559
330
1F
100
AcDbEntity
  8
仕上
  6
Continuous
 62
     3
370
     9
100
AcDbCircle
 10
-224.1701363228464
 20
-333.4303637347726
 30
0.0
 40
5.999999980668765
100
AcDbArc
 50
10.42169189453125
 51
91.42926025390626
  0
ARC
  5
55A
330
1F
100
AcDbEntity
  8
仕上
  6
Continuous
 62
     3
370
     9
100
AcDbCircle
 10
324.0008338722023
 20
-334.5047721886367
 30
0.0
 40
2.000000049939027
100
AcDbArc
 50
90.0
 51
180.0
  0
ARC
  5
55B
330
1F
100
AcDbEntity
  8
仕上
  6
Continuous
 62
     3
370
     9
100
AcDbCircle
 10
316.0010549184439
 20
-363.0048290997959
 30
0.0
 40
3.499996323843261
100
AcDbArc
 50
180.0
 51
0.0
  0
ARC
  5
55C
330
1F
100
AcDbEntity
  8
仕上
  6
Continuous
 62
     3
370
     9
100
AcDbCircle
 10
305.4623949205553
 20
-338.5048348733918
 30
0.0
 40
4.000000099878054
100
AcDbArc
 50
7.002471923828125
 51
90.0
  0
ARC
  5
55D
330
1F
100
AcDbEntity
  8
仕上
  6
Continuous
 62
     3
370
     9
100
AcDbCircle
 10
0.0010392472549654
 20
-9316.634965125715
 30
0.0
 40
9000.00108873522
100
AcDbArc
 50
87.93054199218751
 51
90.00000000000001
  0
ARC
  5
55E
330
1F
100
AcDbEntity
  8
仕上
  6
Continuous
 62
     3
370
     9
100
AcDbCircle
 10
266.9479782516892
 20
-362.5047779622326
 30
0.0
 40
2.999999990334382
100
AcDbArc
 50
186.8904418945312
 51
270.0
  0
CIRCLE
  5
55F
330
1F
100
AcDbEntity
  8
仕上
  6
Continuous
 62
     3
370
     9
100
AcDbCircle
 10
183.8476892419763
 20
-326.0137756989829
 30
0.0
 40
5.499999587600296
  0
ARC
  5
560
330
1F
100
AcDbEntity
  8
仕上
  6
Continuous
 62
     3
370
     9
100
AcDbCircle
 10
0.3476282068200476
 20
-9316.641893440748
 30
0.0
 40
8968.001280088683
100
AcDbArc
 50
88.75794982910156
 51
88.90354919433594
  0
ARC
  5
561
330
1F
100
AcDbEntity
  8
仕上
  6
Continuous
 62
     3
370
     9
100
AcDbCircle
 10
183.8476892419763
 20
-326.0137756989829
 30
0.0
 40
27.00000092789934
100
AcDbArc
 50
188.4061279296875
 51
243.8929443359376
  0
ARC
  5
562
330
1F
100
AcDbEntity
  8
仕上
  6
Continuous
 62
     3
370
     9
100
AcDbCircle
 10
0.3476282068200476
 20
-9316.641893440748
 30
0.0
 40
8960.001154719173
100
AcDbArc
 50
88.74746704101562
 51
88.91403198242188
  0
ARC
  5
563
330
1F
100
AcDbEntity
  8
仕上
  6
Continuous
 62
     3
370
     9
100
AcDbCircle
 10
183.8476892419763
 20
-326.0137756989829
 30
0.0
 40
27.00000092789934
100
AcDbArc
 50
293.7684783935547
 51
349.0574645996094
  0
ARC
  5
564
330
1F
100
AcDbEntity
  8
仕上
  6
Continuous
 62
     3
370
     9
100
AcDbCircle
 10
0.0010392472549654
 20
-9316.634965125715
 30
0.0
 40
8998.000191353463
100
AcDbArc
 50
88.07025146484376
 51
88.59292602539064
  0
ARC
  5
565
330
1F
100
AcDbEntity
  8
仕上
  6
Continuous
 62
     3
370
     9
100
AcDbCircle
 10
0.0010392472549654
 20
-9316.634965125715
 30
0.0
 40
8998.000191353463
100
AcDbArc
 50
89.06413269042967
 51
89.99999999999999
  0
ARC
  5
566
330
1F
100
AcDbEntity
  8
仕上
  6
Continuous
 62
     3
370
     9
100
AcDbCircle
 10
78.81945635821359
 20
-330.9799053112612
 30
0.0
 40
5.999999980668765
100
AcDbArc
 50
89.49745178222656
 51
167.6445770263672
  0
ARC
  5
567
330
1F
100
AcDbEntity
  8
仕上
  6
Continuous
 62
     3
370
     9
100
AcDbCircle
 10
0.0010392472549654
 20
-9316.634965125715
 30
0.0
 40
8992.00096336571
100
AcDbArc
 50
89.67382812499999
 51
89.99999999999999
  0
ARC
  5
568
330
1F
100
AcDbEntity
  8
仕上
  6
Continuous
 62
     3
370
     9
100
AcDbCircle
 10
51.15677292282521
 20
-330.779590402847
 30
0.0
 40
5.999999980668765
100
AcDbArc
 50
12.24278259277344
 51
89.6739501953125
  0
ARC
  5
569
330
1F
100
AcDbEntity
  8
仕上
  6
Continuous
 62
     3
370
     9
100
AcDbCircle
 10
256.2458100190034
 20
-332.287624773888
 30
0.0
 40
4.000000099878054
100
AcDbArc
 50
6.890792846679688
 51
88.36669921875001
  0
ARC
  5
56A
330
1F
100
AcDbEntity
  8
仕上
  6
JWW_HOJO
 62
     3
370
     9
100
AcDbCircle
 10
0.0010392472549654
 20
-9316.634965125715
 30
0.0
 40
8992.00096336571
100
AcDbArc
 50
88.14228820800781
 51
88.36630249023438
  0
ARC
  5
56B
330
1F
100
AcDbEntity
  8
仕上
  6
Continuous
 62
     3
370
     9
100
AcDbCircle
 10
143.2545182511612
 20
-331.7756222928913
 30
0.0
 40
5.999999980668765
100
AcDbArc
 50
8.07867431640625
 51
79.25471496582033
  0
ARC
  5
56C
330
1F
100
AcDbEntity
  8
仕上
  6
Continuous
 62
     3
370
     9
100
AcDbCircle
 10
0.0010392472549654
 20
-9316.634965125715
 30
0.0
 40
8992.00096336571
100
AcDbArc
 50
89.0800323486328
 51
89.49743652343749
  0
ARC
  5
56D
330
1F
100
AcDbEntity
  8
仕上
  6
Continuous
 62
     3
370
     9
100
AcDbCircle
 10
183.8476892419763
 20
-326.0137756989829
 30
0.0
 40
35.0000018042487
100
AcDbArc
 50
290.6619415283203
 51
349.578369140625
  0
ARC
  5
56E
330
1F
100
AcDbEntity
  8
仕上
  6
Continuous
 62
     3
370
     9
100
AcDbCircle
 10
0.0010392472549654
 20
-9316.634965125715
 30
0.0
 40
8992.00096336571
100
AcDbArc
 50
88.36630249023439
 51
88.57714843750001
  0
ARC
  5
56F
330
1F
100
AcDbEntity
  8
仕上
  6
Continuous
 62
     3
370
     9
100
AcDbCircle
 10
224.1711755701013
 20
-333.4303637347726
 30
0.0
 40
5.999999980668765
100
AcDbArc
 50
88.57073974609376
 51
169.5783081054688
  0
ARC
  5
570
330
1F
100
AcDbEntity
  8
仕上
  6
Continuous
 62
     3
370
     9
100
AcDbCircle
 10
0.0
 20
291.4958579581117
 30
0.0
 40
314.9999783490155
100
AcDbArc
 50
70.0
 51
110.0
  0
ARC
  5
571
330
1F
100
AcDbEntity
  8
仕上
  6
Continuous
 62
     3
370
     9
100
AcDbCircle
 10
0.0
 20
291.4958579581117
 30
0.0
 40
292.0000076293945
100
AcDbArc
 50
70.0
 51
110.0
  0
ARC
  5
572
330
1F
100
AcDbEntity
  8
仕上
  6
Continuous
 62
     3
370
     9
100
AcDbCircle
 10
0.0
 20
291.4958579581117
 30
0.0
 40
285.0000061859956
100
AcDbArc
 50
70.31539916992188
 51
72.01475524902344
  0
ARC
  5
573
330
1F
100
AcDbEntity
  8
仕上
  6
Continuous
 62
     3
370
     9
100
AcDbCircle
 10
0.0
 20
291.4958579581117
 30
0.0
 40
285.0000061859956
100
AcDbArc
 50
73.06849670410156
 51
78.8730926513672
  0
ARC
  5
574
330
1F
100
AcDbEntity
  8
仕上
  6
Continuous
 62
     3
370
     9
100
AcDbCircle
 10
0.0
 20
291.4958579581117
 30
0.0
 40
285.0000061859956
100
AcDbArc
 50
79.89581298828125
 51
81.52554321289062
  0
ARC
  5
575
330
1F
100
AcDbEntity
  8
仕上
  6
Continuous
 62
     3
370
     9
100
AcDbCircle
 10
0.0
 20
291.4958579581117
 30
0.0
 40
285.0000061859956
100
AcDbArc
 50
82.54054260253908
 51
85.19897460937501
  0
ARC
  5
576
330
1F
100
AcDbEntity
  8
仕上
  6
Continuous
 62
     3
370
     9
100
AcDbCircle
 10
0.0
 20
291.4958579581117
 30
0.0
 40
304.0000008247994
100
AcDbArc
 50
0.0
 51
1.696533203125
  0
ARC
  5
577
330
1F
100
AcDbEntity
  8
仕上
  6
Continuous
 62
     3
370
     9
100
AcDbCircle
 10
0.0
 20
291.4958579581117
 30
0.0
 40
304.0000008247994
100
AcDbArc
 50
3.0169677734375
 51
6.421524047851563
  0
ARC
  5
578
330
1F
100
AcDbEntity
  8
仕上
  6
Continuous
 62
     3
370
     9
100
AcDbCircle
 10
0.0
 20
291.4958579581117
 30
0.0
 40
304.0000008247994
100
AcDbArc
 50
12.5390625
 51
16.04045104980469
  0
ARC
  5
579
330
1F
100
AcDbEntity
  8
仕上
  6
Continuous
 62
     3
370
     9
100
AcDbCircle
 10
0.0
 20
291.4958579581117
 30
0.0
 40
304.0000008247994
100
AcDbArc
 50
17.41810607910156
 51
21.0113525390625
  0
ARC
  5
57A
330
1F
100
AcDbEntity
  8
仕上
  6
Continuous
 62
     3
370
     9
100
AcDbCircle
 10
0.0
 20
291.4958579581117
 30
0.0
 40
304.0000008247994
100
AcDbArc
 50
22.91952514648438
 51
26.154296875
  0
ARC
  5
57B
330
1F
100
AcDbEntity
  8
仕上
  6
Continuous
 62
     3
370
     9
100
AcDbCircle
 10
0.0
 20
291.4958579581117
 30
0.0
 40
304.0000008247994
100
AcDbArc
 50
27.63363647460938
 51
31.53550720214844
  0
ARC
  5
57C
330
1F
100
AcDbEntity
  8
仕上
  6
Continuous
 62
     3
370
     9
100
AcDbCircle
 10
0.0
 20
291.4958579581117
 30
0.0
 40
304.0000008247994
100
AcDbArc
 50
33.09663391113281
 51
37.24781799316407
  0
ARC
  5
57D
330
1F
100
AcDbEntity
  8
仕上
  6
Continuous
 62
     3
370
     9
100
AcDbCircle
 10
0.0
 20
291.4958579581117
 30
0.0
 40
304.0000008247994
100
AcDbArc
 50
38.92405700683594
 51
43.43257141113282
  0
ARC
  5
57E
330
1F
100
AcDbEntity
  8
仕上
  6
Continuous
 62
     3
370
     9
100
AcDbCircle
 10
0.0
 20
291.4958579581117
 30
0.0
 40
304.0000008247994
100
AcDbArc
 50
45.27775573730469
 51
50.33029174804688
  0
ARC
  5
57F
330
1F
100
AcDbEntity
  8
仕上
  6
Continuous
 62
     3
370
     9
100
AcDbCircle
 10
0.0
 20
291.4958579581117
 30
0.0
 40
304.0000008247994
100
AcDbArc
 50
52.44450378417969
 51
57.35217285156251
  0
ARC
  5
580
330
1F
100
AcDbEntity
  8
仕上
  6
Continuous
 62
     3
370
     9
100
AcDbCircle
 10
0.0
 20
291.4958579581117
 30
0.0
 40
304.0000008247994
100
AcDbArc
 50
62.1534423828125
 51
63.84573364257813
  0
ARC
  5
581
330
1F
100
AcDbEntity
  8
仕上
  6
Continuous
 62
     3
370
     9
100
AcDbCircle
 10
0.0
 20
291.4958579581117
 30
0.0
 40
304.0000008247994
100
AcDbArc
 50
64.89097595214844
 51
68.68057250976562
  0
ARC
  5
582
330
1F
100
AcDbEntity
  8
仕上
  6
Continuous
 62
     3
370
     9
100
AcDbCircle
 10
267.2878987080342
 20
286.4960394139815
 30
0.0
 40
2.999999990334382
100
AcDbArc
 50
180.0
 51
270.0
  0
ARC
  5
583
330
1F
100
AcDbEntity
  8
仕上
  6
Continuous
 62
     3
370
     9
100
AcDbCircle
 10
263.2878360232792
 20
255.9959511604448
 30
0.0
 40
2.999999990334382
100
AcDbArc
 50
180.0
 51
270.0
  0
ARC
  5
584
330
1F
100
AcDbEntity
  8
仕上
  6
Continuous
 62
     3
370
     9
100
AcDbCircle
 10
264.7879028320312
 20
257.4958447613212
 30
0.0
 40
1.000000024969514
100
AcDbArc
 50
180.0
 51
270.0
  0
ARC
  5
585
330
1F
100
AcDbEntity
  8
仕上
  6
Continuous
 62
     3
370
     9
100
AcDbCircle
 10
285.4998408137141
 20
249.9959437372503
 30
0.0
 40
2.999999990334382
100
AcDbArc
 50
351.7290649414062
 51
90.0
  0
ARC
  5
586
330
1F
100
AcDbEntity
  8
仕上
  6
Continuous
 62
     3
370
     9
100
AcDbCircle
 10
290.2763078019425
 20
255.4959000228814
 30
0.0
 40
1.000000024969514
100
AcDbArc
 50
352.9321899414062
 51
89.99999999999999
  0
ARC
  5
587
330
1F
100
AcDbEntity
  8
仕上
  6
Continuous
 62
     3
370
     9
100
AcDbCircle
 10
-267.2876388962205
 20
286.4960394139815
 30
0.0
 40
2.999999990334382
100
AcDbArc
 50
270.0
 51
0.0
  0
ARC
  5
588
330
1F
100
AcDbEntity
  8
仕上
  6
Continuous
 62
     3
370
     9
100
AcDbCircle
 10
-263.2876628154034
 20
255.9959511604448
 30
0.0
 40
2.999999990334382
100
AcDbArc
 50
270.0
 51
0.0
  0
ARC
  5
589
330
1F
100
AcDbEntity
  8
仕上
  6
Continuous
 62
     3
370
     9
100
AcDbCircle
 10
-264.7876430202176
 20
257.4958447613212
 30
0.0
 40
1.000000024969514
100
AcDbArc
 50
270.0
 51
0.0
  0
ARC
  5
58A
330
1F
100
AcDbEntity
  8
仕上
  6
Continuous
 62
     3
370
     9
100
AcDbCircle
 10
-290.2760479901288
 20
255.4959000228814
 30
0.0
 40
1.000000024969514
100
AcDbArc
 50
90.0
 51
187.0678100585938
  0
ARC
  5
58B
330
1F
100
AcDbEntity
  8
仕上
  6
Continuous
 62
     3
370
     9
100
AcDbCircle
 10
0.0
 20
291.4958579581117
 30
0.0
 40
285.0000061859956
100
AcDbArc
 50
107.9852447509766
 51
109.6846008300781
  0
ARC
  5
58C
330
1F
100
AcDbEntity
  8
仕上
  6
Continuous
 62
     3
370
     9
100
AcDbCircle
 10
0.0
 20
291.4958579581117
 30
0.0
 40
285.0000061859956
100
AcDbArc
 50
101.1269073486328
 51
106.9315032958984
  0
ARC
  5
58D
330
1F
100
AcDbEntity
  8
仕上
  6
Continuous
 62
     3
370
     9
100
AcDbCircle
 10
0.0
 20
291.4958579581117
 30
0.0
 40
285.0000061859956
100
AcDbArc
 50
98.47445678710938
 51
100.1041870117188
  0
ARC
  5
58E
330
1F
100
AcDbEntity
  8
仕上
  6
Continuous
 62
     3
370
     9
100
AcDbCircle
 10
0.0
 20
291.4958579581117
 30
0.0
 40
285.0000061859956
100
AcDbArc
 50
94.801025390625
 51
97.45945739746094
  0
ARC
  5
58F
330
1F
100
AcDbEntity
  8
仕上
  6
Continuous
 62
     3
370
     9
100
AcDbCircle
 10
0.0
 20
291.4958579581117
 30
0.0
 40
304.0000008247994
100
AcDbArc
 50
178.303466796875
 51
180.0
  0
ARC
  5
590
330
1F
100
AcDbEntity
  8
仕上
  6
Continuous
 62
     3
370
     9
100
AcDbCircle
 10
0.0
 20
291.4958579581117
 30
0.0
 40
304.0000008247994
100
AcDbArc
 50
173.5784759521484
 51
176.9830322265625
  0
ARC
  5
591
330
1F
100
AcDbEntity
  8
仕上
  6
Continuous
 62
     3
370
     9
100
AcDbCircle
 10
0.0
 20
291.4958579581117
 30
0.0
 40
304.0000008247994
100
AcDbArc
 50
163.9595489501953
 51
167.4609375
  0
ARC
  5
592
330
1F
100
AcDbEntity
  8
仕上
  6
Continuous
 62
     3
370
     9
100
AcDbCircle
 10
0.0
 20
291.4958579581117
 30
0.0
 40
304.0000008247994
100
AcDbArc
 50
158.9886474609375
 51
162.5818939208985
  0
ARC
  5
593
330
1F
100
AcDbEntity
  8
仕上
  6
Continuous
 62
     3
370
     9
100
AcDbCircle
 10
0.0
 20
291.4958579581117
 30
0.0
 40
304.0000008247994
100
AcDbArc
 50
153.845703125
 51
157.0804748535156
  0
ARC
  5
594
330
1F
100
AcDbEntity
  8
仕上
  6
Continuous
 62
     3
370
     9
100
AcDbCircle
 10
0.0
 20
291.4958579581117
 30
0.0
 40
304.0000008247994
100
AcDbArc
 50
148.4644927978516
 51
152.3663635253906
  0
ARC
  5
595
330
1F
100
AcDbEntity
  8
仕上
  6
Continuous
 62
     3
370
     9
100
AcDbCircle
 10
0.0
 20
291.4958579581117
 30
0.0
 40
304.0000008247994
100
AcDbArc
 50
142.7521820068359
 51
146.9033660888672
  0
ARC
  5
596
330
1F
100
AcDbEntity
  8
仕上
  6
Continuous
 62
     3
370
     9
100
AcDbCircle
 10
0.0
 20
291.4958579581117
 30
0.0
 40
304.0000008247994
100
AcDbArc
 50
136.5674285888672
 51
141.0759429931641
  0
ARC
  5
597
330
1F
100
AcDbEntity
  8
仕上
  6
Continuous
 62
     3
370
     9
100
AcDbCircle
 10
0.0
 20
291.4958579581117
 30
0.0
 40
304.0000008247994
100
AcDbArc
 50
129.6697082519531
 51
134.7222442626953
  0
ARC
  5
598
330
1F
100
AcDbEntity
  8
仕上
  6
Continuous
 62
     3
370
     9
100
AcDbCircle
 10
0.0
 20
291.4958579581117
 30
0.0
 40
304.0000008247994
100
AcDbArc
 50
122.6478271484375
 51
127.5554962158203
  0
ARC
  5
599
330
1F
100
AcDbEntity
  8
仕上
  6
Continuous
 62
     3
370
     9
100
AcDbCircle
 10
0.0
 20
291.4958579581117
 30
0.0
 40
304.0000008247994
100
AcDbArc
 50
116.1542663574219
 51
117.8465576171875
  0
ARC
  5
59A
330
1F
100
AcDbEntity
  8
仕上
  6
Continuous
 62
     3
370
     9
100
AcDbCircle
 10
0.0
 20
291.4958579581117
 30
0.0
 40
304.0000008247994
100
AcDbArc
 50
111.3194274902344
 51
115.1090240478516
  0
ARC
  5
59B
330
1F
100
AcDbEntity
  8
仕上
  6
Continuous
 62
     3
370
     9
100
AcDbCircle
 10
-285.4995810019005
 20
249.9959437372503
 30
0.0
 40
2.999999990334382
100
AcDbArc
 50
90.0
 51
188.2709350585938
  0
ARC
  5
59C
330
1F
100
AcDbEntity
  8
仕上
  6
Continuous
 62
     3
370
     9
100
AcDbCircle
 10
0.0
 20
291.4958579581117
 30
0.0
 40
318.9999760808172
100
AcDbArc
 50
172.1558227539062
 51
178.0
  0
ARC
  5
59D
330
1F
100
AcDbEntity
  8
仕上
  6
Continuous
 62
     3
370
     9
100
AcDbCircle
 10
0.0
 20
291.4958579581117
 30
0.0
 40
320.5000428895693
100
AcDbArc
 50
156.0000457763672
 51
168.0000305175782
  0
ARC
  5
59E
330
1F
100
AcDbEntity
  8
仕上
  6
Continuous
 62
     3
370
     9
100
AcDbCircle
 10
0.0
 20
291.4958579581117
 30
0.0
 40
307.5000123719911
100
AcDbArc
 50
156.0000610351562
 51
168.0000457763672
  0
ARC
  5
59F
330
1F
100
AcDbEntity
  8
仕上
  6
Continuous
 62
     3
370
     9
100
AcDbCircle
 10
0.0
 20
291.4958579581117
 30
0.0
 40
309.0000358787743
100
AcDbArc
 50
172.2256164550781
 51
178.0
  0
ARC
  5
5A0
330
1F
100
AcDbEntity
  8
仕上
  6
Continuous
 62
     3
370
     9
100
AcDbCircle
 10
-77.00008083034209
 20
260.8963483838401
 30
0.0
 40
5.999999980668765
100
AcDbArc
 50
300.0000305175782
 51
0.0000000000000382
  0
ARC
  5
5A1
330
1F
100
AcDbEntity
  8
仕上
  6
Continuous
 62
     3
370
     9
100
AcDbCircle
 10
-65.0000659839528
 20
240.1117496982405
 30
0.0
 40
5.999999980668765
100
AcDbArc
 50
59.99996948242188
 51
120.0000305175781
  0
ARC
  5
5A2
330
1F
100
AcDbEntity
  8
仕上
  6
Continuous
 62
     3
370
     9
100
AcDbCircle
 10
-79.9999546360327
 20
262.6284271422862
 30
0.0
 40
5.999999980668765
100
AcDbArc
 50
300.0000305175782
 51
0.0000000000000382
  0
ARC
  5
5A3
330
1F
100
AcDbEntity
  8
仕上
  6
Continuous
 62
     3
370
     9
100
AcDbCircle
 10
-65.0000659839528
 20
236.6475921813487
 30
0.0
 40
5.999999980668765
100
AcDbArc
 50
59.99996948242188
 51
120.0000305175781
  0
ARC
  5
5A4
330
1F
100
AcDbEntity
  8
仕上
  6
Continuous
 62
     3
370
     9
100
AcDbCircle
 10
-130.0000453639676
 20
230.2967522056308
 30
0.0
 40
5.999999980668765
100
AcDbArc
 50
239.9999694824219
 51
300.0000305175781
  0
ARC
  5
5A5
330
1F
100
AcDbEntity
  8
仕上
  6
Continuous
 62
     3
370
     9
100
AcDbCircle
 10
-142.0000602103568
 20
209.5120669160931
 30
0.0
 40
5.999999980668765
100
AcDbArc
 50
0.0
 51
59.99996948242188
  0
ARC
  5
5A6
330
1F
100
AcDbEntity
  8
仕上
  6
Continuous
 62
     3
370
     9
100
AcDbCircle
 10
-130.0000453639676
 20
233.7609097225226
 30
0.0
 40
5.999999980668765
100
AcDbArc
 50
239.9999694824219
 51
300.0000305175781
  0
ARC
  5
5A7
330
1F
100
AcDbEntity
  8
仕上
  6
Continuous
 62
     3
370
     9
100
AcDbCircle
 10
-145.0001072239233
 20
207.7800747615851
 30
0.0
 40
5.999999980668765
100
AcDbArc
 50
0.0
 51
59.99996948242188
  0
ARC
  5
5A8
330
1F
100
AcDbEntity
  8
仕上
  6
Continuous
 62
     3
370
     9
100
AcDbCircle
 10
-118.0000305175782
 20
209.5120669160931
 30
0.0
 40
5.999999980668765
100
AcDbArc
 50
120.0000305175781
 51
180.0
  0
ARC
  5
5A9
330
1F
100
AcDbEntity
  8
仕上
  6
Continuous
 62
     3
370
     9
100
AcDbCircle
 10
-114.9998969000741
 20
207.7800747615851
 30
0.0
 40
5.999999980668765
100
AcDbArc
 50
120.0000305175781
 51
180.0
  0
ARC
  5
5AA
330
1F
100
AcDbEntity
  8
仕上
  6
Continuous
 62
     3
370
     9
100
AcDbCircle
 10
-12.00001484638943
 20
209.5120669160931
 30
0.0
 40
5.999999980668765
100
AcDbArc
 50
0.0
 51
59.99996948242188
  0
ARC
  5
5AB
330
1F
100
AcDbEntity
  8
仕上
  6
Continuous
 62
     3
370
     9
100
AcDbCircle
 10
-12.00001484638943
 20
148.3131343714879
 30
0.0
 40
5.999999980668765
100
AcDbArc
 50
300.0000305175782
 51
0.0000000000000382
  0
ARC
  5
5AC
330
1F
100
AcDbEntity
  8
仕上
  6
Continuous
 62
     3
370
     9
100
AcDbCircle
 10
-15.00014846389354
 20
207.780247969461
 30
0.0
 40
5.999999980668765
100
AcDbArc
 50
0.0
 51
59.99996948242188
  0
ARC
  5
5AD
330
1F
100
AcDbEntity
  8
仕上
  6
Continuous
 62
     3
370
     9
100
AcDbCircle
 10
-15.00014846389354
 20
150.045126525996
 30
0.0
 40
5.999999980668765
100
AcDbArc
 50
300.0000305175782
 51
0.0000000000000382
  0
ARC
  5
5AE
330
1F
100
AcDbEntity
  8
仕上
  6
Continuous
 62
     3
370
     9
100
AcDbCircle
 10
-118.0000305175782
 20
148.3131343714879
 30
0.0
 40
5.999999980668765
100
AcDbArc
 50
180.0
 51
239.9999694824219
  0
ARC
  5
5AF
330
1F
100
AcDbEntity
  8
仕上
  6
Continuous
 62
     3
370
     9
100
AcDbCircle
 10
-114.9998969000741
 20
150.045126525996
 30
0.0
 40
5.999999980668765
100
AcDbArc
 50
180.0
 51
239.9999694824219
  0
ARC
  5
5B0
330
1F
100
AcDbEntity
  8
仕上
  6
Continuous
 62
     3
370
     9
100
AcDbCircle
 10
-65.0000659839528
 20
121.1776957101704
 30
0.0
 40
5.999999980668765
100
AcDbArc
 50
239.9999694824219
 51
300.0000305175781
  0
ARC
  5
5B1
330
1F
100
AcDbEntity
  8
仕上
  6
Continuous
 62
     3
370
     9
100
AcDbCircle
 10
-65.0000659839528
 20
117.7135381932784
 30
0.0
 40
5.999999980668765
100
AcDbArc
 50
239.9999694824219
 51
300.0000305175781
  0
ARC
  5
5B2
330
1F
100
AcDbEntity
  8
仕上
  6
Continuous
 62
     3
370
     9
100
AcDbCircle
 10
0.0
 20
233.7609097225226
 30
0.0
 40
5.999999980668765
100
AcDbArc
 50
239.9999694824219
 51
300.0000305175781
  0
ARC
  5
5B3
330
1F
100
AcDbEntity
  8
仕上
  6
Continuous
 62
     3
370
     9
100
AcDbCircle
 10
0.0
 20
230.2967522056308
 30
0.0
 40
5.999999980668765
100
AcDbArc
 50
239.9999694824219
 51
300.0000305175781
  0
ARC
  5
5B4
330
1F
100
AcDbEntity
  8
仕上
  6
Continuous
 62
     3
370
     9
100
AcDbCircle
 10
0.0
 20
124.0643781689963
 30
0.0
 40
5.999999980668765
100
AcDbArc
 50
59.99996948242188
 51
120.0000305175781
  0
ARC
  5
5B5
330
1F
100
AcDbEntity
  8
仕上
  6
Continuous
 62
     3
370
     9
100
AcDbCircle
 10
0.0
 20
127.5285356858883
 30
0.0
 40
5.999999980668765
100
AcDbArc
 50
59.99996948242188
 51
120.0000305175781
  0
ARC
  5
5B6
330
1F
100
AcDbEntity
  8
仕上
  6
Continuous
 62
     3
370
     9
100
AcDbCircle
 10
0.0
 20
291.4958579581117
 30
0.0
 40
291.500129699707
100
AcDbArc
 50
188.2705535888672
 51
195.2940216064453
  0
ARC
  5
5B7
330
1F
100
AcDbEntity
  8
仕上
  6
Continuous
 62
     3
370
     9
100
AcDbCircle
 10
0.0
 20
291.4958579581117
 30
0.0
 40
293.5000094851932
100
AcDbArc
 50
187.0697174072266
 51
195.3964538574219
  0
ARC
  5
5B8
330
1F
100
AcDbEntity
  8
仕上
  6
Continuous
 62
     3
370
     9
100
AcDbCircle
 10
-207.0000395903718
 20
261.0266873104132
 30
0.0
 40
5.999999980668765
100
AcDbArc
 50
298.1503143310547
 51
0.0
  0
ARC
  5
5B9
330
1F
100
AcDbEntity
  8
仕上
  6
Continuous
 62
     3
370
     9
100
AcDbCircle
 10
-194.8918564255174
 20
240.0493082589986
 30
0.0
 40
5.999999980668765
100
AcDbArc
 50
60.00027465820313
 51
121.7715454101562
  0
ARC
  5
5BA
330
1F
100
AcDbEntity
  8
仕上
  6
Continuous
 62
     3
370
     9
100
AcDbCircle
 10
-210.0000866039381
 20
262.6282539344103
 30
0.0
 40
5.999999980668765
100
AcDbArc
 50
299.9997253417969
 51
0.0000000000000127
  0
ARC
  5
5BB
330
1F
100
AcDbEntity
  8
仕上
  6
Continuous
 62
     3
370
     9
100
AcDbCircle
 10
-194.9999381400445
 20
236.6475055774106
 30
0.0
 40
5.999999980668765
100
AcDbArc
 50
59.99996948242188
 51
120.0000305175781
  0
ARC
  5
5BC
330
1F
100
AcDbEntity
  8
仕上
  6
Continuous
 62
     3
370
     9
100
AcDbCircle
 10
-185.0000412399705
 20
267.996052610772
 30
0.0
 40
1.000000024969514
100
AcDbArc
 50
90.0
 51
180.0
  0
ARC
  5
5BD
330
1F
100
AcDbEntity
  8
仕上
  6
Continuous
 62
     3
370
     9
100
AcDbCircle
 10
-205.0000948519321
 20
267.996052610772
 30
0.0
 40
1.000000024969514
100
AcDbArc
 50
0.0
 51
90.0
  0
ARC
  5
5BE
330
1F
100
AcDbEntity
  8
仕上
  6
Continuous
 62
     3
370
     9
100
AcDbCircle
 10
-202.0000478383658
 20
268.9961548858988
 30
0.0
 40
1.000000024969514
100
AcDbArc
 50
0.0
 51
90.0
  0
ARC
  5
5BF
330
1F
100
AcDbEntity
  8
仕上
  6
Continuous
 62
     3
370
     9
100
AcDbCircle
 10
-188.0000882535368
 20
268.9961548858988
 30
0.0
 40
1.000000024969514
100
AcDbArc
 50
90.0
 51
180.0
  0
ARC
  5
5C0
330
1F
100
AcDbEntity
  8
仕上
  6
Continuous
 62
     3
370
     9
100
AcDbCircle
 10
0.0
 20
291.4958579581117
 30
0.0
 40
291.500129699707
100
AcDbArc
 50
198.924072265625
 51
221.0759124755859
  0
ARC
  5
5C1
330
1F
100
AcDbEntity
  8
仕上
  6
Continuous
 62
     3
370
     9
100
AcDbCircle
 10
0.0
 20
291.4958579581117
 30
0.0
 40
293.5000094851932
100
AcDbArc
 50
199.00048828125
 51
220.9994964599609
  0
ARC
  5
5C2
330
1F
100
AcDbEntity
  8
仕上
  6
Continuous
 62
     3
370
     9
100
AcDbCircle
 10
0.0
 20
291.4958579581117
 30
0.0
 40
291.500129699707
100
AcDbArc
 50
224.7059783935547
 51
255.2939910888672
  0
ARC
  5
5C3
330
1F
100
AcDbEntity
  8
仕上
  6
Continuous
 62
     3
370
     9
100
AcDbCircle
 10
0.0
 20
291.4958579581117
 30
0.0
 40
293.5000094851932
100
AcDbArc
 50
224.6035308837891
 51
255.3964385986328
  0
ARC
  5
5C4
330
1F
100
AcDbEntity
  8
仕上
  6
Continuous
 62
     3
370
     9
100
AcDbCircle
 10
0.0
 20
291.4958579581117
 30
0.0
 40
293.5000094851932
100
AcDbArc
 50
259.00048828125
 51
280.99951171875
  0
ARC
  5
5C5
330
1F
100
AcDbEntity
  8
仕上
  6
Continuous
 62
     3
370
     9
100
AcDbCircle
 10
0.0
 20
291.4958579581117
 30
0.0
 40
291.500129699707
100
AcDbArc
 50
258.924072265625
 51
281.075927734375
  0
ARC
  5
5C6
330
1F
100
AcDbEntity
  8
仕上
  6
Continuous
 62
     3
370
     9
100
AcDbCircle
 10
77.00008083034203
 20
260.8963483838401
 30
0.0
 40
5.999999980668765
100
AcDbArc
 50
180.0
 51
239.9999694824219
  0
ARC
  5
5C7
330
1F
100
AcDbEntity
  8
仕上
  6
Continuous
 62
     3
370
     9
100
AcDbCircle
 10
65.0000659839526
 20
240.1117496982405
 30
0.0
 40
5.999999980668765
100
AcDbArc
 50
59.99996948242188
 51
120.0000305175781
  0
ARC
  5
5C8
330
1F
100
AcDbEntity
  8
仕上
  6
Continuous
 62
     3
370
     9
100
AcDbCircle
 10
80.0001278439083
 20
262.6284271422862
 30
0.0
 40
5.999999980668765
100
AcDbArc
 50
180.0
 51
239.9999694824219
  0
ARC
  5
5C9
330
1F
100
AcDbEntity
  8
仕上
  6
Continuous
 62
     3
370
     9
100
AcDbCircle
 10
65.0000659839526
 20
236.6475921813487
 30
0.0
 40
5.999999980668765
100
AcDbArc
 50
59.99996948242188
 51
120.0000305175781
  0
ARC
  5
5CA
330
1F
100
AcDbEntity
  8
仕上
  6
Continuous
 62
     3
370
     9
100
AcDbCircle
 10
130.0000453639673
 20
230.2967522056308
 30
0.0
 40
5.999999980668765
100
AcDbArc
 50
239.9999694824219
 51
300.0000305175781
  0
ARC
  5
5CB
330
1F
100
AcDbEntity
  8
仕上
  6
Continuous
 62
     3
370
     9
100
AcDbCircle
 10
142.0000602103567
 20
209.5120669160931
 30
0.0
 40
5.999999980668765
100
AcDbArc
 50
120.0000305175781
 51
180.0
  0
ARC
  5
5CC
330
1F
100
AcDbEntity
  8
仕上
  6
Continuous
 62
     3
370
     9
100
AcDbCircle
 10
130.0000453639673
 20
233.7609097225226
 30
0.0
 40
5.999999980668765
100
AcDbArc
 50
239.9999694824219
 51
300.0000305175781
  0
ARC
  5
5CD
330
1F
100
AcDbEntity
  8
仕上
  6
Continuous
 62
     3
370
     9
100
AcDbCircle
 10
145.000107223923
 20
207.7800747615851
 30
0.0
 40
5.999999980668765
100
AcDbArc
 50
120.0000305175781
 51
180.0
  0
ARC
  5
5CE
330
1F
100
AcDbEntity
  8
仕上
  6
Continuous
 62
     3
370
     9
100
AcDbCircle
 10
118.0000305175781
 20
209.5120669160931
 30
0.0
 40
5.999999980668765
100
AcDbArc
 50
0.0
 51
59.99996948242188
  0
ARC
  5
5CF
330
1F
100
AcDbEntity
  8
仕上
  6
Continuous
 62
     3
370
     9
100
AcDbCircle
 10
114.9999835040119
 20
207.7800747615851
 30
0.0
 40
5.999999980668765
100
AcDbArc
 50
0.0
 51
59.99996948242188
  0
ARC
  5
5D0
330
1F
100
AcDbEntity
  8
仕上
  6
Continuous
 62
     3
370
     9
100
AcDbCircle
 10
12.00010145032726
 20
209.5120669160931
 30
0.0
 40
5.999999980668765
100
AcDbArc
 50
120.0000305175781
 51
180.0
  0
ARC
  5
5D1
330
1F
100
AcDbEntity
  8
仕上
  6
Continuous
 62
     3
370
     9
100
AcDbCircle
 10
12.00010145032726
 20
148.3131343714879
 30
0.0
 40
5.999999980668765
100
AcDbArc
 50
180.0
 51
239.9999694824219
  0
ARC
  5
5D2
330
1F
100
AcDbEntity
  8
仕上
  6
Continuous
 62
     3
370
     9
100
AcDbCircle
 10
15.00006185995571
 20
207.780247969461
 30
0.0
 40
5.999999980668765
100
AcDbArc
 50
120.0000305175781
 51
180.0
  0
ARC
  5
5D3
330
1F
100
AcDbEntity
  8
仕上
  6
Continuous
 62
     3
370
     9
100
AcDbCircle
 10
15.00006185995571
 20
150.045126525996
 30
0.0
 40
5.999999980668765
100
AcDbArc
 50
180.0
 51
239.9999694824219
  0
ARC
  5
5D4
330
1F
100
AcDbEntity
  8
仕上
  6
Continuous
 62
     3
370
     9
100
AcDbCircle
 10
118.0000305175781
 20
148.3131343714879
 30
0.0
 40
5.999999980668765
100
AcDbArc
 50
300.0000305175782
 51
0.0000000000000382
  0
ARC
  5
5D5
330
1F
100
AcDbEntity
  8
仕上
  6
Continuous
 62
     3
370
     9
100
AcDbCircle
 10
114.9999835040119
 20
150.045126525996
 30
0.0
 40
5.999999980668765
100
AcDbArc
 50
300.0000305175782
 51
0.0000000000000382
  0
ARC
  5
5D6
330
1F
100
AcDbEntity
  8
仕上
  6
Continuous
 62
     3
370
     9
100
AcDbCircle
 10
65.0000659839526
 20
121.1776957101704
 30
0.0
 40
5.999999980668765
100
AcDbArc
 50
239.9999694824219
 51
300.0000305175781
  0
ARC
  5
5D7
330
1F
100
AcDbEntity
  8
仕上
  6
Continuous
 62
     3
370
     9
100
AcDbCircle
 10
65.0000659839526
 20
117.7135381932784
 30
0.0
 40
5.999999980668765
100
AcDbArc
 50
239.9999694824219
 51
300.0000305175781
  0
ARC
  5
5D8
330
1F
100
AcDbEntity
  8
仕上
  6
Continuous
 62
     3
370
     9
100
AcDbCircle
 10
206.9999529864337
 20
261.0266873104132
 30
0.0
 40
5.999999980668765
100
AcDbArc
 50
180.0
 51
241.8496856689453
  0
ARC
  5
5D9
330
1F
100
AcDbEntity
  8
仕上
  6
Continuous
 62
     3
370
     9
100
AcDbCircle
 10
194.8918564255173
 20
240.0493082589986
 30
0.0
 40
5.999999980668765
100
AcDbArc
 50
58.22845458984375
 51
119.9997253417969
  0
ARC
  5
5DA
330
1F
100
AcDbEntity
  8
仕上
  6
Continuous
 62
     3
370
     9
100
AcDbCircle
 10
210.0
 20
262.6282539344103
 30
0.0
 40
5.999999980668765
100
AcDbArc
 50
180.0
 51
240.0002746582031
  0
ARC
  5
5DB
330
1F
100
AcDbEntity
  8
仕上
  6
Continuous
 62
     3
370
     9
100
AcDbCircle
 10
194.9999381400443
 20
236.6475055774106
 30
0.0
 40
5.999999980668765
100
AcDbArc
 50
59.99996948242188
 51
120.0000305175781
  0
ARC
  5
5DC
330
1F
100
AcDbEntity
  8
仕上
  6
Continuous
 62
     3
370
     9
100
AcDbCircle
 10
184.9999546360324
 20
267.996052610772
 30
0.0
 40
1.000000024969514
100
AcDbArc
 50
0.0
 51
90.0
  0
ARC
  5
5DD
330
1F
100
AcDbEntity
  8
仕上
  6
Continuous
 62
     3
370
     9
100
AcDbCircle
 10
205.0000082479939
 20
267.996052610772
 30
0.0
 40
1.000000024969514
100
AcDbArc
 50
90.0
 51
180.0
  0
ARC
  5
5DE
330
1F
100
AcDbEntity
  8
仕上
  6
Continuous
 62
     3
370
     9
100
AcDbCircle
 10
201.9999612344277
 20
268.9961548858988
 30
0.0
 40
1.000000024969514
100
AcDbArc
 50
90.0
 51
180.0
  0
ARC
  5
5DF
330
1F
100
AcDbEntity
  8
仕上
  6
Continuous
 62
     3
370
     9
100
AcDbCircle
 10
188.0000016495987
 20
268.9961548858988
 30
0.0
 40
1.000000024969514
100
AcDbArc
 50
0.0
 51
90.0
  0
ARC
  5
5E0
330
1F
100
AcDbEntity
  8
仕上
  6
Continuous
 62
     3
370
     9
100
AcDbCircle
 10
0.0
 20
291.4958579581117
 30
0.0
 40
291.500129699707
100
AcDbArc
 50
318.9240875244141
 51
341.0759277343751
  0
ARC
  5
5E1
330
1F
100
AcDbEntity
  8
仕上
  6
Continuous
 62
     3
370
     9
100
AcDbCircle
 10
0.0
 20
291.4958579581117
 30
0.0
 40
293.5000094851932
100
AcDbArc
 50
319.0005035400391
 51
340.99951171875
  0
ARC
  5
5E2
330
1F
100
AcDbEntity
  8
仕上
  6
Continuous
 62
     3
370
     9
100
AcDbCircle
 10
0.0
 20
291.4958579581117
 30
0.0
 40
291.500129699707
100
AcDbArc
 50
284.7060089111328
 51
315.2940216064453
  0
ARC
  5
5E3
330
1F
100
AcDbEntity
  8
仕上
  6
Continuous
 62
     3
370
     9
100
AcDbCircle
 10
0.0
 20
291.4958579581117
 30
0.0
 40
293.5000094851932
100
AcDbArc
 50
284.6035614013672
 51
315.3964691162109
  0
ARC
  5
5E4
330
1F
100
AcDbEntity
  8
仕上
  6
Continuous
 62
     3
370
     9
100
AcDbCircle
 10
0.0
 20
291.4958579581117
 30
0.0
 40
291.500129699707
100
AcDbArc
 50
344.7059783935547
 51
351.7294464111329
  0
ARC
  5
5E5
330
1F
100
AcDbEntity
  8
仕上
  6
Continuous
 62
     3
370
     9
100
AcDbCircle
 10
0.0
 20
291.4958579581117
 30
0.0
 40
293.5000094851932
100
AcDbArc
 50
344.6035461425781
 51
352.9302825927734
  0
ARC
  5
5E6
330
1F
100
AcDbEntity
  8
仕上
  6
Continuous
 62
     3
370
     9
100
AcDbCircle
 10
-145.0001072239233
 20
150.045126525996
 30
0.0
 40
5.999999980668765
100
AcDbArc
 50
300.0000305175782
 51
0.0000000000000382
  0
ARC
  5
5E7
330
1F
100
AcDbEntity
  8
仕上
  6
Continuous
 62
     3
370
     9
100
AcDbCircle
 10
-142.0000602103568
 20
148.4379306460339
 30
0.0
 40
5.999999980668765
100
AcDbArc
 50
298.2286376953125
 51
0.0000000000000254
  0
ARC
  5
5E8
330
1F
100
AcDbEntity
  8
仕上
  6
Continuous
 62
     3
370
     9
100
AcDbCircle
 10
-129.887113828917
 20
127.4633229206328
 30
0.0
 40
5.999999980668765
100
AcDbArc
 50
59.99996948242188
 51
121.8485717773438
  0
ARC
  5
5E9
330
1F
100
AcDbEntity
  8
仕上
  6
Continuous
 62
     3
370
     9
100
AcDbCircle
 10
-130.0000453639676
 20
124.0643781689963
 30
0.0
 40
5.999999980668765
100
AcDbArc
 50
59.99996948242188
 51
120.0000305175781
  0
ARC
  5
5EA
330
1F
100
AcDbEntity
  8
仕上
  6
Continuous
 62
     3
370
     9
100
AcDbCircle
 10
-50.00000412399709
 20
95.19694735317076
 30
0.0
 40
5.999999980668765
100
AcDbArc
 50
120.0000305175781
 51
180.0
  0
ARC
  5
5EB
330
1F
100
AcDbEntity
  8
仕上
  6
Continuous
 62
     3
370
     9
100
AcDbCircle
 10
-77.1129257614549
 20
96.9940656689963
 30
0.0
 40
5.999999980668765
100
AcDbArc
 50
358.1509552001953
 51
59.99996948242188
  0
ARC
  5
5EC
330
1F
100
AcDbEntity
  8
仕上
  6
Continuous
 62
     3
370
     9
100
AcDbCircle
 10
-79.9999546360327
 20
95.19694735317076
 30
0.0
 40
5.999999980668765
100
AcDbArc
 50
0.0
 51
59.99996948242188
  0
ARC
  5
5ED
330
1F
100
AcDbEntity
  8
仕上
  6
Continuous
 62
     3
370
     9
100
AcDbCircle
 10
-52.89188281909838
 20
96.99138094692076
 30
0.0
 40
5.999999980668765
100
AcDbArc
 50
120.0000305175781
 51
181.7717132568359
  0
ARC
  5
5EE
330
1F
100
AcDbEntity
  8
仕上
  6
Continuous
 62
     3
370
     9
100
AcDbCircle
 10
129.8872004328547
 20
127.4633229206328
 30
0.0
 40
5.999999980668765
100
AcDbArc
 50
58.15142822265625
 51
120.0000305175781
  0
ARC
  5
5EF
330
1F
100
AcDbEntity
  8
仕上
  6
Continuous
 62
     3
370
     9
100
AcDbCircle
 10
77.11292576145485
 20
96.9940656689963
 30
0.0
 40
5.999999980668765
100
AcDbArc
 50
120.0000305175781
 51
181.8490447998047
  0
ARC
  5
5F0
330
1F
100
AcDbEntity
  8
仕上
  6
Continuous
 62
     3
370
     9
100
AcDbCircle
 10
130.0000453639673
 20
124.0643781689963
 30
0.0
 40
5.999999980668765
100
AcDbArc
 50
59.99996948242188
 51
120.0000305175781
  0
ARC
  5
5F1
330
1F
100
AcDbEntity
  8
仕上
  6
Continuous
 62
     3
370
     9
100
AcDbCircle
 10
80.0001278439083
 20
95.19694735317076
 30
0.0
 40
5.999999980668765
100
AcDbArc
 50
120.0000305175781
 51
180.0
  0
ARC
  5
5F2
330
1F
100
AcDbEntity
  8
仕上
  6
Continuous
 62
     3
370
     9
100
AcDbCircle
 10
52.89188281909838
 20
96.99138094692076
 30
0.0
 40
5.999999980668765
100
AcDbArc
 50
358.2282867431641
 51
59.99996948242189
  0
ARC
  5
5F3
330
1F
100
AcDbEntity
  8
仕上
  6
Continuous
 62
     3
370
     9
100
AcDbCircle
 10
50.00000412399709
 20
95.19694735317076
 30
0.0
 40
5.999999980668765
100
AcDbArc
 50
0.0
 51
59.99996948242188
  0
ARC
  5
5F4
330
1F
100
AcDbEntity
  8
仕上
  6
Continuous
 62
     3
370
     9
100
AcDbCircle
 10
142.0000602103567
 20
148.4379306460339
 30
0.0
 40
5.999999980668765
100
AcDbArc
 50
180.0
 51
241.7713623046875
  0
ARC
  5
5F5
330
1F
100
AcDbEntity
  8
仕上
  6
Continuous
 62
     3
370
     9
100
AcDbCircle
 10
145.000107223923
 20
150.045126525996
 30
0.0
 40
5.999999980668765
100
AcDbArc
 50
180.0
 51
239.9999694824219
  0
ARC
  5
5F6
330
1F
100
AcDbEntity
  8
仕上
  6
Continuous
 62
     3
370
     9
100
AcDbCircle
 10
127.7819453059016
 20
-349.0742392692427
 30
0.0
 40
2.999999990334382
100
AcDbArc
 50
184.3163604736328
 51
270.0
  0
ARC
  5
5F7
330
1F
100
AcDbEntity
  8
仕上
  6
Continuous
 62
     3
370
     9
100
AcDbCircle
 10
132.2177124023437
 20
-349.0742392692427
 30
0.0
 40
2.999999990334382
100
AcDbArc
 50
270.0
 51
355.6836853027344
  0
ARC
  5
5F8
330
1F
100
AcDbEntity
  8
建具
  6
Continuous
 62
     4
370
     9
100
AcDbCircle
 10
129.9998721560916
 20
-357.8241815332841
 30
0.0
 40
15.24998729293411
100
AcDbArc
 50
180.0
 51
0.0
  0
ARC
  5
5F9
330
1F
100
AcDbEntity
  8
建具
  6
Continuous
 62
     4
370
     9
100
AcDbCircle
 10
129.9998721560916
 20
-357.8241815332841
 30
0.0
 40
8.249990585688
100
AcDbArc
 50
180.0
 51
0.0
  0
ARC
  5
5FA
330
1F
100
AcDbEntity
  8
建具
  6
Continuous
 62
     4
370
     9
100
AcDbCircle
 10
118.2498828784838
 20
-332.5741972044728
 30
0.0
 40
3.49999903021632
100
AcDbArc
 50
0.0
 51
180.0
  0
ARC
  5
5FB
330
1F
100
AcDbEntity
  8
建具
  6
Continuous
 62
     4
370
     9
100
AcDbCircle
 10
141.7498614336993
 20
-332.5741106005348
 30
0.0
 40
3.49999903021632
100
AcDbArc
 50
0.0
 51
180.0
  0
ARC
  5
5FC
330
1F
100
AcDbEntity
  8
建具
  6
Continuous
 62
     4
370
     9
100
AcDbCircle
 10
118.2498828784838
 20
-341.5740784333579
 30
0.0
 40
3.49999903021632
100
AcDbArc
 50
180.0
 51
0.0
  0
ARC
  5
5FD
330
1F
100
AcDbEntity
  8
建具
  6
Continuous
 62
     4
370
     9
100
AcDbCircle
 10
141.7498614336993
 20
-341.5740784333579
 30
0.0
 40
3.49999903021632
100
AcDbArc
 50
180.0
 51
0.0
  0
CIRCLE
  5
5FE
330
1F
100
AcDbEntity
  8
建具
  6
Continuous
 62
     4
370
     9
100
AcDbCircle
 10
151.7498449377112
 20
-337.0741378189153
 30
0.0
 40
2.500000104710863
  0
ARC
  5
5FF
330
1F
100
AcDbEntity
  8
建具
  6
Continuous
 62
     4
370
     9
100
AcDbCircle
 10
149.2498490617081
 20
-337.0741378189153
 30
0.0
 40
4.999966718055107
100
AcDbArc
 50
90.0
 51
135.5720367431641
  0
ARC
  5
600
330
1F
100
AcDbEntity
  8
建具
  6
Continuous
 62
     4
370
     9
100
AcDbCircle
 10
149.2498490617081
 20
-337.0741378189153
 30
0.0
 40
4.999966718055107
100
AcDbArc
 50
224.4279632568359
 51
270.0
  0
ARC
  5
601
330
1F
100
AcDbEntity
  8
建具
  6
Continuous
 62
     4
370
     9
100
AcDbCircle
 10
153.3082828006229
 20
-334.074177409287
 30
0.0
 40
2.000000049939027
100
AcDbArc
 50
34.84968566894531
 51
90.0
  0
ARC
  5
602
330
1F
100
AcDbEntity
  8
建具
  6
Continuous
 62
     4
370
     9
100
AcDbCircle
 10
153.3082828006229
 20
-340.0740116246059
 30
0.0
 40
2.000000049939027
100
AcDbArc
 50
270.0
 51
325.1503143310547
  0
ARC
  5
603
330
1F
100
AcDbEntity
  8
建具
  6
Continuous
 62
     4
370
     9
100
AcDbCircle
 10
148.9999100968643
 20
-337.0741378189153
 30
0.0
 40
7.249932965716801
100
AcDbArc
 50
325.1502380371094
 51
34.84976196289065
  0
ARC
  5
604
330
1F
100
AcDbEntity
  8
建具
  6
Continuous
 62
     4
370
     9
100
AcDbCircle
 10
129.9998721560916
 20
-402.0742038028681
 30
0.0
 40
8.999954300957757
100
AcDbArc
 50
0.0
 51
180.0
  0
ARC
  5
605
330
1F
100
AcDbEntity
  8
建具
  6
Continuous
 62
     4
370
     9
100
AcDbCircle
 10
129.9998721560916
 20
-426.0741468917089
 30
0.0
 40
8.999954300957757
100
AcDbArc
 50
180.0
 51
0.0
  0
ARC
  5
606
330
1F
100
AcDbEntity
  8
建具
  6
Continuous
 62
     4
370
     9
100
AcDbCircle
 10
129.9998721560916
 20
-426.0741468917089
 30
0.0
 40
3.999988259495916
100
AcDbArc
 50
180.0
 51
0.0
  0
ARC
  5
607
330
1F
100
AcDbEntity
  8
建具
  6
Continuous
 62
     4
370
     9
100
AcDbCircle
 10
129.9998721560916
 20
-402.0742038028681
 30
0.0
 40
3.999988259495916
100
AcDbArc
 50
0.0
 51
180.0
  0
CIRCLE
  5
608
330
1F
100
AcDbEntity
  8
建具
  6
Continuous
 62
     4
370
     9
100
AcDbCircle
 10
129.9998721560916
 20
-427.574213700461
 30
0.0
 40
2.500000104710863
  0
CIRCLE
  5
609
330
1F
100
AcDbEntity
  8
建具
  6
Continuous
 62
     4
370
     9
100
AcDbCircle
 10
129.9998721560916
 20
-400.574136994116
 30
0.0
 40
2.500000104710863
  0
CIRCLE
  5
60A
330
1F
100
AcDbEntity
  8
建具
  6
Continuous
 62
     4
370
     9
100
AcDbCircle
 10
129.9998721560916
 20
-363.5742499916349
 30
0.0
 40
2.500000104710863
  0
ARC
  5
60B
330
1F
100
AcDbEntity
  8
躯体
  6
Continuous
 62
     2
370
     9
100
AcDbCircle
 10
0.0
 20
291.4956847502359
 30
0.0
 40
327.9999872156092
100
AcDbArc
 50
0.000030517578125
 51
179.9999694824219
  0
ARC
  5
60C
330
1F
100
AcDbEntity
  8
仕上
  6
Continuous
 62
     3
370
     9
100
AcDbCircle
 10
0.0
 20
291.4958579581117
 30
0.0
 40
325.0000051549963
100
AcDbArc
 50
0.0
 51
180.0
  0
ARC
  5
60D
330
1F
100
AcDbEntity
  8
躯体
  6
Continuous
 62
     2
370
     9
100
AcDbCircle
 10
0.0
 20
291.4960311659876
 30
0.0
 40
336.0000043301969
100
AcDbArc
 50
169.0586547851563
 51
180.0000305175782
  0
ARC
  5
60E
330
1F
100
AcDbEntity
  8
仕上
  6
Continuous
 62
     3
370
     9
100
AcDbCircle
 10
183.8476892419763
 20
-326.0137756989829
 30
0.0
 40
35.0000018042487
100
AcDbArc
 50
188.0787353515625
 51
189.9712219238282
  0
ARC
  5
60F
330
1F
100
AcDbEntity
  8
仕上
  6
Continuous
 62
     3
370
     9
100
AcDbCircle
 10
183.8476892419763
 20
-326.0137756989829
 30
0.0
 40
35.0000018042487
100
AcDbArc
 50
207.3138580322266
 51
246.9995422363281
  0
ARC
  5
610
330
1F
100
AcDbEntity
  8
躯体
  6
Continuous
 62
     2
370
     9
100
AcDbCircle
 10
299.2425000989759
 20
-3.503828618113076
 30
0.0
 40
59.99999845350112
100
AcDbArc
 50
270.0000457763672
 51
312.1253356933594
  0
ARC
  5
611
330
1F
100
AcDbEntity
  8
躯体
  6
Continuous
 62
     2
370
     9
100
AcDbCircle
 10
295.0000329919763
 20
-7.746382329050576
 30
0.0
 40
59.99999845350112
100
AcDbArc
 50
317.874755859375
 51
0.0000457763672018
  0
ARC
  5
612
330
1F
100
AcDbEntity
  8
躯体
  6
Continuous
 62
     2
370
     9
100
AcDbCircle
 10
-299.2427599107897
 20
-3.504001825988937
 30
0.0
 40
59.99999845350112
100
AcDbArc
 50
227.8747100830078
 51
270.0000000000001
  0
ARC
  5
613
330
1F
100
AcDbEntity
  8
躯体
  6
Continuous
 62
     2
370
     9
100
AcDbCircle
 10
-295.0002061998522
 20
-7.746555536926437
 30
0.0
 40
59.99999845350112
100
AcDbArc
 50
180.0
 51
222.1252899169922
  0
CIRCLE
  5
614
330
1F
100
AcDbEntity
  8
躯体
  6
Continuous
 62
     2
370
     9
100
AcDbCircle
 10
-318.9992832493137
 20
-27.50472435027085
 30
0.0
 40
7.49999980668764
  0
ARC
  5
615
330
1F
100
AcDbEntity
  8
躯体
  6
Continuous
 62
     2
370
     9
100
AcDbCircle
 10
0.0
 20
291.4956847502359
 30
0.0
 40
300.0000247439823
100
AcDbArc
 50
179.9999694824218
 51
0.0000305175780682
  0
ARC
  5
616
330
1F
100
AcDbEntity
  8
建具
  6
JWW_CENTER1
 62
     4
370
     9
100
AcDbCircle
 10
119.9998886520798
 20
-514.7593506501548
 30
0.0
 40
10.00000041884345
100
AcDbArc
 50
270.0
 51
0.0
  0
TEXT
  5
617
330
1F
100
AcDbEntity
  8
その他
  6
Continuous
 62
     6
370
     9
100
AcDbText
 10
369.7758537102106
 20
-91.05713262598582
 30
0.0
 40
21.336
  1
４－φ１５
 50
0.0000448647455465
 41
0.7900000000000001
  7
ＭＳ ゴシック
100
AcDbText
  0
TEXT
  5
618
330
1F
100
AcDbEntity
  8
0-E
  6
Continuous
 62
     6
370
     9
100
AcDbText
 10
275.0599987957928
 20
-517.311322606975
 30
0.0
 40
21.336
  1
鎖：ＳＷＲＭ
 41
0.791666666666667
  7
ＭＳ ゴシック
100
AcDbText
  0
TEXT
  5
619
330
1F
100
AcDbEntity
  8
その他
  6
Continuous
 62
     2
370
     9
100
AcDbText
 10
114.1737068794869
 20
688.943745785392
 30
0.0
 40
21.336
  1
反対側鋳出はＫＡＮＥＳＯ
 41
1.114583333333333
  7
ＭＳ ゴシック
100
AcDbText
  0
TEXT
  5
61A
330
1F
100
AcDbEntity
  8
0-E
  6
Continuous
 62
     6
370
     9
100
AcDbText
 10
199.7321112555426
 20
-552.3113514749542
 30
0.0
 40
21.336
  1
電気亜鉛めっき，φ５×５００
 41
0.7964285714285714
  7
ＭＳ ゴシック
100
AcDbText
  0
TEXT
  5
61B
330
1F
100
AcDbEntity
  8
仕上
  6
Continuous
 62
     7
370
     9
100
AcDbText
 10
102.9524755178504
 20
586.1324379031824
 30
0.0
 40
16.002
  1
Ｍ
 50
161.9998552215269
 41
0.9999999999999983
  7
ＭＳ ゴシック
100
AcDbText
  0
TEXT
  5
61C
330
1F
100
AcDbEntity
  8
仕上
  6
Continuous
 62
     7
370
     9
100
AcDbText
 10
82.40493197016941
 20
592.6052286633577
 30
0.0
 40
16.002
  1
Ｋ
 50
165.999975355606
 41
1.000000000000001
  7
ＭＳ ゴシック
100
AcDbText
  0
TEXT
  5
61D
330
1F
100
AcDbEntity
  8
仕上
  6
Continuous
 62
     7
370
     9
100
AcDbText
 10
61.45590846368668
 20
597.6289345014914
 30
0.0
 40
16.002
  1
Ｒ
 50
170.0006708659346
 41
1.0
  7
ＭＳ ゴシック
100
AcDbText
  0
TEXT
  5
61E
330
1F
100
AcDbEntity
  8
仕上
  6
Continuous
 62
     7
370
     9
100
AcDbText
 10
40.20750459579865
 20
601.179173416831
 30
0.0
 40
16.002
  1
Ｙ
 50
173.9996267972986
 41
0.9999999999999987
  7
ＭＳ ゴシック
100
AcDbText
  0
TEXT
  5
61F
330
1F
100
AcDbEntity
  8
仕上
  6
Continuous
 62
     7
370
     9
100
AcDbText
 10
18.76309888180997
 20
603.2383967714499
 30
0.0
 40
16.002
  1
－
 50
178.0001238988945
 41
0.9999999999999978
  7
ＭＳ ゴシック
100
AcDbText
  0
TEXT
  5
620
330
1F
100
AcDbEntity
  8
仕上
  6
Continuous
 62
     7
370
     9
100
AcDbText
 10
-24.29502594353019
 20
602.8516642201851
 30
0.0
 40
16.002
  1
－
 50
185.9999032167948
 41
1.000000000000001
  7
ＭＳ ゴシック
100
AcDbText
  0
TEXT
  5
621
330
1F
100
AcDbEntity
  8
仕上
  6
Continuous
 62
     7
370
     9
100
AcDbText
 10
-45.6986302800526
 20
600.4073687548267
 30
0.0
 40
16.002
  1
６
 50
189.9998355599553
 41
1.0
  7
ＭＳ ゴシック
100
AcDbText
  0
TEXT
  5
622
330
1F
100
AcDbEntity
  8
仕上
  6
Continuous
 62
     7
370
     9
100
AcDbText
 10
-87.73529428504305
 20
591.0766577915668
 30
0.0
 40
16.002
  1
０
 50
198.0001447784731
 41
0.9999999999999983
  7
ＭＳ ゴシック
100
AcDbText
  0
TEXT
  5
623
330
1F
100
AcDbEntity
  8
仕上
  6
Continuous
 62
     7
370
     9
100
AcDbText
 10
-66.87993009022465
 20
596.4760866382617
 30
0.0
 40
16.002
  1
０
 50
194.000024644394
 41
1.000000000000003
  7
ＭＳ ゴシック
100
AcDbText
  0
TEXT
  5
624
330
1F
100
AcDbEntity
  8
仕上
  6
Continuous
 62
     7
370
     9
100
AcDbText
 10
-2.772763939866811
 20
603.7968204875717
 30
0.0
 40
16.002
  1
２
 50
181.9998761011055
 41
0.9999999999999978
  7
ＭＳ ゴシック
100
AcDbText
  0
TEXT
  5
625
330
1F
100
AcDbEntity
  8
その他
  6
Continuous
 62
     3
370
     9
100
AcDbText
 10
35.84509052331311
 20
-295.4848558625911
 30
0.0
 40
21.336
  1
２
 50
89.70227634268909
 41
0.6749999999999995
  7
ＭＳ ゴシック
100
AcDbText
  0
TEXT
  5
626
330
1F
100
AcDbEntity
  8
その他
  6
Continuous
 62
     3
370
     9
100
AcDbText
 10
35.52664746352436
 20
-356.8816650602758
 30
0.0
 40
21.336
  1
６
 50
89.70332649551595
 41
0.6749999999999999
  7
ＭＳ ゴシック
100
AcDbText
  0
TEXT
  5
627
330
1F
100
AcDbEntity
  8
その他
  6
Continuous
 62
     3
370
     9
100
AcDbText
 10
414.0518820536846
 20
262.4458579581117
 30
0.0
 40
21.336
  1
６３８
 50
90.0
 41
0.691666666666667
  7
ＭＳ ゴシック
100
AcDbText
  0
TEXT
  5
628
330
1F
100
AcDbEntity
  8
その他
  6
Continuous
 62
     3
370
     9
100
AcDbText
 10
-38.84956698031043
 20
-241.5571095315949
 30
0.0
 40
21.336
  1
φ６５０
 41
0.6937499999999996
  7
ＭＳ ゴシック
100
AcDbText
  0
TEXT
  5
629
330
1F
100
AcDbEntity
  8
その他
  6
Continuous
 62
     3
370
     9
100
AcDbText
 10
-38.84956698031043
 20
-431.5571425235713
 30
0.0
 40
21.336
  1
φ６００
 41
0.6937499999999996
  7
ＭＳ ゴシック
100
AcDbText
  0
TEXT
  5
62A
330
1F
100
AcDbEntity
  8
その他
  6
Continuous
 62
     3
370
     9
100
AcDbText
 10
414.0518820536846
 20
-366.7550408670441
 30
0.0
 40
21.336
  1
５０
 50
90.0
 41
0.6875
  7
ＭＳ ゴシック
100
AcDbText
  0
TEXT
  5
62B
330
1F
100
AcDbEntity
  8
0-E
  6
Continuous
 62
     6
370
     9
100
AcDbText
 10
413.7692935428103
 20
-161.057017154061
 30
0.0
 40
21.336
  1
蓋：ＦＣ２００
 41
0.792857142857143
  7
ＭＳ ゴシック
100
AcDbText
  0
TEXT
  5
62C
330
1F
100
AcDbEntity
  8
0-E
  6
Continuous
 62
     6
370
     9
100
AcDbText
 10
436.1692069388724
 20
-196.0570460220403
 30
0.0
 40
21.336
  1
樹脂系塗装
 41
0.7899999999999998
  7
ＭＳ ゴシック
100
AcDbText
  0
TEXT
  5
62D
330
1F
100
AcDbEntity
  8
0-E
  6
Continuous
 62
     6
370
     9
100
AcDbText
 10
381.7057443979623
 20
-245.0571210787866
 30
0.0
 40
21.336
  1
枠：ＦＣ２００
 41
0.792857142857143
  7
ＭＳ ゴシック
100
AcDbText
  0
TEXT
  5
62E
330
1F
100
AcDbEntity
  8
0-E
  6
Continuous
 62
     6
370
     9
100
AcDbText
 10
404.1056577940244
 20
-280.057063342828
 30
0.0
 40
21.336
  1
樹脂系塗装
 41
0.7899999999999998
  7
ＭＳ ゴシック
100
AcDbText
  0
TEXT
  5
62F
330
1F
100
AcDbEntity
  8
その他
  6
Continuous
 62
     3
370
     9
100
AcDbText
 10
-38.84974018818629
 20
-185.5570979844032
 30
0.0
 40
21.336
  1
□７１０
 41
0.6937499999999996
  7
ＭＳ ゴシック
100
AcDbText
  0
TEXT
  5
630
330
1F
100
AcDbEntity
  8
0-A
  6
Continuous
 62
     6
370
     9
100
AcDbText
 10
-292.3159624847131
 20
419.4373779958065
 30
0.0
 40
10.668
  1
Ｌ
 50
247.5007235880515
 41
1.000000000000001
  7
ＭＳ ゴシック
100
AcDbText
  0
TEXT
  5
631
330
1F
100
AcDbEntity
  8
0-A
  6
Continuous
 62
     6
370
     9
100
AcDbText
 10
-298.4127494274975
 20
404.394316123428
 30
0.0
 40
10.668
  1
Ｏ
 50
250.1411371658055
 41
1.000000000000001
  7
ＭＳ ゴシック
100
AcDbText
  0
TEXT
  5
632
330
1F
100
AcDbEntity
  8
0-A
  6
Continuous
 62
     6
370
     9
100
AcDbText
 10
-303.8383181524794
 20
389.0271159550054
 30
0.0
 40
10.668
  1
Ｃ
 50
253.500950014357
 41
1.000000000000001
  7
ＭＳ ゴシック
100
AcDbText
  0
TEXT
  5
633
330
1F
100
AcDbEntity
  8
0-A
  6
Continuous
 62
     6
370
     9
100
AcDbText
 10
-308.4226326840038
 20
373.4205089784832
 30
0.0
 40
10.668
  1
Ｋ
 50
256.5002550536373
 41
1.000000000000001
  7
ＭＳ ゴシック
100
AcDbText
  0
LWPOLYLINE
  5
634
330
1F
100
AcDbEntity
  8
その他
  6
Continuous
 62
     7
370
     9
100
AcDbPolyline
 90
        4
 70
     1
 43
0.7000000000000001
 10
47.02259422508448
 20
-318.7564523050324
 42
0.4142135623731
 10
46.67259422508448
 20
-318.4064523050324
 42
0.4142135623731
 10
46.32259422508448
 20
-318.7564523050324
 42
0.4142135623731
 10
46.67259422508448
 20
-319.1064523050323
 42
0.4142135623731
  0
LINE
  5
635
330
1F
100
AcDbEntity
  8
仕上
  6
Continuous
 62
     3
370
     9
100
AcDbLine
 10
26.00006103515625
 20
300.4962588106244
 30
0.0
 11
66.00008165514149
 21
300.4962588106244
 31
0.0
  0
LINE
  5
636
330
1F
100
AcDbEntity
  8
仕上
  6
Continuous
 62
     3
370
     9
100
AcDbLine
 10
-19.9999670080237
 20
300.4962588106244
 30
0.0
 11
20.00005361196153
 21
300.4962588106244
 31
0.0
  0
LINE
  5
637
330
1F
100
AcDbEntity
  8
仕上
  6
Continuous
 62
     3
370
     9
100
AcDbLine
 10
37.00006021035679
 20
325.4960443627781
 30
0.0
 11
37.00006021035679
 21
307.4959354892561
 31
0.0
  0
LINE
  5
638
330
1F
100
AcDbEntity
  8
仕上
  6
Continuous
 62
     3
370
     9
100
AcDbLine
 10
9.000227644636851
 20
325.4960443627781
 30
0.0
 11
37.00006021035679
 21
325.4960443627781
 31
0.0
  0
LINE
  5
639
330
1F
100
AcDbEntity
  8
仕上
  6
Continuous
 62
     3
370
     9
100
AcDbLine
 10
9.000227644636851
 20
325.4960443627781
 30
0.0
 11
9.000227644636851
 21
307.4959354892561
 31
0.0
  0
LINE
  5
63A
330
1F
100
AcDbEntity
  8
仕上
  6
Continuous
 62
     3
370
     9
100
AcDbLine
 10
9.000227644636851
 20
307.4959354892561
 30
0.0
 11
37.00006021035679
 21
307.4959354892561
 31
0.0
  0
LINE
  5
63B
330
1F
100
AcDbEntity
  8
仕上
  6
Continuous
 62
     3
370
     9
100
AcDbLine
 10
42.00013856630065
 20
325.4960443627781
 30
0.0
 11
42.00013856630065
 21
307.4959354892561
 31
0.0
  0
LINE
  5
63C
330
1F
100
AcDbEntity
  8
仕上
  6
Continuous
 62
     3
370
     9
100
AcDbLine
 10
42.00013856630065
 20
307.4959354892561
 30
0.0
 11
50.00017733187295
 21
307.4959354892561
 31
0.0
  0
LINE
  5
63D
330
1F
100
AcDbEntity
  8
仕上
  6
Continuous
 62
     3
370
     9
100
AcDbLine
 10
50.00017733187295
 20
325.4960443627781
 30
0.0
 11
50.00017733187295
 21
307.4959354892561
 31
0.0
  0
LINE
  5
63E
330
1F
100
AcDbEntity
  8
仕上
  6
Continuous
 62
     3
370
     9
100
AcDbLine
 10
42.00013856630065
 20
325.4960443627781
 30
0.0
 11
50.00017733187295
 21
325.4960443627781
 31
0.0
  0
LINE
  5
63F
330
1F
100
AcDbEntity
  8
仕上
  6
Continuous
 62
     3
370
     9
100
AcDbLine
 10
83.00008825353675
 20
325.4960443627781
 30
0.0
 11
83.00008825353675
 21
307.4959354892561
 31
0.0
  0
LINE
  5
640
330
1F
100
AcDbEntity
  8
仕上
  6
Continuous
 62
     3
370
     9
100
AcDbLine
 10
55.00008247994074
 20
325.4960443627781
 30
0.0
 11
83.00008825353675
 21
325.4960443627781
 31
0.0
  0
LINE
  5
641
330
1F
100
AcDbEntity
  8
仕上
  6
Continuous
 62
     3
370
     9
100
AcDbLine
 10
55.00008247994074
 20
325.4960443627781
 30
0.0
 11
55.00008247994074
 21
307.4959354892561
 31
0.0
  0
LINE
  5
642
330
1F
100
AcDbEntity
  8
仕上
  6
Continuous
 62
     3
370
     9
100
AcDbLine
 10
55.00008247994074
 20
307.4959354892561
 30
0.0
 11
83.00008825353675
 21
307.4959354892561
 31
0.0
  0
LINE
  5
643
330
1F
100
AcDbEntity
  8
仕上
  6
Continuous
 62
     3
370
     9
100
AcDbLine
 10
4.000062684754965
 20
325.4960443627781
 30
0.0
 11
4.000062684754965
 21
307.4959354892561
 31
0.0
  0
LINE
  5
644
330
1F
100
AcDbEntity
  8
仕上
  6
Continuous
 62
     3
370
     9
100
AcDbLine
 10
-3.999889476879304
 20
325.4960443627781
 30
0.0
 11
4.000062684754965
 21
325.4960443627781
 31
0.0
  0
LINE
  5
645
330
1F
100
AcDbEntity
  8
仕上
  6
Continuous
 62
     3
370
     9
100
AcDbLine
 10
-3.999889476879304
 20
307.4959354892561
 30
0.0
 11
4.000062684754965
 21
307.4959354892561
 31
0.0
  0
LINE
  5
646
330
1F
100
AcDbEntity
  8
仕上
  6
Continuous
 62
     3
370
     9
100
AcDbLine
 10
-25.99988782728039
 20
300.4962588106244
 30
0.0
 11
-65.99990844726562
 21
300.4962588106244
 31
0.0
  0
LINE
  5
647
330
1F
100
AcDbEntity
  8
仕上
  6
Continuous
 62
     3
370
     9
100
AcDbLine
 10
-36.99997360641896
 20
325.4960443627781
 30
0.0
 11
-36.99997360641896
 21
307.4959354892561
 31
0.0
  0
LINE
  5
648
330
1F
100
AcDbEntity
  8
仕上
  6
Continuous
 62
     3
370
     9
100
AcDbLine
 10
-8.99988122888513
 20
325.4960443627781
 30
0.0
 11
-36.99997360641896
 21
325.4960443627781
 31
0.0
  0
LINE
  5
649
330
1F
100
AcDbEntity
  8
仕上
  6
Continuous
 62
     3
370
     9
100
AcDbLine
 10
-8.99988122888513
 20
325.4960443627781
 30
0.0
 11
-8.99988122888513
 21
307.4959354892561
 31
0.0
  0
LINE
  5
64A
330
1F
100
AcDbEntity
  8
仕上
  6
Continuous
 62
     3
370
     9
100
AcDbLine
 10
-8.99988122888513
 20
307.4959354892561
 30
0.0
 11
-36.99997360641896
 21
307.4959354892561
 31
0.0
  0
LINE
  5
64B
330
1F
100
AcDbEntity
  8
仕上
  6
Continuous
 62
     3
370
     9
100
AcDbLine
 10
-41.99996535842479
 20
325.4960443627781
 30
0.0
 11
-41.99996535842479
 21
307.4959354892561
 31
0.0
  0
LINE
  5
64C
330
1F
100
AcDbEntity
  8
仕上
  6
Continuous
 62
     3
370
     9
100
AcDbLine
 10
-41.99996535842479
 20
307.4959354892561
 30
0.0
 11
-50.00000412399709
 21
307.4959354892561
 31
0.0
  0
LINE
  5
64D
330
1F
100
AcDbEntity
  8
仕上
  6
Continuous
 62
     3
370
     9
100
AcDbLine
 10
-50.00000412399709
 20
325.4960443627781
 30
0.0
 11
-50.00000412399709
 21
307.4959354892561
 31
0.0
  0
LINE
  5
64E
330
1F
100
AcDbEntity
  8
仕上
  6
Continuous
 62
     3
370
     9
100
AcDbLine
 10
-41.99996535842479
 20
325.4960443627781
 30
0.0
 11
-50.00000412399709
 21
325.4960443627781
 31
0.0
  0
LINE
  5
64F
330
1F
100
AcDbEntity
  8
仕上
  6
Continuous
 62
     3
370
     9
100
AcDbLine
 10
-82.99991504566094
 20
325.4960443627781
 30
0.0
 11
-82.99991504566094
 21
307.4959354892561
 31
0.0
  0
LINE
  5
650
330
1F
100
AcDbEntity
  8
仕上
  6
Continuous
 62
     3
370
     9
100
AcDbLine
 10
-54.99990927206508
 20
325.4960443627781
 30
0.0
 11
-82.99991504566094
 21
325.4960443627781
 31
0.0
  0
LINE
  5
651
330
1F
100
AcDbEntity
  8
仕上
  6
Continuous
 62
     3
370
     9
100
AcDbLine
 10
-54.99990927206508
 20
325.4960443627781
 30
0.0
 11
-54.99990927206508
 21
307.4959354892561
 31
0.0
  0
LINE
  5
652
330
1F
100
AcDbEntity
  8
仕上
  6
Continuous
 62
     3
370
     9
100
AcDbLine
 10
-54.99990927206508
 20
307.4959354892561
 30
0.0
 11
-82.99991504566094
 21
307.4959354892561
 31
0.0
  0
LINE
  5
653
330
1F
100
AcDbEntity
  8
仕上
  6
Continuous
 62
     3
370
     9
100
AcDbLine
 10
-3.999889476879304
 20
325.4960443627781
 30
0.0
 11
-3.999889476879304
 21
307.4959354892561
 31
0.0
  0
LINE
  5
654
330
1F
100
AcDbEntity
  8
仕上
  6
Continuous
 62
     3
370
     9
100
AcDbLine
 10
-65.99990844726562
 20
300.4962588106244
 30
0.0
 11
-65.99990844726562
 21
291.4958579581117
 31
0.0
  0
LINE
  5
655
330
1F
100
AcDbEntity
  8
仕上
  6
Continuous
 62
     3
370
     9
100
AcDbLine
 10
-25.99988782728039
 20
300.4962588106244
 30
0.0
 11
-25.99988782728039
 21
291.4958579581117
 31
0.0
  0
LINE
  5
656
330
1F
100
AcDbEntity
  8
仕上
  6
Continuous
 62
     3
370
     9
100
AcDbLine
 10
-19.9999670080237
 20
300.4962588106244
 30
0.0
 11
-19.9999670080237
 21
291.4958579581117
 31
0.0
  0
LINE
  5
657
330
1F
100
AcDbEntity
  8
仕上
  6
Continuous
 62
     3
370
     9
100
AcDbLine
 10
20.00005361196153
 20
300.4962588106244
 30
0.0
 11
20.00005361196153
 21
291.4958579581117
 31
0.0
  0
LINE
  5
658
330
1F
100
AcDbEntity
  8
仕上
  6
Continuous
 62
     3
370
     9
100
AcDbLine
 10
26.00006103515625
 20
300.4962588106244
 30
0.0
 11
26.00006103515625
 21
291.4958579581117
 31
0.0
  0
LINE
  5
659
330
1F
100
AcDbEntity
  8
仕上
  6
Continuous
 62
     3
370
     9
100
AcDbLine
 10
66.00008165514149
 20
300.4962588106244
 30
0.0
 11
66.00008165514149
 21
291.4958579581117
 31
0.0
  0
ARC
  5
65A
330
1F
100
AcDbEntity
  8
仕上
  6
Continuous
 62
     3
370
     9
100
AcDbCircle
 10
-52.99996453362553
 20
260.8963483838401
 30
0.0
 40
5.999999980668765
100
AcDbArc
 50
180.0
 51
239.9999694824219
  0
ARC
  5
65B
330
1F
100
AcDbEntity
  8
仕上
  6
Continuous
 62
     3
370
     9
100
AcDbCircle
 10
-50.00000412399709
 20
262.6284271422862
 30
0.0
 40
5.999999980668765
100
AcDbArc
 50
180.0
 51
239.9999694824219
  0
LINE
  5
65C
330
1F
100
AcDbEntity
  8
仕上
  6
Continuous
 62
     3
370
     9
100
AcDbLine
 10
-55.99992494325377
 20
262.6284271422862
 30
0.0
 11
-55.99992494325377
 21
291.4958579581117
 31
0.0
  0
LINE
  5
65D
330
1F
100
AcDbEntity
  8
仕上
  6
Continuous
 62
     3
370
     9
100
AcDbLine
 10
-58.99997195682005
 20
260.8963483838401
 30
0.0
 11
-58.99997195682005
 21
291.4958579581117
 31
0.0
  0
LINE
  5
65E
330
1F
100
AcDbEntity
  8
仕上
  6
Continuous
 62
     3
370
     9
100
AcDbLine
 10
56.0000115471916
 20
262.6284271422862
 30
0.0
 11
56.0000115471916
 21
291.4958579581117
 31
0.0
  0
LINE
  5
65F
330
1F
100
AcDbEntity
  8
仕上
  6
Continuous
 62
     3
370
     9
100
AcDbLine
 10
59.00005856075808
 20
260.8963483838401
 30
0.0
 11
59.00005856075808
 21
291.4958579581117
 31
0.0
  0
ARC
  5
660
330
1F
100
AcDbEntity
  8
仕上
  6
Continuous
 62
     3
370
     9
100
AcDbCircle
 10
52.99996453362533
 20
260.8963483838401
 30
0.0
 40
5.999999980668765
100
AcDbArc
 50
300.0000305175782
 51
0.0000000000000382
  0
ARC
  5
661
330
1F
100
AcDbEntity
  8
仕上
  6
Continuous
 62
     3
370
     9
100
AcDbCircle
 10
50.00000412399709
 20
262.6284271422862
 30
0.0
 40
5.999999980668765
100
AcDbArc
 50
300.0000305175782
 51
0.0000000000000382
  0
TEXT
  5
662
330
1F
100
AcDbEntity
  8
0-E
  6
Continuous
 62
     6
370
     9
100
AcDbText
 10
363.2561105960937
 20
-434.6290431860975
 30
0.0
 40
21.336
  1
パッキン：クロロプレン
 41
0.7954545454545454
  7
ＭＳ ゴシック
100
AcDbText
  0
LINE
  5
663
330
1F
100
AcDbEntity
  8
0-E
  6
Continuous
 62
     7
370
     9
100
AcDbLine
 10
360.7908795330975
 20
-442.5051656179547
 30
0.0
 11
606.2367530085928
 21
-442.5051656179547
 31
0.0
  0
ENDSEC
  0
SECTION
  2
OBJECTS
  0
DICTIONARY
  5
C
330
0
100
AcDbDictionary
281
     1
  3
ACAD_GROUP
350
D
  3
ACAD_LAYOUT
350
1A
  3
ACAD_MLEADERSTYLE
350
665
  3
ACAD_MLINESTYLE
350
17
  3
ACAD_PLOTSETTINGS
350
19
  3
ACAD_PLOTSTYLENAME
350
E
  3
ACAD_TABLESTYLE
350
664
  3
ACAD_VISUALSTYLE
350
2A
  0
DICTIONARY
  5
D
102
{ACAD_REACTORS
330
C
102
}
330
C
100
AcDbDictionary
281
     1
  0
DICTIONARY
  5
1A
102
{ACAD_REACTORS
330
C
102
}
330
C
100
AcDbDictionary
281
     1
  3
Layout1
350
1E
  3
Layout2
350
26
  3
Model
350
22
  0
DICTIONARY
  5
665
102
{ACAD_REACTORS
330
C
102
}
330
C
100
AcDbDictionary
281
     1
  0
DICTIONARY
  5
17
102
{ACAD_REACTORS
330
C
102
}
330
C
100
AcDbDictionary
281
     1
  3
Standard
350
18
  0
DICTIONARY
  5
19
102
{ACAD_REACTORS
330
C
102
}
330
C
100
AcDbDictionary
281
     1
  0
ACDBDICTIONARYWDFLT
  5
E
102
{ACAD_REACTORS
330
C
102
}
330
C
100
AcDbDictionary
281
     1
  3
Normal
350
F
100
AcDbDictionaryWithDefault
340
F
  0
DICTIONARY
  5
664
102
{ACAD_REACTORS
330
C
102
}
330
C
100
AcDbDictionary
281
     1
  0
DICTIONARY
  5
2A
102
{ACAD_REACTORS
330
C
102
}
330
C
100
AcDbDictionary
281
     1
  3
2dWireframe
350
2F
  3
3D Hidden
350
31
  3
3dWireframe
350
30
  3
Basic
350
32
  3
Brighten
350
36
  3
ColorChange
350
3A
  3
Conceptual
350
34
  3
Dim
350
35
  3
Facepattern
350
39
  3
Flat
350
2B
  3
FlatWithEdges
350
2C
  3
Gouraud
350
2D
  3
GouraudWithEdges
350
2E
  3
Linepattern
350
38
  3
Realistic
350
33
  3
Thicken
350
37
  0
LAYOUT
  5
1E
102
{ACAD_REACTORS
330
1A
102
}
330
1A
100
AcDbPlotSettings
  1

  2
none_device
  4

  6

 40
0.0
 41
0.0
 42
0.0
 43
0.0
 44
0.0
 45
0.0
 46
0.0
 47
0.0
 48
0.0
 49
0.0
140
0.0
141
0.0
142
1.0
143
1.0
 70
   688
 72
     0
 73
     0
 74
     5
  7

 75
    16
 76
     0
 77
     5
 78
   300
147
1.0
148
0.0
149
0.0
100
AcDbLayout
  1
Layout1
 70
     1
 71
     1
 10
0.0
 20
0.0
 11
420.0
 21
297.0
 12
0.0
 22
0.0
 32
0.0
 14
1.000000000000000E+20
 24
1.000000000000000E+20
 34
1.000000000000000E+20
 15
-1.000000000000000E+20
 25
-1.000000000000000E+20
 35
-1.000000000000000E+20
146
0.0
 13
0.0
 23
0.0
 33
0.0
 16
1.0
 26
0.0
 36
0.0
 17
0.0
 27
1.0
 37
0.0
 76
     0
330
1B
  0
LAYOUT
  5
26
102
{ACAD_REACTORS
330
1A
102
}
330
1A
100
AcDbPlotSettings
  1

  2
none_device
  4

  6

 40
0.0
 41
0.0
 42
0.0
 43
0.0
 44
0.0
 45
0.0
 46
0.0
 47
0.0
 48
0.0
 49
0.0
140
0.0
141
0.0
142
1.0
143
1.0
 70
   688
 72
     0
 73
     0
 74
     5
  7

 75
    16
 76
     0
 77
     5
 78
   300
147
1.0
148
0.0
149
0.0
100
AcDbLayout
  1
Layout2
 70
     1
 71
     2
 10
0.0
 20
0.0
 11
0.0
 21
0.0
 12
0.0
 22
0.0
 32
0.0
 14
0.0
 24
0.0
 34
0.0
 15
0.0
 25
0.0
 35
0.0
146
0.0
 13
0.0
 23
0.0
 33
0.0
 16
1.0
 26
0.0
 36
0.0
 17
0.0
 27
1.0
 37
0.0
 76
     0
330
23
  0
LAYOUT
  5
22
102
{ACAD_REACTORS
330
1A
102
}
330
1A
100
AcDbPlotSettings
  1

  2
none_device
  4

  6

 40
0.0
 41
0.0
 42
0.0
 43
0.0
 44
0.0
 45
0.0
 46
0.0
 47
0.0
 48
0.0
 49
0.0
140
0.0
141
0.0
142
1.0
143
1.0
 70
  1712
 72
     0
 73
     0
 74
     0
  7

 75
     0
 76
     0
 77
     5
 78
   300
147
1.0
148
0.0
149
0.0
100
AcDbLayout
  1
Model
 70
     1
 71
     0
 10
-1470.0
 20
-1039.5
 11
1470.0
 21
1039.5
 12
0.0
 22
0.0
 32
0.0
 14
-1470.0
 24
-1039.5
 34
0.0
 15
1470.0
 25
1039.5
 35
0.0
146
0.0
 13
0.0
 23
0.0
 33
0.0
 16
1.0
 26
0.0
 36
0.0
 17
0.0
 27
1.0
 37
0.0
 76
     0
330
1F
331
29
  0
MLINESTYLE
  5
18
102
{ACAD_REACTORS
330
17
102
}
330
17
100
AcDbMlineStyle
  2
Standard
 70
     0
  3

 62
   256
 51
90.0
 52
90.0
 71
     2
 49
0.5
 62
   256
  6
BYLAYER
 49
-0.5
 62
   256
  6
BYLAYER
  0
ACDBPLACEHOLDER
  5
F
102
{ACAD_REACTORS
330
E
102
}
330
E
  0
VISUALSTYLE
  5
2F
102
{ACAD_REACTORS
330
2A
102
}
330
2A
100
AcDbVisualStyle
  2
2dWireframe
 70
     4
 71
     0
 72
     2
 73
     0
 90
        0
 40
-0.6
 41
-30.0
 62
     5
 63
     7
421
 16777215
 74
     1
 91
        4
 64
     7
 65
   257
 75
     1
175
     1
 42
1.0
 92
        0
 66
   257
 43
1.0
 76
     1
 77
     6
 78
     2
 67
     7
 79
     5
170
     0
171
     0
290
     0
174
     0
 93
        1
 44
0.0
173
     0
291
     0
 45
0.0
1001
ACAD
1000
AcDbSavedByObjectVersion
1070
     0
  0
VISUALSTYLE
  5
31
102
{ACAD_REACTORS
330
2A
102
}
330
2A
100
AcDbVisualStyle
  2
3D Hidden
 70
     6
 71
     1
 72
     2
 73
     2
 90
        0
 40
-0.6
 41
-30.0
 62
     5
 63
     7
421
 16777215
 74
     2
 91
        2
 64
     7
 65
   257
 75
     2
175
     1
 42
40.0
 92
        0
 66
   257
 43
1.0
 76
     1
 77
     6
 78
     2
 67
     7
 79
     3
170
     0
171
     0
290
     0
174
     0
 93
        1
 44
0.0
173
     0
291
     0
 45
0.0
1001
ACAD
1000
AcDbSavedByObjectVersion
1070
     0
  0
VISUALSTYLE
  5
30
102
{ACAD_REACTORS
330
2A
102
}
330
2A
100
AcDbVisualStyle
  2
3dWireframe
 70
     5
 71
     0
 72
     2
 73
     0
 90
        0
 40
-0.6
 41
-30.0
 62
     5
 63
     7
421
 16777215
 74
     1
 91
        4
 64
     7
 65
   257
 75
     1
175
     1
 42
1.0
 92
        0
 66
   257
 43
1.0
 76
     1
 77
     6
 78
     2
 67
     7
 79
     5
170
     0
171
     0
290
     0
174
     0
 93
        1
 44
0.0
173
     0
291
     0
 45
0.0
1001
ACAD
1000
AcDbSavedByObjectVersion
1070
     0
  0
VISUALSTYLE
  5
32
102
{ACAD_REACTORS
330
2A
102
}
330
2A
100
AcDbVisualStyle
  2
Basic
 70
     7
 71
     1
 72
     0
 73
     1
 90
        0
 40
-0.6
 41
-30.0
 62
     5
 63
     7
421
 16777215
 74
     0
 91
        4
 64
     7
 65
   257
 75
     1
175
     1
 42
1.0
 92
        8
 66
     7
 43
1.0
 76
     1
 77
     6
 78
     2
 67
     7
 79
     5
170
     0
171
     0
290
     0
174
     0
 93
        1
 44
0.0
173
     0
291
     1
 45
0.0
1001
ACAD
1000
AcDbSavedByObjectVersion
1070
     0
  0
VISUALSTYLE
  5
36
102
{ACAD_REACTORS
330
2A
102
}
330
2A
100
AcDbVisualStyle
  2
Brighten
 70
    12
 71
     2
 72
     2
 73
     0
 90
        0
 40
-0.6
 41
-30.0
 62
     5
 63
     7
421
 16777215
 74
     1
 91
        4
 64
     7
 65
   257
 75
     1
175
     1
 42
1.0
 92
        8
 66
     7
 43
1.0
 76
     1
 77
     6
 78
     2
 67
     7
 79
     5
170
     0
171
     0
290
     0
174
     0
 93
        1
 44
50.0
173
     0
291
     1
 45
0.0
1001
ACAD
1000
AcDbSavedByObjectVersion
1070
     0
  0
VISUALSTYLE
  5
3A
102
{ACAD_REACTORS
330
2A
102
}
330
2A
100
AcDbVisualStyle
  2
ColorChange
 70
    16
 71
     2
 72
     2
 73
     3
 90
        0
 40
-0.6
 41
-30.0
 62
     5
 63
     8
421
  8421504
 74
     1
 91
        4
 64
     7
 65
   257
 75
     1
175
     1
 42
1.0
 92
        8
 66
     8
424
  8421504
 43
1.0
 76
     1
 77
     6
 78
     2
 67
     7
 79
     5
170
     0
171
     0
290
     0
174
     0
 93
        1
 44
0.0
173
     0
291
     1
 45
0.0
1001
ACAD
1000
AcDbSavedByObjectVersion
1070
     0
  0
VISUALSTYLE
  5
34
102
{ACAD_REACTORS
330
2A
102
}
330
2A
100
AcDbVisualStyle
  2
Conceptual
 70
     9
 71
     3
 72
     2
 73
     0
 90
        0
 40
-0.6
 41
-30.0
 62
     5
 63
     7
421
 16777215
 74
     2
 91
        2
 64
     7
 65
   257
 75
     1
175
     1
 42
40.0
 92
        8
 66
     7
 43
1.0
 76
     1
 77
     6
 78
     2
 67
     7
 79
     3
170
     0
171
     0
290
     0
174
     0
 93
        1
 44
0.0
173
     0
291
     0
 45
0.0
1001
ACAD
1000
AcDbSavedByObjectVersion
1070
     0
  0
VISUALSTYLE
  5
35
102
{ACAD_REACTORS
330
2A
102
}
330
2A
100
AcDbVisualStyle
  2
Dim
 70
    11
 71
     2
 72
     2
 73
     0
 90
        0
 40
-0.6
 41
-30.0
 62
     5
 63
     7
421
 16777215
 74
     1
 91
        4
 64
     7
 65
   257
 75
     1
175
     1
 42
1.0
 92
        8
 66
     7
 43
1.0
 76
     1
 77
     6
 78
     2
 67
     7
 79
     5
170
     0
171
     0
290
     0
174
     0
 93
        1
 44
-50.0
173
     0
291
     1
 45
0.0
1001
ACAD
1000
AcDbSavedByObjectVersion
1070
     0
  0
VISUALSTYLE
  5
39
102
{ACAD_REACTORS
330
2A
102
}
330
2A
100
AcDbVisualStyle
  2
Facepattern
 70
    15
 71
     2
 72
     2
 73
     0
 90
        0
 40
-0.6
 41
-30.0
 62
     5
 63
     7
421
 16777215
 74
     1
 91
        4
 64
     7
 65
   257
 75
     1
175
     1
 42
1.0
 92
        8
 66
     7
 43
1.0
 76
     1
 77
     6
 78
     2
 67
     7
 79
     5
170
     0
171
     0
290
     0
174
     0
 93
        1
 44
0.0
173
     0
291
     1
 45
0.0
1001
ACAD
1000
AcDbSavedByObjectVersion
1070
     0
  0
VISUALSTYLE
  5
2B
102
{ACAD_REACTORS
330
2A
102
}
330
2A
100
AcDbVisualStyle
  2
Flat
 70
     0
 71
     2
 72
     1
 73
     1
 90
        2
 40
-0.6
 41
30.0
 62
     5
 63
     7
421
 16777215
 74
     0
 91
        4
 64
     7
 65
   257
 75
     1
175
     1
 42
1.0
 92
        8
 66
     7
 43
1.0
 76
     1
 77
     6
 78
     2
 67
     7
 79
     5
170
     0
171
     0
290
     0
174
     0
 93
       13
 44
0.0
173
     0
291
     1
 45
0.0
1001
ACAD
1000
AcDbSavedByObjectVersion
1070
     0
  0
VISUALSTYLE
  5
2C
102
{ACAD_REACTORS
330
2A
102
}
330
2A
100
AcDbVisualStyle
  2
FlatWithEdges
 70
     1
 71
     2
 72
     1
 73
     1
 90
        2
 40
-0.6
 41
30.0
 62
     5
 63
     7
421
 16777215
 74
     1
 91
        4
 64
     7
 65
   257
 75
     1
175
     1
 42
1.0
 92
        0
 66
   257
 43
1.0
 76
     1
 77
     6
 78
     2
 67
     7
 79
     5
170
     0
171
     0
290
     0
174
     0
 93
       13
 44
0.0
173
     0
291
     1
 45
0.0
1001
ACAD
1000
AcDbSavedByObjectVersion
1070
     0
  0
VISUALSTYLE
  5
2D
102
{ACAD_REACTORS
330
2A
102
}
330
2A
100
AcDbVisualStyle
  2
Gouraud
 70
     2
 71
     2
 72
     2
 73
     1
 90
        2
 40
-0.6
 41
30.0
 62
     5
 63
     7
421
 16777215
 74
     0
 91
        4
 64
     7
 65
   257
 75
     1
175
     1
 42
1.0
 92
        0
 66
     7
 43
1.0
 76
     1
 77
     6
 78
     2
 67
     7
 79
     5
170
     0
171
     0
290
     0
174
     0
 93
       13
 44
0.0
173
     0
291
     1
 45
0.0
1001
ACAD
1000
AcDbSavedByObjectVersion
1070
     0
  0
VISUALSTYLE
  5
2E
102
{ACAD_REACTORS
330
2A
102
}
330
2A
100
AcDbVisualStyle
  2
GouraudWithEdges
 70
     3
 71
     2
 72
     2
 73
     1
 90
        2
 40
-0.6
 41
30.0
 62
     5
 63
     7
421
 16777215
 74
     1
 91
        4
 64
     7
 65
   257
 75
     1
175
     1
 42
1.0
 92
        0
 66
   257
 43
1.0
 76
     1
 77
     6
 78
     2
 67
     7
 79
     5
170
     0
171
     0
290
     0
174
     0
 93
       13
 44
0.0
173
     0
291
     1
 45
0.0
1001
ACAD
1000
AcDbSavedByObjectVersion
1070
     0
  0
VISUALSTYLE
  5
38
102
{ACAD_REACTORS
330
2A
102
}
330
2A
100
AcDbVisualStyle
  2
Linepattern
 70
    14
 71
     2
 72
     2
 73
     0
 90
        0
 40
-0.6
 41
-30.0
 62
     5
 63
     7
421
 16777215
 74
     1
 91
        4
 64
     7
 65
   257
 75
     7
175
     7
 42
1.0
 92
        8
 66
     7
 43
1.0
 76
     1
 77
     6
 78
     2
 67
     7
 79
     5
170
     0
171
     0
290
     0
174
     0
 93
        1
 44
0.0
173
     0
291
     1
 45
0.0
1001
ACAD
1000
AcDbSavedByObjectVersion
1070
     0
  0
VISUALSTYLE
  5
33
102
{ACAD_REACTORS
330
2A
102
}
330
2A
100
AcDbVisualStyle
  2
Realistic
 70
     8
 71
     2
 72
     2
 73
     0
 90
        0
 40
-0.6
 41
-30.0
 62
     5
 63
     7
421
 16777215
 74
     1
 91
        0
 64
     7
 65
   257
 75
     1
175
     1
 42
1.0
 92
        8
 66
     8
424
  7895160
 43
1.0
 76
     1
 77
     6
 78
     2
 67
     7
 79
     5
170
     0
171
     0
290
     0
174
     0
 93
       13
 44
0.0
173
     0
291
     0
 45
0.0
1001
ACAD
1000
AcDbSavedByObjectVersion
1070
     0
  0
VISUALSTYLE
  5
37
102
{ACAD_REACTORS
330
2A
102
}
330
2A
100
AcDbVisualStyle
  2
Thicken
 70
    13
 71
     2
 72
     2
 73
     0
 90
        0
 40
-0.6
 41
-30.0
 62
     5
 63
     7
421
 16777215
 74
     1
 91
        4
 64
     7
 65
   257
 75
     1
175
     1
 42
1.0
 92
       12
 66
     7
 43
1.0
 76
     1
 77
     6
 78
     2
 67
     7
 79
     5
170
     0
171
     0
290
     0
174
     0
 93
        1
 44
0.0
173
     0
291
     1
 45
0.0
1001
ACAD
1000
AcDbSavedByObjectVersion
1070
     0
  0
ENDSEC
  0
EOF
