  0
SECTION
  2
HEADER
  9
$ACADVER
  1
AC1018
  9
$ACADMAINTVER
 70
     0
  9
$DWGCODEPAGE
  3
ANSI_932
  9
$INSBASE
 10
0.0
 20
0.0
 30
0.0
  9
$EXTMIN
 10
-1260.0
 20
-891.0
 30
0.0
  9
$EXTMAX
 10
1260.0
 20
891.0
 30
0.0
  9
$LIMMIN
 10
-1260.0
 20
-891.0
  9
$LIMMAX
 10
1260.0
 20
891.0
  9
$ORTHOMODE
 70
     0
  9
$REGENMODE
 70
     1
  9
$FILLMODE
 70
     1
  9
$QTEXTMODE
 70
     0
  9
$MIRRTEXT
 70
     1
  9
$LTSCALE
 40
6.0
  9
$ATTMODE
 70
     1
  9
$TEXTSIZE
 40
2.5
  9
$TRACEWID
 40
1.0
  9
$TEXTSTYLE
  7
Standard
  9
$CLAYER
  8
0
  9
$CELTYPE
  6
ByLayer
  9
$CECOLOR
 62
   256
  9
$CELTSCALE
 40
1.0
  9
$DISPSILH
 70
     0
  9
$DIMSCALE
 40
1.0
  9
$DIMASZ
 40
2.5
  9
$DIMEXO
 40
0.625
  9
$DIMDLI
 40
3.75
  9
$DIMRND
 40
0.0
  9
$DIMDLE
 40
0.0
  9
$DIMEXE
 40
1.25
  9
$DIMTP
 40
0.0
  9
$DIMTM
 40
0.0
  9
$DIMTXT
 40
2.5
  9
$DIMCEN
 40
2.5
  9
$DIMTSZ
 40
0.0
  9
$DIMTOL
 70
     0
  9
$DIMLIM
 70
     0
  9
$DIMTIH
 70
     0
  9
$DIMTOH
 70
     0
  9
$DIMSE1
 70
     0
  9
$DIMSE2
 70
     0
  9
$DIMTAD
 70
     1
  9
$DIMZIN
 70
     8
  9
$DIMBLK
  1

  9
$DIMASO
 70
     1
  9
$DIMSHO
 70
     1
  9
$DIMPOST
  1

  9
$DIMAPOST
  1

  9
$DIMALT
 70
     0
  9
$DIMALTD
 70
     3
  9
$DIMALTF
 40
0.03937007874016
  9
$DIMLFAC
 40
1.0
  9
$DIMTOFL
 70
     1
  9
$DIMTVP
 40
0.0
  9
$DIMTIX
 70
     0
  9
$DIMSOXD
 70
     0
  9
$DIMSAH
 70
     0
  9
$DIMBLK1
  1

  9
$DIMBLK2
  1

  9
$DIMSTYLE
  2
ISO-25
  9
$DIMCLRD
 70
     0
  9
$DIMCLRE
 70
     0
  9
$DIMCLRT
 70
     0
  9
$DIMTFAC
 40
1.0
  9
$DIMGAP
 40
0.625
  9
$DIMJUST
 70
     0
  9
$DIMSD1
 70
     0
  9
$DIMSD2
 70
     0
  9
$DIMTOLJ
 70
     0
  9
$DIMTZIN
 70
     8
  9
$DIMALTZ
 70
     0
  9
$DIMALTTZ
 70
     0
  9
$DIMUPT
 70
     0
  9
$DIMDEC
 70
     2
  9
$DIMTDEC
 70
     2
  9
$DIMALTU
 70
     2
  9
$DIMALTTD
 70
     3
  9
$DIMTXSTY
  7
Standard
  9
$DIMAUNIT
 70
     0
  9
$DIMADEC
 70
     0
  9
$DIMALTRND
 40
0.0
  9
$DIMAZIN
 70
     0
  9
$DIMDSEP
 70
    44
  9
$DIMATFIT
 70
     3
  9
$DIMFRAC
 70
     0
  9
$DIMLDRBLK
  1

  9
$DIMLUNIT
 70
     2
  9
$DIMLWD
 70
    -2
  9
$DIMLWE
 70
    -2
  9
$DIMTMOVE
 70
     0
  9
$LUNITS
 70
     2
  9
$LUPREC
 70
     4
  9
$SKETCHINC
 40
1.0
  9
$FILLETRAD
 40
10.0
  9
$AUNITS
 70
     0
  9
$AUPREC
 70
     0
  9
$MENU
  1
.
  9
$ELEVATION
 40
0.0
  9
$PELEVATION
 40
0.0
  9
$THICKNESS
 40
0.0
  9
$LIMCHECK
 70
     0
  9
$CHAMFERA
 40
10.0
  9
$CHAMFERB
 40
10.0
  9
$CHAMFERC
 40
20.0
  9
$CHAMFERD
 40
0.0
  9
$SKPOLY
 70
     0
  9
$TDCREATE
 40
2457400.414935984
  9
$TDUCREATE
 40
2457400.039935984
  9
$TDUPDATE
 40
2457400.414935995
  9
$TDUUPDATE
 40
2457400.039935995
  9
$TDINDWG
 40
0.0000000116
  9
$TDUSRTIMER
 40
0.0000000116
  9
$USRTIMER
 70
     1
  9
$ANGBASE
 50
0.0
  9
$ANGDIR
 70
     0
  9
$PDMODE
 70
     0
  9
$PDSIZE
 40
0.0
  9
$PLINEWID
 40
0.0
  9
$SPLFRAME
 70
     0
  9
$SPLINETYPE
 70
     6
  9
$SPLINESEGS
 70
     8
  9
$HANDSEED
  5
544
  9
$SURFTAB1
 70
     6
  9
$SURFTAB2
 70
     6
  9
$SURFTYPE
 70
     6
  9
$SURFU
 70
     6
  9
$SURFV
 70
     6
  9
$UCSBASE
  2

  9
$UCSNAME
  2

  9
$UCSORG
 10
0.0
 20
0.0
 30
0.0
  9
$UCSXDIR
 10
1.0
 20
0.0
 30
0.0
  9
$UCSYDIR
 10
0.0
 20
1.0
 30
0.0
  9
$UCSORTHOREF
  2

  9
$UCSORTHOVIEW
 70
     0
  9
$UCSORGTOP
 10
0.0
 20
0.0
 30
0.0
  9
$UCSORGBOTTOM
 10
0.0
 20
0.0
 30
0.0
  9
$UCSORGLEFT
 10
0.0
 20
0.0
 30
0.0
  9
$UCSORGRIGHT
 10
0.0
 20
0.0
 30
0.0
  9
$UCSORGFRONT
 10
0.0
 20
0.0
 30
0.0
  9
$UCSORGBACK
 10
0.0
 20
0.0
 30
0.0
  9
$PUCSBASE
  2

  9
$PUCSNAME
  2

  9
$PUCSORG
 10
0.0
 20
0.0
 30
0.0
  9
$PUCSXDIR
 10
1.0
 20
0.0
 30
0.0
  9
$PUCSYDIR
 10
0.0
 20
1.0
 30
0.0
  9
$PUCSORTHOREF
  2

  9
$PUCSORTHOVIEW
 70
     0
  9
$PUCSORGTOP
 10
0.0
 20
0.0
 30
0.0
  9
$PUCSORGBOTTOM
 10
0.0
 20
0.0
 30
0.0
  9
$PUCSORGLEFT
 10
0.0
 20
0.0
 30
0.0
  9
$PUCSORGRIGHT
 10
0.0
 20
0.0
 30
0.0
  9
$PUCSORGFRONT
 10
0.0
 20
0.0
 30
0.0
  9
$PUCSORGBACK
 10
0.0
 20
0.0
 30
0.0
  9
$USERI1
 70
     0
  9
$USERI2
 70
     0
  9
$USERI3
 70
     0
  9
$USERI4
 70
     0
  9
$USERI5
 70
     0
  9
$USERR1
 40
0.0
  9
$USERR2
 40
0.0
  9
$USERR3
 40
0.0
  9
$USERR4
 40
0.0
  9
$USERR5
 40
0.0
  9
$WORLDVIEW
 70
     1
  9
$SHADEDGE
 70
     3
  9
$SHADEDIF
 70
    70
  9
$TILEMODE
 70
     1
  9
$MAXACTVP
 70
    64
  9
$PINSBASE
 10
0.0
 20
0.0
 30
0.0
  9
$PLIMCHECK
 70
     0
  9
$PEXTMIN
 10
1.000000000000000E+20
 20
1.000000000000000E+20
 30
1.000000000000000E+20
  9
$PEXTMAX
 10
-1.000000000000000E+20
 20
-1.000000000000000E+20
 30
-1.000000000000000E+20
  9
$PLIMMIN
 10
0.0
 20
0.0
  9
$PLIMMAX
 10
420.0
 20
297.0
  9
$UNITMODE
 70
     0
  9
$VISRETAIN
 70
     1
  9
$PLINEGEN
 70
     0
  9
$PSLTSCALE
 70
     1
  9
$TREEDEPTH
 70
  3020
  9
$CMLSTYLE
  2
Standard
  9
$CMLJUST
 70
     0
  9
$CMLSCALE
 40
20.0
  9
$PROXYGRAPHICS
 70
     1
  9
$MEASUREMENT
 70
     1
  9
$CELWEIGHT
370
    -1
  9
$ENDCAPS
280
     0
  9
$JOINSTYLE
280
     0
  9
$LWDISPLAY
290
     0
  9
$INSUNITS
 70
     4
  9
$HYPERLINKBASE
  1

  9
$STYLESHEET
  1

  9
$XEDIT
290
     1
  9
$CEPSNTYPE
380
     0
  9
$PSTYLEMODE
290
     1
  9
$FINGERPRINTGUID
  2
{AA19A68B-B664-49D6-B568-A81526C19CCC}
  9
$VERSIONGUID
  2
{FAEB1C32-E019-11D5-929B-00C0DF256EC4}
  9
$EXTNAMES
290
     1
  9
$PSVPSCALE
 40
0.0
  9
$OLESTARTUP
290
     0
  9
$SORTENTS
280
   127
  9
$INDEXCTL
280
     0
  9
$HIDETEXT
280
     1
  9
$XCLIPFRAME
290
     0
  9
$HALOGAP
280
     0
  9
$OBSCOLOR
 70
   257
  9
$OBSLTYPE
280
     0
  9
$INTERSECTIONDISPLAY
280
     0
  9
$INTERSECTIONCOLOR
 70
   257
  9
$DIMASSOC
280
     2
  9
$PROJECTNAME
  1

  0
ENDSEC
  0
SECTION
  2
CLASSES
  0
CLASS
  1
ACDBDICTIONARYWDFLT
  2
AcDbDictionaryWithDefault
  3
ObjectDBX Classes
 90
        0
 91
        4
280
     0
281
     0
  0
CLASS
  1
VISUALSTYLE
  2
AcDbVisualStyle
  3
ObjectDBX Classes
 90
     4095
 91
        4
280
     0
281
     0
  0
ENDSEC
  0
SECTION
  2
TABLES
  0
TABLE
  2
VPORT
  5
8
330
0
100
AcDbSymbolTable
 70
     1
  0
VPORT
  5
29
330
8
100
AcDbSymbolTableRecord
100
AcDbViewportTableRecord
  2
*Active
 70
     0
 10
0.0
 20
0.0
 11
1.0
 21
1.0
 12
0.0
 22
0.0
 13
0.0
 23
0.0
 14
10.0
 24
10.0
 15
10.0
 25
10.0
 16
0.0
 26
0.0
 36
1.0
 17
0.0
 27
0.0
 37
0.0
 40
1960.2
 41
1.414141414141414
 42
50.0
 43
0.0
 44
0.0
 50
0.0
 51
0.0
 71
     0
 72
 10000
 73
     1
 74
     3
 75
     0
 76
     0
 77
     0
 78
     0
281
     0
 65
     1
110
0.0
120
0.0
130
0.0
111
1.0
121
0.0
131
0.0
112
0.0
122
1.0
132
0.0
 79
     0
146
0.0
  0
ENDTAB
  0
TABLE
  2
LTYPE
  5
5
330
0
100
AcDbSymbolTable
 70
     5
  0
LTYPE
  5
14
330
5
100
AcDbSymbolTableRecord
100
AcDbLinetypeTableRecord
  2
ByBlock
 70
     0
  3

 72
    65
 73
     0
 40
0.0
  0
LTYPE
  5
15
330
5
100
AcDbSymbolTableRecord
100
AcDbLinetypeTableRecord
  2
ByLayer
 70
     0
  3

 72
    65
 73
     0
 40
0.0
  0
LTYPE
  5
16
330
5
100
AcDbSymbolTableRecord
100
AcDbLinetypeTableRecord
  2
Continuous
 70
     0
  3
Solid line
 72
    65
 73
     0
 40
0.0
  0
LTYPE
  5
3C
330
5
100
AcDbSymbolTableRecord
100
AcDbLinetypeTableRecord
  2
JWW_CENTER1
 70
     0
  3
-----  --  ----------  --  -----
 72
    65
 73
     4
 40
6.773333333333333
 49
4.233333333333333
 74
     0
 49
-0.8466666666666667
 74
     0
 49
0.8466666666666667
 74
     0
 49
-0.8466666666666667
 74
     0
  0
LTYPE
  5
3D
330
5
100
AcDbSymbolTableRecord
100
AcDbLinetypeTableRecord
  2
JWW_DASHED1
 70
     0
  3
-  --  --  --  --  --  --  --  -
 72
    65
 73
     2
 40
1.693333333333333
 49
0.8466666666666667
 74
     0
 49
-0.8466666666666667
 74
     0
  0
LTYPE
  5
3E
330
5
100
AcDbSymbolTableRecord
100
AcDbLinetypeTableRecord
  2
JWW_HOJO
 70
     0
  3
  -   -   -   -   -   -   -   - 
 72
    65
 73
     2
 40
1.693333333333333
 49
-1.27
 74
     0
 49
0.4233333333333333
 74
     0
  0
LTYPE
  5
3F
330
5
100
AcDbSymbolTableRecord
100
AcDbLinetypeTableRecord
  2
JWW_CENTER2
 70
     0
  3
-------------  --  -------------
 72
    65
 73
     4
 40
13.54666666666667
 49
11.00666666666667
 74
     0
 49
-0.8466666666666667
 74
     0
 49
0.8466666666666667
 74
     0
 49
-0.8466666666666667
 74
     0
  0
ENDTAB
  0
TABLE
  2
LAYER
  5
2
330
0
100
AcDbSymbolTable
 70
     8
  0
LAYER
  5
10
330
2
100
AcDbSymbolTableRecord
100
AcDbLayerTableRecord
  2
0
 70
     0
 62
     7
  6
Continuous
370
    -3
390
F
  0
LAYER
  5
40
330
2
100
AcDbSymbolTableRecord
100
AcDbLayerTableRecord
  2
仕上
 70
     0
 62
     7
  6
Continuous
370
    -3
390
F
  0
LAYER
  5
41
330
2
100
AcDbSymbolTableRecord
100
AcDbLayerTableRecord
  2
通り芯
 70
     0
 62
     7
  6
Continuous
370
    -3
390
F
  0
LAYER
  5
42
330
2
100
AcDbSymbolTableRecord
100
AcDbLayerTableRecord
  2
躯体
 70
     0
 62
     7
  6
Continuous
370
    -3
390
F
  0
LAYER
  5
43
330
2
100
AcDbSymbolTableRecord
100
AcDbLayerTableRecord
  2
建具
 70
     0
 62
     7
  6
Continuous
370
    -3
390
F
  0
LAYER
  5
44
330
2
100
AcDbSymbolTableRecord
100
AcDbLayerTableRecord
  2
寸法
 70
     0
 62
     7
  6
Continuous
370
    -3
390
F
  0
LAYER
  5
45
330
2
100
AcDbSymbolTableRecord
100
AcDbLayerTableRecord
  2
その他
 70
     0
 62
     7
  6
Continuous
370
    -3
390
F
  0
LAYER
  5
46
330
2
100
AcDbSymbolTableRecord
100
AcDbLayerTableRecord
  2
F-4ﾚｲﾔ
 70
     0
 62
     7
  6
Continuous
370
    -3
390
F
  0
ENDTAB
  0
TABLE
  2
STYLE
  5
3
330
0
100
AcDbSymbolTable
 70
     2
  0
STYLE
  5
11
330
3
100
AcDbSymbolTableRecord
100
AcDbTextStyleTableRecord
  2
Standard
 70
     0
 40
0.0
 41
1.0
 50
0.0
 71
     0
 42
2.5
  3
txt
  4

1001
ACAD
1000

1071
        0
  0
STYLE
  5
3B
330
3
100
AcDbSymbolTableRecord
100
AcDbTextStyleTableRecord
  2
ＭＳ ゴシック
 70
     0
 40
1.0
 41
1.0
 50
0.0
 71
     0
 42
10.0
  3

  4

1001
ACAD
1000
MS Gothic
1071
    32817
  0
ENDTAB
  0
TABLE
  2
VIEW
  5
6
330
0
100
AcDbSymbolTable
 70
     0
  0
ENDTAB
  0
TABLE
  2
UCS
  5
7
330
0
100
AcDbSymbolTable
 70
     0
  0
ENDTAB
  0
TABLE
  2
APPID
  5
9
330
0
100
AcDbSymbolTable
 70
     1
  0
APPID
  5
12
330
9
100
AcDbSymbolTableRecord
100
AcDbRegAppTableRecord
  2
ACAD
 70
     0
  0
ENDTAB
  0
TABLE
  2
DIMSTYLE
  5
A
330
0
100
AcDbSymbolTable
 70
     1
100
AcDbDimStyleTable
  0
DIMSTYLE
105
27
330
A
100
AcDbSymbolTableRecord
100
AcDbDimStyleTableRecord
  2
ISO-25
 70
     0
 41
2.5
 42
0.625
 43
3.75
 44
1.25
 73
     0
 74
     0
 77
     1
 78
     8
140
2.5
141
2.5
143
0.03937007874016
147
0.625
171
     3
172
     1
271
     2
272
     2
274
     3
278
    44
283
     0
284
     8
340
11
  0
ENDTAB
  0
TABLE
  2
BLOCK_RECORD
  5
1
330
0
100
AcDbSymbolTable
 70
     1
  0
BLOCK_RECORD
  5
1F
330
1
100
AcDbSymbolTableRecord
100
AcDbBlockTableRecord
  2
*Model_Space
340
22
  0
BLOCK_RECORD
  5
1B
330
1
100
AcDbSymbolTableRecord
100
AcDbBlockTableRecord
  2
*Paper_Space
340
1E
  0
BLOCK_RECORD
  5
23
330
1
100
AcDbSymbolTableRecord
100
AcDbBlockTableRecord
  2
*Paper_Space0
340
26
  0
ENDTAB
  0
ENDSEC
  0
SECTION
  2
BLOCKS
  0
BLOCK
  5
20
330
1F
100
AcDbEntity
  8
0
100
AcDbBlockBegin
  2
*Model_Space
 70
     0
 10
0.0
 20
0.0
 30
0.0
  3
*Model_Space
  1

  0
ENDBLK
  5
21
330
1F
100
AcDbEntity
  8
0
100
AcDbBlockEnd
  0
BLOCK
  5
1C
330
1B
100
AcDbEntity
 67
     1
  8
0
100
AcDbBlockBegin
  2
*Paper_Space
 70
     0
 10
0.0
 20
0.0
 30
0.0
  3
*Paper_Space
  1

  0
ENDBLK
  5
1D
330
1B
100
AcDbEntity
 67
     1
  8
0
100
AcDbBlockEnd
  0
BLOCK
  5
24
330
23
100
AcDbEntity
  8
0
100
AcDbBlockBegin
  2
*Paper_Space0
 70
     0
 10
0.0
 20
0.0
 30
0.0
  3
*Paper_Space0
  1

  0
ENDBLK
  5
25
330
23
100
AcDbEntity
  8
0
100
AcDbBlockEnd
  0
ENDSEC
  0
SECTION
  2
ENTITIES
  0
ARC
  5
47
330
1F
100
AcDbEntity
  8
仕上
  6
Continuous
 62
     3
370
     9
100
AcDbCircle
 10
-50.9997970993453
 20
233.2714700976091
 30
0.0
 40
3.999999761581421
100
AcDbArc
 50
180.0
 51
239.9999694824219
  0
LINE
  5
48
330
1F
100
AcDbEntity
  8
通り芯
  6
Continuous
 62
     3
370
     9
100
AcDbLine
 10
88.00019135346298
 20
296.7164015402824
 30
0.0
 11
96.00001979518595
 21
296.7164015402824
 31
0.0
  0
LINE
  5
49
330
1F
100
AcDbEntity
  8
通り芯
  6
Continuous
 62
     3
370
     9
100
AcDbLine
 10
96.00001979518595
 20
296.7164015402824
 30
0.0
 11
96.00001979518595
 21
278.7163421547249
 31
0.0
  0
LINE
  5
4A
330
1F
100
AcDbEntity
  8
通り芯
  6
Continuous
 62
     3
370
     9
100
AcDbLine
 10
88.00019135346298
 20
278.7163421547249
 30
0.0
 11
96.00001979518595
 21
278.7163421547249
 31
0.0
  0
LINE
  5
4B
330
1F
100
AcDbEntity
  8
通り芯
  6
Continuous
 62
     3
370
     9
100
AcDbLine
 10
88.00019135346298
 20
296.7164015402824
 30
0.0
 11
88.00019135346298
 21
278.7163421547249
 31
0.0
  0
LINE
  5
4C
330
1F
100
AcDbEntity
  8
通り芯
  6
Continuous
 62
     3
370
     9
100
AcDbLine
 10
100.9999868032095
 20
296.7164015402824
 30
0.0
 11
128.9999802048142
 21
296.7164015402824
 31
0.0
  0
LINE
  5
4D
330
1F
100
AcDbEntity
  8
通り芯
  6
Continuous
 62
     3
370
     9
100
AcDbLine
 10
133.999947212838
 20
296.7164015402824
 30
0.0
 11
142.0000725823481
 21
296.7164015402824
 31
0.0
  0
LINE
  5
4E
330
1F
100
AcDbEntity
  8
通り芯
  6
Continuous
 62
     3
370
     9
100
AcDbLine
 10
147.0000395903717
 20
296.7164015402824
 30
0.0
 11
175.0000329919764
 21
296.7164015402824
 31
0.0
  0
LINE
  5
4F
330
1F
100
AcDbEntity
  8
通り芯
  6
Continuous
 62
     3
370
     9
100
AcDbLine
 10
180.0
 20
296.7164015402824
 30
0.0
 11
188.0001253695102
 21
296.7164015402824
 31
0.0
  0
LINE
  5
50
330
1F
100
AcDbEntity
  8
通り芯
  6
Continuous
 62
     3
370
     9
100
AcDbLine
 10
188.0001253695102
 20
296.7164015402824
 30
0.0
 11
188.0001253695102
 21
278.7163421547249
 31
0.0
  0
LINE
  5
51
330
1F
100
AcDbEntity
  8
通り芯
  6
Continuous
 62
     3
370
     9
100
AcDbLine
 10
180.0
 20
278.7163421547249
 30
0.0
 11
188.0001253695102
 21
278.7163421547249
 31
0.0
  0
LINE
  5
52
330
1F
100
AcDbEntity
  8
通り芯
  6
Continuous
 62
     3
370
     9
100
AcDbLine
 10
180.0
 20
296.7164015402824
 30
0.0
 11
180.0
 21
278.7163421547249
 31
0.0
  0
LINE
  5
53
330
1F
100
AcDbEntity
  8
通り芯
  6
Continuous
 62
     3
370
     9
100
AcDbLine
 10
193.0000923775339
 20
296.7164015402824
 30
0.0
 11
221.0000857791386
 21
296.7164015402824
 31
0.0
  0
LINE
  5
54
330
1F
100
AcDbEntity
  8
通り芯
  6
Continuous
 62
     3
370
     9
100
AcDbLine
 10
226.0000527871622
 20
296.7164015402824
 30
0.0
 11
226.0000527871622
 21
278.7163421547249
 31
0.0
  0
LINE
  5
55
330
1F
100
AcDbEntity
  8
通り芯
  6
Continuous
 62
     3
370
     9
100
AcDbLine
 10
221.0000857791386
 20
296.7164015402824
 30
0.0
 11
221.0000857791386
 21
278.7163421547249
 31
0.0
  0
LINE
  5
56
330
1F
100
AcDbEntity
  8
通り芯
  6
Continuous
 62
     3
370
     9
100
AcDbLine
 10
193.0000923775339
 20
278.7163421547249
 30
0.0
 11
221.0000857791386
 21
278.7163421547249
 31
0.0
  0
LINE
  5
57
330
1F
100
AcDbEntity
  8
通り芯
  6
Continuous
 62
     3
370
     9
100
AcDbLine
 10
193.0000923775339
 20
296.7164015402824
 30
0.0
 11
193.0000923775339
 21
278.7163421547249
 31
0.0
  0
LINE
  5
58
330
1F
100
AcDbEntity
  8
通り芯
  6
Continuous
 62
     3
370
     9
100
AcDbLine
 10
26.00003629117407
 20
321.716385044294
 30
0.0
 11
66.0001435150972
 21
321.716385044294
 31
0.0
  0
LINE
  5
59
330
1F
100
AcDbEntity
  8
通り芯
  6
Continuous
 62
     3
370
     9
100
AcDbLine
 10
66.0001435150972
 20
321.716385044294
 30
0.0
 11
66.0001435150972
 21
303.7164741226303
 31
0.0
  0
LINE
  5
5A
330
1F
100
AcDbEntity
  8
通り芯
  6
Continuous
 62
     3
370
     9
100
AcDbLine
 10
26.00003629117407
 20
303.7164741226303
 30
0.0
 11
66.0001435150972
 21
303.7164741226303
 31
0.0
  0
LINE
  5
5B
330
1F
100
AcDbEntity
  8
通り芯
  6
Continuous
 62
     3
370
     9
100
AcDbLine
 10
26.00003629117407
 20
321.716385044294
 30
0.0
 11
26.00003629117407
 21
303.7164741226303
 31
0.0
  0
LINE
  5
5C
330
1F
100
AcDbEntity
  8
通り芯
  6
Continuous
 62
     3
370
     9
100
AcDbLine
 10
72.00023754222985
 20
321.716385044294
 30
0.0
 11
112.0002705342061
 21
321.716385044294
 31
0.0
  0
LINE
  5
5D
330
1F
100
AcDbEntity
  8
通り芯
  6
Continuous
 62
     3
370
     9
100
AcDbLine
 10
112.0002705342061
 20
321.716385044294
 30
0.0
 11
112.0002705342061
 21
303.7164741226303
 31
0.0
  0
LINE
  5
5E
330
1F
100
AcDbEntity
  8
通り芯
  6
Continuous
 62
     3
370
     9
100
AcDbLine
 10
72.00023754222985
 20
303.7164741226303
 30
0.0
 11
112.0002705342061
 21
303.7164741226303
 31
0.0
  0
LINE
  5
5F
330
1F
100
AcDbEntity
  8
通り芯
  6
Continuous
 62
     3
370
     9
100
AcDbLine
 10
72.00023754222985
 20
321.716385044294
 30
0.0
 11
72.00023754222985
 21
303.7164741226303
 31
0.0
  0
LINE
  5
60
330
1F
100
AcDbEntity
  8
通り芯
  6
Continuous
 62
     3
370
     9
100
AcDbLine
 10
117.9999934016049
 20
321.716385044294
 30
0.0
 11
158.0000263935811
 21
321.716385044294
 31
0.0
  0
LINE
  5
61
330
1F
100
AcDbEntity
  8
通り芯
  6
Continuous
 62
     3
370
     9
100
AcDbLine
 10
158.0000263935811
 20
321.716385044294
 30
0.0
 11
158.0000263935811
 21
303.7164741226303
 31
0.0
  0
LINE
  5
62
330
1F
100
AcDbEntity
  8
通り芯
  6
Continuous
 62
     3
370
     9
100
AcDbLine
 10
117.9999934016049
 20
303.7164741226303
 30
0.0
 11
158.0000263935811
 21
303.7164741226303
 31
0.0
  0
LINE
  5
63
330
1F
100
AcDbEntity
  8
通り芯
  6
Continuous
 62
     3
370
     9
100
AcDbLine
 10
117.9999934016049
 20
321.716385044294
 30
0.0
 11
117.9999934016049
 21
303.7164741226303
 31
0.0
  0
LINE
  5
64
330
1F
100
AcDbEntity
  8
通り芯
  6
Continuous
 62
     3
370
     9
100
AcDbLine
 10
164.000046188767
 20
321.716385044294
 30
0.0
 11
204.0000791807433
 21
321.716385044294
 31
0.0
  0
LINE
  5
65
330
1F
100
AcDbEntity
  8
通り芯
  6
Continuous
 62
     3
370
     9
100
AcDbLine
 10
204.0000791807433
 20
321.716385044294
 30
0.0
 11
204.0000791807433
 21
303.7164741226303
 31
0.0
  0
LINE
  5
66
330
1F
100
AcDbEntity
  8
通り芯
  6
Continuous
 62
     3
370
     9
100
AcDbLine
 10
164.000046188767
 20
303.7164741226303
 30
0.0
 11
204.0000791807433
 21
303.7164741226303
 31
0.0
  0
LINE
  5
67
330
1F
100
AcDbEntity
  8
通り芯
  6
Continuous
 62
     3
370
     9
100
AcDbLine
 10
164.000046188767
 20
321.716385044294
 30
0.0
 11
164.000046188767
 21
303.7164741226303
 31
0.0
  0
LINE
  5
68
330
1F
100
AcDbEntity
  8
通り芯
  6
Continuous
 62
     3
370
     9
100
AcDbLine
 10
210.0000989759291
 20
321.716385044294
 30
0.0
 11
210.0000989759291
 21
303.7164741226303
 31
0.0
  0
LINE
  5
69
330
1F
100
AcDbEntity
  8
通り芯
  6
Continuous
 62
     3
370
     9
100
AcDbLine
 10
-20.00001649598812
 20
321.716385044294
 30
0.0
 11
20.00001649598829
 21
321.716385044294
 31
0.0
  0
LINE
  5
6A
330
1F
100
AcDbEntity
  8
通り芯
  6
Continuous
 62
     3
370
     9
100
AcDbLine
 10
20.00001649598829
 20
321.716385044294
 30
0.0
 11
20.00001649598829
 21
303.7164741226303
 31
0.0
  0
LINE
  5
6B
330
1F
100
AcDbEntity
  8
通り芯
  6
Continuous
 62
     3
370
     9
100
AcDbLine
 10
-20.00001649598812
 20
303.7164741226303
 30
0.0
 11
20.00001649598829
 21
303.7164741226303
 31
0.0
  0
LINE
  5
6C
330
1F
100
AcDbEntity
  8
通り芯
  6
Continuous
 62
     3
370
     9
100
AcDbLine
 10
-20.00001649598812
 20
321.716385044294
 30
0.0
 11
-20.00001649598812
 21
303.7164741226303
 31
0.0
  0
LINE
  5
6D
330
1F
100
AcDbEntity
  8
通り芯
  6
Continuous
 62
     3
370
     9
100
AcDbLine
 10
-65.99992081925672
 20
321.716385044294
 30
0.0
 11
-25.9998878272803
 21
321.716385044294
 31
0.0
  0
LINE
  5
6E
330
1F
100
AcDbEntity
  8
通り芯
  6
Continuous
 62
     3
370
     9
100
AcDbLine
 10
-25.9998878272803
 20
321.716385044294
 30
0.0
 11
-25.9998878272803
 21
303.7164741226303
 31
0.0
  0
LINE
  5
6F
330
1F
100
AcDbEntity
  8
通り芯
  6
Continuous
 62
     3
370
     9
100
AcDbLine
 10
-65.99992081925672
 20
303.7164741226303
 30
0.0
 11
-25.9998878272803
 21
303.7164741226303
 31
0.0
  0
LINE
  5
70
330
1F
100
AcDbEntity
  8
通り芯
  6
Continuous
 62
     3
370
     9
100
AcDbLine
 10
-65.99992081925672
 20
321.716385044294
 30
0.0
 11
-65.99992081925672
 21
303.7164741226303
 31
0.0
  0
LINE
  5
71
330
1F
100
AcDbEntity
  8
通り芯
  6
Continuous
 62
     3
370
     9
100
AcDbLine
 10
-111.9999736064189
 20
321.716385044294
 30
0.0
 11
-71.9999406144425
 21
321.716385044294
 31
0.0
  0
LINE
  5
72
330
1F
100
AcDbEntity
  8
通り芯
  6
Continuous
 62
     3
370
     9
100
AcDbLine
 10
-71.9999406144425
 20
321.716385044294
 30
0.0
 11
-71.9999406144425
 21
303.7164741226303
 31
0.0
  0
LINE
  5
73
330
1F
100
AcDbEntity
  8
通り芯
  6
Continuous
 62
     3
370
     9
100
AcDbLine
 10
-111.9999736064189
 20
303.7164741226303
 30
0.0
 11
-71.9999406144425
 21
303.7164741226303
 31
0.0
  0
LINE
  5
74
330
1F
100
AcDbEntity
  8
通り芯
  6
Continuous
 62
     3
370
     9
100
AcDbLine
 10
-111.9999736064189
 20
321.716385044294
 30
0.0
 11
-111.9999736064189
 21
303.7164741226303
 31
0.0
  0
LINE
  5
75
330
1F
100
AcDbEntity
  8
通り芯
  6
Continuous
 62
     3
370
     9
100
AcDbLine
 10
-157.9999521616342
 20
321.716385044294
 30
0.0
 11
-117.9999191696578
 21
321.716385044294
 31
0.0
  0
LINE
  5
76
330
1F
100
AcDbEntity
  8
通り芯
  6
Continuous
 62
     3
370
     9
100
AcDbLine
 10
-117.9999191696578
 20
321.716385044294
 30
0.0
 11
-117.9999191696578
 21
303.7164741226303
 31
0.0
  0
LINE
  5
77
330
1F
100
AcDbEntity
  8
通り芯
  6
Continuous
 62
     3
370
     9
100
AcDbLine
 10
-157.9999521616342
 20
303.7164741226303
 30
0.0
 11
-117.9999191696578
 21
303.7164741226303
 31
0.0
  0
LINE
  5
78
330
1F
100
AcDbEntity
  8
通り芯
  6
Continuous
 62
     3
370
     9
100
AcDbLine
 10
-157.9999521616342
 20
321.716385044294
 30
0.0
 11
-157.9999521616342
 21
303.7164741226303
 31
0.0
  0
LINE
  5
79
330
1F
100
AcDbEntity
  8
通り芯
  6
Continuous
 62
     3
370
     9
100
AcDbLine
 10
-203.9999307168495
 20
321.716385044294
 30
0.0
 11
-163.9998977248733
 21
321.716385044294
 31
0.0
  0
LINE
  5
7A
330
1F
100
AcDbEntity
  8
通り芯
  6
Continuous
 62
     3
370
     9
100
AcDbLine
 10
-163.9998977248733
 20
321.716385044294
 30
0.0
 11
-163.9998977248733
 21
303.7164741226303
 31
0.0
  0
LINE
  5
7B
330
1F
100
AcDbEntity
  8
通り芯
  6
Continuous
 62
     3
370
     9
100
AcDbLine
 10
-203.9999307168495
 20
303.7164741226303
 30
0.0
 11
-163.9998977248733
 21
303.7164741226303
 31
0.0
  0
LINE
  5
7C
330
1F
100
AcDbEntity
  8
通り芯
  6
Continuous
 62
     3
370
     9
100
AcDbLine
 10
-203.9999307168495
 20
321.716385044294
 30
0.0
 11
-203.9999307168495
 21
303.7164741226303
 31
0.0
  0
LINE
  5
7D
330
1F
100
AcDbEntity
  8
通り芯
  6
Continuous
 62
     3
370
     9
100
AcDbLine
 10
-209.9999505120355
 20
321.716385044294
 30
0.0
 11
-209.9999505120355
 21
303.7164741226303
 31
0.0
  0
LINE
  5
7E
330
1F
100
AcDbEntity
  8
通り芯
  6
Continuous
 62
     3
370
     9
100
AcDbLine
 10
-128.9999802048141
 20
296.7164015402824
 30
0.0
 11
-100.9999868032094
 21
296.7164015402824
 31
0.0
  0
LINE
  5
7F
330
1F
100
AcDbEntity
  8
通り芯
  6
Continuous
 62
     3
370
     9
100
AcDbLine
 10
-96.00001979518578
 20
296.7164015402824
 30
0.0
 11
-88.00004288956922
 21
296.7164015402824
 31
0.0
  0
LINE
  5
80
330
1F
100
AcDbEntity
  8
通り芯
  6
Continuous
 62
     3
370
     9
100
AcDbLine
 10
-88.00004288956922
 20
296.7164015402824
 30
0.0
 11
-88.00004288956922
 21
278.7163421547249
 31
0.0
  0
LINE
  5
81
330
1F
100
AcDbEntity
  8
通り芯
  6
Continuous
 62
     3
370
     9
100
AcDbLine
 10
-96.00001979518578
 20
278.7163421547249
 30
0.0
 11
-88.00004288956922
 21
278.7163421547249
 31
0.0
  0
LINE
  5
82
330
1F
100
AcDbEntity
  8
通り芯
  6
Continuous
 62
     3
370
     9
100
AcDbLine
 10
-96.00001979518578
 20
296.7164015402824
 30
0.0
 11
-96.00001979518578
 21
278.7163421547249
 31
0.0
  0
LINE
  5
83
330
1F
100
AcDbEntity
  8
通り芯
  6
Continuous
 62
     3
370
     9
100
AcDbLine
 10
-174.9999587600295
 20
296.7164015402824
 30
0.0
 11
-146.9999653584248
 21
296.7164015402824
 31
0.0
  0
LINE
  5
84
330
1F
100
AcDbEntity
  8
通り芯
  6
Continuous
 62
     3
370
     9
100
AcDbLine
 10
-141.9999983504011
 20
296.7164015402824
 30
0.0
 11
-134.0000214447845
 21
296.7164015402824
 31
0.0
  0
LINE
  5
85
330
1F
100
AcDbEntity
  8
通り芯
  6
Continuous
 62
     3
370
     9
100
AcDbLine
 10
-220.9999373152448
 20
296.7164015402824
 30
0.0
 11
-192.9999439136402
 21
296.7164015402824
 31
0.0
  0
LINE
  5
86
330
1F
100
AcDbEntity
  8
通り芯
  6
Continuous
 62
     3
370
     9
100
AcDbLine
 10
-187.9999769056166
 20
296.7164015402824
 30
0.0
 11
-180.0
 21
296.7164015402824
 31
0.0
  0
LINE
  5
87
330
1F
100
AcDbEntity
  8
通り芯
  6
Continuous
 62
     3
370
     9
100
AcDbLine
 10
-180.0
 20
296.7164015402824
 30
0.0
 11
-180.0
 21
278.7163421547249
 31
0.0
  0
LINE
  5
88
330
1F
100
AcDbEntity
  8
通り芯
  6
Continuous
 62
     3
370
     9
100
AcDbLine
 10
-187.9999769056166
 20
278.7163421547249
 30
0.0
 11
-180.0
 21
278.7163421547249
 31
0.0
  0
LINE
  5
89
330
1F
100
AcDbEntity
  8
通り芯
  6
Continuous
 62
     3
370
     9
100
AcDbLine
 10
-187.9999769056166
 20
296.7164015402824
 30
0.0
 11
-187.9999769056166
 21
278.7163421547249
 31
0.0
  0
LINE
  5
8A
330
1F
100
AcDbEntity
  8
通り芯
  6
Continuous
 62
     3
370
     9
100
AcDbLine
 10
-192.9999439136402
 20
296.7164015402824
 30
0.0
 11
-192.9999439136402
 21
278.7163421547249
 31
0.0
  0
LINE
  5
8B
330
1F
100
AcDbEntity
  8
通り芯
  6
Continuous
 62
     3
370
     9
100
AcDbLine
 10
-220.9999373152448
 20
278.7163421547249
 30
0.0
 11
-192.9999439136402
 21
278.7163421547249
 31
0.0
  0
LINE
  5
8C
330
1F
100
AcDbEntity
  8
通り芯
  6
Continuous
 62
     3
370
     9
100
AcDbLine
 10
-220.9999373152448
 20
296.7164015402824
 30
0.0
 11
-220.9999373152448
 21
278.7163421547249
 31
0.0
  0
LINE
  5
8D
330
1F
100
AcDbEntity
  8
通り芯
  6
Continuous
 62
     3
370
     9
100
AcDbLine
 10
-226.000052787162
 20
296.7164015402824
 30
0.0
 11
-226.000052787162
 21
278.7163421547249
 31
0.0
  0
LINE
  5
8E
330
1F
100
AcDbEntity
  8
通り芯
  6
Continuous
 62
     3
370
     9
100
AcDbLine
 10
9.000029692778753
 20
346.7163685483059
 30
0.0
 11
37.00002309438361
 21
346.7163685483059
 31
0.0
  0
LINE
  5
8F
330
1F
100
AcDbEntity
  8
通り芯
  6
Continuous
 62
     3
370
     9
100
AcDbLine
 10
42.00006433435391
 20
346.7163685483059
 30
0.0
 11
49.99989277607688
 21
346.7163685483059
 31
0.0
  0
LINE
  5
90
330
1F
100
AcDbEntity
  8
通り芯
  6
Continuous
 62
     3
370
     9
100
AcDbLine
 10
49.99989277607688
 20
346.7163685483059
 30
0.0
 11
49.99989277607688
 21
328.7163091627484
 31
0.0
  0
LINE
  5
91
330
1F
100
AcDbEntity
  8
通り芯
  6
Continuous
 62
     3
370
     9
100
AcDbLine
 10
42.00006433435391
 20
328.7163091627484
 30
0.0
 11
49.99989277607688
 21
328.7163091627484
 31
0.0
  0
LINE
  5
92
330
1F
100
AcDbEntity
  8
通り芯
  6
Continuous
 62
     3
370
     9
100
AcDbLine
 10
42.00006433435391
 20
346.7163685483059
 30
0.0
 11
42.00006433435391
 21
328.7163091627484
 31
0.0
  0
LINE
  5
93
330
1F
100
AcDbEntity
  8
通り芯
  6
Continuous
 62
     3
370
     9
100
AcDbLine
 10
37.00002309438361
 20
346.7163685483059
 30
0.0
 11
37.00002309438361
 21
328.7163091627484
 31
0.0
  0
LINE
  5
94
330
1F
100
AcDbEntity
  8
通り芯
  6
Continuous
 62
     3
370
     9
100
AcDbLine
 10
9.000029692778753
 20
328.7163091627484
 30
0.0
 11
37.00002309438361
 21
328.7163091627484
 31
0.0
  0
LINE
  5
95
330
1F
100
AcDbEntity
  8
通り芯
  6
Continuous
 62
     3
370
     9
100
AcDbLine
 10
9.000029692778753
 20
346.7163685483059
 30
0.0
 11
9.000029692778753
 21
328.7163091627484
 31
0.0
  0
LINE
  5
96
330
1F
100
AcDbEntity
  8
通り芯
  6
Continuous
 62
     3
370
     9
100
AcDbLine
 10
55.00015671188783
 20
346.7163685483059
 30
0.0
 11
83.00022434543922
 21
346.7163685483059
 31
0.0
  0
LINE
  5
97
330
1F
100
AcDbEntity
  8
通り芯
  6
Continuous
 62
     3
370
     9
100
AcDbLine
 10
88.00019135346298
 20
346.7163685483059
 30
0.0
 11
96.00001979518595
 21
346.7163685483059
 31
0.0
  0
LINE
  5
98
330
1F
100
AcDbEntity
  8
通り芯
  6
Continuous
 62
     3
370
     9
100
AcDbLine
 10
96.00001979518595
 20
346.7163685483059
 30
0.0
 11
96.00001979518595
 21
328.7163091627484
 31
0.0
  0
LINE
  5
99
330
1F
100
AcDbEntity
  8
通り芯
  6
Continuous
 62
     3
370
     9
100
AcDbLine
 10
88.00019135346298
 20
328.7163091627484
 30
0.0
 11
96.00001979518595
 21
328.7163091627484
 31
0.0
  0
LINE
  5
9A
330
1F
100
AcDbEntity
  8
通り芯
  6
Continuous
 62
     3
370
     9
100
AcDbLine
 10
88.00019135346298
 20
346.7163685483059
 30
0.0
 11
88.00019135346298
 21
328.7163091627484
 31
0.0
  0
LINE
  5
9B
330
1F
100
AcDbEntity
  8
通り芯
  6
Continuous
 62
     3
370
     9
100
AcDbLine
 10
83.00022434543922
 20
346.7163685483059
 30
0.0
 11
83.00022434543922
 21
328.7163091627484
 31
0.0
  0
LINE
  5
9C
330
1F
100
AcDbEntity
  8
通り芯
  6
Continuous
 62
     3
370
     9
100
AcDbLine
 10
55.00015671188783
 20
328.7163091627484
 30
0.0
 11
83.00022434543922
 21
328.7163091627484
 31
0.0
  0
LINE
  5
9D
330
1F
100
AcDbEntity
  8
通り芯
  6
Continuous
 62
     3
370
     9
100
AcDbLine
 10
55.00015671188783
 20
346.7163685483059
 30
0.0
 11
55.00015671188783
 21
328.7163091627484
 31
0.0
  0
LINE
  5
9E
330
1F
100
AcDbEntity
  8
通り芯
  6
Continuous
 62
     3
370
     9
100
AcDbLine
 10
100.9999868032095
 20
346.7163685483059
 30
0.0
 11
128.9999802048142
 21
346.7163685483059
 31
0.0
  0
LINE
  5
9F
330
1F
100
AcDbEntity
  8
通り芯
  6
Continuous
 62
     3
370
     9
100
AcDbLine
 10
133.999947212838
 20
346.7163685483059
 30
0.0
 11
142.0000725823481
 21
346.7163685483059
 31
0.0
  0
LINE
  5
A0
330
1F
100
AcDbEntity
  8
通り芯
  6
Continuous
 62
     3
370
     9
100
AcDbLine
 10
142.0000725823481
 20
346.7163685483059
 30
0.0
 11
142.0000725823481
 21
328.7163091627484
 31
0.0
  0
LINE
  5
A1
330
1F
100
AcDbEntity
  8
通り芯
  6
Continuous
 62
     3
370
     9
100
AcDbLine
 10
133.999947212838
 20
328.7163091627484
 30
0.0
 11
142.0000725823481
 21
328.7163091627484
 31
0.0
  0
LINE
  5
A2
330
1F
100
AcDbEntity
  8
通り芯
  6
Continuous
 62
     3
370
     9
100
AcDbLine
 10
133.999947212838
 20
346.7163685483059
 30
0.0
 11
133.999947212838
 21
328.7163091627484
 31
0.0
  0
LINE
  5
A3
330
1F
100
AcDbEntity
  8
通り芯
  6
Continuous
 62
     3
370
     9
100
AcDbLine
 10
128.9999802048142
 20
346.7163685483059
 30
0.0
 11
128.9999802048142
 21
328.7163091627484
 31
0.0
  0
LINE
  5
A4
330
1F
100
AcDbEntity
  8
通り芯
  6
Continuous
 62
     3
370
     9
100
AcDbLine
 10
100.9999868032095
 20
328.7163091627484
 30
0.0
 11
128.9999802048142
 21
328.7163091627484
 31
0.0
  0
LINE
  5
A5
330
1F
100
AcDbEntity
  8
通り芯
  6
Continuous
 62
     3
370
     9
100
AcDbLine
 10
100.9999868032095
 20
346.7163685483059
 30
0.0
 11
100.9999868032095
 21
328.7163091627484
 31
0.0
  0
LINE
  5
A6
330
1F
100
AcDbEntity
  8
通り芯
  6
Continuous
 62
     3
370
     9
100
AcDbLine
 10
147.0000395903717
 20
346.7163685483059
 30
0.0
 11
175.0000329919764
 21
346.7163685483059
 31
0.0
  0
LINE
  5
A7
330
1F
100
AcDbEntity
  8
通り芯
  6
Continuous
 62
     3
370
     9
100
AcDbLine
 10
180.0
 20
346.7163685483059
 30
0.0
 11
188.0001253695102
 21
346.7163685483059
 31
0.0
  0
LINE
  5
A8
330
1F
100
AcDbEntity
  8
通り芯
  6
Continuous
 62
     3
370
     9
100
AcDbLine
 10
188.0001253695102
 20
346.7163685483059
 30
0.0
 11
188.0001253695102
 21
328.7163091627484
 31
0.0
  0
LINE
  5
A9
330
1F
100
AcDbEntity
  8
通り芯
  6
Continuous
 62
     3
370
     9
100
AcDbLine
 10
180.0
 20
328.7163091627484
 30
0.0
 11
188.0001253695102
 21
328.7163091627484
 31
0.0
  0
LINE
  5
AA
330
1F
100
AcDbEntity
  8
通り芯
  6
Continuous
 62
     3
370
     9
100
AcDbLine
 10
180.0
 20
346.7163685483059
 30
0.0
 11
180.0
 21
328.7163091627484
 31
0.0
  0
LINE
  5
AB
330
1F
100
AcDbEntity
  8
通り芯
  6
Continuous
 62
     3
370
     9
100
AcDbLine
 10
175.0000329919764
 20
346.7163685483059
 30
0.0
 11
175.0000329919764
 21
328.7163091627484
 31
0.0
  0
LINE
  5
AC
330
1F
100
AcDbEntity
  8
通り芯
  6
Continuous
 62
     3
370
     9
100
AcDbLine
 10
147.0000395903717
 20
328.7163091627484
 30
0.0
 11
175.0000329919764
 21
328.7163091627484
 31
0.0
  0
LINE
  5
AD
330
1F
100
AcDbEntity
  8
通り芯
  6
Continuous
 62
     3
370
     9
100
AcDbLine
 10
147.0000395903717
 20
346.7163685483059
 30
0.0
 11
147.0000395903717
 21
328.7163091627484
 31
0.0
  0
LINE
  5
AE
330
1F
100
AcDbEntity
  8
通り芯
  6
Continuous
 62
     3
370
     9
100
AcDbLine
 10
193.0000923775339
 20
346.7163685483059
 30
0.0
 11
193.0000923775339
 21
328.7163091627484
 31
0.0
  0
LINE
  5
AF
330
1F
100
AcDbEntity
  8
通り芯
  6
Continuous
 62
     3
370
     9
100
AcDbLine
 10
72.00023754222985
 20
371.7163520523178
 30
0.0
 11
112.0002705342061
 21
371.7163520523178
 31
0.0
  0
LINE
  5
B0
330
1F
100
AcDbEntity
  8
通り芯
  6
Continuous
 62
     3
370
     9
100
AcDbLine
 10
112.0002705342061
 20
371.7163520523178
 30
0.0
 11
112.0002705342061
 21
353.7164411306539
 31
0.0
  0
LINE
  5
B1
330
1F
100
AcDbEntity
  8
通り芯
  6
Continuous
 62
     3
370
     9
100
AcDbLine
 10
72.00023754222985
 20
353.7164411306539
 30
0.0
 11
112.0002705342061
 21
353.7164411306539
 31
0.0
  0
LINE
  5
B2
330
1F
100
AcDbEntity
  8
通り芯
  6
Continuous
 62
     3
370
     9
100
AcDbLine
 10
72.00023754222985
 20
371.7163520523178
 30
0.0
 11
72.00023754222985
 21
353.7164411306539
 31
0.0
  0
LINE
  5
B3
330
1F
100
AcDbEntity
  8
通り芯
  6
Continuous
 62
     3
370
     9
100
AcDbLine
 10
117.9999934016049
 20
371.7163520523178
 30
0.0
 11
158.0000263935811
 21
371.7163520523178
 31
0.0
  0
LINE
  5
B4
330
1F
100
AcDbEntity
  8
通り芯
  6
Continuous
 62
     3
370
     9
100
AcDbLine
 10
158.0000263935811
 20
371.7163520523178
 30
0.0
 11
158.0000263935811
 21
353.7164411306539
 31
0.0
  0
LINE
  5
B5
330
1F
100
AcDbEntity
  8
通り芯
  6
Continuous
 62
     3
370
     9
100
AcDbLine
 10
117.9999934016049
 20
353.7164411306539
 30
0.0
 11
158.0000263935811
 21
353.7164411306539
 31
0.0
  0
LINE
  5
B6
330
1F
100
AcDbEntity
  8
通り芯
  6
Continuous
 62
     3
370
     9
100
AcDbLine
 10
117.9999934016049
 20
371.7163520523178
 30
0.0
 11
117.9999934016049
 21
353.7164411306539
 31
0.0
  0
LINE
  5
B7
330
1F
100
AcDbEntity
  8
通り芯
  6
Continuous
 62
     3
370
     9
100
AcDbLine
 10
164.000046188767
 20
353.7164411306539
 30
0.0
 11
204.0000791807433
 21
353.7164411306539
 31
0.0
  0
LINE
  5
B8
330
1F
100
AcDbEntity
  8
通り芯
  6
Continuous
 62
     3
370
     9
100
AcDbLine
 10
164.000046188767
 20
371.7163520523178
 30
0.0
 11
164.000046188767
 21
353.7164411306539
 31
0.0
  0
LINE
  5
B9
330
1F
100
AcDbEntity
  8
通り芯
  6
Continuous
 62
     3
370
     9
100
AcDbLine
 10
-111.9999736064189
 20
371.7163520523178
 30
0.0
 11
-71.9999406144425
 21
371.7163520523178
 31
0.0
  0
LINE
  5
BA
330
1F
100
AcDbEntity
  8
通り芯
  6
Continuous
 62
     3
370
     9
100
AcDbLine
 10
-71.9999406144425
 20
371.7163520523178
 30
0.0
 11
-71.9999406144425
 21
353.7164411306539
 31
0.0
  0
LINE
  5
BB
330
1F
100
AcDbEntity
  8
通り芯
  6
Continuous
 62
     3
370
     9
100
AcDbLine
 10
-111.9999736064189
 20
353.7164411306539
 30
0.0
 11
-71.9999406144425
 21
353.7164411306539
 31
0.0
  0
LINE
  5
BC
330
1F
100
AcDbEntity
  8
通り芯
  6
Continuous
 62
     3
370
     9
100
AcDbLine
 10
-111.9999736064189
 20
371.7163520523178
 30
0.0
 11
-111.9999736064189
 21
353.7164411306539
 31
0.0
  0
LINE
  5
BD
330
1F
100
AcDbEntity
  8
通り芯
  6
Continuous
 62
     3
370
     9
100
AcDbLine
 10
-157.9999521616342
 20
371.7163520523178
 30
0.0
 11
-117.9999191696578
 21
371.7163520523178
 31
0.0
  0
LINE
  5
BE
330
1F
100
AcDbEntity
  8
通り芯
  6
Continuous
 62
     3
370
     9
100
AcDbLine
 10
-117.9999191696578
 20
371.7163520523178
 30
0.0
 11
-117.9999191696578
 21
353.7164411306539
 31
0.0
  0
LINE
  5
BF
330
1F
100
AcDbEntity
  8
通り芯
  6
Continuous
 62
     3
370
     9
100
AcDbLine
 10
-157.9999521616342
 20
353.7164411306539
 30
0.0
 11
-117.9999191696578
 21
353.7164411306539
 31
0.0
  0
LINE
  5
C0
330
1F
100
AcDbEntity
  8
通り芯
  6
Continuous
 62
     3
370
     9
100
AcDbLine
 10
-157.9999521616342
 20
371.7163520523178
 30
0.0
 11
-157.9999521616342
 21
353.7164411306539
 31
0.0
  0
LINE
  5
C1
330
1F
100
AcDbEntity
  8
通り芯
  6
Continuous
 62
     3
370
     9
100
AcDbLine
 10
-163.9998977248733
 20
371.7163520523178
 30
0.0
 11
-163.9998977248733
 21
353.7164411306539
 31
0.0
  0
LINE
  5
C2
330
1F
100
AcDbEntity
  8
通り芯
  6
Continuous
 62
     3
370
     9
100
AcDbLine
 10
-203.9999307168495
 20
353.7164411306539
 30
0.0
 11
-163.9998977248733
 21
353.7164411306539
 31
0.0
  0
LINE
  5
C3
330
1F
100
AcDbEntity
  8
通り芯
  6
Continuous
 62
     3
370
     9
100
AcDbLine
 10
-37.00002309438344
 20
346.7163685483059
 30
0.0
 11
-9.000029692778583
 21
346.7163685483059
 31
0.0
  0
LINE
  5
C4
330
1F
100
AcDbEntity
  8
通り芯
  6
Continuous
 62
     3
370
     9
100
AcDbLine
 10
-4.000062684754994
 20
346.7163685483059
 30
0.0
 11
3.999914220861569
 21
346.7163685483059
 31
0.0
  0
LINE
  5
C5
330
1F
100
AcDbEntity
  8
通り芯
  6
Continuous
 62
     3
370
     9
100
AcDbLine
 10
3.999914220861569
 20
346.7163685483059
 30
0.0
 11
3.999914220861569
 21
328.7163091627484
 31
0.0
  0
LINE
  5
C6
330
1F
100
AcDbEntity
  8
通り芯
  6
Continuous
 62
     3
370
     9
100
AcDbLine
 10
-4.000062684754994
 20
328.7163091627484
 30
0.0
 11
3.999914220861569
 21
328.7163091627484
 31
0.0
  0
LINE
  5
C7
330
1F
100
AcDbEntity
  8
通り芯
  6
Continuous
 62
     3
370
     9
100
AcDbLine
 10
-4.000062684754994
 20
346.7163685483059
 30
0.0
 11
-4.000062684754994
 21
328.7163091627484
 31
0.0
  0
LINE
  5
C8
330
1F
100
AcDbEntity
  8
通り芯
  6
Continuous
 62
     3
370
     9
100
AcDbLine
 10
-9.000029692778583
 20
346.7163685483059
 30
0.0
 11
-9.000029692778583
 21
328.7163091627484
 31
0.0
  0
LINE
  5
C9
330
1F
100
AcDbEntity
  8
通り芯
  6
Continuous
 62
     3
370
     9
100
AcDbLine
 10
-37.00002309438344
 20
328.7163091627484
 30
0.0
 11
-9.000029692778583
 21
328.7163091627484
 31
0.0
  0
LINE
  5
CA
330
1F
100
AcDbEntity
  8
通り芯
  6
Continuous
 62
     3
370
     9
100
AcDbLine
 10
-37.00002309438344
 20
346.7163685483059
 30
0.0
 11
-37.00002309438344
 21
328.7163091627484
 31
0.0
  0
LINE
  5
CB
330
1F
100
AcDbEntity
  8
通り芯
  6
Continuous
 62
     3
370
     9
100
AcDbLine
 10
-82.99992741765203
 20
346.7163685483059
 30
0.0
 11
-54.99993401604718
 21
346.7163685483059
 31
0.0
  0
LINE
  5
CC
330
1F
100
AcDbEntity
  8
通り芯
  6
Continuous
 62
     3
370
     9
100
AcDbLine
 10
-49.99996700802359
 20
346.7163685483059
 30
0.0
 11
-41.99999010240703
 21
346.7163685483059
 31
0.0
  0
LINE
  5
CD
330
1F
100
AcDbEntity
  8
通り芯
  6
Continuous
 62
     3
370
     9
100
AcDbLine
 10
-41.99999010240703
 20
346.7163685483059
 30
0.0
 11
-41.99999010240703
 21
328.7163091627484
 31
0.0
  0
LINE
  5
CE
330
1F
100
AcDbEntity
  8
通り芯
  6
Continuous
 62
     3
370
     9
100
AcDbLine
 10
-49.99996700802359
 20
328.7163091627484
 30
0.0
 11
-41.99999010240703
 21
328.7163091627484
 31
0.0
  0
LINE
  5
CF
330
1F
100
AcDbEntity
  8
通り芯
  6
Continuous
 62
     3
370
     9
100
AcDbLine
 10
-49.99996700802359
 20
346.7163685483059
 30
0.0
 11
-49.99996700802359
 21
328.7163091627484
 31
0.0
  0
LINE
  5
D0
330
1F
100
AcDbEntity
  8
通り芯
  6
Continuous
 62
     3
370
     9
100
AcDbLine
 10
-54.99993401604718
 20
346.7163685483059
 30
0.0
 11
-54.99993401604718
 21
328.7163091627484
 31
0.0
  0
LINE
  5
D1
330
1F
100
AcDbEntity
  8
通り芯
  6
Continuous
 62
     3
370
     9
100
AcDbLine
 10
-82.99992741765203
 20
328.7163091627484
 30
0.0
 11
-54.99993401604718
 21
328.7163091627484
 31
0.0
  0
LINE
  5
D2
330
1F
100
AcDbEntity
  8
通り芯
  6
Continuous
 62
     3
370
     9
100
AcDbLine
 10
-82.99992741765203
 20
346.7163685483059
 30
0.0
 11
-82.99992741765203
 21
328.7163091627484
 31
0.0
  0
LINE
  5
D3
330
1F
100
AcDbEntity
  8
通り芯
  6
Continuous
 62
     3
370
     9
100
AcDbLine
 10
-128.9999802048141
 20
346.7163685483059
 30
0.0
 11
-100.9999868032094
 21
346.7163685483059
 31
0.0
  0
LINE
  5
D4
330
1F
100
AcDbEntity
  8
通り芯
  6
Continuous
 62
     3
370
     9
100
AcDbLine
 10
-96.00001979518578
 20
346.7163685483059
 30
0.0
 11
-88.00004288956922
 21
346.7163685483059
 31
0.0
  0
LINE
  5
D5
330
1F
100
AcDbEntity
  8
通り芯
  6
Continuous
 62
     3
370
     9
100
AcDbLine
 10
-88.00004288956922
 20
346.7163685483059
 30
0.0
 11
-88.00004288956922
 21
328.7163091627484
 31
0.0
  0
LINE
  5
D6
330
1F
100
AcDbEntity
  8
通り芯
  6
Continuous
 62
     3
370
     9
100
AcDbLine
 10
-96.00001979518578
 20
328.7163091627484
 30
0.0
 11
-88.00004288956922
 21
328.7163091627484
 31
0.0
  0
LINE
  5
D7
330
1F
100
AcDbEntity
  8
通り芯
  6
Continuous
 62
     3
370
     9
100
AcDbLine
 10
-96.00001979518578
 20
346.7163685483059
 30
0.0
 11
-96.00001979518578
 21
328.7163091627484
 31
0.0
  0
LINE
  5
D8
330
1F
100
AcDbEntity
  8
通り芯
  6
Continuous
 62
     3
370
     9
100
AcDbLine
 10
-100.9999868032094
 20
346.7163685483059
 30
0.0
 11
-100.9999868032094
 21
328.7163091627484
 31
0.0
  0
LINE
  5
D9
330
1F
100
AcDbEntity
  8
通り芯
  6
Continuous
 62
     3
370
     9
100
AcDbLine
 10
-128.9999802048141
 20
328.7163091627484
 30
0.0
 11
-100.9999868032094
 21
328.7163091627484
 31
0.0
  0
LINE
  5
DA
330
1F
100
AcDbEntity
  8
通り芯
  6
Continuous
 62
     3
370
     9
100
AcDbLine
 10
-128.9999802048141
 20
346.7163685483059
 30
0.0
 11
-128.9999802048141
 21
328.7163091627484
 31
0.0
  0
LINE
  5
DB
330
1F
100
AcDbEntity
  8
通り芯
  6
Continuous
 62
     3
370
     9
100
AcDbLine
 10
-174.9999587600295
 20
346.7163685483059
 30
0.0
 11
-146.9999653584248
 21
346.7163685483059
 31
0.0
  0
LINE
  5
DC
330
1F
100
AcDbEntity
  8
通り芯
  6
Continuous
 62
     3
370
     9
100
AcDbLine
 10
-141.9999983504011
 20
346.7163685483059
 30
0.0
 11
-134.0000214447845
 21
346.7163685483059
 31
0.0
  0
LINE
  5
DD
330
1F
100
AcDbEntity
  8
通り芯
  6
Continuous
 62
     3
370
     9
100
AcDbLine
 10
-134.0000214447845
 20
346.7163685483059
 30
0.0
 11
-134.0000214447845
 21
328.7163091627484
 31
0.0
  0
LINE
  5
DE
330
1F
100
AcDbEntity
  8
通り芯
  6
Continuous
 62
     3
370
     9
100
AcDbLine
 10
-141.9999983504011
 20
328.7163091627484
 30
0.0
 11
-134.0000214447845
 21
328.7163091627484
 31
0.0
  0
LINE
  5
DF
330
1F
100
AcDbEntity
  8
通り芯
  6
Continuous
 62
     3
370
     9
100
AcDbLine
 10
-141.9999983504011
 20
346.7163685483059
 30
0.0
 11
-141.9999983504011
 21
328.7163091627484
 31
0.0
  0
LINE
  5
E0
330
1F
100
AcDbEntity
  8
通り芯
  6
Continuous
 62
     3
370
     9
100
AcDbLine
 10
-146.9999653584248
 20
346.7163685483059
 30
0.0
 11
-146.9999653584248
 21
328.7163091627484
 31
0.0
  0
LINE
  5
E1
330
1F
100
AcDbEntity
  8
通り芯
  6
Continuous
 62
     3
370
     9
100
AcDbLine
 10
-174.9999587600295
 20
328.7163091627484
 30
0.0
 11
-146.9999653584248
 21
328.7163091627484
 31
0.0
  0
LINE
  5
E2
330
1F
100
AcDbEntity
  8
通り芯
  6
Continuous
 62
     3
370
     9
100
AcDbLine
 10
-174.9999587600295
 20
346.7163685483059
 30
0.0
 11
-174.9999587600295
 21
328.7163091627484
 31
0.0
  0
LINE
  5
E3
330
1F
100
AcDbEntity
  8
通り芯
  6
Continuous
 62
     3
370
     9
100
AcDbLine
 10
-187.9999769056166
 20
346.7163685483059
 30
0.0
 11
-180.0
 21
346.7163685483059
 31
0.0
  0
LINE
  5
E4
330
1F
100
AcDbEntity
  8
通り芯
  6
Continuous
 62
     3
370
     9
100
AcDbLine
 10
-180.0
 20
346.7163685483059
 30
0.0
 11
-180.0
 21
328.7163091627484
 31
0.0
  0
LINE
  5
E5
330
1F
100
AcDbEntity
  8
通り芯
  6
Continuous
 62
     3
370
     9
100
AcDbLine
 10
-187.9999769056166
 20
328.7163091627484
 30
0.0
 11
-180.0
 21
328.7163091627484
 31
0.0
  0
LINE
  5
E6
330
1F
100
AcDbEntity
  8
通り芯
  6
Continuous
 62
     3
370
     9
100
AcDbLine
 10
-187.9999769056166
 20
346.7163685483059
 30
0.0
 11
-187.9999769056166
 21
328.7163091627484
 31
0.0
  0
LINE
  5
E7
330
1F
100
AcDbEntity
  8
通り芯
  6
Continuous
 62
     3
370
     9
100
AcDbLine
 10
-192.9999439136402
 20
346.7163685483059
 30
0.0
 11
-192.9999439136402
 21
328.7163091627484
 31
0.0
  0
LINE
  5
E8
330
1F
100
AcDbEntity
  8
通り芯
  6
Continuous
 62
     3
370
     9
100
AcDbLine
 10
88.00019135346298
 20
396.7163355563296
 30
0.0
 11
96.00001979518595
 21
396.7163355563296
 31
0.0
  0
LINE
  5
E9
330
1F
100
AcDbEntity
  8
通り芯
  6
Continuous
 62
     3
370
     9
100
AcDbLine
 10
96.00001979518595
 20
396.7163355563296
 30
0.0
 11
96.00001979518595
 21
378.7164246346658
 31
0.0
  0
LINE
  5
EA
330
1F
100
AcDbEntity
  8
通り芯
  6
Continuous
 62
     3
370
     9
100
AcDbLine
 10
88.00019135346298
 20
378.7164246346658
 30
0.0
 11
96.00001979518595
 21
378.7164246346658
 31
0.0
  0
LINE
  5
EB
330
1F
100
AcDbEntity
  8
通り芯
  6
Continuous
 62
     3
370
     9
100
AcDbLine
 10
88.00019135346298
 20
396.7163355563296
 30
0.0
 11
88.00019135346298
 21
378.7164246346658
 31
0.0
  0
LINE
  5
EC
330
1F
100
AcDbEntity
  8
通り芯
  6
Continuous
 62
     3
370
     9
100
AcDbLine
 10
100.9999868032095
 20
396.7163355563296
 30
0.0
 11
128.9999802048142
 21
396.7163355563296
 31
0.0
  0
LINE
  5
ED
330
1F
100
AcDbEntity
  8
通り芯
  6
Continuous
 62
     3
370
     9
100
AcDbLine
 10
133.999947212838
 20
396.7163355563296
 30
0.0
 11
142.0000725823481
 21
396.7163355563296
 31
0.0
  0
LINE
  5
EE
330
1F
100
AcDbEntity
  8
通り芯
  6
Continuous
 62
     3
370
     9
100
AcDbLine
 10
142.0000725823481
 20
396.7163355563296
 30
0.0
 11
142.0000725823481
 21
378.7164246346658
 31
0.0
  0
LINE
  5
EF
330
1F
100
AcDbEntity
  8
通り芯
  6
Continuous
 62
     3
370
     9
100
AcDbLine
 10
133.999947212838
 20
378.7164246346658
 30
0.0
 11
142.0000725823481
 21
378.7164246346658
 31
0.0
  0
LINE
  5
F0
330
1F
100
AcDbEntity
  8
通り芯
  6
Continuous
 62
     3
370
     9
100
AcDbLine
 10
133.999947212838
 20
396.7163355563296
 30
0.0
 11
133.999947212838
 21
378.7164246346658
 31
0.0
  0
LINE
  5
F1
330
1F
100
AcDbEntity
  8
通り芯
  6
Continuous
 62
     3
370
     9
100
AcDbLine
 10
128.9999802048142
 20
396.7163355563296
 30
0.0
 11
128.9999802048142
 21
378.7164246346658
 31
0.0
  0
LINE
  5
F2
330
1F
100
AcDbEntity
  8
通り芯
  6
Continuous
 62
     3
370
     9
100
AcDbLine
 10
100.9999868032095
 20
378.7164246346658
 30
0.0
 11
128.9999802048142
 21
378.7164246346658
 31
0.0
  0
LINE
  5
F3
330
1F
100
AcDbEntity
  8
通り芯
  6
Continuous
 62
     3
370
     9
100
AcDbLine
 10
100.9999868032095
 20
396.7163355563296
 30
0.0
 11
100.9999868032095
 21
378.7164246346658
 31
0.0
  0
LINE
  5
F4
330
1F
100
AcDbEntity
  8
通り芯
  6
Continuous
 62
     3
370
     9
100
AcDbLine
 10
147.0000395903717
 20
396.7163355563296
 30
0.0
 11
175.0000329919764
 21
396.7163355563296
 31
0.0
  0
LINE
  5
F5
330
1F
100
AcDbEntity
  8
通り芯
  6
Continuous
 62
     3
370
     9
100
AcDbLine
 10
180.0
 20
378.7164246346658
 30
0.0
 11
188.0001253695102
 21
378.7164246346658
 31
0.0
  0
LINE
  5
F6
330
1F
100
AcDbEntity
  8
通り芯
  6
Continuous
 62
     3
370
     9
100
AcDbLine
 10
180.0
 20
396.7163355563296
 30
0.0
 11
180.0
 21
378.7164246346658
 31
0.0
  0
LINE
  5
F7
330
1F
100
AcDbEntity
  8
通り芯
  6
Continuous
 62
     3
370
     9
100
AcDbLine
 10
175.0000329919764
 20
396.7163355563296
 30
0.0
 11
175.0000329919764
 21
378.7164246346658
 31
0.0
  0
LINE
  5
F8
330
1F
100
AcDbEntity
  8
通り芯
  6
Continuous
 62
     3
370
     9
100
AcDbLine
 10
147.0000395903717
 20
378.7164246346658
 30
0.0
 11
175.0000329919764
 21
378.7164246346658
 31
0.0
  0
LINE
  5
F9
330
1F
100
AcDbEntity
  8
通り芯
  6
Continuous
 62
     3
370
     9
100
AcDbLine
 10
147.0000395903717
 20
396.7163355563296
 30
0.0
 11
147.0000395903717
 21
378.7164246346658
 31
0.0
  0
LINE
  5
FA
330
1F
100
AcDbEntity
  8
通り芯
  6
Continuous
 62
     3
370
     9
100
AcDbLine
 10
72.00023754222985
 20
421.716467524235
 30
0.0
 11
112.0002705342061
 21
421.716467524235
 31
0.0
  0
LINE
  5
FB
330
1F
100
AcDbEntity
  8
通り芯
  6
Continuous
 62
     3
370
     9
100
AcDbLine
 10
112.0002705342061
 20
421.716467524235
 30
0.0
 11
112.0002705342061
 21
403.7164081386775
 31
0.0
  0
LINE
  5
FC
330
1F
100
AcDbEntity
  8
通り芯
  6
Continuous
 62
     3
370
     9
100
AcDbLine
 10
72.00023754222985
 20
403.7164081386775
 30
0.0
 11
112.0002705342061
 21
403.7164081386775
 31
0.0
  0
LINE
  5
FD
330
1F
100
AcDbEntity
  8
通り芯
  6
Continuous
 62
     3
370
     9
100
AcDbLine
 10
117.9999934016049
 20
421.716467524235
 30
0.0
 11
158.0000263935811
 21
421.716467524235
 31
0.0
  0
LINE
  5
FE
330
1F
100
AcDbEntity
  8
通り芯
  6
Continuous
 62
     3
370
     9
100
AcDbLine
 10
158.0000263935811
 20
421.716467524235
 30
0.0
 11
158.0000263935811
 21
403.7164081386775
 31
0.0
  0
LINE
  5
FF
330
1F
100
AcDbEntity
  8
通り芯
  6
Continuous
 62
     3
370
     9
100
AcDbLine
 10
117.9999934016049
 20
403.7164081386775
 30
0.0
 11
158.0000263935811
 21
403.7164081386775
 31
0.0
  0
LINE
  5
100
330
1F
100
AcDbEntity
  8
通り芯
  6
Continuous
 62
     3
370
     9
100
AcDbLine
 10
117.9999934016049
 20
421.716467524235
 30
0.0
 11
117.9999934016049
 21
403.7164081386775
 31
0.0
  0
LINE
  5
101
330
1F
100
AcDbEntity
  8
通り芯
  6
Continuous
 62
     3
370
     9
100
AcDbLine
 10
164.000046188767
 20
421.716467524235
 30
0.0
 11
164.000046188767
 21
403.7164081386775
 31
0.0
  0
LINE
  5
102
330
1F
100
AcDbEntity
  8
通り芯
  6
Continuous
 62
     3
370
     9
100
AcDbLine
 10
-111.9999736064189
 20
421.716467524235
 30
0.0
 11
-71.9999406144425
 21
421.716467524235
 31
0.0
  0
LINE
  5
103
330
1F
100
AcDbEntity
  8
通り芯
  6
Continuous
 62
     3
370
     9
100
AcDbLine
 10
-111.9999736064189
 20
403.7164081386775
 30
0.0
 11
-71.9999406144425
 21
403.7164081386775
 31
0.0
  0
LINE
  5
104
330
1F
100
AcDbEntity
  8
通り芯
  6
Continuous
 62
     3
370
     9
100
AcDbLine
 10
-111.9999736064189
 20
421.716467524235
 30
0.0
 11
-111.9999736064189
 21
403.7164081386775
 31
0.0
  0
LINE
  5
105
330
1F
100
AcDbEntity
  8
通り芯
  6
Continuous
 62
     3
370
     9
100
AcDbLine
 10
-157.9999521616342
 20
421.716467524235
 30
0.0
 11
-117.9999191696578
 21
421.716467524235
 31
0.0
  0
LINE
  5
106
330
1F
100
AcDbEntity
  8
通り芯
  6
Continuous
 62
     3
370
     9
100
AcDbLine
 10
-117.9999191696578
 20
421.716467524235
 30
0.0
 11
-117.9999191696578
 21
403.7164081386775
 31
0.0
  0
LINE
  5
107
330
1F
100
AcDbEntity
  8
通り芯
  6
Continuous
 62
     3
370
     9
100
AcDbLine
 10
-157.9999521616342
 20
403.7164081386775
 30
0.0
 11
-117.9999191696578
 21
403.7164081386775
 31
0.0
  0
LINE
  5
108
330
1F
100
AcDbEntity
  8
通り芯
  6
Continuous
 62
     3
370
     9
100
AcDbLine
 10
-157.9999521616342
 20
421.716467524235
 30
0.0
 11
-157.9999521616342
 21
403.7164081386775
 31
0.0
  0
LINE
  5
109
330
1F
100
AcDbEntity
  8
通り芯
  6
Continuous
 62
     3
370
     9
100
AcDbLine
 10
-163.9998977248733
 20
421.716467524235
 30
0.0
 11
-163.9998977248733
 21
403.7164081386775
 31
0.0
  0
LINE
  5
10A
330
1F
100
AcDbEntity
  8
通り芯
  6
Continuous
 62
     3
370
     9
100
AcDbLine
 10
-128.9999802048141
 20
396.7163355563296
 30
0.0
 11
-100.9999868032094
 21
396.7163355563296
 31
0.0
  0
LINE
  5
10B
330
1F
100
AcDbEntity
  8
通り芯
  6
Continuous
 62
     3
370
     9
100
AcDbLine
 10
-96.00001979518578
 20
396.7163355563296
 30
0.0
 11
-88.00004288956922
 21
396.7163355563296
 31
0.0
  0
LINE
  5
10C
330
1F
100
AcDbEntity
  8
通り芯
  6
Continuous
 62
     3
370
     9
100
AcDbLine
 10
-88.00004288956922
 20
396.7163355563296
 30
0.0
 11
-88.00004288956922
 21
378.7164246346658
 31
0.0
  0
LINE
  5
10D
330
1F
100
AcDbEntity
  8
通り芯
  6
Continuous
 62
     3
370
     9
100
AcDbLine
 10
-96.00001979518578
 20
378.7164246346658
 30
0.0
 11
-88.00004288956922
 21
378.7164246346658
 31
0.0
  0
LINE
  5
10E
330
1F
100
AcDbEntity
  8
通り芯
  6
Continuous
 62
     3
370
     9
100
AcDbLine
 10
-96.00001979518578
 20
396.7163355563296
 30
0.0
 11
-96.00001979518578
 21
378.7164246346658
 31
0.0
  0
LINE
  5
10F
330
1F
100
AcDbEntity
  8
通り芯
  6
Continuous
 62
     3
370
     9
100
AcDbLine
 10
-100.9999868032094
 20
396.7163355563296
 30
0.0
 11
-100.9999868032094
 21
378.7164246346658
 31
0.0
  0
LINE
  5
110
330
1F
100
AcDbEntity
  8
通り芯
  6
Continuous
 62
     3
370
     9
100
AcDbLine
 10
-128.9999802048141
 20
378.7164246346658
 30
0.0
 11
-100.9999868032094
 21
378.7164246346658
 31
0.0
  0
LINE
  5
111
330
1F
100
AcDbEntity
  8
通り芯
  6
Continuous
 62
     3
370
     9
100
AcDbLine
 10
-128.9999802048141
 20
396.7163355563296
 30
0.0
 11
-128.9999802048141
 21
378.7164246346658
 31
0.0
  0
LINE
  5
112
330
1F
100
AcDbEntity
  8
通り芯
  6
Continuous
 62
     3
370
     9
100
AcDbLine
 10
-174.9999587600295
 20
396.7163355563296
 30
0.0
 11
-146.9999653584248
 21
396.7163355563296
 31
0.0
  0
LINE
  5
113
330
1F
100
AcDbEntity
  8
通り芯
  6
Continuous
 62
     3
370
     9
100
AcDbLine
 10
-141.9999983504011
 20
396.7163355563296
 30
0.0
 11
-134.0000214447845
 21
396.7163355563296
 31
0.0
  0
LINE
  5
114
330
1F
100
AcDbEntity
  8
通り芯
  6
Continuous
 62
     3
370
     9
100
AcDbLine
 10
-134.0000214447845
 20
396.7163355563296
 30
0.0
 11
-134.0000214447845
 21
378.7164246346658
 31
0.0
  0
LINE
  5
115
330
1F
100
AcDbEntity
  8
通り芯
  6
Continuous
 62
     3
370
     9
100
AcDbLine
 10
-141.9999983504011
 20
378.7164246346658
 30
0.0
 11
-134.0000214447845
 21
378.7164246346658
 31
0.0
  0
LINE
  5
116
330
1F
100
AcDbEntity
  8
通り芯
  6
Continuous
 62
     3
370
     9
100
AcDbLine
 10
-141.9999983504011
 20
396.7163355563296
 30
0.0
 11
-141.9999983504011
 21
378.7164246346658
 31
0.0
  0
LINE
  5
117
330
1F
100
AcDbEntity
  8
通り芯
  6
Continuous
 62
     3
370
     9
100
AcDbLine
 10
-146.9999653584248
 20
396.7163355563296
 30
0.0
 11
-146.9999653584248
 21
378.7164246346658
 31
0.0
  0
LINE
  5
118
330
1F
100
AcDbEntity
  8
通り芯
  6
Continuous
 62
     3
370
     9
100
AcDbLine
 10
-174.9999587600295
 20
378.7164246346658
 30
0.0
 11
-146.9999653584248
 21
378.7164246346658
 31
0.0
  0
LINE
  5
119
330
1F
100
AcDbEntity
  8
通り芯
  6
Continuous
 62
     3
370
     9
100
AcDbLine
 10
-174.9999587600295
 20
396.7163355563296
 30
0.0
 11
-174.9999587600295
 21
378.7164246346658
 31
0.0
  0
LINE
  5
11A
330
1F
100
AcDbEntity
  8
通り芯
  6
Continuous
 62
     3
370
     9
100
AcDbLine
 10
-180.0
 20
396.7163355563296
 30
0.0
 11
-180.0
 21
378.7164246346658
 31
0.0
  0
LINE
  5
11B
330
1F
100
AcDbEntity
  8
通り芯
  6
Continuous
 62
     3
370
     9
100
AcDbLine
 10
-187.9999769056166
 20
378.7164246346658
 30
0.0
 11
-180.0
 21
378.7164246346658
 31
0.0
  0
LINE
  5
11C
330
1F
100
AcDbEntity
  8
通り芯
  6
Continuous
 62
     3
370
     9
100
AcDbLine
 10
9.000029692778753
 20
446.7163025643533
 30
0.0
 11
37.00002309438361
 21
446.7163025643533
 31
0.0
  0
LINE
  5
11D
330
1F
100
AcDbEntity
  8
通り芯
  6
Continuous
 62
     3
370
     9
100
AcDbLine
 10
42.00006433435391
 20
446.7163025643533
 30
0.0
 11
49.99989277607688
 21
446.7163025643533
 31
0.0
  0
LINE
  5
11E
330
1F
100
AcDbEntity
  8
通り芯
  6
Continuous
 62
     3
370
     9
100
AcDbLine
 10
49.99989277607688
 20
446.7163025643533
 30
0.0
 11
49.99989277607688
 21
428.7163916426894
 31
0.0
  0
LINE
  5
11F
330
1F
100
AcDbEntity
  8
通り芯
  6
Continuous
 62
     3
370
     9
100
AcDbLine
 10
42.00006433435391
 20
428.7163916426894
 30
0.0
 11
49.99989277607688
 21
428.7163916426894
 31
0.0
  0
LINE
  5
120
330
1F
100
AcDbEntity
  8
通り芯
  6
Continuous
 62
     3
370
     9
100
AcDbLine
 10
42.00006433435391
 20
446.7163025643533
 30
0.0
 11
42.00006433435391
 21
428.7163916426894
 31
0.0
  0
LINE
  5
121
330
1F
100
AcDbEntity
  8
通り芯
  6
Continuous
 62
     3
370
     9
100
AcDbLine
 10
37.00002309438361
 20
446.7163025643533
 30
0.0
 11
37.00002309438361
 21
428.7163916426894
 31
0.0
  0
LINE
  5
122
330
1F
100
AcDbEntity
  8
通り芯
  6
Continuous
 62
     3
370
     9
100
AcDbLine
 10
9.000029692778753
 20
428.7163916426894
 30
0.0
 11
37.00002309438361
 21
428.7163916426894
 31
0.0
  0
LINE
  5
123
330
1F
100
AcDbEntity
  8
通り芯
  6
Continuous
 62
     3
370
     9
100
AcDbLine
 10
9.000029692778753
 20
446.7163025643533
 30
0.0
 11
9.000029692778753
 21
428.7163916426894
 31
0.0
  0
LINE
  5
124
330
1F
100
AcDbEntity
  8
通り芯
  6
Continuous
 62
     3
370
     9
100
AcDbLine
 10
55.00015671188783
 20
446.7163025643533
 30
0.0
 11
83.00022434543922
 21
446.7163025643533
 31
0.0
  0
LINE
  5
125
330
1F
100
AcDbEntity
  8
通り芯
  6
Continuous
 62
     3
370
     9
100
AcDbLine
 10
88.00019135346298
 20
446.7163025643533
 30
0.0
 11
96.00001979518595
 21
446.7163025643533
 31
0.0
  0
LINE
  5
126
330
1F
100
AcDbEntity
  8
通り芯
  6
Continuous
 62
     3
370
     9
100
AcDbLine
 10
96.00001979518595
 20
446.7163025643533
 30
0.0
 11
96.00001979518595
 21
428.7163916426894
 31
0.0
  0
LINE
  5
127
330
1F
100
AcDbEntity
  8
通り芯
  6
Continuous
 62
     3
370
     9
100
AcDbLine
 10
88.00019135346298
 20
428.7163916426894
 30
0.0
 11
96.00001979518595
 21
428.7163916426894
 31
0.0
  0
LINE
  5
128
330
1F
100
AcDbEntity
  8
通り芯
  6
Continuous
 62
     3
370
     9
100
AcDbLine
 10
88.00019135346298
 20
446.7163025643533
 30
0.0
 11
88.00019135346298
 21
428.7163916426894
 31
0.0
  0
LINE
  5
129
330
1F
100
AcDbEntity
  8
通り芯
  6
Continuous
 62
     3
370
     9
100
AcDbLine
 10
83.00022434543922
 20
446.7163025643533
 30
0.0
 11
83.00022434543922
 21
428.7163916426894
 31
0.0
  0
LINE
  5
12A
330
1F
100
AcDbEntity
  8
通り芯
  6
Continuous
 62
     3
370
     9
100
AcDbLine
 10
55.00015671188783
 20
428.7163916426894
 30
0.0
 11
83.00022434543922
 21
428.7163916426894
 31
0.0
  0
LINE
  5
12B
330
1F
100
AcDbEntity
  8
通り芯
  6
Continuous
 62
     3
370
     9
100
AcDbLine
 10
55.00015671188783
 20
446.7163025643533
 30
0.0
 11
55.00015671188783
 21
428.7163916426894
 31
0.0
  0
LINE
  5
12C
330
1F
100
AcDbEntity
  8
通り芯
  6
Continuous
 62
     3
370
     9
100
AcDbLine
 10
100.9999868032095
 20
446.7163025643533
 30
0.0
 11
128.9999802048142
 21
446.7163025643533
 31
0.0
  0
LINE
  5
12D
330
1F
100
AcDbEntity
  8
通り芯
  6
Continuous
 62
     3
370
     9
100
AcDbLine
 10
133.999947212838
 20
428.7163916426894
 30
0.0
 11
142.0000725823481
 21
428.7163916426894
 31
0.0
  0
LINE
  5
12E
330
1F
100
AcDbEntity
  8
通り芯
  6
Continuous
 62
     3
370
     9
100
AcDbLine
 10
133.999947212838
 20
446.7163025643533
 30
0.0
 11
133.999947212838
 21
428.7163916426894
 31
0.0
  0
LINE
  5
12F
330
1F
100
AcDbEntity
  8
通り芯
  6
Continuous
 62
     3
370
     9
100
AcDbLine
 10
128.9999802048142
 20
446.7163025643533
 30
0.0
 11
128.9999802048142
 21
428.7163916426894
 31
0.0
  0
LINE
  5
130
330
1F
100
AcDbEntity
  8
通り芯
  6
Continuous
 62
     3
370
     9
100
AcDbLine
 10
100.9999868032095
 20
428.7163916426894
 30
0.0
 11
128.9999802048142
 21
428.7163916426894
 31
0.0
  0
LINE
  5
131
330
1F
100
AcDbEntity
  8
通り芯
  6
Continuous
 62
     3
370
     9
100
AcDbLine
 10
100.9999868032095
 20
446.7163025643533
 30
0.0
 11
100.9999868032095
 21
428.7163916426894
 31
0.0
  0
LINE
  5
132
330
1F
100
AcDbEntity
  8
通り芯
  6
Continuous
 62
     3
370
     9
100
AcDbLine
 10
26.00003629117407
 20
453.7163751467012
 30
0.0
 11
66.0001435150972
 21
453.7163751467012
 31
0.0
  0
LINE
  5
133
330
1F
100
AcDbEntity
  8
通り芯
  6
Continuous
 62
     3
370
     9
100
AcDbLine
 10
26.00003629117407
 20
471.7164345322586
 30
0.0
 11
26.00003629117407
 21
453.7163751467012
 31
0.0
  0
LINE
  5
134
330
1F
100
AcDbEntity
  8
通り芯
  6
Continuous
 62
     3
370
     9
100
AcDbLine
 10
-20.00001649598812
 20
471.7164345322586
 30
0.0
 11
20.00001649598829
 21
471.7164345322586
 31
0.0
  0
LINE
  5
135
330
1F
100
AcDbEntity
  8
通り芯
  6
Continuous
 62
     3
370
     9
100
AcDbLine
 10
20.00001649598829
 20
471.7164345322586
 30
0.0
 11
20.00001649598829
 21
453.7163751467012
 31
0.0
  0
LINE
  5
136
330
1F
100
AcDbEntity
  8
通り芯
  6
Continuous
 62
     3
370
     9
100
AcDbLine
 10
-20.00001649598812
 20
453.7163751467012
 30
0.0
 11
20.00001649598829
 21
453.7163751467012
 31
0.0
  0
LINE
  5
137
330
1F
100
AcDbEntity
  8
通り芯
  6
Continuous
 62
     3
370
     9
100
AcDbLine
 10
-20.00001649598812
 20
471.7164345322586
 30
0.0
 11
-20.00001649598812
 21
453.7163751467012
 31
0.0
  0
LINE
  5
138
330
1F
100
AcDbEntity
  8
通り芯
  6
Continuous
 62
     3
370
     9
100
AcDbLine
 10
-25.9998878272803
 20
471.7164345322586
 30
0.0
 11
-25.9998878272803
 21
453.7163751467012
 31
0.0
  0
LINE
  5
139
330
1F
100
AcDbEntity
  8
通り芯
  6
Continuous
 62
     3
370
     9
100
AcDbLine
 10
-65.99992081925672
 20
453.7163751467012
 30
0.0
 11
-25.9998878272803
 21
453.7163751467012
 31
0.0
  0
LINE
  5
13A
330
1F
100
AcDbEntity
  8
通り芯
  6
Continuous
 62
     3
370
     9
100
AcDbLine
 10
-37.00002309438344
 20
446.7163025643533
 30
0.0
 11
-9.000029692778583
 21
446.7163025643533
 31
0.0
  0
LINE
  5
13B
330
1F
100
AcDbEntity
  8
通り芯
  6
Continuous
 62
     3
370
     9
100
AcDbLine
 10
-4.000062684754994
 20
446.7163025643533
 30
0.0
 11
3.999914220861569
 21
446.7163025643533
 31
0.0
  0
LINE
  5
13C
330
1F
100
AcDbEntity
  8
通り芯
  6
Continuous
 62
     3
370
     9
100
AcDbLine
 10
3.999914220861569
 20
446.7163025643533
 30
0.0
 11
3.999914220861569
 21
428.7163916426894
 31
0.0
  0
LINE
  5
13D
330
1F
100
AcDbEntity
  8
通り芯
  6
Continuous
 62
     3
370
     9
100
AcDbLine
 10
-4.000062684754994
 20
428.7163916426894
 30
0.0
 11
3.999914220861569
 21
428.7163916426894
 31
0.0
  0
LINE
  5
13E
330
1F
100
AcDbEntity
  8
通り芯
  6
Continuous
 62
     3
370
     9
100
AcDbLine
 10
-4.000062684754994
 20
446.7163025643533
 30
0.0
 11
-4.000062684754994
 21
428.7163916426894
 31
0.0
  0
LINE
  5
13F
330
1F
100
AcDbEntity
  8
通り芯
  6
Continuous
 62
     3
370
     9
100
AcDbLine
 10
-9.000029692778583
 20
446.7163025643533
 30
0.0
 11
-9.000029692778583
 21
428.7163916426894
 31
0.0
  0
LINE
  5
140
330
1F
100
AcDbEntity
  8
通り芯
  6
Continuous
 62
     3
370
     9
100
AcDbLine
 10
-37.00002309438344
 20
428.7163916426894
 30
0.0
 11
-9.000029692778583
 21
428.7163916426894
 31
0.0
  0
LINE
  5
141
330
1F
100
AcDbEntity
  8
通り芯
  6
Continuous
 62
     3
370
     9
100
AcDbLine
 10
-37.00002309438344
 20
446.7163025643533
 30
0.0
 11
-37.00002309438344
 21
428.7163916426894
 31
0.0
  0
LINE
  5
142
330
1F
100
AcDbEntity
  8
通り芯
  6
Continuous
 62
     3
370
     9
100
AcDbLine
 10
-82.99992741765203
 20
446.7163025643533
 30
0.0
 11
-54.99993401604718
 21
446.7163025643533
 31
0.0
  0
LINE
  5
143
330
1F
100
AcDbEntity
  8
通り芯
  6
Continuous
 62
     3
370
     9
100
AcDbLine
 10
-49.99996700802359
 20
446.7163025643533
 30
0.0
 11
-41.99999010240703
 21
446.7163025643533
 31
0.0
  0
LINE
  5
144
330
1F
100
AcDbEntity
  8
通り芯
  6
Continuous
 62
     3
370
     9
100
AcDbLine
 10
-41.99999010240703
 20
446.7163025643533
 30
0.0
 11
-41.99999010240703
 21
428.7163916426894
 31
0.0
  0
LINE
  5
145
330
1F
100
AcDbEntity
  8
通り芯
  6
Continuous
 62
     3
370
     9
100
AcDbLine
 10
-49.99996700802359
 20
428.7163916426894
 30
0.0
 11
-41.99999010240703
 21
428.7163916426894
 31
0.0
  0
LINE
  5
146
330
1F
100
AcDbEntity
  8
通り芯
  6
Continuous
 62
     3
370
     9
100
AcDbLine
 10
-49.99996700802359
 20
446.7163025643533
 30
0.0
 11
-49.99996700802359
 21
428.7163916426894
 31
0.0
  0
LINE
  5
147
330
1F
100
AcDbEntity
  8
通り芯
  6
Continuous
 62
     3
370
     9
100
AcDbLine
 10
-54.99993401604718
 20
446.7163025643533
 30
0.0
 11
-54.99993401604718
 21
428.7163916426894
 31
0.0
  0
LINE
  5
148
330
1F
100
AcDbEntity
  8
通り芯
  6
Continuous
 62
     3
370
     9
100
AcDbLine
 10
-82.99992741765203
 20
428.7163916426894
 30
0.0
 11
-54.99993401604718
 21
428.7163916426894
 31
0.0
  0
LINE
  5
149
330
1F
100
AcDbEntity
  8
通り芯
  6
Continuous
 62
     3
370
     9
100
AcDbLine
 10
-82.99992741765203
 20
446.7163025643533
 30
0.0
 11
-82.99992741765203
 21
428.7163916426894
 31
0.0
  0
LINE
  5
14A
330
1F
100
AcDbEntity
  8
通り芯
  6
Continuous
 62
     3
370
     9
100
AcDbLine
 10
-128.9999802048141
 20
446.7163025643533
 30
0.0
 11
-100.9999868032094
 21
446.7163025643533
 31
0.0
  0
LINE
  5
14B
330
1F
100
AcDbEntity
  8
通り芯
  6
Continuous
 62
     3
370
     9
100
AcDbLine
 10
-96.00001979518578
 20
446.7163025643533
 30
0.0
 11
-88.00004288956922
 21
446.7163025643533
 31
0.0
  0
LINE
  5
14C
330
1F
100
AcDbEntity
  8
通り芯
  6
Continuous
 62
     3
370
     9
100
AcDbLine
 10
-88.00004288956922
 20
446.7163025643533
 30
0.0
 11
-88.00004288956922
 21
428.7163916426894
 31
0.0
  0
LINE
  5
14D
330
1F
100
AcDbEntity
  8
通り芯
  6
Continuous
 62
     3
370
     9
100
AcDbLine
 10
-96.00001979518578
 20
428.7163916426894
 30
0.0
 11
-88.00004288956922
 21
428.7163916426894
 31
0.0
  0
LINE
  5
14E
330
1F
100
AcDbEntity
  8
通り芯
  6
Continuous
 62
     3
370
     9
100
AcDbLine
 10
-96.00001979518578
 20
446.7163025643533
 30
0.0
 11
-96.00001979518578
 21
428.7163916426894
 31
0.0
  0
LINE
  5
14F
330
1F
100
AcDbEntity
  8
通り芯
  6
Continuous
 62
     3
370
     9
100
AcDbLine
 10
-100.9999868032094
 20
446.7163025643533
 30
0.0
 11
-100.9999868032094
 21
428.7163916426894
 31
0.0
  0
LINE
  5
150
330
1F
100
AcDbEntity
  8
通り芯
  6
Continuous
 62
     3
370
     9
100
AcDbLine
 10
-128.9999802048141
 20
428.7163916426894
 30
0.0
 11
-100.9999868032094
 21
428.7163916426894
 31
0.0
  0
LINE
  5
151
330
1F
100
AcDbEntity
  8
通り芯
  6
Continuous
 62
     3
370
     9
100
AcDbLine
 10
-128.9999802048141
 20
446.7163025643533
 30
0.0
 11
-128.9999802048141
 21
428.7163916426894
 31
0.0
  0
LINE
  5
152
330
1F
100
AcDbEntity
  8
通り芯
  6
Continuous
 62
     3
370
     9
100
AcDbLine
 10
-134.0000214447845
 20
446.7163025643533
 30
0.0
 11
-134.0000214447845
 21
428.7163916426894
 31
0.0
  0
LINE
  5
153
330
1F
100
AcDbEntity
  8
通り芯
  6
Continuous
 62
     3
370
     9
100
AcDbLine
 10
-141.9999983504011
 20
428.7163916426894
 30
0.0
 11
-134.0000214447845
 21
428.7163916426894
 31
0.0
  0
LINE
  5
154
330
1F
100
AcDbEntity
  8
通り芯
  6
Continuous
 62
     3
370
     9
100
AcDbLine
 10
112.0002705342061
 20
463.6043673869883
 30
0.0
 11
112.0002705342061
 21
453.7163751467012
 31
0.0
  0
LINE
  5
155
330
1F
100
AcDbEntity
  8
通り芯
  6
Continuous
 62
     3
370
     9
100
AcDbLine
 10
117.9999934016049
 20
460.1398139663803
 30
0.0
 11
117.9999934016049
 21
453.7163751467012
 31
0.0
  0
LINE
  5
156
330
1F
100
AcDbEntity
  8
通り芯
  6
Continuous
 62
     3
370
     9
100
AcDbLine
 10
117.9999934016049
 20
453.7163751467012
 30
0.0
 11
128.1368111275339
 21
453.7163751467012
 31
0.0
  0
LINE
  5
157
330
1F
100
AcDbEntity
  8
通り芯
  6
Continuous
 62
     3
370
     9
100
AcDbLine
 10
133.999947212838
 20
446.7163025643533
 30
0.0
 11
138.0001583614866
 21
446.7163025643533
 31
0.0
  0
LINE
  5
158
330
1F
100
AcDbEntity
  8
通り芯
  6
Continuous
 62
     3
370
     9
100
AcDbLine
 10
142.0000725823481
 20
443.6474054201387
 30
0.0
 11
142.0000725823481
 21
428.7163916426894
 31
0.0
  0
LINE
  5
159
330
1F
100
AcDbEntity
  8
通り芯
  6
Continuous
 62
     3
370
     9
100
AcDbLine
 10
147.0000395903717
 20
439.6090390508397
 30
0.0
 11
147.0000395903717
 21
428.7163916426894
 31
0.0
  0
LINE
  5
15A
330
1F
100
AcDbEntity
  8
通り芯
  6
Continuous
 62
     3
370
     9
100
AcDbLine
 10
147.0000395903717
 20
428.7163916426894
 30
0.0
 11
159.1981300147805
 21
428.7163916426894
 31
0.0
  0
LINE
  5
15B
330
1F
100
AcDbEntity
  8
通り芯
  6
Continuous
 62
     3
370
     9
100
AcDbLine
 10
164.000046188767
 20
421.716467524235
 30
0.0
 11
166.1895916913008
 21
421.716467524235
 31
0.0
  0
LINE
  5
15C
330
1F
100
AcDbEntity
  8
通り芯
  6
Continuous
 62
     3
370
     9
100
AcDbLine
 10
164.000046188767
 20
403.7164081386775
 30
0.0
 11
181.7114917652028
 21
403.7164081386775
 31
0.0
  0
LINE
  5
15D
330
1F
100
AcDbEntity
  8
通り芯
  6
Continuous
 62
     3
370
     9
100
AcDbLine
 10
180.0
 20
396.7163355563296
 30
0.0
 11
186.9332638302366
 21
396.7163355563296
 31
0.0
  0
LINE
  5
15E
330
1F
100
AcDbEntity
  8
通り芯
  6
Continuous
 62
     3
370
     9
100
AcDbLine
 10
188.0001253695102
 20
395.2155140561184
 30
0.0
 11
188.0001253695102
 21
378.7164246346658
 31
0.0
  0
LINE
  5
15F
330
1F
100
AcDbEntity
  8
通り芯
  6
Continuous
 62
     3
370
     9
100
AcDbLine
 10
193.0000923775339
 20
387.8202305890577
 30
0.0
 11
193.0000923775339
 21
378.7164246346658
 31
0.0
  0
LINE
  5
160
330
1F
100
AcDbEntity
  8
通り芯
  6
Continuous
 62
     3
370
     9
100
AcDbLine
 10
193.0000923775339
 20
378.7164246346658
 30
0.0
 11
198.6051982157941
 21
378.7164246346658
 31
0.0
  0
LINE
  5
161
330
1F
100
AcDbEntity
  8
通り芯
  6
Continuous
 62
     3
370
     9
100
AcDbLine
 10
164.000046188767
 20
371.7163520523178
 30
0.0
 11
202.5314743454392
 21
371.7163520523178
 31
0.0
  0
LINE
  5
162
330
1F
100
AcDbEntity
  8
通り芯
  6
Continuous
 62
     3
370
     9
100
AcDbLine
 10
204.0000791807433
 20
368.9424526646487
 30
0.0
 11
204.0000791807433
 21
353.7164411306539
 31
0.0
  0
LINE
  5
163
330
1F
100
AcDbEntity
  8
通り芯
  6
Continuous
 62
     3
370
     9
100
AcDbLine
 10
193.0000923775339
 20
328.7163091627484
 30
0.0
 11
220.3272474134291
 21
328.7163091627484
 31
0.0
  0
LINE
  5
164
330
1F
100
AcDbEntity
  8
通り芯
  6
Continuous
 62
     3
370
     9
100
AcDbLine
 10
193.0000923775339
 20
346.7163685483059
 30
0.0
 11
214.112251900338
 21
346.7163685483059
 31
0.0
  0
LINE
  5
165
330
1F
100
AcDbEntity
  8
通り芯
  6
Continuous
 62
     3
370
     9
100
AcDbLine
 10
210.0000989759291
 20
321.716385044294
 30
0.0
 11
222.3038956925677
 21
321.716385044294
 31
0.0
  0
LINE
  5
166
330
1F
100
AcDbEntity
  8
通り芯
  6
Continuous
 62
     3
370
     9
100
AcDbLine
 10
210.0000989759291
 20
303.7164741226303
 30
0.0
 11
226.31628088049
 21
303.7164741226303
 31
0.0
  0
LINE
  5
167
330
1F
100
AcDbEntity
  8
通り芯
  6
Continuous
 62
     3
370
     9
100
AcDbLine
 10
226.0000527871622
 20
296.7164015402824
 30
0.0
 11
227.4731115392738
 21
296.7164015402824
 31
0.0
  0
LINE
  5
168
330
1F
100
AcDbEntity
  8
通り芯
  6
Continuous
 62
     3
370
     9
100
AcDbLine
 10
226.0000527871622
 20
278.7163421547249
 30
0.0
 11
229.4429304793075
 21
278.7163421547249
 31
0.0
  0
LINE
  5
169
330
1F
100
AcDbEntity
  8
通り芯
  6
Continuous
 62
     3
370
     9
100
AcDbLine
 10
210.0000989759291
 20
271.7164180362705
 30
0.0
 11
229.8238888302366
 21
271.7164180362705
 31
0.0
  0
LINE
  5
16A
330
1F
100
AcDbEntity
  8
通り芯
  6
Continuous
 62
     3
370
     9
100
AcDbLine
 10
-111.9999736064189
 20
463.6043673869883
 30
0.0
 11
-111.9999736064189
 21
453.7163751467012
 31
0.0
  0
LINE
  5
16B
330
1F
100
AcDbEntity
  8
通り芯
  6
Continuous
 62
     3
370
     9
100
AcDbLine
 10
-117.9999191696578
 20
460.1398139663803
 30
0.0
 11
-117.9999191696578
 21
453.7163751467012
 31
0.0
  0
LINE
  5
16C
330
1F
100
AcDbEntity
  8
通り芯
  6
Continuous
 62
     3
370
     9
100
AcDbLine
 10
-128.1366626636402
 20
453.7163751467012
 30
0.0
 11
-117.9999191696578
 21
453.7163751467012
 31
0.0
  0
LINE
  5
16D
330
1F
100
AcDbEntity
  8
通り芯
  6
Continuous
 62
     3
370
     9
100
AcDbLine
 10
-138.0000098975928
 20
446.7163025643533
 30
0.0
 11
-134.0000214447845
 21
446.7163025643533
 31
0.0
  0
LINE
  5
16E
330
1F
100
AcDbEntity
  8
通り芯
  6
Continuous
 62
     3
370
     9
100
AcDbLine
 10
-141.9999983504011
 20
443.6472569562452
 30
0.0
 11
-141.9999983504011
 21
428.7163916426894
 31
0.0
  0
LINE
  5
16F
330
1F
100
AcDbEntity
  8
通り芯
  6
Continuous
 62
     3
370
     9
100
AcDbLine
 10
-159.1979815508867
 20
428.7163916426894
 30
0.0
 11
-146.9999653584248
 21
428.7163916426894
 31
0.0
  0
LINE
  5
170
330
1F
100
AcDbEntity
  8
通り芯
  6
Continuous
 62
     3
370
     9
100
AcDbLine
 10
-146.9999653584248
 20
439.6090390508397
 30
0.0
 11
-146.9999653584248
 21
428.7163916426894
 31
0.0
  0
LINE
  5
171
330
1F
100
AcDbEntity
  8
通り芯
  6
Continuous
 62
     3
370
     9
100
AcDbLine
 10
-166.1896659232473
 20
421.716467524235
 30
0.0
 11
-163.9998977248733
 21
421.716467524235
 31
0.0
  0
LINE
  5
172
330
1F
100
AcDbEntity
  8
通り芯
  6
Continuous
 62
     3
370
     9
100
AcDbLine
 10
-229.8238145982897
 20
271.7164180362705
 30
0.0
 11
-209.9999505120355
 21
271.7164180362705
 31
0.0
  0
LINE
  5
173
330
1F
100
AcDbEntity
  8
通り芯
  6
Continuous
 62
     3
370
     9
100
AcDbLine
 10
-229.4427820154137
 20
278.7163421547249
 30
0.0
 11
-226.000052787162
 21
278.7163421547249
 31
0.0
  0
LINE
  5
174
330
1F
100
AcDbEntity
  8
通り芯
  6
Continuous
 62
     3
370
     9
100
AcDbLine
 10
-227.4731115392736
 20
296.7164015402824
 30
0.0
 11
-226.000052787162
 21
296.7164015402824
 31
0.0
  0
LINE
  5
175
330
1F
100
AcDbEntity
  8
通り芯
  6
Continuous
 62
     3
370
     9
100
AcDbLine
 10
-226.3161324165962
 20
303.7164741226303
 30
0.0
 11
-209.9999505120355
 21
303.7164741226303
 31
0.0
  0
LINE
  5
176
330
1F
100
AcDbEntity
  8
通り芯
  6
Continuous
 62
     3
370
     9
100
AcDbLine
 10
-222.3038214606208
 20
321.716385044294
 30
0.0
 11
-209.9999505120355
 21
321.716385044294
 31
0.0
  0
LINE
  5
177
330
1F
100
AcDbEntity
  8
通り芯
  6
Continuous
 62
     3
370
     9
100
AcDbLine
 10
-220.3270247175886
 20
328.7163091627484
 30
0.0
 11
-192.9999439136402
 21
328.7163091627484
 31
0.0
  0
LINE
  5
178
330
1F
100
AcDbEntity
  8
通り芯
  6
Continuous
 62
     3
370
     9
100
AcDbLine
 10
-214.1121034364442
 20
346.7163685483059
 30
0.0
 11
-192.9999439136402
 21
346.7163685483059
 31
0.0
  0
LINE
  5
179
330
1F
100
AcDbEntity
  8
通り芯
  6
Continuous
 62
     3
370
     9
100
AcDbLine
 10
-203.9999307168495
 20
368.9426011285424
 30
0.0
 11
-203.9999307168495
 21
353.7164411306539
 31
0.0
  0
LINE
  5
17A
330
1F
100
AcDbEntity
  8
通り芯
  6
Continuous
 62
     3
370
     9
100
AcDbLine
 10
-202.5314743454391
 20
371.7163520523178
 30
0.0
 11
-163.9998977248733
 21
371.7163520523178
 31
0.0
  0
LINE
  5
17B
330
1F
100
AcDbEntity
  8
通り芯
  6
Continuous
 62
     3
370
     9
100
AcDbLine
 10
-198.605123983847
 20
378.7164246346658
 30
0.0
 11
-192.9999439136402
 21
378.7164246346658
 31
0.0
  0
LINE
  5
17C
330
1F
100
AcDbEntity
  8
通り芯
  6
Continuous
 62
     3
370
     9
100
AcDbLine
 10
-192.9999439136402
 20
387.8203790529512
 30
0.0
 11
-192.9999439136402
 21
378.7164246346658
 31
0.0
  0
LINE
  5
17D
330
1F
100
AcDbEntity
  8
通り芯
  6
Continuous
 62
     3
370
     9
100
AcDbLine
 10
-187.9999769056166
 20
395.2155140561184
 30
0.0
 11
-187.9999769056166
 21
378.7164246346658
 31
0.0
  0
LINE
  5
17E
330
1F
100
AcDbEntity
  8
通り芯
  6
Continuous
 62
     3
370
     9
100
AcDbLine
 10
-186.9331153663428
 20
396.7163355563296
 30
0.0
 11
-180.0
 21
396.7163355563296
 31
0.0
  0
LINE
  5
17F
330
1F
100
AcDbEntity
  8
通り芯
  6
Continuous
 62
     3
370
     9
100
AcDbLine
 10
-181.7112690693623
 20
403.7164081386775
 30
0.0
 11
-163.9998977248733
 21
403.7164081386775
 31
0.0
  0
LINE
  5
180
330
1F
100
AcDbEntity
  8
通り芯
  6
Continuous
 62
     3
370
     9
100
AcDbLine
 10
99.42389410895282
 20
457.8467891300205
 30
0.0
 11
109.8656566722973
 21
478.340002680485
 31
0.0
  0
LINE
  5
181
330
1F
100
AcDbEntity
  8
通り芯
  6
Continuous
 62
     3
370
     9
100
AcDbLine
 10
-99.42396834089936
 20
457.8467891300205
 30
0.0
 11
-109.8657309042441
 21
478.340002680485
 31
0.0
  0
LINE
  5
182
330
1F
100
AcDbEntity
  8
通り芯
  6
Continuous
 62
     3
370
     9
100
AcDbLine
 10
26.00003629117407
 20
471.7164345322586
 30
0.0
 11
35.53884145375861
 21
471.7164345322586
 31
0.0
  0
LINE
  5
183
330
1F
100
AcDbEntity
  8
通り芯
  6
Continuous
 62
     3
370
     9
100
AcDbLine
 10
66.0001435150972
 20
464.1810011496574
 30
0.0
 11
66.0001435150972
 21
453.7163751467012
 31
0.0
  0
LINE
  5
184
330
1F
100
AcDbEntity
  8
通り芯
  6
Continuous
 62
     3
370
     9
100
AcDbLine
 10
-35.53884145375844
 20
471.7164345322586
 30
0.0
 11
-25.9998878272803
 21
471.7164345322586
 31
0.0
  0
LINE
  5
185
330
1F
100
AcDbEntity
  8
通り芯
  6
Continuous
 62
     3
370
     9
100
AcDbLine
 10
-65.99992081925672
 20
464.1810011496574
 30
0.0
 11
-65.99992081925672
 21
453.7163751467012
 31
0.0
  0
LINE
  5
186
330
1F
100
AcDbEntity
  8
通り芯
  6
Continuous
 62
     3
370
     9
100
AcDbLine
 10
-91.99461241026171
 20
453.7163751467012
 30
0.0
 11
-71.9999406144425
 21
453.7163751467012
 31
0.0
  0
LINE
  5
187
330
1F
100
AcDbEntity
  8
通り芯
  6
Continuous
 62
     3
370
     9
100
AcDbLine
 10
-71.9999406144425
 20
462.1155714621574
 30
0.0
 11
-71.9999406144425
 21
453.7163751467012
 31
0.0
  0
LINE
  5
188
330
1F
100
AcDbEntity
  8
通り芯
  6
Continuous
 62
     3
370
     9
100
AcDbLine
 10
-105.1756822740709
 20
453.7163751467012
 30
0.0
 11
-110.6064915012669
 21
464.3748949946743
 31
0.0
  0
LINE
  5
189
330
1F
100
AcDbEntity
  8
通り芯
  6
Continuous
 62
     3
370
     9
100
AcDbLine
 10
-111.9999736064189
 20
453.7163751467012
 30
0.0
 11
-105.1756822740709
 21
453.7163751467012
 31
0.0
  0
LINE
  5
18A
330
1F
100
AcDbEntity
  8
通り芯
  6
Continuous
 62
     3
370
     9
100
AcDbLine
 10
72.00023754222985
 20
453.7163751467012
 30
0.0
 11
91.99476087415547
 21
453.7163751467012
 31
0.0
  0
LINE
  5
18B
330
1F
100
AcDbEntity
  8
通り芯
  6
Continuous
 62
     3
370
     9
100
AcDbLine
 10
72.00023754222985
 20
462.1154229982637
 30
0.0
 11
72.00023754222985
 21
453.7163751467012
 31
0.0
  0
LINE
  5
18C
330
1F
100
AcDbEntity
  8
通り芯
  6
Continuous
 62
     3
370
     9
100
AcDbLine
 10
105.1759792018581
 20
453.7163751467012
 30
0.0
 11
112.0002705342061
 21
453.7163751467012
 31
0.0
  0
LINE
  5
18D
330
1F
100
AcDbEntity
  8
通り芯
  6
Continuous
 62
     3
370
     9
100
AcDbLine
 10
105.1759792018581
 20
453.7163751467012
 30
0.0
 11
110.6067884290541
 21
464.3748949946743
 31
0.0
  0
LINE
  5
18E
330
1F
100
AcDbEntity
  8
通り芯
  6
Continuous
 62
     3
370
     9
100
AcDbLine
 10
110.0001649598819
 20
277.7162893675627
 30
0.0
 11
166.0001517630913
 21
277.7162893675627
 31
0.0
  0
LINE
  5
18F
330
1F
100
AcDbEntity
  8
通り芯
  6
Continuous
 62
     3
370
     9
100
AcDbLine
 10
175.0000329919764
 20
296.7164015402824
 30
0.0
 11
175.0000329919764
 21
284.7163619499106
 31
0.0
  0
LINE
  5
190
330
1F
100
AcDbEntity
  8
通り芯
  6
Continuous
 62
     3
370
     9
100
AcDbLine
 10
100.9999868032095
 20
296.7164015402824
 30
0.0
 11
100.9999868032095
 21
284.7163619499106
 31
0.0
  0
LINE
  5
191
330
1F
100
AcDbEntity
  8
通り芯
  6
Continuous
 62
     3
370
     9
100
AcDbLine
 10
133.999947212838
 20
296.7164015402824
 30
0.0
 11
133.999947212838
 21
284.7163619499106
 31
0.0
  0
LINE
  5
192
330
1F
100
AcDbEntity
  8
通り芯
  6
Continuous
 62
     3
370
     9
100
AcDbLine
 10
128.9999802048142
 20
296.7164015402824
 30
0.0
 11
128.9999802048142
 21
284.7163619499106
 31
0.0
  0
LINE
  5
193
330
1F
100
AcDbEntity
  8
通り芯
  6
Continuous
 62
     3
370
     9
100
AcDbLine
 10
142.0000725823481
 20
296.7164015402824
 30
0.0
 11
142.0000725823481
 21
284.7163619499106
 31
0.0
  0
LINE
  5
194
330
1F
100
AcDbEntity
  8
通り芯
  6
Continuous
 62
     3
370
     9
100
AcDbLine
 10
147.0000395903717
 20
296.7164015402824
 30
0.0
 11
147.0000395903717
 21
284.7163619499106
 31
0.0
  0
LINE
  5
195
330
1F
100
AcDbEntity
  8
通り芯
  6
Continuous
 62
     3
370
     9
100
AcDbLine
 10
147.0000395903717
 20
284.7163619499106
 30
0.0
 11
175.0000329919764
 21
284.7163619499106
 31
0.0
  0
LINE
  5
196
330
1F
100
AcDbEntity
  8
通り芯
  6
Continuous
 62
     3
370
     9
100
AcDbLine
 10
100.9999868032095
 20
284.7163619499106
 30
0.0
 11
128.9999802048142
 21
284.7163619499106
 31
0.0
  0
LINE
  5
197
330
1F
100
AcDbEntity
  8
通り芯
  6
Continuous
 62
     3
370
     9
100
AcDbLine
 10
133.999947212838
 20
284.7163619499106
 30
0.0
 11
142.0000725823481
 21
284.7163619499106
 31
0.0
  0
LINE
  5
198
330
1F
100
AcDbEntity
  8
通り芯
  6
Continuous
 62
     3
370
     9
100
AcDbLine
 10
173.0002243454392
 20
271.7164180362705
 30
0.0
 11
204.0000791807433
 21
271.7164180362705
 31
0.0
  0
LINE
  5
199
330
1F
100
AcDbEntity
  8
通り芯
  6
Continuous
 62
     3
370
     9
100
AcDbLine
 10
72.00023754222985
 20
271.7164180362705
 30
0.0
 11
103.0000923775339
 21
271.7164180362705
 31
0.0
  0
LINE
  5
19A
330
1F
100
AcDbEntity
  8
通り芯
  6
Continuous
 62
     3
370
     9
100
AcDbLine
 10
-110.0000164959881
 20
277.7162893675627
 30
0.0
 11
-166.0000032991975
 21
277.7162893675627
 31
0.0
  0
LINE
  5
19B
330
1F
100
AcDbEntity
  8
通り芯
  6
Continuous
 62
     3
370
     9
100
AcDbLine
 10
-147.0000395903716
 20
284.7163619499106
 30
0.0
 11
-175.0000329919762
 21
284.7163619499106
 31
0.0
  0
LINE
  5
19C
330
1F
100
AcDbEntity
  8
通り芯
  6
Continuous
 62
     3
370
     9
100
AcDbLine
 10
-100.9999868032094
 20
284.7163619499106
 30
0.0
 11
-128.9999802048141
 21
284.7163619499106
 31
0.0
  0
LINE
  5
19D
330
1F
100
AcDbEntity
  8
通り芯
  6
Continuous
 62
     3
370
     9
100
AcDbLine
 10
-133.9999472128378
 20
284.7163619499106
 30
0.0
 11
-141.9999241184544
 21
284.7163619499106
 31
0.0
  0
LINE
  5
19E
330
1F
100
AcDbEntity
  8
通り芯
  6
Continuous
 62
     3
370
     9
100
AcDbLine
 10
-174.9999587600295
 20
296.7164015402824
 30
0.0
 11
-174.9999587600295
 21
284.7163619499106
 31
0.0
  0
LINE
  5
19F
330
1F
100
AcDbEntity
  8
通り芯
  6
Continuous
 62
     3
370
     9
100
AcDbLine
 10
-146.9999653584248
 20
296.7164015402824
 30
0.0
 11
-146.9999653584248
 21
284.7163619499106
 31
0.0
  0
LINE
  5
1A0
330
1F
100
AcDbEntity
  8
通り芯
  6
Continuous
 62
     3
370
     9
100
AcDbLine
 10
-141.9999983504011
 20
296.7164015402824
 30
0.0
 11
-141.9999983504011
 21
284.7163619499106
 31
0.0
  0
LINE
  5
1A1
330
1F
100
AcDbEntity
  8
通り芯
  6
Continuous
 62
     3
370
     9
100
AcDbLine
 10
-134.0000214447845
 20
296.7164015402824
 30
0.0
 11
-134.0000214447845
 21
284.7163619499106
 31
0.0
  0
LINE
  5
1A2
330
1F
100
AcDbEntity
  8
通り芯
  6
Continuous
 62
     3
370
     9
100
AcDbLine
 10
-128.9999802048141
 20
296.7164015402824
 30
0.0
 11
-128.9999802048141
 21
284.7163619499106
 31
0.0
  0
LINE
  5
1A3
330
1F
100
AcDbEntity
  8
通り芯
  6
Continuous
 62
     3
370
     9
100
AcDbLine
 10
-100.9999868032094
 20
296.7164015402824
 30
0.0
 11
-100.9999868032094
 21
284.7163619499106
 31
0.0
  0
LINE
  5
1A4
330
1F
100
AcDbEntity
  8
通り芯
  6
Continuous
 62
     3
370
     9
100
AcDbLine
 10
-102.9999439136402
 20
271.7164180362705
 30
0.0
 11
-71.9999406144425
 21
271.7164180362705
 31
0.0
  0
LINE
  5
1A5
330
1F
100
AcDbEntity
  8
通り芯
  6
Continuous
 62
     3
370
     9
100
AcDbLine
 10
-203.9999307168495
 20
271.7164180362705
 30
0.0
 11
-173.0000758815456
 21
271.7164180362705
 31
0.0
  0
LINE
  5
1A6
330
1F
100
AcDbEntity
  8
通り芯
  6
JWW_CENTER1
 62
     3
370
     9
100
AcDbLine
 10
-145.8468462969805
 20
-284.2665366591476
 30
0.0
 11
-129.844220135663
 21
-283.9509024213943
 31
0.0
  0
LINE
  5
1A7
330
1F
100
AcDbEntity
  8
通り芯
  6
Continuous
 62
     3
370
     9
100
AcDbLine
 10
-148.8616283519847
 20
-308.8307044035522
 30
0.0
 11
-126.1724111196156
 21
-308.3833084602456
 31
0.0
  0
LINE
  5
1A8
330
1F
100
AcDbEntity
  8
通り芯
  6
Continuous
 62
     3
370
     9
100
AcDbLine
 10
-110.0000164959881
 20
-276.1143100306637
 30
0.0
 11
-111.1506859031883
 21
-286.9602655442828
 31
0.0
  0
LINE
  5
1A9
330
1F
100
AcDbEntity
  8
通り芯
  6
Continuous
 62
     3
370
     9
100
AcDbLine
 10
-166.0000032991975
 20
-277.2185102391729
 30
0.0
 11
-164.8140737172719
 21
-287.2748605347811
 31
0.0
  0
LINE
  5
1AA
330
1F
100
AcDbEntity
  8
通り芯
  6
Continuous
 62
     3
370
     9
100
AcDbLine
 10
-102.0000395903716
 20
-277.9933432997726
 30
0.0
 11
-103.0000181455869
 21
-276.0077871870193
 31
0.0
  0
LINE
  5
1AB
330
1F
100
AcDbEntity
  8
通り芯
  6
Continuous
 62
     3
370
     9
100
AcDbLine
 10
-173.9999802048141
 20
-279.4134004418757
 30
0.0
 11
-173.0000016495987
 21
-277.3880560056426
 31
0.0
  0
LINE
  5
1AC
330
1F
100
AcDbEntity
  8
通り芯
  6
JWW_CENTER1
 62
     3
370
     9
100
AcDbLine
 10
-138.0000098975928
 20
-274.7226094922347
 30
0.0
 11
-138.0000098975928
 21
-292.984633418016
 31
0.0
  0
LINE
  5
1AD
330
1F
100
AcDbEntity
  8
通り芯
  6
JWW_CENTER1
 62
     3
370
     9
100
AcDbLine
 10
0.0
 20
-264.0464966728723
 30
0.0
 11
0.0
 21
-334.7330514527498
 31
0.0
  0
LINE
  5
1AE
330
1F
100
AcDbEntity
  8
通り芯
  6
Continuous
 62
     3
370
     9
100
AcDbLine
 10
-229.9999670080236
 20
-279.0295470450218
 30
0.0
 11
-228.9999884528083
 21
-280.9978071141729
 31
0.0
  0
LINE
  5
1AF
330
1F
100
AcDbEntity
  8
通り芯
  6
JWW_CENTER1
 62
     3
370
     9
100
AcDbLine
 10
-289.0564542203336
 20
262.7163883434918
 30
0.0
 11
292.3464883340372
 21
262.7163883434918
 31
0.0
  0
LINE
  5
1B0
330
1F
100
AcDbEntity
  8
通り芯
  6
Continuous
 62
     3
370
     9
100
AcDbLine
 10
-249.0000049487964
 20
-289.7156069452541
 30
0.0
 11
-249.9993154164906
 21
-279.71559869726
 31
0.0
  0
LINE
  5
1B1
330
1F
100
AcDbEntity
  8
通り芯
  6
Continuous
 62
     3
370
     9
100
AcDbLine
 10
-244.0000379407728
 20
-320.2155838508706
 30
0.0
 11
-246.2751728779561
 21
-292.4587743069517
 31
0.0
  0
LINE
  5
1B2
330
1F
100
AcDbEntity
  8
通り芯
  6
Continuous
 62
     3
370
     9
100
AcDbLine
 10
-233.9286185599661
 20
-295.2316344473655
 30
0.0
 11
-237.0257980759078
 21
-320.6391513392574
 31
0.0
  0
LINE
  5
1B3
330
1F
100
AcDbEntity
  8
通り芯
  6
JWW_DASHED1
 62
     3
370
     9
100
AcDbLine
 10
-220.0000329919762
 20
-291.7155640556848
 30
0.0
 11
-218.0005212732262
 21
-288.6500815810226
 31
0.0
  0
LINE
  5
1B4
330
1F
100
AcDbEntity
  8
通り芯
  6
Continuous
 62
     3
370
     9
100
AcDbLine
 10
-72.0000148463892
 20
-293.6207269700641
 30
0.0
 11
-72.5382706925675
 21
-292.0119722192194
 31
0.0
  0
LINE
  5
1B5
330
1F
100
AcDbEntity
  8
通り芯
  6
JWW_DASHED1
 62
     3
370
     9
100
AcDbLine
 10
-72.5382706925675
 20
-292.0119722192194
 30
0.0
 11
-73.51197113861906
 21
-289.1017087452963
 31
0.0
  0
LINE
  5
1B6
330
1F
100
AcDbEntity
  8
通り芯
  6
Continuous
 62
     3
370
     9
100
AcDbLine
 10
-58.00001814558686
 20
-293.4903756714998
 30
0.0
 11
-57.45129559491124
 21
-291.8400510304526
 31
0.0
  0
LINE
  5
1B7
330
1F
100
AcDbEntity
  8
通り芯
  6
JWW_DASHED1
 62
     3
370
     9
100
AcDbLine
 10
-57.45129559491124
 20
-291.8399767985057
 30
0.0
 11
-56.46148681640625
 21
-288.8634241960987
 31
0.0
  0
LINE
  5
1B8
330
1F
100
AcDbEntity
  8
通り芯
  6
JWW_CENTER1
 62
     3
370
     9
100
AcDbLine
 10
-65.00001649598812
 20
-279.6916217784466
 30
0.0
 11
-65.00001649598812
 21
-295.7632836502794
 31
0.0
  0
LINE
  5
1B9
330
1F
100
AcDbEntity
  8
通り芯
  6
JWW_DASHED1
 62
     3
370
     9
100
AcDbLine
 10
-202.0000478383656
 20
-291.9473161935649
 30
0.0
 11
-202.7199492583403
 21
-290.1549116063604
 31
0.0
  0
LINE
  5
1BA
330
1F
100
AcDbEntity
  8
通り芯
  6
JWW_DASHED1
 62
     3
370
     9
100
AcDbLine
 10
-188.0000511375633
 20
-292.1275513603723
 30
0.0
 11
-187.6239178631756
 21
-291.0272854450429
 31
0.0
  0
LINE
  5
1BB
330
1F
100
AcDbEntity
  8
通り芯
  6
Continuous
 62
     3
370
     9
100
AcDbLine
 10
-234.8568148226352
 20
270.9178307526978
 30
0.0
 11
-244.8507360509923
 21
271.2667951345602
 31
0.0
  0
LINE
  5
1BC
330
1F
100
AcDbEntity
  8
通り芯
  6
Continuous
 62
     3
370
     9
100
AcDbLine
 10
-233.8488192171664
 20
316.7045409247839
 30
0.0
 11
-228.3805228568411
 21
303.5371297391843
 31
0.0
  0
LINE
  5
1BD
330
1F
100
AcDbEntity
  8
通り芯
  6
Continuous
 62
     3
370
     9
100
AcDbLine
 10
-244.1309088629645
 20
306.3523020892687
 30
0.0
 11
-233.8488192171664
 21
316.7045409247839
 31
0.0
  0
LINE
  5
1BE
330
1F
100
AcDbEntity
  8
通り芯
  6
Continuous
 62
     3
370
     9
100
AcDbLine
 10
-244.1309088629645
 20
306.3523020892687
 30
0.0
 11
-241.1777393237964
 21
305.824512947588
 31
0.0
  0
LINE
  5
1BF
330
1F
100
AcDbEntity
  8
通り芯
  6
Continuous
 62
     3
370
     9
100
AcDbLine
 10
-231.3336923960092
 20
304.064918880865
 30
0.0
 11
-228.3805228568411
 21
303.5371297391843
 31
0.0
  0
LINE
  5
1C0
330
1F
100
AcDbEntity
  8
通り芯
  6
Continuous
 62
     3
370
     9
100
AcDbLine
 10
-200.1485546215159
 20
382.9777837721234
 30
0.0
 11
-211.2917348500844
 21
389.6732084448431
 31
0.0
  0
LINE
  5
1C1
330
1F
100
AcDbEntity
  8
通り芯
  6
Continuous
 62
     3
370
     9
100
AcDbLine
 10
-225.5436747782939
 20
323.1506947201809
 30
0.0
 11
-238.1006766654348
 21
326.5153319404089
 31
0.0
  0
LINE
  5
1C2
330
1F
100
AcDbEntity
  8
通り芯
  6
Continuous
 62
     3
370
     9
100
AcDbLine
 10
-246.4999472128378
 20
262.7163883434918
 30
0.0
 11
-233.5000032991977
 21
267.7163553515153
 31
0.0
  0
LINE
  5
1C3
330
1F
100
AcDbEntity
  8
通り芯
  6
Continuous
 62
     3
370
     9
100
AcDbLine
 10
246.499947212838
 20
262.7163883434918
 30
0.0
 11
233.5001517630913
 21
267.7163553515153
 31
0.0
  0
LINE
  5
1C4
330
1F
100
AcDbEntity
  8
通り芯
  6
Continuous
 62
     3
370
     9
100
AcDbLine
 10
-192.4207862647803
 20
-322.7155673548825
 30
0.0
 11
-209.7878698400548
 21
-322.7155673548825
 31
0.0
  0
LINE
  5
1C5
330
1F
100
AcDbEntity
  8
通り芯
  6
Continuous
 62
     3
370
     9
100
AcDbLine
 10
-201.4000310124576
 20
-315.715643236428
 30
0.0
 11
-200.1422449060387
 21
-291.7155640556848
 31
0.0
  0
LINE
  5
1C6
330
1F
100
AcDbEntity
  8
通り芯
  6
Continuous
 62
     3
370
     9
100
AcDbLine
 10
-229.9580259580869
 20
-291.7155640556848
 30
0.0
 11
-200.1422449060387
 21
-291.7155640556848
 31
0.0
  0
LINE
  5
1C7
330
1F
100
AcDbEntity
  8
通り芯
  6
JWW_DASHED1
 62
     3
370
     9
100
AcDbLine
 10
-185.7878648912584
 20
-292.1560564279399
 30
0.0
 11
-220.0000329919762
 21
-291.7156382876316
 31
0.0
  0
LINE
  5
1C8
330
1F
100
AcDbEntity
  8
通り芯
  6
Continuous
 62
     3
370
     9
100
AcDbLine
 10
-189.4461636929898
 20
-320.1049782501527
 30
0.0
 11
-185.648754222973
 21
-291.0932776457397
 31
0.0
  0
LINE
  5
1C9
330
1F
100
AcDbEntity
  8
通り芯
  6
Continuous
 62
     3
370
     9
100
AcDbLine
 10
-150.3470838392103
 20
-316.8615617990337
 30
0.0
 11
-124.3714698585303
 21
-316.3493613661789
 31
0.0
  0
LINE
  5
1CA
330
1F
100
AcDbEntity
  8
通り芯
  6
Continuous
 62
     3
370
     9
100
AcDbLine
 10
-72.0000148463892
 20
-293.6207269700641
 30
0.0
 11
-103.9689677470439
 21
-293.2092592890041
 31
0.0
  0
LINE
  5
1CB
330
1F
100
AcDbEntity
  8
通り芯
  6
Continuous
 62
     3
370
     9
100
AcDbLine
 10
-172.020733807538
 20
-292.3332480849289
 30
0.0
 11
-185.7878648912584
 21
-292.1560564279399
 31
0.0
  0
LINE
  5
1CC
330
1F
100
AcDbEntity
  8
通り芯
  6
JWW_CENTER1
 62
     3
370
     9
100
AcDbLine
 10
-195.0000494879645
 20
-284.8249093629061
 30
0.0
 11
-195.0000494879645
 21
-295.7632836502794
 31
0.0
  0
LINE
  5
1CD
330
1F
100
AcDbEntity
  8
通り芯
  6
JWW_CENTER1
 62
     3
370
     9
100
AcDbLine
 10
145.8467720650339
 20
-284.2665366591476
 30
0.0
 11
129.8441459037163
 21
-283.9509024213943
 31
0.0
  0
LINE
  5
1CE
330
1F
100
AcDbEntity
  8
通り芯
  6
Continuous
 62
     3
370
     9
100
AcDbLine
 10
148.8617768158784
 20
-308.8307044035522
 30
0.0
 11
126.1723368876691
 21
-308.3833084602456
 31
0.0
  0
LINE
  5
1CF
330
1F
100
AcDbEntity
  8
通り芯
  6
Continuous
 62
     3
370
     9
100
AcDbLine
 10
110.0001649598819
 20
-276.1143100306637
 30
0.0
 11
111.1507601351352
 21
-286.9602655442828
 31
0.0
  0
LINE
  5
1D0
330
1F
100
AcDbEntity
  8
通り芯
  6
Continuous
 62
     3
370
     9
100
AcDbLine
 10
166.0001517630913
 20
-277.2185102391729
 30
0.0
 11
164.8142221811656
 21
-287.2748605347811
 31
0.0
  0
LINE
  5
1D1
330
1F
100
AcDbEntity
  8
通り芯
  6
Continuous
 62
     3
370
     9
100
AcDbLine
 10
102.0000395903717
 20
-277.9933432997726
 30
0.0
 11
103.0000923775339
 21
-276.0077871870193
 31
0.0
  0
LINE
  5
1D2
330
1F
100
AcDbEntity
  8
通り芯
  6
Continuous
 62
     3
370
     9
100
AcDbLine
 10
173.9999802048142
 20
-279.4134004418757
 30
0.0
 11
172.999927417652
 21
-277.3880560056426
 31
0.0
  0
LINE
  5
1D3
330
1F
100
AcDbEntity
  8
通り芯
  6
JWW_CENTER1
 62
     3
370
     9
100
AcDbLine
 10
138.0001583614866
 20
-274.7226094922347
 30
0.0
 11
138.0001583614866
 21
-292.984633418016
 31
0.0
  0
LINE
  5
1D4
330
1F
100
AcDbEntity
  8
通り芯
  6
Continuous
 62
     3
370
     9
100
AcDbLine
 10
229.9999670080238
 20
-279.0295470450218
 30
0.0
 11
228.9999142208616
 21
-280.9978071141729
 31
0.0
  0
LINE
  5
1D5
330
1F
100
AcDbEntity
  8
通り芯
  6
Continuous
 62
     3
370
     9
100
AcDbLine
 10
249.0000791807433
 20
-289.7156069452541
 30
0.0
 11
249.9992411845441
 21
-279.71559869726
 31
0.0
  0
LINE
  5
1D6
330
1F
100
AcDbEntity
  8
通り芯
  6
Continuous
 62
     3
370
     9
100
AcDbLine
 10
244.0001121727197
 20
-320.2155838508706
 30
0.0
 11
246.2751728779561
 21
-292.4587743069517
 31
0.0
  0
LINE
  5
1D7
330
1F
100
AcDbEntity
  8
通り芯
  6
Continuous
 62
     3
370
     9
100
AcDbLine
 10
233.9286185599663
 20
-295.2316344473655
 30
0.0
 11
237.0258723078549
 21
-320.6391513392574
 31
0.0
  0
LINE
  5
1D8
330
1F
100
AcDbEntity
  8
通り芯
  6
JWW_DASHED1
 62
     3
370
     9
100
AcDbLine
 10
220.0000329919764
 20
-291.7155640556848
 30
0.0
 11
218.0005212732264
 21
-288.6500815810226
 31
0.0
  0
LINE
  5
1D9
330
1F
100
AcDbEntity
  8
通り芯
  6
Continuous
 62
     3
370
     9
100
AcDbLine
 10
72.00023754222985
 20
-293.6207269700641
 30
0.0
 11
72.53827069256766
 21
-292.0119722192194
 31
0.0
  0
LINE
  5
1DA
330
1F
100
AcDbEntity
  8
通り芯
  6
JWW_DASHED1
 62
     3
370
     9
100
AcDbLine
 10
72.53827069256766
 20
-292.0119722192194
 30
0.0
 11
73.51219383445954
 21
-289.1017087452963
 31
0.0
  0
LINE
  5
1DB
330
1F
100
AcDbEntity
  8
通り芯
  6
Continuous
 62
     3
370
     9
100
AcDbLine
 10
58.00001814558703
 20
-293.4903756714998
 30
0.0
 11
57.45129559491141
 21
-291.8400510304526
 31
0.0
  0
LINE
  5
1DC
330
1F
100
AcDbEntity
  8
通り芯
  6
JWW_DASHED1
 62
     3
370
     9
100
AcDbLine
 10
57.45129559491141
 20
-291.8399767985057
 30
0.0
 11
56.46163528029984
 21
-288.8634241960987
 31
0.0
  0
LINE
  5
1DD
330
1F
100
AcDbEntity
  8
通り芯
  6
JWW_CENTER1
 62
     3
370
     9
100
AcDbLine
 10
65.000090727935
 20
-279.6916217784466
 30
0.0
 11
65.000090727935
 21
-295.7632836502794
 31
0.0
  0
LINE
  5
1DE
330
1F
100
AcDbEntity
  8
通り芯
  6
JWW_DASHED1
 62
     3
370
     9
100
AcDbLine
 10
201.9999736064191
 20
-291.9473161935649
 30
0.0
 11
202.7200234902872
 21
-290.1549116063604
 31
0.0
  0
LINE
  5
1DF
330
1F
100
AcDbEntity
  8
通り芯
  6
JWW_DASHED1
 62
     3
370
     9
100
AcDbLine
 10
188.0001253695102
 20
-292.1275513603723
 30
0.0
 11
187.6239178631758
 21
-291.0272854450429
 31
0.0
  0
LINE
  5
1E0
330
1F
100
AcDbEntity
  8
通り芯
  6
Continuous
 62
     3
370
     9
100
AcDbLine
 10
201.4001794763514
 20
-315.715643236428
 30
0.0
 11
200.1423933699325
 21
-291.7155640556848
 31
0.0
  0
LINE
  5
1E1
330
1F
100
AcDbEntity
  8
通り芯
  6
Continuous
 62
     3
370
     9
100
AcDbLine
 10
229.9581001900339
 20
-291.7155640556848
 30
0.0
 11
200.1423933699325
 21
-291.7155640556848
 31
0.0
  0
LINE
  5
1E2
330
1F
100
AcDbEntity
  8
通り芯
  6
JWW_DASHED1
 62
     3
370
     9
100
AcDbLine
 10
185.788013355152
 20
-292.1560564279399
 30
0.0
 11
220.0000329919764
 21
-291.7156382876316
 31
0.0
  0
LINE
  5
1E3
330
1F
100
AcDbEntity
  8
通り芯
  6
Continuous
 62
     3
370
     9
100
AcDbLine
 10
189.44616369299
 20
-320.1049782501527
 30
0.0
 11
185.6487542229731
 21
-291.0932776457397
 31
0.0
  0
LINE
  5
1E4
330
1F
100
AcDbEntity
  8
通り芯
  6
Continuous
 62
     3
370
     9
100
AcDbLine
 10
150.3470096072636
 20
-316.8615617990337
 30
0.0
 11
124.3714698585305
 21
-316.3493613661789
 31
0.0
  0
LINE
  5
1E5
330
1F
100
AcDbEntity
  8
通り芯
  6
Continuous
 62
     3
370
     9
100
AcDbLine
 10
172.0206595755913
 20
-292.3332480849289
 30
0.0
 11
185.788013355152
 21
-292.1560564279399
 31
0.0
  0
LINE
  5
1E6
330
1F
100
AcDbEntity
  8
通り芯
  6
JWW_CENTER1
 62
     3
370
     9
100
AcDbLine
 10
195.0001979518581
 20
-284.8249093629061
 30
0.0
 11
195.0001979518581
 21
-295.7632836502794
 31
0.0
  0
LINE
  5
1E7
330
1F
100
AcDbEntity
  8
通り芯
  6
Continuous
 62
     3
370
     9
100
AcDbLine
 10
-210.4002834010769
 20
-315.715643236428
 30
0.0
 11
-209.7878698400548
 21
-322.7155673548825
 31
0.0
  0
LINE
  5
1E8
330
1F
100
AcDbEntity
  8
通り芯
  6
Continuous
 62
     3
370
     9
100
AcDbLine
 10
-210.4002834010769
 20
-315.715643236428
 30
0.0
 11
-201.4000310124576
 21
-315.715643236428
 31
0.0
  0
LINE
  5
1E9
330
1F
100
AcDbEntity
  8
躯体
  6
Continuous
 62
     2
370
     9
100
AcDbLine
 10
-235.0000082479941
 20
541.7162695723769
 30
0.0
 11
0.0
 21
541.7162695723769
 31
0.0
  0
LINE
  5
1EA
330
1F
100
AcDbEntity
  8
躯体
  6
Continuous
 62
     2
370
     9
100
AcDbLine
 10
-279.0000296927786
 20
497.716322359539
 30
0.0
 11
-279.0000296927786
 21
262.7163883434918
 31
0.0
  0
LINE
  5
1EB
330
1F
100
AcDbEntity
  8
躯体
  6
Continuous
 62
     2
370
     9
100
AcDbLine
 10
-235.0000082479941
 20
542.716322359539
 30
0.0
 11
0.0
 21
542.716322359539
 31
0.0
  0
LINE
  5
1EC
330
1F
100
AcDbEntity
  8
躯体
  6
Continuous
 62
     2
370
     9
100
AcDbLine
 10
-280.0000082479941
 20
497.716322359539
 30
0.0
 11
-280.0000082479941
 21
262.7163883434918
 31
0.0
  0
LINE
  5
1ED
330
1F
100
AcDbEntity
  8
躯体
  6
JWW_CENTER1
 62
     2
370
     9
100
AcDbLine
 10
-178.8979525179475
 20
441.614489325333
 30
0.0
 11
-273.0415055558487
 21
535.7579681312874
 31
0.0
  0
LINE
  5
1EE
330
1F
100
AcDbEntity
  8
躯体
  6
Continuous
 62
     2
370
     9
100
AcDbLine
 10
-268.0000428895692
 20
489.361071356583
 30
0.0
 11
-268.0000428895692
 21
314.1456172550205
 31
0.0
  0
LINE
  5
1EF
330
1F
100
AcDbEntity
  8
躯体
  6
Continuous
 62
     2
370
     9
100
AcDbLine
 10
-269.0000214447845
 20
489.361071356583
 30
0.0
 11
-269.0000214447845
 21
314.1456172550205
 31
0.0
  0
LINE
  5
1F0
330
1F
100
AcDbEntity
  8
躯体
  6
Continuous
 62
     2
370
     9
100
AcDbLine
 10
-257.0502368823902
 20
494.3108575685762
 30
0.0
 11
-268.9529583905194
 21
506.2135048447586
 31
0.0
  0
LINE
  5
1F1
330
1F
100
AcDbEntity
  8
躯体
  6
Continuous
 62
     2
370
     9
100
AcDbLine
 10
-226.6446087811444
 20
530.7165796969546
 30
0.0
 11
-51.42915467958187
 21
530.7167281608481
 31
0.0
  0
LINE
  5
1F2
330
1F
100
AcDbEntity
  8
躯体
  6
Continuous
 62
     2
370
     9
100
AcDbLine
 10
-226.6446087811444
 20
531.7164840202231
 30
0.0
 11
-51.42915467958187
 21
531.7166324841168
 31
0.0
  0
LINE
  5
1F3
330
1F
100
AcDbEntity
  8
躯体
  6
Continuous
 62
     2
370
     9
100
AcDbLine
 10
-231.5943207611908
 20
519.7667736897755
 30
0.0
 11
-243.4969680373733
 21
531.669420965958
 31
0.0
  0
LINE
  5
1F4
330
1F
100
AcDbEntity
  8
躯体
  6
JWW_CENTER1
 62
     2
370
     9
100
AcDbLine
 10
-258.8377421611064
 20
501.8786560799783
 30
0.0
 11
-239.5896210541595
 21
521.1268514188719
 31
0.0
  0
LINE
  5
1F5
330
1F
100
AcDbEntity
  8
躯体
  6
Continuous
 62
     2
370
     9
100
AcDbLine
 10
-242.0710465714737
 20
500.5450049239394
 30
0.0
 11
-237.8284681165541
 21
504.7876576108059
 31
0.0
  0
LINE
  5
1F6
330
1F
100
AcDbEntity
  8
躯体
  6
Continuous
 62
     2
370
     9
100
AcDbLine
 10
-227.0000313423775
 20
-299.7156151932482
 30
0.0
 11
-231.0000197951858
 21
-299.7156151932482
 31
0.0
  0
LINE
  5
1F7
330
1F
100
AcDbEntity
  8
躯体
  6
Continuous
 62
     2
370
     9
100
AcDbLine
 10
-225.0
 20
-329.7156399372304
 30
0.0
 11
-227.0000313423775
 21
-299.7156151932482
 31
0.0
  0
LINE
  5
1F8
330
1F
100
AcDbEntity
  8
躯体
  6
Continuous
 62
     2
370
     9
100
AcDbLine
 10
-232.20703125
 20
-319.027501542488
 30
0.0
 11
-231.0000197951858
 21
-299.7156151932482
 31
0.0
  0
LINE
  5
1F9
330
1F
100
AcDbEntity
  8
躯体
  6
Continuous
 62
     2
370
     9
100
AcDbLine
 10
-245.3293094119509
 20
-323.7156201420446
 30
0.0
 11
-237.1972738729941
 21
-323.7156201420446
 31
0.0
  0
LINE
  5
1FA
330
1F
100
AcDbEntity
  8
躯体
  6
Continuous
 62
     2
370
     9
100
AcDbLine
 10
-280.0000082479941
 20
-329.7156399372304
 30
0.0
 11
-279.0000296927786
 21
-322.7155673548825
 31
0.0
  0
LINE
  5
1FB
330
1F
100
AcDbEntity
  8
躯体
  6
Continuous
 62
     2
370
     9
100
AcDbLine
 10
0.0
 20
-329.7156399372304
 30
0.0
 11
-280.0000082479941
 21
-329.7156399372304
 31
0.0
  0
LINE
  5
1FC
330
1F
100
AcDbEntity
  8
躯体
  6
Continuous
 62
     2
370
     9
100
AcDbLine
 10
-265.6632954365498
 20
-322.7155673548825
 30
0.0
 11
-279.0000296927786
 21
-322.7155673548825
 31
0.0
  0
LINE
  5
1FD
330
1F
100
AcDbEntity
  8
躯体
  6
Continuous
 62
     2
370
     9
100
AcDbLine
 10
-260.675428235853
 20
-318.0635997134129
 30
0.0
 11
-257.9999604096283
 21
-279.71559869726
 31
0.0
  0
LINE
  5
1FE
330
1F
100
AcDbEntity
  8
躯体
  6
Continuous
 62
     2
370
     9
100
AcDbLine
 10
-252.9999934016047
 20
-279.71559869726
 30
0.0
 11
-257.9999604096283
 21
-279.71559869726
 31
0.0
  0
LINE
  5
1FF
330
1F
100
AcDbEntity
  8
躯体
  6
Continuous
 62
     2
370
     9
100
AcDbLine
 10
-250.3176962362753
 20
-319.0557839142152
 30
0.0
 11
-252.9999934016047
 21
-279.71559869726
 31
0.0
  0
LINE
  5
200
330
1F
100
AcDbEntity
  8
躯体
  6
Continuous
 62
     2
370
     9
100
AcDbLine
 10
-180.7932425834036
 20
447.7522836137621
 30
0.0
 11
-237.8284681165541
 21
504.7876576108059
 31
0.0
  0
LINE
  5
201
330
1F
100
AcDbEntity
  8
躯体
  6
Continuous
 62
     2
370
     9
100
AcDbLine
 10
-185.0358210383234
 20
443.509779390789
 30
0.0
 11
-242.0710465714737
 21
500.5450049239394
 31
0.0
  0
LINE
  5
202
330
1F
100
AcDbEntity
  8
躯体
  6
Continuous
 62
     2
370
     9
100
AcDbLine
 10
-188.7486060889991
 20
442.9799117545981
 30
0.0
 11
-242.0710465714737
 21
500.5450049239394
 31
0.0
  0
LINE
  5
203
330
1F
100
AcDbEntity
  8
躯体
  6
Continuous
 62
     2
370
     9
100
AcDbLine
 10
-237.8284681165541
 20
504.7876576108059
 30
0.0
 11
-180.2634491791595
 21
451.4650686644377
 31
0.0
  0
LINE
  5
204
330
1F
100
AcDbEntity
  8
躯体
  6
Continuous
 62
     2
370
     9
100
AcDbLine
 10
-180.7932425834036
 20
447.7522836137621
 30
0.0
 11
-180.2634491791595
 21
451.4650686644377
 31
0.0
  0
LINE
  5
205
330
1F
100
AcDbEntity
  8
躯体
  6
Continuous
 62
     2
370
     9
100
AcDbLine
 10
-185.0358210383234
 20
443.509779390789
 30
0.0
 11
-188.7486060889991
 21
442.9799117545981
 31
0.0
  0
LINE
  5
206
330
1F
100
AcDbEntity
  8
躯体
  6
Continuous
 62
     2
370
     9
100
AcDbLine
 10
-174.5328913508234
 20
464.1195370977147
 30
0.0
 11
-230.8872614680109
 21
520.4739072149022
 31
0.0
  0
LINE
  5
207
330
1F
100
AcDbEntity
  8
躯体
  6
Continuous
 62
     2
370
     9
100
AcDbLine
 10
-175.94708416913
 20
462.7052700474615
 30
0.0
 11
-243.7998343802786
 21
530.55802025861
 31
0.0
  0
LINE
  5
208
330
1F
100
AcDbEntity
  8
躯体
  6
Continuous
 62
     2
370
     9
100
AcDbLine
 10
-257.7574446394636
 20
493.6037240434496
 30
0.0
 11
-201.4030002903294
 21
437.2493539262621
 31
0.0
  0
LINE
  5
209
330
1F
100
AcDbEntity
  8
躯体
  6
Continuous
 62
     2
370
     9
100
AcDbLine
 10
-199.9887332400759
 20
438.6636209765153
 30
0.0
 11
-267.8414834512245
 21
506.516371187664
 31
0.0
  0
LINE
  5
20A
330
1F
100
AcDbEntity
  8
躯体
  6
Continuous
 62
     2
370
     9
100
AcDbLine
 10
234.9999340160473
 20
541.7162695723769
 30
0.0
 11
0.0
 21
541.7162695723769
 31
0.0
  0
LINE
  5
20B
330
1F
100
AcDbEntity
  8
躯体
  6
Continuous
 62
     2
370
     9
100
AcDbLine
 10
279.0001781566723
 20
497.716322359539
 30
0.0
 11
279.0001781566723
 21
262.7163883434918
 31
0.0
  0
LINE
  5
20C
330
1F
100
AcDbEntity
  8
躯体
  6
Continuous
 62
     2
370
     9
100
AcDbLine
 10
234.9999340160473
 20
542.716322359539
 30
0.0
 11
0.0
 21
542.716322359539
 31
0.0
  0
LINE
  5
20D
330
1F
100
AcDbEntity
  8
躯体
  6
Continuous
 62
     2
370
     9
100
AcDbLine
 10
279.9999340160473
 20
497.716322359539
 30
0.0
 11
279.9999340160473
 21
262.7163883434918
 31
0.0
  0
LINE
  5
20E
330
1F
100
AcDbEntity
  8
躯体
  6
JWW_CENTER1
 62
     2
370
     9
100
AcDbLine
 10
178.8981009818413
 20
441.614489325333
 30
0.0
 11
273.041431323902
 21
535.7579681312874
 31
0.0
  0
LINE
  5
20F
330
1F
100
AcDbEntity
  8
躯体
  6
Continuous
 62
     2
370
     9
100
AcDbLine
 10
268.000191353463
 20
489.361071356583
 30
0.0
 11
268.000191353463
 21
314.1456172550205
 31
0.0
  0
LINE
  5
210
330
1F
100
AcDbEntity
  8
躯体
  6
Continuous
 62
     2
370
     9
100
AcDbLine
 10
268.999947212838
 20
489.361071356583
 30
0.0
 11
268.999947212838
 21
314.1456172550205
 31
0.0
  0
LINE
  5
211
330
1F
100
AcDbEntity
  8
躯体
  6
Continuous
 62
     2
370
     9
100
AcDbLine
 10
257.0503853462839
 20
494.3108575685762
 30
0.0
 11
268.9530326224663
 21
506.2135048447586
 31
0.0
  0
LINE
  5
212
330
1F
100
AcDbEntity
  8
躯体
  6
Continuous
 62
     2
370
     9
100
AcDbLine
 10
226.6446830130913
 20
530.7165796969546
 30
0.0
 11
51.42930314347564
 21
530.7167281608481
 31
0.0
  0
LINE
  5
213
330
1F
100
AcDbEntity
  8
躯体
  6
Continuous
 62
     2
370
     9
100
AcDbLine
 10
226.6446830130913
 20
531.7164840202231
 30
0.0
 11
51.42930314347564
 21
531.7166324841168
 31
0.0
  0
LINE
  5
214
330
1F
100
AcDbEntity
  8
躯体
  6
Continuous
 62
     2
370
     9
100
AcDbLine
 10
231.5944692250845
 20
519.7667736897755
 30
0.0
 11
243.497116501267
 21
531.669420965958
 31
0.0
  0
LINE
  5
215
330
1F
100
AcDbEntity
  8
躯体
  6
JWW_CENTER1
 62
     2
370
     9
100
AcDbLine
 10
258.8378906250002
 20
501.8786560799783
 30
0.0
 11
239.589546822213
 21
521.1268514188719
 31
0.0
  0
LINE
  5
216
330
1F
100
AcDbEntity
  8
躯体
  6
Continuous
 62
     2
370
     9
100
AcDbLine
 10
242.070972339527
 20
500.5450049239394
 30
0.0
 11
237.8284681165541
 21
504.7876576108059
 31
0.0
  0
LINE
  5
217
330
1F
100
AcDbEntity
  8
躯体
  6
Continuous
 62
     2
370
     9
100
AcDbLine
 10
180.7933910472973
 20
447.7522836137621
 30
0.0
 11
237.8284681165541
 21
504.7876576108059
 31
0.0
  0
LINE
  5
218
330
1F
100
AcDbEntity
  8
躯体
  6
Continuous
 62
     2
370
     9
100
AcDbLine
 10
185.0358952702703
 20
443.509779390789
 30
0.0
 11
242.070972339527
 21
500.5450049239394
 31
0.0
  0
LINE
  5
219
330
1F
100
AcDbEntity
  8
躯体
  6
Continuous
 62
     2
370
     9
100
AcDbLine
 10
188.7486803209461
 20
442.9799117545981
 30
0.0
 11
242.070972339527
 21
500.5450049239394
 31
0.0
  0
LINE
  5
21A
330
1F
100
AcDbEntity
  8
躯体
  6
Continuous
 62
     2
370
     9
100
AcDbLine
 10
237.8284681165541
 20
504.7876576108059
 30
0.0
 11
180.263374947213
 21
451.4650686644377
 31
0.0
  0
LINE
  5
21B
330
1F
100
AcDbEntity
  8
躯体
  6
Continuous
 62
     2
370
     9
100
AcDbLine
 10
180.7933910472973
 20
447.7522836137621
 30
0.0
 11
180.263374947213
 21
451.4650686644377
 31
0.0
  0
LINE
  5
21C
330
1F
100
AcDbEntity
  8
躯体
  6
Continuous
 62
     2
370
     9
100
AcDbLine
 10
185.0358952702703
 20
443.509779390789
 30
0.0
 11
188.7486803209461
 21
442.9799117545981
 31
0.0
  0
LINE
  5
21D
330
1F
100
AcDbEntity
  8
躯体
  6
Continuous
 62
     2
370
     9
100
AcDbLine
 10
174.5329655827703
 20
464.1195370977147
 30
0.0
 11
230.8871872360642
 21
520.4739072149022
 31
0.0
  0
LINE
  5
21E
330
1F
100
AcDbEntity
  8
躯体
  6
Continuous
 62
     2
370
     9
100
AcDbLine
 10
175.9472326330238
 20
462.7052700474615
 30
0.0
 11
243.7999828441723
 21
530.55802025861
 31
0.0
  0
LINE
  5
21F
330
1F
100
AcDbEntity
  8
躯体
  6
Continuous
 62
     2
370
     9
100
AcDbLine
 10
257.757370407517
 20
493.6037240434496
 30
0.0
 11
201.4031487542231
 21
437.2493539262621
 31
0.0
  0
LINE
  5
220
330
1F
100
AcDbEntity
  8
躯体
  6
Continuous
 62
     2
370
     9
100
AcDbLine
 10
199.9888817039697
 20
438.6636209765153
 30
0.0
 11
267.8416319151183
 21
506.516371187664
 31
0.0
  0
LINE
  5
221
330
1F
100
AcDbEntity
  8
躯体
  6
Continuous
 62
     2
370
     9
100
AcDbLine
 10
279.9999340160473
 20
27.71645432744438
 30
0.0
 11
279.9999340160473
 21
262.7163883434918
 31
0.0
  0
LINE
  5
222
330
1F
100
AcDbEntity
  8
躯体
  6
Continuous
 62
     2
370
     9
100
AcDbLine
 10
-279.9999340160472
 20
27.71645432744438
 30
0.0
 11
-279.9999340160472
 21
262.7163883434918
 31
0.0
  0
LINE
  5
223
330
1F
100
AcDbEntity
  8
躯体
  6
JWW_CENTER1
 62
     2
370
     9
100
AcDbLine
 10
188.0001253695102
 20
522.1925252469969
 30
0.0
 11
188.0001253695102
 21
495.9466327480525
 31
0.0
  0
LINE
  5
224
330
1F
100
AcDbEntity
  8
躯体
  6
JWW_CENTER1
 62
     2
370
     9
100
AcDbLine
 10
175.2746911951014
 20
509.7163619499106
 30
0.0
 11
200.4981128589528
 21
509.7163619499106
 31
0.0
  0
LINE
  5
225
330
1F
100
AcDbEntity
  8
躯体
  6
Continuous
 62
     2
370
     9
100
AcDbLine
 10
-207.6483566696578
 20
-305.7155607564872
 30
0.0
 11
-226.5999953811233
 21
-305.7155607564872
 31
0.0
  0
LINE
  5
226
330
1F
100
AcDbEntity
  8
躯体
  6
Continuous
 62
     2
370
     9
100
AcDbLine
 10
-204.2500181455869
 20
-311.7155805516729
 30
0.0
 11
-226.2000336518158
 21
-311.7155805516729
 31
0.0
  0
LINE
  5
227
330
1F
100
AcDbEntity
  8
躯体
  6
Continuous
 62
     2
370
     9
100
AcDbLine
 10
227.0001055743244
 20
-299.7156151932482
 30
0.0
 11
231.0000197951859
 21
-299.7156151932482
 31
0.0
  0
LINE
  5
228
330
1F
100
AcDbEntity
  8
躯体
  6
Continuous
 62
     2
370
     9
100
AcDbLine
 10
225.0000000000002
 20
-329.7156399372304
 30
0.0
 11
227.0001055743244
 21
-299.7156151932482
 31
0.0
  0
LINE
  5
229
330
1F
100
AcDbEntity
  8
躯体
  6
Continuous
 62
     2
370
     9
100
AcDbLine
 10
232.2070312500002
 20
-319.027501542488
 30
0.0
 11
231.0000197951859
 21
-299.7156151932482
 31
0.0
  0
LINE
  5
22A
330
1F
100
AcDbEntity
  8
躯体
  6
Continuous
 62
     2
370
     9
100
AcDbLine
 10
245.3294578758447
 20
-323.7156201420446
 30
0.0
 11
237.1971996410473
 21
-323.7156201420446
 31
0.0
  0
LINE
  5
22B
330
1F
100
AcDbEntity
  8
躯体
  6
Continuous
 62
     2
370
     9
100
AcDbLine
 10
279.9999340160473
 20
-329.7156399372304
 30
0.0
 11
279.0001781566723
 21
-322.7155673548825
 31
0.0
  0
LINE
  5
22C
330
1F
100
AcDbEntity
  8
躯体
  6
Continuous
 62
     2
370
     9
100
AcDbLine
 10
265.6633696684967
 20
-322.7155673548825
 30
0.0
 11
279.0001781566723
 21
-322.7155673548825
 31
0.0
  0
LINE
  5
22D
330
1F
100
AcDbEntity
  8
躯体
  6
Continuous
 62
     2
370
     9
100
AcDbLine
 10
260.6755766997467
 20
-318.0635997134129
 30
0.0
 11
257.9999604096284
 21
-279.71559869726
 31
0.0
  0
LINE
  5
22E
330
1F
100
AcDbEntity
  8
躯体
  6
Continuous
 62
     2
370
     9
100
AcDbLine
 10
252.9999934016049
 20
-279.71559869726
 30
0.0
 11
257.9999604096284
 21
-279.71559869726
 31
0.0
  0
LINE
  5
22F
330
1F
100
AcDbEntity
  8
躯体
  6
Continuous
 62
     2
370
     9
100
AcDbLine
 10
250.3178447001691
 20
-319.0557839142152
 30
0.0
 11
252.9999934016049
 21
-279.71559869726
 31
0.0
  0
LINE
  5
230
330
1F
100
AcDbEntity
  8
躯体
  6
Continuous
 62
     2
370
     9
100
AcDbLine
 10
207.6484309016049
 20
-305.7155607564872
 30
0.0
 11
226.600143845017
 21
-305.7155607564872
 31
0.0
  0
LINE
  5
231
330
1F
100
AcDbEntity
  8
躯体
  6
Continuous
 62
     2
370
     9
100
AcDbLine
 10
204.671432907517
 20
-308.343520136766
 30
0.0
 11
201.9999736064191
 21
-329.7156399372304
 31
0.0
  0
LINE
  5
232
330
1F
100
AcDbEntity
  8
躯体
  6
Continuous
 62
     2
370
     9
100
AcDbLine
 10
-204.6715071394636
 20
-308.343520136766
 30
0.0
 11
-203.7499917520058
 21
-315.715643236428
 31
0.0
  0
LINE
  5
233
330
1F
100
AcDbEntity
  8
躯体
  6
Continuous
 62
     2
370
     9
100
AcDbLine
 10
-202.8749455632389
 20
-322.7155673548825
 30
0.0
 11
-201.9999736064189
 21
-329.7156399372304
 31
0.0
  0
LINE
  5
234
330
1F
100
AcDbEntity
  8
通り芯
  6
Continuous
 62
     3
370
     9
100
AcDbLine
 10
203.7500659839528
 20
-315.715643236428
 30
0.0
 11
201.4001794763514
 21
-315.715643236428
 31
0.0
  0
LINE
  5
235
330
1F
100
AcDbEntity
  8
通り芯
  6
Continuous
 62
     3
370
     9
100
AcDbLine
 10
192.4207862647805
 20
-322.7155673548825
 30
0.0
 11
202.8750197951859
 21
-322.7155673548825
 31
0.0
  0
LINE
  5
236
330
1F
100
AcDbEntity
  8
躯体
  6
Continuous
 62
     2
370
     9
100
AcDbLine
 10
-252.9955394847972
 20
264.2163932922881
 30
0.0
 11
-257.9763546505489
 21
266.2118222539647
 31
0.0
  0
LINE
  5
237
330
1F
100
AcDbEntity
  8
躯体
  6
Continuous
 62
     2
370
     9
100
AcDbLine
 10
-252.9999934016047
 20
262.7163883434918
 30
0.0
 11
-257.992240287162
 21
264.7164196858693
 31
0.0
  0
LINE
  5
238
330
1F
100
AcDbEntity
  8
躯体
  6
Continuous
 62
     2
370
     9
100
AcDbLine
 10
252.760669605152
 20
273.7163751467012
 30
0.0
 11
257.6724490603886
 21
275.7164064890787
 31
0.0
  0
LINE
  5
239
330
1F
100
AcDbEntity
  8
躯体
  6
Continuous
 62
     2
370
     9
100
AcDbLine
 10
252.6911885029561
 20
275.2163800954977
 30
0.0
 11
257.592575485642
 21
277.2123286808018
 31
0.0
  0
LINE
  5
23A
330
1F
100
AcDbEntity
  8
躯体
  6
Continuous
 62
     2
370
     9
100
AcDbLine
 10
-235.3497149493242
 20
-313.2155112685226
 30
0.0
 11
-234.5306396484375
 21
-300.1101579904399
 31
0.0
  0
LINE
  5
23B
330
1F
100
AcDbEntity
  8
躯体
  6
Continuous
 62
     2
370
     9
100
AcDbLine
 10
-223.6601133604306
 20
-297.2155574572895
 30
0.0
 11
-231.5000461887669
 21
-297.2155574572895
 31
0.0
  0
LINE
  5
23C
330
1F
100
AcDbEntity
  8
躯体
  6
Continuous
 62
     2
370
     9
100
AcDbLine
 10
-224.6276525548986
 20
-297.2155574572895
 30
0.0
 11
-227.1276360589105
 21
-299.7156151932482
 31
0.0
  0
LINE
  5
23D
330
1F
100
AcDbEntity
  8
躯体
  6
Continuous
 62
     2
370
     9
100
AcDbLine
 10
-226.7489046663852
 20
-297.2155574572895
 30
0.0
 11
-229.2488881703969
 21
-299.7156151932482
 31
0.0
  0
LINE
  5
23E
330
1F
100
AcDbEntity
  8
躯体
  6
Continuous
 62
     2
370
     9
100
AcDbLine
 10
-228.8701567778716
 20
-297.2155574572895
 30
0.0
 11
-231.370288745777
 21
-299.7156151932482
 31
0.0
  0
LINE
  5
23F
330
1F
100
AcDbEntity
  8
躯体
  6
Continuous
 62
     2
370
     9
100
AcDbLine
 10
-231.5088055584881
 20
-299.8542062379061
 30
0.0
 11
-234.7150318042652
 21
-303.0604324836831
 31
0.0
  0
LINE
  5
240
330
1F
100
AcDbEntity
  8
躯体
  6
Continuous
 62
     2
370
     9
100
AcDbLine
 10
-230.9914088893581
 20
-297.2155574572895
 30
0.0
 11
-234.5736941775759
 21
-300.7976942816139
 31
0.0
  0
LINE
  5
241
330
1F
100
AcDbEntity
  8
躯体
  6
Continuous
 62
     2
370
     9
100
AcDbLine
 10
-227.6132614548141
 20
-291.7160094473655
 30
0.0
 11
-234.3238294446791
 21
-298.426725901124
 31
0.0
  0
LINE
  5
242
330
1F
100
AcDbEntity
  8
躯体
  6
Continuous
 62
     2
370
     9
100
AcDbLine
 10
-229.7345135663006
 20
-291.7160094473655
 30
0.0
 11
-234.0269016575169
 21
-296.0083975385818
 31
0.0
  0
LINE
  5
243
330
1F
100
AcDbEntity
  8
躯体
  6
Continuous
 62
     2
370
     9
100
AcDbLine
 10
-223.6601133604306
 20
-297.2155574572895
 30
0.0
 11
-223.0934266786317
 21
-305.715634988434
 31
0.0
  0
LINE
  5
244
330
1F
100
AcDbEntity
  8
躯体
  6
Continuous
 62
     2
370
     9
100
AcDbLine
 10
-223.1902251372466
 20
-304.2634354133706
 30
0.0
 11
-224.6422020164695
 21
-305.715634988434
 31
0.0
  0
LINE
  5
245
330
1F
100
AcDbEntity
  8
躯体
  6
Continuous
 62
     2
370
     9
100
AcDbLine
 10
-231.843740102407
 20
-313.2155112685226
 30
0.0
 11
-235.3497149493242
 21
-313.2155112685226
 31
0.0
  0
LINE
  5
246
330
1F
100
AcDbEntity
  8
躯体
  6
Continuous
 62
     2
370
     9
100
AcDbLine
 10
-231.6824340820312
 20
-310.6344664786155
 30
0.0
 11
-234.2635531038852
 21
-313.2155112685226
 31
0.0
  0
LINE
  5
247
330
1F
100
AcDbEntity
  8
躯体
  6
Continuous
 62
     2
370
     9
100
AcDbLine
 10
-231.5410222233951
 20
-308.3715798126527
 30
0.0
 11
-235.2806792388091
 21
-312.1113110600133
 31
0.0
  0
LINE
  5
248
330
1F
100
AcDbEntity
  8
躯体
  6
Continuous
 62
     2
370
     9
100
AcDbLine
 10
-231.3996103647592
 20
-306.1086931466899
 30
0.0
 11
-235.1393416121198
 21
-309.8485728579441
 31
0.0
  0
LINE
  5
249
330
1F
100
AcDbEntity
  8
躯体
  6
Continuous
 62
     2
370
     9
100
AcDbLine
 10
-231.2581985061233
 20
-303.8462518724078
 30
0.0
 11
-234.997855521537
 21
-307.5859088878216
 31
0.0
  0
LINE
  5
24A
330
1F
100
AcDbEntity
  8
躯体
  6
Continuous
 62
     2
370
     9
100
AcDbLine
 10
-231.1167866474873
 20
-301.5833652064449
 30
0.0
 11
-234.856517894848
 21
-305.3231706857524
 31
0.0
  0
LINE
  5
24B
330
1F
100
AcDbEntity
  8
躯体
  6
Continuous
 62
     2
370
     9
100
AcDbLine
 10
-223.4553816511823
 20
-300.2860877043335
 30
0.0
 11
-226.7428176467483
 21
-303.5734494679526
 31
0.0
  0
LINE
  5
24C
330
1F
100
AcDbEntity
  8
躯体
  6
Continuous
 62
     2
370
     9
100
AcDbLine
 10
-223.5879599081503
 20
-298.2972653859213
 30
0.0
 11
-226.8753959037161
 21
-301.5845529175936
 31
0.0
  0
LINE
  5
24D
330
1F
100
AcDbEntity
  8
躯体
  6
Continuous
 62
     2
370
     9
100
AcDbLine
 10
-223.3228033942145
 20
-302.2748357907988
 30
0.0
 11
-226.6102393897803
 21
-305.5622717863647
 31
0.0
  0
LINE
  5
24E
330
1F
100
AcDbEntity
  8
躯体
  6
Continuous
 62
     2
370
     9
100
AcDbLine
 10
235.3497149493244
 20
-313.2155112685226
 30
0.0
 11
234.5307881123311
 21
-300.1101579904399
 31
0.0
  0
LINE
  5
24F
330
1F
100
AcDbEntity
  8
躯体
  6
Continuous
 62
     2
370
     9
100
AcDbLine
 10
223.6602618243244
 20
-297.2155574572895
 30
0.0
 11
231.500046188767
 21
-297.2155574572895
 31
0.0
  0
LINE
  5
250
330
1F
100
AcDbEntity
  8
躯体
  6
Continuous
 62
     2
370
     9
100
AcDbLine
 10
223.6602618243244
 20
-297.2155574572895
 30
0.0
 11
223.0934266786319
 21
-305.715634988434
 31
0.0
  0
LINE
  5
251
330
1F
100
AcDbEntity
  8
躯体
  6
Continuous
 62
     2
370
     9
100
AcDbLine
 10
231.8438885663008
 20
-313.2155112685226
 30
0.0
 11
235.3497149493244
 21
-313.2155112685226
 31
0.0
  0
LINE
  5
252
330
1F
100
AcDbEntity
  8
躯体
  6
Continuous
 62
     2
370
     9
100
AcDbLine
 10
234.2276248416386
 20
-313.2155112685226
 30
0.0
 11
235.2837969805744
 21
-312.1593391295869
 31
0.0
  0
LINE
  5
253
330
1F
100
AcDbEntity
  8
躯体
  6
Continuous
 62
     2
370
     9
100
AcDbLine
 10
232.106372730152
 20
-313.2155112685226
 30
0.0
 11
235.1590873099663
 21
-310.1627966887085
 31
0.0
  0
LINE
  5
254
330
1F
100
AcDbEntity
  8
躯体
  6
Continuous
 62
     2
370
     9
100
AcDbLine
 10
231.7346191406252
 20
-311.46608697851
 30
0.0
 11
235.0343776393581
 21
-308.1663284797769
 31
0.0
  0
LINE
  5
255
330
1F
100
AcDbEntity
  8
躯体
  6
Continuous
 62
     2
370
     9
100
AcDbLine
 10
231.6096125422299
 20
-309.4694703056848
 30
0.0
 11
234.909371040963
 21
-306.1697118069517
 31
0.0
  0
LINE
  5
256
330
1F
100
AcDbEntity
  8
躯体
  6
Continuous
 62
     2
370
     9
100
AcDbLine
 10
231.4849028716217
 20
-307.4729278648065
 30
0.0
 11
234.7846613703549
 21
-304.1731693660734
 31
0.0
  0
LINE
  5
257
330
1F
100
AcDbEntity
  8
躯体
  6
Continuous
 62
     2
370
     9
100
AcDbLine
 10
231.3601932010136
 20
-305.476385423928
 30
0.0
 11
234.6599516997467
 21
-302.1766269251949
 31
0.0
  0
LINE
  5
258
330
1F
100
AcDbEntity
  8
躯体
  6
Continuous
 62
     2
370
     9
100
AcDbLine
 10
231.2354835304055
 20
-303.4799172149965
 30
0.0
 11
234.532272751267
 21
-300.1829795302414
 31
0.0
  0
LINE
  5
259
330
1F
100
AcDbEntity
  8
躯体
  6
Continuous
 62
     2
370
     9
100
AcDbLine
 10
231.1104769320102
 20
-301.4833005421713
 30
0.0
 11
234.3018567884291
 21
-298.292069149646
 31
0.0
  0
LINE
  5
25A
330
1F
100
AcDbEntity
  8
躯体
  6
Continuous
 62
     2
370
     9
100
AcDbLine
 10
224.7568161423142
 20
-305.7155607564872
 30
0.0
 11
226.731979782517
 21
-303.7406940440716
 31
0.0
  0
LINE
  5
25B
330
1F
100
AcDbEntity
  8
躯体
  6
Continuous
 62
     2
370
     9
100
AcDbLine
 10
230.7568359375002
 20
-299.7156151932482
 30
0.0
 11
234.0711438978041
 21
-296.4012330009973
 31
0.0
  0
LINE
  5
25C
330
1F
100
AcDbEntity
  8
躯体
  6
Continuous
 62
     2
370
     9
100
AcDbLine
 10
223.1260887352197
 20
-305.2250360520953
 30
0.0
 11
226.8834129539697
 21
-301.4678602972389
 31
0.0
  0
LINE
  5
25D
330
1F
100
AcDbEntity
  8
躯体
  6
Continuous
 62
     2
370
     9
100
AcDbLine
 10
228.6355838260136
 20
-299.7156151932482
 30
0.0
 11
231.1357157939191
 21
-297.2155574572895
 31
0.0
  0
LINE
  5
25E
330
1F
100
AcDbEntity
  8
躯体
  6
Continuous
 62
     2
370
     9
100
AcDbLine
 10
231.4059200802366
 20
-296.9453531709719
 30
0.0
 11
233.7884686444258
 21
-294.5628046067828
 31
0.0
  0
LINE
  5
25F
330
1F
100
AcDbEntity
  8
躯体
  6
Continuous
 62
     2
370
     9
100
AcDbLine
 10
223.2778188344595
 20
-302.9522023052625
 30
0.0
 11
229.0144636824325
 21
-297.2155574572895
 31
0.0
  0
LINE
  5
260
330
1F
100
AcDbEntity
  8
躯体
  6
Continuous
 62
     2
370
     9
100
AcDbLine
 10
230.7114059860642
 20
-295.5186151536578
 30
0.0
 11
233.050900021115
 21
-293.1789726547135
 31
0.0
  0
LINE
  5
261
330
1F
100
AcDbEntity
  8
躯体
  6
Continuous
 62
     2
370
     9
100
AcDbLine
 10
223.4292520059122
 20
-300.6793685584298
 30
0.0
 11
226.8929146431589
 21
-297.2155574572895
 31
0.0
  0
LINE
  5
262
330
1F
100
AcDbEntity
  8
躯体
  6
Continuous
 62
     2
370
     9
100
AcDbLine
 10
229.7983530405406
 20
-294.3102675238014
 30
0.0
 11
231.8934755067569
 21
-292.2149965936916
 31
0.0
  0
LINE
  5
263
330
1F
100
AcDbEntity
  8
躯体
  6
Continuous
 62
     2
370
     9
100
AcDbLine
 10
223.580685177365
 20
-298.4064605796502
 30
0.0
 11
224.7716625316723
 21
-297.2155574572895
 31
0.0
  0
LINE
  5
264
330
1F
100
AcDbEntity
  8
躯体
  6
Continuous
 62
     2
370
     9
100
AcDbLine
 10
228.6839830553211
 20
-293.303236933641
 30
0.0
 11
230.260372677365
 21
-291.7269957754905
 31
0.0
  0
LINE
  5
265
330
1F
100
AcDbEntity
  8
躯体
  6
Continuous
 62
     2
370
     9
100
AcDbLine
 10
227.3623574746622
 20
-292.5036104028132
 30
0.0
 11
228.1504038217906
 21
-291.7155640556848
 31
0.0
  0
LINE
  5
266
330
1F
100
AcDbEntity
  8
躯体
  6
Continuous
 62
     2
370
     9
100
AcDbLine
 10
225.799923458615
 20
-291.9446438434804
 30
0.0
 11
226.028854782517
 21
-291.7155640556848
 31
0.0
  0
LINE
  5
267
330
1F
100
AcDbEntity
  8
躯体
  6
Continuous
 62
     2
370
     9
100
AcDbLine
 10
223.9073057432433
 20
-291.7160094473655
 30
0.0
 11
223.9076026710305
 21
-291.7155640556848
 31
0.0
  0
LINE
  5
268
330
1F
100
AcDbEntity
  8
通り芯
  6
Continuous
 62
     3
370
     9
100
AcDbLine
 10
233.5001517630913
 20
262.7163883434918
 30
0.0
 11
233.5001517630913
 21
267.7163553515153
 31
0.0
  0
LINE
  5
269
330
1F
100
AcDbEntity
  8
通り芯
  6
Continuous
 62
     3
370
     9
100
AcDbLine
 10
-233.5000032991977
 20
267.7163553515153
 30
0.0
 11
-233.5000032991977
 21
262.7163883434918
 31
0.0
  0
LINE
  5
26A
330
1F
100
AcDbEntity
  8
通り芯
  6
JWW_CENTER1
 62
     3
370
     9
100
AcDbLine
 10
-138.0000098975928
 20
281.4626272581877
 30
0.0
 11
-138.0000098975928
 21
262.7163883434918
 31
0.0
  0
LINE
  5
26B
330
1F
100
AcDbEntity
  8
通り芯
  6
Continuous
 62
     3
370
     9
100
AcDbLine
 10
-102.9999439136402
 20
271.7164180362705
 30
0.0
 11
-102.9999439136402
 21
262.7163883434918
 31
0.0
  0
LINE
  5
26C
330
1F
100
AcDbEntity
  8
通り芯
  6
Continuous
 62
     3
370
     9
100
AcDbLine
 10
-173.0000758815456
 20
271.7164180362705
 30
0.0
 11
-173.0000758815456
 21
262.7163883434918
 31
0.0
  0
LINE
  5
26D
330
1F
100
AcDbEntity
  8
通り芯
  6
Continuous
 62
     3
370
     9
100
AcDbLine
 10
-132.5000164959881
 20
277.7162893675627
 30
0.0
 11
-132.5000164959881
 21
262.7163883434918
 31
0.0
  0
LINE
  5
26E
330
1F
100
AcDbEntity
  8
通り芯
  6
Continuous
 62
     3
370
     9
100
AcDbLine
 10
-143.5000032991975
 20
277.7162893675627
 30
0.0
 11
-143.5000032991975
 21
262.7163883434918
 31
0.0
  0
LINE
  5
26F
330
1F
100
AcDbEntity
  8
通り芯
  6
Continuous
 62
     3
370
     9
100
AcDbLine
 10
-110.0000164959881
 20
277.7162893675627
 30
0.0
 11
-110.0000164959881
 21
262.7163883434918
 31
0.0
  0
LINE
  5
270
330
1F
100
AcDbEntity
  8
通り芯
  6
Continuous
 62
     3
370
     9
100
AcDbLine
 10
-166.0000032991975
 20
277.7162893675627
 30
0.0
 11
-166.0000032991975
 21
262.7163883434918
 31
0.0
  0
LINE
  5
271
330
1F
100
AcDbEntity
  8
通り芯
  6
JWW_CENTER1
 62
     3
370
     9
100
AcDbLine
 10
138.0001583614866
 20
281.4626272581877
 30
0.0
 11
138.0001583614866
 21
262.7163883434918
 31
0.0
  0
LINE
  5
272
330
1F
100
AcDbEntity
  8
通り芯
  6
Continuous
 62
     3
370
     9
100
AcDbLine
 10
103.0000923775339
 20
271.7164180362705
 30
0.0
 11
103.0000923775339
 21
262.7163883434918
 31
0.0
  0
LINE
  5
273
330
1F
100
AcDbEntity
  8
通り芯
  6
Continuous
 62
     3
370
     9
100
AcDbLine
 10
173.0002243454392
 20
271.7164180362705
 30
0.0
 11
173.0002243454392
 21
262.7163883434918
 31
0.0
  0
LINE
  5
274
330
1F
100
AcDbEntity
  8
通り芯
  6
Continuous
 62
     3
370
     9
100
AcDbLine
 10
132.5001649598819
 20
277.7162893675627
 30
0.0
 11
132.5001649598819
 21
262.7163883434918
 31
0.0
  0
LINE
  5
275
330
1F
100
AcDbEntity
  8
通り芯
  6
Continuous
 62
     3
370
     9
100
AcDbLine
 10
143.5001517630913
 20
277.7162893675627
 30
0.0
 11
143.5001517630913
 21
262.7163883434918
 31
0.0
  0
LINE
  5
276
330
1F
100
AcDbEntity
  8
通り芯
  6
Continuous
 62
     3
370
     9
100
AcDbLine
 10
110.0001649598819
 20
277.7162893675627
 30
0.0
 11
110.0001649598819
 21
262.7163883434918
 31
0.0
  0
LINE
  5
277
330
1F
100
AcDbEntity
  8
通り芯
  6
Continuous
 62
     3
370
     9
100
AcDbLine
 10
166.0001517630913
 20
277.7162893675627
 30
0.0
 11
166.0001517630913
 21
262.7163883434918
 31
0.0
  0
LINE
  5
278
330
1F
100
AcDbEntity
  8
通り芯
  6
Continuous
 62
     3
370
     9
100
AcDbLine
 10
-209.9999505120355
 20
271.7164180362705
 30
0.0
 11
-209.9999505120355
 21
262.7163883434918
 31
0.0
  0
LINE
  5
279
330
1F
100
AcDbEntity
  8
通り芯
  6
Continuous
 62
     3
370
     9
100
AcDbLine
 10
-203.9999307168495
 20
271.7164180362705
 30
0.0
 11
-203.9999307168495
 21
262.7163883434918
 31
0.0
  0
LINE
  5
27A
330
1F
100
AcDbEntity
  8
通り芯
  6
Continuous
 62
     3
370
     9
100
AcDbLine
 10
-71.9999406144425
 20
271.7164180362705
 30
0.0
 11
-71.9999406144425
 21
262.7163883434918
 31
0.0
  0
LINE
  5
27B
330
1F
100
AcDbEntity
  8
通り芯
  6
Continuous
 62
     3
370
     9
100
AcDbLine
 10
210.0000989759291
 20
271.7164180362705
 30
0.0
 11
210.0000989759291
 21
262.7163883434918
 31
0.0
  0
LINE
  5
27C
330
1F
100
AcDbEntity
  8
通り芯
  6
Continuous
 62
     3
370
     9
100
AcDbLine
 10
204.0000791807433
 20
271.7164180362705
 30
0.0
 11
204.0000791807433
 21
262.7163883434918
 31
0.0
  0
LINE
  5
27D
330
1F
100
AcDbEntity
  8
通り芯
  6
Continuous
 62
     3
370
     9
100
AcDbLine
 10
72.00023754222985
 20
271.7164180362705
 30
0.0
 11
72.00023754222985
 21
262.7163883434918
 31
0.0
  0
LINE
  5
27E
330
1F
100
AcDbEntity
  8
仕上
  6
Continuous
 62
     3
370
     9
100
AcDbLine
 10
74.00004618876704
 20
233.2714700976091
 30
0.0
 11
74.00004618876704
 21
262.7163883434918
 31
0.0
  0
LINE
  5
27F
330
1F
100
AcDbEntity
  8
仕上
  6
Continuous
 62
     3
370
     9
100
AcDbLine
 10
127.7089381862331
 20
199.3758270180061
 30
0.0
 11
76.50017815667235
 21
228.9413721774233
 31
0.0
  0
LINE
  5
280
330
1F
100
AcDbEntity
  8
仕上
  6
Continuous
 62
     3
370
     9
100
AcDbLine
 10
118.7090569573481
 20
183.787340887833
 30
0.0
 11
67.49992576805329
 21
213.3528860472502
 31
0.0
  0
LINE
  5
281
330
1F
100
AcDbEntity
  8
仕上
  6
Continuous
 62
     3
370
     9
100
AcDbLine
 10
193.4431086359799
 20
219.5104260335255
 30
0.0
 11
140.9952689505913
 21
183.8223783667181
 31
0.0
  0
LINE
  5
282
330
1F
100
AcDbEntity
  8
仕上
  6
Continuous
 62
     3
370
     9
100
AcDbLine
 10
196.6309253589528
 20
219.628232133082
 30
0.0
 11
211.7519729201859
 21
210.898035566887
 31
0.0
  0
LINE
  5
283
330
1F
100
AcDbEntity
  8
仕上
  6
Continuous
 62
     3
370
     9
100
AcDbLine
 10
131.5001121727197
 20
107.1204377786691
 30
0.0
 11
144.587204391892
 21
99.56451637875361
 31
0.0
  0
LINE
  5
284
330
1F
100
AcDbEntity
  8
仕上
  6
Continuous
 62
     3
370
     9
100
AcDbLine
 10
135.6309715477197
 20
113.9730857146911
 30
0.0
 11
150.7520191089528
 21
105.2429633804427
 31
0.0
  0
LINE
  5
285
330
1F
100
AcDbEntity
  8
仕上
  6
Continuous
 62
     3
370
     9
100
AcDbLine
 10
125.8608596389359
 20
116.7925635176894
 30
0.0
 11
121.1952333192569
 21
179.8263242070897
 31
0.0
  0
LINE
  5
286
330
1F
100
AcDbEntity
  8
仕上
  6
Continuous
 62
     3
370
     9
100
AcDbLine
 10
66.4998729808911
 20
80.56225147957704
 30
0.0
 11
124.3690944362331
 21
113.9730857146911
 31
0.0
  0
LINE
  5
287
330
1F
100
AcDbEntity
  8
仕上
  6
Continuous
 62
     3
370
     9
100
AcDbLine
 10
70.50015836148657
 20
73.63410965366907
 30
0.0
 11
128.4999538112331
 21
107.1204377786691
 31
0.0
  0
LINE
  5
288
330
1F
100
AcDbEntity
  8
仕上
  6
Continuous
 62
     3
370
     9
100
AcDbLine
 10
69.00007918074328
 20
71.03599151600017
 30
0.0
 11
69.00007918074328
 21
55.92414871616907
 31
0.0
  0
LINE
  5
289
330
1F
100
AcDbEntity
  8
仕上
  6
Continuous
 62
     3
370
     9
100
AcDbLine
 10
60.99987957928641
 20
71.03599151600017
 30
0.0
 11
60.99987957928641
 21
53.42461060383798
 31
0.0
  0
LINE
  5
28A
330
1F
100
AcDbEntity
  8
仕上
  6
Continuous
 62
     3
370
     9
100
AcDbLine
 10
75.00009897592906
 20
233.2714700976091
 30
0.0
 11
75.00009897592906
 21
262.7163883434918
 31
0.0
  0
LINE
  5
28B
330
1F
100
AcDbEntity
  8
仕上
  6
Continuous
 62
     3
370
     9
100
AcDbLine
 10
128.2089645798142
 20
200.2418911412113
 30
0.0
 11
76.99990762246625
 21
229.8074363006286
 31
0.0
  0
LINE
  5
28C
330
1F
100
AcDbEntity
  8
仕上
  6
Continuous
 62
     3
370
     9
100
AcDbLine
 10
124.8637761296453
 20
116.7187769625795
 30
0.0
 11
120.1981498099663
 21
179.7525376519798
 31
0.0
  0
LINE
  5
28D
330
1F
100
AcDbEntity
  8
仕上
  6
Continuous
 62
     3
370
     9
100
AcDbLine
 10
65.99984658731
 20
81.42831560278219
 30
0.0
 11
123.869068042652
 21
114.8390756059495
 31
0.0
  0
LINE
  5
28E
330
1F
100
AcDbEntity
  8
仕上
  6
Continuous
 62
     3
370
     9
100
AcDbLine
 10
118.209030563767
 20
182.9213509965745
 30
0.0
 11
66.9998993744722
 21
212.4868961559917
 31
0.0
  0
LINE
  5
28F
330
1F
100
AcDbEntity
  8
仕上
  6
Continuous
 62
     3
370
     9
100
AcDbLine
 10
11.29105026657533
 20
183.7874151197797
 30
0.0
 11
62.4999587600297
 21
213.3528860472502
 31
0.0
  0
LINE
  5
290
330
1F
100
AcDbEntity
  8
仕上
  6
Continuous
 62
     3
370
     9
100
AcDbLine
 10
62.99998515361079
 20
212.4868961559917
 30
0.0
 11
11.79107666015625
 21
182.9213509965745
 31
0.0
  0
LINE
  5
291
330
1F
100
AcDbEntity
  8
仕上
  6
Continuous
 62
     3
370
     9
100
AcDbLine
 10
196.6243929476352
 20
218.5865352237705
 30
0.0
 11
211.7519729201859
 21
210.898035566887
 31
0.0
  0
LINE
  5
292
330
1F
100
AcDbEntity
  8
仕上
  6
Continuous
 62
     3
370
     9
100
AcDbLine
 10
134.1389094172299
 20
116.7925635176894
 30
0.0
 11
138.8217575485642
 21
180.0577051852358
 31
0.0
  0
LINE
  5
293
330
1F
100
AcDbEntity
  8
仕上
  6
Continuous
 62
     3
370
     9
100
AcDbLine
 10
141.9570180532095
 20
183.2671976366716
 30
0.0
 11
193.5776169235642
 21
218.3923444509664
 31
0.0
  0
LINE
  5
294
330
1F
100
AcDbEntity
  8
仕上
  6
Continuous
 62
     3
370
     9
100
AcDbLine
 10
136.5297719594595
 20
114.4995386813295
 30
0.0
 11
150.7520191089528
 21
105.2429633804427
 31
0.0
  0
LINE
  5
295
330
1F
100
AcDbEntity
  8
仕上
  6
Continuous
 62
     3
370
     9
100
AcDbLine
 10
135.1745935388514
 20
117.2352828483481
 30
0.0
 11
139.7835066511825
 21
179.5025244551894
 31
0.0
  0
LINE
  5
296
330
1F
100
AcDbEntity
  8
仕上
  6
Continuous
 62
     3
370
     9
100
AcDbLine
 10
131.4422112542231
 20
106.113258724615
 30
0.0
 11
144.587204391892
 21
99.56451637875361
 31
0.0
  0
LINE
  5
297
330
1F
100
AcDbEntity
  8
仕上
  6
Continuous
 62
     3
370
     9
100
AcDbLine
 10
71.39569256756766
 20
72.99638299879157
 30
0.0
 11
128.6044723923142
 21
106.026110419083
 31
0.0
  0
LINE
  5
298
330
1F
100
AcDbEntity
  8
仕上
  6
Continuous
 62
     3
370
     9
100
AcDbLine
 10
69.90125501478047
 20
70.58243432111001
 30
0.0
 11
69.00007918074328
 21
55.92414871616907
 31
0.0
  0
LINE
  5
299
330
1F
100
AcDbEntity
  8
仕上
  6
Continuous
 62
     3
370
     9
100
AcDbLine
 10
60.08652970597564
 20
70.56580636502892
 30
0.0
 11
60.99987957928641
 21
53.42461060383798
 31
0.0
  0
LINE
  5
29A
330
1F
100
AcDbEntity
  8
仕上
  6
Continuous
 62
     3
370
     9
100
AcDbLine
 10
-73.99989772487328
 20
233.2714700976091
 30
0.0
 11
-73.99989772487328
 21
262.7163883434918
 31
0.0
  0
LINE
  5
29B
330
1F
100
AcDbEntity
  8
仕上
  6
Continuous
 62
     3
370
     9
100
AcDbLine
 10
-127.7088639542862
 20
199.3758270180061
 30
0.0
 11
-76.49995546083187
 21
228.9413721774233
 31
0.0
  0
LINE
  5
29C
330
1F
100
AcDbEntity
  8
仕上
  6
Continuous
 62
     3
370
     9
100
AcDbLine
 10
-118.7089084934544
 20
183.787340887833
 30
0.0
 11
-67.49992576805312
 21
213.3528860472502
 31
0.0
  0
LINE
  5
29D
330
1F
100
AcDbEntity
  8
仕上
  6
Continuous
 62
     3
370
     9
100
AcDbLine
 10
-193.4431086359797
 20
219.5104260335255
 30
0.0
 11
-140.9952689505911
 21
183.8223783667181
 31
0.0
  0
LINE
  5
29E
330
1F
100
AcDbEntity
  8
仕上
  6
Continuous
 62
     3
370
     9
100
AcDbLine
 10
-196.6307768950591
 20
219.628232133082
 30
0.0
 11
-211.7518986882389
 21
210.898035566887
 31
0.0
  0
LINE
  5
29F
330
1F
100
AcDbEntity
  8
仕上
  6
Continuous
 62
     3
370
     9
100
AcDbLine
 10
-131.4999637088259
 20
107.1204377786691
 30
0.0
 11
-144.5872043918919
 21
99.56451637875361
 31
0.0
  0
LINE
  5
2A0
330
1F
100
AcDbEntity
  8
仕上
  6
Continuous
 62
     3
370
     9
100
AcDbLine
 10
-135.6307488518792
 20
113.9730857146911
 30
0.0
 11
-150.7518706450591
 21
105.2429633804427
 31
0.0
  0
LINE
  5
2A1
330
1F
100
AcDbEntity
  8
仕上
  6
Continuous
 62
     3
370
     9
100
AcDbLine
 10
-125.8609338708825
 20
116.7925635176894
 30
0.0
 11
-121.1952333192567
 21
179.8263242070897
 31
0.0
  0
LINE
  5
2A2
330
1F
100
AcDbEntity
  8
仕上
  6
Continuous
 62
     3
370
     9
100
AcDbLine
 10
-66.49994721283781
 20
80.56225147957704
 30
0.0
 11
-124.3691686681798
 21
113.9730857146911
 31
0.0
  0
LINE
  5
2A3
330
1F
100
AcDbEntity
  8
仕上
  6
Continuous
 62
     3
370
     9
100
AcDbLine
 10
-70.49993566564609
 20
73.63410965366907
 30
0.0
 11
-128.499953811233
 21
107.1204377786691
 31
0.0
  0
LINE
  5
2A4
330
1F
100
AcDbEntity
  8
仕上
  6
Continuous
 62
     3
370
     9
100
AcDbLine
 10
-68.99993071684952
 20
71.03599151600017
 30
0.0
 11
-68.99993071684952
 21
55.92414871616907
 31
0.0
  0
LINE
  5
2A5
330
1F
100
AcDbEntity
  8
仕上
  6
Continuous
 62
     3
370
     9
100
AcDbLine
 10
-60.99995381123296
 20
71.03599151600017
 30
0.0
 11
-60.99995381123296
 21
53.42461060383798
 31
0.0
  0
LINE
  5
2A6
330
1F
100
AcDbEntity
  8
仕上
  6
Continuous
 62
     3
370
     9
100
AcDbLine
 10
-74.99995051203547
 20
233.2714700976091
 30
0.0
 11
-74.99995051203547
 21
262.7163883434918
 31
0.0
  0
LINE
  5
2A7
330
1F
100
AcDbEntity
  8
仕上
  6
Continuous
 62
     3
370
     9
100
AcDbLine
 10
-128.2088903478673
 20
200.2418911412113
 30
0.0
 11
-76.99990762246608
 21
229.8074363006286
 31
0.0
  0
LINE
  5
2A8
330
1F
100
AcDbEntity
  8
仕上
  6
Continuous
 62
     3
370
     9
100
AcDbLine
 10
-124.8637018976984
 20
116.7187769625795
 30
0.0
 11
-120.1980013460725
 21
179.7525376519798
 31
0.0
  0
LINE
  5
2A9
330
1F
100
AcDbEntity
  8
仕上
  6
Continuous
 62
     3
370
     9
100
AcDbLine
 10
-65.99992081925672
 20
81.42831560278219
 30
0.0
 11
-123.8691422745987
 21
114.8390756059495
 31
0.0
  0
LINE
  5
2AA
330
1F
100
AcDbEntity
  8
仕上
  6
Continuous
 62
     3
370
     9
100
AcDbLine
 10
-118.2088820998733
 20
182.9213509965745
 30
0.0
 11
-66.99989937447202
 21
212.4868961559917
 31
0.0
  0
LINE
  5
2AB
330
1F
100
AcDbEntity
  8
仕上
  6
Continuous
 62
     3
370
     9
100
AcDbLine
 10
-11.29105026657516
 20
183.7874151197797
 30
0.0
 11
-62.49988452808265
 21
213.3528860472502
 31
0.0
  0
LINE
  5
2AC
330
1F
100
AcDbEntity
  8
仕上
  6
Continuous
 62
     3
370
     9
100
AcDbLine
 10
-62.99991092166374
 20
212.4868961559917
 30
0.0
 11
-11.79107666015625
 21
182.9213509965745
 31
0.0
  0
LINE
  5
2AD
330
1F
100
AcDbEntity
  8
仕上
  6
Continuous
 62
     3
370
     9
100
AcDbLine
 10
-196.624392947635
 20
218.5865352237705
 30
0.0
 11
-211.7518986882389
 21
210.898035566887
 31
0.0
  0
LINE
  5
2AE
330
1F
100
AcDbEntity
  8
仕上
  6
Continuous
 62
     3
370
     9
100
AcDbLine
 10
-134.1389094172297
 20
116.7925635176894
 30
0.0
 11
-138.8217575485641
 21
180.0577051852358
 31
0.0
  0
LINE
  5
2AF
330
1F
100
AcDbEntity
  8
仕上
  6
Continuous
 62
     3
370
     9
100
AcDbLine
 10
-141.9569438212627
 20
183.2671976366716
 30
0.0
 11
-193.5774684596706
 21
218.3923444509664
 31
0.0
  0
LINE
  5
2B0
330
1F
100
AcDbEntity
  8
仕上
  6
Continuous
 62
     3
370
     9
100
AcDbLine
 10
-136.5297719594594
 20
114.4995386813295
 30
0.0
 11
-150.7518706450591
 21
105.2429633804427
 31
0.0
  0
LINE
  5
2B1
330
1F
100
AcDbEntity
  8
仕上
  6
Continuous
 62
     3
370
     9
100
AcDbLine
 10
-135.1744450749576
 20
117.2352828483481
 30
0.0
 11
-139.7834324192356
 21
179.5025244551894
 31
0.0
  0
LINE
  5
2B2
330
1F
100
AcDbEntity
  8
仕上
  6
Continuous
 62
     3
370
     9
100
AcDbLine
 10
-131.442211254223
 20
106.113258724615
 30
0.0
 11
-144.5872043918919
 21
99.56451637875361
 31
0.0
  0
LINE
  5
2B3
330
1F
100
AcDbEntity
  8
仕上
  6
Continuous
 62
     3
370
     9
100
AcDbLine
 10
-71.39546987172719
 20
72.99638299879157
 30
0.0
 11
-128.6044723923141
 21
106.026110419083
 31
0.0
  0
LINE
  5
2B4
330
1F
100
AcDbEntity
  8
仕上
  6
Continuous
 62
     3
370
     9
100
AcDbLine
 10
-69.90110655088671
 20
70.58243432111001
 30
0.0
 11
-68.99993071684952
 21
55.92414871616907
 31
0.0
  0
LINE
  5
2B5
330
1F
100
AcDbEntity
  8
仕上
  6
Continuous
 62
     3
370
     9
100
AcDbLine
 10
-60.08652970597547
 20
70.56580636502892
 30
0.0
 11
-60.99995381123296
 21
53.42461060383798
 31
0.0
  0
LINE
  5
2B6
330
1F
100
AcDbEntity
  8
仕上
  6
Continuous
 62
     3
370
     9
100
AcDbLine
 10
124.3999749260981
 20
242.2163454539225
 30
0.0
 11
150.3176137563345
 21
242.2163454539225
 31
0.0
  0
LINE
  5
2B7
330
1F
100
AcDbEntity
  8
仕上
  6
Continuous
 62
     3
370
     9
100
AcDbLine
 10
150.3176137563345
 20
242.2163454539225
 30
0.0
 11
150.3176137563345
 21
262.7163883434918
 31
0.0
  0
LINE
  5
2B8
330
1F
100
AcDbEntity
  8
仕上
  6
Continuous
 62
     3
370
     9
100
AcDbLine
 10
124.3999749260981
 20
242.2163454539225
 30
0.0
 11
124.3999749260981
 21
262.7163883434918
 31
0.0
  0
LINE
  5
2B9
330
1F
100
AcDbEntity
  8
仕上
  6
Continuous
 62
     3
370
     9
100
AcDbLine
 10
124.3999749260981
 20
242.2163454539225
 30
0.0
 11
103.2046756228886
 21
240.2163883434917
 31
0.0
  0
LINE
  5
2BA
330
1F
100
AcDbEntity
  8
仕上
  6
Continuous
 62
     3
370
     9
100
AcDbLine
 10
150.3176137563345
 20
242.2163454539225
 30
0.0
 11
172.6142182221284
 21
240.2163883434917
 31
0.0
  0
LINE
  5
2BB
330
1F
100
AcDbEntity
  8
仕上
  6
Continuous
 62
     3
370
     9
100
AcDbLine
 10
172.6145151499156
 20
240.2163883434917
 30
0.0
 11
172.6145151499156
 21
262.7163883434918
 31
0.0
  0
LINE
  5
2BC
330
1F
100
AcDbEntity
  8
仕上
  6
Continuous
 62
     3
370
     9
100
AcDbLine
 10
103.2046756228886
 20
240.2163883434917
 30
0.0
 11
172.6145151499156
 21
240.2163883434917
 31
0.0
  0
LINE
  5
2BD
330
1F
100
AcDbEntity
  8
仕上
  6
Continuous
 62
     3
370
     9
100
AcDbLine
 10
103.2046756228886
 20
240.2163883434917
 30
0.0
 11
103.2046756228886
 21
262.7163883434918
 31
0.0
  0
LINE
  5
2BE
330
1F
100
AcDbEntity
  8
仕上
  6
Continuous
 62
     3
370
     9
100
AcDbLine
 10
-124.3999006941511
 20
242.2163454539225
 30
0.0
 11
-150.3176137563344
 21
242.2163454539225
 31
0.0
  0
LINE
  5
2BF
330
1F
100
AcDbEntity
  8
仕上
  6
Continuous
 62
     3
370
     9
100
AcDbLine
 10
-150.3176137563344
 20
242.2163454539225
 30
0.0
 11
-150.3176137563344
 21
262.7163883434918
 31
0.0
  0
LINE
  5
2C0
330
1F
100
AcDbEntity
  8
仕上
  6
Continuous
 62
     3
370
     9
100
AcDbLine
 10
-124.3999006941511
 20
242.2163454539225
 30
0.0
 11
-124.3999006941511
 21
262.7163883434918
 31
0.0
  0
LINE
  5
2C1
330
1F
100
AcDbEntity
  8
仕上
  6
Continuous
 62
     3
370
     9
100
AcDbLine
 10
-124.3999006941511
 20
242.2163454539225
 30
0.0
 11
-103.2046756228884
 21
240.2163883434917
 31
0.0
  0
LINE
  5
2C2
330
1F
100
AcDbEntity
  8
仕上
  6
Continuous
 62
     3
370
     9
100
AcDbLine
 10
-150.3176137563344
 20
242.2163454539225
 30
0.0
 11
-172.6142924540752
 21
240.2163883434917
 31
0.0
  0
LINE
  5
2C3
330
1F
100
AcDbEntity
  8
仕上
  6
Continuous
 62
     3
370
     9
100
AcDbLine
 10
-172.6143666860219
 20
240.2163883434917
 30
0.0
 11
-172.6143666860219
 21
262.7163883434918
 31
0.0
  0
LINE
  5
2C4
330
1F
100
AcDbEntity
  8
仕上
  6
Continuous
 62
     3
370
     9
100
AcDbLine
 10
-103.2046013909417
 20
240.2163883434917
 30
0.0
 11
-172.6143666860219
 21
240.2163883434917
 31
0.0
  0
LINE
  5
2C5
330
1F
100
AcDbEntity
  8
仕上
  6
Continuous
 62
     3
370
     9
100
AcDbLine
 10
-103.2046013909417
 20
240.2163883434917
 30
0.0
 11
-103.2046013909417
 21
262.7163883434918
 31
0.0
  0
LINE
  5
2C6
330
1F
100
AcDbEntity
  8
仕上
  6
Continuous
 62
     3
370
     9
100
AcDbLine
 10
189.7879275760136
 20
257.7163471035212
 30
0.0
 11
189.7879275760136
 21
262.7163883434918
 31
0.0
  0
LINE
  5
2C7
330
1F
100
AcDbEntity
  8
仕上
  6
Continuous
 62
     3
370
     9
100
AcDbLine
 10
188.7878747888514
 20
248.7163916426894
 30
0.0
 11
200.1423933699325
 21
248.7163916426894
 31
0.0
  0
LINE
  5
2C8
330
1F
100
AcDbEntity
  8
仕上
  6
Continuous
 62
     3
370
     9
100
AcDbLine
 10
201.4001794763514
 20
254.1039978768533
 30
0.0
 11
200.1423933699325
 21
248.7163916426894
 31
0.0
  0
LINE
  5
2C9
330
1F
100
AcDbEntity
  8
仕上
  6
Continuous
 62
     3
370
     9
100
AcDbLine
 10
188.7878747888514
 20
229.2163273083355
 30
0.0
 11
213.9082625105575
 21
229.2163273083355
 31
0.0
  0
LINE
  5
2CA
330
1F
100
AcDbEntity
  8
仕上
  6
Continuous
 62
     3
370
     9
100
AcDbLine
 10
185.788013355152
 20
232.2163372059285
 30
0.0
 11
185.788013355152
 21
251.7164015402822
 31
0.0
  0
LINE
  5
2CB
330
1F
100
AcDbEntity
  8
仕上
  6
Continuous
 62
     3
370
     9
100
AcDbLine
 10
185.5290923247467
 20
230.2163800954977
 30
0.0
 11
185.5290923247467
 21
262.7163883434918
 31
0.0
  0
LINE
  5
2CC
330
1F
100
AcDbEntity
  8
仕上
  6
Continuous
 62
     3
370
     9
100
AcDbLine
 10
188.5509264146961
 20
226.3157139874952
 30
0.0
 11
132.3825815561656
 21
199.2030892778245
 31
0.0
  0
LINE
  5
2CD
330
1F
100
AcDbEntity
  8
仕上
  6
Continuous
 62
     3
370
     9
100
AcDbLine
 10
200.9877467799831
 20
226.3502318427527
 30
0.0
 11
213.5872835726352
 21
219.0760206809072
 31
0.0
  0
LINE
  5
2CE
330
1F
100
AcDbEntity
  8
仕上
  6
Continuous
 62
     3
370
     9
100
AcDbLine
 10
202.9572687922299
 20
227.216295965958
 30
0.0
 11
212.7199575063345
 21
227.216295965958
 31
0.0
  0
LINE
  5
2CF
330
1F
100
AcDbEntity
  8
仕上
  6
Continuous
 62
     3
370
     9
100
AcDbLine
 10
202.6811259501691
 20
226.299457191148
 30
0.0
 11
213.5872835726352
 21
219.0760206809072
 31
0.0
  0
LINE
  5
2D0
330
1F
100
AcDbEntity
  8
仕上
  6
Continuous
 62
     3
370
     9
100
AcDbLine
 10
188.1159272065034
 20
228.2163487531202
 30
0.0
 11
201.4877731735642
 21
228.2163487531202
 31
0.0
  0
LINE
  5
2D1
330
1F
100
AcDbEntity
  8
仕上
  6
Continuous
 62
     3
370
     9
100
AcDbLine
 10
187.052925728463
 20
226.7030562858481
 30
0.0
 11
131.9478792757602
 21
200.1036712562874
 31
0.0
  0
LINE
  5
2D2
330
1F
100
AcDbEntity
  8
仕上
  6
Continuous
 62
     3
370
     9
100
AcDbLine
 10
-189.7878533440667
 20
257.7163471035212
 30
0.0
 11
-189.7878533440667
 21
262.7163883434918
 31
0.0
  0
LINE
  5
2D3
330
1F
100
AcDbEntity
  8
仕上
  6
Continuous
 62
     3
370
     9
100
AcDbLine
 10
-188.7878747888512
 20
248.7163916426894
 30
0.0
 11
-200.1424676018792
 21
248.7163916426894
 31
0.0
  0
LINE
  5
2D4
330
1F
100
AcDbEntity
  8
仕上
  6
Continuous
 62
     3
370
     9
100
AcDbLine
 10
-201.4002537082981
 20
254.1039978768533
 30
0.0
 11
-200.1424676018792
 21
248.7163916426894
 31
0.0
  0
LINE
  5
2D5
330
1F
100
AcDbEntity
  8
仕上
  6
Continuous
 62
     3
370
     9
100
AcDbLine
 10
-188.7878747888512
 20
229.2163273083355
 30
0.0
 11
-213.9082625105573
 21
229.2163273083355
 31
0.0
  0
LINE
  5
2D6
330
1F
100
AcDbEntity
  8
仕上
  6
Continuous
 62
     3
370
     9
100
AcDbLine
 10
-185.7878648912584
 20
232.2163372059285
 30
0.0
 11
-185.7878648912584
 21
251.7164015402822
 31
0.0
  0
LINE
  5
2D7
330
1F
100
AcDbEntity
  8
仕上
  6
Continuous
 62
     3
370
     9
100
AcDbLine
 10
-185.5290180927998
 20
230.2163800954977
 30
0.0
 11
-185.5290180927998
 21
262.7163883434918
 31
0.0
  0
LINE
  5
2D8
330
1F
100
AcDbEntity
  8
仕上
  6
Continuous
 62
     3
370
     9
100
AcDbLine
 10
-202.9571945602828
 20
227.216295965958
 30
0.0
 11
-212.7198832743877
 21
227.216295965958
 31
0.0
  0
LINE
  5
2D9
330
1F
100
AcDbEntity
  8
仕上
  6
Continuous
 62
     3
370
     9
100
AcDbLine
 10
-188.1160014384502
 20
228.2163487531202
 30
0.0
 11
-201.4878474055109
 21
228.2163487531202
 31
0.0
  0
LINE
  5
2DA
330
1F
100
AcDbEntity
  8
仕上
  6
Continuous
 62
     3
370
     9
100
AcDbLine
 10
-202.6811259501689
 20
226.2995314230947
 30
0.0
 11
-213.587283572635
 21
219.0760206809072
 31
0.0
  0
LINE
  5
2DB
330
1F
100
AcDbEntity
  8
仕上
  6
Continuous
 62
     3
370
     9
100
AcDbLine
 10
-200.9878952438766
 20
226.3502318427527
 30
0.0
 11
-213.587283572635
 21
219.0760206809072
 31
0.0
  0
LINE
  5
2DC
330
1F
100
AcDbEntity
  8
仕上
  6
Continuous
 62
     3
370
     9
100
AcDbLine
 10
-188.5507037188555
 20
226.3157139874952
 30
0.0
 11
-132.3824330922719
 21
199.2030892778245
 31
0.0
  0
LINE
  5
2DD
330
1F
100
AcDbEntity
  8
仕上
  6
Continuous
 62
     3
370
     9
100
AcDbLine
 10
-187.0528514965159
 20
226.7030562858481
 30
0.0
 11
-131.9477308118666
 21
200.1036712562874
 31
0.0
  0
LINE
  5
2DE
330
1F
100
AcDbEntity
  8
躯体
  6
Continuous
 62
     2
370
     9
100
AcDbLine
 10
-205.9999620592272
 20
239.7163619499106
 30
0.0
 11
-222.1530563766891
 21
239.7163619499106
 31
0.0
  0
LINE
  5
2DF
330
1F
100
AcDbEntity
  8
躯体
  6
Continuous
 62
     2
370
     9
100
AcDbLine
 10
-203.0000263935811
 20
242.7163718475036
 30
0.0
 11
-203.0000263935811
 21
253.716358650713
 31
0.0
  0
LINE
  5
2E0
330
1F
100
AcDbEntity
  8
躯体
  6
JWW_HOJO
 62
     2
370
     9
100
AcDbLine
 10
-204.9999835040117
 20
262.7163883434918
 30
0.0
 11
-204.9999835040117
 21
255.2162893675627
 31
0.0
  0
LINE
  5
2E1
330
1F
100
AcDbEntity
  8
躯体
  6
Continuous
 62
     2
370
     9
100
AcDbLine
 10
-203.0000263935811
 20
253.716358650713
 30
0.0
 11
-223.3740976694467
 21
253.716358650713
 31
0.0
  0
LINE
  5
2E2
330
1F
100
AcDbEntity
  8
仕上
  6
Continuous
 62
     3
370
     9
100
AcDbLine
 10
209.7877956081081
 20
256.2163421547249
 30
0.0
 11
209.7877956081081
 21
262.7163883434918
 31
0.0
  0
LINE
  5
2E3
330
1F
100
AcDbEntity
  8
仕上
  6
Continuous
 62
     3
370
     9
100
AcDbLine
 10
208.288013355152
 20
254.7164114378752
 30
0.0
 11
192.787789009713
 21
254.7164114378752
 31
0.0
  0
LINE
  5
2E4
330
1F
100
AcDbEntity
  8
仕上
  6
Continuous
 62
     3
370
     9
100
AcDbLine
 10
208.9002784522805
 20
254.1039978768533
 30
0.0
 11
201.4001794763514
 21
254.1039978768533
 31
0.0
  0
LINE
  5
2E5
330
1F
100
AcDbEntity
  8
仕上
  6
Continuous
 62
     3
370
     9
100
AcDbLine
 10
210.4003576330238
 20
255.6040028256497
 30
0.0
 11
210.4003576330238
 21
262.7163883434918
 31
0.0
  0
LINE
  5
2E6
330
1F
100
AcDbEntity
  8
仕上
  6
Continuous
 62
     3
370
     9
100
AcDbLine
 10
-208.2878648912584
 20
254.7164114378752
 30
0.0
 11
-192.7878632416595
 21
254.7164114378752
 31
0.0
  0
LINE
  5
2E7
330
1F
100
AcDbEntity
  8
仕上
  6
Continuous
 62
     3
370
     9
100
AcDbLine
 10
-209.7878698400548
 20
256.2163421547249
 30
0.0
 11
-209.7878698400548
 21
262.7163883434918
 31
0.0
  0
LINE
  5
2E8
330
1F
100
AcDbEntity
  8
仕上
  6
Continuous
 62
     3
370
     9
100
AcDbLine
 10
-210.4002834010769
 20
255.6040028256497
 30
0.0
 11
-210.4002834010769
 21
262.7163883434918
 31
0.0
  0
LINE
  5
2E9
330
1F
100
AcDbEntity
  8
仕上
  6
Continuous
 62
     3
370
     9
100
AcDbLine
 10
-208.9002784522803
 20
254.1039978768533
 30
0.0
 11
-201.4002537082981
 21
254.1039978768533
 31
0.0
  0
LINE
  5
2EA
330
1F
100
AcDbEntity
  8
躯体
  6
Continuous
 62
     2
370
     9
100
AcDbLine
 10
-210.3492860536317
 20
255.2162893675627
 30
0.0
 11
-224.8749191696578
 21
255.2162893675627
 31
0.0
  0
LINE
  5
2EB
330
1F
100
AcDbEntity
  8
躯体
  6
JWW_HOJO
 62
     2
370
     9
100
AcDbLine
 10
-205.0000577359586
 20
255.2162893675627
 30
0.0
 11
-210.3492860536317
 21
255.2162893675627
 31
0.0
  0
LINE
  5
2EC
330
1F
100
AcDbEntity
  8
躯体
  6
JWW_HOJO
 62
     2
370
     9
100
AcDbLine
 10
-203.5169776710303
 20
254.1039978768533
 30
0.0
 11
-204.9999835040117
 21
255.2162893675627
 31
0.0
  0
LINE
  5
2ED
330
1F
100
AcDbEntity
  8
躯体
  6
Continuous
 62
     2
370
     9
100
AcDbLine
 10
-203.0000263935811
 20
253.716358650713
 30
0.0
 11
-203.5169776710303
 21
254.1039978768533
 31
0.0
  0
LINE
  5
2EE
330
1F
100
AcDbEntity
  8
躯体
  6
Continuous
 62
     2
370
     9
100
AcDbLine
 10
207.9999934016049
 20
241.9663322571319
 30
0.0
 11
223.5958284945102
 21
241.9663322571319
 31
0.0
  0
LINE
  5
2EF
330
1F
100
AcDbEntity
  8
躯体
  6
JWW_HOJO
 62
     2
370
     9
100
AcDbLine
 10
205.0001319679055
 20
254.1039978768533
 30
0.0
 11
205.0001319679055
 21
262.7163883434918
 31
0.0
  0
LINE
  5
2F0
330
1F
100
AcDbEntity
  8
躯体
  6
Continuous
 62
     2
370
     9
100
AcDbLine
 10
205.0001319679055
 20
244.9663421547249
 30
0.0
 11
205.0001319679055
 21
254.1039978768533
 31
0.0
  0
LINE
  5
2F1
330
1F
100
AcDbEntity
  8
躯体
  6
Continuous
 62
     2
370
     9
100
AcDbLine
 10
234.9999340160473
 20
-17.28339720866202
 30
0.0
 11
-234.9999340160472
 21
-17.28339720866202
 31
0.0
  0
LINE
  5
2F2
330
1F
100
AcDbEntity
  8
躯体
  6
JWW_CENTER1
 62
     2
370
     9
100
AcDbLine
 10
-235.2235948717272
 20
27.49271923981766
 30
0.0
 11
-262.7765634897592
 21
-0.0601009143207705
 31
0.0
  0
LINE
  5
2F3
330
1F
100
AcDbEntity
  8
躯体
  6
JWW_CENTER1
 62
     2
370
     9
100
AcDbLine
 10
-235.2236691036739
 20
-0.0602493782143654
 30
0.0
 11
-262.7765634897592
 21
27.49271923981766
 31
0.0
  0
LINE
  5
2F4
330
1F
100
AcDbEntity
  8
躯体
  6
JWW_CENTER1
 62
     2
370
     9
100
AcDbLine
 10
235.2235206397805
 20
27.49271923981766
 30
0.0
 11
262.7766377217061
 21
-0.0601009143207705
 31
0.0
  0
LINE
  5
2F5
330
1F
100
AcDbEntity
  8
躯体
  6
JWW_CENTER1
 62
     2
370
     9
100
AcDbLine
 10
235.2238175675677
 20
-0.0602493782143654
 30
0.0
 11
262.7766377217061
 21
27.49271923981766
 31
0.0
  0
LINE
  5
2F6
330
1F
100
AcDbEntity
  8
仕上
  6
JWW_CENTER1
 62
     3
370
     9
100
AcDbLine
 10
352.0001715582772
 20
262.7163883434918
 30
0.0
 11
412.0000725823481
 21
262.7163883434918
 31
0.0
  0
LINE
  5
2F7
330
1F
100
AcDbEntity
  8
仕上
  6
Continuous
 62
     3
370
     9
100
AcDbLine
 10
-9.80195741395687
 20
179.7526118839267
 30
0.0
 11
-9.207136824324209
 21
171.7163355563295
 31
0.0
  0
LINE
  5
2F8
330
1F
100
AcDbEntity
  8
仕上
  6
Continuous
 62
     3
370
     9
100
AcDbLine
 10
-8.204411687077652
 20
171.7163355563295
 30
0.0
 11
-8.804725440772813
 21
179.8263984390364
 31
0.0
  0
LINE
  5
2F9
330
1F
100
AcDbEntity
  8
仕上
  6
Continuous
 62
     3
370
     9
100
AcDbLine
 10
8.204411687077823
 20
171.7163355563295
 30
0.0
 11
8.804725440772813
 21
179.8263984390364
 31
0.0
  0
LINE
  5
2FA
330
1F
100
AcDbEntity
  8
仕上
  6
Continuous
 62
     3
370
     9
100
AcDbLine
 10
9.801957413957041
 20
179.7526118839267
 30
0.0
 11
9.20713682432438
 21
171.7163355563295
 31
0.0
  0
LINE
  5
2FB
330
1F
100
AcDbEntity
  8
通り芯
  6
Continuous
 62
     3
370
     9
100
AcDbLine
 10
-71.9999406144425
 20
421.716467524235
 30
0.0
 11
-71.9999406144425
 21
403.7164081386775
 31
0.0
  0
LINE
  5
2FC
330
1F
100
AcDbEntity
  8
通り芯
  6
Continuous
 62
     3
370
     9
100
AcDbLine
 10
72.00023754222985
 20
421.716467524235
 30
0.0
 11
72.00023754222985
 21
403.7164081386775
 31
0.0
  0
LINE
  5
2FD
330
1F
100
AcDbEntity
  8
仕上
  6
Continuous
 62
     3
370
     9
100
AcDbLine
 10
27.29063291807438
 20
-309.0521383008285
 30
0.0
 11
25.50000989759297
 21
-285.3264203954229
 31
0.0
  0
LINE
  5
2FE
330
1F
100
AcDbEntity
  8
仕上
  6
Continuous
 62
     3
370
     9
100
AcDbLine
 10
34.71783612225516
 20
-311.8263346162844
 30
0.0
 11
30.28203190983953
 21
-311.8263346162844
 31
0.0
  0
LINE
  5
2FF
330
1F
100
AcDbEntity
  8
仕上
  6
Continuous
 62
     3
370
     9
100
AcDbLine
 10
37.7093093459672
 20
-309.0521383008285
 30
0.0
 11
39.4999323664486
 21
-285.3264203954229
 31
0.0
  0
LINE
  5
300
330
1F
100
AcDbEntity
  8
建具
  6
Continuous
 62
     4
370
     9
100
AcDbLine
 10
47.74992246885563
 20
-292.3263445138774
 30
0.0
 11
47.74992246885563
 21
-317.5764896785734
 31
0.0
  0
LINE
  5
301
330
1F
100
AcDbEntity
  8
建具
  6
Continuous
 62
     4
370
     9
100
AcDbLine
 10
40.74999835040126
 20
-292.3263445138774
 30
0.0
 11
40.74999835040126
 21
-317.5764896785734
 31
0.0
  0
LINE
  5
302
330
1F
100
AcDbEntity
  8
建具
  6
Continuous
 62
     4
370
     9
100
AcDbLine
 10
17.25001979518595
 20
-292.3263445138774
 30
0.0
 11
17.25001979518595
 21
-317.5764896785734
 31
0.0
  0
LINE
  5
303
330
1F
100
AcDbEntity
  8
建具
  6
Continuous
 62
     4
370
     9
100
AcDbLine
 10
24.24994391364032
 20
-292.3263445138774
 30
0.0
 11
24.24994391364032
 21
-317.5764896785734
 31
0.0
  0
LINE
  5
304
330
1F
100
AcDbEntity
  8
建具
  6
Continuous
 62
     4
370
     9
100
AcDbLine
 10
51.74998515361079
 20
-301.8262521363436
 30
0.0
 11
55.80839414854313
 21
-301.8262521363436
 31
0.0
  0
LINE
  5
305
330
1F
100
AcDbEntity
  8
建具
  6
Continuous
 62
     4
370
     9
100
AcDbLine
 10
51.74998515361079
 20
-291.8263181202963
 30
0.0
 11
55.80839414854313
 21
-291.8263181202963
 31
0.0
  0
LINE
  5
306
330
1F
100
AcDbEntity
  8
建具
  6
Continuous
 62
     4
370
     9
100
AcDbLine
 10
47.74992246885563
 20
-293.326248837146
 30
0.0
 11
48.17942851298579
 21
-293.326248837146
 31
0.0
  0
LINE
  5
307
330
1F
100
AcDbEntity
  8
建具
  6
Continuous
 62
     4
370
     9
100
AcDbLine
 10
47.74992246885563
 20
-300.326321419494
 30
0.0
 11
48.17942851298579
 21
-300.326321419494
 31
0.0
  0
LINE
  5
308
330
1F
100
AcDbEntity
  8
建具
  6
Continuous
 62
     4
370
     9
100
AcDbLine
 10
16.74999340160485
 20
-294.3263016243081
 30
0.0
 11
16.74999340160485
 21
-299.3264170962254
 31
0.0
  0
LINE
  5
309
330
1F
100
AcDbEntity
  8
建具
  6
Continuous
 62
     4
370
     9
100
AcDbLine
 10
16.74999340160485
 20
-294.3263016243081
 30
0.0
 11
17.25001979518595
 21
-293.826275230727
 31
0.0
  0
LINE
  5
30A
330
1F
100
AcDbEntity
  8
建具
  6
Continuous
 62
     4
370
     9
100
AcDbLine
 10
16.74999340160485
 20
-299.3264170962254
 30
0.0
 11
17.25001979518595
 21
-299.8262950259129
 31
0.0
  0
LINE
  5
30B
330
1F
100
AcDbEntity
  8
建具
  6
Continuous
 62
     4
370
     9
100
AcDbLine
 10
16.74999340160485
 20
-294.3263016243081
 30
0.0
 11
17.25001979518595
 21
-294.3263016243081
 31
0.0
  0
LINE
  5
30C
330
1F
100
AcDbEntity
  8
建具
  6
Continuous
 62
     4
370
     9
100
AcDbLine
 10
16.74999340160485
 20
-299.3264170962254
 30
0.0
 11
17.25001979518595
 21
-299.3264170962254
 31
0.0
  0
LINE
  5
30D
330
1F
100
AcDbEntity
  8
建具
  6
Continuous
 62
     4
370
     9
100
AcDbLine
 10
23.49997855521548
 20
-361.8263016243081
 30
0.0
 11
23.49997855521548
 21
-385.8262323411578
 31
0.0
  0
LINE
  5
30E
330
1F
100
AcDbEntity
  8
建具
  6
Continuous
 62
     4
370
     9
100
AcDbLine
 10
36.49999670080251
 20
-361.8263016243081
 30
0.0
 11
36.49999670080251
 21
-385.8262323411578
 31
0.0
  0
LINE
  5
30F
330
1F
100
AcDbEntity
  8
建具
  6
Continuous
 62
     4
370
     9
100
AcDbLine
 10
28.50001979518595
 20
-361.8263016243081
 30
0.0
 11
28.50001979518595
 21
-385.8262323411578
 31
0.0
  0
LINE
  5
310
330
1F
100
AcDbEntity
  8
建具
  6
Continuous
 62
     4
370
     9
100
AcDbLine
 10
34.99999175200594
 20
-387.3264599857946
 30
0.0
 11
34.99999175200594
 21
-388.9488734148487
 31
0.0
  0
LINE
  5
311
330
1F
100
AcDbEntity
  8
建具
  6
Continuous
 62
     4
370
     9
100
AcDbLine
 10
29.99995051203547
 20
-387.3264599857946
 30
0.0
 11
29.99995051203547
 21
-388.9488734148487
 31
0.0
  0
LINE
  5
312
330
1F
100
AcDbEntity
  8
建具
  6
Continuous
 62
     4
370
     9
100
AcDbLine
 10
34.99999175200594
 20
-360.3263709074585
 30
0.0
 11
34.99999175200594
 21
-358.7039574784044
 31
0.0
  0
LINE
  5
313
330
1F
100
AcDbEntity
  8
建具
  6
Continuous
 62
     4
370
     9
100
AcDbLine
 10
29.99995051203547
 20
-360.3263709074585
 30
0.0
 11
29.99995051203547
 21
-358.7039574784044
 31
0.0
  0
LINE
  5
314
330
1F
100
AcDbEntity
  8
建具
  6
Continuous
 62
     4
370
     9
100
AcDbLine
 10
34.99999175200594
 20
-332.6200390873571
 30
0.0
 11
34.99999175200594
 21
-353.1805067816139
 31
0.0
  0
LINE
  5
315
330
1F
100
AcDbEntity
  8
建具
  6
Continuous
 62
     4
370
     9
100
AcDbLine
 10
29.99995051203547
 20
-332.6200390873571
 30
0.0
 11
29.99995051203547
 21
-353.1805067816139
 31
0.0
  0
LINE
  5
316
330
1F
100
AcDbEntity
  8
建具
  6
Continuous
 62
     4
370
     9
100
AcDbLine
 10
29.99995051203547
 20
-323.3264962769686
 30
0.0
 11
29.99995051203547
 21
-325.438543627053
 31
0.0
  0
LINE
  5
317
330
1F
100
AcDbEntity
  8
建具
  6
Continuous
 62
     4
370
     9
100
AcDbLine
 10
34.99999175200594
 20
-323.3264962769686
 30
0.0
 11
34.99999175200594
 21
-325.438543627053
 31
0.0
  0
LINE
  5
318
330
1F
100
AcDbEntity
  8
建具
  6
Continuous
 62
     4
370
     9
100
AcDbLine
 10
34.99999175200594
 20
-405.1565282132017
 30
0.0
 11
34.99999175200594
 21
-394.4721756477456
 31
0.0
  0
LINE
  5
319
330
1F
100
AcDbEntity
  8
建具
  6
Continuous
 62
     4
370
     9
100
AcDbLine
 10
29.99995051203547
 20
-406.4961179249838
 30
0.0
 11
29.99995051203547
 21
-394.4721756477456
 31
0.0
  0
LINE
  5
31A
330
1F
100
AcDbEntity
  8
建具
  6
Continuous
 62
     4
370
     9
100
AcDbLine
 10
41.50003794077281
 20
-361.8263016243081
 30
0.0
 11
41.50003794077281
 21
-385.8262323411578
 31
0.0
  0
LINE
  5
31B
330
1F
100
AcDbEntity
  8
建具
  6
Continuous
 62
     4
370
     9
100
AcDbLine
 10
23.50005278716219
 20
-408.237896324477
 30
0.0
 11
41.50003794077281
 21
-403.4147498137085
 31
0.0
  0
LINE
  5
31C
330
1F
100
AcDbEntity
  8
建具
  6
JWW_CENTER1
 62
     4
370
     9
100
AcDbLine
 10
32.50000824799423
 20
-490.823906406825
 30
0.0
 11
32.50000824799423
 21
-281.1386993491814
 31
0.0
  0
LINE
  5
31D
330
1F
100
AcDbEntity
  8
建具
  6
Continuous
 62
     4
370
     9
100
AcDbLine
 10
48.17942851298579
 20
-293.326248837146
 30
0.0
 11
48.17942851298579
 21
-300.326321419494
 31
0.0
  0
LINE
  5
31E
330
1F
100
AcDbEntity
  8
建具
  6
Continuous
 62
     4
370
     9
100
AcDbLine
 10
38.89627817514781
 20
-293.326248837146
 30
0.0
 11
40.74999835040126
 21
-293.326248837146
 31
0.0
  0
LINE
  5
31F
330
1F
100
AcDbEntity
  8
建具
  6
Continuous
 62
     4
370
     9
100
AcDbLine
 10
38.36789517789282
 20
-300.326321419494
 30
0.0
 11
40.74999835040126
 21
-300.326321419494
 31
0.0
  0
LINE
  5
320
330
1F
100
AcDbEntity
  8
建具
  6
Continuous
 62
     4
370
     9
100
AcDbLine
 10
24.24994391364032
 20
-300.326321419494
 30
0.0
 11
26.63204708614876
 21
-300.326321419494
 31
0.0
  0
LINE
  5
321
330
1F
100
AcDbEntity
  8
建具
  6
Continuous
 62
     4
370
     9
100
AcDbLine
 10
24.24994391364032
 20
-299.3264170962254
 30
0.0
 11
26.55662742820954
 21
-299.3264170962254
 31
0.0
  0
LINE
  5
322
330
1F
100
AcDbEntity
  8
建具
  6
Continuous
 62
     4
370
     9
100
AcDbLine
 10
24.24994391364032
 20
-294.3263016243081
 30
0.0
 11
26.17923221072641
 21
-294.3263016243081
 31
0.0
  0
LINE
  5
323
330
1F
100
AcDbEntity
  8
建具
  6
Continuous
 62
     4
370
     9
100
AcDbLine
 10
24.24994391364032
 20
-293.326248837146
 30
0.0
 11
26.10373832084048
 21
-293.326248837146
 31
0.0
  0
LINE
  5
324
330
1F
100
AcDbEntity
  8
躯体
  6
Continuous
 62
     2
370
     9
100
AcDbLine
 10
0.0
 20
-329.7156399372304
 30
0.0
 11
23.26948836043078
 21
-329.7156399372304
 31
0.0
  0
LINE
  5
325
330
1F
100
AcDbEntity
  8
躯体
  6
Continuous
 62
     2
370
     9
100
AcDbLine
 10
41.73045390361079
 20
-329.7156399372304
 30
0.0
 11
279.9999340160473
 21
-329.7156399372304
 31
0.0
  0
LINE
  5
326
330
1F
100
AcDbEntity
  8
通り芯
  6
Continuous
 62
     3
370
     9
100
AcDbLine
 10
72.0035037478886
 20
-293.6208012020109
 30
0.0
 11
103.9689677470441
 21
-293.2092592890041
 31
0.0
  0
LINE
  5
327
330
1F
100
AcDbEntity
  8
通り芯
  6
JWW_CENTER1
 62
     3
370
     9
100
AcDbLine
 10
0.0
 20
598.4771338301894
 30
0.0
 11
0.0
 21
-35.74963322006406
 31
0.0
  0
ARC
  5
328
330
1F
100
AcDbEntity
  8
通り芯
  6
Continuous
 62
     3
370
     9
100
AcDbCircle
 10
0.0
 20
262.7163883434918
 30
0.0
 40
230.0000041239971
100
AcDbArc
 50
3.989028930664062
 51
8.500961303710938
  0
ARC
  5
329
330
1F
100
AcDbEntity
  8
通り芯
  6
Continuous
 62
     3
370
     9
100
AcDbCircle
 10
0.0
 20
262.7163883434918
 30
0.0
 40
230.0000041239971
100
AcDbArc
 50
10.26847839355469
 51
14.86376953125
  0
ARC
  5
32A
330
1F
100
AcDbEntity
  8
通り芯
  6
Continuous
 62
     3
370
     9
100
AcDbCircle
 10
0.0
 20
262.7163883434918
 30
0.0
 40
230.0000041239971
100
AcDbArc
 50
16.67582702636719
 51
21.42095947265625
  0
ARC
  5
32B
330
1F
100
AcDbEntity
  8
通り芯
  6
Continuous
 62
     3
370
     9
100
AcDbCircle
 10
0.0
 20
262.7163883434918
 30
0.0
 40
230.0000041239971
100
AcDbArc
 50
27.50669860839844
 51
28.28858947753906
  0
ARC
  5
32C
330
1F
100
AcDbEntity
  8
通り芯
  6
Continuous
 62
     3
370
     9
100
AcDbCircle
 10
0.0
 20
262.7163883434918
 30
0.0
 40
230.0000041239971
100
AcDbArc
 50
30.2880859375
 51
32.95155334472656
  0
ARC
  5
32D
330
1F
100
AcDbEntity
  8
通り芯
  6
Continuous
 62
     3
370
     9
100
AcDbCircle
 10
0.0
 20
262.7163883434918
 30
0.0
 40
230.0000041239971
100
AcDbArc
 50
35.17552185058594
 51
35.63424682617187
  0
ARC
  5
32E
330
1F
100
AcDbEntity
  8
通り芯
  6
Continuous
 62
     3
370
     9
100
AcDbCircle
 10
0.0
 20
262.7163883434918
 30
0.0
 40
230.0000041239971
100
AcDbArc
 50
37.80989074707032
 51
43.73345947265626
  0
ARC
  5
32F
330
1F
100
AcDbEntity
  8
通り芯
  6
Continuous
 62
     3
370
     9
100
AcDbCircle
 10
0.0
 20
262.7163883434918
 30
0.0
 40
230.0000041239971
100
AcDbArc
 50
46.19825744628906
 51
50.27297973632813
  0
ARC
  5
330
330
1F
100
AcDbEntity
  8
通り芯
  6
Continuous
 62
     3
370
     9
100
AcDbCircle
 10
0.0
 20
262.7163883434918
 30
0.0
 40
230.0000041239971
100
AcDbArc
 50
51.8741455078125
 51
53.13009643554688
  0
ARC
  5
331
330
1F
100
AcDbEntity
  8
通り芯
  6
Continuous
 62
     3
370
     9
100
AcDbCircle
 10
0.0
 20
262.7163883434918
 30
0.0
 40
230.0000041239971
100
AcDbArc
 50
56.14341735839844
 51
59.13323974609375
  0
ARC
  5
332
330
1F
100
AcDbEntity
  8
通り芯
  6
Continuous
 62
     3
370
     9
100
AcDbCircle
 10
0.0
 20
262.7163883434918
 30
0.0
 40
230.0000041239971
100
AcDbArc
 50
120.8667449951172
 51
123.8565826416015
  0
ARC
  5
333
330
1F
100
AcDbEntity
  8
通り芯
  6
Continuous
 62
     3
370
     9
100
AcDbCircle
 10
0.0
 20
262.7163883434918
 30
0.0
 40
230.0000041239971
100
AcDbArc
 50
126.8699035644531
 51
128.1258850097656
  0
ARC
  5
334
330
1F
100
AcDbEntity
  8
通り芯
  6
Continuous
 62
     3
370
     9
100
AcDbCircle
 10
0.0
 20
262.7163883434918
 30
0.0
 40
230.0000041239971
100
AcDbArc
 50
129.7270050048828
 51
133.8017425537109
  0
ARC
  5
335
330
1F
100
AcDbEntity
  8
通り芯
  6
Continuous
 62
     3
370
     9
100
AcDbCircle
 10
0.0
 20
262.7163883434918
 30
0.0
 40
230.0000041239971
100
AcDbArc
 50
136.2665557861328
 51
142.1900939941406
  0
ARC
  5
336
330
1F
100
AcDbEntity
  8
通り芯
  6
Continuous
 62
     3
370
     9
100
AcDbCircle
 10
0.0
 20
262.7163883434918
 30
0.0
 40
230.0000041239971
100
AcDbArc
 50
144.3657531738281
 51
144.8244781494141
  0
ARC
  5
337
330
1F
100
AcDbEntity
  8
通り芯
  6
Continuous
 62
     3
370
     9
100
AcDbCircle
 10
0.0
 20
262.7163883434918
 30
0.0
 40
230.0000041239971
100
AcDbArc
 50
147.0483856201172
 51
149.7119140625
  0
ARC
  5
338
330
1F
100
AcDbEntity
  8
通り芯
  6
Continuous
 62
     3
370
     9
100
AcDbCircle
 10
0.0
 20
262.7163883434918
 30
0.0
 40
230.0000041239971
100
AcDbArc
 50
151.7114105224609
 51
152.4932250976563
  0
ARC
  5
339
330
1F
100
AcDbEntity
  8
通り芯
  6
Continuous
 62
     3
370
     9
100
AcDbCircle
 10
0.0
 20
262.7163883434918
 30
0.0
 40
230.0000041239971
100
AcDbArc
 50
158.5790405273438
 51
163.3241729736328
  0
ARC
  5
33A
330
1F
100
AcDbEntity
  8
通り芯
  6
Continuous
 62
     3
370
     9
100
AcDbCircle
 10
0.0
 20
262.7163883434918
 30
0.0
 40
230.0000041239971
100
AcDbArc
 50
165.13623046875
 51
169.7315216064453
  0
ARC
  5
33B
330
1F
100
AcDbEntity
  8
通り芯
  6
Continuous
 62
     3
370
     9
100
AcDbCircle
 10
0.0
 20
262.7163883434918
 30
0.0
 40
230.0000041239971
100
AcDbArc
 50
171.4990386962891
 51
176.010971069336
  0
ARC
  5
33C
330
1F
100
AcDbEntity
  8
通り芯
  6
Continuous
 62
     3
370
     9
100
AcDbCircle
 10
0.0
 20
262.7163883434918
 30
0.0
 40
242.0000065983953
100
AcDbArc
 50
63.0
 51
117.000015258789
  0
ARC
  5
33D
330
1F
100
AcDbEntity
  8
通り芯
  6
Continuous
 62
     3
370
     9
100
AcDbCircle
 10
0.0
 20
262.7163883434918
 30
0.0
 40
218.9999987628009
100
AcDbArc
 50
63.0
 51
117.000015258789
  0
ARC
  5
33E
330
1F
100
AcDbEntity
  8
通り芯
  6
Continuous
 62
     3
370
     9
100
AcDbCircle
 10
0.0
 20
262.7163883434918
 30
0.0
 40
230.0000041239971
100
AcDbArc
 50
118.7440643310547
 51
119.1407318115235
  0
ARC
  5
33F
330
1F
100
AcDbEntity
  8
通り芯
  6
Continuous
 62
     3
370
     9
100
AcDbCircle
 10
0.0
 20
262.7163883434918
 30
0.0
 40
230.0000041239971
100
AcDbArc
 50
60.85922241210938
 51
61.25590515136719
  0
ARC
  5
340
330
1F
100
AcDbEntity
  8
通り芯
  6
Continuous
 62
     3
370
     9
100
AcDbCircle
 10
0.0
 20
262.7163883434918
 30
0.0
 40
212.0000004123997
100
AcDbArc
 50
64.28233337402344
 51
70.14608764648436
  0
ARC
  5
341
330
1F
100
AcDbEntity
  8
通り芯
  6
Continuous
 62
     3
370
     9
100
AcDbCircle
 10
0.0
 20
262.7163883434918
 30
0.0
 40
212.0000004123997
100
AcDbArc
 50
71.86112976074219
 51
80.34959411621094
  0
ARC
  5
342
330
1F
100
AcDbEntity
  8
通り芯
  6
Continuous
 62
     3
370
     9
100
AcDbCircle
 10
0.0
 20
262.7163883434918
 30
0.0
 40
212.0000004123997
100
AcDbArc
 50
99.65040588378908
 51
108.1388244628906
  0
ARC
  5
343
330
1F
100
AcDbEntity
  8
通り芯
  6
Continuous
 62
     3
370
     9
100
AcDbCircle
 10
0.0
 20
262.7163883434918
 30
0.0
 40
212.0000004123997
100
AcDbArc
 50
109.8538665771485
 51
115.7176666259766
  0
CIRCLE
  5
344
330
1F
100
AcDbEntity
  8
通り芯
  6
Continuous
 62
     3
370
     9
100
AcDbCircle
 10
-138.0000098975928
 20
-284.1117630500894
 30
0.0
 40
5.499999780912658
  0
ARC
  5
345
330
1F
100
AcDbEntity
  8
通り芯
  6
Continuous
 62
     3
370
     9
100
AcDbCircle
 10
-138.0000098975928
 20
-284.1117630500894
 30
0.0
 40
27.00000092789934
100
AcDbArc
 50
295.9801177978517
 51
353.9440155029297
  0
ARC
  5
346
330
1F
100
AcDbEntity
  8
通り芯
  6
Continuous
 62
     3
370
     9
100
AcDbCircle
 10
-138.0000098975928
 20
-284.1117630500894
 30
0.0
 40
27.00000092789934
100
AcDbArc
 50
186.7278289794922
 51
246.2790832519531
  0
ARC
  5
347
330
1F
100
AcDbEntity
  8
通り芯
  6
Continuous
 62
     3
370
     9
100
AcDbCircle
 10
0.0
 20
-7275.249788282353
 30
0.0
 40
6998.000026393582
100
AcDbArc
 50
91.42475891113283
 51
91.87525939941408
  0
ARC
  5
348
330
1F
100
AcDbEntity
  8
通り芯
  6
Continuous
 62
     3
370
     9
100
AcDbCircle
 10
-249.2651614627322
 20
-292.7038881952541
 30
0.0
 40
3.000000038662472
100
AcDbArc
 50
4.685821533203125
 51
84.92924499511719
  0
ARC
  5
349
330
1F
100
AcDbEntity
  8
通り芯
  6
Continuous
 62
     3
370
     9
100
AcDbCircle
 10
-229.9580259580869
 20
-295.7156267404399
 30
0.0
 40
4.000000051549963
100
AcDbArc
 50
90.0
 51
173.0502624511719
  0
ARC
  5
34A
330
1F
100
AcDbEntity
  8
通り芯
  6
JWW_DASHED1
 62
     3
370
     9
100
AcDbCircle
 10
-78.25361097181155
 20
-290.6880454482101
 30
0.0
 40
5.000000064437454
100
AcDbArc
 50
18.49870300292969
 51
90.64651489257814
  0
ARC
  5
34B
330
1F
100
AcDbEntity
  8
通り芯
  6
JWW_DASHED1
 62
     3
370
     9
100
AcDbCircle
 10
-51.71695193728874
 20
-290.441075761238
 30
0.0
 40
5.000000064437454
100
AcDbArc
 50
90.42874145507814
 51
161.607421875
  0
ARC
  5
34C
330
1F
100
AcDbEntity
  8
通り芯
  6
Continuous
 62
     3
370
     9
100
AcDbCircle
 10
-55.55340741131749
 20
-292.471096810119
 30
0.0
 40
2.000000025774982
100
AcDbArc
 50
90.46784973144531
 51
161.6064147949219
  0
ARC
  5
34D
330
1F
100
AcDbEntity
  8
通り芯
  6
Continuous
 62
     3
370
     9
100
AcDbCircle
 10
-74.43489693306577
 20
-292.6465811323318
 30
0.0
 40
2.000000025774982
100
AcDbArc
 50
18.49917602539062
 51
90.59553527832031
  0
ARC
  5
34E
330
1F
100
AcDbEntity
  8
通り芯
  6
Continuous
 62
     3
370
     9
100
AcDbCircle
 10
0.0
 20
-7275.249788282353
 30
0.0
 40
6984.999934016048
100
AcDbArc
 50
90.0
 51
90.45582580566406
  0
ARC
  5
34F
330
1F
100
AcDbEntity
  8
通り芯
  6
JWW_DASHED1
 62
     3
370
     9
100
AcDbCircle
 10
0.0
 20
-7275.249788282353
 30
0.0
 40
6990.000197951858
100
AcDbArc
 50
91.68544006347656
 51
91.78720092773438
  0
ARC
  5
350
330
1F
100
AcDbEntity
  8
通り芯
  6
JWW_DASHED1
 62
     3
370
     9
100
AcDbCircle
 10
-182.8927447344805
 20
-292.6445768697685
 30
0.0
 40
5.000000064437454
100
AcDbArc
 50
91.49729919433594
 51
161.1272583007812
  0
ARC
  5
351
330
1F
100
AcDbEntity
  8
通り芯
  6
JWW_DASHED1
 62
     3
370
     9
100
AcDbCircle
 10
-205.5037957268792
 20
-291.2729931889196
 30
0.0
 40
3.000000038662472
100
AcDbArc
 50
21.88262939453125
 51
91.67578125
  0
ARC
  5
352
330
1F
100
AcDbEntity
  8
通り芯
  6
Continuous
 62
     3
370
     9
100
AcDbCircle
 10
0.0
 20
-7275.249788282353
 30
0.0
 40
6982.000369510135
100
AcDbArc
 50
90.0
 51
90.59085083007812
  0
ARC
  5
353
330
1F
100
AcDbEntity
  8
通り芯
  6
JWW_DASHED1
 62
     3
370
     9
100
AcDbCircle
 10
0.0
 20
-7275.249788282353
 30
0.0
 40
6990.000197951858
100
AcDbArc
 50
90.0
 51
90.42422485351562
  0
ARC
  5
354
330
1F
100
AcDbEntity
  8
通り芯
  6
Continuous
 62
     3
370
     9
100
AcDbCircle
 10
0.0
 20
-7275.249788282353
 30
0.0
 40
6998.000026393582
100
AcDbArc
 50
90.0
 51
90.83514404296875
  0
ARC
  5
355
330
1F
100
AcDbEntity
  8
通り芯
  6
Continuous
 62
     3
370
     9
100
AcDbCircle
 10
0.0
 20
-7275.249788282353
 30
0.0
 40
7000.000131967907
100
AcDbArc
 50
90.0
 51
92.04670715332031
  0
ARC
  5
356
330
1F
100
AcDbEntity
  8
通り芯
  6
Continuous
 62
     3
370
     9
100
AcDbCircle
 10
-240.5000758815456
 20
-320.2155838508706
 30
0.0
 40
3.500000045106217
100
AcDbArc
 50
180.0
 51
353.0490722656251
  0
ARC
  5
357
330
1F
100
AcDbEntity
  8
通り芯
  6
Continuous
 62
     3
370
     9
100
AcDbCircle
 10
0.0
 20
262.7163883434918
 30
0.0
 40
244.9999979380015
100
AcDbArc
 50
169.865966796875
 51
178.0
  0
ARC
  5
358
330
1F
100
AcDbEntity
  8
通り芯
  6
Continuous
 62
     3
370
     9
100
AcDbCircle
 10
0.0
 20
262.7163883434918
 30
0.0
 40
234.9999896900074
100
AcDbArc
 50
169.8659820556641
 51
177.9999847412109
  0
ARC
  5
359
330
1F
100
AcDbEntity
  8
通り芯
  6
Continuous
 62
     3
370
     9
100
AcDbCircle
 10
0.0
 20
262.7163883434918
 30
0.0
 40
246.4999843288113
100
AcDbArc
 50
149.0000152587891
 51
164.9999847412109
  0
ARC
  5
35A
330
1F
100
AcDbEntity
  8
通り芯
  6
Continuous
 62
     3
370
     9
100
AcDbCircle
 10
0.0
 20
262.7163883434918
 30
0.0
 40
233.5000032991977
100
AcDbArc
 50
149.0
 51
164.9999847412109
  0
ARC
  5
35B
330
1F
100
AcDbEntity
  8
通り芯
  6
Continuous
 62
     3
370
     9
100
AcDbCircle
 10
-192.4207862647803
 20
-319.7155574572895
 30
0.0
 40
3.000000038662472
100
AcDbArc
 50
270.0
 51
352.5429840087891
  0
ARC
  5
35C
330
1F
100
AcDbEntity
  8
通り芯
  6
Continuous
 62
     3
370
     9
100
AcDbCircle
 10
-181.6826155379011
 20
-291.612381649646
 30
0.0
 40
4.000000051549963
100
AcDbArc
 50
91.48997497558594
 51
172.5427551269531
  0
ARC
  5
35D
330
1F
100
AcDbEntity
  8
通り芯
  6
JWW_DASHED1
 62
     3
370
     9
100
AcDbCircle
 10
0.0
 20
-7275.249788282353
 30
0.0
 40
6990.000197951858
100
AcDbArc
 50
91.490234375
 51
91.50038146972655
  0
ARC
  5
35E
330
1F
100
AcDbEntity
  8
通り芯
  6
JWW_DASHED1
 62
     3
370
     9
100
AcDbCircle
 10
0.0
 20
-7275.249788282353
 30
0.0
 40
6990.000197951858
100
AcDbArc
 50
90.64190673828125
 51
90.80198669433592
  0
ARC
  5
35F
330
1F
100
AcDbEntity
  8
通り芯
  6
JWW_DASHED1
 62
     3
370
     9
100
AcDbCircle
 10
-97.75315568253797
 20
-291.9341771389829
 30
0.0
 40
6.000000077324945
100
AcDbArc
 50
96.57371520996094
 51
169.0011901855469
  0
ARC
  5
360
330
1F
100
AcDbEntity
  8
通り芯
  6
Continuous
 62
     3
370
     9
100
AcDbCircle
 10
0.0
 20
-7275.249788282353
 30
0.0
 40
6984.999934016048
100
AcDbArc
 50
90.61074829101564
 51
90.81921386718751
  0
ARC
  5
361
330
1F
100
AcDbEntity
  8
通り芯
  6
Continuous
 62
     3
370
     9
100
AcDbCircle
 10
-99.79616732210718
 20
-295.9637099066139
 30
0.0
 40
5.000000064437454
100
AcDbArc
 50
90.82341003417969
 51
162.7643127441407
  0
ARC
  5
362
330
1F
100
AcDbEntity
  8
通り芯
  6
JWW_DASHED1
 62
     3
370
     9
100
AcDbCircle
 10
-138.0000098975928
 20
-284.1117630500894
 30
0.0
 40
35.00000103099926
100
AcDbArc
 50
342.7645721435547
 51
349.0010528564453
  0
ARC
  5
363
330
1F
100
AcDbEntity
  8
通り芯
  6
Continuous
 62
     3
370
     9
100
AcDbCircle
 10
-138.0000098975928
 20
-284.1117630500894
 30
0.0
 40
35.00000103099926
100
AcDbArc
 50
292.9163513183594
 51
342.7645721435547
  0
ARC
  5
364
330
1F
100
AcDbEntity
  8
通り芯
  6
Continuous
 62
     3
370
     9
100
AcDbCircle
 10
-138.0000098975928
 20
-284.1117630500894
 30
0.0
 40
35.00000103099926
100
AcDbArc
 50
193.2605590820313
 51
249.3429412841797
  0
ARC
  5
365
330
1F
100
AcDbEntity
  8
通り芯
  6
Continuous
 62
     3
370
     9
100
AcDbCircle
 10
0.0
 20
-7275.249788282353
 30
0.0
 40
6990.000197951858
100
AcDbArc
 50
91.45968627929688
 51
91.490234375
  0
ARC
  5
366
330
1F
100
AcDbEntity
  8
通り芯
  6
Continuous
 62
     3
370
     9
100
AcDbCircle
 10
-177.9068075644003
 20
-293.5162826209298
 30
0.0
 40
6.000000077324945
100
AcDbArc
 50
13.26048278808594
 51
91.46603393554688
  0
CIRCLE
  5
367
330
1F
100
AcDbEntity
  8
通り芯
  6
Continuous
 62
     3
370
     9
100
AcDbCircle
 10
138.0001583614866
 20
-284.1117630500894
 30
0.0
 40
5.499999780912658
  0
ARC
  5
368
330
1F
100
AcDbEntity
  8
通り芯
  6
Continuous
 62
     3
370
     9
100
AcDbCircle
 10
138.0001583614866
 20
-284.1117630500894
 30
0.0
 40
27.00000092789934
100
AcDbArc
 50
186.0559844970703
 51
244.0198822021484
  0
ARC
  5
369
330
1F
100
AcDbEntity
  8
通り芯
  6
Continuous
 62
     3
370
     9
100
AcDbCircle
 10
138.0001583614866
 20
-284.1117630500894
 30
0.0
 40
27.00000092789934
100
AcDbArc
 50
293.7209167480469
 51
353.2721710205078
  0
ARC
  5
36A
330
1F
100
AcDbEntity
  8
通り芯
  6
Continuous
 62
     3
370
     9
100
AcDbCircle
 10
0.0
 20
-7275.249788282353
 30
0.0
 40
6998.000026393582
100
AcDbArc
 50
88.12474060058595
 51
88.5752410888672
  0
ARC
  5
36B
330
1F
100
AcDbEntity
  8
通り芯
  6
Continuous
 62
     3
370
     9
100
AcDbCircle
 10
249.2652356946791
 20
-292.7038881952541
 30
0.0
 40
3.000000038662472
100
AcDbArc
 50
95.07075500488284
 51
175.3141784667969
  0
ARC
  5
36C
330
1F
100
AcDbEntity
  8
通り芯
  6
Continuous
 62
     3
370
     9
100
AcDbCircle
 10
229.9581001900339
 20
-295.7156267404399
 30
0.0
 40
4.000000051549963
100
AcDbArc
 50
6.949737548828122
 51
90.0
  0
ARC
  5
36D
330
1F
100
AcDbEntity
  8
通り芯
  6
JWW_DASHED1
 62
     3
370
     9
100
AcDbCircle
 10
78.25383366765203
 20
-290.6880454482101
 30
0.0
 40
5.000000064437454
100
AcDbArc
 50
89.35348510742189
 51
161.5012969970703
  0
ARC
  5
36E
330
1F
100
AcDbEntity
  8
通り芯
  6
JWW_DASHED1
 62
     3
370
     9
100
AcDbCircle
 10
51.71702616923579
 20
-290.441075761238
 30
0.0
 40
5.000000064437454
100
AcDbArc
 50
18.39257812499999
 51
89.57125854492186
  0
ARC
  5
36F
330
1F
100
AcDbEntity
  8
通り芯
  6
Continuous
 62
     3
370
     9
100
AcDbCircle
 10
55.55333317937078
 20
-292.471096810119
 30
0.0
 40
2.000000025774982
100
AcDbArc
 50
18.39358520507815
 51
89.5321502685547
  0
ARC
  5
370
330
1F
100
AcDbEntity
  8
通り芯
  6
Continuous
 62
     3
370
     9
100
AcDbCircle
 10
74.43504539695954
 20
-292.6465811323318
 30
0.0
 40
2.000000025774982
100
AcDbArc
 50
89.40446472167969
 51
161.5008239746094
  0
ARC
  5
371
330
1F
100
AcDbEntity
  8
通り芯
  6
JWW_DASHED1
 62
     3
370
     9
100
AcDbCircle
 10
0.0
 20
-7275.249788282353
 30
0.0
 40
6990.000197951858
100
AcDbArc
 50
88.21279907226562
 51
88.31455993652344
  0
ARC
  5
372
330
1F
100
AcDbEntity
  8
通り芯
  6
JWW_DASHED1
 62
     3
370
     9
100
AcDbCircle
 10
182.8926705025339
 20
-292.6445768697685
 30
0.0
 40
5.000000064437454
100
AcDbArc
 50
18.87274169921876
 51
88.50270080566408
  0
ARC
  5
373
330
1F
100
AcDbEntity
  8
通り芯
  6
JWW_DASHED1
 62
     3
370
     9
100
AcDbCircle
 10
205.5037214949325
 20
-291.2729931889196
 30
0.0
 40
3.000000038662472
100
AcDbArc
 50
88.32421875000003
 51
158.1173706054688
  0
ARC
  5
374
330
1F
100
AcDbEntity
  8
通り芯
  6
JWW_DASHED1
 62
     3
370
     9
100
AcDbCircle
 10
0.0
 20
-7275.249788282353
 30
0.0
 40
6990.000197951858
100
AcDbArc
 50
89.57577514648438
 51
90.0
  0
ARC
  5
375
330
1F
100
AcDbEntity
  8
通り芯
  6
Continuous
 62
     3
370
     9
100
AcDbCircle
 10
0.0
 20
-7275.249788282353
 30
0.0
 40
6998.000026393582
100
AcDbArc
 50
89.16485595703124
 51
89.99999999999999
  0
ARC
  5
376
330
1F
100
AcDbEntity
  8
通り芯
  6
Continuous
 62
     3
370
     9
100
AcDbCircle
 10
0.0
 20
-7275.249788282353
 30
0.0
 40
7000.000131967907
100
AcDbArc
 50
87.9532928466797
 51
90.00000000000001
  0
ARC
  5
377
330
1F
100
AcDbEntity
  8
通り芯
  6
Continuous
 62
     3
370
     9
100
AcDbCircle
 10
240.5002243454392
 20
-320.2155838508706
 30
0.0
 40
3.500000045106217
100
AcDbArc
 50
186.950927734375
 51
0.0
  0
ARC
  5
378
330
1F
100
AcDbEntity
  8
通り芯
  6
Continuous
 62
     3
370
     9
100
AcDbCircle
 10
192.4207862647805
 20
-319.7155574572895
 30
0.0
 40
3.000000038662472
100
AcDbArc
 50
187.4570159912109
 51
270.0
  0
ARC
  5
379
330
1F
100
AcDbEntity
  8
通り芯
  6
Continuous
 62
     3
370
     9
100
AcDbCircle
 10
181.6826897698481
 20
-291.612381649646
 30
0.0
 40
4.000000051549963
100
AcDbArc
 50
7.457244873046879
 51
88.51002502441406
  0
ARC
  5
37A
330
1F
100
AcDbEntity
  8
通り芯
  6
JWW_DASHED1
 62
     3
370
     9
100
AcDbCircle
 10
0.0
 20
-7275.249788282353
 30
0.0
 40
6990.000197951858
100
AcDbArc
 50
88.49961853027344
 51
88.50976562499999
  0
ARC
  5
37B
330
1F
100
AcDbEntity
  8
通り芯
  6
JWW_DASHED1
 62
     3
370
     9
100
AcDbCircle
 10
0.0
 20
-7275.249788282353
 30
0.0
 40
6990.000197951858
100
AcDbArc
 50
89.19801330566408
 51
89.35809326171876
  0
ARC
  5
37C
330
1F
100
AcDbEntity
  8
通り芯
  6
JWW_DASHED1
 62
     3
370
     9
100
AcDbCircle
 10
97.75308145059125
 20
-291.9341771389829
 30
0.0
 40
6.000000077324945
100
AcDbArc
 50
10.99880981445314
 51
83.42628479003908
  0
ARC
  5
37D
330
1F
100
AcDbEntity
  8
通り芯
  6
Continuous
 62
     3
370
     9
100
AcDbCircle
 10
0.0
 20
-7275.249788282353
 30
0.0
 40
6984.999934016048
100
AcDbArc
 50
89.18078613281249
 51
89.38925170898436
  0
ARC
  5
37E
330
1F
100
AcDbEntity
  8
通り芯
  6
Continuous
 62
     3
370
     9
100
AcDbCircle
 10
99.79624155405406
 20
-295.9637099066139
 30
0.0
 40
5.000000064437454
100
AcDbArc
 50
17.23568725585938
 51
89.17658996582033
  0
ARC
  5
37F
330
1F
100
AcDbEntity
  8
通り芯
  6
JWW_DASHED1
 62
     3
370
     9
100
AcDbCircle
 10
138.0001583614866
 20
-284.1117630500894
 30
0.0
 40
35.00000103099926
100
AcDbArc
 50
190.9989471435547
 51
197.2354278564453
  0
ARC
  5
380
330
1F
100
AcDbEntity
  8
通り芯
  6
Continuous
 62
     3
370
     9
100
AcDbCircle
 10
138.0001583614866
 20
-284.1117630500894
 30
0.0
 40
35.00000103099926
100
AcDbArc
 50
197.2354278564453
 51
247.0836486816406
  0
ARC
  5
381
330
1F
100
AcDbEntity
  8
通り芯
  6
Continuous
 62
     3
370
     9
100
AcDbCircle
 10
138.0001583614866
 20
-284.1117630500894
 30
0.0
 40
35.00000103099926
100
AcDbArc
 50
290.6570587158203
 51
346.7394409179688
  0
ARC
  5
382
330
1F
100
AcDbEntity
  8
通り芯
  6
Continuous
 62
     3
370
     9
100
AcDbCircle
 10
0.0
 20
-7275.249788282353
 30
0.0
 40
6990.000197951858
100
AcDbArc
 50
88.50976562500001
 51
88.54031372070314
  0
ARC
  5
383
330
1F
100
AcDbEntity
  8
通り芯
  6
Continuous
 62
     3
370
     9
100
AcDbCircle
 10
177.9069560282941
 20
-293.5162826209298
 30
0.0
 40
6.000000077324945
100
AcDbArc
 50
88.5339660644531
 51
166.739517211914
  0
ARC
  5
384
330
1F
100
AcDbEntity
  8
躯体
  6
Continuous
 62
     2
370
     9
100
AcDbCircle
 10
0.0
 20
262.7163883434918
 30
0.0
 40
252.9999934016047
100
AcDbArc
 50
90.0
 51
180.0
  0
ARC
  5
385
330
1F
100
AcDbEntity
  8
躯体
  6
Continuous
 62
     2
370
     9
100
AcDbCircle
 10
0.0
 20
262.7163883434918
 30
0.0
 40
257.9999975256018
100
AcDbArc
 50
90.0
 51
180.0
  0
ARC
  5
386
330
1F
100
AcDbEntity
  8
躯体
  6
Continuous
 62
     2
370
     9
100
AcDbCircle
 10
-235.0000082479941
 20
497.716322359539
 30
0.0
 40
43.99999824730126
100
AcDbArc
 50
90.0
 51
180.0
  0
ARC
  5
387
330
1F
100
AcDbEntity
  8
躯体
  6
Continuous
 62
     2
370
     9
100
AcDbCircle
 10
-235.0000082479941
 20
497.716322359539
 30
0.0
 40
45.0
100
AcDbArc
 50
90.0
 51
180.0
  0
ARC
  5
388
330
1F
100
AcDbEntity
  8
躯体
  6
Continuous
 62
     2
370
     9
100
AcDbCircle
 10
-262.0000230943834
 20
314.1456172550205
 30
0.0
 40
6.000000077324945
100
AcDbArc
 50
180.0
 51
348.8949890136719
  0
ARC
  5
389
330
1F
100
AcDbEntity
  8
躯体
  6
Continuous
 62
     2
370
     9
100
AcDbCircle
 10
-262.0000230943834
 20
314.1456172550205
 30
0.0
 40
7.000000090212435
100
AcDbArc
 50
180.0
 51
318.2794647216797
  0
ARC
  5
38A
330
1F
100
AcDbEntity
  8
躯体
  6
Continuous
 62
     2
370
     9
100
AcDbCircle
 10
0.0
 20
262.7163883434918
 30
0.0
 40
260.999988865208
100
AcDbArc
 50
169.6769409179688
 51
180.0
  0
CIRCLE
  5
38B
330
1F
100
AcDbEntity
  8
躯体
  6
Continuous
 62
     2
370
     9
100
AcDbCircle
 10
-249.0000049487964
 20
511.716467524235
 30
0.0
 40
7.499999806687639
  0
CIRCLE
  5
38C
330
1F
100
AcDbEntity
  8
躯体
  6
Continuous
 62
     2
370
     9
100
AcDbCircle
 10
-249.0000049487964
 20
511.716467524235
 30
0.0
 40
9.49999983246262
  0
ARC
  5
38D
330
1F
100
AcDbEntity
  8
躯体
  6
Continuous
 62
     2
370
     9
100
AcDbCircle
 10
-235.0000082479941
 20
497.7164708234327
 30
0.0
 40
33.99999927830052
100
AcDbArc
 50
104.9999389648438
 51
164.9999084472656
  0
ARC
  5
38E
330
1F
100
AcDbEntity
  8
躯体
  6
Continuous
 62
     2
370
     9
100
AcDbCircle
 10
-235.0000082479941
 20
497.7164708234327
 30
0.0
 40
34.99999871125092
100
AcDbArc
 50
104.0500946044922
 51
165.9497833251953
  0
ARC
  5
38F
330
1F
100
AcDbEntity
  8
躯体
  6
Continuous
 62
     2
370
     9
100
AcDbCircle
 10
-262.0000230943834
 20
489.361071356583
 30
0.0
 40
6.000000077324945
100
AcDbArc
 50
45.00050354003906
 51
180.0
  0
ARC
  5
390
330
1F
100
AcDbEntity
  8
躯体
  6
Continuous
 62
     2
370
     9
100
AcDbCircle
 10
-262.0000230943834
 20
489.361071356583
 30
0.0
 40
7.000000090212435
100
AcDbArc
 50
45.00050354003906
 51
180.0
  0
ARC
  5
391
330
1F
100
AcDbEntity
  8
躯体
  6
Continuous
 62
     2
370
     9
100
AcDbCircle
 10
-226.6446087811444
 20
524.7165599017687
 30
0.0
 40
6.000000077324945
100
AcDbArc
 50
90.0
 51
224.9994964599609
  0
ARC
  5
392
330
1F
100
AcDbEntity
  8
躯体
  6
Continuous
 62
     2
370
     9
100
AcDbCircle
 10
-226.6446087811444
 20
524.7165599017687
 30
0.0
 40
7.000000090212435
100
AcDbArc
 50
90.0
 51
224.9994964599609
  0
ARC
  5
393
330
1F
100
AcDbEntity
  8
躯体
  6
Continuous
 62
     2
370
     9
100
AcDbCircle
 10
-51.42915467958187
 20
524.7167083656624
 30
0.0
 40
6.000000077324945
100
AcDbArc
 50
281.1050109863281
 51
90.0
  0
ARC
  5
394
330
1F
100
AcDbEntity
  8
躯体
  6
Continuous
 62
     2
370
     9
100
AcDbCircle
 10
-51.42915467958187
 20
524.7167083656624
 30
0.0
 40
7.000000090212435
100
AcDbArc
 50
311.7205352783203
 51
90.00000000000003
  0
ARC
  5
395
330
1F
100
AcDbEntity
  8
躯体
  6
Continuous
 62
     2
370
     9
100
AcDbCircle
 10
0.0
 20
262.7163883434918
 30
0.0
 40
260.999988865208
100
AcDbArc
 50
90.0
 51
100.3230285644531
  0
ARC
  5
396
330
1F
100
AcDbEntity
  8
躯体
  6
Continuous
 62
     2
370
     9
100
AcDbCircle
 10
-237.1972738729941
 20
-318.715653134021
 30
0.0
 40
5.000000064437454
100
AcDbArc
 50
270.0
 51
356.4237213134766
  0
ARC
  5
397
330
1F
100
AcDbEntity
  8
躯体
  6
Continuous
 62
     2
370
     9
100
AcDbCircle
 10
-245.3293094119509
 20
-318.715653134021
 30
0.0
 40
5.000000064437454
100
AcDbArc
 50
183.9006500244141
 51
270.0
  0
ARC
  5
398
330
1F
100
AcDbEntity
  8
躯体
  6
Continuous
 62
     2
370
     9
100
AcDbCircle
 10
-265.6632954365498
 20
-317.7156003468588
 30
0.0
 40
5.000000064437454
100
AcDbArc
 50
270.0
 51
356.0089874267578
  0
ARC
  5
399
330
1F
100
AcDbEntity
  8
躯体
  6
Continuous
 62
     2
370
     9
100
AcDbCircle
 10
0.0
 20
262.7163883434918
 30
0.0
 40
258.6976664775127
100
AcDbArc
 50
134.3355560302734
 51
135.6644134521484
  0
ARC
  5
39A
330
1F
100
AcDbEntity
  8
躯体
  6
Continuous
 62
     2
370
     9
100
AcDbCircle
 10
-170.2902386639569
 20
468.3621897845812
 30
0.0
 40
6.000000077324945
100
AcDbArc
 50
225.0
 51
309.6273193359375
  0
ARC
  5
39B
330
1F
100
AcDbEntity
  8
躯体
  6
Continuous
 62
     2
370
     9
100
AcDbCircle
 10
-170.2902386639569
 20
468.3621897845812
 30
0.0
 40
8.000000103099927
100
AcDbArc
 50
225.0003814697266
 51
268.7872467041016
  0
ARC
  5
39C
330
1F
100
AcDbEntity
  8
躯体
  6
Continuous
 62
     2
370
     9
100
AcDbCircle
 10
0.0
 20
262.7163883434918
 30
0.0
 40
260.999988865208
100
AcDbArc
 50
101.1056365966797
 51
129.6273193359375
  0
ARC
  5
39D
330
1F
100
AcDbEntity
  8
躯体
  6
Continuous
 62
     2
370
     9
100
AcDbCircle
 10
0.0
 20
262.7163883434918
 30
0.0
 40
260.999988865208
100
AcDbArc
 50
130.7758636474609
 51
133.6827545166016
  0
ARC
  5
39E
330
1F
100
AcDbEntity
  8
躯体
  6
Continuous
 62
     2
370
     9
100
AcDbCircle
 10
-205.6456529771959
 20
433.0067012393955
 30
0.0
 40
6.000000077324945
100
AcDbArc
 50
320.3726806640625
 51
45.0
  0
ARC
  5
39F
330
1F
100
AcDbEntity
  8
躯体
  6
Continuous
 62
     2
370
     9
100
AcDbCircle
 10
-205.6456529771959
 20
433.0067012393955
 30
0.0
 40
8.000000103099927
100
AcDbArc
 50
1.212753295898436
 51
44.99961853027344
  0
ARC
  5
3A0
330
1F
100
AcDbEntity
  8
躯体
  6
Continuous
 62
     2
370
     9
100
AcDbCircle
 10
0.0
 20
262.7163883434918
 30
0.0
 40
260.999988865208
100
AcDbArc
 50
136.3172302246094
 51
139.22412109375
  0
ARC
  5
3A1
330
1F
100
AcDbEntity
  8
躯体
  6
Continuous
 62
     2
370
     9
100
AcDbCircle
 10
0.0
 20
262.7163883434918
 30
0.0
 40
260.999988865208
100
AcDbArc
 50
140.3726654052735
 51
168.8943328857422
  0
ARC
  5
3A2
330
1F
100
AcDbEntity
  8
躯体
  6
Continuous
 62
     2
370
     9
100
AcDbCircle
 10
0.0
 20
262.7163883434918
 30
0.0
 40
252.9999934016047
100
AcDbArc
 50
0.0
 51
90.0
  0
ARC
  5
3A3
330
1F
100
AcDbEntity
  8
躯体
  6
Continuous
 62
     2
370
     9
100
AcDbCircle
 10
0.0
 20
262.7163883434918
 30
0.0
 40
257.9999975256018
100
AcDbArc
 50
0.0
 51
90.0
  0
ARC
  5
3A4
330
1F
100
AcDbEntity
  8
躯体
  6
Continuous
 62
     2
370
     9
100
AcDbCircle
 10
234.9999340160473
 20
497.716322359539
 30
0.0
 40
43.99999824730126
100
AcDbArc
 50
0.0
 51
90.0
  0
ARC
  5
3A5
330
1F
100
AcDbEntity
  8
躯体
  6
Continuous
 62
     2
370
     9
100
AcDbCircle
 10
234.9999340160473
 20
497.716322359539
 30
0.0
 40
45.0
100
AcDbArc
 50
0.0
 51
90.0
  0
ARC
  5
3A6
330
1F
100
AcDbEntity
  8
躯体
  6
Continuous
 62
     2
370
     9
100
AcDbCircle
 10
262.000171558277
 20
314.1456172550205
 30
0.0
 40
6.000000077324945
100
AcDbArc
 50
191.1050109863281
 51
0.0
  0
ARC
  5
3A7
330
1F
100
AcDbEntity
  8
躯体
  6
Continuous
 62
     2
370
     9
100
AcDbCircle
 10
262.000171558277
 20
314.1456172550205
 30
0.0
 40
7.000000090212435
100
AcDbArc
 50
221.7205352783203
 51
0.0
  0
ARC
  5
3A8
330
1F
100
AcDbEntity
  8
躯体
  6
Continuous
 62
     2
370
     9
100
AcDbCircle
 10
0.0
 20
262.7163883434918
 30
0.0
 40
260.999988865208
100
AcDbArc
 50
0.0
 51
10.32305908203125
  0
CIRCLE
  5
3A9
330
1F
100
AcDbEntity
  8
躯体
  6
Continuous
 62
     2
370
     9
100
AcDbCircle
 10
249.0000791807433
 20
511.716467524235
 30
0.0
 40
7.499999806687639
  0
CIRCLE
  5
3AA
330
1F
100
AcDbEntity
  8
躯体
  6
Continuous
 62
     2
370
     9
100
AcDbCircle
 10
249.0000791807433
 20
511.716467524235
 30
0.0
 40
9.49999983246262
  0
ARC
  5
3AB
330
1F
100
AcDbEntity
  8
躯体
  6
Continuous
 62
     2
370
     9
100
AcDbCircle
 10
234.9999340160473
 20
497.7164708234327
 30
0.0
 40
33.99999927830052
100
AcDbArc
 50
15.00009155273439
 51
75.00006103515626
  0
ARC
  5
3AC
330
1F
100
AcDbEntity
  8
躯体
  6
Continuous
 62
     2
370
     9
100
AcDbCircle
 10
234.9999340160473
 20
497.7164708234327
 30
0.0
 40
34.99999871125092
100
AcDbArc
 50
14.05021667480471
 51
75.94990539550783
  0
ARC
  5
3AD
330
1F
100
AcDbEntity
  8
躯体
  6
Continuous
 62
     2
370
     9
100
AcDbCircle
 10
262.000171558277
 20
489.361071356583
 30
0.0
 40
6.000000077324945
100
AcDbArc
 50
0.0
 51
134.9994964599609
  0
ARC
  5
3AE
330
1F
100
AcDbEntity
  8
躯体
  6
Continuous
 62
     2
370
     9
100
AcDbCircle
 10
262.000171558277
 20
489.361071356583
 30
0.0
 40
7.000000090212435
100
AcDbArc
 50
0.0
 51
134.9994964599609
  0
ARC
  5
3AF
330
1F
100
AcDbEntity
  8
躯体
  6
Continuous
 62
     2
370
     9
100
AcDbCircle
 10
226.6446830130913
 20
524.7165599017687
 30
0.0
 40
6.000000077324945
100
AcDbArc
 50
315.0005035400391
 51
90.0
  0
ARC
  5
3B0
330
1F
100
AcDbEntity
  8
躯体
  6
Continuous
 62
     2
370
     9
100
AcDbCircle
 10
226.6446830130913
 20
524.7165599017687
 30
0.0
 40
7.000000090212435
100
AcDbArc
 50
315.0005035400391
 51
90.0
  0
ARC
  5
3B1
330
1F
100
AcDbEntity
  8
躯体
  6
Continuous
 62
     2
370
     9
100
AcDbCircle
 10
51.42930314347564
 20
524.7167083656624
 30
0.0
 40
6.000000077324945
100
AcDbArc
 50
90.0
 51
258.8949890136719
  0
ARC
  5
3B2
330
1F
100
AcDbEntity
  8
躯体
  6
Continuous
 62
     2
370
     9
100
AcDbCircle
 10
51.42930314347564
 20
524.7167083656624
 30
0.0
 40
7.000000090212435
100
AcDbArc
 50
90.0
 51
228.2794647216797
  0
ARC
  5
3B3
330
1F
100
AcDbEntity
  8
躯体
  6
Continuous
 62
     2
370
     9
100
AcDbCircle
 10
0.0
 20
262.7163883434918
 30
0.0
 40
260.999988865208
100
AcDbArc
 50
79.67697143554693
 51
90.00000000000006
  0
ARC
  5
3B4
330
1F
100
AcDbEntity
  8
躯体
  6
Continuous
 62
     2
370
     9
100
AcDbCircle
 10
0.0
 20
262.7163883434918
 30
0.0
 40
258.6976664775127
100
AcDbArc
 50
44.33558654785158
 51
45.66444396972658
  0
ARC
  5
3B5
330
1F
100
AcDbEntity
  8
躯体
  6
Continuous
 62
     2
370
     9
100
AcDbCircle
 10
170.2901644320102
 20
468.3621897845812
 30
0.0
 40
6.000000077324945
100
AcDbArc
 50
230.3726806640625
 51
315.0
  0
ARC
  5
3B6
330
1F
100
AcDbEntity
  8
躯体
  6
Continuous
 62
     2
370
     9
100
AcDbCircle
 10
170.2901644320102
 20
468.3621897845812
 30
0.0
 40
8.000000103099927
100
AcDbArc
 50
271.2127532958984
 51
314.9996185302734
  0
ARC
  5
3B7
330
1F
100
AcDbEntity
  8
躯体
  6
Continuous
 62
     2
370
     9
100
AcDbCircle
 10
0.0
 20
262.7163883434918
 30
0.0
 40
260.999988865208
100
AcDbArc
 50
50.3726806640625
 51
78.89436340332031
  0
ARC
  5
3B8
330
1F
100
AcDbEntity
  8
躯体
  6
Continuous
 62
     2
370
     9
100
AcDbCircle
 10
0.0
 20
262.7163883434918
 30
0.0
 40
260.999988865208
100
AcDbArc
 50
46.31724548339845
 51
49.22413635253908
  0
ARC
  5
3B9
330
1F
100
AcDbEntity
  8
躯体
  6
Continuous
 62
     2
370
     9
100
AcDbCircle
 10
205.6456529771961
 20
433.0067012393955
 30
0.0
 40
6.000000077324945
100
AcDbArc
 50
135.0
 51
219.6273193359375
  0
ARC
  5
3BA
330
1F
100
AcDbEntity
  8
躯体
  6
Continuous
 62
     2
370
     9
100
AcDbCircle
 10
205.6456529771961
 20
433.0067012393955
 30
0.0
 40
8.000000103099927
100
AcDbArc
 50
135.0003814697266
 51
178.7872467041016
  0
ARC
  5
3BB
330
1F
100
AcDbEntity
  8
躯体
  6
Continuous
 62
     2
370
     9
100
AcDbCircle
 10
0.0
 20
262.7163883434918
 30
0.0
 40
260.999988865208
100
AcDbArc
 50
40.77587890624999
 51
43.68276977539062
  0
ARC
  5
3BC
330
1F
100
AcDbEntity
  8
躯体
  6
Continuous
 62
     2
370
     9
100
AcDbCircle
 10
0.0
 20
262.7163883434918
 30
0.0
 40
260.999988865208
100
AcDbArc
 50
11.10566711425783
 51
39.62733459472658
  0
CIRCLE
  5
3BD
330
1F
100
AcDbEntity
  8
躯体
  6
Continuous
 62
     2
370
     9
100
AcDbCircle
 10
188.0001253695102
 20
509.7163619499106
 30
0.0
 40
6.499999793800148
  0
CIRCLE
  5
3BE
330
1F
100
AcDbEntity
  8
躯体
  6
Continuous
 62
     2
370
     9
100
AcDbCircle
 10
188.0001253695102
 20
509.7163619499106
 30
0.0
 40
8.000000103099927
  0
ARC
  5
3BF
330
1F
100
AcDbEntity
  8
躯体
  6
Continuous
 62
     2
370
     9
100
AcDbCircle
 10
-207.6483566696578
 20
-308.7155706540801
 30
0.0
 40
3.000000038662472
100
AcDbArc
 50
7.1253662109375
 51
90.00000000000001
  0
ARC
  5
3C0
330
1F
100
AcDbEntity
  8
躯体
  6
Continuous
 62
     2
370
     9
100
AcDbCircle
 10
237.1971996410473
 20
-318.715653134021
 30
0.0
 40
5.000000064437454
100
AcDbArc
 50
183.5762786865234
 51
270.0
  0
ARC
  5
3C1
330
1F
100
AcDbEntity
  8
躯体
  6
Continuous
 62
     2
370
     9
100
AcDbCircle
 10
245.3294578758447
 20
-318.715653134021
 30
0.0
 40
5.000000064437454
100
AcDbArc
 50
270.0
 51
356.0993499755859
  0
ARC
  5
3C2
330
1F
100
AcDbEntity
  8
躯体
  6
Continuous
 62
     2
370
     9
100
AcDbCircle
 10
265.6633696684967
 20
-317.7156003468588
 30
0.0
 40
5.000000064437454
100
AcDbArc
 50
183.9910125732422
 51
270.0
  0
ARC
  5
3C3
330
1F
100
AcDbEntity
  8
躯体
  6
Continuous
 62
     2
370
     9
100
AcDbCircle
 10
207.6484309016049
 20
-308.7155706540801
 30
0.0
 40
3.000000038662472
100
AcDbArc
 50
90.0
 51
172.8746337890625
  0
ARC
  5
3C4
330
1F
100
AcDbEntity
  8
躯体
  6
Continuous
 62
     2
370
     9
100
AcDbCircle
 10
-223.9009217958192
 20
-299.7159863529821
 30
0.0
 40
8.000000103099927
100
AcDbArc
 50
90.0
 51
161.7866516113281
  0
ARC
  5
3C5
330
1F
100
AcDbEntity
  8
躯体
  6
Continuous
 62
     2
370
     9
100
AcDbCircle
 10
223.901070259713
 20
-299.7159863529821
 30
0.0
 40
8.000000103099927
100
AcDbArc
 50
18.21334838867187
 51
90.0
  0
ARC
  5
3C6
330
1F
100
AcDbEntity
  8
通り芯
  6
Continuous
 62
     3
370
     9
100
AcDbCircle
 10
0.0
 20
262.7163883434918
 30
0.0
 40
250.0000020619985
100
AcDbArc
 50
0.0
 51
180.0
  0
ARC
  5
3C7
330
1F
100
AcDbEntity
  8
通り芯
  6
Continuous
 62
     3
370
     9
100
AcDbCircle
 10
0.0
 20
262.7163883434918
 30
0.0
 40
230.0000041239971
100
AcDbArc
 50
177.7574157714844
 51
180.0
  0
ARC
  5
3C8
330
1F
100
AcDbEntity
  8
仕上
  6
Continuous
 62
     3
370
     9
100
AcDbCircle
 10
79.00001319679063
 20
233.2714700976091
 30
0.0
 40
5.000000064437454
100
AcDbArc
 50
180.0
 51
239.9999694824219
  0
ARC
  5
3C9
330
1F
100
AcDbEntity
  8
仕上
  6
Continuous
 62
     3
370
     9
100
AcDbCircle
 10
65.000090727935
 20
209.0227881270644
 30
0.0
 40
5.000000064437454
100
AcDbArc
 50
59.99996948242188
 51
120.0000305175781
  0
ARC
  5
3CA
330
1F
100
AcDbEntity
  8
仕上
  6
Continuous
 62
     3
370
     9
100
AcDbCircle
 10
130.2087732263514
 20
203.7059991701388
 30
0.0
 40
5.000000064437454
100
AcDbArc
 50
240.0005798339844
 51
295.7671051025391
  0
ARC
  5
3CB
330
1F
100
AcDbEntity
  8
仕上
  6
Continuous
 62
     3
370
     9
100
AcDbCircle
 10
143.8080658783784
 20
179.6885497138464
 30
0.0
 40
5.000000064437454
100
AcDbArc
 50
124.2332916259766
 51
175.766357421875
  0
ARC
  5
3CC
330
1F
100
AcDbEntity
  8
仕上
  6
Continuous
 62
     3
370
     9
100
AcDbCircle
 10
116.2089249894427
 20
179.4572429676472
 30
0.0
 40
5.000000064437454
100
AcDbArc
 50
4.233642578125
 51
59.99996948242188
  0
ARC
  5
3CD
330
1F
100
AcDbEntity
  8
仕上
  6
Continuous
 62
     3
370
     9
100
AcDbCircle
 10
195.1308461782095
 20
217.03018822736
 30
0.0
 40
3.000000038662472
100
AcDbArc
 50
60.00013732910156
 51
124.2336730957032
  0
ARC
  5
3CE
330
1F
100
AcDbEntity
  8
仕上
  6
Continuous
 62
     3
370
     9
100
AcDbCircle
 10
130.0000329919764
 20
104.5223196410002
 30
0.0
 40
3.000000038662472
100
AcDbArc
 50
60.00013732910156
 51
119.9998626708985
  0
ARC
  5
3CF
330
1F
100
AcDbEntity
  8
仕上
  6
Continuous
 62
     3
370
     9
100
AcDbCircle
 10
137.1307538006758
 20
116.57120385236
 30
0.0
 40
3.000000038662472
100
AcDbArc
 50
175.7677459716797
 51
240.000732421875
  0
ARC
  5
3D0
330
1F
100
AcDbEntity
  8
仕上
  6
Continuous
 62
     3
370
     9
100
AcDbCircle
 10
122.869312183277
 20
116.57120385236
 30
0.0
 40
3.000000038662472
100
AcDbArc
 50
299.999267578125
 51
4.232254028320305
  0
ARC
  5
3D1
330
1F
100
AcDbEntity
  8
仕上
  6
Continuous
 62
     3
370
     9
100
AcDbCircle
 10
65.000090727935
 20
83.16029538529924
 30
0.0
 40
3.000000038662472
100
AcDbArc
 50
240.0001373291016
 51
299.9998626708984
  0
ARC
  5
3D2
330
1F
100
AcDbEntity
  8
仕上
  6
Continuous
 62
     3
370
     9
100
AcDbCircle
 10
72.00023754222985
 20
71.03599151600017
 30
0.0
 40
3.000000038662472
100
AcDbArc
 50
120.0002899169922
 51
180.0
  0
ARC
  5
3D3
330
1F
100
AcDbEntity
  8
仕上
  6
Continuous
 62
     3
370
     9
100
AcDbCircle
 10
58.00001814558703
 20
71.03599151600017
 30
0.0
 40
3.000000038662472
100
AcDbArc
 50
0.0
 51
59.99971008300781
  0
ARC
  5
3D4
330
1F
100
AcDbEntity
  8
仕上
  6
Continuous
 62
     3
370
     9
100
AcDbCircle
 10
79.00001319679063
 20
233.2714700976091
 30
0.0
 40
3.999999761581421
100
AcDbArc
 50
180.0
 51
239.9999694824219
  0
ARC
  5
3D5
330
1F
100
AcDbEntity
  8
仕上
  6
Continuous
 62
     3
370
     9
100
AcDbCircle
 10
130.2087732263514
 20
203.7059991701388
 30
0.0
 40
3.999999761581421
100
AcDbArc
 50
240.0005798339844
 51
295.7671051025391
  0
ARC
  5
3D6
330
1F
100
AcDbEntity
  8
仕上
  6
Continuous
 62
     3
370
     9
100
AcDbCircle
 10
122.869312183277
 20
116.57120385236
 30
0.0
 40
1.99999988079071
100
AcDbArc
 50
299.999267578125
 51
4.232254028320305
  0
ARC
  5
3D7
330
1F
100
AcDbEntity
  8
仕上
  6
Continuous
 62
     3
370
     9
100
AcDbCircle
 10
65.000090727935
 20
209.0227881270644
 30
0.0
 40
3.999999761581421
100
AcDbArc
 50
59.99996948242188
 51
120.0000305175781
  0
ARC
  5
3D8
330
1F
100
AcDbEntity
  8
仕上
  6
Continuous
 62
     3
370
     9
100
AcDbCircle
 10
116.2089249894427
 20
179.4572429676472
 30
0.0
 40
3.999999761581421
100
AcDbArc
 50
4.233642578125
 51
59.99996948242188
  0
ARC
  5
3D9
330
1F
100
AcDbEntity
  8
仕上
  6
Continuous
 62
     3
370
     9
100
AcDbCircle
 10
13.79103377058703
 20
179.4573171995939
 30
0.0
 40
5.000000064437454
100
AcDbArc
 50
120.0000305175781
 51
175.766357421875
  0
ARC
  5
3DA
330
1F
100
AcDbEntity
  8
仕上
  6
Continuous
 62
     3
370
     9
100
AcDbCircle
 10
13.79103377058703
 20
179.4573171995939
 30
0.0
 40
3.999999761581421
100
AcDbArc
 50
120.0000305175781
 51
175.766357421875
  0
ARC
  5
3DB
330
1F
100
AcDbEntity
  8
仕上
  6
Continuous
 62
     3
370
     9
100
AcDbCircle
 10
65.000090727935
 20
83.16029538529924
 30
0.0
 40
1.99999988079071
100
AcDbArc
 50
240.0001373291016
 51
299.9998626708984
  0
ARC
  5
3DC
330
1F
100
AcDbEntity
  8
仕上
  6
Continuous
 62
     3
370
     9
100
AcDbCircle
 10
195.2650575380069
 20
215.9120324128541
 30
0.0
 40
3.000000038662472
100
AcDbArc
 50
63.05876159667969
 51
124.2326965332031
  0
ARC
  5
3DD
330
1F
100
AcDbEntity
  8
仕上
  6
Continuous
 62
     3
370
     9
100
AcDbCircle
 10
144.7698149809967
 20
179.1334432157467
 30
0.0
 40
5.000000064437454
100
AcDbArc
 50
124.2326965332031
 51
175.766357421875
  0
ARC
  5
3DE
330
1F
100
AcDbEntity
  8
仕上
  6
Continuous
 62
     3
370
     9
100
AcDbCircle
 10
138.1661409945102
 20
117.0139231830188
 30
0.0
 40
3.000000038662472
100
AcDbArc
 50
175.7665710449218
 51
236.9417114257812
  0
ARC
  5
3DF
330
1F
100
AcDbEntity
  8
仕上
  6
Continuous
 62
     3
370
     9
100
AcDbCircle
 10
130.1045515730575
 20
103.4279922814141
 30
0.0
 40
3.000000038662472
100
AcDbArc
 50
63.51895141601563
 51
120.0002899169922
  0
ARC
  5
3E0
330
1F
100
AcDbEntity
  8
仕上
  6
Continuous
 62
     3
370
     9
100
AcDbCircle
 10
72.89547482052376
 20
70.39833909306938
 30
0.0
 40
3.000000038662472
100
AcDbArc
 50
119.9998626708985
 51
176.4818115234375
  0
ARC
  5
3E1
330
1F
100
AcDbEntity
  8
仕上
  6
Continuous
 62
     3
370
     9
100
AcDbCircle
 10
57.09082526129657
 20
70.40620767942923
 30
0.0
 40
3.000000038662472
100
AcDbArc
 50
3.049545288085938
 51
60.00013732910156
  0
ARC
  5
3E2
330
1F
100
AcDbEntity
  8
仕上
  6
Continuous
 62
     3
370
     9
100
AcDbCircle
 10
-78.99993896484375
 20
233.2714700976091
 30
0.0
 40
5.000000064437454
100
AcDbArc
 50
300.0000305175782
 51
0.0000000000000568
  0
ARC
  5
3E3
330
1F
100
AcDbEntity
  8
仕上
  6
Continuous
 62
     3
370
     9
100
AcDbCircle
 10
-64.99994226404124
 20
209.0227881270644
 30
0.0
 40
5.000000064437454
100
AcDbArc
 50
59.99996948242189
 51
120.0000305175782
  0
ARC
  5
3E4
330
1F
100
AcDbEntity
  8
仕上
  6
Continuous
 62
     3
370
     9
100
AcDbCircle
 10
-130.2088474582981
 20
203.7059991701388
 30
0.0
 40
5.000000064437454
100
AcDbArc
 50
244.2328948974609
 51
299.9994201660157
  0
ARC
  5
3E5
330
1F
100
AcDbEntity
  8
仕上
  6
Continuous
 62
     3
370
     9
100
AcDbCircle
 10
-143.8081401103252
 20
179.6885497138464
 30
0.0
 40
5.000000064437454
100
AcDbArc
 50
4.233642578125012
 51
55.76670837402346
  0
ARC
  5
3E6
330
1F
100
AcDbEntity
  8
仕上
  6
Continuous
 62
     3
370
     9
100
AcDbCircle
 10
-116.2089249894425
 20
179.4572429676472
 30
0.0
 40
5.000000064437454
100
AcDbArc
 50
120.0000305175782
 51
175.766357421875
  0
ARC
  5
3E7
330
1F
100
AcDbEntity
  8
仕上
  6
Continuous
 62
     3
370
     9
100
AcDbCircle
 10
-195.1308461782094
 20
217.03018822736
 30
0.0
 40
3.000000038662472
100
AcDbArc
 50
55.7663269042969
 51
119.9998626708985
  0
ARC
  5
3E8
330
1F
100
AcDbEntity
  8
仕上
  6
Continuous
 62
     3
370
     9
100
AcDbCircle
 10
-129.9999587600295
 20
104.5223196410002
 30
0.0
 40
3.000000038662472
100
AcDbArc
 50
60.00013732910155
 51
119.9998626708984
  0
ARC
  5
3E9
330
1F
100
AcDbEntity
  8
仕上
  6
Continuous
 62
     3
370
     9
100
AcDbCircle
 10
-137.1307538006756
 20
116.57120385236
 30
0.0
 40
3.000000038662472
100
AcDbArc
 50
299.9992675781251
 51
4.232254028320369
  0
ARC
  5
3EA
330
1F
100
AcDbEntity
  8
仕上
  6
Continuous
 62
     3
370
     9
100
AcDbCircle
 10
-122.8691637193834
 20
116.57120385236
 30
0.0
 40
3.000000038662472
100
AcDbArc
 50
175.7677459716797
 51
240.0007324218751
  0
ARC
  5
3EB
330
1F
100
AcDbEntity
  8
仕上
  6
Continuous
 62
     3
370
     9
100
AcDbCircle
 10
-64.99994226404124
 20
83.16029538529924
 30
0.0
 40
3.000000038662472
100
AcDbArc
 50
240.0001373291016
 51
299.9998626708984
  0
ARC
  5
3EC
330
1F
100
AcDbEntity
  8
仕上
  6
Continuous
 62
     3
370
     9
100
AcDbCircle
 10
-72.0000148463892
 20
71.03599151600017
 30
0.0
 40
3.000000038662472
100
AcDbArc
 50
0.0
 51
59.99971008300781
  0
ARC
  5
3ED
330
1F
100
AcDbEntity
  8
仕上
  6
Continuous
 62
     3
370
     9
100
AcDbCircle
 10
-57.99994391364015
 20
71.03599151600017
 30
0.0
 40
3.000000038662472
100
AcDbArc
 50
120.0002899169922
 51
180.0
  0
ARC
  5
3EE
330
1F
100
AcDbEntity
  8
仕上
  6
Continuous
 62
     3
370
     9
100
AcDbCircle
 10
-78.99993896484375
 20
233.2714700976091
 30
0.0
 40
3.999999761581421
100
AcDbArc
 50
300.0000305175782
 51
0.0000000000000568
  0
ARC
  5
3EF
330
1F
100
AcDbEntity
  8
仕上
  6
Continuous
 62
     3
370
     9
100
AcDbCircle
 10
-130.2088474582981
 20
203.7059991701388
 30
0.0
 40
3.999999761581421
100
AcDbArc
 50
244.2328948974609
 51
299.9994201660157
  0
ARC
  5
3F0
330
1F
100
AcDbEntity
  8
仕上
  6
Continuous
 62
     3
370
     9
100
AcDbCircle
 10
-122.8691637193834
 20
116.57120385236
 30
0.0
 40
1.99999988079071
100
AcDbArc
 50
175.7677459716797
 51
240.0007324218751
  0
ARC
  5
3F1
330
1F
100
AcDbEntity
  8
仕上
  6
Continuous
 62
     3
370
     9
100
AcDbCircle
 10
-64.99994226404124
 20
209.0227881270644
 30
0.0
 40
3.999999761581421
100
AcDbArc
 50
59.99996948242189
 51
120.0000305175782
  0
ARC
  5
3F2
330
1F
100
AcDbEntity
  8
仕上
  6
Continuous
 62
     3
370
     9
100
AcDbCircle
 10
-116.2089249894425
 20
179.4572429676472
 30
0.0
 40
3.999999761581421
100
AcDbArc
 50
120.0000305175782
 51
175.766357421875
  0
ARC
  5
3F3
330
1F
100
AcDbEntity
  8
仕上
  6
Continuous
 62
     3
370
     9
100
AcDbCircle
 10
-13.79103377058686
 20
179.4573171995939
 30
0.0
 40
5.000000064437454
100
AcDbArc
 50
4.233642578125012
 51
59.99996948242189
  0
ARC
  5
3F4
330
1F
100
AcDbEntity
  8
仕上
  6
Continuous
 62
     3
370
     9
100
AcDbCircle
 10
-13.79103377058686
 20
179.4573171995939
 30
0.0
 40
3.999999761581421
100
AcDbArc
 50
4.233642578125012
 51
59.99996948242189
  0
ARC
  5
3F5
330
1F
100
AcDbEntity
  8
仕上
  6
Continuous
 62
     3
370
     9
100
AcDbCircle
 10
-64.99994226404124
 20
83.16029538529924
 30
0.0
 40
1.99999988079071
100
AcDbArc
 50
240.0001373291016
 51
299.9998626708984
  0
ARC
  5
3F6
330
1F
100
AcDbEntity
  8
仕上
  6
Continuous
 62
     3
370
     9
100
AcDbCircle
 10
-195.2651317699534
 20
215.9120324128541
 30
0.0
 40
3.000000038662472
100
AcDbArc
 50
55.76730346679687
 51
116.9412384033203
  0
ARC
  5
3F7
330
1F
100
AcDbEntity
  8
仕上
  6
Continuous
 62
     3
370
     9
100
AcDbCircle
 10
-144.7697407490498
 20
179.1334432157467
 30
0.0
 40
5.000000064437454
100
AcDbArc
 50
4.233642578125012
 51
55.76730346679689
  0
ARC
  5
3F8
330
1F
100
AcDbEntity
  8
仕上
  6
Continuous
 62
     3
370
     9
100
AcDbCircle
 10
-138.1662152264569
 20
117.0139231830188
 30
0.0
 40
3.000000038662472
100
AcDbArc
 50
303.0582885742188
 51
4.233428955078182
  0
ARC
  5
3F9
330
1F
100
AcDbEntity
  8
仕上
  6
Continuous
 62
     3
370
     9
100
AcDbCircle
 10
-130.1044773411106
 20
103.4279922814141
 30
0.0
 40
3.000000038662472
100
AcDbArc
 50
59.99971008300781
 51
116.4810485839844
  0
ARC
  5
3FA
330
1F
100
AcDbEntity
  8
仕上
  6
Continuous
 62
     3
370
     9
100
AcDbCircle
 10
-72.89547482052359
 20
70.39833909306938
 30
0.0
 40
3.000000038662472
100
AcDbArc
 50
3.518188476562503
 51
60.00013732910158
  0
ARC
  5
3FB
330
1F
100
AcDbEntity
  8
仕上
  6
Continuous
 62
     3
370
     9
100
AcDbCircle
 10
0.0
 20
203.8267003156202
 30
0.0
 40
5.000000064437454
100
AcDbArc
 50
239.9999694824219
 51
300.0000305175781
  0
ARC
  5
3FC
330
1F
100
AcDbEntity
  8
仕上
  6
Continuous
 62
     3
370
     9
100
AcDbCircle
 10
0.0
 20
204.9814524798938
 30
0.0
 40
5.000000064437454
100
AcDbArc
 50
239.9999694824219
 51
300.0000305175781
  0
ARC
  5
3FD
330
1F
100
AcDbEntity
  8
仕上
  6
Continuous
 62
     3
370
     9
100
AcDbCircle
 10
192.787789009713
 20
257.7164213354681
 30
0.0
 40
3.000000038662472
100
AcDbArc
 50
180.0011749267578
 51
270.0
  0
ARC
  5
3FE
330
1F
100
AcDbEntity
  8
仕上
  6
Continuous
 62
     3
370
     9
100
AcDbCircle
 10
188.7878747888514
 20
251.7164015402822
 30
0.0
 40
3.000000038662472
100
AcDbArc
 50
180.0
 51
270.0
  0
ARC
  5
3FF
330
1F
100
AcDbEntity
  8
仕上
  6
Continuous
 62
     3
370
     9
100
AcDbCircle
 10
212.7199575063345
 20
225.2163388555272
 30
0.0
 40
2.000000025774982
100
AcDbArc
 50
350.0021820068359
 51
90.00000000000001
  0
ARC
  5
400
330
1F
100
AcDbEntity
  8
仕上
  6
Continuous
 62
     3
370
     9
100
AcDbCircle
 10
213.9082625105575
 20
226.2163174107425
 30
0.0
 40
3.000000038662472
100
AcDbArc
 50
350.3170318603516
 51
90.00000000000001
  0
ARC
  5
401
330
1F
100
AcDbEntity
  8
仕上
  6
Continuous
 62
     3
370
     9
100
AcDbCircle
 10
188.7878747888514
 20
232.2163372059285
 30
0.0
 40
3.000000038662472
100
AcDbArc
 50
180.0
 51
270.0
  0
ARC
  5
402
330
1F
100
AcDbEntity
  8
仕上
  6
Continuous
 62
     3
370
     9
100
AcDbCircle
 10
188.1159272065034
 20
227.216295965958
 30
0.0
 40
1.000000012887491
100
AcDbArc
 50
295.7693328857422
 51
90.00000000000006
  0
ARC
  5
403
330
1F
100
AcDbEntity
  8
仕上
  6
Continuous
 62
     3
370
     9
100
AcDbCircle
 10
201.4877731735642
 20
227.216295965958
 30
0.0
 40
1.000000012887491
100
AcDbArc
 50
90.0
 51
239.9997100830078
  0
ARC
  5
404
330
1F
100
AcDbEntity
  8
仕上
  6
Continuous
 62
     3
370
     9
100
AcDbCircle
 10
202.9572687922299
 20
226.7162695723769
 30
0.0
 40
0.5000000064437454
100
AcDbArc
 50
90.0
 51
236.4849090576172
  0
ARC
  5
405
330
1F
100
AcDbEntity
  8
仕上
  6
Continuous
 62
     3
370
     9
100
AcDbCircle
 10
188.5289537584461
 20
230.2163800954977
 30
0.0
 40
3.000000038662472
100
AcDbArc
 50
180.0
 51
241.0614166259766
  0
ARC
  5
406
330
1F
100
AcDbEntity
  8
仕上
  6
Continuous
 62
     3
370
     9
100
AcDbCircle
 10
186.8355745882602
 20
227.1533472750795
 30
0.0
 40
0.5000000064437454
100
AcDbArc
 50
295.7693328857422
 51
61.06312561035161
  0
ARC
  5
407
330
1F
100
AcDbEntity
  8
仕上
  6
Continuous
 62
     3
370
     9
100
AcDbCircle
 10
-192.7878632416595
 20
257.7164213354681
 30
0.0
 40
3.000000038662472
100
AcDbArc
 50
270.0
 51
359.9988250732422
  0
ARC
  5
408
330
1F
100
AcDbEntity
  8
仕上
  6
Continuous
 62
     3
370
     9
100
AcDbCircle
 10
-188.7878747888512
 20
251.7164015402822
 30
0.0
 40
3.000000038662472
100
AcDbArc
 50
270.0
 51
0.0
  0
ARC
  5
409
330
1F
100
AcDbEntity
  8
仕上
  6
Continuous
 62
     3
370
     9
100
AcDbCircle
 10
-188.7878747888512
 20
232.2163372059285
 30
0.0
 40
3.000000038662472
100
AcDbArc
 50
270.0
 51
0.0
  0
ARC
  5
40A
330
1F
100
AcDbEntity
  8
仕上
  6
Continuous
 62
     3
370
     9
100
AcDbCircle
 10
-188.1160014384502
 20
227.216295965958
 30
0.0
 40
1.000000012887491
100
AcDbArc
 50
90.0
 51
244.2306671142578
  0
ARC
  5
40B
330
1F
100
AcDbEntity
  8
仕上
  6
Continuous
 62
     3
370
     9
100
AcDbCircle
 10
-201.4878474055109
 20
227.216295965958
 30
0.0
 40
1.000000012887491
100
AcDbArc
 50
300.0002899169922
 51
90.0
  0
ARC
  5
40C
330
1F
100
AcDbEntity
  8
仕上
  6
Continuous
 62
     3
370
     9
100
AcDbCircle
 10
-202.9571945602828
 20
226.7162695723769
 30
0.0
 40
0.5000000064437454
100
AcDbArc
 50
303.5150909423828
 51
90.0
  0
ARC
  5
40D
330
1F
100
AcDbEntity
  8
仕上
  6
Continuous
 62
     3
370
     9
100
AcDbCircle
 10
-188.5290279903926
 20
230.2163800954977
 30
0.0
 40
3.000000038662472
100
AcDbArc
 50
298.9385833740234
 51
0.0
  0
ARC
  5
40E
330
1F
100
AcDbEntity
  8
仕上
  6
Continuous
 62
     3
370
     9
100
AcDbCircle
 10
-186.8355003563133
 20
227.1533472750795
 30
0.0
 40
0.5000000064437454
100
AcDbArc
 50
118.9368743896484
 51
244.2306671142578
  0
ARC
  5
40F
330
1F
100
AcDbEntity
  8
仕上
  6
Continuous
 62
     3
370
     9
100
AcDbCircle
 10
-212.7198832743877
 20
225.2163388555272
 30
0.0
 40
2.000000025774982
100
AcDbArc
 50
90.0
 51
189.9978179931641
  0
ARC
  5
410
330
1F
100
AcDbEntity
  8
仕上
  6
Continuous
 62
     3
370
     9
100
AcDbCircle
 10
-213.9082625105573
 20
226.2163174107425
 30
0.0
 40
3.000000038662472
100
AcDbArc
 50
90.0
 51
189.6829681396484
  0
ARC
  5
411
330
1F
100
AcDbEntity
  8
仕上
  6
Continuous
 62
     3
370
     9
100
AcDbCircle
 10
0.0
 20
262.7163883434918
 30
0.0
 40
218.0000016495988
100
AcDbArc
 50
189.9978485107422
 51
350.0021514892578
  0
ARC
  5
412
330
1F
100
AcDbEntity
  8
仕上
  6
Continuous
 62
     3
370
     9
100
AcDbCircle
 10
0.0
 20
262.7163883434918
 30
0.0
 40
219.999995876003
100
AcDbArc
 50
189.683349609375
 51
350.316650390625
  0
ARC
  5
413
330
1F
100
AcDbEntity
  8
躯体
  6
Continuous
 62
     2
370
     9
100
AcDbCircle
 10
-222.1530563766891
 20
238.2163570011142
 30
0.0
 40
1.500000019331236
100
AcDbArc
 50
90.0
 51
186.2932281494141
  0
ARC
  5
414
330
1F
100
AcDbEntity
  8
躯体
  6
Continuous
 62
     2
370
     9
100
AcDbCircle
 10
-205.9999620592272
 20
242.7163718475036
 30
0.0
 40
3.000000038662472
100
AcDbArc
 50
270.0
 51
0.0
  0
ARC
  5
415
330
1F
100
AcDbEntity
  8
躯体
  6
Continuous
 62
     2
370
     9
100
AcDbCircle
 10
0.0
 20
262.7163883434918
 30
0.0
 40
225.0
100
AcDbArc
 50
186.2933959960938
 51
0.0000000000000254
  0
ARC
  5
416
330
1F
100
AcDbEntity
  8
躯体
  6
Continuous
 62
     2
370
     9
100
AcDbCircle
 10
0.0
 20
262.7163883434918
 30
0.0
 40
225.0
100
AcDbArc
 50
180.0
 51
181.9230499267578
  0
ARC
  5
417
330
1F
100
AcDbEntity
  8
躯体
  6
Continuous
 62
     2
370
     9
100
AcDbCircle
 10
-223.3740976694467
 20
255.2162893675627
 30
0.0
 40
1.500000019331236
100
AcDbArc
 50
180.0
 51
270.0
  0
ARC
  5
418
330
1F
100
AcDbEntity
  8
仕上
  6
Continuous
 62
     3
370
     9
100
AcDbCircle
 10
208.288013355152
 20
256.2163421547249
 30
0.0
 40
1.500000019331236
100
AcDbArc
 50
270.0
 51
0.0
  0
ARC
  5
419
330
1F
100
AcDbEntity
  8
仕上
  6
Continuous
 62
     3
370
     9
100
AcDbCircle
 10
208.9002784522805
 20
255.6040028256497
 30
0.0
 40
1.500000019331236
100
AcDbArc
 50
270.0
 51
0.0
  0
ARC
  5
41A
330
1F
100
AcDbEntity
  8
仕上
  6
Continuous
 62
     3
370
     9
100
AcDbCircle
 10
-208.2878648912584
 20
256.2163421547249
 30
0.0
 40
1.500000019331236
100
AcDbArc
 50
180.0
 51
270.0
  0
ARC
  5
41B
330
1F
100
AcDbEntity
  8
仕上
  6
Continuous
 62
     3
370
     9
100
AcDbCircle
 10
-208.9002784522803
 20
255.6040028256497
 30
0.0
 40
1.500000019331236
100
AcDbArc
 50
180.0
 51
270.0
  0
ARC
  5
41C
330
1F
100
AcDbEntity
  8
躯体
  6
Continuous
 62
     2
370
     9
100
AcDbCircle
 10
207.9999934016049
 20
244.9663421547249
 30
0.0
 40
3.000000038662472
100
AcDbArc
 50
180.0
 51
270.0
  0
ARC
  5
41D
330
1F
100
AcDbEntity
  8
躯体
  6
Continuous
 62
     2
370
     9
100
AcDbCircle
 10
223.5958284945102
 20
240.4663273083355
 30
0.0
 40
1.500000019331236
100
AcDbArc
 50
72.96226501464842
 51
90.0
  0
CIRCLE
  5
41E
330
1F
100
AcDbEntity
  8
躯体
  6
Continuous
 62
     2
370
     9
100
AcDbCircle
 10
-249.0000791807431
 20
13.71653185858892
 30
0.0
 40
7.499999806687639
  0
ARC
  5
41F
330
1F
100
AcDbEntity
  8
躯体
  6
Continuous
 62
     2
370
     9
100
AcDbCircle
 10
-234.9999340160472
 20
27.71638009549767
 30
0.0
 40
44.99999536050333
100
AcDbArc
 50
180.0
 51
270.0
  0
CIRCLE
  5
420
330
1F
100
AcDbEntity
  8
躯体
  6
Continuous
 62
     2
370
     9
100
AcDbCircle
 10
249.0000791807433
 20
13.71653185858892
 30
0.0
 40
7.499999806687639
  0
ARC
  5
421
330
1F
100
AcDbEntity
  8
躯体
  6
Continuous
 62
     2
370
     9
100
AcDbCircle
 10
234.9999340160473
 20
27.71638009549767
 30
0.0
 40
44.99999536050333
100
AcDbArc
 50
270.0
 51
0.0
  0
ARC
  5
422
330
1F
100
AcDbEntity
  8
仕上
  6
Continuous
 62
     3
370
     9
100
AcDbCircle
 10
30.28203190983953
 20
-308.8263247186916
 30
0.0
 40
3.000000038662472
100
AcDbArc
 50
184.3163604736328
 51
270.0
  0
ARC
  5
423
330
1F
100
AcDbEntity
  8
仕上
  6
Continuous
 62
     3
370
     9
100
AcDbCircle
 10
34.71783612225516
 20
-308.8263247186916
 30
0.0
 40
3.000000038662472
100
AcDbArc
 50
270.0
 51
355.6836853027344
  0
ARC
  5
424
330
1F
100
AcDbEntity
  8
建具
  6
Continuous
 62
     4
370
     9
100
AcDbCircle
 10
32.50000824799423
 20
-317.5764896785734
 30
0.0
 40
15.24998729293411
100
AcDbArc
 50
180.0
 51
0.0
  0
ARC
  5
425
330
1F
100
AcDbEntity
  8
建具
  6
Continuous
 62
     4
370
     9
100
AcDbCircle
 10
32.50000824799423
 20
-317.5764896785734
 30
0.0
 40
8.24999068234418
100
AcDbArc
 50
180.0
 51
0.0
  0
ARC
  5
426
330
1F
100
AcDbEntity
  8
建具
  6
Continuous
 62
     4
370
     9
100
AcDbCircle
 10
20.74990762246625
 20
-292.3263445138774
 30
0.0
 40
3.499999175200592
100
AcDbArc
 50
0.0
 51
180.0
  0
ARC
  5
427
330
1F
100
AcDbEntity
  8
建具
  6
Continuous
 62
     4
370
     9
100
AcDbCircle
 10
44.25003464157533
 20
-292.3263445138774
 30
0.0
 40
3.499999175200592
100
AcDbArc
 50
0.0
 51
180.0
  0
ARC
  5
428
330
1F
100
AcDbEntity
  8
建具
  6
Continuous
 62
     4
370
     9
100
AcDbCircle
 10
20.74990762246625
 20
-301.3262257427625
 30
0.0
 40
3.499999175200592
100
AcDbArc
 50
180.0
 51
0.0
  0
ARC
  5
429
330
1F
100
AcDbEntity
  8
建具
  6
Continuous
 62
     4
370
     9
100
AcDbCircle
 10
44.25003464157533
 20
-301.3263742066561
 30
0.0
 40
3.499999175200592
100
AcDbArc
 50
180.0
 51
0.0
  0
CIRCLE
  5
42A
330
1F
100
AcDbEntity
  8
建具
  6
Continuous
 62
     4
370
     9
100
AcDbCircle
 10
54.2501171215161
 20
-296.8262851283199
 30
0.0
 40
2.500000032218727
  0
ARC
  5
42B
330
1F
100
AcDbEntity
  8
建具
  6
Continuous
 62
     4
370
     9
100
AcDbCircle
 10
51.74998515361079
 20
-296.8262851283199
 30
0.0
 40
4.999967008023649
100
AcDbArc
 50
90.0
 51
135.5720367431641
  0
ARC
  5
42C
330
1F
100
AcDbEntity
  8
建具
  6
Continuous
 62
     4
370
     9
100
AcDbCircle
 10
51.74998515361079
 20
-296.8262851283199
 30
0.0
 40
4.999967008023649
100
AcDbArc
 50
224.4279632568359
 51
270.0
  0
ARC
  5
42D
330
1F
100
AcDbEntity
  8
建具
  6
Continuous
 62
     4
370
     9
100
AcDbCircle
 10
55.80839414854313
 20
-293.8264236946206
 30
0.0
 40
2.000000025774982
100
AcDbArc
 50
34.84968566894531
 51
90.0
  0
ARC
  5
42E
330
1F
100
AcDbEntity
  8
建具
  6
Continuous
 62
     4
370
     9
100
AcDbCircle
 10
55.80839414854313
 20
-299.8262950259129
 30
0.0
 40
2.000000025774982
100
AcDbArc
 50
270.0
 51
325.1503143310547
  0
ARC
  5
42F
330
1F
100
AcDbEntity
  8
建具
  6
Continuous
 62
     4
370
     9
100
AcDbCircle
 10
51.49997195682016
 20
-296.8262851283199
 30
0.0
 40
7.249932675748259
100
AcDbArc
 50
325.1502380371094
 51
34.84976196289065
  0
ARC
  5
430
330
1F
100
AcDbEntity
  8
建具
  6
Continuous
 62
     4
370
     9
100
AcDbCircle
 10
32.50000824799423
 20
-361.8263016243081
 30
0.0
 40
8.999954300957757
100
AcDbArc
 50
0.0
 51
180.0
  0
ARC
  5
431
330
1F
100
AcDbEntity
  8
建具
  6
Continuous
 62
     4
370
     9
100
AcDbCircle
 10
32.50000824799423
 20
-385.8262323411578
 30
0.0
 40
8.999954300957757
100
AcDbArc
 50
180.0
 51
0.0
  0
ARC
  5
432
330
1F
100
AcDbEntity
  8
建具
  6
Continuous
 62
     4
370
     9
100
AcDbCircle
 10
32.50000824799423
 20
-385.8262323411578
 30
0.0
 40
3.999988162839735
100
AcDbArc
 50
180.0
 51
0.0
  0
ARC
  5
433
330
1F
100
AcDbEntity
  8
建具
  6
Continuous
 62
     4
370
     9
100
AcDbCircle
 10
32.50000824799423
 20
-361.8263016243081
 30
0.0
 40
3.999988452808277
100
AcDbArc
 50
0.0
 51
180.0
  0
CIRCLE
  5
434
330
1F
100
AcDbEntity
  8
建具
  6
Continuous
 62
     4
370
     9
100
AcDbCircle
 10
32.50000824799423
 20
-387.3264599857946
 30
0.0
 40
2.500000032218727
  0
CIRCLE
  5
435
330
1F
100
AcDbEntity
  8
建具
  6
Continuous
 62
     4
370
     9
100
AcDbCircle
 10
32.50000824799423
 20
-360.3263709074585
 30
0.0
 40
2.500000032218727
  0
CIRCLE
  5
436
330
1F
100
AcDbEntity
  8
建具
  6
Continuous
 62
     4
370
     9
100
AcDbCircle
 10
32.50000824799423
 20
-323.3264962769686
 30
0.0
 40
2.500000032218727
  0
ARC
  5
437
330
1F
100
AcDbEntity
  8
通り芯
  6
Continuous
 62
     3
370
     9
100
AcDbCircle
 10
0.0
 20
-7275.249788282353
 30
0.0
 40
6982.000369510135
100
AcDbArc
 50
89.40911865234378
 51
89.52403259277347
  0
ARC
  5
438
330
1F
100
AcDbEntity
  8
通り芯
  6
Continuous
 62
     3
370
     9
100
AcDbCircle
 10
0.0
 20
-7275.249788282353
 30
0.0
 40
6982.000369510135
100
AcDbArc
 50
89.85844421386723
 51
90.00000000000004
  0
ARC
  5
439
330
1F
100
AcDbEntity
  8
通り芯
  6
Continuous
 62
     3
370
     9
100
AcDbCircle
 10
0.0
 20
-7275.249788282353
 30
0.0
 40
6984.999934016048
100
AcDbArc
 50
89.54417419433595
 51
89.61447143554689
  0
ARC
  5
43A
330
1F
100
AcDbEntity
  8
通り芯
  6
Continuous
 62
     3
370
     9
100
AcDbCircle
 10
0.0
 20
-7275.249788282353
 30
0.0
 40
6984.999934016048
100
AcDbArc
 50
89.85304260253906
 51
90.0
  0
ARC
  5
43B
330
1F
100
AcDbEntity
  8
通り芯
  6
Continuous
 62
     3
370
     9
100
AcDbCircle
 10
0.0
 20
262.7163883434918
 30
0.0
 40
230.0000041239971
100
AcDbArc
 50
0.0
 51
2.242584228515625
  0
TEXT
  5
43C
330
1F
100
AcDbEntity
  8
通り芯
  6
Continuous
 62
     4
370
     9
100
AcDbText
 10
102.2681351854897
 20
471.6212941017866
 30
0.0
 40
11.43
  1
Ｍ
 50
155.7000355287755
 41
0.999999999999999
  7
ＭＳ ゴシック
100
AcDbText
  0
TEXT
  5
43D
330
1F
100
AcDbEntity
  8
通り芯
  6
Continuous
 62
     4
370
     9
100
AcDbText
 10
82.5779220676114
 20
480.415553061931
 30
0.0
 40
11.43
  1
Ｋ
 50
161.1005833743365
  7
ＭＳ ゴシック
100
AcDbText
  0
TEXT
  5
43E
330
1F
100
AcDbEntity
  8
通り芯
  6
Continuous
 62
     4
370
     9
100
AcDbText
 10
39.54429587353549
 20
493.1651947308665
 30
0.0
 40
11.43
  1
Ｙ
 50
171.8999321107394
 41
1.0
  7
ＭＳ ゴシック
100
AcDbText
  0
TEXT
  5
43F
330
1F
100
AcDbEntity
  8
通り芯
  6
Continuous
 62
     4
370
     9
100
AcDbText
 10
18.05202065863108
 20
496.0244164871659
 30
0.0
 40
11.43
  1
－
 50
177.3002176815191
 41
1.0
  7
ＭＳ ゴシック
100
AcDbText
  0
TEXT
  5
440
330
1F
100
AcDbEntity
  8
通り芯
  6
Continuous
 62
     4
370
     9
100
AcDbText
 10
-3.27086027887369
 20
495.9711189351318
 30
0.0
 40
11.43
  1
Ｓ
 50
182.7003487792106
 41
1.0
  7
ＭＳ ゴシック
100
AcDbText
  0
TEXT
  5
441
330
1F
100
AcDbEntity
  8
通り芯
  6
Continuous
 62
     4
370
     9
100
AcDbText
 10
-26.66005085478096
 20
495.5973343216074
 30
0.0
 40
11.43
  1
－
 50
188.1000678892606
 41
1.0
  7
ＭＳ ゴシック
100
AcDbText
  0
TEXT
  5
442
330
1F
100
AcDbEntity
  8
通り芯
  6
Continuous
 62
     4
370
     9
100
AcDbText
 10
-48.81831752738812
 20
491.6323811575625
 30
0.0
 40
11.43
  1
４
 50
193.4999682776242
 41
0.9999999999999997
  7
ＭＳ ゴシック
100
AcDbText
  0
TEXT
  5
443
330
1F
100
AcDbEntity
  8
通り芯
  6
Continuous
 62
     4
370
     9
100
AcDbText
 10
-69.9088761446627
 20
486.8764143792375
 30
0.0
 40
11.43
  1
５
 50
198.9006733464794
 41
0.9999999999999996
  7
ＭＳ ゴシック
100
AcDbText
  0
TEXT
  5
444
330
1F
100
AcDbEntity
  8
通り芯
  6
Continuous
 62
     4
370
     9
100
AcDbText
 10
-90.93861526213955
 20
479.0397458415669
 30
0.0
 40
11.43
  1
０
 50
204.2998477885643
 41
1.000000000000001
  7
ＭＳ ゴシック
100
AcDbText
  0
TEXT
  5
445
330
1F
100
AcDbEntity
  8
通り芯
  6
Continuous
 62
     4
370
     9
100
AcDbText
 10
61.97623947141567
 20
487.6985303809435
 30
0.0
 40
11.43
  1
Ｒ
 50
166.5000317223758
 41
0.9999999999999997
  7
ＭＳ ゴシック
100
AcDbText
  0
TEXT
  5
446
330
1F
100
AcDbEntity
  8
通り芯
  6
Continuous
 62
     7
370
     9
100
AcDbText
 10
-231.8690915990218
 20
339.9409169066249
 30
0.0
 40
9.144
  1
Ｋ
 50
253.0001754065353
 41
1.000000000000002
  7
ＭＳ ゴシック
100
AcDbText
  0
TEXT
  5
447
330
1F
100
AcDbEntity
  8
通り芯
  6
Continuous
 62
     7
370
     9
100
AcDbText
 10
-210.7463076455388
 20
386.4616069744976
 30
0.0
 40
9.144
  1
Ｌ
 50
241.00002909524
 41
0.9999999999999992
  7
ＭＳ ゴシック
100
AcDbText
  0
TEXT
  5
448
330
1F
100
AcDbEntity
  8
通り芯
  6
Continuous
 62
     7
370
     9
100
AcDbText
 10
-218.8649620358505
 20
371.4592952930352
 30
0.0
 40
9.144
  1
Ｏ
 50
245.0002360982499
 41
1.0
  7
ＭＳ ゴシック
100
AcDbText
  0
TEXT
  5
449
330
1F
100
AcDbEntity
  8
通り芯
  6
Continuous
 62
     7
370
     9
100
AcDbText
 10
-225.9173907998674
 20
355.9271988639844
 30
0.0
 40
9.144
  1
Ｃ
 50
248.9999974982897
 41
0.9999999999999983
  7
ＭＳ ゴシック
100
AcDbText
  0
LINE
  5
44A
330
1F
100
AcDbEntity
  8
仕上
  6
Continuous
 62
     3
370
     9
100
AcDbLine
 10
2.49998350401188
 20
199.4966023954342
 30
0.0
 11
53.11045936032973
 21
228.7165236105948
 31
0.0
  0
LINE
  5
44B
330
1F
100
AcDbEntity
  8
仕上
  6
Continuous
 62
     3
370
     9
100
AcDbLine
 10
-2.499983504011709
 20
199.4966023954342
 30
0.0
 11
-53.11045936032957
 21
228.7165236105948
 31
0.0
  0
LINE
  5
44C
330
1F
100
AcDbEntity
  8
通り芯
  6
Continuous
 62
     3
370
     9
100
AcDbLine
 10
26.00003629117407
 20
371.7163520523178
 30
0.0
 11
66.0001435150972
 21
371.7163520523178
 31
0.0
  0
LINE
  5
44D
330
1F
100
AcDbEntity
  8
通り芯
  6
Continuous
 62
     3
370
     9
100
AcDbLine
 10
66.0001435150972
 20
371.7163520523178
 30
0.0
 11
66.0001435150972
 21
353.7164411306541
 31
0.0
  0
LINE
  5
44E
330
1F
100
AcDbEntity
  8
通り芯
  6
Continuous
 62
     3
370
     9
100
AcDbLine
 10
26.00003629117407
 20
353.7164411306541
 30
0.0
 11
66.0001435150972
 21
353.7164411306541
 31
0.0
  0
LINE
  5
44F
330
1F
100
AcDbEntity
  8
通り芯
  6
Continuous
 62
     3
370
     9
100
AcDbLine
 10
26.00003629117407
 20
371.7163520523178
 30
0.0
 11
26.00003629117407
 21
353.7164411306541
 31
0.0
  0
LINE
  5
450
330
1F
100
AcDbEntity
  8
通り芯
  6
Continuous
 62
     3
370
     9
100
AcDbLine
 10
-20.00001649598812
 20
371.7163520523178
 30
0.0
 11
20.00001649598829
 21
371.7163520523178
 31
0.0
  0
LINE
  5
451
330
1F
100
AcDbEntity
  8
通り芯
  6
Continuous
 62
     3
370
     9
100
AcDbLine
 10
20.00001649598829
 20
371.7163520523178
 30
0.0
 11
20.00001649598829
 21
353.7164411306541
 31
0.0
  0
LINE
  5
452
330
1F
100
AcDbEntity
  8
通り芯
  6
Continuous
 62
     3
370
     9
100
AcDbLine
 10
-20.00001649598812
 20
353.7164411306541
 30
0.0
 11
20.00001649598829
 21
353.7164411306541
 31
0.0
  0
LINE
  5
453
330
1F
100
AcDbEntity
  8
通り芯
  6
Continuous
 62
     3
370
     9
100
AcDbLine
 10
-20.00001649598812
 20
371.7163520523178
 30
0.0
 11
-20.00001649598812
 21
353.7164411306541
 31
0.0
  0
LINE
  5
454
330
1F
100
AcDbEntity
  8
通り芯
  6
Continuous
 62
     3
370
     9
100
AcDbLine
 10
-65.99992081925672
 20
371.7163520523178
 30
0.0
 11
-25.9998878272803
 21
371.7163520523178
 31
0.0
  0
LINE
  5
455
330
1F
100
AcDbEntity
  8
通り芯
  6
Continuous
 62
     3
370
     9
100
AcDbLine
 10
-25.9998878272803
 20
371.7163520523178
 30
0.0
 11
-25.9998878272803
 21
353.7164411306541
 31
0.0
  0
LINE
  5
456
330
1F
100
AcDbEntity
  8
通り芯
  6
Continuous
 62
     3
370
     9
100
AcDbLine
 10
-65.99992081925672
 20
353.7164411306541
 30
0.0
 11
-25.9998878272803
 21
353.7164411306541
 31
0.0
  0
LINE
  5
457
330
1F
100
AcDbEntity
  8
通り芯
  6
Continuous
 62
     3
370
     9
100
AcDbLine
 10
-65.99992081925672
 20
371.7163520523178
 30
0.0
 11
-65.99992081925672
 21
353.7164411306541
 31
0.0
  0
LINE
  5
458
330
1F
100
AcDbEntity
  8
通り芯
  6
Continuous
 62
     3
370
     9
100
AcDbLine
 10
9.000029692778753
 20
396.7163355563296
 30
0.0
 11
37.00002309438361
 21
396.7163355563296
 31
0.0
  0
LINE
  5
459
330
1F
100
AcDbEntity
  8
通り芯
  6
Continuous
 62
     3
370
     9
100
AcDbLine
 10
42.00006433435391
 20
396.7163355563296
 30
0.0
 11
49.99989277607688
 21
396.7163355563296
 31
0.0
  0
LINE
  5
45A
330
1F
100
AcDbEntity
  8
通り芯
  6
Continuous
 62
     3
370
     9
100
AcDbLine
 10
49.99989277607688
 20
396.7163355563296
 30
0.0
 11
49.99989277607688
 21
378.7162761707721
 31
0.0
  0
LINE
  5
45B
330
1F
100
AcDbEntity
  8
通り芯
  6
Continuous
 62
     3
370
     9
100
AcDbLine
 10
42.00006433435391
 20
378.7162761707721
 30
0.0
 11
49.99989277607688
 21
378.7162761707721
 31
0.0
  0
LINE
  5
45C
330
1F
100
AcDbEntity
  8
通り芯
  6
Continuous
 62
     3
370
     9
100
AcDbLine
 10
42.00006433435391
 20
396.7163355563296
 30
0.0
 11
42.00006433435391
 21
378.7162761707721
 31
0.0
  0
LINE
  5
45D
330
1F
100
AcDbEntity
  8
通り芯
  6
Continuous
 62
     3
370
     9
100
AcDbLine
 10
37.00002309438361
 20
396.7163355563296
 30
0.0
 11
37.00002309438361
 21
378.7162761707721
 31
0.0
  0
LINE
  5
45E
330
1F
100
AcDbEntity
  8
通り芯
  6
Continuous
 62
     3
370
     9
100
AcDbLine
 10
9.000029692778753
 20
378.7162761707721
 30
0.0
 11
37.00002309438361
 21
378.7162761707721
 31
0.0
  0
LINE
  5
45F
330
1F
100
AcDbEntity
  8
通り芯
  6
Continuous
 62
     3
370
     9
100
AcDbLine
 10
9.000029692778753
 20
396.7163355563296
 30
0.0
 11
9.000029692778753
 21
378.7162761707721
 31
0.0
  0
LINE
  5
460
330
1F
100
AcDbEntity
  8
通り芯
  6
Continuous
 62
     3
370
     9
100
AcDbLine
 10
55.00015671188783
 20
396.7163355563296
 30
0.0
 11
83.00022434543922
 21
396.7163355563296
 31
0.0
  0
LINE
  5
461
330
1F
100
AcDbEntity
  8
通り芯
  6
Continuous
 62
     3
370
     9
100
AcDbLine
 10
83.00022434543922
 20
396.7163355563296
 30
0.0
 11
83.00022434543922
 21
378.7162761707721
 31
0.0
  0
LINE
  5
462
330
1F
100
AcDbEntity
  8
通り芯
  6
Continuous
 62
     3
370
     9
100
AcDbLine
 10
55.00015671188783
 20
378.7162761707721
 30
0.0
 11
83.00022434543922
 21
378.7162761707721
 31
0.0
  0
LINE
  5
463
330
1F
100
AcDbEntity
  8
通り芯
  6
Continuous
 62
     3
370
     9
100
AcDbLine
 10
55.00015671188783
 20
396.7163355563296
 30
0.0
 11
55.00015671188783
 21
378.7162761707721
 31
0.0
  0
LINE
  5
464
330
1F
100
AcDbEntity
  8
通り芯
  6
Continuous
 62
     3
370
     9
100
AcDbLine
 10
-37.00002309438344
 20
396.7163355563296
 30
0.0
 11
-9.000029692778583
 21
396.7163355563296
 31
0.0
  0
LINE
  5
465
330
1F
100
AcDbEntity
  8
通り芯
  6
Continuous
 62
     3
370
     9
100
AcDbLine
 10
-4.000062684754994
 20
396.7163355563296
 30
0.0
 11
3.999914220861569
 21
396.7163355563296
 31
0.0
  0
LINE
  5
466
330
1F
100
AcDbEntity
  8
通り芯
  6
Continuous
 62
     3
370
     9
100
AcDbLine
 10
3.999914220861569
 20
396.7163355563296
 30
0.0
 11
3.999914220861569
 21
378.7162761707721
 31
0.0
  0
LINE
  5
467
330
1F
100
AcDbEntity
  8
通り芯
  6
Continuous
 62
     3
370
     9
100
AcDbLine
 10
-4.000062684754994
 20
378.7162761707721
 30
0.0
 11
3.999914220861569
 21
378.7162761707721
 31
0.0
  0
LINE
  5
468
330
1F
100
AcDbEntity
  8
通り芯
  6
Continuous
 62
     3
370
     9
100
AcDbLine
 10
-4.000062684754994
 20
396.7163355563296
 30
0.0
 11
-4.000062684754994
 21
378.7162761707721
 31
0.0
  0
LINE
  5
469
330
1F
100
AcDbEntity
  8
通り芯
  6
Continuous
 62
     3
370
     9
100
AcDbLine
 10
-9.000029692778583
 20
396.7163355563296
 30
0.0
 11
-9.000029692778583
 21
378.7162761707721
 31
0.0
  0
LINE
  5
46A
330
1F
100
AcDbEntity
  8
通り芯
  6
Continuous
 62
     3
370
     9
100
AcDbLine
 10
-37.00002309438344
 20
378.7162761707721
 30
0.0
 11
-9.000029692778583
 21
378.7162761707721
 31
0.0
  0
LINE
  5
46B
330
1F
100
AcDbEntity
  8
通り芯
  6
Continuous
 62
     3
370
     9
100
AcDbLine
 10
-37.00002309438344
 20
396.7163355563296
 30
0.0
 11
-37.00002309438344
 21
378.7162761707721
 31
0.0
  0
LINE
  5
46C
330
1F
100
AcDbEntity
  8
通り芯
  6
Continuous
 62
     3
370
     9
100
AcDbLine
 10
-82.99992741765203
 20
396.7163355563296
 30
0.0
 11
-54.99993401604718
 21
396.7163355563296
 31
0.0
  0
LINE
  5
46D
330
1F
100
AcDbEntity
  8
通り芯
  6
Continuous
 62
     3
370
     9
100
AcDbLine
 10
-49.99996700802359
 20
396.7163355563296
 30
0.0
 11
-41.99999010240703
 21
396.7163355563296
 31
0.0
  0
LINE
  5
46E
330
1F
100
AcDbEntity
  8
通り芯
  6
Continuous
 62
     3
370
     9
100
AcDbLine
 10
-41.99999010240703
 20
396.7163355563296
 30
0.0
 11
-41.99999010240703
 21
378.7162761707721
 31
0.0
  0
LINE
  5
46F
330
1F
100
AcDbEntity
  8
通り芯
  6
Continuous
 62
     3
370
     9
100
AcDbLine
 10
-49.99996700802359
 20
378.7162761707721
 30
0.0
 11
-41.99999010240703
 21
378.7162761707721
 31
0.0
  0
LINE
  5
470
330
1F
100
AcDbEntity
  8
通り芯
  6
Continuous
 62
     3
370
     9
100
AcDbLine
 10
-49.99996700802359
 20
396.7163355563296
 30
0.0
 11
-49.99996700802359
 21
378.7162761707721
 31
0.0
  0
LINE
  5
471
330
1F
100
AcDbEntity
  8
通り芯
  6
Continuous
 62
     3
370
     9
100
AcDbLine
 10
-54.99993401604718
 20
396.7163355563296
 30
0.0
 11
-54.99993401604718
 21
378.7162761707721
 31
0.0
  0
LINE
  5
472
330
1F
100
AcDbEntity
  8
通り芯
  6
Continuous
 62
     3
370
     9
100
AcDbLine
 10
-82.99992741765203
 20
378.7162761707721
 30
0.0
 11
-54.99993401604718
 21
378.7162761707721
 31
0.0
  0
LINE
  5
473
330
1F
100
AcDbEntity
  8
通り芯
  6
Continuous
 62
     3
370
     9
100
AcDbLine
 10
-82.99992741765203
 20
396.7163355563296
 30
0.0
 11
-82.99992741765203
 21
378.7162761707721
 31
0.0
  0
LINE
  5
474
330
1F
100
AcDbEntity
  8
通り芯
  6
Continuous
 62
     3
370
     9
100
AcDbLine
 10
26.00003629117407
 20
421.716467524235
 30
0.0
 11
66.0001435150972
 21
421.716467524235
 31
0.0
  0
LINE
  5
475
330
1F
100
AcDbEntity
  8
通り芯
  6
Continuous
 62
     3
370
     9
100
AcDbLine
 10
66.0001435150972
 20
421.716467524235
 30
0.0
 11
66.0001435150972
 21
403.7165566025712
 31
0.0
  0
LINE
  5
476
330
1F
100
AcDbEntity
  8
通り芯
  6
Continuous
 62
     3
370
     9
100
AcDbLine
 10
26.00003629117407
 20
403.7165566025712
 30
0.0
 11
66.0001435150972
 21
403.7165566025712
 31
0.0
  0
LINE
  5
477
330
1F
100
AcDbEntity
  8
通り芯
  6
Continuous
 62
     3
370
     9
100
AcDbLine
 10
26.00003629117407
 20
421.716467524235
 30
0.0
 11
26.00003629117407
 21
403.7165566025712
 31
0.0
  0
LINE
  5
478
330
1F
100
AcDbEntity
  8
通り芯
  6
Continuous
 62
     3
370
     9
100
AcDbLine
 10
-20.00001649598812
 20
421.716467524235
 30
0.0
 11
20.00001649598829
 21
421.716467524235
 31
0.0
  0
LINE
  5
479
330
1F
100
AcDbEntity
  8
通り芯
  6
Continuous
 62
     3
370
     9
100
AcDbLine
 10
20.00001649598829
 20
421.716467524235
 30
0.0
 11
20.00001649598829
 21
403.7165566025712
 31
0.0
  0
LINE
  5
47A
330
1F
100
AcDbEntity
  8
通り芯
  6
Continuous
 62
     3
370
     9
100
AcDbLine
 10
-20.00001649598812
 20
403.7165566025712
 30
0.0
 11
20.00001649598829
 21
403.7165566025712
 31
0.0
  0
LINE
  5
47B
330
1F
100
AcDbEntity
  8
通り芯
  6
Continuous
 62
     3
370
     9
100
AcDbLine
 10
-20.00001649598812
 20
421.716467524235
 30
0.0
 11
-20.00001649598812
 21
403.7165566025712
 31
0.0
  0
LINE
  5
47C
330
1F
100
AcDbEntity
  8
通り芯
  6
Continuous
 62
     3
370
     9
100
AcDbLine
 10
-65.99992081925672
 20
421.716467524235
 30
0.0
 11
-25.9998878272803
 21
421.716467524235
 31
0.0
  0
LINE
  5
47D
330
1F
100
AcDbEntity
  8
通り芯
  6
Continuous
 62
     3
370
     9
100
AcDbLine
 10
-25.9998878272803
 20
421.716467524235
 30
0.0
 11
-25.9998878272803
 21
403.7165566025712
 31
0.0
  0
LINE
  5
47E
330
1F
100
AcDbEntity
  8
通り芯
  6
Continuous
 62
     3
370
     9
100
AcDbLine
 10
-65.99992081925672
 20
403.7165566025712
 30
0.0
 11
-25.9998878272803
 21
403.7165566025712
 31
0.0
  0
LINE
  5
47F
330
1F
100
AcDbEntity
  8
通り芯
  6
Continuous
 62
     3
370
     9
100
AcDbLine
 10
-65.99992081925672
 20
421.716467524235
 30
0.0
 11
-65.99992081925672
 21
403.7165566025712
 31
0.0
  0
LINE
  5
480
330
1F
100
AcDbEntity
  8
仕上
  6
Continuous
 62
     3
370
     9
100
AcDbLine
 10
4.139173353040462
 20
116.7925635176894
 30
0.0
 11
8.804799672719525
 21
179.8264726709833
 31
0.0
  0
LINE
  5
481
330
1F
100
AcDbEntity
  8
仕上
  6
Continuous
 62
     3
370
     9
100
AcDbLine
 10
9.802031645903753
 20
179.75253765198
 30
0.0
 11
5.136256862331095
 21
116.7187769625797
 31
0.0
  0
LINE
  5
482
330
1F
100
AcDbEntity
  8
仕上
  6
Continuous
 62
     3
370
     9
100
AcDbLine
 10
-4.138876425253443
 20
116.7925635176894
 30
0.0
 11
-8.804651208826101
 21
179.8264726709833
 31
0.0
  0
LINE
  5
483
330
1F
100
AcDbEntity
  8
仕上
  6
Continuous
 62
     3
370
     9
100
AcDbLine
 10
-9.801883182010158
 20
179.75253765198
 30
0.0
 11
-5.1361083984375
 21
116.7187769625797
 31
0.0
  0
ARC
  5
484
330
1F
100
AcDbEntity
  8
仕上
  6
Continuous
 62
     3
370
     9
100
AcDbCircle
 10
13.79110800253375
 20
179.4573914315408
 30
0.0
 40
5.000000064437454
100
AcDbArc
 50
120.0000305175781
 51
175.766357421875
  0
ARC
  5
485
330
1F
100
AcDbEntity
  8
仕上
  6
Continuous
 62
     3
370
     9
100
AcDbCircle
 10
13.79110800253375
 20
179.4573914315408
 30
0.0
 40
3.999999761581421
100
AcDbArc
 50
120.0000305175781
 51
175.766357421875
  0
ARC
  5
486
330
1F
100
AcDbEntity
  8
仕上
  6
Continuous
 62
     3
370
     9
100
AcDbCircle
 10
-13.79095953864015
 20
179.4573914315408
 30
0.0
 40
5.000000064437454
100
AcDbArc
 50
4.233642578125012
 51
59.99996948242189
  0
ARC
  5
487
330
1F
100
AcDbEntity
  8
仕上
  6
Continuous
 62
     3
370
     9
100
AcDbCircle
 10
-13.79095953864015
 20
179.4573914315408
 30
0.0
 40
3.999999761581421
100
AcDbArc
 50
4.233642578125012
 51
59.99996948242189
  0
LINE
  5
488
330
1F
100
AcDbEntity
  8
仕上
  6
Continuous
 62
     3
370
     9
100
AcDbLine
 10
-6.13066802153719
 20
114.8390756059495
 30
0.0
 11
-63.9999637088261
 21
81.42831560278236
 31
0.0
  0
LINE
  5
489
330
1F
100
AcDbEntity
  8
仕上
  6
Continuous
 62
     3
370
     9
100
AcDbLine
 10
-5.63079009184969
 20
113.9729372507975
 30
0.0
 11
-63.49993731524501
 21
80.56232571152393
 31
0.0
  0
LINE
  5
48A
330
1F
100
AcDbEntity
  8
仕上
  6
Continuous
 62
     3
370
     9
100
AcDbLine
 10
5.630938555743285
 20
113.9729372507975
 30
0.0
 11
63.50008577913843
 21
80.56232571152393
 31
0.0
  0
LINE
  5
48B
330
1F
100
AcDbEntity
  8
仕上
  6
Continuous
 62
     3
370
     9
100
AcDbLine
 10
6.13096494932438
 20
114.8390756059495
 30
0.0
 11
64.00011217271953
 21
81.42831560278236
 31
0.0
  0
LINE
  5
48C
330
1F
100
AcDbEntity
  8
仕上
  6
Continuous
 62
     3
370
     9
100
AcDbLine
 10
-1.49993071684969
 20
105.9656856143955
 30
0.0
 11
-58.59068174619938
 21
73.00432581709813
 31
0.0
  0
LINE
  5
48D
330
1F
100
AcDbEntity
  8
仕上
  6
Continuous
 62
     3
370
     9
100
AcDbLine
 10
-1.49993071684969
 20
107.1204377786692
 30
0.0
 11
-59.49987463048984
 21
73.63410965366924
 31
0.0
  0
LINE
  5
48E
330
1F
100
AcDbEntity
  8
仕上
  6
Continuous
 62
     3
370
     9
100
AcDbLine
 10
1.500079180743285
 20
105.9656856143955
 30
0.0
 11
58.59083021009297
 21
73.00432581709813
 31
0.0
  0
LINE
  5
48F
330
1F
100
AcDbEntity
  8
仕上
  6
Continuous
 62
     3
370
     9
100
AcDbLine
 10
1.500079180743285
 20
107.1204377786692
 30
0.0
 11
59.50002309438344
 21
73.63410965366924
 31
0.0
  0
ARC
  5
490
330
1F
100
AcDbEntity
  8
仕上
  6
Continuous
 62
     3
370
     9
100
AcDbCircle
 10
0.0
 20
103.3675674767266
 30
0.0
 40
3.000000038662472
100
AcDbArc
 50
60.00013732910156
 51
119.9998626708985
  0
ARC
  5
491
330
1F
100
AcDbEntity
  8
仕上
  6
Continuous
 62
     3
370
     9
100
AcDbCircle
 10
-7.13072080869938
 20
116.5710553884664
 30
0.0
 40
3.000000038662472
100
AcDbArc
 50
299.9992675781251
 51
4.232254028320369
  0
ARC
  5
492
330
1F
100
AcDbEntity
  8
仕上
  6
Continuous
 62
     3
370
     9
100
AcDbCircle
 10
-7.13072080869938
 20
116.5710553884664
 30
0.0
 40
1.99999988079071
100
AcDbArc
 50
299.9992675781251
 51
4.232254028320369
  0
ARC
  5
493
330
1F
100
AcDbEntity
  8
仕上
  6
Continuous
 62
     3
370
     9
100
AcDbCircle
 10
7.130869272592975
 20
116.5710553884664
 30
0.0
 40
3.000000038662472
100
AcDbArc
 50
175.7677459716797
 51
240.000732421875
  0
ARC
  5
494
330
1F
100
AcDbEntity
  8
仕上
  6
Continuous
 62
     3
370
     9
100
AcDbCircle
 10
7.130869272592975
 20
116.5710553884664
 30
0.0
 40
1.99999988079071
100
AcDbArc
 50
175.7677459716797
 51
240.000732421875
  0
ARC
  5
495
330
1F
100
AcDbEntity
  8
仕上
  6
Continuous
 62
     3
370
     9
100
AcDbCircle
 10
0.0
 20
104.5223196410002
 30
0.0
 40
3.000000038662472
100
AcDbArc
 50
60.00013732910156
 51
119.9998626708985
  0
LINE
  5
496
330
1F
100
AcDbEntity
  8
寸法
  6
Continuous
 62
     7
370
     9
100
AcDbLine
 10
75.16073690878392
 20
-487.8914475808116
 30
0.0
 11
348.2119668496622
 21
-487.8914475808116
 31
0.0
  0
LINE
  5
497
330
1F
100
AcDbEntity
  8
寸法
  6
Continuous
 62
     7
370
     9
100
AcDbLine
 10
36.99994886243672
 20
-393.620438290271
 30
0.0
 11
75.16073690878392
 21
-487.8914475808116
 31
0.0
  0
TEXT
  5
498
330
1F
100
AcDbEntity
  8
寸法
  6
Continuous
 62
     6
370
     9
100
AcDbText
 10
298.7565584749791
 20
-40.8994120550514
 30
0.0
 40
18.288
  1
４－φ１５
 41
0.7900000000000003
  7
ＭＳ ゴシック
100
AcDbText
  0
TEXT
  5
499
330
1F
100
AcDbEntity
  8
寸法
  6
Continuous
 62
     6
370
     9
100
AcDbText
 10
154.6862776472763
 20
-481.5074376832185
 30
0.0
 40
18.288
  1
鎖：ＳＷＲＭ
 41
0.7916666666666666
  7
ＭＳ ゴシック
100
AcDbText
  0
TEXT
  5
49A
330
1F
100
AcDbEntity
  8
寸法
  6
Continuous
 62
     6
370
     9
100
AcDbText
 10
77.88620341532945
 20
-511.5074624272009
 30
0.0
 40
18.288
  1
電気亜鉛めっき，φ５×５００
 41
0.7964285714285714
  7
ＭＳ ゴシック
100
AcDbText
  0
LINE
  5
49B
330
1F
100
AcDbEntity
  8
寸法
  6
Continuous
 62
     7
370
     9
100
AcDbLine
 10
324.2822595544764
 20
-125.2320880870404
 30
0.0
 11
497.8377388619087
 21
-125.2320880870404
 31
0.0
  0
TEXT
  5
49C
330
1F
100
AcDbEntity
  8
寸法
  6
Continuous
 62
     6
370
     9
100
AcDbText
 10
329.327046822213
 20
-116.2099490324584
 30
0.0
 40
18.288
  1
蓋：ＦＣＤ５００
 41
0.7937500000000002
  7
ＭＳ ゴシック
100
AcDbText
  0
TEXT
  5
49D
330
1F
100
AcDbEntity
  8
寸法
  6
Continuous
 62
     6
370
     9
100
AcDbText
 10
329.0264163455448
 20
-152.7643577502583
 30
0.0
 40
18.288
  1
樹脂系塗装
 41
0.7900000000000003
  7
ＭＳ ゴシック
100
AcDbText
  0
TEXT
  5
49E
330
1F
100
AcDbEntity
  8
寸法
  6
Continuous
 62
     6
370
     9
100
AcDbText
 10
301.1456582559123
 20
-204.3216367700007
 30
0.0
 40
18.288
  1
枠：ＦＣ２００
 41
0.7928571428571428
  7
ＭＳ ゴシック
100
AcDbText
  0
LINE
  5
49F
330
1F
100
AcDbEntity
  8
寸法
  6
Continuous
 62
     7
370
     9
100
AcDbLine
 10
295.2296571473819
 20
-215.2320880870404
 30
0.0
 11
449.1890902132603
 21
-215.2320880870404
 31
0.0
  0
LINE
  5
4A0
330
1F
100
AcDbEntity
  8
寸法
  6
Continuous
 62
     7
370
     9
100
AcDbLine
 10
235.3939571896116
 20
-279.1910015292913
 30
0.0
 11
324.2822595544764
 21
-125.2320880870404
 31
0.0
  0
LINE
  5
4A1
330
1F
100
AcDbEntity
  8
寸法
  6
Continuous
 62
     7
370
     9
100
AcDbLine
 10
257.9999604096284
 20
-279.7156729292068
 30
0.0
 11
295.2296571473819
 21
-215.2320880870404
 31
0.0
  0
LINE
  5
4A2
330
1F
100
AcDbEntity
  8
寸法
  6
Continuous
 62
     7
370
     9
100
AcDbLine
 10
233.8517142630913
 20
-313.2155112685226
 30
0.0
 11
239.5919222445102
 21
-327.0737249509551
 31
0.0
  0
LINE
  5
4A3
330
1F
100
AcDbEntity
  8
寸法
  6
Continuous
 62
     7
370
     9
100
AcDbLine
 10
233.8517142630913
 20
-313.2155112685226
 30
0.0
 11
242.9831345016892
 21
-325.1157831224078
 31
0.0
  0
LINE
  5
4A4
330
1F
100
AcDbEntity
  8
寸法
  6
Continuous
 62
     7
370
     9
100
AcDbLine
 10
235.3939571896116
 20
-279.1910015292913
 30
0.0
 11
241.1341651710305
 21
-265.3328620788056
 31
0.0
  0
LINE
  5
4A5
330
1F
100
AcDbEntity
  8
寸法
  6
Continuous
 62
     7
370
     9
100
AcDbLine
 10
235.3939571896116
 20
-279.1910015292913
 30
0.0
 11
244.5253774282095
 21
-267.2907296754061
 31
0.0
  0
LINE
  5
4A6
330
1F
100
AcDbEntity
  8
寸法
  6
Continuous
 62
     7
370
     9
100
AcDbLine
 10
257.9999604096284
 20
-279.7156729292068
 30
0.0
 11
263.7401683910473
 21
-265.8574592467744
 31
0.0
  0
LINE
  5
4A7
330
1F
100
AcDbEntity
  8
寸法
  6
Continuous
 62
     7
370
     9
100
AcDbLine
 10
257.9999604096284
 20
-279.7156729292068
 30
0.0
 11
267.1313806482264
 21
-267.8154010753216
 31
0.0
  0
LINE
  5
4A8
330
1F
100
AcDbEntity
  8
寸法
  6
Continuous
 62
     7
370
     9
100
AcDbLine
 10
233.8517142630913
 20
-313.2155112685226
 30
0.0
 11
305.4430822423988
 21
-437.2156729292068
 31
0.0
  0
LINE
  5
4A9
330
1F
100
AcDbEntity
  8
その他
  6
Continuous
 62
     7
370
     9
100
AcDbLine
 10
-249.9993154164906
 20
-215.2320880870404
 30
0.0
 11
249.9992411845441
 21
-215.2320880870404
 31
0.0
  0
LINE
  5
4AA
330
1F
100
AcDbEntity
  8
その他
  6
Continuous
 62
     7
370
     9
100
AcDbLine
 10
-249.9993154164906
 20
-272.9273840910522
 30
0.0
 11
-249.9993154164906
 21
-213.4321118412633
 31
0.0
  0
LINE
  5
4AB
330
1F
100
AcDbEntity
  8
その他
  6
Continuous
 62
     7
370
     9
100
AcDbLine
 10
249.9992411845441
 20
-272.9273840910522
 30
0.0
 11
249.9992411845441
 21
-213.4321118412633
 31
0.0
  0
LINE
  5
4AC
330
1F
100
AcDbEntity
  8
その他
  6
Continuous
 62
     7
370
     9
100
AcDbLine
 10
-249.9993154164906
 20
-215.2320880870404
 30
0.0
 11
-235.127612964527
 21
-213.2742204904399
 31
0.0
  0
LINE
  5
4AD
330
1F
100
AcDbEntity
  8
その他
  6
Continuous
 62
     7
370
     9
100
AcDbLine
 10
-249.9993154164906
 20
-215.2320880870404
 30
0.0
 11
-235.127612964527
 21
-217.1899556836409
 31
0.0
  0
LINE
  5
4AE
330
1F
100
AcDbEntity
  8
その他
  6
Continuous
 62
     7
370
     9
100
AcDbLine
 10
249.9992411845441
 20
-215.2320880870404
 30
0.0
 11
235.127612964527
 21
-213.2742204904399
 31
0.0
  0
LINE
  5
4AF
330
1F
100
AcDbEntity
  8
その他
  6
Continuous
 62
     7
370
     9
100
AcDbLine
 10
249.9992411845441
 20
-215.2320880870404
 30
0.0
 11
235.127612964527
 21
-217.1899556836409
 31
0.0
  0
LINE
  5
4B0
330
1F
100
AcDbEntity
  8
その他
  6
Continuous
 62
     7
370
     9
100
AcDbLine
 10
-279.0000296927786
 20
-167.2320781894475
 30
0.0
 11
279.0001781566723
 21
-167.2320781894475
 31
0.0
  0
LINE
  5
4B1
330
1F
100
AcDbEntity
  8
その他
  6
Continuous
 62
     7
370
     9
100
AcDbLine
 10
-279.0000296927786
 20
-320.1348937247093
 30
0.0
 11
-279.0000296927786
 21
-165.4321019436705
 31
0.0
  0
LINE
  5
4B2
330
1F
100
AcDbEntity
  8
その他
  6
Continuous
 62
     7
370
     9
100
AcDbLine
 10
279.0001781566723
 20
-320.1348937247093
 30
0.0
 11
279.0001781566723
 21
-165.4321019436705
 31
0.0
  0
LINE
  5
4B3
330
1F
100
AcDbEntity
  8
その他
  6
Continuous
 62
     7
370
     9
100
AcDbLine
 10
-279.0000296927786
 20
-167.2320781894475
 30
0.0
 11
-264.128327240815
 21
-165.2742105928469
 31
0.0
  0
LINE
  5
4B4
330
1F
100
AcDbEntity
  8
その他
  6
Continuous
 62
     7
370
     9
100
AcDbLine
 10
-279.0000296927786
 20
-167.2320781894475
 30
0.0
 11
-264.128327240815
 21
-169.189945786048
 31
0.0
  0
LINE
  5
4B5
330
1F
100
AcDbEntity
  8
その他
  6
Continuous
 62
     7
370
     9
100
AcDbLine
 10
279.0001781566723
 20
-167.2320781894475
 30
0.0
 11
264.1285499366555
 21
-165.2742105928469
 31
0.0
  0
LINE
  5
4B6
330
1F
100
AcDbEntity
  8
その他
  6
Continuous
 62
     7
370
     9
100
AcDbLine
 10
279.0001781566723
 20
-167.2320781894475
 30
0.0
 11
264.1285499366555
 21
-169.189945786048
 31
0.0
  0
LINE
  5
4B7
330
1F
100
AcDbEntity
  8
その他
  6
Continuous
 62
     7
370
     9
100
AcDbLine
 10
-225.0
 20
-421.8133605215843
 30
0.0
 11
225.0000000000002
 21
-421.8133605215843
 31
0.0
  0
LINE
  5
4B8
330
1F
100
AcDbEntity
  8
その他
  6
Continuous
 62
     7
370
     9
100
AcDbLine
 10
-225.0
 20
-334.7845684238225
 30
0.0
 11
-225.0
 21
-423.6133367673613
 31
0.0
  0
LINE
  5
4B9
330
1F
100
AcDbEntity
  8
その他
  6
Continuous
 62
     7
370
     9
100
AcDbLine
 10
225.0000000000002
 20
-334.7845684238225
 30
0.0
 11
225.0000000000002
 21
-423.6133367673613
 31
0.0
  0
LINE
  5
4BA
330
1F
100
AcDbEntity
  8
その他
  6
Continuous
 62
     7
370
     9
100
AcDbLine
 10
-225.0
 20
-421.8133605215843
 30
0.0
 11
-210.1282975480362
 21
-419.855418693037
 31
0.0
  0
LINE
  5
4BB
330
1F
100
AcDbEntity
  8
その他
  6
Continuous
 62
     7
370
     9
100
AcDbLine
 10
-225.0
 20
-421.8133605215843
 30
0.0
 11
-210.1282975480362
 21
-423.7713023501316
 31
0.0
  0
LINE
  5
4BC
330
1F
100
AcDbEntity
  8
その他
  6
Continuous
 62
     7
370
     9
100
AcDbLine
 10
225.0000000000002
 20
-421.8133605215843
 30
0.0
 11
210.1283717799831
 21
-419.855418693037
 31
0.0
  0
LINE
  5
4BD
330
1F
100
AcDbEntity
  8
その他
  6
Continuous
 62
     7
370
     9
100
AcDbLine
 10
225.0000000000002
 20
-421.8133605215843
 30
0.0
 11
210.1283717799831
 21
-423.7713023501316
 31
0.0
  0
LINE
  5
4BE
330
1F
100
AcDbEntity
  8
その他
  6
Continuous
 62
     7
370
     9
100
AcDbLine
 10
339.0000791807433
 20
-329.7156399372304
 30
0.0
 11
339.0000791807433
 21
-280.2155508588943
 31
0.0
  0
LINE
  5
4BF
330
1F
100
AcDbEntity
  8
その他
  6
Continuous
 62
     7
370
     9
100
AcDbLine
 10
283.6577874260981
 20
-329.7156399372304
 30
0.0
 11
340.8000554265203
 21
-329.7156399372304
 31
0.0
  0
LINE
  5
4C0
330
1F
100
AcDbEntity
  8
その他
  6
Continuous
 62
     7
370
     9
100
AcDbLine
 10
339.0000791807433
 20
-329.7156399372304
 30
0.0
 11
337.0421373521961
 21
-314.8438632533199
 31
0.0
  0
LINE
  5
4C1
330
1F
100
AcDbEntity
  8
その他
  6
Continuous
 62
     7
370
     9
100
AcDbLine
 10
339.0000791807433
 20
-329.7156399372304
 30
0.0
 11
340.9580210092906
 21
-314.8438632533199
 31
0.0
  0
LINE
  5
4C2
330
1F
100
AcDbEntity
  8
その他
  6
Continuous
 62
     7
370
     9
100
AcDbLine
 10
339.0000791807433
 20
-280.2155508588943
 30
0.0
 11
337.0421373521961
 21
-295.0871790789112
 31
0.0
  0
LINE
  5
4C3
330
1F
100
AcDbEntity
  8
その他
  6
Continuous
 62
     7
370
     9
100
AcDbLine
 10
339.0000791807433
 20
-280.2155508588943
 30
0.0
 11
340.9580210092906
 21
-295.0871790789112
 31
0.0
  0
LINE
  5
4C4
330
1F
100
AcDbEntity
  8
その他
  6
Continuous
 62
     7
370
     9
100
AcDbLine
 10
339.0000791807433
 20
13.71630916274844
 30
0.0
 11
339.0000791807433
 21
511.716467524235
 31
0.0
  0
LINE
  5
4C5
330
1F
100
AcDbEntity
  8
その他
  6
Continuous
 62
     7
370
     9
100
AcDbLine
 10
339.0000791807433
 20
13.71630916274844
 30
0.0
 11
337.0421373521961
 21
28.5880116147122
 31
0.0
  0
LINE
  5
4C6
330
1F
100
AcDbEntity
  8
その他
  6
Continuous
 62
     7
370
     9
100
AcDbLine
 10
339.0000791807433
 20
13.71630916274844
 30
0.0
 11
340.9580210092906
 21
28.5880116147122
 31
0.0
  0
LINE
  5
4C7
330
1F
100
AcDbEntity
  8
その他
  6
Continuous
 62
     7
370
     9
100
AcDbLine
 10
339.0000791807433
 20
511.716467524235
 30
0.0
 11
337.0421373521961
 21
496.8448393042181
 31
0.0
  0
LINE
  5
4C8
330
1F
100
AcDbEntity
  8
その他
  6
Continuous
 62
     7
370
     9
100
AcDbLine
 10
339.0000791807433
 20
511.716467524235
 30
0.0
 11
340.9580210092906
 21
496.8448393042181
 31
0.0
  0
LINE
  5
4C9
330
1F
100
AcDbEntity
  8
その他
  6
Continuous
 62
     7
370
     9
100
AcDbLine
 10
253.6078045819258
 20
13.71630916274844
 30
0.0
 11
340.8000554265203
 21
13.71630916274844
 31
0.0
  0
LINE
  5
4CA
330
1F
100
AcDbEntity
  8
その他
  6
Continuous
 62
     7
370
     9
100
AcDbLine
 10
253.6493744721284
 20
511.716467524235
 30
0.0
 11
340.8000554265203
 21
511.716467524235
 31
0.0
  0
LINE
  5
4CB
330
1F
100
AcDbEntity
  8
その他
  6
Continuous
 62
     7
370
     9
100
AcDbLine
 10
263.8485470333616
 20
-280.2155508588943
 30
0.0
 11
340.8000554265203
 21
-280.2155508588943
 31
0.0
  0
LINE
  5
4CC
330
1F
100
AcDbEntity
  8
その他
  6
Continuous
 62
     7
370
     9
100
AcDbLine
 10
-45.38778769003375
 20
-275.3787456699163
 30
0.0
 11
-47.34565528663421
 21
-260.5070432179526
 31
0.0
  0
LINE
  5
4CD
330
1F
100
AcDbEntity
  8
その他
  6
Continuous
 62
     7
370
     9
100
AcDbLine
 10
-45.38778769003375
 20
-285.3786796859635
 30
0.0
 11
-47.34565528663421
 21
-300.2503079059804
 31
0.0
  0
LINE
  5
4CE
330
1F
100
AcDbEntity
  8
その他
  6
Continuous
 62
     7
370
     9
100
AcDbLine
 10
-45.38778769003375
 20
-285.3786796859635
 30
0.0
 11
-43.42992009343328
 21
-300.2503079059804
 31
0.0
  0
LINE
  5
4CF
330
1F
100
AcDbEntity
  8
その他
  6
Continuous
 62
     7
370
     9
100
AcDbLine
 10
-45.38778769003375
 20
-275.3787456699163
 30
0.0
 11
-43.42992009343328
 21
-260.5070432179526
 31
0.0
  0
LINE
  5
4D0
330
1F
100
AcDbEntity
  8
その他
  6
Continuous
 62
     7
370
     9
100
AcDbLine
 10
-45.38778769003375
 20
-246.5210763550936
 30
0.0
 11
-45.38778769003375
 21
-315.0683406604145
 31
0.0
  0
LWPOLYLINE
  5
4D1
330
1F
100
AcDbEntity
  8
その他
  6
Continuous
 62
     7
370
     9
100
AcDbPolyline
 90
        4
 70
     1
 43
0.6000000000000001
 10
-45.08778769003375
 20
-277.3787770122938
 42
0.4142135623731
 10
-45.38778769003375
 20
-277.0787770122938
 42
0.4142135623731
 10
-45.68778769003374
 20
-277.3787770122938
 42
0.4142135623731
 10
-45.38778769003375
 20
-277.6787770122937
 42
0.4142135623731
  0
TEXT
  5
4D2
330
1F
100
AcDbEntity
  8
その他
  6
Continuous
 62
     2
370
     9
100
AcDbText
 10
-32.99996288402647
 20
-160.8480682918546
 30
0.0
 40
18.288
  1
□560
 41
1.1
  7
ＭＳ ゴシック
100
AcDbText
  0
TEXT
  5
4D3
330
1F
100
AcDbEntity
  8
その他
  6
Continuous
 62
     2
370
     9
100
AcDbText
 10
-33.00011134792007
 20
-208.8480781894475
 30
0.0
 40
18.288
  1
φ500
 41
1.1
  7
ＭＳ ゴシック
100
AcDbText
  0
TEXT
  5
4D4
330
1F
100
AcDbEntity
  8
その他
  6
Continuous
 62
     2
370
     9
100
AcDbText
 10
-51.77179758762655
 20
-259.2292874806478
 30
0.0
 40
18.288
  1
2
 50
90.0
  7
ＭＳ ゴシック
100
AcDbText
  0
TEXT
  5
4D5
330
1F
100
AcDbEntity
  8
その他
  6
Continuous
 62
     2
370
     9
100
AcDbText
 10
-51.77179758762655
 20
-313.5278780634181
 30
0.0
 40
18.288
  1
8
 50
90.0
  7
ＭＳ ゴシック
100
AcDbText
  0
TEXT
  5
4D6
330
1F
100
AcDbEntity
  8
その他
  6
Continuous
 62
     2
370
     9
100
AcDbText
 10
-82.43754866316507
 20
-415.4293506239914
 30
0.0
 40
18.288
  1
φ450
 41
1.1
  7
ＭＳ ゴシック
100
AcDbText
  0
TEXT
  5
4D7
330
1F
100
AcDbEntity
  8
その他
  6
Continuous
 62
     2
370
     9
100
AcDbText
 10
332.6162177470441
 20
-317.7155953980624
 30
0.0
 40
18.288
  1
50
 50
90.0
 41
1.0625
  7
ＭＳ ゴシック
100
AcDbText
  0
TEXT
  5
4D8
330
1F
100
AcDbEntity
  8
その他
  6
Continuous
 62
     2
370
     9
100
AcDbText
 10
332.6162177470441
 20
243.2163883434917
 30
0.0
 40
18.288
  1
498
 50
90.0
 41
1.083333333333333
  7
ＭＳ ゴシック
100
AcDbText
  0
TEXT
  5
4D9
330
1F
100
AcDbEntity
  8
寸法
  6
Continuous
 62
     6
370
     9
100
AcDbText
 10
301.1456394504857
 20
-239.4156803985902
 30
0.0
 40
18.288
  1
樹脂系塗装
 41
0.7900000000000003
  7
ＭＳ ゴシック
100
AcDbText
  0
LINE
  5
4DA
330
1F
100
AcDbEntity
  8
寸法
  6
Continuous
 62
     7
370
     9
100
AcDbLine
 10
36.99994886243672
 20
-393.620438290271
 30
0.0
 11
40.76529013144017
 21
-408.1402070825007
 31
0.0
  0
LINE
  5
4DB
330
1F
100
AcDbEntity
  8
寸法
  6
Continuous
 62
     7
370
     9
100
AcDbLine
 10
36.99994886243672
 20
-393.620438290271
 30
0.0
 11
44.39493540171031
 21
-406.6709341596755
 31
0.0
  0
LINE
  5
4DC
330
1F
100
AcDbEntity
  8
寸法
  6
Continuous
 62
     7
370
     9
100
AcDbLine
 10
284.2183870882602
 20
-47.2834219526442
 30
0.0
 11
396.2415210620778
 21
-47.2834219526442
 31
0.0
  0
LINE
  5
4DD
330
1F
100
AcDbEntity
  8
寸法
  6
Continuous
 62
     7
370
     9
100
AcDbLine
 10
252.7499802048142
 20
7.221310746363287
 30
0.0
 11
261.8814004434122
 21
-4.678961107521872
 31
0.0
  0
LINE
  5
4DE
330
1F
100
AcDbEntity
  8
寸法
  6
Continuous
 62
     7
370
     9
100
AcDbLine
 10
252.7499802048142
 20
7.221310746363287
 30
0.0
 11
258.4904851140203
 21
-6.636902936069049
 31
0.0
  0
LINE
  5
4DF
330
1F
100
AcDbEntity
  8
寸法
  6
Continuous
 62
     7
370
     9
100
AcDbLine
 10
252.7499802048142
 20
7.221310746363287
 30
0.0
 11
284.2183870882602
 21
-47.2834219526442
 31
0.0
  0
TEXT
  5
4E0
330
1F
100
AcDbEntity
  8
寸法
  6
Continuous
 62
     7
370
     9
100
AcDbText
 10
89.22651301203555
 20
579.1002827691674
 30
0.0
 40
18.288
  1
反対側鋳出はＫＡＮＥＳＯ
 41
1.114583333333333
  7
ＭＳ ゴシック
100
AcDbText
  0
LINE
  5
4E1
330
1F
100
AcDbEntity
  8
寸法
  6
Continuous
 62
     7
370
     9
100
AcDbLine
 10
83.06436074746625
 20
572.7162728715746
 30
0.0
 11
412.8786819045609
 21
572.7162728715746
 31
0.0
  0
LINE
  5
4E2
330
1F
100
AcDbEntity
  8
寸法
  6
Continuous
 62
     7
370
     9
100
AcDbLine
 10
62.63417011982688
 20
496.4704133646065
 30
0.0
 11
83.06436074746625
 21
572.7162728715746
 31
0.0
  0
LINE
  5
4E3
330
1F
100
AcDbEntity
  8
寸法
  6
Continuous
 62
     7
370
     9
100
AcDbLine
 10
62.63417011982688
 20
496.4704133646065
 30
0.0
 11
68.37437810124578
 21
510.328627047039
 31
0.0
  0
LINE
  5
4E4
330
1F
100
AcDbEntity
  8
寸法
  6
Continuous
 62
     7
370
     9
100
AcDbLine
 10
62.63417011982688
 20
496.4704133646065
 30
0.0
 11
64.59211194837422
 21
511.3420415846234
 31
0.0
  0
LINE
  5
4E5
330
1F
100
AcDbEntity
  8
建具
  6
JWW_CENTER1
 62
     4
370
     9
100
AcDbLine
 10
-178.4385309992609
 20
-494.3239426979991
 30
0.0
 11
-178.4385309992609
 21
-464.8366380104991
 31
0.0
  0
LINE
  5
4E6
330
1F
100
AcDbEntity
  8
建具
  6
Continuous
 62
     4
370
     9
100
AcDbLine
 10
-181.9381218987542
 20
-473.3240218787423
 30
0.0
 11
-174.9381977802998
 21
-473.3240218787423
 31
0.0
  0
LINE
  5
4E7
330
1F
100
AcDbEntity
  8
建具
  6
Continuous
 62
     4
370
     9
100
AcDbLine
 10
-180.9383660393792
 20
-472.3241175554737
 30
0.0
 11
-175.9381021035683
 21
-472.3241175554737
 31
0.0
  0
LINE
  5
4E8
330
1F
100
AcDbEntity
  8
建具
  6
Continuous
 62
     4
370
     9
100
AcDbLine
 10
-175.9381021035683
 20
-472.3241175554737
 30
0.0
 11
-174.9381977802998
 21
-473.3240218787423
 31
0.0
  0
LINE
  5
4E9
330
1F
100
AcDbEntity
  8
建具
  6
Continuous
 62
     4
370
     9
100
AcDbLine
 10
-180.9383660393792
 20
-472.3241175554737
 30
0.0
 11
-181.9381218987542
 21
-473.3240218787423
 31
0.0
  0
LINE
  5
4EA
330
1F
100
AcDbEntity
  8
建具
  6
Continuous
 62
     4
370
     9
100
AcDbLine
 10
-181.9381218987542
 20
-490.3240284771375
 30
0.0
 11
-174.9381977802998
 21
-490.3240284771375
 31
0.0
  0
LINE
  5
4EB
330
1F
100
AcDbEntity
  8
建具
  6
Continuous
 62
     4
370
     9
100
AcDbLine
 10
-180.9383660393792
 20
-490.3240284771375
 30
0.0
 11
-181.9381218987542
 21
-491.3240812642997
 31
0.0
  0
LINE
  5
4EC
330
1F
100
AcDbEntity
  8
建具
  6
Continuous
 62
     4
370
     9
100
AcDbLine
 10
-175.9381021035683
 20
-490.3240284771375
 30
0.0
 11
-174.9381977802998
 21
-491.3240812642997
 31
0.0
  0
LINE
  5
4ED
330
1F
100
AcDbEntity
  8
建具
  6
Continuous
 62
     4
370
     9
100
AcDbLine
 10
-189.6882340714737
 20
-485.9468675026866
 30
0.0
 11
-189.6882340714737
 21
-483.9467619283622
 31
0.0
  0
LINE
  5
4EE
330
1F
100
AcDbEntity
  8
建具
  6
Continuous
 62
     4
370
     9
100
AcDbLine
 10
-167.1882340714737
 20
-485.9468675026866
 30
0.0
 11
-167.1882340714737
 21
-483.9467619283622
 31
0.0
  0
LINE
  5
4EF
330
1F
100
AcDbEntity
  8
建具
  6
Continuous
 62
     4
370
     9
100
AcDbLine
 10
-189.6882340714737
 20
-483.9467619283622
 30
0.0
 11
-167.1882340714737
 21
-483.9467619283622
 31
0.0
  0
LINE
  5
4F0
330
1F
100
AcDbEntity
  8
建具
  6
Continuous
 62
     4
370
     9
100
AcDbLine
 10
-189.6882340714737
 20
-485.9468675026866
 30
0.0
 11
-167.1882340714737
 21
-485.9468675026866
 31
0.0
  0
LINE
  5
4F1
330
1F
100
AcDbEntity
  8
建具
  6
Continuous
 62
     4
370
     9
100
AcDbLine
 10
-174.9381977802998
 20
-494.3239426979991
 30
0.0
 11
-174.9381977802998
 21
-485.9468675026866
 31
0.0
  0
LINE
  5
4F2
330
1F
100
AcDbEntity
  8
建具
  6
Continuous
 62
     4
370
     9
100
AcDbLine
 10
-175.9381021035683
 20
-490.3240284771375
 30
0.0
 11
-175.9381021035683
 21
-485.9468675026866
 31
0.0
  0
LINE
  5
4F3
330
1F
100
AcDbEntity
  8
建具
  6
Continuous
 62
     4
370
     9
100
AcDbLine
 10
-180.9383660393792
 20
-490.3240284771375
 30
0.0
 11
-180.9383660393792
 21
-485.9468675026866
 31
0.0
  0
LINE
  5
4F4
330
1F
100
AcDbEntity
  8
建具
  6
Continuous
 62
     4
370
     9
100
AcDbLine
 10
-181.9381218987542
 20
-494.3239426979991
 30
0.0
 11
-181.9381218987542
 21
-485.9468675026866
 31
0.0
  0
LINE
  5
4F5
330
1F
100
AcDbEntity
  8
建具
  6
Continuous
 62
     4
370
     9
100
AcDbLine
 10
-181.9381218987542
 20
-478.4467685267575
 30
0.0
 11
-181.9381218987542
 21
-473.3240218787423
 31
0.0
  0
LINE
  5
4F6
330
1F
100
AcDbEntity
  8
建具
  6
Continuous
 62
     4
370
     9
100
AcDbLine
 10
-180.9383660393792
 20
-478.4467685267575
 30
0.0
 11
-180.9383660393792
 21
-472.3241175554737
 31
0.0
  0
LINE
  5
4F7
330
1F
100
AcDbEntity
  8
建具
  6
Continuous
 62
     4
370
     9
100
AcDbLine
 10
-175.9381021035683
 20
-478.4467685267575
 30
0.0
 11
-175.9381021035683
 21
-472.3241175554737
 31
0.0
  0
LINE
  5
4F8
330
1F
100
AcDbEntity
  8
建具
  6
Continuous
 62
     4
370
     9
100
AcDbLine
 10
-174.9381977802998
 20
-478.4467685267575
 30
0.0
 11
-174.9381977802998
 21
-473.3240218787423
 31
0.0
  0
LINE
  5
4F9
330
1F
100
AcDbEntity
  8
建具
  6
Continuous
 62
     4
370
     9
100
AcDbLine
 10
-184.4381054027659
 20
-478.4467685267575
 30
0.0
 11
-172.438214276288
 21
-478.4467685267575
 31
0.0
  0
LINE
  5
4FA
330
1F
100
AcDbEntity
  8
建具
  6
Continuous
 62
     4
370
     9
100
AcDbLine
 10
-185.9381845835092
 20
-483.9467619283622
 30
0.0
 11
-185.9381845835092
 21
-479.3129068819095
 31
0.0
  0
LINE
  5
4FB
330
1F
100
AcDbEntity
  8
建具
  6
Continuous
 62
     4
370
     9
100
AcDbLine
 10
-170.9382835594383
 20
-483.9467619283622
 30
0.0
 11
-170.9382835594383
 21
-479.3129068819095
 31
0.0
  0
LINE
  5
4FC
330
1F
100
AcDbEntity
  8
建具
  6
Continuous
 62
     4
370
     9
100
AcDbLine
 10
-182.4384452201223
 20
-483.9467619283622
 30
0.0
 11
-182.4384452201223
 21
-479.3129068819095
 31
0.0
  0
LINE
  5
4FD
330
1F
100
AcDbEntity
  8
建具
  6
Continuous
 62
     4
370
     9
100
AcDbLine
 10
-174.4383198506123
 20
-485.9468675026866
 30
0.0
 11
-174.4383198506123
 21
-479.3129068819095
 31
0.0
  0
LINE
  5
4FE
330
1F
100
AcDbEntity
  8
建具
  6
Continuous
 62
     4
370
     9
100
AcDbLine
 10
-171.9381878827069
 20
-497.3239525955919
 30
0.0
 11
-58.46322549355983
 21
-497.3239525955919
 31
0.0
  0
LINE
  5
4FF
330
1F
100
AcDbEntity
  8
建具
  6
Continuous
 62
     4
370
     9
100
AcDbLine
 10
-171.9381878827069
 20
-504.3240251779399
 30
0.0
 11
-58.46322549355983
 21
-504.3240251779399
 31
0.0
  0
LINE
  5
500
330
1F
100
AcDbEntity
  8
建具
  6
Continuous
 62
     4
370
     9
100
AcDbLine
 10
-56.39482652818828
 20
-495.5202647524754
 30
0.0
 11
-50.21011764938766
 21
-499.051626925195
 31
0.0
  0
LINE
  5
501
330
1F
100
AcDbEntity
  8
建具
  6
JWW_CENTER2
 62
     4
370
     9
100
AcDbLine
 10
-43.43838253536734
 20
-480.6369078848656
 30
0.0
 11
-43.43838253536734
 21
-520.508965000575
 31
0.0
  0
LINE
  5
502
330
1F
100
AcDbEntity
  8
建具
  6
JWW_CENTER1
 62
     4
370
     9
100
AcDbLine
 10
22.49992576805329
 20
-500.823988886766
 30
0.0
 11
-171.9381878827069
 21
-500.823988886766
 31
0.0
  0
ARC
  5
503
330
1F
100
AcDbEntity
  8
建具
  6
JWW_CENTER1
 62
     4
370
     9
100
AcDbCircle
 10
22.49992576805329
 20
-490.823906406825
 30
0.0
 40
10.00000012887491
100
AcDbArc
 50
270.0
 51
0.0
  0
ARC
  5
504
330
1F
100
AcDbEntity
  8
建具
  6
Continuous
 62
     4
370
     9
100
AcDbCircle
 10
-171.9381878827069
 20
-494.3239426979991
 30
0.0
 40
10.00000012887491
100
AcDbArc
 50
180.0
 51
270.0
  0
ARC
  5
505
330
1F
100
AcDbEntity
  8
建具
  6
JWW_CENTER1
 62
     4
370
     9
100
AcDbCircle
 10
-171.9381878827069
 20
-494.3239426979991
 30
0.0
 40
6.499999213863064
100
AcDbArc
 50
180.0
 51
270.0
  0
ARC
  5
506
330
1F
100
AcDbEntity
  8
建具
  6
Continuous
 62
     4
370
     9
100
AcDbCircle
 10
-171.9381878827069
 20
-494.3239426979991
 30
0.0
 40
3.000000038662472
100
AcDbArc
 50
180.0
 51
270.0
  0
ARC
  5
507
330
1F
100
AcDbEntity
  8
建具
  6
Continuous
 62
     4
370
     9
100
AcDbCircle
 10
-184.1882406698691
 20
-480.6118174868504
 30
0.0
 40
2.179445463257867
100
AcDbArc
 50
36.58644104003907
 51
143.4135589599609
  0
ARC
  5
508
330
1F
100
AcDbEntity
  8
建具
  6
Continuous
 62
     4
370
     9
100
AcDbCircle
 10
-178.4385309992609
 20
-488.1174096268419
 30
0.0
 40
9.670567448074753
100
AcDbArc
 50
65.56718444824219
 51
114.4327697753906
  0
ARC
  5
509
330
1F
100
AcDbEntity
  8
建具
  6
Continuous
 62
     4
370
     9
100
AcDbCircle
 10
-172.6882274730784
 20
-480.6118174868504
 30
0.0
 40
2.179445463257867
100
AcDbArc
 50
36.58644104003907
 51
143.4135589599609
  0
ARC
  5
50A
330
1F
100
AcDbEntity
  8
建具
  6
Continuous
 62
     4
370
     9
100
AcDbCircle
 10
-58.46322549355983
 20
-506.3239822883706
 30
0.0
 40
8.999998956113249
100
AcDbArc
 50
20.10560607910156
 51
90.00000000000001
  0
ARC
  5
50B
330
1F
100
AcDbEntity
  8
建具
  6
Continuous
 62
     4
370
     9
100
AcDbCircle
 10
-58.46322549355983
 20
-506.3239822883706
 30
0.0
 40
2.000000315743524
100
AcDbArc
 50
20.10546875
 51
90.0
  0
ARC
  5
50C
330
1F
100
AcDbEntity
  8
建具
  6
Continuous
 62
     4
370
     9
100
AcDbCircle
 10
-43.43838253536734
 20
-500.823988886766
 30
0.0
 40
14.00000134029904
100
AcDbArc
 50
137.4626007080078
 51
157.7381286621094
  0
ARC
  5
50D
330
1F
100
AcDbEntity
  8
建具
  6
Continuous
 62
     4
370
     9
100
AcDbCircle
 10
-43.43838253536734
 20
-500.823988886766
 30
0.0
 40
7.00000067014952
100
AcDbArc
 50
127.1783905029297
 51
165.3333587646484
  0
ARC
  5
50E
330
1F
100
AcDbEntity
  8
建具
  6
Continuous
 62
     4
370
     9
100
AcDbCircle
 10
-43.43838253536734
 20
-500.823988886766
 30
0.0
 40
14.00000134029904
100
AcDbArc
 50
200.1054992675782
 51
137.4622955322266
  0
ARC
  5
50F
330
1F
100
AcDbEntity
  8
建具
  6
Continuous
 62
     4
370
     9
100
AcDbCircle
 10
-43.43838253536734
 20
-500.823988886766
 30
0.0
 40
7.00000067014952
100
AcDbArc
 50
200.1053619384766
 51
127.1780853271485
  0
LINE
  5
510
330
1F
100
AcDbEntity
  8
通り芯
  6
Continuous
 62
     3
370
     9
100
AcDbLine
 10
26.00003629117407
 20
271.7164180362705
 30
0.0
 11
66.0001435150972
 21
271.7164180362705
 31
0.0
  0
LINE
  5
511
330
1F
100
AcDbEntity
  8
通り芯
  6
Continuous
 62
     3
370
     9
100
AcDbLine
 10
-20.00001649598812
 20
271.7164180362705
 30
0.0
 11
20.00001649598829
 21
271.7164180362705
 31
0.0
  0
LINE
  5
512
330
1F
100
AcDbEntity
  8
通り芯
  6
Continuous
 62
     3
370
     9
100
AcDbLine
 10
-65.99992081925672
 20
271.7164180362705
 30
0.0
 11
-25.9998878272803
 21
271.7164180362705
 31
0.0
  0
LINE
  5
513
330
1F
100
AcDbEntity
  8
通り芯
  6
Continuous
 62
     3
370
     9
100
AcDbLine
 10
9.000029692778753
 20
296.7164015402824
 30
0.0
 11
37.00002309438361
 21
296.7164015402824
 31
0.0
  0
LINE
  5
514
330
1F
100
AcDbEntity
  8
通り芯
  6
Continuous
 62
     3
370
     9
100
AcDbLine
 10
42.00006433435391
 20
296.7164015402824
 30
0.0
 11
49.99989277607688
 21
296.7164015402824
 31
0.0
  0
LINE
  5
515
330
1F
100
AcDbEntity
  8
通り芯
  6
Continuous
 62
     3
370
     9
100
AcDbLine
 10
49.99989277607688
 20
296.7164015402824
 30
0.0
 11
49.99989277607688
 21
278.7163421547249
 31
0.0
  0
LINE
  5
516
330
1F
100
AcDbEntity
  8
通り芯
  6
Continuous
 62
     3
370
     9
100
AcDbLine
 10
42.00006433435391
 20
278.7163421547249
 30
0.0
 11
49.99989277607688
 21
278.7163421547249
 31
0.0
  0
LINE
  5
517
330
1F
100
AcDbEntity
  8
通り芯
  6
Continuous
 62
     3
370
     9
100
AcDbLine
 10
42.00006433435391
 20
296.7164015402824
 30
0.0
 11
42.00006433435391
 21
278.7163421547249
 31
0.0
  0
LINE
  5
518
330
1F
100
AcDbEntity
  8
通り芯
  6
Continuous
 62
     3
370
     9
100
AcDbLine
 10
37.00002309438361
 20
296.7164015402824
 30
0.0
 11
37.00002309438361
 21
278.7163421547249
 31
0.0
  0
LINE
  5
519
330
1F
100
AcDbEntity
  8
通り芯
  6
Continuous
 62
     3
370
     9
100
AcDbLine
 10
9.000029692778753
 20
278.7163421547249
 30
0.0
 11
37.00002309438361
 21
278.7163421547249
 31
0.0
  0
LINE
  5
51A
330
1F
100
AcDbEntity
  8
通り芯
  6
Continuous
 62
     3
370
     9
100
AcDbLine
 10
9.000029692778753
 20
296.7164015402824
 30
0.0
 11
9.000029692778753
 21
278.7163421547249
 31
0.0
  0
LINE
  5
51B
330
1F
100
AcDbEntity
  8
通り芯
  6
Continuous
 62
     3
370
     9
100
AcDbLine
 10
55.00015671188783
 20
296.7164015402824
 30
0.0
 11
83.00022434543922
 21
296.7164015402824
 31
0.0
  0
LINE
  5
51C
330
1F
100
AcDbEntity
  8
通り芯
  6
Continuous
 62
     3
370
     9
100
AcDbLine
 10
83.00022434543922
 20
296.7164015402824
 30
0.0
 11
83.00022434543922
 21
278.7163421547249
 31
0.0
  0
LINE
  5
51D
330
1F
100
AcDbEntity
  8
通り芯
  6
Continuous
 62
     3
370
     9
100
AcDbLine
 10
55.00015671188783
 20
278.7163421547249
 30
0.0
 11
83.00022434543922
 21
278.7163421547249
 31
0.0
  0
LINE
  5
51E
330
1F
100
AcDbEntity
  8
通り芯
  6
Continuous
 62
     3
370
     9
100
AcDbLine
 10
55.00015671188783
 20
296.7164015402824
 30
0.0
 11
55.00015671188783
 21
278.7163421547249
 31
0.0
  0
LINE
  5
51F
330
1F
100
AcDbEntity
  8
通り芯
  6
Continuous
 62
     3
370
     9
100
AcDbLine
 10
-37.00002309438344
 20
296.7164015402824
 30
0.0
 11
-9.000029692778583
 21
296.7164015402824
 31
0.0
  0
LINE
  5
520
330
1F
100
AcDbEntity
  8
通り芯
  6
Continuous
 62
     3
370
     9
100
AcDbLine
 10
-4.000062684754994
 20
296.7164015402824
 30
0.0
 11
3.999914220861569
 21
296.7164015402824
 31
0.0
  0
LINE
  5
521
330
1F
100
AcDbEntity
  8
通り芯
  6
Continuous
 62
     3
370
     9
100
AcDbLine
 10
3.999914220861569
 20
296.7164015402824
 30
0.0
 11
3.999914220861569
 21
278.7163421547249
 31
0.0
  0
LINE
  5
522
330
1F
100
AcDbEntity
  8
通り芯
  6
Continuous
 62
     3
370
     9
100
AcDbLine
 10
-4.000062684754994
 20
278.7163421547249
 30
0.0
 11
3.999914220861569
 21
278.7163421547249
 31
0.0
  0
LINE
  5
523
330
1F
100
AcDbEntity
  8
通り芯
  6
Continuous
 62
     3
370
     9
100
AcDbLine
 10
-4.000062684754994
 20
296.7164015402824
 30
0.0
 11
-4.000062684754994
 21
278.7163421547249
 31
0.0
  0
LINE
  5
524
330
1F
100
AcDbEntity
  8
通り芯
  6
Continuous
 62
     3
370
     9
100
AcDbLine
 10
-9.000029692778583
 20
296.7164015402824
 30
0.0
 11
-9.000029692778583
 21
278.7163421547249
 31
0.0
  0
LINE
  5
525
330
1F
100
AcDbEntity
  8
通り芯
  6
Continuous
 62
     3
370
     9
100
AcDbLine
 10
-37.00002309438344
 20
278.7163421547249
 30
0.0
 11
-9.000029692778583
 21
278.7163421547249
 31
0.0
  0
LINE
  5
526
330
1F
100
AcDbEntity
  8
通り芯
  6
Continuous
 62
     3
370
     9
100
AcDbLine
 10
-37.00002309438344
 20
296.7164015402824
 30
0.0
 11
-37.00002309438344
 21
278.7163421547249
 31
0.0
  0
LINE
  5
527
330
1F
100
AcDbEntity
  8
通り芯
  6
Continuous
 62
     3
370
     9
100
AcDbLine
 10
-82.99992741765203
 20
296.7164015402824
 30
0.0
 11
-54.99993401604718
 21
296.7164015402824
 31
0.0
  0
LINE
  5
528
330
1F
100
AcDbEntity
  8
通り芯
  6
Continuous
 62
     3
370
     9
100
AcDbLine
 10
-49.99996700802359
 20
296.7164015402824
 30
0.0
 11
-41.99999010240703
 21
296.7164015402824
 31
0.0
  0
LINE
  5
529
330
1F
100
AcDbEntity
  8
通り芯
  6
Continuous
 62
     3
370
     9
100
AcDbLine
 10
-41.99999010240703
 20
296.7164015402824
 30
0.0
 11
-41.99999010240703
 21
278.7163421547249
 31
0.0
  0
LINE
  5
52A
330
1F
100
AcDbEntity
  8
通り芯
  6
Continuous
 62
     3
370
     9
100
AcDbLine
 10
-49.99996700802359
 20
278.7163421547249
 30
0.0
 11
-41.99999010240703
 21
278.7163421547249
 31
0.0
  0
LINE
  5
52B
330
1F
100
AcDbEntity
  8
通り芯
  6
Continuous
 62
     3
370
     9
100
AcDbLine
 10
-49.99996700802359
 20
296.7164015402824
 30
0.0
 11
-49.99996700802359
 21
278.7163421547249
 31
0.0
  0
LINE
  5
52C
330
1F
100
AcDbEntity
  8
通り芯
  6
Continuous
 62
     3
370
     9
100
AcDbLine
 10
-54.99993401604718
 20
296.7164015402824
 30
0.0
 11
-54.99993401604718
 21
278.7163421547249
 31
0.0
  0
LINE
  5
52D
330
1F
100
AcDbEntity
  8
通り芯
  6
Continuous
 62
     3
370
     9
100
AcDbLine
 10
-82.99992741765203
 20
278.7163421547249
 30
0.0
 11
-54.99993401604718
 21
278.7163421547249
 31
0.0
  0
LINE
  5
52E
330
1F
100
AcDbEntity
  8
通り芯
  6
Continuous
 62
     3
370
     9
100
AcDbLine
 10
-82.99992741765203
 20
296.7164015402824
 30
0.0
 11
-82.99992741765203
 21
278.7163421547249
 31
0.0
  0
LINE
  5
52F
330
1F
100
AcDbEntity
  8
通り芯
  6
Continuous
 62
     3
370
     9
100
AcDbLine
 10
-65.99992081925672
 20
271.7164180362705
 30
0.0
 11
-65.99992081925672
 21
262.7163883434918
 31
0.0
  0
LINE
  5
530
330
1F
100
AcDbEntity
  8
通り芯
  6
Continuous
 62
     3
370
     9
100
AcDbLine
 10
-25.9998878272803
 20
271.7164180362705
 30
0.0
 11
-25.9998878272803
 21
262.7163883434918
 31
0.0
  0
LINE
  5
531
330
1F
100
AcDbEntity
  8
通り芯
  6
Continuous
 62
     3
370
     9
100
AcDbLine
 10
-20.00001649598812
 20
271.7164180362705
 30
0.0
 11
-20.00001649598812
 21
262.7163883434918
 31
0.0
  0
LINE
  5
532
330
1F
100
AcDbEntity
  8
通り芯
  6
Continuous
 62
     3
370
     9
100
AcDbLine
 10
20.00001649598829
 20
271.7164180362705
 30
0.0
 11
20.00001649598829
 21
262.7163883434918
 31
0.0
  0
LINE
  5
533
330
1F
100
AcDbEntity
  8
通り芯
  6
Continuous
 62
     3
370
     9
100
AcDbLine
 10
26.00003629117407
 20
271.7164180362705
 30
0.0
 11
26.00003629117407
 21
262.7163883434918
 31
0.0
  0
LINE
  5
534
330
1F
100
AcDbEntity
  8
通り芯
  6
Continuous
 62
     3
370
     9
100
AcDbLine
 10
66.0001435150972
 20
271.7164180362705
 30
0.0
 11
66.0001435150972
 21
262.7163883434918
 31
0.0
  0
LINE
  5
535
330
1F
100
AcDbEntity
  8
仕上
  6
Continuous
 62
     3
370
     9
100
AcDbLine
 10
-54.99978555215358
 20
233.2714700976091
 30
0.0
 11
-54.99978555215358
 21
262.7163883434918
 31
0.0
  0
LINE
  5
536
330
1F
100
AcDbEntity
  8
仕上
  6
Continuous
 62
     3
370
     9
100
AcDbLine
 10
-55.99983833931577
 20
233.2714700976091
 30
0.0
 11
-55.99983833931577
 21
262.7163883434918
 31
0.0
  0
LINE
  5
537
330
1F
100
AcDbEntity
  8
仕上
  6
Continuous
 62
     3
370
     9
100
AcDbLine
 10
54.99985978410064
 20
233.2714700976091
 30
0.0
 11
54.99985978410064
 21
262.7163883434918
 31
0.0
  0
LINE
  5
538
330
1F
100
AcDbEntity
  8
仕上
  6
Continuous
 62
     3
370
     9
100
AcDbLine
 10
55.99991257126283
 20
233.2714700976091
 30
0.0
 11
55.99991257126283
 21
262.7163883434918
 31
0.0
  0
ARC
  5
539
330
1F
100
AcDbEntity
  8
仕上
  6
Continuous
 62
     3
370
     9
100
AcDbCircle
 10
50.99994556323907
 20
233.2714700976091
 30
0.0
 40
3.999999761581421
100
AcDbArc
 50
300.0003356933594
 51
0.0
  0
ARC
  5
53A
330
1F
100
AcDbEntity
  8
仕上
  6
Continuous
 62
     3
370
     9
100
AcDbCircle
 10
50.99994556323907
 20
233.2714700976091
 30
0.0
 40
5.000000064437454
100
AcDbArc
 50
299.9995727539062
 51
0.0
  0
LINE
  5
53B
330
1F
100
AcDbEntity
  8
仕上
  6
Continuous
 62
     3
370
     9
100
AcDbLine
 10
-2.499983504011709
 20
200.651354559708
 30
0.0
 11
-52.99980955724401
 21
229.807351165757
 31
0.0
  0
ARC
  5
53C
330
1F
100
AcDbEntity
  8
仕上
  6
Continuous
 62
     3
370
     9
100
AcDbCircle
 10
-50.9997970993453
 20
233.2714700976091
 30
0.0
 40
5.000000064437454
100
AcDbArc
 50
180.0
 51
245.1380285882965
  0
LINE
  5
53D
330
1F
100
AcDbEntity
  8
仕上
  6
Continuous
 62
     3
370
     9
100
AcDbLine
 10
2.49998350401188
 20
200.651354559708
 30
0.0
 11
52.99992079826376
 21
229.8074582484292
 31
0.0
  0
TEXT
  5
53E
330
1F
100
AcDbEntity
  8
F-4ﾚｲﾔ
  6
Continuous
 62
     6
370
     0
100
AcDbText
 10
23.65692086634485
 20
-668.5432155277596
 30
0.0
 40
18.288
  1
回転ロック式　簡易密閉型（簡易防水・防臭型）角枠
 41
0.7979166666666667
  7
ＭＳ ゴシック
100
AcDbText
  0
TEXT
  5
53F
330
1F
100
AcDbEntity
  8
F-4ﾚｲﾔ
  6
Continuous
 62
     6
370
     0
100
AcDbText
 10
97.28817095443938
 20
-693.6530935842625
 30
0.0
 40
18.288
  1
マンホール鉄蓋　ＭＫＲＹ－Ｓ－４５０（角）－ｂ
 41
0.7978260869565218
  7
ＭＳ ゴシック
100
AcDbText
  0
TEXT
  5
540
330
1F
100
AcDbEntity
  8
寸法
  6
Continuous
 62
     6
370
     9
100
AcDbText
 10
309.0794814647542
 20
-429.4261049171639
 30
0.0
 40
18.288
  1
パッキン：クロロプレン
 41
0.7954545454545456
  7
ＭＳ ゴシック
100
AcDbText
  0
LINE
  5
541
330
1F
100
AcDbEntity
  8
寸法
  6
Continuous
 62
     7
370
     9
100
AcDbLine
 10
305.4430822423988
 20
-437.2156729292068
 30
0.0
 11
525.0035997703742
 21
-437.2156729292068
 31
0.0
  0
ENDSEC
  0
SECTION
  2
OBJECTS
  0
DICTIONARY
  5
C
330
0
100
AcDbDictionary
281
     1
  3
ACAD_GROUP
350
D
  3
ACAD_LAYOUT
350
1A
  3
ACAD_MLEADERSTYLE
350
543
  3
ACAD_MLINESTYLE
350
17
  3
ACAD_PLOTSETTINGS
350
19
  3
ACAD_PLOTSTYLENAME
350
E
  3
ACAD_TABLESTYLE
350
542
  3
ACAD_VISUALSTYLE
350
2A
  0
DICTIONARY
  5
D
102
{ACAD_REACTORS
330
C
102
}
330
C
100
AcDbDictionary
281
     1
  0
DICTIONARY
  5
1A
102
{ACAD_REACTORS
330
C
102
}
330
C
100
AcDbDictionary
281
     1
  3
Layout1
350
1E
  3
Layout2
350
26
  3
Model
350
22
  0
DICTIONARY
  5
543
102
{ACAD_REACTORS
330
C
102
}
330
C
100
AcDbDictionary
281
     1
  0
DICTIONARY
  5
17
102
{ACAD_REACTORS
330
C
102
}
330
C
100
AcDbDictionary
281
     1
  3
Standard
350
18
  0
DICTIONARY
  5
19
102
{ACAD_REACTORS
330
C
102
}
330
C
100
AcDbDictionary
281
     1
  0
ACDBDICTIONARYWDFLT
  5
E
102
{ACAD_REACTORS
330
C
102
}
330
C
100
AcDbDictionary
281
     1
  3
Normal
350
F
100
AcDbDictionaryWithDefault
340
F
  0
DICTIONARY
  5
542
102
{ACAD_REACTORS
330
C
102
}
330
C
100
AcDbDictionary
281
     1
  0
DICTIONARY
  5
2A
102
{ACAD_REACTORS
330
C
102
}
330
C
100
AcDbDictionary
281
     1
  3
2dWireframe
350
2F
  3
3D Hidden
350
31
  3
3dWireframe
350
30
  3
Basic
350
32
  3
Brighten
350
36
  3
ColorChange
350
3A
  3
Conceptual
350
34
  3
Dim
350
35
  3
Facepattern
350
39
  3
Flat
350
2B
  3
FlatWithEdges
350
2C
  3
Gouraud
350
2D
  3
GouraudWithEdges
350
2E
  3
Linepattern
350
38
  3
Realistic
350
33
  3
Thicken
350
37
  0
LAYOUT
  5
1E
102
{ACAD_REACTORS
330
1A
102
}
330
1A
100
AcDbPlotSettings
  1

  2
none_device
  4

  6

 40
0.0
 41
0.0
 42
0.0
 43
0.0
 44
0.0
 45
0.0
 46
0.0
 47
0.0
 48
0.0
 49
0.0
140
0.0
141
0.0
142
1.0
143
1.0
 70
   688
 72
     0
 73
     0
 74
     5
  7

 75
    16
 76
     0
 77
     5
 78
   300
147
1.0
148
0.0
149
0.0
100
AcDbLayout
  1
Layout1
 70
     1
 71
     1
 10
0.0
 20
0.0
 11
420.0
 21
297.0
 12
0.0
 22
0.0
 32
0.0
 14
1.000000000000000E+20
 24
1.000000000000000E+20
 34
1.000000000000000E+20
 15
-1.000000000000000E+20
 25
-1.000000000000000E+20
 35
-1.000000000000000E+20
146
0.0
 13
0.0
 23
0.0
 33
0.0
 16
1.0
 26
0.0
 36
0.0
 17
0.0
 27
1.0
 37
0.0
 76
     0
330
1B
  0
LAYOUT
  5
26
102
{ACAD_REACTORS
330
1A
102
}
330
1A
100
AcDbPlotSettings
  1

  2
none_device
  4

  6

 40
0.0
 41
0.0
 42
0.0
 43
0.0
 44
0.0
 45
0.0
 46
0.0
 47
0.0
 48
0.0
 49
0.0
140
0.0
141
0.0
142
1.0
143
1.0
 70
   688
 72
     0
 73
     0
 74
     5
  7

 75
    16
 76
     0
 77
     5
 78
   300
147
1.0
148
0.0
149
0.0
100
AcDbLayout
  1
Layout2
 70
     1
 71
     2
 10
0.0
 20
0.0
 11
0.0
 21
0.0
 12
0.0
 22
0.0
 32
0.0
 14
0.0
 24
0.0
 34
0.0
 15
0.0
 25
0.0
 35
0.0
146
0.0
 13
0.0
 23
0.0
 33
0.0
 16
1.0
 26
0.0
 36
0.0
 17
0.0
 27
1.0
 37
0.0
 76
     0
330
23
  0
LAYOUT
  5
22
102
{ACAD_REACTORS
330
1A
102
}
330
1A
100
AcDbPlotSettings
  1

  2
none_device
  4

  6

 40
0.0
 41
0.0
 42
0.0
 43
0.0
 44
0.0
 45
0.0
 46
0.0
 47
0.0
 48
0.0
 49
0.0
140
0.0
141
0.0
142
1.0
143
1.0
 70
  1712
 72
     0
 73
     0
 74
     0
  7

 75
     0
 76
     0
 77
     5
 78
   300
147
1.0
148
0.0
149
0.0
100
AcDbLayout
  1
Model
 70
     1
 71
     0
 10
-1260.0
 20
-891.0
 11
1260.0
 21
891.0
 12
0.0
 22
0.0
 32
0.0
 14
-1260.0
 24
-891.0
 34
0.0
 15
1260.0
 25
891.0
 35
0.0
146
0.0
 13
0.0
 23
0.0
 33
0.0
 16
1.0
 26
0.0
 36
0.0
 17
0.0
 27
1.0
 37
0.0
 76
     0
330
1F
331
29
  0
MLINESTYLE
  5
18
102
{ACAD_REACTORS
330
17
102
}
330
17
100
AcDbMlineStyle
  2
Standard
 70
     0
  3

 62
   256
 51
90.0
 52
90.0
 71
     2
 49
0.5
 62
   256
  6
BYLAYER
 49
-0.5
 62
   256
  6
BYLAYER
  0
ACDBPLACEHOLDER
  5
F
102
{ACAD_REACTORS
330
E
102
}
330
E
  0
VISUALSTYLE
  5
2F
102
{ACAD_REACTORS
330
2A
102
}
330
2A
100
AcDbVisualStyle
  2
2dWireframe
 70
     4
 71
     0
 72
     2
 73
     0
 90
        0
 40
-0.6
 41
-30.0
 62
     5
 63
     7
421
 16777215
 74
     1
 91
        4
 64
     7
 65
   257
 75
     1
175
     1
 42
1.0
 92
        0
 66
   257
 43
1.0
 76
     1
 77
     6
 78
     2
 67
     7
 79
     5
170
     0
171
     0
290
     0
174
     0
 93
        1
 44
0.0
173
     0
291
     0
 45
0.0
1001
ACAD
1000
AcDbSavedByObjectVersion
1070
     0
  0
VISUALSTYLE
  5
31
102
{ACAD_REACTORS
330
2A
102
}
330
2A
100
AcDbVisualStyle
  2
3D Hidden
 70
     6
 71
     1
 72
     2
 73
     2
 90
        0
 40
-0.6
 41
-30.0
 62
     5
 63
     7
421
 16777215
 74
     2
 91
        2
 64
     7
 65
   257
 75
     2
175
     1
 42
40.0
 92
        0
 66
   257
 43
1.0
 76
     1
 77
     6
 78
     2
 67
     7
 79
     3
170
     0
171
     0
290
     0
174
     0
 93
        1
 44
0.0
173
     0
291
     0
 45
0.0
1001
ACAD
1000
AcDbSavedByObjectVersion
1070
     0
  0
VISUALSTYLE
  5
30
102
{ACAD_REACTORS
330
2A
102
}
330
2A
100
AcDbVisualStyle
  2
3dWireframe
 70
     5
 71
     0
 72
     2
 73
     0
 90
        0
 40
-0.6
 41
-30.0
 62
     5
 63
     7
421
 16777215
 74
     1
 91
        4
 64
     7
 65
   257
 75
     1
175
     1
 42
1.0
 92
        0
 66
   257
 43
1.0
 76
     1
 77
     6
 78
     2
 67
     7
 79
     5
170
     0
171
     0
290
     0
174
     0
 93
        1
 44
0.0
173
     0
291
     0
 45
0.0
1001
ACAD
1000
AcDbSavedByObjectVersion
1070
     0
  0
VISUALSTYLE
  5
32
102
{ACAD_REACTORS
330
2A
102
}
330
2A
100
AcDbVisualStyle
  2
Basic
 70
     7
 71
     1
 72
     0
 73
     1
 90
        0
 40
-0.6
 41
-30.0
 62
     5
 63
     7
421
 16777215
 74
     0
 91
        4
 64
     7
 65
   257
 75
     1
175
     1
 42
1.0
 92
        8
 66
     7
 43
1.0
 76
     1
 77
     6
 78
     2
 67
     7
 79
     5
170
     0
171
     0
290
     0
174
     0
 93
        1
 44
0.0
173
     0
291
     1
 45
0.0
1001
ACAD
1000
AcDbSavedByObjectVersion
1070
     0
  0
VISUALSTYLE
  5
36
102
{ACAD_REACTORS
330
2A
102
}
330
2A
100
AcDbVisualStyle
  2
Brighten
 70
    12
 71
     2
 72
     2
 73
     0
 90
        0
 40
-0.6
 41
-30.0
 62
     5
 63
     7
421
 16777215
 74
     1
 91
        4
 64
     7
 65
   257
 75
     1
175
     1
 42
1.0
 92
        8
 66
     7
 43
1.0
 76
     1
 77
     6
 78
     2
 67
     7
 79
     5
170
     0
171
     0
290
     0
174
     0
 93
        1
 44
50.0
173
     0
291
     1
 45
0.0
1001
ACAD
1000
AcDbSavedByObjectVersion
1070
     0
  0
VISUALSTYLE
  5
3A
102
{ACAD_REACTORS
330
2A
102
}
330
2A
100
AcDbVisualStyle
  2
ColorChange
 70
    16
 71
     2
 72
     2
 73
     3
 90
        0
 40
-0.6
 41
-30.0
 62
     5
 63
     8
421
  8421504
 74
     1
 91
        4
 64
     7
 65
   257
 75
     1
175
     1
 42
1.0
 92
        8
 66
     8
424
  8421504
 43
1.0
 76
     1
 77
     6
 78
     2
 67
     7
 79
     5
170
     0
171
     0
290
     0
174
     0
 93
        1
 44
0.0
173
     0
291
     1
 45
0.0
1001
ACAD
1000
AcDbSavedByObjectVersion
1070
     0
  0
VISUALSTYLE
  5
34
102
{ACAD_REACTORS
330
2A
102
}
330
2A
100
AcDbVisualStyle
  2
Conceptual
 70
     9
 71
     3
 72
     2
 73
     0
 90
        0
 40
-0.6
 41
-30.0
 62
     5
 63
     7
421
 16777215
 74
     2
 91
        2
 64
     7
 65
   257
 75
     1
175
     1
 42
40.0
 92
        8
 66
     7
 43
1.0
 76
     1
 77
     6
 78
     2
 67
     7
 79
     3
170
     0
171
     0
290
     0
174
     0
 93
        1
 44
0.0
173
     0
291
     0
 45
0.0
1001
ACAD
1000
AcDbSavedByObjectVersion
1070
     0
  0
VISUALSTYLE
  5
35
102
{ACAD_REACTORS
330
2A
102
}
330
2A
100
AcDbVisualStyle
  2
Dim
 70
    11
 71
     2
 72
     2
 73
     0
 90
        0
 40
-0.6
 41
-30.0
 62
     5
 63
     7
421
 16777215
 74
     1
 91
        4
 64
     7
 65
   257
 75
     1
175
     1
 42
1.0
 92
        8
 66
     7
 43
1.0
 76
     1
 77
     6
 78
     2
 67
     7
 79
     5
170
     0
171
     0
290
     0
174
     0
 93
        1
 44
-50.0
173
     0
291
     1
 45
0.0
1001
ACAD
1000
AcDbSavedByObjectVersion
1070
     0
  0
VISUALSTYLE
  5
39
102
{ACAD_REACTORS
330
2A
102
}
330
2A
100
AcDbVisualStyle
  2
Facepattern
 70
    15
 71
     2
 72
     2
 73
     0
 90
        0
 40
-0.6
 41
-30.0
 62
     5
 63
     7
421
 16777215
 74
     1
 91
        4
 64
     7
 65
   257
 75
     1
175
     1
 42
1.0
 92
        8
 66
     7
 43
1.0
 76
     1
 77
     6
 78
     2
 67
     7
 79
     5
170
     0
171
     0
290
     0
174
     0
 93
        1
 44
0.0
173
     0
291
     1
 45
0.0
1001
ACAD
1000
AcDbSavedByObjectVersion
1070
     0
  0
VISUALSTYLE
  5
2B
102
{ACAD_REACTORS
330
2A
102
}
330
2A
100
AcDbVisualStyle
  2
Flat
 70
     0
 71
     2
 72
     1
 73
     1
 90
        2
 40
-0.6
 41
30.0
 62
     5
 63
     7
421
 16777215
 74
     0
 91
        4
 64
     7
 65
   257
 75
     1
175
     1
 42
1.0
 92
        8
 66
     7
 43
1.0
 76
     1
 77
     6
 78
     2
 67
     7
 79
     5
170
     0
171
     0
290
     0
174
     0
 93
       13
 44
0.0
173
     0
291
     1
 45
0.0
1001
ACAD
1000
AcDbSavedByObjectVersion
1070
     0
  0
VISUALSTYLE
  5
2C
102
{ACAD_REACTORS
330
2A
102
}
330
2A
100
AcDbVisualStyle
  2
FlatWithEdges
 70
     1
 71
     2
 72
     1
 73
     1
 90
        2
 40
-0.6
 41
30.0
 62
     5
 63
     7
421
 16777215
 74
     1
 91
        4
 64
     7
 65
   257
 75
     1
175
     1
 42
1.0
 92
        0
 66
   257
 43
1.0
 76
     1
 77
     6
 78
     2
 67
     7
 79
     5
170
     0
171
     0
290
     0
174
     0
 93
       13
 44
0.0
173
     0
291
     1
 45
0.0
1001
ACAD
1000
AcDbSavedByObjectVersion
1070
     0
  0
VISUALSTYLE
  5
2D
102
{ACAD_REACTORS
330
2A
102
}
330
2A
100
AcDbVisualStyle
  2
Gouraud
 70
     2
 71
     2
 72
     2
 73
     1
 90
        2
 40
-0.6
 41
30.0
 62
     5
 63
     7
421
 16777215
 74
     0
 91
        4
 64
     7
 65
   257
 75
     1
175
     1
 42
1.0
 92
        0
 66
     7
 43
1.0
 76
     1
 77
     6
 78
     2
 67
     7
 79
     5
170
     0
171
     0
290
     0
174
     0
 93
       13
 44
0.0
173
     0
291
     1
 45
0.0
1001
ACAD
1000
AcDbSavedByObjectVersion
1070
     0
  0
VISUALSTYLE
  5
2E
102
{ACAD_REACTORS
330
2A
102
}
330
2A
100
AcDbVisualStyle
  2
GouraudWithEdges
 70
     3
 71
     2
 72
     2
 73
     1
 90
        2
 40
-0.6
 41
30.0
 62
     5
 63
     7
421
 16777215
 74
     1
 91
        4
 64
     7
 65
   257
 75
     1
175
     1
 42
1.0
 92
        0
 66
   257
 43
1.0
 76
     1
 77
     6
 78
     2
 67
     7
 79
     5
170
     0
171
     0
290
     0
174
     0
 93
       13
 44
0.0
173
     0
291
     1
 45
0.0
1001
ACAD
1000
AcDbSavedByObjectVersion
1070
     0
  0
VISUALSTYLE
  5
38
102
{ACAD_REACTORS
330
2A
102
}
330
2A
100
AcDbVisualStyle
  2
Linepattern
 70
    14
 71
     2
 72
     2
 73
     0
 90
        0
 40
-0.6
 41
-30.0
 62
     5
 63
     7
421
 16777215
 74
     1
 91
        4
 64
     7
 65
   257
 75
     7
175
     7
 42
1.0
 92
        8
 66
     7
 43
1.0
 76
     1
 77
     6
 78
     2
 67
     7
 79
     5
170
     0
171
     0
290
     0
174
     0
 93
        1
 44
0.0
173
     0
291
     1
 45
0.0
1001
ACAD
1000
AcDbSavedByObjectVersion
1070
     0
  0
VISUALSTYLE
  5
33
102
{ACAD_REACTORS
330
2A
102
}
330
2A
100
AcDbVisualStyle
  2
Realistic
 70
     8
 71
     2
 72
     2
 73
     0
 90
        0
 40
-0.6
 41
-30.0
 62
     5
 63
     7
421
 16777215
 74
     1
 91
        0
 64
     7
 65
   257
 75
     1
175
     1
 42
1.0
 92
        8
 66
     8
424
  7895160
 43
1.0
 76
     1
 77
     6
 78
     2
 67
     7
 79
     5
170
     0
171
     0
290
     0
174
     0
 93
       13
 44
0.0
173
     0
291
     0
 45
0.0
1001
ACAD
1000
AcDbSavedByObjectVersion
1070
     0
  0
VISUALSTYLE
  5
37
102
{ACAD_REACTORS
330
2A
102
}
330
2A
100
AcDbVisualStyle
  2
Thicken
 70
    13
 71
     2
 72
     2
 73
     0
 90
        0
 40
-0.6
 41
-30.0
 62
     5
 63
     7
421
 16777215
 74
     1
 91
        4
 64
     7
 65
   257
 75
     1
175
     1
 42
1.0
 92
       12
 66
     7
 43
1.0
 76
     1
 77
     6
 78
     2
 67
     7
 79
     5
170
     0
171
     0
290
     0
174
     0
 93
        1
 44
0.0
173
     0
291
     1
 45
0.0
1001
ACAD
1000
AcDbSavedByObjectVersion
1070
     0
  0
ENDSEC
  0
EOF
