  0
SECTION
  2
HEADER
  9
$ACADVER
  1
AC1018
  9
$ACADMAINTVER
 70
     0
  9
$DWGCODEPAGE
  3
ANSI_932
  9
$INSBASE
 10
0.0
 20
0.0
 30
0.0
  9
$EXTMIN
 10
-1050.0
 20
-742.5
 30
0.0
  9
$EXTMAX
 10
1050.0
 20
742.5
 30
0.0
  9
$LIMMIN
 10
-1050.0
 20
-742.5
  9
$LIMMAX
 10
1050.0
 20
742.5
  9
$ORTHOMODE
 70
     0
  9
$REGENMODE
 70
     1
  9
$FILLMODE
 70
     1
  9
$QTEXTMODE
 70
     0
  9
$MIRRTEXT
 70
     1
  9
$LTSCALE
 40
5.0
  9
$ATTMODE
 70
     1
  9
$TEXTSIZE
 40
2.5
  9
$TRACEWID
 40
1.0
  9
$TEXTSTYLE
  7
Standard
  9
$CLAYER
  8
0
  9
$CELTYPE
  6
ByLayer
  9
$CECOLOR
 62
   256
  9
$CELTSCALE
 40
1.0
  9
$DISPSILH
 70
     0
  9
$DIMSCALE
 40
1.0
  9
$DIMASZ
 40
2.5
  9
$DIMEXO
 40
0.625
  9
$DIMDLI
 40
3.75
  9
$DIMRND
 40
0.0
  9
$DIMDLE
 40
0.0
  9
$DIMEXE
 40
1.25
  9
$DIMTP
 40
0.0
  9
$DIMTM
 40
0.0
  9
$DIMTXT
 40
2.5
  9
$DIMCEN
 40
2.5
  9
$DIMTSZ
 40
0.0
  9
$DIMTOL
 70
     0
  9
$DIMLIM
 70
     0
  9
$DIMTIH
 70
     0
  9
$DIMTOH
 70
     0
  9
$DIMSE1
 70
     0
  9
$DIMSE2
 70
     0
  9
$DIMTAD
 70
     1
  9
$DIMZIN
 70
     8
  9
$DIMBLK
  1

  9
$DIMASO
 70
     1
  9
$DIMSHO
 70
     1
  9
$DIMPOST
  1

  9
$DIMAPOST
  1

  9
$DIMALT
 70
     0
  9
$DIMALTD
 70
     3
  9
$DIMALTF
 40
0.03937007874016
  9
$DIMLFAC
 40
1.0
  9
$DIMTOFL
 70
     1
  9
$DIMTVP
 40
0.0
  9
$DIMTIX
 70
     0
  9
$DIMSOXD
 70
     0
  9
$DIMSAH
 70
     0
  9
$DIMBLK1
  1

  9
$DIMBLK2
  1

  9
$DIMSTYLE
  2
ISO-25
  9
$DIMCLRD
 70
     0
  9
$DIMCLRE
 70
     0
  9
$DIMCLRT
 70
     0
  9
$DIMTFAC
 40
1.0
  9
$DIMGAP
 40
0.625
  9
$DIMJUST
 70
     0
  9
$DIMSD1
 70
     0
  9
$DIMSD2
 70
     0
  9
$DIMTOLJ
 70
     0
  9
$DIMTZIN
 70
     8
  9
$DIMALTZ
 70
     0
  9
$DIMALTTZ
 70
     0
  9
$DIMUPT
 70
     0
  9
$DIMDEC
 70
     2
  9
$DIMTDEC
 70
     2
  9
$DIMALTU
 70
     2
  9
$DIMALTTD
 70
     3
  9
$DIMTXSTY
  7
Standard
  9
$DIMAUNIT
 70
     0
  9
$DIMADEC
 70
     0
  9
$DIMALTRND
 40
0.0
  9
$DIMAZIN
 70
     0
  9
$DIMDSEP
 70
    44
  9
$DIMATFIT
 70
     3
  9
$DIMFRAC
 70
     0
  9
$DIMLDRBLK
  1

  9
$DIMLUNIT
 70
     2
  9
$DIMLWD
 70
    -2
  9
$DIMLWE
 70
    -2
  9
$DIMTMOVE
 70
     0
  9
$LUNITS
 70
     2
  9
$LUPREC
 70
     4
  9
$SKETCHINC
 40
1.0
  9
$FILLETRAD
 40
10.0
  9
$AUNITS
 70
     0
  9
$AUPREC
 70
     0
  9
$MENU
  1
.
  9
$ELEVATION
 40
0.0
  9
$PELEVATION
 40
0.0
  9
$THICKNESS
 40
0.0
  9
$LIMCHECK
 70
     0
  9
$CHAMFERA
 40
10.0
  9
$CHAMFERB
 40
10.0
  9
$CHAMFERC
 40
20.0
  9
$CHAMFERD
 40
0.0
  9
$SKPOLY
 70
     0
  9
$TDCREATE
 40
2457904.64489044
  9
$TDUCREATE
 40
2457904.26989044
  9
$TDUPDATE
 40
2457904.644890451
  9
$TDUUPDATE
 40
2457904.269890451
  9
$TDINDWG
 40
0.0000000116
  9
$TDUSRTIMER
 40
0.0000000116
  9
$USRTIMER
 70
     1
  9
$ANGBASE
 50
0.0
  9
$ANGDIR
 70
     0
  9
$PDMODE
 70
     0
  9
$PDSIZE
 40
0.0
  9
$PLINEWID
 40
0.0
  9
$SPLFRAME
 70
     0
  9
$SPLINETYPE
 70
     6
  9
$SPLINESEGS
 70
     8
  9
$HANDSEED
  5
4F6
  9
$SURFTAB1
 70
     6
  9
$SURFTAB2
 70
     6
  9
$SURFTYPE
 70
     6
  9
$SURFU
 70
     6
  9
$SURFV
 70
     6
  9
$UCSBASE
  2

  9
$UCSNAME
  2

  9
$UCSORG
 10
0.0
 20
0.0
 30
0.0
  9
$UCSXDIR
 10
1.0
 20
0.0
 30
0.0
  9
$UCSYDIR
 10
0.0
 20
1.0
 30
0.0
  9
$UCSORTHOREF
  2

  9
$UCSORTHOVIEW
 70
     0
  9
$UCSORGTOP
 10
0.0
 20
0.0
 30
0.0
  9
$UCSORGBOTTOM
 10
0.0
 20
0.0
 30
0.0
  9
$UCSORGLEFT
 10
0.0
 20
0.0
 30
0.0
  9
$UCSORGRIGHT
 10
0.0
 20
0.0
 30
0.0
  9
$UCSORGFRONT
 10
0.0
 20
0.0
 30
0.0
  9
$UCSORGBACK
 10
0.0
 20
0.0
 30
0.0
  9
$PUCSBASE
  2

  9
$PUCSNAME
  2

  9
$PUCSORG
 10
0.0
 20
0.0
 30
0.0
  9
$PUCSXDIR
 10
1.0
 20
0.0
 30
0.0
  9
$PUCSYDIR
 10
0.0
 20
1.0
 30
0.0
  9
$PUCSORTHOREF
  2

  9
$PUCSORTHOVIEW
 70
     0
  9
$PUCSORGTOP
 10
0.0
 20
0.0
 30
0.0
  9
$PUCSORGBOTTOM
 10
0.0
 20
0.0
 30
0.0
  9
$PUCSORGLEFT
 10
0.0
 20
0.0
 30
0.0
  9
$PUCSORGRIGHT
 10
0.0
 20
0.0
 30
0.0
  9
$PUCSORGFRONT
 10
0.0
 20
0.0
 30
0.0
  9
$PUCSORGBACK
 10
0.0
 20
0.0
 30
0.0
  9
$USERI1
 70
     0
  9
$USERI2
 70
     0
  9
$USERI3
 70
     0
  9
$USERI4
 70
     0
  9
$USERI5
 70
     0
  9
$USERR1
 40
0.0
  9
$USERR2
 40
0.0
  9
$USERR3
 40
0.0
  9
$USERR4
 40
0.0
  9
$USERR5
 40
0.0
  9
$WORLDVIEW
 70
     1
  9
$SHADEDGE
 70
     3
  9
$SHADEDIF
 70
    70
  9
$TILEMODE
 70
     1
  9
$MAXACTVP
 70
    64
  9
$PINSBASE
 10
0.0
 20
0.0
 30
0.0
  9
$PLIMCHECK
 70
     0
  9
$PEXTMIN
 10
1.000000000000000E+20
 20
1.000000000000000E+20
 30
1.000000000000000E+20
  9
$PEXTMAX
 10
-1.000000000000000E+20
 20
-1.000000000000000E+20
 30
-1.000000000000000E+20
  9
$PLIMMIN
 10
0.0
 20
0.0
  9
$PLIMMAX
 10
420.0
 20
297.0
  9
$UNITMODE
 70
     0
  9
$VISRETAIN
 70
     1
  9
$PLINEGEN
 70
     0
  9
$PSLTSCALE
 70
     1
  9
$TREEDEPTH
 70
  3020
  9
$CMLSTYLE
  2
Standard
  9
$CMLJUST
 70
     0
  9
$CMLSCALE
 40
20.0
  9
$PROXYGRAPHICS
 70
     1
  9
$MEASUREMENT
 70
     1
  9
$CELWEIGHT
370
    -1
  9
$ENDCAPS
280
     0
  9
$JOINSTYLE
280
     0
  9
$LWDISPLAY
290
     0
  9
$INSUNITS
 70
     4
  9
$HYPERLINKBASE
  1

  9
$STYLESHEET
  1

  9
$XEDIT
290
     1
  9
$CEPSNTYPE
380
     0
  9
$PSTYLEMODE
290
     1
  9
$FINGERPRINTGUID
  2
{37C31B3F-F87D-476A-B934-9DCB340DAA8A}
  9
$VERSIONGUID
  2
{FAEB1C32-E019-11D5-929B-00C0DF256EC4}
  9
$EXTNAMES
290
     1
  9
$PSVPSCALE
 40
0.0
  9
$OLESTARTUP
290
     0
  9
$SORTENTS
280
   127
  9
$INDEXCTL
280
     0
  9
$HIDETEXT
280
     1
  9
$XCLIPFRAME
290
     0
  9
$HALOGAP
280
     0
  9
$OBSCOLOR
 70
   257
  9
$OBSLTYPE
280
     0
  9
$INTERSECTIONDISPLAY
280
     0
  9
$INTERSECTIONCOLOR
 70
   257
  9
$DIMASSOC
280
     2
  9
$PROJECTNAME
  1

  0
ENDSEC
  0
SECTION
  2
CLASSES
  0
CLASS
  1
ACDBDICTIONARYWDFLT
  2
AcDbDictionaryWithDefault
  3
ObjectDBX Classes
 90
        0
 91
        4
280
     0
281
     0
  0
CLASS
  1
VISUALSTYLE
  2
AcDbVisualStyle
  3
ObjectDBX Classes
 90
     4095
 91
        4
280
     0
281
     0
  0
ENDSEC
  0
SECTION
  2
TABLES
  0
TABLE
  2
VPORT
  5
8
330
0
100
AcDbSymbolTable
 70
     1
  0
VPORT
  5
29
330
8
100
AcDbSymbolTableRecord
100
AcDbViewportTableRecord
  2
*Active
 70
     0
 10
0.0
 20
0.0
 11
1.0
 21
1.0
 12
0.0
 22
0.0
 13
0.0
 23
0.0
 14
10.0
 24
10.0
 15
10.0
 25
10.0
 16
0.0
 26
0.0
 36
1.0
 17
0.0
 27
0.0
 37
0.0
 40
1633.5
 41
1.414141414141414
 42
50.0
 43
0.0
 44
0.0
 50
0.0
 51
0.0
 71
     0
 72
 10000
 73
     1
 74
     3
 75
     0
 76
     0
 77
     0
 78
     0
281
     0
 65
     1
110
0.0
120
0.0
130
0.0
111
1.0
121
0.0
131
0.0
112
0.0
122
1.0
132
0.0
 79
     0
146
0.0
  0
ENDTAB
  0
TABLE
  2
LTYPE
  5
5
330
0
100
AcDbSymbolTable
 70
     5
  0
LTYPE
  5
14
330
5
100
AcDbSymbolTableRecord
100
AcDbLinetypeTableRecord
  2
ByBlock
 70
     0
  3

 72
    65
 73
     0
 40
0.0
  0
LTYPE
  5
15
330
5
100
AcDbSymbolTableRecord
100
AcDbLinetypeTableRecord
  2
ByLayer
 70
     0
  3

 72
    65
 73
     0
 40
0.0
  0
LTYPE
  5
16
330
5
100
AcDbSymbolTableRecord
100
AcDbLinetypeTableRecord
  2
Continuous
 70
     0
  3
Solid line
 72
    65
 73
     0
 40
0.0
  0
LTYPE
  5
3C
330
5
100
AcDbSymbolTableRecord
100
AcDbLinetypeTableRecord
  2
JWW_CENTER1
 70
     0
  3
-----  --  ----------  --  -----
 72
    65
 73
     4
 40
6.773333333333333
 49
4.233333333333333
 74
     0
 49
-0.8466666666666667
 74
     0
 49
0.8466666666666667
 74
     0
 49
-0.8466666666666667
 74
     0
  0
LTYPE
  5
3D
330
5
100
AcDbSymbolTableRecord
100
AcDbLinetypeTableRecord
  2
JWW_DASHED1
 70
     0
  3
-  --  --  --  --  --  --  --  -
 72
    65
 73
     2
 40
1.693333333333333
 49
0.8466666666666667
 74
     0
 49
-0.8466666666666667
 74
     0
  0
LTYPE
  5
3E
330
5
100
AcDbSymbolTableRecord
100
AcDbLinetypeTableRecord
  2
JWW_DASHED3
 70
     0
  3
---  ------  ------  ------  ---
 72
    65
 73
     2
 40
3.386666666666667
 49
2.54
 74
     0
 49
-0.8466666666666667
 74
     0
  0
LTYPE
  5
3F
330
5
100
AcDbSymbolTableRecord
100
AcDbLinetypeTableRecord
  2
JWW_PHANTOM2
 70
     0
  3
------------  -  -  ------------
 72
    65
 73
     6
 40
13.54666666666667
 49
10.16
 74
     0
 49
-0.8466666666666667
 74
     0
 49
0.4233333333333333
 74
     0
 49
-0.8466666666666667
 74
     0
 49
0.4233333333333333
 74
     0
 49
-0.8466666666666667
 74
     0
  0
ENDTAB
  0
TABLE
  2
LAYER
  5
2
330
0
100
AcDbSymbolTable
 70
    20
  0
LAYER
  5
10
330
2
100
AcDbSymbolTableRecord
100
AcDbLayerTableRecord
  2
0
 70
     0
 62
     7
  6
Continuous
370
    -3
390
F
  0
LAYER
  5
40
330
2
100
AcDbSymbolTableRecord
100
AcDbLayerTableRecord
  2
D-A
 70
     0
 62
     7
  6
Continuous
370
    -3
390
F
  0
LAYER
  5
41
330
2
100
AcDbSymbolTableRecord
100
AcDbLayerTableRecord
  2
D-B
 70
     0
 62
     7
  6
Continuous
370
    -3
390
F
  0
LAYER
  5
42
330
2
100
AcDbSymbolTableRecord
100
AcDbLayerTableRecord
  2
D-3
 70
     0
 62
     7
  6
Continuous
370
    -3
390
F
  0
LAYER
  5
43
330
2
100
AcDbSymbolTableRecord
100
AcDbLayerTableRecord
  2
D-2
 70
     0
 62
     7
  6
Continuous
370
    -3
390
F
  0
LAYER
  5
44
330
2
100
AcDbSymbolTableRecord
100
AcDbLayerTableRecord
  2
0-4
 70
     0
 62
     7
  6
Continuous
370
    -3
390
F
  0
LAYER
  5
45
330
2
100
AcDbSymbolTableRecord
100
AcDbLayerTableRecord
  2
1-4
 70
     0
 62
     7
  6
Continuous
370
    -3
390
F
  0
LAYER
  5
46
330
2
100
AcDbSymbolTableRecord
100
AcDbLayerTableRecord
  2
0-0
 70
     0
 62
     7
  6
Continuous
370
    -3
390
F
  0
LAYER
  5
47
330
2
100
AcDbSymbolTableRecord
100
AcDbLayerTableRecord
  2
0-1
 70
     0
 62
     7
  6
Continuous
370
    -3
390
F
  0
LAYER
  5
48
330
2
100
AcDbSymbolTableRecord
100
AcDbLayerTableRecord
  2
0-A
 70
     0
 62
     7
  6
Continuous
370
    -3
390
F
  0
LAYER
  5
49
330
2
100
AcDbSymbolTableRecord
100
AcDbLayerTableRecord
  2
0-2
 70
     0
 62
     7
  6
Continuous
370
    -3
390
F
  0
LAYER
  5
4A
330
2
100
AcDbSymbolTableRecord
100
AcDbLayerTableRecord
  2
0-9
 70
     0
 62
     7
  6
Continuous
370
    -3
390
F
  0
LAYER
  5
4B
330
2
100
AcDbSymbolTableRecord
100
AcDbLayerTableRecord
  2
D-4
 70
     0
 62
     7
  6
Continuous
370
    -3
390
F
  0
LAYER
  5
4C
330
2
100
AcDbSymbolTableRecord
100
AcDbLayerTableRecord
  2
D-1
 70
     0
 62
     7
  6
Continuous
370
    -3
390
F
  0
LAYER
  5
4D
330
2
100
AcDbSymbolTableRecord
100
AcDbLayerTableRecord
  2
D-5
 70
     0
 62
     7
  6
Continuous
370
    -3
390
F
  0
LAYER
  5
4E
330
2
100
AcDbSymbolTableRecord
100
AcDbLayerTableRecord
  2
D-6
 70
     0
 62
     7
  6
Continuous
370
    -3
390
F
  0
LAYER
  5
4F
330
2
100
AcDbSymbolTableRecord
100
AcDbLayerTableRecord
  2
D-0
 70
     0
 62
     7
  6
Continuous
370
    -3
390
F
  0
LAYER
  5
50
330
2
100
AcDbSymbolTableRecord
100
AcDbLayerTableRecord
  2
D-D
 70
     0
 62
     7
  6
Continuous
370
    -3
390
F
  0
LAYER
  5
51
330
2
100
AcDbSymbolTableRecord
100
AcDbLayerTableRecord
  2
D-F
 70
     0
 62
     7
  6
Continuous
370
    -3
390
F
  0
LAYER
  5
52
330
2
100
AcDbSymbolTableRecord
100
AcDbLayerTableRecord
  2
F-0
 70
     0
 62
     7
  6
Continuous
370
    -3
390
F
  0
ENDTAB
  0
TABLE
  2
STYLE
  5
3
330
0
100
AcDbSymbolTable
 70
     2
  0
STYLE
  5
11
330
3
100
AcDbSymbolTableRecord
100
AcDbTextStyleTableRecord
  2
Standard
 70
     0
 40
0.0
 41
1.0
 50
0.0
 71
     0
 42
2.5
  3
txt
  4

1001
ACAD
1000

1071
        0
  0
STYLE
  5
3B
330
3
100
AcDbSymbolTableRecord
100
AcDbTextStyleTableRecord
  2
ＭＳ ゴシック
 70
     0
 40
1.0
 41
1.0
 50
0.0
 71
     0
 42
10.0
  3

  4

1001
ACAD
1000
MS Gothic
1071
    32817
  0
ENDTAB
  0
TABLE
  2
VIEW
  5
6
330
0
100
AcDbSymbolTable
 70
     0
  0
ENDTAB
  0
TABLE
  2
UCS
  5
7
330
0
100
AcDbSymbolTable
 70
     0
  0
ENDTAB
  0
TABLE
  2
APPID
  5
9
330
0
100
AcDbSymbolTable
 70
     1
  0
APPID
  5
12
330
9
100
AcDbSymbolTableRecord
100
AcDbRegAppTableRecord
  2
ACAD
 70
     0
  0
ENDTAB
  0
TABLE
  2
DIMSTYLE
  5
A
330
0
100
AcDbSymbolTable
 70
     1
100
AcDbDimStyleTable
  0
DIMSTYLE
105
27
330
A
100
AcDbSymbolTableRecord
100
AcDbDimStyleTableRecord
  2
ISO-25
 70
     0
 41
2.5
 42
0.625
 43
3.75
 44
1.25
 73
     0
 74
     0
 77
     1
 78
     8
140
2.5
141
2.5
143
0.03937007874016
147
0.625
171
     3
172
     1
271
     2
272
     2
274
     3
278
    44
283
     0
284
     8
340
11
  0
ENDTAB
  0
TABLE
  2
BLOCK_RECORD
  5
1
330
0
100
AcDbSymbolTable
 70
     1
  0
BLOCK_RECORD
  5
1F
330
1
100
AcDbSymbolTableRecord
100
AcDbBlockTableRecord
  2
*Model_Space
340
22
  0
BLOCK_RECORD
  5
1B
330
1
100
AcDbSymbolTableRecord
100
AcDbBlockTableRecord
  2
*Paper_Space
340
1E
  0
BLOCK_RECORD
  5
23
330
1
100
AcDbSymbolTableRecord
100
AcDbBlockTableRecord
  2
*Paper_Space0
340
26
  0
ENDTAB
  0
ENDSEC
  0
SECTION
  2
BLOCKS
  0
BLOCK
  5
20
330
1F
100
AcDbEntity
  8
0
100
AcDbBlockBegin
  2
*Model_Space
 70
     0
 10
0.0
 20
0.0
 30
0.0
  3
*Model_Space
  1

  0
ENDBLK
  5
21
330
1F
100
AcDbEntity
  8
0
100
AcDbBlockEnd
  0
BLOCK
  5
1C
330
1B
100
AcDbEntity
 67
     1
  8
0
100
AcDbBlockBegin
  2
*Paper_Space
 70
     0
 10
0.0
 20
0.0
 30
0.0
  3
*Paper_Space
  1

  0
ENDBLK
  5
1D
330
1B
100
AcDbEntity
 67
     1
  8
0
100
AcDbBlockEnd
  0
BLOCK
  5
24
330
23
100
AcDbEntity
  8
0
100
AcDbBlockBegin
  2
*Paper_Space0
 70
     0
 10
0.0
 20
0.0
 30
0.0
  3
*Paper_Space0
  1

  0
ENDBLK
  5
25
330
23
100
AcDbEntity
  8
0
100
AcDbBlockEnd
  0
ENDSEC
  0
SECTION
  2
ENTITIES
  0
LINE
  5
53
330
1F
100
AcDbEntity
  8
D-A
  6
Continuous
 62
     2
370
     9
100
AcDbLine
 10
246.2806907860011
 20
407.8697164004997
 30
0.0
 11
246.2806907860011
 21
405.3700174522839
 31
0.0
  0
LINE
  5
54
330
1F
100
AcDbEntity
  8
D-A
  6
Continuous
 62
     2
370
     9
100
AcDbLine
 10
247.5307567699537
 20
407.8697164004997
 30
0.0
 11
247.5307567699537
 21
405.3700174522839
 31
0.0
  0
LINE
  5
55
330
1F
100
AcDbEntity
  8
D-B
  6
Continuous
 62
     7
370
     9
100
AcDbLine
 10
356.8579596442146
 20
437.1194541142877
 30
0.0
 11
323.7813176335516
 21
437.1194541142877
 31
0.0
  0
LINE
  5
56
330
1F
100
AcDbEntity
  8
D-B
  6
Continuous
 62
     7
370
     9
100
AcDbLine
 10
361.4322559253591
 20
444.61947885827
 30
0.0
 11
323.7813176335516
 21
444.61947885827
 31
0.0
  0
LINE
  5
57
330
1F
100
AcDbEntity
  8
D-3
  6
Continuous
 62
     3
370
     9
100
AcDbLine
 10
437.5311361776818
 20
407.8697164004997
 30
0.0
 11
282.5313671215162
 21
407.8697164004997
 31
0.0
  0
LINE
  5
58
330
1F
100
AcDbEntity
  8
D-3
  6
Continuous
 62
     3
370
     9
100
AcDbLine
 10
437.5311361776818
 20
415.8696933061162
 30
0.0
 11
282.5313671215162
 21
415.8696933061162
 31
0.0
  0
LINE
  5
59
330
1F
100
AcDbEntity
  8
D-2
  6
JWW_CENTER1
 62
     3
370
     9
100
AcDbLine
 10
275.0312186576227
 20
325.6844351109094
 30
0.0
 11
275.0312186576227
 21
461.3904551568342
 31
0.0
  0
LINE
  5
5A
330
1F
100
AcDbEntity
  8
0-4
  6
Continuous
 62
     7
370
     9
100
AcDbLine
 10
-729.7297297297297
 20
416.4977367504224
 30
0.0
 11
-129.7297297297297
 21
416.4977367504224
 31
0.0
  0
LINE
  5
5B
330
1F
100
AcDbEntity
  8
0-4
  6
Continuous
 62
     7
370
     9
100
AcDbLine
 10
-742.7297231313344
 20
455.9896273226352
 30
0.0
 11
-116.729736328125
 21
455.9896273226352
 31
0.0
  0
LINE
  5
5C
330
1F
100
AcDbEntity
  8
0-4
  6
Continuous
 62
     7
370
     9
100
AcDbLine
 10
-742.7297231313344
 20
337.0985041437923
 30
0.0
 11
-742.7297231313344
 21
457.4896075274494
 31
0.0
  0
LINE
  5
5D
330
1F
100
AcDbEntity
  8
0-4
  6
Continuous
 62
     7
370
     9
100
AcDbLine
 10
-116.729736328125
 20
337.0985041437923
 30
0.0
 11
-116.729736328125
 21
457.4896075274494
 31
0.0
  0
LINE
  5
5E
330
1F
100
AcDbEntity
  8
0-4
  6
Continuous
 62
     7
370
     9
100
AcDbLine
 10
-829.6287949020798
 20
316.5971250791808
 30
0.0
 11
-829.6194540487752
 21
-283.4028439908414
 31
0.0
  0
LINE
  5
5F
330
1F
100
AcDbEntity
  8
0-4
  6
Continuous
 62
     7
370
     9
100
AcDbLine
 10
-869.1208710541596
 20
329.5964998812289
 30
0.0
 11
-869.1111590411213
 21
-296.4034559920027
 31
0.0
  0
LINE
  5
60
330
1F
100
AcDbEntity
  8
0-4
  6
Continuous
 62
     7
370
     9
100
AcDbLine
 10
-750.2297478753167
 20
329.5983556798987
 30
0.0
 11
-870.6208512589739
 21
329.5964998812289
 31
0.0
  0
LINE
  5
61
330
1F
100
AcDbEntity
  8
0-4
  6
Continuous
 62
     7
370
     9
100
AcDbLine
 10
-750.2200358622782
 20
-296.4016001933329
 30
0.0
 11
-870.6111392459354
 21
-296.4034869219805
 31
0.0
  0
LINE
  5
62
330
1F
100
AcDbEntity
  8
1-4
  6
Continuous
 62
     7
370
     9
100
AcDbLine
 10
-568.7236064189188
 20
-401.9594903894372
 30
0.0
 11
-303.4594561602619
 21
-401.9594903894372
 31
0.0
  0
TEXT
  5
63
330
1F
100
AcDbEntity
  8
0-4
  6
Continuous
 62
     2
370
     9
100
AcDbText
 10
-445.9797297297297
 20
421.8177449984164
 30
0.0
 40
15.24
  1
600
 41
1.083333333333333
  7
ＭＳ ゴシック
100
AcDbText
  0
TEXT
  5
64
330
1F
100
AcDbEntity
  8
0-4
  6
Continuous
 62
     2
370
     9
100
AcDbText
 10
-445.9797297297297
 20
461.3096355706293
 30
0.0
 40
15.24
  1
626
 41
1.083333333333333
  7
ＭＳ ゴシック
100
AcDbText
  0
TEXT
  5
65
330
1F
100
AcDbEntity
  8
0-4
  6
Continuous
 62
     2
370
     9
100
AcDbText
 10
-834.9438543531687
 20
0.3470202807610946
 30
0.0
 40
15.24
  1
600
 50
90.0008724470594
 41
1.083333333333333
  7
ＭＳ ゴシック
100
AcDbText
  0
TEXT
  5
66
330
1F
100
AcDbEntity
  8
0-4
  6
Continuous
 62
     2
370
     9
100
AcDbText
 10
-874.4357449253815
 20
0.3464016812045202
 30
0.0
 40
15.24
  1
626
 50
90.0008724470594
 41
1.083333333333333
  7
ＭＳ ゴシック
100
AcDbText
  0
TEXT
  5
67
330
1F
100
AcDbEntity
  8
1-4
  6
Continuous
 62
     2
370
     9
100
AcDbText
 10
-556.9999055604677
 20
-395.7795050378747
 30
0.0
 40
15.24
  1
平面詳細図　Ｓ＝１：５
 41
1.113636363636364
  7
ＭＳ ゴシック
100
AcDbText
  0
LWPOLYLINE
  5
68
330
1F
100
AcDbEntity
  8
0-4
  6
Continuous
 62
     7
370
     9
100
AcDbPolyline
 90
        4
 70
     1
 43
0.5
 10
-729.4797297297296
 20
416.4977367504224
 42
0.4142135623731
 10
-729.7297297297297
 20
416.7477367504224
 42
0.4142135623731
 10
-729.9797297297298
 20
416.4977367504224
 42
0.4142135623731
 10
-729.7297297297297
 20
416.2477367504224
 42
0.4142135623731
  0
LWPOLYLINE
  5
69
330
1F
100
AcDbEntity
  8
0-4
  6
Continuous
 62
     7
370
     9
100
AcDbPolyline
 90
        4
 70
     1
 43
0.5
 10
-129.4797297297297
 20
416.4977367504224
 42
0.4142135623731
 10
-129.7297297297297
 20
416.7477367504224
 42
0.4142135623731
 10
-129.9797297297297
 20
416.4977367504224
 42
0.4142135623731
 10
-129.7297297297297
 20
416.2477367504224
 42
0.4142135623731
  0
LWPOLYLINE
  5
6A
330
1F
100
AcDbEntity
  8
0-4
  6
Continuous
 62
     7
370
     9
100
AcDbPolyline
 90
        4
 70
     1
 43
0.5
 10
-742.4797231313344
 20
455.9896273226352
 42
0.4142135623731
 10
-742.7297231313344
 20
456.2396273226352
 42
0.4142135623731
 10
-742.9797231313344
 20
455.9896273226352
 42
0.4142135623731
 10
-742.7297231313344
 20
455.7396273226352
 42
0.4142135623731
  0
LWPOLYLINE
  5
6B
330
1F
100
AcDbEntity
  8
0-4
  6
Continuous
 62
     7
370
     9
100
AcDbPolyline
 90
        4
 70
     1
 43
0.5
 10
-116.479736328125
 20
455.9896273226352
 42
0.4142135623731
 10
-116.729736328125
 20
456.2396273226352
 42
0.4142135623731
 10
-116.979736328125
 20
455.9896273226352
 42
0.4142135623731
 10
-116.729736328125
 20
455.7396273226352
 42
0.4142135623731
  0
LWPOLYLINE
  5
6C
330
1F
100
AcDbEntity
  8
0-4
  6
Continuous
 62
     7
370
     9
100
AcDbPolyline
 90
        4
 70
     1
 43
0.5
 10
-829.3787949020798
 20
316.5971250791808
 42
0.4142135623731
 10
-829.6287949020798
 20
316.8471250791808
 42
0.4142135623731
 10
-829.8787949020799
 20
316.5971250791808
 42
0.4142135623731
 10
-829.6287949020798
 20
316.3471250791809
 42
0.4142135623731
  0
LWPOLYLINE
  5
6D
330
1F
100
AcDbEntity
  8
0-4
  6
Continuous
 62
     7
370
     9
100
AcDbPolyline
 90
        4
 70
     1
 43
0.5
 10
-829.3694540487752
 20
-283.4028439908414
 42
0.4142135623731
 10
-829.6194540487752
 20
-283.1528439908414
 42
0.4142135623731
 10
-829.8694540487753
 20
-283.4028439908414
 42
0.4142135623731
 10
-829.6194540487752
 20
-283.6528439908414
 42
0.4142135623731
  0
LWPOLYLINE
  5
6E
330
1F
100
AcDbEntity
  8
0-4
  6
Continuous
 62
     7
370
     9
100
AcDbPolyline
 90
        4
 70
     1
 43
0.5
 10
-868.8708710541596
 20
329.5964998812289
 42
0.4142135623731
 10
-869.1208710541596
 20
329.8464998812289
 42
0.4142135623731
 10
-869.3708710541597
 20
329.5964998812289
 42
0.4142135623731
 10
-869.1208710541596
 20
329.3464998812289
 42
0.4142135623731
  0
LWPOLYLINE
  5
6F
330
1F
100
AcDbEntity
  8
0-4
  6
Continuous
 62
     7
370
     9
100
AcDbPolyline
 90
        4
 70
     1
 43
0.5
 10
-868.8611590411211
 20
-296.4034559920027
 42
0.4142135623731
 10
-869.1111590411213
 20
-296.1534559920028
 42
0.4142135623731
 10
-869.3611590411213
 20
-296.4034559920027
 42
0.4142135623731
 10
-869.1111590411213
 20
-296.6534559920027
 42
0.4142135623731
  0
LINE
  5
70
330
1F
100
AcDbEntity
  8
0-0
  6
Continuous
 62
     4
370
     9
100
AcDbLine
 10
-141.7297069299175
 20
-271.403500855199
 30
0.0
 11
-717.729752529542
 21
-271.403500855199
 31
0.0
  0
LINE
  5
71
330
1F
100
AcDbEntity
  8
0-0
  6
Continuous
 62
     4
370
     9
100
AcDbLine
 10
-141.7297069299175
 20
304.5965447444253
 30
0.0
 11
-141.7297069299175
 21
-271.403500855199
 31
0.0
  0
LINE
  5
72
330
1F
100
AcDbEntity
  8
0-0
  6
Continuous
 62
     4
370
     9
100
AcDbLine
 10
-717.729752529542
 20
304.5965447444253
 30
0.0
 11
-141.7297069299175
 21
304.5965447444253
 31
0.0
  0
LINE
  5
73
330
1F
100
AcDbEntity
  8
0-0
  6
Continuous
 62
     4
370
     9
100
AcDbLine
 10
-717.729752529542
 20
-271.403500855199
 30
0.0
 11
-717.729752529542
 21
304.5965447444253
 31
0.0
  0
LINE
  5
74
330
1F
100
AcDbEntity
  8
0-0
  6
Continuous
 62
     4
370
     9
100
AcDbLine
 10
-729.7297687898731
 20
-283.4034646229392
 30
0.0
 11
-729.7297687898731
 21
316.5965610047567
 31
0.0
  0
LINE
  5
75
330
1F
100
AcDbEntity
  8
0-0
  6
Continuous
 62
     4
370
     9
100
AcDbLine
 10
-129.7297431621772
 20
-283.4034646229393
 30
0.0
 11
-729.7297687898731
 21
-283.4034646229392
 31
0.0
  0
LINE
  5
76
330
1F
100
AcDbEntity
  8
0-0
  6
Continuous
 62
     4
370
     9
100
AcDbLine
 10
-129.7297431621772
 20
316.5965610047566
 30
0.0
 11
-129.7297431621772
 21
-283.4034646229393
 31
0.0
  0
LINE
  5
77
330
1F
100
AcDbEntity
  8
0-0
  6
Continuous
 62
     4
370
     9
100
AcDbLine
 10
-729.7297687898731
 20
316.5965610047567
 30
0.0
 11
-129.7297431621772
 21
316.5965610047566
 31
0.0
  0
LINE
  5
78
330
1F
100
AcDbEntity
  8
0-0
  6
Continuous
 62
     4
370
     9
100
AcDbLine
 10
-727.229756653539
 20
314.0965488684225
 30
0.0
 11
-132.2297552985113
 21
314.0965488684224
 31
0.0
  0
LINE
  5
79
330
1F
100
AcDbEntity
  8
0-0
  6
Continuous
 62
     4
370
     9
100
AcDbLine
 10
-727.229756653539
 20
-280.9034524866053
 30
0.0
 11
-727.229756653539
 21
314.0965488684225
 31
0.0
  0
LINE
  5
7A
330
1F
100
AcDbEntity
  8
0-0
  6
Continuous
 62
     4
370
     9
100
AcDbLine
 10
-132.2297552985113
 20
-280.9034524866053
 30
0.0
 11
-727.229756653539
 21
-280.9034524866053
 31
0.0
  0
LINE
  5
7B
330
1F
100
AcDbEntity
  8
0-0
  6
Continuous
 62
     4
370
     9
100
AcDbLine
 10
-132.2297552985113
 20
314.0965488684224
 30
0.0
 11
-132.2297552985113
 21
-280.9034524866053
 31
0.0
  0
LINE
  5
7C
330
1F
100
AcDbEntity
  8
0-0
  6
Continuous
 62
     4
370
     9
100
AcDbLine
 10
-720.229764665876
 20
307.0965568807595
 30
0.0
 11
-139.2296947935833
 21
307.0965568807595
 31
0.0
  0
LINE
  5
7D
330
1F
100
AcDbEntity
  8
0-0
  6
Continuous
 62
     4
370
     9
100
AcDbLine
 10
-720.229764665876
 20
-273.9035129915333
 30
0.0
 11
-720.229764665876
 21
307.0965568807595
 31
0.0
  0
LINE
  5
7E
330
1F
100
AcDbEntity
  8
0-0
  6
Continuous
 62
     4
370
     9
100
AcDbLine
 10
-139.2296947935833
 20
-273.9035129915333
 30
0.0
 11
-720.229764665876
 21
-273.9035129915333
 31
0.0
  0
LINE
  5
7F
330
1F
100
AcDbEntity
  8
0-0
  6
Continuous
 62
     4
370
     9
100
AcDbLine
 10
-139.2296947935833
 20
307.0965568807595
 30
0.0
 11
-139.2296947935833
 21
-273.9035129915333
 31
0.0
  0
LINE
  5
80
330
1F
100
AcDbEntity
  8
0-1
  6
Continuous
 62
     2
370
     9
100
AcDbLine
 10
-730.7296476621884
 20
317.5965448622538
 30
0.0
 11
-128.7297068120889
 21
317.5965448622538
 31
0.0
  0
LINE
  5
81
330
1F
100
AcDbEntity
  8
0-1
  6
Continuous
 62
     2
370
     9
100
AcDbLine
 10
-742.7296639225198
 20
329.596456137403
 30
0.0
 11
-116.7297430443487
 21
329.596456137403
 31
0.0
  0
LINE
  5
82
330
1F
100
AcDbEntity
  8
0-1
  6
Continuous
 62
     2
370
     9
100
AcDbLine
 10
-730.7296476621884
 20
-284.4035009730276
 30
0.0
 11
-730.7296476621884
 21
317.5965448622538
 31
0.0
  0
LINE
  5
83
330
1F
100
AcDbEntity
  8
0-1
  6
Continuous
 62
     2
370
     9
100
AcDbLine
 10
-742.7296639225199
 20
-296.4034647407678
 30
0.0
 11
-742.7296639225198
 21
329.596456137403
 31
0.0
  0
LINE
  5
84
330
1F
100
AcDbEntity
  8
0-1
  6
Continuous
 62
     2
370
     9
100
AcDbLine
 10
-128.7297068120889
 20
-284.4035009730276
 30
0.0
 11
-730.7296476621884
 21
-284.4035009730276
 31
0.0
  0
LINE
  5
85
330
1F
100
AcDbEntity
  8
0-1
  6
Continuous
 62
     2
370
     9
100
AcDbLine
 10
-128.7297068120889
 20
317.5965448622538
 30
0.0
 11
-128.7297068120889
 21
-284.4035009730276
 31
0.0
  0
LINE
  5
86
330
1F
100
AcDbEntity
  8
0-1
  6
Continuous
 62
     2
370
     9
100
AcDbLine
 10
-116.7297430443487
 20
329.596456137403
 30
0.0
 11
-116.7297430443487
 21
-296.4034647407678
 31
0.0
  0
LINE
  5
87
330
1F
100
AcDbEntity
  8
0-1
  6
Continuous
 62
     2
370
     9
100
AcDbLine
 10
-116.7297430443487
 20
-296.4034647407678
 30
0.0
 11
-742.7296639225199
 21
-296.4034647407678
 31
0.0
  0
LINE
  5
88
330
1F
100
AcDbEntity
  8
0-1
  6
Continuous
 62
     2
370
     9
100
AcDbLine
 10
-740.2296517861855
 20
327.0964440010691
 30
0.0
 11
-119.2297551806828
 21
327.096444001069
 31
0.0
  0
LINE
  5
89
330
1F
100
AcDbEntity
  8
0-1
  6
Continuous
 62
     2
370
     9
100
AcDbLine
 10
-119.2297551806828
 20
327.096444001069
 30
0.0
 11
-119.2297551806828
 21
-293.9034526044337
 31
0.0
  0
LINE
  5
8A
330
1F
100
AcDbEntity
  8
0-1
  6
Continuous
 62
     2
370
     9
100
AcDbLine
 10
-119.2297551806828
 20
-293.9034526044337
 30
0.0
 11
-740.2296517861856
 21
-293.9034526044337
 31
0.0
  0
LINE
  5
8B
330
1F
100
AcDbEntity
  8
0-1
  6
Continuous
 62
     2
370
     9
100
AcDbLine
 10
-740.2296517861856
 20
-293.9034526044337
 30
0.0
 11
-740.2296517861855
 21
327.0964440010691
 31
0.0
  0
LINE
  5
8C
330
1F
100
AcDbEntity
  8
0-1
  6
Continuous
 62
     2
370
     9
100
AcDbLine
 10
-733.2296597985227
 20
-286.9035131093617
 30
0.0
 11
-733.2296597985227
 21
320.0965569985881
 31
0.0
  0
LINE
  5
8D
330
1F
100
AcDbEntity
  8
0-1
  6
Continuous
 62
     2
370
     9
100
AcDbLine
 10
-733.2296597985227
 20
320.0965569985881
 30
0.0
 11
-126.2296946757549
 21
320.0965569985881
 31
0.0
  0
LINE
  5
8E
330
1F
100
AcDbEntity
  8
0-1
  6
Continuous
 62
     2
370
     9
100
AcDbLine
 10
-126.2296946757549
 20
-286.9035131093617
 30
0.0
 11
-733.2296597985227
 21
-286.9035131093617
 31
0.0
  0
LINE
  5
8F
330
1F
100
AcDbEntity
  8
0-1
  6
Continuous
 62
     2
370
     9
100
AcDbLine
 10
-126.2296946757549
 20
320.0965569985881
 30
0.0
 11
-126.2296946757549
 21
-286.9035131093617
 31
0.0
  0
LINE
  5
90
330
1F
100
AcDbEntity
  8
0-1
  6
Continuous
 62
     2
370
     9
100
AcDbLine
 10
-128.7297068120889
 20
-284.4035009730276
 30
0.0
 11
-116.7297430443487
 21
-296.4034647407678
 31
0.0
  0
LINE
  5
91
330
1F
100
AcDbEntity
  8
0-1
  6
Continuous
 62
     2
370
     9
100
AcDbLine
 10
-730.7296476621884
 20
-284.4035009730276
 30
0.0
 11
-742.7296639225199
 21
-296.4034647407678
 31
0.0
  0
LINE
  5
92
330
1F
100
AcDbEntity
  8
0-1
  6
Continuous
 62
     2
370
     9
100
AcDbLine
 10
-730.7296476621884
 20
317.5965448622538
 30
0.0
 11
-742.7296639225198
 21
329.596456137403
 31
0.0
  0
LINE
  5
93
330
1F
100
AcDbEntity
  8
0-1
  6
Continuous
 62
     2
370
     9
100
AcDbLine
 10
-128.7297068120889
 20
317.5965448622538
 30
0.0
 11
-116.7297430443487
 21
329.596456137403
 31
0.0
  0
LINE
  5
94
330
1F
100
AcDbEntity
  8
0-A
  6
JWW_DASHED1
 62
     2
370
     9
100
AcDbLine
 10
-675.6297497252239
 20
316.5965610047567
 30
0.0
 11
-675.6297497252239
 21
316.2965133549164
 31
0.0
  0
LINE
  5
95
330
1F
100
AcDbEntity
  8
0-A
  6
JWW_DASHED1
 62
     2
370
     9
100
AcDbLine
 10
-677.6797953719796
 20
314.2465726933426
 30
0.0
 11
-675.6297497252239
 21
316.2965133549164
 31
0.0
  0
LINE
  5
96
330
1F
100
AcDbEntity
  8
0-A
  6
JWW_DASHED1
 62
     2
370
     9
100
AcDbLine
 10
-681.7796766951277
 20
314.2465726933426
 30
0.0
 11
-677.6797953719796
 21
314.2465726933426
 31
0.0
  0
LINE
  5
97
330
1F
100
AcDbEntity
  8
0-A
  6
JWW_DASHED1
 62
     2
370
     9
100
AcDbLine
 10
-681.7796766951277
 20
314.2465726933426
 30
0.0
 11
-683.8297223418834
 21
316.2965133549164
 31
0.0
  0
LINE
  5
98
330
1F
100
AcDbEntity
  8
0-A
  6
JWW_DASHED1
 62
     2
370
     9
100
AcDbLine
 10
-675.6297497252239
 20
316.2965133549164
 30
0.0
 11
-683.8297223418834
 21
316.2965133549164
 31
0.0
  0
LINE
  5
99
330
1F
100
AcDbEntity
  8
0-A
  6
JWW_DASHED1
 62
     2
370
     9
100
AcDbLine
 10
-683.8297223418834
 20
316.5965610047567
 30
0.0
 11
-683.8297223418834
 21
316.2965133549164
 31
0.0
  0
LINE
  5
9A
330
1F
100
AcDbEntity
  8
0-A
  6
JWW_DASHED1
 62
     2
370
     9
100
AcDbLine
 10
-677.6797953719796
 20
314.2465726933426
 30
0.0
 11
-677.6797953719796
 21
308.2631522219156
 31
0.0
  0
LINE
  5
9B
330
1F
100
AcDbEntity
  8
0-A
  6
JWW_DASHED1
 62
     2
370
     9
100
AcDbLine
 10
-681.7796766951277
 20
314.2465726933426
 30
0.0
 11
-681.7796766951277
 21
308.2631522219156
 31
0.0
  0
LINE
  5
9C
330
1F
100
AcDbEntity
  8
0-A
  6
JWW_DASHED1
 62
     2
370
     9
100
AcDbLine
 10
-681.7796766951277
 20
308.2631522219156
 30
0.0
 11
-679.7297360335538
 21
291.5965446265969
 31
0.0
  0
LINE
  5
9D
330
1F
100
AcDbEntity
  8
0-A
  6
JWW_DASHED1
 62
     2
370
     9
100
AcDbLine
 10
-679.7297360335538
 20
291.5965446265969
 30
0.0
 11
-677.6797953719796
 21
308.2631522219156
 31
0.0
  0
LINE
  5
9E
330
1F
100
AcDbEntity
  8
0-A
  6
JWW_DASHED1
 62
     2
370
     9
100
AcDbLine
 10
-680.4075203678324
 20
293.0105900414663
 30
0.0
 11
-679.0219259372549
 21
293.2547855745412
 31
0.0
  0
LINE
  5
9F
330
1F
100
AcDbEntity
  8
0-A
  6
JWW_DASHED1
 62
     2
370
     9
100
AcDbLine
 10
-680.6242097832521
 20
294.7723463787537
 30
0.0
 11
-678.795682870283
 21
295.0947558723362
 31
0.0
  0
LINE
  5
A0
330
1F
100
AcDbEntity
  8
0-A
  6
JWW_DASHED1
 62
     2
370
     9
100
AcDbLine
 10
-682.1410356911913
 20
307.1048507101289
 30
0.0
 11
-677.2115614607526
 21
307.9741280161737
 31
0.0
  0
LINE
  5
A1
330
1F
100
AcDbEntity
  8
0-A
  6
JWW_DASHED1
 62
     2
370
     9
100
AcDbLine
 10
-681.9243462757714
 20
305.3430943728415
 30
0.0
 11
-677.4378045277246
 21
306.1341577183788
 31
0.0
  0
LINE
  5
A2
330
1F
100
AcDbEntity
  8
0-A
  6
JWW_DASHED1
 62
     2
370
     9
100
AcDbLine
 10
-681.7076568603513
 20
303.5813380355542
 30
0.0
 11
-677.6640475946963
 21
304.2942924057655
 31
0.0
  0
LINE
  5
A3
330
1F
100
AcDbEntity
  8
0-A
  6
JWW_DASHED1
 62
     2
370
     9
100
AcDbLine
 10
-681.4909674449316
 20
301.8194767130848
 30
0.0
 11
-677.8903956468502
 21
302.4544270931526
 31
0.0
  0
LINE
  5
A4
330
1F
100
AcDbEntity
  8
0-A
  6
JWW_DASHED1
 62
     2
370
     9
100
AcDbLine
 10
-681.2742780295117
 20
300.0577203757976
 30
0.0
 11
-678.1167436990039
 21
300.6144567953575
 31
0.0
  0
LINE
  5
A5
330
1F
100
AcDbEntity
  8
0-A
  6
JWW_DASHED1
 62
     2
370
     9
100
AcDbLine
 10
-681.0575886140919
 20
298.2959640385103
 30
0.0
 11
-678.3430917511577
 21
298.7744864975625
 31
0.0
  0
LINE
  5
A6
330
1F
100
AcDbEntity
  8
0-A
  6
JWW_DASHED1
 62
     2
370
     9
100
AcDbLine
 10
-680.840899198672
 20
296.534102716041
 30
0.0
 11
-678.5694398033113
 21
296.9347261701313
 31
0.0
  0
LINE
  5
A7
330
1F
100
AcDbEntity
  8
0-A
  6
JWW_DASHED1
 62
     2
370
     9
100
AcDbLine
 10
-183.8297097342354
 20
316.5965610047567
 30
0.0
 11
-183.8297097342354
 21
316.2965133549164
 31
0.0
  0
LINE
  5
A8
330
1F
100
AcDbEntity
  8
0-A
  6
JWW_DASHED1
 62
     2
370
     9
100
AcDbLine
 10
-181.7796640874795
 20
314.2465726933426
 30
0.0
 11
-183.8297097342354
 21
316.2965133549164
 31
0.0
  0
LINE
  5
A9
330
1F
100
AcDbEntity
  8
0-A
  6
JWW_DASHED1
 62
     2
370
     9
100
AcDbLine
 10
-177.6797827643316
 20
314.2465726933425
 30
0.0
 11
-181.7796640874795
 21
314.2465726933426
 31
0.0
  0
LINE
  5
AA
330
1F
100
AcDbEntity
  8
0-A
  6
JWW_DASHED1
 62
     2
370
     9
100
AcDbLine
 10
-177.6797827643316
 20
314.2465726933425
 30
0.0
 11
-175.6297371175758
 21
316.2965133549164
 31
0.0
  0
LINE
  5
AB
330
1F
100
AcDbEntity
  8
0-A
  6
JWW_DASHED1
 62
     2
370
     9
100
AcDbLine
 10
-183.8297097342354
 20
316.2965133549164
 30
0.0
 11
-175.6297371175758
 21
316.2965133549164
 31
0.0
  0
LINE
  5
AC
330
1F
100
AcDbEntity
  8
0-A
  6
JWW_DASHED1
 62
     2
370
     9
100
AcDbLine
 10
-175.6297371175758
 20
316.5965610047566
 30
0.0
 11
-175.6297371175758
 21
316.2965133549164
 31
0.0
  0
LINE
  5
AD
330
1F
100
AcDbEntity
  8
0-A
  6
JWW_DASHED1
 62
     2
370
     9
100
AcDbLine
 10
-181.7796640874795
 20
314.2465726933426
 30
0.0
 11
-181.7796640874795
 21
308.2631522219156
 31
0.0
  0
LINE
  5
AE
330
1F
100
AcDbEntity
  8
0-A
  6
JWW_DASHED1
 62
     2
370
     9
100
AcDbLine
 10
-177.6797827643316
 20
314.2465726933425
 30
0.0
 11
-177.6797827643316
 21
308.2631522219154
 31
0.0
  0
LINE
  5
AF
330
1F
100
AcDbEntity
  8
0-A
  6
JWW_DASHED1
 62
     2
370
     9
100
AcDbLine
 10
-177.6797827643316
 20
308.2631522219154
 30
0.0
 11
-179.7297234259057
 21
291.5965446265969
 31
0.0
  0
LINE
  5
B0
330
1F
100
AcDbEntity
  8
0-A
  6
JWW_DASHED1
 62
     2
370
     9
100
AcDbLine
 10
-179.7297234259057
 20
291.5965446265969
 30
0.0
 11
-181.7796640874795
 21
308.2631522219156
 31
0.0
  0
LINE
  5
B1
330
1F
100
AcDbEntity
  8
0-A
  6
JWW_DASHED1
 62
     2
370
     9
100
AcDbLine
 10
-179.0519390916272
 20
293.0105900414663
 30
0.0
 11
-180.4375335222045
 21
293.2547855745412
 31
0.0
  0
LINE
  5
B2
330
1F
100
AcDbEntity
  8
0-A
  6
JWW_DASHED1
 62
     2
370
     9
100
AcDbLine
 10
-178.8352496762073
 20
294.7723463787537
 30
0.0
 11
-180.6637765891763
 21
295.0947558723362
 31
0.0
  0
LINE
  5
B3
330
1F
100
AcDbEntity
  8
0-A
  6
JWW_DASHED1
 62
     2
370
     9
100
AcDbLine
 10
-177.318423768268
 20
307.1048507101287
 30
0.0
 11
-182.2478979987066
 21
307.9741280161737
 31
0.0
  0
LINE
  5
B4
330
1F
100
AcDbEntity
  8
0-A
  6
JWW_DASHED1
 62
     2
370
     9
100
AcDbLine
 10
-177.5351131836879
 20
305.3430943728414
 30
0.0
 11
-182.0216549317348
 21
306.1341577183788
 31
0.0
  0
LINE
  5
B5
330
1F
100
AcDbEntity
  8
0-A
  6
JWW_DASHED1
 62
     2
370
     9
100
AcDbLine
 10
-177.7518025991077
 20
303.5813380355542
 30
0.0
 11
-181.795411864763
 21
304.2942924057655
 31
0.0
  0
LINE
  5
B6
330
1F
100
AcDbEntity
  8
0-A
  6
JWW_DASHED1
 62
     2
370
     9
100
AcDbLine
 10
-177.9684920145278
 20
301.8194767130848
 30
0.0
 11
-181.5690638126093
 21
302.4544270931526
 31
0.0
  0
LINE
  5
B7
330
1F
100
AcDbEntity
  8
0-A
  6
JWW_DASHED1
 62
     2
370
     9
100
AcDbLine
 10
-178.1851814299476
 20
300.0577203757976
 30
0.0
 11
-181.3427157604556
 21
300.6144567953575
 31
0.0
  0
LINE
  5
B8
330
1F
100
AcDbEntity
  8
0-A
  6
JWW_DASHED1
 62
     2
370
     9
100
AcDbLine
 10
-178.4018708453675
 20
298.2959640385103
 30
0.0
 11
-181.1163677083018
 21
298.7744864975625
 31
0.0
  0
LINE
  5
B9
330
1F
100
AcDbEntity
  8
0-A
  6
JWW_DASHED1
 62
     2
370
     9
100
AcDbLine
 10
-178.6185602607874
 20
296.534102716041
 30
0.0
 11
-180.8900196561482
 21
296.9347261701313
 31
0.0
  0
LINE
  5
BA
330
1F
100
AcDbEntity
  8
0-2
  6
JWW_CENTER1
 62
     3
370
     9
100
AcDbLine
 10
-224.7334588835137
 20
74.16530391148171
 30
0.0
 11
-224.7334588835137
 21
-42.08132348373582
 31
0.0
  0
LINE
  5
BB
330
1F
100
AcDbEntity
  8
0-2
  6
JWW_CENTER1
 62
     3
370
     9
100
AcDbLine
 10
-634.7260530685365
 20
74.5620429138421
 30
0.0
 11
-634.7260530685365
 21
-42.80283414627121
 31
0.0
  0
LINE
  5
BC
330
1F
100
AcDbEntity
  8
0-1
  6
JWW_CENTER1
 62
     2
370
     9
100
AcDbLine
 10
-701.7295908688578
 20
-127.0522877755772
 30
0.0
 11
-701.7295908688578
 21
-139.3450027230162
 31
0.0
  0
LINE
  5
BD
330
1F
100
AcDbEntity
  8
0-1
  6
JWW_CENTER1
 62
     2
370
     9
100
AcDbLine
 10
-695.726958109145
 20
-133.4034713391631
 30
0.0
 11
-708.019673056584
 21
-133.4034713391631
 31
0.0
  0
LINE
  5
BE
330
1F
100
AcDbEntity
  8
0-1
  6
JWW_CENTER1
 62
     2
370
     9
100
AcDbLine
 10
-701.7295908688578
 20
-27.05227475552931
 30
0.0
 11
-701.7295908688578
 21
-39.34498970296843
 31
0.0
  0
LINE
  5
BF
330
1F
100
AcDbEntity
  8
0-1
  6
JWW_CENTER1
 62
     2
370
     9
100
AcDbLine
 10
-695.726958109145
 20
-33.4034583191152
 30
0.0
 11
-708.019673056584
 21
-33.4034583191152
 31
0.0
  0
LINE
  5
C0
330
1F
100
AcDbEntity
  8
0-1
  6
JWW_CENTER1
 62
     2
370
     9
100
AcDbLine
 10
-701.7295908688578
 20
-227.052300795625
 30
0.0
 11
-701.7295908688578
 21
-239.3450157430641
 31
0.0
  0
LINE
  5
C1
330
1F
100
AcDbEntity
  8
0-1
  6
JWW_CENTER1
 62
     2
370
     9
100
AcDbLine
 10
-695.726958109145
 20
-233.4034843592109
 30
0.0
 11
-708.019673056584
 21
-233.4034843592109
 31
0.0
  0
LINE
  5
C2
330
1F
100
AcDbEntity
  8
0-1
  6
JWW_CENTER1
 62
     2
370
     9
100
AcDbLine
 10
-701.7295908688578
 20
72.94773826451845
 30
0.0
 11
-701.7295908688578
 21
60.65502331707947
 31
0.0
  0
LINE
  5
C3
330
1F
100
AcDbEntity
  8
0-1
  6
JWW_CENTER1
 62
     2
370
     9
100
AcDbLine
 10
-695.726958109145
 20
66.59655470093256
 30
0.0
 11
-708.019673056584
 21
66.59655470093256
 31
0.0
  0
LINE
  5
C4
330
1F
100
AcDbEntity
  8
0-1
  6
JWW_CENTER1
 62
     2
370
     9
100
AcDbLine
 10
-701.7295908688578
 20
172.9477512845662
 30
0.0
 11
-701.7295908688578
 21
160.6550363371272
 31
0.0
  0
LINE
  5
C5
330
1F
100
AcDbEntity
  8
0-1
  6
JWW_CENTER1
 62
     2
370
     9
100
AcDbLine
 10
-695.726958109145
 20
166.5965677209803
 30
0.0
 11
-708.019673056584
 21
166.5965677209803
 31
0.0
  0
LINE
  5
C6
330
1F
100
AcDbEntity
  8
0-1
  6
JWW_CENTER1
 62
     2
370
     9
100
AcDbLine
 10
-701.7295908688578
 20
272.947711812023
 30
0.0
 11
-701.7295908688578
 21
260.6549968645841
 31
0.0
  0
LINE
  5
C7
330
1F
100
AcDbEntity
  8
0-1
  6
JWW_CENTER1
 62
     2
370
     9
100
AcDbLine
 10
-695.726958109145
 20
266.5965282484372
 30
0.0
 11
-708.019673056584
 21
266.5965282484372
 31
0.0
  0
LINE
  5
C8
330
1F
100
AcDbEntity
  8
0-1
  6
JWW_CENTER1
 62
     2
370
     9
100
AcDbLine
 10
-286.0809200095393
 20
-255.403339194515
 30
0.0
 11
-273.7882050621004
 21
-255.403339194515
 31
0.0
  0
LINE
  5
C9
330
1F
100
AcDbEntity
  8
0-1
  6
JWW_CENTER1
 62
     2
370
     9
100
AcDbLine
 10
-279.7297364459534
 20
-249.4007064348021
 30
0.0
 11
-279.7297364459534
 21
-261.6934213822412
 31
0.0
  0
LINE
  5
CA
330
1F
100
AcDbEntity
  8
0-1
  6
JWW_CENTER1
 62
     2
370
     9
100
AcDbLine
 10
-386.0809330295871
 20
-255.403339194515
 30
0.0
 11
-373.7882180821481
 21
-255.403339194515
 31
0.0
  0
LINE
  5
CB
330
1F
100
AcDbEntity
  8
0-1
  6
JWW_CENTER1
 62
     2
370
     9
100
AcDbLine
 10
-379.7297494660012
 20
-249.4007064348021
 30
0.0
 11
-379.7297494660012
 21
-261.6934213822412
 31
0.0
  0
LINE
  5
CC
330
1F
100
AcDbEntity
  8
0-1
  6
JWW_CENTER1
 62
     2
370
     9
100
AcDbLine
 10
-186.0809069894916
 20
-255.403339194515
 30
0.0
 11
-173.7881920420525
 21
-255.403339194515
 31
0.0
  0
LINE
  5
CD
330
1F
100
AcDbEntity
  8
0-1
  6
JWW_CENTER1
 62
     2
370
     9
100
AcDbLine
 10
-179.7297234259057
 20
-249.4007064348021
 30
0.0
 11
-179.7297234259057
 21
-261.6934213822412
 31
0.0
  0
LINE
  5
CE
330
1F
100
AcDbEntity
  8
0-1
  6
JWW_CENTER1
 62
     2
370
     9
100
AcDbLine
 10
-486.080946049635
 20
-255.403339194515
 30
0.0
 11
-473.7882311021958
 21
-255.403339194515
 31
0.0
  0
LINE
  5
CF
330
1F
100
AcDbEntity
  8
0-1
  6
JWW_CENTER1
 62
     2
370
     9
100
AcDbLine
 10
-479.729762486049
 20
-249.4007064348021
 30
0.0
 11
-479.729762486049
 21
-261.6934213822412
 31
0.0
  0
LINE
  5
D0
330
1F
100
AcDbEntity
  8
0-1
  6
JWW_CENTER1
 62
     2
370
     9
100
AcDbLine
 10
-586.0809590696828
 20
-255.403339194515
 30
0.0
 11
-573.7882441222438
 21
-255.403339194515
 31
0.0
  0
LINE
  5
D1
330
1F
100
AcDbEntity
  8
0-1
  6
JWW_CENTER1
 62
     2
370
     9
100
AcDbLine
 10
-579.7297755060969
 20
-249.4007064348021
 30
0.0
 11
-579.7297755060969
 21
-261.6934213822412
 31
0.0
  0
LINE
  5
D2
330
1F
100
AcDbEntity
  8
0-1
  6
JWW_CENTER1
 62
     2
370
     9
100
AcDbLine
 10
-686.0809195971397
 20
-255.403339194515
 30
0.0
 11
-673.7882046497007
 21
-255.403339194515
 31
0.0
  0
LINE
  5
D3
330
1F
100
AcDbEntity
  8
0-1
  6
JWW_CENTER1
 62
     2
370
     9
100
AcDbLine
 10
-679.7297360335538
 20
-249.4007064348021
 30
0.0
 11
-679.7297360335538
 21
-261.6934213822412
 31
0.0
  0
LINE
  5
D4
330
1F
100
AcDbEntity
  8
0-1
  6
JWW_CENTER1
 62
     2
370
     9
100
AcDbLine
 10
-157.7298685906016
 20
160.2453316648035
 30
0.0
 11
-157.7298685906016
 21
172.5380466122425
 31
0.0
  0
LINE
  5
D5
330
1F
100
AcDbEntity
  8
0-1
  6
JWW_CENTER1
 62
     2
370
     9
100
AcDbLine
 10
-163.7325013503144
 20
166.5965152283894
 30
0.0
 11
-151.4397864028754
 21
166.5965152283894
 31
0.0
  0
LINE
  5
D6
330
1F
100
AcDbEntity
  8
0-1
  6
JWW_CENTER1
 62
     2
370
     9
100
AcDbLine
 10
-157.7298685906016
 20
60.24531864475563
 30
0.0
 11
-157.7298685906016
 21
72.53803359219475
 31
0.0
  0
LINE
  5
D7
330
1F
100
AcDbEntity
  8
0-1
  6
JWW_CENTER1
 62
     2
370
     9
100
AcDbLine
 10
-163.7325013503144
 20
66.59650220834166
 30
0.0
 11
-151.4397864028754
 21
66.59650220834166
 31
0.0
  0
LINE
  5
D8
330
1F
100
AcDbEntity
  8
0-1
  6
JWW_CENTER1
 62
     2
370
     9
100
AcDbLine
 10
-157.7298685906016
 20
260.2453446848513
 30
0.0
 11
-157.7298685906016
 21
272.5380596322904
 31
0.0
  0
LINE
  5
D9
330
1F
100
AcDbEntity
  8
0-1
  6
JWW_CENTER1
 62
     2
370
     9
100
AcDbLine
 10
-163.7325013503144
 20
266.5965282484372
 30
0.0
 11
-151.4397864028754
 21
266.5965282484372
 31
0.0
  0
LINE
  5
DA
330
1F
100
AcDbEntity
  8
0-1
  6
JWW_CENTER1
 62
     2
370
     9
100
AcDbLine
 10
-157.7298685906016
 20
-39.75469437529213
 30
0.0
 11
-157.7298685906016
 21
-27.46197942785315
 31
0.0
  0
LINE
  5
DB
330
1F
100
AcDbEntity
  8
0-1
  6
JWW_CENTER1
 62
     2
370
     9
100
AcDbLine
 10
-163.7325013503144
 20
-33.40351081170624
 30
0.0
 11
-151.4397864028754
 21
-33.40351081170624
 31
0.0
  0
LINE
  5
DC
330
1F
100
AcDbEntity
  8
0-1
  6
JWW_CENTER1
 62
     2
370
     9
100
AcDbLine
 10
-157.7298685906016
 20
-139.7547073953399
 30
0.0
 11
-157.7298685906016
 21
-127.4619924479008
 31
0.0
  0
LINE
  5
DD
330
1F
100
AcDbEntity
  8
0-1
  6
JWW_CENTER1
 62
     2
370
     9
100
AcDbLine
 10
-163.7325013503144
 20
-133.403523831754
 30
0.0
 11
-151.4397864028754
 21
-133.403523831754
 31
0.0
  0
LINE
  5
DE
330
1F
100
AcDbEntity
  8
0-1
  6
JWW_CENTER1
 62
     2
370
     9
100
AcDbLine
 10
-157.7298685906016
 20
-239.7546679227968
 30
0.0
 11
-157.7298685906016
 21
-227.4619529753578
 31
0.0
  0
LINE
  5
DF
330
1F
100
AcDbEntity
  8
0-1
  6
JWW_CENTER1
 62
     2
370
     9
100
AcDbLine
 10
-163.7325013503144
 20
-233.4034843592109
 30
0.0
 11
-151.4397864028754
 21
-233.4034843592109
 31
0.0
  0
LINE
  5
E0
330
1F
100
AcDbEntity
  8
0-1
  6
JWW_CENTER1
 62
     2
370
     9
100
AcDbLine
 10
-573.378486957329
 20
288.5963830837413
 30
0.0
 11
-585.6712019047682
 21
288.5963830837413
 31
0.0
  0
LINE
  5
E1
330
1F
100
AcDbEntity
  8
0-1
  6
JWW_CENTER1
 62
     2
370
     9
100
AcDbLine
 10
-579.7296705209151
 20
282.5937503240284
 30
0.0
 11
-579.7296705209151
 21
294.8864652714676
 31
0.0
  0
LINE
  5
E2
330
1F
100
AcDbEntity
  8
0-1
  6
JWW_CENTER1
 62
     2
370
     9
100
AcDbLine
 10
-473.3785264298722
 20
288.5963830837413
 30
0.0
 11
-485.6712413773112
 21
288.5963830837413
 31
0.0
  0
LINE
  5
E3
330
1F
100
AcDbEntity
  8
0-1
  6
JWW_CENTER1
 62
     2
370
     9
100
AcDbLine
 10
-479.7297099934581
 20
282.5937503240284
 30
0.0
 11
-479.7297099934581
 21
294.8864652714676
 31
0.0
  0
LINE
  5
E4
330
1F
100
AcDbEntity
  8
0-1
  6
JWW_CENTER1
 62
     2
370
     9
100
AcDbLine
 10
-673.3785524699679
 20
288.5963830837413
 30
0.0
 11
-685.6712674174069
 21
288.5963830837413
 31
0.0
  0
LINE
  5
E5
330
1F
100
AcDbEntity
  8
0-1
  6
JWW_CENTER1
 62
     2
370
     9
100
AcDbLine
 10
-373.3785134098244
 20
288.5963830837413
 30
0.0
 11
-385.6712283572634
 21
288.5963830837413
 31
0.0
  0
LINE
  5
E6
330
1F
100
AcDbEntity
  8
0-1
  6
JWW_CENTER1
 62
     2
370
     9
100
AcDbLine
 10
-379.7296969734103
 20
282.5937503240284
 30
0.0
 11
-379.7296969734103
 21
294.8864652714676
 31
0.0
  0
LINE
  5
E7
330
1F
100
AcDbEntity
  8
0-1
  6
JWW_CENTER1
 62
     2
370
     9
100
AcDbLine
 10
-273.3785003897766
 20
288.5963830837413
 30
0.0
 11
-285.6712153372156
 21
288.5963830837413
 31
0.0
  0
LINE
  5
E8
330
1F
100
AcDbEntity
  8
0-1
  6
JWW_CENTER1
 62
     2
370
     9
100
AcDbLine
 10
-279.7296839533625
 20
282.5937503240284
 30
0.0
 11
-279.7296839533625
 21
294.8864652714676
 31
0.0
  0
LINE
  5
E9
330
1F
100
AcDbEntity
  8
0-1
  6
JWW_CENTER1
 62
     2
370
     9
100
AcDbLine
 10
-173.3785398623198
 20
288.5963830837412
 30
0.0
 11
-185.6712548097588
 21
288.5963830837413
 31
0.0
  0
LINE
  5
EA
330
1F
100
AcDbEntity
  8
0-1
  6
JWW_CENTER1
 62
     2
370
     9
100
AcDbLine
 10
-679.7297360335538
 20
282.5937503240284
 30
0.0
 11
-679.7297360335538
 21
317.0208586173629
 31
0.0
  0
LINE
  5
EB
330
1F
100
AcDbEntity
  8
0-1
  6
JWW_CENTER1
 62
     2
370
     9
100
AcDbLine
 10
-179.7297234259057
 20
282.5937503240284
 30
0.0
 11
-179.7297234259056
 21
317.0208586173629
 31
0.0
  0
CIRCLE
  5
EC
330
1F
100
AcDbEntity
  8
0-1
  6
JWW_DASHED1
 62
     2
370
     9
100
AcDbCircle
 10
-701.7295908688578
 20
-133.4034713391631
 30
0.0
 40
1.999999907716361
  0
CIRCLE
  5
ED
330
1F
100
AcDbEntity
  8
0-1
  6
JWW_DASHED1
 62
     2
370
     9
100
AcDbCircle
 10
-701.7295908688578
 20
-33.4034583191152
 30
0.0
 40
1.999999907716361
  0
CIRCLE
  5
EE
330
1F
100
AcDbEntity
  8
0-1
  6
JWW_DASHED1
 62
     2
370
     9
100
AcDbCircle
 10
-701.7295908688578
 20
-233.4034843592109
 30
0.0
 40
1.999999907716361
  0
CIRCLE
  5
EF
330
1F
100
AcDbEntity
  8
0-1
  6
JWW_DASHED1
 62
     2
370
     9
100
AcDbCircle
 10
-701.7295908688578
 20
66.59655470093256
 30
0.0
 40
1.999999907716361
  0
CIRCLE
  5
F0
330
1F
100
AcDbEntity
  8
0-1
  6
JWW_DASHED1
 62
     2
370
     9
100
AcDbCircle
 10
-701.7295908688578
 20
166.5965677209803
 30
0.0
 40
1.999999907716361
  0
CIRCLE
  5
F1
330
1F
100
AcDbEntity
  8
0-1
  6
JWW_DASHED1
 62
     2
370
     9
100
AcDbCircle
 10
-701.7295908688578
 20
266.5965282484372
 30
0.0
 40
1.999999907716361
  0
CIRCLE
  5
F2
330
1F
100
AcDbEntity
  8
0-1
  6
JWW_DASHED1
 62
     2
370
     9
100
AcDbCircle
 10
-279.7297364459534
 20
-255.403339194515
 30
0.0
 40
1.999999907716361
  0
CIRCLE
  5
F3
330
1F
100
AcDbEntity
  8
0-1
  6
JWW_DASHED1
 62
     2
370
     9
100
AcDbCircle
 10
-379.7297494660012
 20
-255.403339194515
 30
0.0
 40
1.999999907716361
  0
CIRCLE
  5
F4
330
1F
100
AcDbEntity
  8
0-1
  6
JWW_DASHED1
 62
     2
370
     9
100
AcDbCircle
 10
-179.7297234259057
 20
-255.403339194515
 30
0.0
 40
1.999999907716361
  0
CIRCLE
  5
F5
330
1F
100
AcDbEntity
  8
0-1
  6
JWW_DASHED1
 62
     2
370
     9
100
AcDbCircle
 10
-479.729762486049
 20
-255.403339194515
 30
0.0
 40
1.999999907716361
  0
CIRCLE
  5
F6
330
1F
100
AcDbEntity
  8
0-1
  6
JWW_DASHED1
 62
     2
370
     9
100
AcDbCircle
 10
-579.7297755060969
 20
-255.403339194515
 30
0.0
 40
1.999999907716361
  0
CIRCLE
  5
F7
330
1F
100
AcDbEntity
  8
0-1
  6
JWW_DASHED1
 62
     2
370
     9
100
AcDbCircle
 10
-679.7297360335538
 20
-255.403339194515
 30
0.0
 40
1.999999907716361
  0
CIRCLE
  5
F8
330
1F
100
AcDbEntity
  8
0-1
  6
JWW_DASHED1
 62
     2
370
     9
100
AcDbCircle
 10
-157.7298685906016
 20
166.5965152283894
 30
0.0
 40
1.999999907716361
  0
CIRCLE
  5
F9
330
1F
100
AcDbEntity
  8
0-1
  6
JWW_DASHED1
 62
     2
370
     9
100
AcDbCircle
 10
-157.7298685906016
 20
66.59650220834166
 30
0.0
 40
1.999999907716361
  0
CIRCLE
  5
FA
330
1F
100
AcDbEntity
  8
0-1
  6
JWW_DASHED1
 62
     2
370
     9
100
AcDbCircle
 10
-157.7298685906016
 20
266.5965282484372
 30
0.0
 40
1.999999907716361
  0
CIRCLE
  5
FB
330
1F
100
AcDbEntity
  8
0-1
  6
JWW_DASHED1
 62
     2
370
     9
100
AcDbCircle
 10
-157.7298685906016
 20
-33.40351081170624
 30
0.0
 40
1.999999907716361
  0
CIRCLE
  5
FC
330
1F
100
AcDbEntity
  8
0-1
  6
JWW_DASHED1
 62
     2
370
     9
100
AcDbCircle
 10
-157.7298685906016
 20
-133.403523831754
 30
0.0
 40
1.999999907716361
  0
CIRCLE
  5
FD
330
1F
100
AcDbEntity
  8
0-1
  6
JWW_DASHED1
 62
     2
370
     9
100
AcDbCircle
 10
-157.7298685906016
 20
-233.4034843592109
 30
0.0
 40
1.999999907716361
  0
CIRCLE
  5
FE
330
1F
100
AcDbEntity
  8
0-1
  6
JWW_DASHED1
 62
     2
370
     9
100
AcDbCircle
 10
-579.7296705209151
 20
288.5963830837413
 30
0.0
 40
1.999999907716361
  0
CIRCLE
  5
FF
330
1F
100
AcDbEntity
  8
0-1
  6
JWW_DASHED1
 62
     2
370
     9
100
AcDbCircle
 10
-479.7297099934581
 20
288.5963830837413
 30
0.0
 40
1.999999907716361
  0
CIRCLE
  5
100
330
1F
100
AcDbEntity
  8
0-1
  6
JWW_DASHED1
 62
     2
370
     9
100
AcDbCircle
 10
-679.7297360335538
 20
288.5963830837413
 30
0.0
 40
1.999999907716361
  0
CIRCLE
  5
101
330
1F
100
AcDbEntity
  8
0-1
  6
JWW_DASHED1
 62
     2
370
     9
100
AcDbCircle
 10
-379.7296969734103
 20
288.5963830837413
 30
0.0
 40
1.999999907716361
  0
CIRCLE
  5
102
330
1F
100
AcDbEntity
  8
0-1
  6
JWW_DASHED1
 62
     2
370
     9
100
AcDbCircle
 10
-279.7296839533625
 20
288.5963830837413
 30
0.0
 40
1.999999907716361
  0
CIRCLE
  5
103
330
1F
100
AcDbEntity
  8
0-1
  6
JWW_DASHED1
 62
     2
370
     9
100
AcDbCircle
 10
-179.7297234259057
 20
288.5963830837413
 30
0.0
 40
1.999999907716361
  0
LINE
  5
104
330
1F
100
AcDbEntity
  8
0-0
  6
Continuous
 62
     4
370
     9
100
AcDbLine
 10
-729.7297687898731
 20
316.5965610047567
 30
0.0
 11
-717.7297225339255
 21
304.5965447444253
 31
0.0
  0
LINE
  5
105
330
1F
100
AcDbEntity
  8
0-0
  6
Continuous
 62
     4
370
     9
100
AcDbLine
 10
-141.7297031805779
 20
304.5965409951044
 30
0.0
 11
-129.7297431621772
 21
316.5965610047566
 31
0.0
  0
LINE
  5
106
330
1F
100
AcDbEntity
  8
0-0
  6
Continuous
 62
     4
370
     9
100
AcDbLine
 10
-141.7297069299176
 20
-271.403500855199
 30
0.0
 11
-129.7297431621772
 21
-283.4034646229393
 31
0.0
  0
LINE
  5
107
330
1F
100
AcDbEntity
  8
0-0
  6
Continuous
 62
     4
370
     9
100
AcDbLine
 10
-729.7297687898731
 20
-283.4034646229392
 30
0.0
 11
-717.7297487802962
 21
-271.4035046044636
 31
0.0
  0
LINE
  5
108
330
1F
100
AcDbEntity
  8
0-0
  6
JWW_CENTER1
 62
     4
370
     9
100
AcDbLine
 10
-429.7297297297297
 20
-316.4034647407678
 30
0.0
 11
-429.7297297297297
 21
349.596456137403
 31
0.0
  0
LINE
  5
109
330
1F
100
AcDbEntity
  8
0-0
  6
JWW_CENTER1
 62
     4
370
     9
100
AcDbLine
 10
-96.72974304434867
 20
16.59652194461316
 30
0.0
 11
-762.7296639225196
 21
16.59652194461316
 31
0.0
  0
LINE
  5
10A
330
1F
100
AcDbEntity
  8
0-9
  6
JWW_DASHED3
 62
     2
370
     9
100
AcDbLine
 10
-704.7297297297297
 20
-258.4034780553868
 30
0.0
 11
-154.7297297297297
 21
-258.4034780553868
 31
0.0
  0
LINE
  5
10B
330
1F
100
AcDbEntity
  8
0-9
  6
JWW_DASHED3
 62
     2
370
     9
100
AcDbLine
 10
-154.7297297297297
 20
-258.4034780553868
 30
0.0
 11
-154.7297297297297
 21
291.5965219446132
 31
0.0
  0
LINE
  5
10C
330
1F
100
AcDbEntity
  8
0-9
  6
JWW_DASHED3
 62
     2
370
     9
100
AcDbLine
 10
-154.7297297297297
 20
291.5965219446132
 30
0.0
 11
-704.7297297297297
 21
291.5965219446132
 31
0.0
  0
LINE
  5
10D
330
1F
100
AcDbEntity
  8
0-9
  6
JWW_DASHED3
 62
     2
370
     9
100
AcDbLine
 10
-704.7297297297297
 20
291.5965219446132
 30
0.0
 11
-704.7297297297297
 21
-258.4034780553868
 31
0.0
  0
LINE
  5
10E
330
1F
100
AcDbEntity
  8
0-4
  6
Continuous
 62
     7
370
     9
100
AcDbLine
 10
-704.7297297297297
 20
377.0058461782095
 30
0.0
 11
-154.7297297297297
 21
377.0058461782095
 31
0.0
  0
LWPOLYLINE
  5
10F
330
1F
100
AcDbEntity
  8
0-4
  6
Continuous
 62
     7
370
     9
100
AcDbPolyline
 90
        4
 70
     1
 43
0.5
 10
-704.4797297297296
 20
377.0058461782095
 42
0.4142135623731
 10
-704.7297297297297
 20
377.2558461782095
 42
0.4142135623731
 10
-704.9797297297298
 20
377.0058461782095
 42
0.4142135623731
 10
-704.7297297297297
 20
376.7558461782095
 42
0.4142135623731
  0
LWPOLYLINE
  5
110
330
1F
100
AcDbEntity
  8
0-4
  6
Continuous
 62
     7
370
     9
100
AcDbPolyline
 90
        4
 70
     1
 43
0.5
 10
-154.4797297297297
 20
377.0058461782095
 42
0.4142135623731
 10
-154.7297297297297
 20
377.2558461782095
 42
0.4142135623731
 10
-154.9797297297297
 20
377.0058461782095
 42
0.4142135623731
 10
-154.7297297297297
 20
376.7558461782095
 42
0.4142135623731
  0
TEXT
  5
111
330
1F
100
AcDbEntity
  8
0-4
  6
Continuous
 62
     2
370
   211
100
AcDbText
 10
-445.9797297297297
 20
382.8258462974188
 30
0.0
 40
15.24
  1
550
 41
1.083333333333333
  7
ＭＳ ゴシック
100
AcDbText
  0
LINE
  5
112
330
1F
100
AcDbEntity
  8
0-4
  6
Continuous
 62
     7
370
     9
100
AcDbLine
 10
-729.7297297297297
 20
337.0985041437923
 30
0.0
 11
-729.7297297297297
 21
417.9977169552366
 31
0.0
  0
LINE
  5
113
330
1F
100
AcDbEntity
  8
0-4
  6
Continuous
 62
     7
370
     9
100
AcDbLine
 10
-704.7297297297297
 20
378.5058462378141
 30
0.0
 11
-704.7297297297297
 21
337.0985041437923
 31
0.0
  0
LINE
  5
114
330
1F
100
AcDbEntity
  8
0-4
  6
Continuous
 62
     7
370
     9
100
AcDbLine
 10
-154.7297297297297
 20
378.5058462378141
 30
0.0
 11
-154.7297297297297
 21
337.0985041437923
 31
0.0
  0
LINE
  5
115
330
1F
100
AcDbEntity
  8
0-4
  6
Continuous
 62
     7
370
     9
100
AcDbLine
 10
-129.7297297297297
 20
337.0985041437923
 30
0.0
 11
-129.7297297297297
 21
417.9977169552366
 31
0.0
  0
LINE
  5
116
330
1F
100
AcDbEntity
  8
0-4
  6
Continuous
 62
     7
370
     9
100
AcDbLine
 10
-750.2295423330083
 20
316.5984041774176
 30
0.0
 11
-831.128775106894
 21
316.5971250791808
 31
0.0
  0
LINE
  5
117
330
1F
100
AcDbEntity
  8
0-4
  6
Continuous
 62
     7
370
     9
100
AcDbLine
 10
-750.220237122861
 20
-283.4016224710142
 30
0.0
 11
-831.1194342535896
 21
-283.4028749208192
 31
0.0
  0
LINE
  5
118
330
1F
100
AcDbEntity
  8
0-4
  6
Continuous
 62
     7
370
     9
100
AcDbLine
 10
-790.1387215080072
 20
291.5961071711945
 30
0.0
 11
-790.1339096726333
 21
-258.4038928077567
 31
0.0
  0
LWPOLYLINE
  5
119
330
1F
100
AcDbEntity
  8
0-4
  6
Continuous
 62
     7
370
     9
100
AcDbPolyline
 90
        4
 70
     1
 43
0.5
 10
-789.8887215080072
 20
291.5961071711945
 42
0.4142135623731
 10
-790.1387215080072
 20
291.8461071711945
 42
0.4142135623731
 10
-790.3887215080073
 20
291.5961071711945
 42
0.4142135623731
 10
-790.1387215080072
 20
291.3461071711945
 42
0.4142135623731
  0
LWPOLYLINE
  5
11A
330
1F
100
AcDbEntity
  8
0-4
  6
Continuous
 62
     7
370
     9
100
AcDbPolyline
 90
        4
 70
     1
 43
0.5
 10
-789.8839096726331
 20
-258.4038928077566
 42
0.4142135623731
 10
-790.1339096726332
 20
-258.1538928077567
 42
0.4142135623731
 10
-790.3839096726333
 20
-258.4038928077566
 42
0.4142135623731
 10
-790.1339096726332
 20
-258.6538928077566
 42
0.4142135623731
  0
LINE
  5
11B
330
1F
100
AcDbEntity
  8
0-4
  6
Continuous
 62
     7
370
     9
100
AcDbLine
 10
-791.6387215675545
 20
291.5960940480066
 30
0.0
 11
-750.2313794751173
 21
291.5964563122128
 31
0.0
  0
LINE
  5
11C
330
1F
100
AcDbEntity
  8
0-4
  6
Continuous
 62
     7
370
     9
100
AcDbLine
 10
-791.6339097321805
 20
-258.4039059309446
 30
0.0
 11
-750.2265676397434
 21
-258.4035436667383
 31
0.0
  0
TEXT
  5
11D
330
1F
100
AcDbEntity
  8
0-4
  6
Continuous
 62
     2
370
   211
100
AcDbText
 10
-795.9561735414435
 20
0.346056264372748
 30
0.0
 40
15.24
  1
550
 50
90.00050126883391
 41
1.083333333333333
  7
ＭＳ ゴシック
100
AcDbText
  0
LINE
  5
11E
330
1F
100
AcDbEntity
  8
0-0
  6
JWW_DASHED1
 62
   211
370
     5
100
AcDbLine
 10
-708.7295828565208
 20
295.5964275639951
 30
0.0
 11
-150.7297716177568
 21
295.596427563995
 31
0.0
  0
LINE
  5
11F
330
1F
100
AcDbEntity
  8
0-0
  6
JWW_DASHED1
 62
   211
370
     5
100
AcDbLine
 10
-708.7296878417026
 20
-262.4033836747687
 30
0.0
 11
-708.7296878417026
 21
295.5964275639951
 31
0.0
  0
LINE
  5
120
330
1F
100
AcDbEntity
  8
0-0
  6
JWW_DASHED1
 62
   211
370
     5
100
AcDbLine
 10
-717.7297225339255
 20
304.5965447444253
 30
0.0
 11
-708.7295941050011
 21
295.5964163155008
 31
0.0
  0
LINE
  5
121
330
1F
100
AcDbEntity
  8
0-0
  6
JWW_DASHED1
 62
   211
370
     5
100
AcDbLine
 10
-696.7295665961894
 20
283.596306318482
 30
0.0
 11
-162.7298928632699
 21
283.596306318482
 31
0.0
  0
LINE
  5
122
330
1F
100
AcDbEntity
  8
0-0
  6
JWW_DASHED1
 62
   211
370
     5
100
AcDbLine
 10
-696.7295665961894
 20
-250.4032624292556
 30
0.0
 11
-696.7295665961894
 21
283.596306318482
 31
0.0
  0
LINE
  5
123
330
1F
100
AcDbEntity
  8
0-0
  6
JWW_DASHED1
 62
   211
370
     5
100
AcDbLine
 10
-717.729752529542
 20
-271.403500855199
 30
0.0
 11
-708.729609102778
 21
-262.403357428435
 31
0.0
  0
LINE
  5
124
330
1F
100
AcDbEntity
  8
0-0
  6
JWW_DASHED1
 62
   211
370
     5
100
AcDbLine
 10
-150.7297716177568
 20
-262.4033836747688
 30
0.0
 11
-708.7295828565208
 21
-262.4033836747687
 31
0.0
  0
LINE
  5
125
330
1F
100
AcDbEntity
  8
0-0
  6
JWW_DASHED1
 62
   211
370
     5
100
AcDbLine
 10
-162.7300503410428
 20
-250.4032624292556
 30
0.0
 11
-696.7295665961894
 21
-250.4032624292556
 31
0.0
  0
LINE
  5
126
330
1F
100
AcDbEntity
  8
0-0
  6
JWW_DASHED1
 62
   211
370
     5
100
AcDbLine
 10
-150.7297716177568
 20
295.596427563995
 30
0.0
 11
-150.7297716177568
 21
-262.4034361673598
 31
0.0
  0
LINE
  5
127
330
1F
100
AcDbEntity
  8
0-0
  6
JWW_DASHED1
 62
   211
370
     5
100
AcDbLine
 10
-162.7298928632699
 20
283.596306318482
 30
0.0
 11
-162.7300503410428
 21
-250.4032624292556
 31
0.0
  0
LINE
  5
128
330
1F
100
AcDbEntity
  8
0-0
  6
JWW_DASHED1
 62
   211
370
     5
100
AcDbLine
 10
-150.7297716177568
 20
-262.4034361673598
 30
0.0
 11
-141.7297069299175
 21
-271.4035008551991
 31
0.0
  0
LINE
  5
129
330
1F
100
AcDbEntity
  8
0-0
  6
JWW_DASHED1
 62
   211
370
     5
100
AcDbLine
 10
-150.7297716177568
 20
295.596427563995
 30
0.0
 11
-141.7296806835837
 21
304.5965184981681
 31
0.0
  0
LINE
  5
12A
330
1F
100
AcDbEntity
  8
D-4
  6
Continuous
 62
     7
370
     9
100
AcDbLine
 10
526.4983718459672
 20
407.11947885827
 30
0.0
 11
531.5585162188557
 21
418.5494665852548
 31
0.0
  0
LINE
  5
12B
330
1F
100
AcDbEntity
  8
D-4
  6
Continuous
 62
     7
370
     9
100
AcDbLine
 10
526.4983718459672
 20
407.11947885827
 30
0.0
 11
534.3446886217273
 21
416.8504210431306
 31
0.0
  0
LINE
  5
12C
330
1F
100
AcDbEntity
  8
D-1
  6
Continuous
 62
     2
370
     9
100
AcDbLine
 10
538.7812846415752
 20
457.1195200982405
 30
0.0
 11
545.0313671215162
 21
453.3695695862049
 31
0.0
  0
LINE
  5
12D
330
1F
100
AcDbEntity
  8
D-1
  6
Continuous
 62
     2
370
     9
100
AcDbLine
 10
545.0313671215162
 20
453.3695695862049
 30
0.0
 11
545.0313671215162
 21
452.1196273221635
 31
0.0
  0
LINE
  5
12E
330
1F
100
AcDbEntity
  8
D-5
  6
Continuous
 62
     7
370
     9
100
AcDbLine
 10
452.5314331054688
 20
389.6194211223113
 30
0.0
 11
452.5314331054688
 21
387.1196603141399
 31
0.0
  0
LINE
  5
12F
330
1F
100
AcDbEntity
  8
D-5
  6
Continuous
 62
     7
370
     9
100
AcDbLine
 10
512.5313836175044
 20
389.6194211223113
 30
0.0
 11
512.5313836175044
 21
387.1196603141399
 31
0.0
  0
LINE
  5
130
330
1F
100
AcDbEntity
  8
D-5
  6
Continuous
 62
     7
370
     9
100
AcDbLine
 10
496.2815155854096
 20
380.8697015541104
 30
0.0
 11
496.2815155854096
 21
378.481412386036
 31
0.0
  0
LINE
  5
131
330
1F
100
AcDbEntity
  8
D-5
  6
Continuous
 62
     7
370
     9
100
AcDbLine
 10
468.7815485773859
 20
380.8697015541104
 30
0.0
 11
468.7815485773859
 21
378.481412386036
 31
0.0
  0
LINE
  5
132
330
1F
100
AcDbEntity
  8
D-5
  6
Continuous
 62
     7
370
     9
100
AcDbLine
 10
493.1565980653505
 20
387.1196603141399
 30
0.0
 11
493.1565980653505
 21
380.8697015541104
 31
0.0
  0
LINE
  5
133
330
1F
100
AcDbEntity
  8
D-5
  6
Continuous
 62
     7
370
     9
100
AcDbLine
 10
496.2815155854096
 20
380.8697015541104
 30
0.0
 11
493.1565980653505
 21
380.8697015541104
 31
0.0
  0
LINE
  5
134
330
1F
100
AcDbEntity
  8
D-5
  6
Continuous
 62
     7
370
     9
100
AcDbLine
 10
471.906466097445
 20
387.1196603141399
 30
0.0
 11
471.906466097445
 21
380.8697015541104
 31
0.0
  0
LINE
  5
135
330
1F
100
AcDbEntity
  8
D-5
  6
Continuous
 62
     7
370
     9
100
AcDbLine
 10
471.906466097445
 20
380.8697015541104
 30
0.0
 11
468.7815485773859
 21
380.8697015541104
 31
0.0
  0
LINE
  5
136
330
1F
100
AcDbEntity
  8
D-5
  6
Continuous
 62
     7
370
     9
100
AcDbLine
 10
490.0314331054688
 20
387.1196603141399
 30
0.0
 11
490.0314331054688
 21
378.6709512901746
 31
0.0
  0
LINE
  5
137
330
1F
100
AcDbEntity
  8
D-5
  6
Continuous
 62
     7
370
     9
100
AcDbLine
 10
490.0314331054688
 20
387.1196603141399
 30
0.0
 11
475.0313836175044
 21
387.1196603141399
 31
0.0
  0
LINE
  5
138
330
1F
100
AcDbEntity
  8
D-5
  6
Continuous
 62
     7
370
     9
100
AcDbLine
 10
475.0313836175044
 20
387.1196603141399
 30
0.0
 11
475.0313836175044
 21
378.6709512901746
 31
0.0
  0
LINE
  5
139
330
1F
100
AcDbEntity
  8
D-1
  6
Continuous
 62
     2
370
     9
100
AcDbLine
 10
515.031268145587
 20
387.1196603141399
 30
0.0
 11
496.2815155854096
 21
387.1196603141399
 31
0.0
  0
LINE
  5
13A
330
1F
100
AcDbEntity
  8
D-5
  6
Continuous
 62
     7
370
     9
100
AcDbLine
 10
496.2815155854096
 20
387.1196603141399
 30
0.0
 11
493.1565980653505
 21
387.1196603141399
 31
0.0
  0
LINE
  5
13B
330
1F
100
AcDbEntity
  8
D-1
  6
Continuous
 62
     2
370
     9
100
AcDbLine
 10
468.7815485773859
 20
387.1196603141399
 30
0.0
 11
450.0315485773859
 21
387.1196603141399
 31
0.0
  0
LINE
  5
13C
330
1F
100
AcDbEntity
  8
D-5
  6
Continuous
 62
     7
370
     9
100
AcDbLine
 10
468.7815485773859
 20
387.1196603141399
 30
0.0
 11
471.906466097445
 21
387.1196603141399
 31
0.0
  0
LINE
  5
13D
330
1F
100
AcDbEntity
  8
D-1
  6
Continuous
 62
     2
370
     9
100
AcDbLine
 10
498.1566145613388
 20
382.1196438181516
 30
0.0
 11
496.2815155854096
 21
382.1196438181516
 31
0.0
  0
LINE
  5
13E
330
1F
100
AcDbEntity
  8
D-1
  6
Continuous
 62
     2
370
     9
100
AcDbLine
 10
466.906449601457
 20
382.1196438181516
 30
0.0
 11
468.7815485773859
 21
382.1196438181516
 31
0.0
  0
LINE
  5
13F
330
1F
100
AcDbEntity
  8
D-1
  6
Continuous
 62
     2
370
     9
100
AcDbLine
 10
488.1565815693625
 20
354.6195530902168
 30
0.0
 11
488.1565815693625
 21
352.1194211223113
 31
0.0
  0
LINE
  5
140
330
1F
100
AcDbEntity
  8
D-1
  6
Continuous
 62
     2
370
     9
100
AcDbLine
 10
491.9065320813979
 20
354.6195530902168
 30
0.0
 11
488.1565815693625
 21
354.6195530902168
 31
0.0
  0
LINE
  5
141
330
1F
100
AcDbEntity
  8
D-1
  6
Continuous
 62
     2
370
     9
100
AcDbLine
 10
491.9065320813979
 20
363.3696438181516
 30
0.0
 11
491.9065320813979
 21
354.6195530902168
 31
0.0
  0
LINE
  5
142
330
1F
100
AcDbEntity
  8
D-1
  6
Continuous
 62
     2
370
     9
100
AcDbLine
 10
476.9064825934333
 20
354.6195530902168
 30
0.0
 11
476.9064825934333
 21
352.1194211223113
 31
0.0
  0
LINE
  5
143
330
1F
100
AcDbEntity
  8
D-1
  6
Continuous
 62
     2
370
     9
100
AcDbLine
 10
473.1562846415753
 20
354.6195530902168
 30
0.0
 11
476.9064825934333
 21
354.6195530902168
 31
0.0
  0
LINE
  5
144
330
1F
100
AcDbEntity
  8
D-1
  6
Continuous
 62
     2
370
     9
100
AcDbLine
 10
473.1562846415753
 20
363.3696438181516
 30
0.0
 11
473.1562846415753
 21
354.6195530902168
 31
0.0
  0
LINE
  5
145
330
1F
100
AcDbEntity
  8
D-1
  6
Continuous
 62
     2
370
     9
100
AcDbLine
 10
456.2811361776818
 20
382.1196438181516
 30
0.0
 11
460.6561196816935
 21
382.1196438181516
 31
0.0
  0
LINE
  5
146
330
1F
100
AcDbEntity
  8
D-1
  6
Continuous
 62
     2
370
     9
100
AcDbLine
 10
450.0315485773859
 20
387.1196603141399
 30
0.0
 11
450.0315485773859
 21
352.1194211223113
 31
0.0
  0
LINE
  5
147
330
1F
100
AcDbEntity
  8
D-1
  6
Continuous
 62
     2
370
     9
100
AcDbLine
 10
453.7814990894216
 20
358.3696273221635
 30
0.0
 11
453.7814990894216
 21
379.6196355701576
 31
0.0
  0
LINE
  5
148
330
1F
100
AcDbEntity
  8
D-1
  6
Continuous
 62
     2
370
     9
100
AcDbLine
 10
466.9066970412797
 20
355.8694953542582
 30
0.0
 11
456.2811361776818
 21
355.8694953542582
 31
0.0
  0
LINE
  5
149
330
1F
100
AcDbEntity
  8
D-1
  6
Continuous
 62
     2
370
     9
100
AcDbLine
 10
469.4065815693625
 20
360.8696355701576
 30
0.0
 11
469.4065815693625
 21
358.3696273221635
 31
0.0
  0
LINE
  5
14A
330
1F
100
AcDbEntity
  8
D-1
  6
Continuous
 62
     2
370
     9
100
AcDbLine
 10
465.6563836175044
 20
363.3696438181516
 30
0.0
 11
466.9066970412797
 21
363.3696438181516
 31
0.0
  0
LINE
  5
14B
330
1F
100
AcDbEntity
  8
D-1
  6
Continuous
 62
     2
370
     9
100
AcDbLine
 10
463.1567465292443
 20
365.8695283462345
 30
0.0
 11
463.1567465292443
 21
379.6196355701576
 31
0.0
  0
LINE
  5
14C
330
1F
100
AcDbEntity
  8
D-1
  6
Continuous
 62
     2
370
     9
100
AcDbLine
 10
527.5314331054688
 20
357.1195613382108
 30
0.0
 11
520.0317795212206
 21
357.1195613382108
 31
0.0
  0
LINE
  5
14D
330
1F
100
AcDbEntity
  8
D-1
  6
Continuous
 62
     2
370
     9
100
AcDbLine
 10
512.5313836175044
 20
382.1196438181516
 30
0.0
 11
504.406449601457
 21
382.1196438181516
 31
0.0
  0
LINE
  5
14E
330
1F
100
AcDbEntity
  8
D-1
  6
Continuous
 62
     2
370
     9
100
AcDbLine
 10
501.9068125131969
 20
367.1197180500985
 30
0.0
 11
501.9068125131969
 21
379.6196355701576
 31
0.0
  0
LINE
  5
14F
330
1F
100
AcDbEntity
  8
D-1
  6
Continuous
 62
     2
370
     9
100
AcDbLine
 10
498.1566145613388
 20
363.3696438181516
 30
0.0
 11
495.6562351536107
 21
363.3696438181516
 31
0.0
  0
LINE
  5
150
330
1F
100
AcDbEntity
  8
D-1
  6
Continuous
 62
     2
370
     9
100
AcDbLine
 10
532.5314496014571
 20
359.6195695862049
 30
0.0
 11
532.5314496014571
 21
352.1194211223113
 31
0.0
  0
LINE
  5
151
330
1F
100
AcDbEntity
  8
D-1
  6
Continuous
 62
     2
370
     9
100
AcDbLine
 10
527.5314331054688
 20
359.6195695862049
 30
0.0
 11
527.5314331054688
 21
357.1195613382108
 31
0.0
  0
LINE
  5
152
330
1F
100
AcDbEntity
  8
D-1
  6
Continuous
 62
     2
370
     9
100
AcDbLine
 10
515.031268145587
 20
358.3696273221635
 30
0.0
 11
515.031268145587
 21
379.6196355701576
 31
0.0
  0
LINE
  5
153
330
1F
100
AcDbEntity
  8
D-1
  6
Continuous
 62
     2
370
     9
100
AcDbLine
 10
498.1566145613388
 20
355.8694953542582
 30
0.0
 11
512.5313836175044
 21
355.8694953542582
 31
0.0
  0
LINE
  5
154
330
1F
100
AcDbEntity
  8
D-1
  6
Continuous
 62
     2
370
     9
100
AcDbLine
 10
495.6562351536107
 20
358.3696273221635
 30
0.0
 11
495.6562351536107
 21
363.3696438181516
 31
0.0
  0
LINE
  5
155
330
1F
100
AcDbEntity
  8
D-1
  6
Continuous
 62
     2
370
     9
100
AcDbLine
 10
532.5314496014571
 20
407.11947885827
 30
0.0
 11
520.0317795212206
 21
407.11947885827
 31
0.0
  0
LINE
  5
156
330
1F
100
AcDbEntity
  8
D-1
  6
Continuous
 62
     2
370
     9
100
AcDbLine
 10
532.5314496014571
 20
399.6193303943764
 30
0.0
 11
532.5314496014571
 21
407.11947885827
 31
0.0
  0
LINE
  5
157
330
1F
100
AcDbEntity
  8
D-1
  6
Continuous
 62
     2
370
     9
100
AcDbLine
 10
527.5314331054688
 20
399.6193303943764
 30
0.0
 11
527.5314331054688
 21
402.1197098021044
 31
0.0
  0
LINE
  5
158
330
1F
100
AcDbEntity
  8
D-1
  6
Continuous
 62
     2
370
     9
100
AcDbLine
 10
527.5314331054688
 20
402.1197098021044
 30
0.0
 11
520.0317795212206
 21
402.1197098021044
 31
0.0
  0
LINE
  5
159
330
1F
100
AcDbEntity
  8
D-1
  6
Continuous
 62
     2
370
     9
100
AcDbLine
 10
520.0317795212206
 20
402.1197098021044
 30
0.0
 11
520.0317795212206
 21
357.1195613382108
 31
0.0
  0
LINE
  5
15A
330
1F
100
AcDbEntity
  8
D-1
  6
Continuous
 62
     2
370
     9
100
AcDbLine
 10
525.0315485773859
 20
452.1196273221635
 30
0.0
 11
545.0313671215162
 21
452.1196273221635
 31
0.0
  0
LINE
  5
15B
330
1F
100
AcDbEntity
  8
D-1
  6
Continuous
 62
     2
370
     9
100
AcDbLine
 10
520.0317795212206
 20
447.119487106264
 30
0.0
 11
520.0317795212206
 21
407.11947885827
 31
0.0
  0
LINE
  5
15C
330
1F
100
AcDbEntity
  8
D-1
  6
Continuous
 62
     2
370
     9
100
AcDbLine
 10
532.5314496014571
 20
352.1194211223113
 30
0.0
 11
488.1565815693625
 21
352.1194211223113
 31
0.0
  0
LINE
  5
15D
330
1F
100
AcDbEntity
  8
D-1
  6
Continuous
 62
     2
370
     9
100
AcDbLine
 10
476.9064825934333
 20
352.1194211223113
 30
0.0
 11
450.0315485773859
 21
352.1194211223113
 31
0.0
  0
LINE
  5
15E
330
1F
100
AcDbEntity
  8
D-1
  6
Continuous
 62
     2
370
     9
100
AcDbLine
 10
498.1566145613388
 20
370.8694211223113
 30
0.0
 11
498.1566145613388
 21
382.1196438181516
 31
0.0
  0
LINE
  5
15F
330
1F
100
AcDbEntity
  8
D-1
  6
Continuous
 62
     2
370
     9
100
AcDbLine
 10
466.906449601457
 20
370.8694211223113
 30
0.0
 11
466.906449601457
 21
382.1196438181516
 31
0.0
  0
LINE
  5
160
330
1F
100
AcDbEntity
  8
D-5
  6
Continuous
 62
     7
370
     9
100
AcDbLine
 10
460.0315815693625
 20
389.6194211223113
 30
0.0
 11
452.5314331054688
 21
389.6194211223113
 31
0.0
  0
LINE
  5
161
330
1F
100
AcDbEntity
  8
D-5
  6
Continuous
 62
     7
370
     9
100
AcDbLine
 10
500.0317135372677
 20
389.6194211223113
 30
0.0
 11
470.0316145613388
 21
389.6194211223113
 31
0.0
  0
LINE
  5
162
330
1F
100
AcDbEntity
  8
D-1
  6
Continuous
 62
     2
370
     9
100
AcDbLine
 10
538.7812846415752
 20
457.1195200982405
 30
0.0
 11
521.2813506255279
 21
457.1195200982405
 31
0.0
  0
LINE
  5
163
330
1F
100
AcDbEntity
  8
D-1
  6
Continuous
 62
     2
370
     9
100
AcDbLine
 10
515.031268145587
 20
452.1196273221635
 30
0.0
 11
515.031268145587
 21
387.1196603141399
 31
0.0
  0
LINE
  5
164
330
1F
100
AcDbEntity
  8
D-1
  6
Continuous
 62
     2
370
     9
100
AcDbLine
 10
521.2813506255279
 20
457.1195200982405
 30
0.0
 11
515.031268145587
 21
452.1196273221635
 31
0.0
  0
LINE
  5
165
330
1F
100
AcDbEntity
  8
D-1
  6
Continuous
 62
     2
370
     9
100
AcDbLine
 10
495.6564825934333
 20
368.3694128743173
 30
0.0
 11
469.4065815693625
 21
368.3694128743173
 31
0.0
  0
LINE
  5
166
330
1F
100
AcDbEntity
  8
D-1
  6
Continuous
 62
     2
370
     9
100
AcDbLine
 10
476.281449601457
 20
368.3694128743173
 30
0.0
 11
476.281449601457
 21
363.3696438181516
 31
0.0
  0
LINE
  5
167
330
1F
100
AcDbEntity
  8
D-1
  6
Continuous
 62
     2
370
     9
100
AcDbLine
 10
488.7816145613388
 20
368.3694128743173
 30
0.0
 11
488.7816145613388
 21
363.3696438181516
 31
0.0
  0
LINE
  5
168
330
1F
100
AcDbEntity
  8
D-6
  6
Continuous
 62
     6
370
     5
100
AcDbLine
 10
644.4064166094807
 20
305.2446685621339
 30
0.0
 11
535.0315815693625
 21
414.6196273221635
 31
0.0
  0
LINE
  5
169
330
1F
100
AcDbEntity
  8
D-6
  6
Continuous
 62
     6
370
     5
100
AcDbLine
 10
644.4064166094807
 20
414.6196273221635
 30
0.0
 11
535.0315815693625
 21
305.2446685621339
 31
0.0
  0
LINE
  5
16A
330
1F
100
AcDbEntity
  8
D-6
  6
Continuous
 62
     6
370
     5
100
AcDbLine
 10
644.4064166094807
 20
414.6196273221635
 30
0.0
 11
644.4064166094807
 21
305.2446685621339
 31
0.0
  0
LINE
  5
16B
330
1F
100
AcDbEntity
  8
D-6
  6
Continuous
 62
     6
370
     5
100
AcDbLine
 10
597.1498644029773
 20
378.170504248895
 30
0.0
 11
605.7315723316092
 21
365.297818636036
 31
0.0
  0
LINE
  5
16C
330
1F
100
AcDbEntity
  8
D-6
  6
Continuous
 62
     6
370
     5
100
AcDbLine
 10
605.7315723316092
 20
365.297818636036
 30
0.0
 11
600.2705754460516
 21
355.5459677861627
 31
0.0
  0
LINE
  5
16D
330
1F
100
AcDbEntity
  8
D-6
  6
Continuous
 62
     6
370
     5
100
AcDbLine
 10
600.2705754460516
 20
355.5459677861627
 30
0.0
 11
587.3977661132812
 21
347.7443138983882
 31
0.0
  0
LINE
  5
16E
330
1F
100
AcDbEntity
  8
D-6
  6
Continuous
 62
     6
370
     5
100
AcDbLine
 10
587.3977661132812
 20
347.7443138983882
 30
0.0
 11
571.4047406170821
 21
358.2764662289413
 31
0.0
  0
LINE
  5
16F
330
1F
100
AcDbEntity
  8
D-6
  6
Continuous
 62
     6
370
     5
100
AcDbLine
 10
571.4047406170821
 20
358.2764662289413
 30
0.0
 11
581.5465566274283
 21
378.5605931292793
 31
0.0
  0
LINE
  5
170
330
1F
100
AcDbEntity
  8
D-6
  6
Continuous
 62
     6
370
     5
100
AcDbLine
 10
581.5465566274283
 20
378.5605931292793
 30
0.0
 11
597.1498644029773
 21
378.170504248895
 31
0.0
  0
LINE
  5
171
330
1F
100
AcDbEntity
  8
D-6
  6
Continuous
 62
     6
370
     5
100
AcDbLine
 10
600.6605406065245
 20
393.3835994241483
 30
0.0
 11
626.4056643924198
 21
383.2415359739794
 31
0.0
  0
LINE
  5
172
330
1F
100
AcDbEntity
  8
D-6
  6
Continuous
 62
     6
370
     5
100
AcDbLine
 10
626.4056643924198
 20
383.2415359739794
 30
0.0
 11
624.0651311101141
 21
350.4748123411669
 31
0.0
  0
LINE
  5
173
330
1F
100
AcDbEntity
  8
D-6
  6
Continuous
 62
     6
370
     5
100
AcDbLine
 10
624.0651311101141
 20
350.4748123411669
 30
0.0
 11
586.6175883525127
 21
327.4601869980503
 31
0.0
  0
LINE
  5
174
330
1F
100
AcDbEntity
  8
D-6
  6
Continuous
 62
     6
370
     5
100
AcDbLine
 10
586.6175883525127
 20
327.4601869980503
 30
0.0
 11
556.191398002006
 21
348.1344027787725
 31
0.0
  0
LINE
  5
175
330
1F
100
AcDbEntity
  8
D-6
  6
Continuous
 62
     6
370
     5
100
AcDbLine
 10
556.191398002006
 20
348.1344027787725
 30
0.0
 11
553.4608995592273
 21
376.6101487273578
 31
0.0
  0
LINE
  5
176
330
1F
100
AcDbEntity
  8
D-6
  6
Continuous
 62
     6
370
     5
100
AcDbLine
 10
553.4608995592273
 20
376.6101487273578
 30
0.0
 11
572.5748835383234
 21
398.4546311492328
 31
0.0
  0
LINE
  5
177
330
1F
100
AcDbEntity
  8
D-6
  6
Continuous
 62
     6
370
     5
100
AcDbLine
 10
572.5748835383234
 20
398.4546311492328
 30
0.0
 11
583.1069121489654
 21
400.01498667077
 31
0.0
  0
LINE
  5
178
330
1F
100
AcDbEntity
  8
D-6
  6
Continuous
 62
     6
370
     5
100
AcDbLine
 10
583.1069121489654
 20
400.01498667077
 30
0.0
 11
600.6605406065245
 21
393.3835994241483
 31
0.0
  0
LINE
  5
179
330
1F
100
AcDbEntity
  8
D-6
  6
Continuous
 62
     6
370
     5
100
AcDbLine
 10
613.5331024994721
 20
408.2066057190174
 30
0.0
 11
636.5477278425888
 21
384.4118026151323
 31
0.0
  0
LINE
  5
17A
330
1F
100
AcDbEntity
  8
D-6
  6
Continuous
 62
     6
370
     5
100
AcDbLine
 10
636.5477278425888
 20
384.4118026151323
 30
0.0
 11
640.0586514859585
 21
349.3046694199253
 31
0.0
  0
LINE
  5
17B
330
1F
100
AcDbEntity
  8
D-6
  6
Continuous
 62
     6
370
     5
100
AcDbLine
 10
640.0586514859585
 20
349.3046694199253
 30
0.0
 11
612.7529247387037
 21
324.7295648353604
 31
0.0
  0
LINE
  5
17C
330
1F
100
AcDbEntity
  8
D-6
  6
Continuous
 62
     6
370
     5
100
AcDbLine
 10
612.7529247387037
 20
324.7295648353604
 30
0.0
 11
572.1846709380279
 21
316.1478569067286
 31
0.0
  0
LINE
  5
17D
330
1F
100
AcDbEntity
  8
D-6
  6
Continuous
 62
     6
370
     5
100
AcDbLine
 10
572.1846709380279
 20
316.1478569067286
 30
0.0
 11
546.0495819916596
 21
332.1411298427505
 31
0.0
  0
LINE
  5
17E
330
1F
100
AcDbEntity
  8
D-6
  6
Continuous
 62
     6
370
     5
100
AcDbLine
 10
546.0495819916596
 20
332.1411298427505
 30
0.0
 11
542.1484457479943
 21
358.6665551093257
 31
0.0
  0
LINE
  5
17F
330
1F
100
AcDbEntity
  8
D-6
  6
Continuous
 62
     6
370
     5
100
AcDbLine
 10
542.1484457479943
 20
358.6665551093257
 30
0.0
 11
539.418194745038
 21
390.262888381074
 31
0.0
  0
LINE
  5
180
330
1F
100
AcDbEntity
  8
D-6
  6
Continuous
 62
     6
370
     5
100
AcDbLine
 10
539.418194745038
 20
390.262888381074
 30
0.0
 11
560.8722171267948
 21
404.6959295154701
 31
0.0
  0
LINE
  5
181
330
1F
100
AcDbEntity
  8
D-6
  6
Continuous
 62
     6
370
     5
100
AcDbLine
 10
560.8722171267948
 20
404.6959295154701
 30
0.0
 11
589.7380519557644
 21
408.9866597598747
 31
0.0
  0
LINE
  5
182
330
1F
100
AcDbEntity
  8
D-6
  6
Continuous
 62
     6
370
     5
100
AcDbLine
 10
589.7380519557644
 20
408.9866597598747
 30
0.0
 11
613.5331024994721
 21
408.2066057190174
 31
0.0
  0
LINE
  5
183
330
1F
100
AcDbEntity
  8
D-6
  6
Continuous
 62
     6
370
     5
100
AcDbLine
 10
643.5690802496833
 20
331.360952081982
 30
0.0
 11
610.4123914563979
 21
310.2966474208755
 31
0.0
  0
LINE
  5
184
330
1F
100
AcDbEntity
  8
D-6
  6
Continuous
 62
     6
370
     5
100
AcDbLine
 10
622.9860460436023
 20
414.6196273221635
 30
0.0
 11
638.1080833641261
 21
404.6959295154701
 31
0.0
  0
LINE
  5
185
330
1F
100
AcDbEntity
  8
D-6
  6
Continuous
 62
     6
370
     5
100
AcDbLine
 10
535.0315815693625
 20
402.2798033673493
 30
0.0
 11
550.6618602855787
 21
414.6196273221635
 31
0.0
  0
LINE
  5
186
330
1F
100
AcDbEntity
  8
D-6
  6
Continuous
 62
     6
370
     5
100
AcDbLine
 10
638.1080833641261
 20
404.6959295154701
 30
0.0
 11
644.4064166094807
 21
391.2245632517454
 31
0.0
  0
LINE
  5
187
330
1F
100
AcDbEntity
  8
D-6
  6
Continuous
 62
     6
370
     5
100
AcDbLine
 10
644.4064166094807
 20
335.584873574275
 30
0.0
 11
643.5690802496833
 21
331.360952081982
 31
0.0
  0
LINE
  5
188
330
1F
100
AcDbEntity
  8
D-6
  6
Continuous
 62
     6
370
     5
100
AcDbLine
 10
610.4123914563979
 20
310.2966474208755
 30
0.0
 11
601.3484233134502
 21
305.2446685621339
 31
0.0
  0
LINE
  5
189
330
1F
100
AcDbEntity
  8
D-6
  6
Continuous
 62
     6
370
     5
100
AcDbLine
 10
565.4067993164062
 20
305.2446685621339
 30
0.0
 11
550.3401885161529
 21
311.0768251816441
 31
0.0
  0
LINE
  5
18A
330
1F
100
AcDbEntity
  8
D-6
  6
Continuous
 62
     6
370
     5
100
AcDbLine
 10
550.3401885161529
 20
311.0768251816441
 30
0.0
 11
535.0315815693625
 21
325.8837478880419
 31
0.0
  0
LINE
  5
18B
330
1F
100
AcDbEntity
  8
D-A
  6
Continuous
 62
     2
370
     9
100
AcDbLine
 10
487.6567531276393
 20
368.3694128743173
 30
0.0
 11
487.6567531276393
 21
347.5360932876407
 31
0.0
  0
LINE
  5
18C
330
1F
100
AcDbEntity
  8
D-A
  6
Continuous
 62
     2
370
     9
100
AcDbLine
 10
477.4068059148016
 20
368.3694128743173
 30
0.0
 11
477.4068059148016
 21
347.5360932876407
 31
0.0
  0
LINE
  5
18D
330
1F
100
AcDbEntity
  8
D-A
  6
Continuous
 62
     2
370
     9
100
AcDbLine
 10
487.6567531276393
 20
347.5360932876407
 30
0.0
 11
482.5317795212206
 21
305.8694541142877
 31
0.0
  0
LINE
  5
18E
330
1F
100
AcDbEntity
  8
D-A
  6
Continuous
 62
     2
370
     9
100
AcDbLine
 10
477.4068059148016
 20
347.5360932876407
 30
0.0
 11
482.5317795212206
 21
305.8694541142877
 31
0.0
  0
LINE
  5
18F
330
1F
100
AcDbEntity
  8
D-A
  6
Continuous
 62
     2
370
     9
100
AcDbLine
 10
484.2257525469807
 20
309.4045031403646
 30
0.0
 11
480.7623373495568
 21
310.0151846226281
 31
0.0
  0
LINE
  5
190
330
1F
100
AcDbEntity
  8
D-A
  6
Continuous
 62
     2
370
     9
100
AcDbLine
 10
484.7676457585516
 20
313.80893198327
 30
0.0
 11
480.1964424751901
 21
314.6149672055038
 31
0.0
  0
LINE
  5
191
330
1F
100
AcDbEntity
  8
D-A
  6
Continuous
 62
     2
370
     9
100
AcDbLine
 10
488.5599084802575
 20
344.6403050433418
 30
0.0
 11
476.2359206740922
 21
346.8133215657235
 31
0.0
  0
LINE
  5
192
330
1F
100
AcDbEntity
  8
D-A
  6
Continuous
 62
     2
370
     9
100
AcDbLine
 10
488.0180152686867
 20
340.2358762004363
 30
0.0
 11
476.8015681086359
 21
342.2135389828476
 31
0.0
  0
LINE
  5
193
330
1F
100
AcDbEntity
  8
D-A
  6
Continuous
 62
     2
370
     9
100
AcDbLine
 10
487.4766169367609
 20
335.8313236376196
 30
0.0
 11
477.3677104228253
 21
337.6138801198832
 31
0.0
  0
LINE
  5
194
330
1F
100
AcDbEntity
  8
D-A
  6
Continuous
 62
     2
370
     9
100
AcDbLine
 10
486.9347237251901
 20
331.4268947947141
 30
0.0
 11
477.9333578573693
 21
333.0140975370073
 31
0.0
  0
LINE
  5
195
330
1F
100
AcDbEntity
  8
D-A
  6
Continuous
 62
     2
370
     9
100
AcDbLine
 10
486.3928305136193
 20
327.0224659518088
 30
0.0
 11
478.499005291913
 21
328.4143149541314
 31
0.0
  0
LINE
  5
196
330
1F
100
AcDbEntity
  8
D-A
  6
Continuous
 62
     2
370
     9
100
AcDbLine
 10
485.8509373020482
 20
322.617913388992
 30
0.0
 11
479.0649001662797
 21
323.8144086513443
 31
0.0
  0
LINE
  5
197
330
1F
100
AcDbEntity
  8
D-A
  6
Continuous
 62
     2
370
     9
100
AcDbLine
 10
485.3095389701227
 20
318.2134845460866
 30
0.0
 11
479.6307950406461
 21
319.2148735082911
 31
0.0
  0
LINE
  5
198
330
1F
100
AcDbEntity
  8
D-1
  6
JWW_CENTER1
 62
     2
370
     9
100
AcDbLine
 10
482.5317795212206
 20
391.3293540166314
 30
0.0
 11
482.5317795212206
 21
304.3203571046804
 31
0.0
  0
LINE
  5
199
330
1F
100
AcDbEntity
  8
D-6
  6
Continuous
 62
     6
370
     5
100
AcDbLine
 10
482.3890067435602
 20
307.0289571231559
 30
0.0
 11
450.0315485773859
 21
339.3865390092412
 31
0.0
  0
LINE
  5
19A
330
1F
100
AcDbEntity
  8
D-6
  6
Continuous
 62
     6
370
     5
100
AcDbLine
 10
477.4305601377745
 20
347.3428427861627
 30
0.0
 11
472.6537343618034
 21
352.1194211223113
 31
0.0
  0
LINE
  5
19B
330
1F
100
AcDbEntity
  8
D-1
  6
Continuous
 62
     2
370
     9
100
AcDbLine
 10
477.4068059148016
 20
363.3696438181516
 30
0.0
 11
473.1562846415753
 21
363.3696438181516
 31
0.0
  0
LINE
  5
19C
330
1F
100
AcDbEntity
  8
D-1
  6
Continuous
 62
     2
370
     9
100
AcDbLine
 10
491.9065320813979
 20
363.3696438181516
 30
0.0
 11
487.6567531276393
 21
363.3696438181516
 31
0.0
  0
LINE
  5
19D
330
1F
100
AcDbEntity
  8
D-6
  6
Continuous
 62
     6
370
     5
100
AcDbLine
 10
532.5314496014571
 20
352.1194211223113
 30
0.0
 11
535.0315815693625
 21
352.1194211223113
 31
0.0
  0
LINE
  5
19E
330
1F
100
AcDbEntity
  8
D-6
  6
Continuous
 62
     6
370
     5
100
AcDbLine
 10
535.0315815693625
 20
325.0972604117962
 30
0.0
 11
508.0091734190245
 21
352.1194211223113
 31
0.0
  0
LINE
  5
19F
330
1F
100
AcDbEntity
  8
D-6
  6
Continuous
 62
     6
370
     5
100
AcDbLine
 10
535.0315815693625
 20
305.2446685621339
 30
0.0
 11
669.3416698558912
 21
305.2446685621339
 31
0.0
  0
LINE
  5
1A0
330
1F
100
AcDbEntity
  8
D-6
  6
Continuous
 62
     6
370
     5
100
AcDbLine
 10
535.0315815693625
 20
289.7419450744861
 30
0.0
 11
486.5155606656461
 21
338.2578422582911
 31
0.0
  0
LINE
  5
1A1
330
1F
100
AcDbEntity
  8
D-6
  6
Continuous
 62
     6
370
     5
100
AcDbLine
 10
535.0315815693625
 20
280.2445860821931
 30
0.0
 11
644.3415873759502
 21
280.2445860821931
 31
0.0
  0
LINE
  5
1A2
330
1F
100
AcDbEntity
  8
D-6
  6
Continuous
 62
     6
370
     5
100
AcDbLine
 10
535.0315815693625
 20
254.3865060172649
 30
0.0
 11
482.6431274414062
 21
306.7749601452209
 31
0.0
  0
LINE
  5
1A3
330
1F
100
AcDbEntity
  8
D-6
  6
Continuous
 62
     6
370
     5
100
AcDbLine
 10
535.0315815693625
 20
255.2446273221635
 30
0.0
 11
619.3417523358321
 21
255.2446273221635
 31
0.0
  0
LINE
  5
1A4
330
1F
100
AcDbEntity
  8
D-4
  6
Continuous
 62
     7
370
     9
100
AcDbLine
 10
138.8631047429266
 20
128.2598712648367
 30
0.0
 11
450.0315485773859
 21
128.2598712648367
 31
0.0
  0
LINE
  5
1A5
330
1F
100
AcDbEntity
  8
D-4
  6
Continuous
 62
     7
370
     9
100
AcDbLine
 10
450.0315485773859
 20
128.2598712648367
 30
0.0
 11
532.5314496014571
 21
128.2598712648367
 31
0.0
  0
LINE
  5
1A6
330
1F
100
AcDbEntity
  8
D-4
  6
Continuous
 62
     7
370
     9
100
AcDbLine
 10
532.5314496014571
 20
344.6193963783292
 30
0.0
 11
532.5314496014571
 21
126.7598910600225
 31
0.0
  0
LINE
  5
1A7
330
1F
100
AcDbEntity
  8
D-6
  6
Continuous
 62
     6
370
     5
100
AcDbLine
 10
450.0315485773859
 20
352.1194211223113
 30
0.0
 11
450.0315485773859
 21
102.2253666063696
 31
0.0
  0
LINE
  5
1A8
330
1F
100
AcDbEntity
  8
D-4
  6
Continuous
 62
     7
370
     9
100
AcDbLine
 10
683.7990838128169
 20
352.1194211223113
 30
0.0
 11
683.7990838128169
 21
452.1196273221635
 31
0.0
  0
LINE
  5
1A9
330
1F
100
AcDbEntity
  8
D-4
  6
Continuous
 62
     7
370
     9
100
AcDbLine
 10
542.5314825934333
 20
352.1194211223113
 30
0.0
 11
727.287869840055
 21
352.1194211223113
 31
0.0
  0
LINE
  5
1AA
330
1F
100
AcDbEntity
  8
D-4
  6
Continuous
 62
     7
370
     9
100
AcDbLine
 10
691.2992322767104
 20
452.1196273221635
 30
0.0
 11
685.299064017631
 21
452.1196273221635
 31
0.0
  0
LINE
  5
1AB
330
1F
100
AcDbEntity
  8
D-6
  6
Continuous
 62
     6
370
     5
100
AcDbLine
 10
535.0315815693625
 20
452.1196273221635
 30
0.0
 11
535.0315815693625
 21
102.2253666063696
 31
0.0
  0
LINE
  5
1AC
330
1F
100
AcDbEntity
  8
D-6
  6
Continuous
 62
     6
370
     5
100
AcDbLine
 10
535.0315815693625
 20
219.0311906799549
 30
0.0
 11
450.0315485773859
 21
304.0312236719312
 31
0.0
  0
LINE
  5
1AD
330
1F
100
AcDbEntity
  8
D-6
  6
Continuous
 62
     6
370
     5
100
AcDbLine
 10
535.0315815693625
 20
183.6756279028223
 30
0.0
 11
450.0315485773859
 21
268.6760320545326
 31
0.0
  0
LINE
  5
1AE
330
1F
100
AcDbEntity
  8
D-6
  6
Continuous
 62
     6
370
     5
100
AcDbLine
 10
535.0315815693625
 20
148.3206837252463
 30
0.0
 11
450.0315485773859
 21
233.3207167172226
 31
0.0
  0
LINE
  5
1AF
330
1F
100
AcDbEntity
  8
D-6
  6
Continuous
 62
     6
370
     5
100
AcDbLine
 10
475.0610763962206
 20
102.2253666063696
 30
0.0
 11
450.0315485773859
 21
127.2550181451154
 31
0.0
  0
LINE
  5
1B0
330
1F
100
AcDbEntity
  8
D-6
  6
Continuous
 62
     6
370
     5
100
AcDbLine
 10
535.0315815693625
 20
112.9651209481137
 30
0.0
 11
526.600811932538
 21
121.3957668650267
 31
0.0
  0
LINE
  5
1B1
330
1F
100
AcDbEntity
  8
D-6
  6
Continuous
 62
     6
370
     5
100
AcDbLine
 10
492.8242863835516
 20
155.1724161339245
 30
0.0
 11
450.0315485773859
 21
197.965525099824
 31
0.0
  0
LINE
  5
1B2
330
1F
100
AcDbEntity
  8
D-6
  6
Continuous
 62
     6
370
     5
100
AcDbLine
 10
510.4162680136193
 20
102.2253666063696
 30
0.0
 11
491.245867754962
 21
121.3957668650267
 31
0.0
  0
LINE
  5
1B3
330
1F
100
AcDbEntity
  8
D-6
  6
Continuous
 62
     6
370
     5
100
AcDbLine
 10
457.4690947661529
 20
155.1724161339245
 30
0.0
 11
450.0315485773859
 21
162.610209762514
 31
0.0
  0
LINE
  5
1B4
330
1F
100
AcDbEntity
  8
D-4
  6
Continuous
 62
     7
370
     9
100
AcDbLine
 10
308.5306116052575
 20
57.04322615292789
 30
0.0
 11
573.7945144240922
 21
57.04322615292789
 31
0.0
  0
LINE
  5
1B5
330
1F
100
AcDbEntity
  8
D-4
  6
Continuous
 62
     7
370
     9
100
AcDbLine
 10
473.1085287558068
 20
377.0727374757741
 30
0.0
 11
468.0483843829182
 21
365.6427497487894
 31
0.0
  0
LINE
  5
1B6
330
1F
100
AcDbEntity
  8
D-4
  6
Continuous
 62
     7
370
     9
100
AcDbLine
 10
473.1085287558068
 20
377.0727374757741
 30
0.0
 11
465.2627068596919
 21
367.3417952909135
 31
0.0
  0
LINE
  5
1B7
330
1F
100
AcDbEntity
  8
D-4
  6
Continuous
 62
     7
370
     9
100
AcDbLine
 10
636.502198915224
 20
190.5355258256475
 30
0.0
 11
829.0024628510346
 21
190.5355258256475
 31
0.0
  0
LINE
  5
1B8
330
1F
100
AcDbEntity
  8
D-4
  6
Continuous
 62
     7
370
     9
100
AcDbLine
 10
486.9624369853253
 20
344.9437899858037
 30
0.0
 11
496.756105165224
 21
337.1765302333755
 31
0.0
  0
LINE
  5
1B9
330
1F
100
AcDbEntity
  8
D-4
  6
Continuous
 62
     7
370
     9
100
AcDbLine
 10
486.9624369853253
 20
344.9437899858037
 30
0.0
 11
494.4118602855787
 21
334.9062698606981
 31
0.0
  0
LINE
  5
1BA
330
1F
100
AcDbEntity
  8
D-4
  6
Continuous
 62
     7
370
     9
100
AcDbLine
 10
636.502198915224
 20
190.5355258256475
 30
0.0
 11
486.9624369853253
 21
344.9437899858037
 31
0.0
  0
LINE
  5
1BB
330
1F
100
AcDbEntity
  8
D-6
  6
Continuous
 62
     6
370
     5
100
AcDbLine
 10
535.0315815693625
 20
444.6196025781812
 30
0.0
 11
677.5490013328761
 21
444.6196025781812
 31
0.0
  0
LINE
  5
1BC
330
1F
100
AcDbEntity
  8
D-6
  6
Continuous
 62
     6
370
     5
100
AcDbLine
 10
535.0315815693625
 20
437.119577834199
 30
0.0
 11
677.5490013328761
 21
437.119577834199
 31
0.0
  0
LINE
  5
1BD
330
1F
100
AcDbEntity
  8
D-6
  6
Continuous
 62
     6
370
     5
100
AcDbLine
 10
535.0315815693625
 20
429.6196768101281
 30
0.0
 11
677.5490013328761
 21
429.6196768101281
 31
0.0
  0
LINE
  5
1BE
330
1F
100
AcDbEntity
  8
D-6
  6
Continuous
 62
     6
370
     5
100
AcDbLine
 10
535.0315815693625
 20
422.1195283462345
 30
0.0
 11
677.5490013328761
 21
422.1195283462345
 31
0.0
  0
LINE
  5
1BF
330
1F
100
AcDbEntity
  8
D-6
  6
Continuous
 62
     6
370
     5
100
AcDbLine
 10
535.0315815693625
 20
414.6196273221635
 30
0.0
 11
677.5490013328761
 21
414.6196273221635
 31
0.0
  0
LINE
  5
1C0
330
1F
100
AcDbEntity
  8
D-4
  6
Continuous
 62
     7
370
     9
100
AcDbLine
 10
546.281185665646
 20
457.1195200982405
 30
0.0
 11
727.287869840055
 21
457.1195200982405
 31
0.0
  0
LINE
  5
1C1
330
1F
100
AcDbEntity
  8
D-4
  6
Continuous
 62
     7
370
     9
100
AcDbLine
 10
683.7990838128169
 20
452.1196273221635
 30
0.0
 11
683.7990838128169
 21
475.6631552861627
 31
0.0
  0
LINE
  5
1C2
330
1F
100
AcDbEntity
  8
D-4
  6
Continuous
 62
     7
370
     9
100
AcDbLine
 10
725.7878896352408
 20
352.1194211223113
 30
0.0
 11
725.7878896352408
 21
457.1195200982405
 31
0.0
  0
LINE
  5
1C3
330
1F
100
AcDbEntity
  8
D-6
  6
Continuous
 62
     6
370
     5
100
AcDbLine
 10
690.0491662927578
 20
444.6196025781812
 30
0.0
 11
719.5378071553
 21
444.6196025781812
 31
0.0
  0
LINE
  5
1C4
330
1F
100
AcDbEntity
  8
D-6
  6
Continuous
 62
     6
370
     5
100
AcDbLine
 10
732.0377246753592
 20
444.6196025781812
 30
0.0
 11
771.5897431244721
 21
444.6196025781812
 31
0.0
  0
LINE
  5
1C5
330
1F
100
AcDbEntity
  8
D-6
  6
Continuous
 62
     6
370
     5
100
AcDbLine
 10
690.0491662927578
 20
437.119577834199
 30
0.0
 11
719.5378071553
 21
437.119577834199
 31
0.0
  0
LINE
  5
1C6
330
1F
100
AcDbEntity
  8
D-6
  6
Continuous
 62
     6
370
     5
100
AcDbLine
 10
732.0377246753592
 20
437.119577834199
 30
0.0
 11
771.5897431244721
 21
437.119577834199
 31
0.0
  0
LINE
  5
1C7
330
1F
100
AcDbEntity
  8
D-6
  6
Continuous
 62
     6
370
     5
100
AcDbLine
 10
690.0491662927578
 20
429.6196768101281
 30
0.0
 11
719.5378071553
 21
429.6196768101281
 31
0.0
  0
LINE
  5
1C8
330
1F
100
AcDbEntity
  8
D-6
  6
Continuous
 62
     6
370
     5
100
AcDbLine
 10
732.0377246753592
 20
429.6196768101281
 30
0.0
 11
771.5897431244721
 21
429.6196768101281
 31
0.0
  0
LINE
  5
1C9
330
1F
100
AcDbEntity
  8
D-6
  6
Continuous
 62
     6
370
     5
100
AcDbLine
 10
690.0491662927578
 20
422.1195283462345
 30
0.0
 11
719.5378071553
 21
422.1195283462345
 31
0.0
  0
LINE
  5
1CA
330
1F
100
AcDbEntity
  8
D-6
  6
Continuous
 62
     6
370
     5
100
AcDbLine
 10
732.0377246753592
 20
422.1195283462345
 30
0.0
 11
771.5897431244721
 21
422.1195283462345
 31
0.0
  0
LINE
  5
1CB
330
1F
100
AcDbEntity
  8
D-6
  6
Continuous
 62
     6
370
     5
100
AcDbLine
 10
690.0491662927578
 20
414.6196273221635
 30
0.0
 11
719.5378071553
 21
414.6196273221635
 31
0.0
  0
LINE
  5
1CC
330
1F
100
AcDbEntity
  8
D-6
  6
Continuous
 62
     6
370
     5
100
AcDbLine
 10
732.0377246753592
 20
414.6196273221635
 30
0.0
 11
771.5897431244721
 21
414.6196273221635
 31
0.0
  0
LINE
  5
1CD
330
1F
100
AcDbEntity
  8
D-6
  6
Continuous
 62
     6
370
     5
100
AcDbLine
 10
545.0313671215162
 20
452.1196273221635
 30
0.0
 11
719.5378071553
 21
452.1196273221635
 31
0.0
  0
LINE
  5
1CE
330
1F
100
AcDbEntity
  8
D-6
  6
Continuous
 62
     6
370
     5
100
AcDbLine
 10
732.0377246753592
 20
452.1196273221635
 30
0.0
 11
771.5897431244721
 21
452.1196273221635
 31
0.0
  0
LINE
  5
1CF
330
1F
100
AcDbEntity
  8
D-5
  6
Continuous
 62
     7
370
     9
100
AcDbLine
 10
509.3079850480365
 20
387.1196603141399
 30
0.0
 11
511.8078695761193
 21
389.6195448422226
 31
0.0
  0
LINE
  5
1D0
330
1F
100
AcDbEntity
  8
D-5
  6
Continuous
 62
     7
370
     9
100
AcDbLine
 10
495.3768755938557
 20
378.1383370719524
 30
0.0
 11
496.2815155854096
 21
379.0429770635064
 31
0.0
  0
LINE
  5
1D1
330
1F
100
AcDbEntity
  8
D-5
  6
Continuous
 62
     7
370
     9
100
AcDbLine
 10
504.3581988360432
 20
387.1196603141399
 30
0.0
 11
506.8580833641261
 21
389.6195448422226
 31
0.0
  0
LINE
  5
1D2
330
1F
100
AcDbEntity
  8
D-5
  6
Continuous
 62
     7
370
     9
100
AcDbLine
 10
488.6630908862966
 20
376.3743385763865
 30
0.0
 11
493.1583301441091
 21
380.8697015541104
 31
0.0
  0
LINE
  5
1D3
330
1F
100
AcDbEntity
  8
D-5
  6
Continuous
 62
     7
370
     9
100
AcDbLine
 10
499.40841262405
 20
387.1196603141399
 30
0.0
 11
501.9082971521325
 21
389.6195448422226
 31
0.0
  0
LINE
  5
1D4
330
1F
100
AcDbEntity
  8
D-5
  6
Continuous
 62
     7
370
     9
100
AcDbLine
 10
483.2147134316935
 20
375.875871053688
 30
0.0
 11
485.3181993639149
 21
377.979233265998
 31
0.0
  0
LINE
  5
1D5
330
1F
100
AcDbEntity
  8
D-5
  6
Continuous
 62
     7
370
     9
100
AcDbLine
 10
490.0314331054688
 20
382.6924670075521
 30
0.0
 11
493.1565980653505
 21
385.8175082475225
 31
0.0
  0
LINE
  5
1D6
330
1F
100
AcDbEntity
  8
D-5
  6
Continuous
 62
     7
370
     9
100
AcDbLine
 10
494.4586264120568
 20
387.1196603141399
 30
0.0
 11
496.9585109401393
 21
389.6195448422226
 31
0.0
  0
LINE
  5
1D7
330
1F
100
AcDbEntity
  8
D-5
  6
Continuous
 62
     7
370
     9
100
AcDbLine
 10
478.478715226457
 20
376.0892879007108
 30
0.0
 11
480.3275855811867
 21
377.9381582554406
 31
0.0
  0
LINE
  5
1D8
330
1F
100
AcDbEntity
  8
D-5
  6
Continuous
 62
     7
370
     9
100
AcDbLine
 10
489.5090876398859
 20
387.1196603141399
 30
0.0
 11
492.0087247281461
 21
389.6195448422226
 31
0.0
  0
LINE
  5
1D9
330
1F
100
AcDbEntity
  8
D-5
  6
Continuous
 62
     7
370
     9
100
AcDbLine
 10
474.2380915461359
 20
376.7983267124719
 30
0.0
 11
475.9286004143794
 21
378.4890830205377
 31
0.0
  0
LINE
  5
1DA
330
1F
100
AcDbEntity
  8
D-5
  6
Continuous
 62
     7
370
     9
100
AcDbLine
 10
484.5593014278927
 20
387.1196603141399
 30
0.0
 11
487.0591859559755
 21
389.6195448422226
 31
0.0
  0
LINE
  5
1DB
330
1F
100
AcDbEntity
  8
D-5
  6
Continuous
 62
     7
370
     9
100
AcDbLine
 10
470.3822367900128
 20
377.8923818882531
 30
0.0
 11
475.0313836175044
 21
382.5416524356559
 31
0.0
  0
LINE
  5
1DC
330
1F
100
AcDbEntity
  8
D-5
  6
Continuous
 62
     7
370
     9
100
AcDbLine
 10
479.6095152158995
 20
387.1196603141399
 30
0.0
 11
482.1093997439823
 21
389.6195448422226
 31
0.0
  0
LINE
  5
1DD
330
1F
100
AcDbEntity
  8
D-5
  6
Continuous
 62
     7
370
     9
100
AcDbLine
 10
471.9062186576227
 20
384.3662736877674
 30
0.0
 11
477.1596135319891
 21
389.6195448422226
 31
0.0
  0
LINE
  5
1DE
330
1F
100
AcDbEntity
  8
D-5
  6
Continuous
 62
     7
370
     9
100
AcDbLine
 10
469.709942791913
 20
387.1196603141399
 30
0.0
 11
472.2098273199958
 21
389.6195448422226
 31
0.0
  0
LINE
  5
1DF
330
1F
100
AcDbEntity
  8
D-5
  6
Continuous
 62
     7
370
     9
100
AcDbLine
 10
464.7601565799198
 20
387.1196603141399
 30
0.0
 11
467.2600411080026
 21
389.6195448422226
 31
0.0
  0
LINE
  5
1E0
330
1F
100
AcDbEntity
  8
D-5
  6
Continuous
 62
     7
370
     9
100
AcDbLine
 10
459.8103703679266
 20
387.1196603141399
 30
0.0
 11
462.3102548960094
 21
389.6195448422226
 31
0.0
  0
LINE
  5
1E1
330
1F
100
AcDbEntity
  8
D-5
  6
Continuous
 62
     7
370
     9
100
AcDbLine
 10
454.8605841559333
 20
387.1196603141399
 30
0.0
 11
457.3604686840162
 21
389.6195448422226
 31
0.0
  0
LINE
  5
1E2
330
1F
100
AcDbEntity
  8
D-3
  6
Continuous
 62
     3
370
     9
100
AcDbLine
 10
501.2810372017526
 20
415.8696933061162
 30
0.0
 11
501.2810372017526
 21
407.8697164004997
 31
0.0
  0
LINE
  5
1E3
330
1F
100
AcDbEntity
  8
D-B
  6
Continuous
 62
     7
370
     9
100
AcDbLine
 10
501.2810372017526
 20
415.8696933061162
 30
0.0
 11
501.2810372017526
 21
430.7444145239161
 31
0.0
  0
LINE
  5
1E4
330
1F
100
AcDbEntity
  8
D-B
  6
Continuous
 62
     7
370
     9
100
AcDbLine
 10
501.2810372017526
 20
452.1195036022522
 30
0.0
 11
501.2810372017526
 21
440.9944854566652
 31
0.0
  0
LINE
  5
1E5
330
1F
100
AcDbEntity
  8
D-B
  6
Continuous
 62
     7
370
     9
100
AcDbLine
 10
408.096437196474
 20
415.8696933061162
 30
0.0
 11
403.0962969805745
 21
420.8697098021044
 31
0.0
  0
LINE
  5
1E6
330
1F
100
AcDbEntity
  8
D-B
  6
Continuous
 62
     7
370
     9
100
AcDbLine
 10
413.3996911951013
 20
415.8696933061162
 30
0.0
 11
408.3995509792018
 21
420.8697098021044
 31
0.0
  0
LINE
  5
1E7
330
1F
100
AcDbEntity
  8
D-B
  6
Continuous
 62
     7
370
     9
100
AcDbLine
 10
418.7029451937289
 20
415.8696933061162
 30
0.0
 11
413.7028049778294
 21
420.8697098021044
 31
0.0
  0
LINE
  5
1E8
330
1F
100
AcDbEntity
  8
D-B
  6
Continuous
 62
     7
370
     9
100
AcDbLine
 10
424.0061991923565
 20
415.8696933061162
 30
0.0
 11
419.006058976457
 21
420.8697098021044
 31
0.0
  0
LINE
  5
1E9
330
1F
100
AcDbEntity
  8
D-B
  6
Continuous
 62
     7
370
     9
100
AcDbLine
 10
429.3094531909841
 20
415.8696933061162
 30
0.0
 11
424.3093129750847
 21
420.8697098021044
 31
0.0
  0
LINE
  5
1EA
330
1F
100
AcDbEntity
  8
D-B
  6
Continuous
 62
     7
370
     9
100
AcDbLine
 10
434.6128309095229
 20
415.8696933061162
 30
0.0
 11
429.6126906936234
 21
420.8697098021044
 31
0.0
  0
LINE
  5
1EB
330
1F
100
AcDbEntity
  8
D-B
  6
Continuous
 62
     7
370
     9
100
AcDbLine
 10
455.8258469040331
 20
415.8696933061162
 30
0.0
 11
450.8257066881336
 21
420.8697098021044
 31
0.0
  0
LINE
  5
1EC
330
1F
100
AcDbEntity
  8
D-B
  6
Continuous
 62
     7
370
     9
100
AcDbLine
 10
461.1291009026607
 20
415.8696933061162
 30
0.0
 11
456.1290844066724
 21
420.8697098021044
 31
0.0
  0
LINE
  5
1ED
330
1F
100
AcDbEntity
  8
D-B
  6
Continuous
 62
     7
370
     9
100
AcDbLine
 10
466.432354901288
 20
415.8696933061162
 30
0.0
 11
461.4323384053
 21
420.8697098021044
 31
0.0
  0
LINE
  5
1EE
330
1F
100
AcDbEntity
  8
D-B
  6
Continuous
 62
     7
370
     9
100
AcDbLine
 10
471.7357326198268
 20
415.8696933061162
 30
0.0
 11
466.7355924039273
 21
420.8697098021044
 31
0.0
  0
LINE
  5
1EF
330
1F
100
AcDbEntity
  8
D-B
  6
Continuous
 62
     7
370
     9
100
AcDbLine
 10
477.0389866184544
 20
415.8696933061162
 30
0.0
 11
472.038846402555
 21
420.8697098021044
 31
0.0
  0
LINE
  5
1F0
330
1F
100
AcDbEntity
  8
D-B
  6
Continuous
 62
     7
370
     9
100
AcDbLine
 10
498.2521263328761
 20
415.8696933061162
 30
0.0
 11
493.2519861169763
 21
420.8697098021044
 31
0.0
  0
LINE
  5
1F1
330
1F
100
AcDbEntity
  8
D-B
  6
Continuous
 62
     7
370
     9
100
AcDbLine
 10
501.2810372017526
 20
418.1439127159558
 30
0.0
 11
498.5553638355154
 21
420.8697098021044
 31
0.0
  0
LINE
  5
1F2
330
1F
100
AcDbEntity
  8
D-0
  6
Continuous
 62
     4
370
     9
100
AcDbLine
 10
510.0311279296875
 20
400.8693963783292
 30
0.0
 11
512.5312598975929
 21
399.619577834199
 31
0.0
  0
LINE
  5
1F3
330
1F
100
AcDbEntity
  8
D-0
  6
Continuous
 62
     4
370
     9
100
AcDbLine
 10
512.5312598975929
 20
399.619577834199
 30
0.0
 11
512.5312598975929
 21
389.6194211223113
 31
0.0
  0
LINE
  5
1F4
330
1F
100
AcDbEntity
  8
D-0
  6
Continuous
 62
     4
370
     9
100
AcDbLine
 10
500.0313423775339
 20
395.8695036022522
 30
0.0
 11
500.0313423775339
 21
389.6194211223113
 31
0.0
  0
LINE
  5
1F5
330
1F
100
AcDbEntity
  8
D-0
  6
Continuous
 62
     4
370
     9
100
AcDbLine
 10
505.0311114336995
 20
395.8695036022522
 30
0.0
 11
500.0313423775339
 21
395.8695036022522
 31
0.0
  0
LINE
  5
1F6
330
1F
100
AcDbEntity
  8
D-0
  6
Continuous
 62
     4
370
     9
100
AcDbLine
 10
505.0311114336995
 20
402.8694524646889
 30
0.0
 11
505.0311114336995
 21
395.8695036022522
 31
0.0
  0
LINE
  5
1F7
330
1F
100
AcDbEntity
  8
D-0
  6
Continuous
 62
     4
370
     9
100
AcDbLine
 10
505.0311114336995
 20
402.8694524646889
 30
0.0
 11
465.0312269056167
 21
402.8694524646889
 31
0.0
  0
LINE
  5
1F8
330
1F
100
AcDbEntity
  8
D-0
  6
Continuous
 62
     4
370
     9
100
AcDbLine
 10
470.0312434016047
 20
395.8695036022522
 30
0.0
 11
470.0312434016047
 21
389.6194211223113
 31
0.0
  0
LINE
  5
1F9
330
1F
100
AcDbEntity
  8
D-0
  6
Continuous
 62
     4
370
     9
100
AcDbLine
 10
470.0312434016047
 20
395.8695036022522
 30
0.0
 11
465.0312269056167
 21
395.8695036022522
 31
0.0
  0
LINE
  5
1FA
330
1F
100
AcDbEntity
  8
D-0
  6
Continuous
 62
     4
370
     9
100
AcDbLine
 10
465.0312269056167
 20
402.8694524646889
 30
0.0
 11
465.0312269056167
 21
395.8695036022522
 31
0.0
  0
LINE
  5
1FB
330
1F
100
AcDbEntity
  8
D-0
  6
Continuous
 62
     4
370
     9
100
AcDbLine
 10
430.0308639938768
 20
401.6195102006475
 30
0.0
 11
430.0308639938768
 21
396.6194937046594
 31
0.0
  0
LINE
  5
1FC
330
1F
100
AcDbEntity
  8
D-0
  6
Continuous
 62
     4
370
     9
100
AcDbLine
 10
460.0310866897172
 20
407.8697164004997
 30
0.0
 11
460.0310866897172
 21
401.6195102006475
 31
0.0
  0
LINE
  5
1FD
330
1F
100
AcDbEntity
  8
D-0
  6
Continuous
 62
     4
370
     9
100
AcDbLine
 10
460.0310866897172
 20
396.6194937046594
 30
0.0
 11
430.0308639938768
 21
396.6194937046594
 31
0.0
  0
LINE
  5
1FE
330
1F
100
AcDbEntity
  8
D-0
  6
Continuous
 62
     4
370
     9
100
AcDbLine
 10
460.0310866897172
 20
396.6194937046594
 30
0.0
 11
460.0310866897172
 21
389.6194211223113
 31
0.0
  0
LINE
  5
1FF
330
1F
100
AcDbEntity
  8
D-0
  6
Continuous
 62
     4
370
     9
100
AcDbLine
 10
512.5312598975929
 20
389.6194211223113
 30
0.0
 11
500.0313423775339
 21
389.6194211223113
 31
0.0
  0
LINE
  5
200
330
1F
100
AcDbEntity
  8
D-0
  6
Continuous
 62
     4
370
     9
100
AcDbLine
 10
470.0312434016047
 20
389.6194211223113
 30
0.0
 11
460.0310866897172
 21
389.6194211223113
 31
0.0
  0
LINE
  5
201
330
1F
100
AcDbEntity
  8
D-0
  6
Continuous
 62
     4
370
     9
100
AcDbLine
 10
488.7811196816935
 20
457.1195200982405
 30
0.0
 11
482.5312846415753
 21
453.3695695862049
 31
0.0
  0
LINE
  5
202
330
1F
100
AcDbEntity
  8
D-0
  6
Continuous
 62
     4
370
     9
100
AcDbLine
 10
482.5312846415753
 20
453.3695695862049
 30
0.0
 11
482.5312846415753
 21
452.1195036022522
 31
0.0
  0
LINE
  5
203
330
1F
100
AcDbEntity
  8
D-0
  6
Continuous
 62
     4
370
     9
100
AcDbLine
 10
488.7811196816935
 20
457.1195200982405
 30
0.0
 11
506.2810536977409
 21
457.1195200982405
 31
0.0
  0
LINE
  5
204
330
1F
100
AcDbEntity
  8
D-0
  6
Continuous
 62
     4
370
     9
100
AcDbLine
 10
506.2810536977409
 20
457.1195200982405
 30
0.0
 11
512.5312598975929
 21
452.1195036022522
 31
0.0
  0
LINE
  5
205
330
1F
100
AcDbEntity
  8
D-0
  6
Continuous
 62
     4
370
     9
100
AcDbLine
 10
510.031251649599
 20
446.4944541142877
 30
0.0
 11
505.0311114336995
 21
441.4943138983882
 31
0.0
  0
LINE
  5
206
330
1F
100
AcDbEntity
  8
D-0
  6
Continuous
 62
     4
370
     9
100
AcDbLine
 10
510.031251649599
 20
425.2443221463823
 30
0.0
 11
505.0311114336995
 21
430.2444623622818
 31
0.0
  0
LINE
  5
207
330
1F
100
AcDbEntity
  8
D-A
  6
Continuous
 62
     2
370
     9
100
AcDbLine
 10
510.031251649599
 20
446.1194590630842
 30
0.0
 11
509.2811378272805
 21
446.1194590630842
 31
0.0
  0
LINE
  5
208
330
1F
100
AcDbEntity
  8
D-A
  6
Continuous
 62
     2
370
     9
100
AcDbLine
 10
504.1562879407729
 20
440.9944854566652
 30
0.0
 11
509.2811378272805
 21
446.1194590630842
 31
0.0
  0
LINE
  5
209
330
1F
100
AcDbEntity
  8
D-A
  6
Continuous
 62
     2
370
     9
100
AcDbLine
 10
504.1562879407729
 20
430.7444145239161
 30
0.0
 11
504.1562879407729
 21
440.9944854566652
 31
0.0
  0
LINE
  5
20A
330
1F
100
AcDbEntity
  8
D-A
  6
Continuous
 62
     2
370
     9
100
AcDbLine
 10
504.1562879407729
 20
430.7444145239161
 30
0.0
 11
509.2811378272805
 21
425.6195646374084
 31
0.0
  0
LINE
  5
20B
330
1F
100
AcDbEntity
  8
D-A
  6
Continuous
 62
     2
370
     9
100
AcDbLine
 10
509.2811378272805
 20
446.1194590630842
 30
0.0
 11
509.2811378272805
 21
425.6195646374084
 31
0.0
  0
LINE
  5
20C
330
1F
100
AcDbEntity
  8
D-A
  6
Continuous
 62
     2
370
     9
100
AcDbLine
 10
510.031251649599
 20
425.6195646374084
 30
0.0
 11
509.2811378272805
 21
425.6195646374084
 31
0.0
  0
LINE
  5
20D
330
1F
100
AcDbEntity
  8
D-A
  6
Continuous
 62
     2
370
     9
100
AcDbLine
 10
504.1562879407729
 20
440.9944854566652
 30
0.0
 11
489.1979320629224
 21
440.9944854566652
 31
0.0
  0
LINE
  5
20E
330
1F
100
AcDbEntity
  8
D-A
  6
Continuous
 62
     2
370
     9
100
AcDbLine
 10
504.1562879407729
 20
430.7444145239161
 30
0.0
 11
489.1979320629224
 21
430.7444145239161
 31
0.0
  0
LINE
  5
20F
330
1F
100
AcDbEntity
  8
D-A
  6
Continuous
 62
     2
370
     9
100
AcDbLine
 10
489.1979320629224
 20
430.7444145239161
 30
0.0
 11
447.5312928895693
 21
435.869388130335
 31
0.0
  0
LINE
  5
210
330
1F
100
AcDbEntity
  8
D-A
  6
Continuous
 62
     2
370
     9
100
AcDbLine
 10
447.5312928895693
 20
435.869388130335
 30
0.0
 11
489.1979320629224
 21
440.9944854566652
 31
0.0
  0
LINE
  5
211
330
1F
100
AcDbEntity
  8
D-A
  6
Continuous
 62
     2
370
     9
100
AcDbLine
 10
451.0663419156461
 20
434.1751676647522
 30
0.0
 11
451.6770233979096
 21
437.6387065820875
 31
0.0
  0
LINE
  5
212
330
1F
100
AcDbEntity
  8
D-A
  6
Continuous
 62
     2
370
     9
100
AcDbLine
 10
455.4707707585516
 20
433.6333981730925
 30
0.0
 11
456.2768059807857
 21
438.2046014564542
 31
0.0
  0
LINE
  5
213
330
1F
100
AcDbEntity
  8
D-A
  6
Continuous
 62
     2
370
     9
100
AcDbLine
 10
486.3021438186234
 20
429.8411354513865
 30
0.0
 11
488.4751603410052
 21
442.1649995376407
 31
0.0
  0
LINE
  5
214
330
1F
100
AcDbEntity
  8
D-A
  6
Continuous
 62
     2
370
     9
100
AcDbLine
 10
481.897714975718
 20
430.3829049430462
 30
0.0
 11
483.8753777581294
 21
441.5993521030969
 31
0.0
  0
LINE
  5
215
330
1F
100
AcDbEntity
  8
D-A
  6
Continuous
 62
     2
370
     9
100
AcDbLine
 10
477.4931624129013
 20
430.9245507147945
 30
0.0
 11
479.2757188951649
 21
441.0334572287303
 31
0.0
  0
LINE
  5
216
330
1F
100
AcDbEntity
  8
D-A
  6
Continuous
 62
     2
370
     9
100
AcDbLine
 10
473.0887335699958
 20
431.4664439263655
 30
0.0
 11
474.6759363122888
 21
440.4678097941863
 31
0.0
  0
LINE
  5
217
330
1F
100
AcDbEntity
  8
D-A
  6
Continuous
 62
     2
370
     9
100
AcDbLine
 10
468.6841810071792
 20
432.008213418025
 30
0.0
 11
470.076153729413
 21
439.9019149198198
 31
0.0
  0
LINE
  5
218
330
1F
100
AcDbEntity
  8
D-A
  6
Continuous
 62
     2
370
     9
100
AcDbLine
 10
464.2797521642737
 20
432.5499829096846
 30
0.0
 11
465.4763711465372
 21
439.3361437653646
 31
0.0
  0
LINE
  5
219
330
1F
100
AcDbEntity
  8
D-A
  6
Continuous
 62
     2
370
     9
100
AcDbLine
 10
459.8753233213682
 20
433.0916286814329
 30
0.0
 11
460.8767122835727
 21
438.7703726109094
 31
0.0
  0
LINE
  5
21A
330
1F
100
AcDbEntity
  8
D-0
  6
JWW_CENTER1
 62
     4
370
     9
100
AcDbLine
 10
445.3346458641261
 20
435.869388130335
 30
0.0
 11
511.3567867794552
 21
435.869388130335
 31
0.0
  0
LINE
  5
21B
330
1F
100
AcDbEntity
  8
D-0
  6
Continuous
 62
     4
370
     9
100
AcDbLine
 10
505.0311114336995
 20
407.8697164004997
 30
0.0
 11
460.0310866897172
 21
407.8697164004997
 31
0.0
  0
LINE
  5
21C
330
1F
100
AcDbEntity
  8
D-0
  6
Continuous
 62
     4
370
     9
100
AcDbLine
 10
447.7810833905195
 20
401.6195102006475
 30
0.0
 11
447.7810833905195
 21
396.6194937046594
 31
0.0
  0
LINE
  5
21D
330
1F
100
AcDbEntity
  8
D-0
  6
Continuous
 62
     4
370
     9
100
AcDbLine
 10
437.2810982369089
 20
401.6195102006475
 30
0.0
 11
437.2810982369089
 21
396.6194937046594
 31
0.0
  0
LINE
  5
21E
330
1F
100
AcDbEntity
  8
D-A
  6
Continuous
 62
     2
370
     9
100
AcDbLine
 10
433.7811856656461
 20
394.5485461091146
 30
0.0
 11
433.7811856656461
 21
396.6194937046594
 31
0.0
  0
LINE
  5
21F
330
1F
100
AcDbEntity
  8
D-A
  6
Continuous
 62
     2
370
     9
100
AcDbLine
 10
451.2811196816935
 20
394.5485461091146
 30
0.0
 11
451.2811196816935
 21
396.6194937046594
 31
0.0
  0
LINE
  5
220
330
1F
100
AcDbEntity
  8
D-A
  6
Continuous
 62
     2
370
     9
100
AcDbLine
 10
441.2061124234586
 20
393.6195332950309
 30
0.0
 11
443.8560692039698
 21
393.6195332950309
 31
0.0
  0
LINE
  5
221
330
1F
100
AcDbEntity
  8
D-A
  6
Continuous
 62
     2
370
     9
100
AcDbLine
 10
441.2061124234586
 20
390.1585924958333
 30
0.0
 11
441.2061124234586
 21
393.6195332950309
 31
0.0
  0
LINE
  5
222
330
1F
100
AcDbEntity
  8
D-A
  6
Continuous
 62
     2
370
     9
100
AcDbLine
 10
449.2986318227409
 20
398.2538337331644
 30
0.0
 11
436.2635019663219
 21
403.5861619109515
 31
0.0
  0
LINE
  5
223
330
1F
100
AcDbEntity
  8
D-A
  6
Continuous
 62
     2
370
     9
100
AcDbLine
 10
449.2986318227409
 20
402.8915983288147
 30
0.0
 11
436.2635019663219
 21
408.2240502265132
 31
0.0
  0
LINE
  5
224
330
1F
100
AcDbEntity
  8
D-A
  6
Continuous
 62
     2
370
     9
100
AcDbLine
 10
449.2986318227409
 20
407.5292392045537
 30
0.0
 11
436.2635019663219
 21
412.8619385420748
 31
0.0
  0
LINE
  5
225
330
1F
100
AcDbEntity
  8
D-A
  6
Continuous
 62
     2
370
     9
100
AcDbLine
 10
449.2986318227409
 20
412.1670038002042
 30
0.0
 11
435.7811180320948
 21
417.6969126763655
 31
0.0
  0
LINE
  5
226
330
1F
100
AcDbEntity
  8
D-A
  6
Continuous
 62
     2
370
     9
100
AcDbLine
 10
442.5311526736698
 20
436.6193782327422
 30
0.0
 11
447.5311691696581
 21
424.5482739253096
 31
0.0
  0
LINE
  5
227
330
1F
100
AcDbEntity
  8
D-A
  6
Continuous
 62
     2
370
     9
100
AcDbLine
 10
447.5311691696581
 20
396.6194937046594
 30
0.0
 11
447.5311691696581
 21
424.5482739253096
 31
0.0
  0
LINE
  5
228
330
1F
100
AcDbEntity
  8
D-A
  6
Continuous
 62
     2
370
     9
100
AcDbLine
 10
437.5311361776818
 20
396.6194937046594
 30
0.0
 11
437.5311361776818
 21
424.5482739253096
 31
0.0
  0
LINE
  5
229
330
1F
100
AcDbEntity
  8
D-A
  6
Continuous
 62
     2
370
     9
100
AcDbLine
 10
442.5311526736698
 20
436.6193782327422
 30
0.0
 11
437.5311361776818
 21
424.5482739253096
 31
0.0
  0
LINE
  5
22A
330
1F
100
AcDbEntity
  8
D-A
  6
Continuous
 62
     2
370
     9
100
AcDbLine
 10
447.8981224266261
 20
428.2350035626618
 30
0.0
 11
438.7193422059755
 21
431.98990287115
 31
0.0
  0
LINE
  5
22B
330
1F
100
AcDbEntity
  8
D-A
  6
Continuous
 62
     2
370
     9
100
AcDbLine
 10
449.2811873152451
 20
424.2439229434684
 30
0.0
 11
437.5061447555956
 21
429.0608339707066
 31
0.0
  0
LINE
  5
22C
330
1F
100
AcDbEntity
  8
D-A
  6
Continuous
 62
     2
370
     9
100
AcDbLine
 10
449.2811873152451
 20
420.8182423189963
 30
0.0
 11
436.2926998653927
 21
426.1315176304406
 31
0.0
  0
LINE
  5
22D
330
1F
100
AcDbEntity
  8
D-A
  6
Continuous
 62
     2
370
     9
100
AcDbLine
 10
449.2811873152451
 20
416.8121915905334
 30
0.0
 11
435.7811180320948
 21
422.3346772720157
 31
0.0
  0
LINE
  5
22E
330
1F
100
AcDbEntity
  8
D-A
  6
Continuous
 62
     2
370
     9
100
AcDbLine
 10
446.1897978911529
 20
432.3594542462556
 30
0.0
 11
439.9326633762669
 21
434.9190954915048
 31
0.0
  0
LINE
  5
22F
330
1F
100
AcDbEntity
  8
D-A
  6
Continuous
 62
     2
370
     9
100
AcDbLine
 10
443.8560692039698
 20
390.158468775922
 30
0.0
 11
443.8560692039698
 21
393.6195332950309
 31
0.0
  0
LINE
  5
230
330
1F
100
AcDbEntity
  8
D-0
  6
Continuous
 62
     4
370
     9
100
AcDbLine
 10
460.0310866897172
 20
401.6195102006475
 30
0.0
 11
447.5311691696581
 21
401.6195102006475
 31
0.0
  0
LINE
  5
231
330
1F
100
AcDbEntity
  8
D-0
  6
Continuous
 62
     4
370
     9
100
AcDbLine
 10
437.5311361776818
 20
401.6195102006475
 30
0.0
 11
430.0308639938768
 21
401.6195102006475
 31
0.0
  0
LINE
  5
232
330
1F
100
AcDbEntity
  8
D-0
  6
JWW_CENTER1
 62
     4
370
     9
100
AcDbLine
 10
442.5311526736698
 20
439.4983405691019
 30
0.0
 11
442.5311526736698
 21
389.6194211223113
 31
0.0
  0
LINE
  5
233
330
1F
100
AcDbEntity
  8
D-0
  6
Continuous
 62
     4
370
     9
100
AcDbLine
 10
510.0311279296875
 20
447.119487106264
 30
0.0
 11
510.0311279296875
 21
400.8693963783292
 31
0.0
  0
LINE
  5
234
330
1F
100
AcDbEntity
  8
D-0
  6
Continuous
 62
     4
370
     9
100
AcDbLine
 10
512.5312598975929
 20
452.1195036022522
 30
0.0
 11
512.5312598975929
 21
448.3695530902168
 31
0.0
  0
LINE
  5
235
330
1F
100
AcDbEntity
  8
D-0
  6
Continuous
 62
     4
370
     9
100
AcDbLine
 10
512.5312598975929
 20
448.3695530902168
 30
0.0
 11
510.0311279296875
 21
447.119487106264
 31
0.0
  0
LINE
  5
236
330
1F
100
AcDbEntity
  8
D-0
  6
Continuous
 62
     4
370
     9
100
AcDbLine
 10
482.5312846415753
 20
452.1195036022522
 30
0.0
 11
505.0311114336995
 21
452.1195036022522
 31
0.0
  0
LINE
  5
237
330
1F
100
AcDbEntity
  8
D-0
  6
Continuous
 62
     4
370
     9
100
AcDbLine
 10
505.0311114336995
 20
452.1195036022522
 30
0.0
 11
505.0311114336995
 21
441.8693089495918
 31
0.0
  0
LINE
  5
238
330
1F
100
AcDbEntity
  8
D-0
  6
Continuous
 62
     4
370
     9
100
AcDbLine
 10
505.0311114336995
 20
429.8694673110782
 30
0.0
 11
505.0311114336995
 21
407.8697164004997
 31
0.0
  0
LINE
  5
239
330
1F
100
AcDbEntity
  8
D-B
  6
Continuous
 62
     7
370
     9
100
AcDbLine
 10
492.9488723342484
 20
415.8696933061162
 30
0.0
 11
487.948732118349
 21
420.8697098021044
 31
0.0
  0
LINE
  5
23A
330
1F
100
AcDbEntity
  8
D-B
  6
Continuous
 62
     7
370
     9
100
AcDbLine
 10
482.342240617082
 20
415.8696933061162
 30
0.0
 11
477.3422241210938
 21
420.8697098021044
 31
0.0
  0
LINE
  5
23B
330
1F
100
AcDbEntity
  8
D-B
  6
Continuous
 62
     7
370
     9
100
AcDbLine
 10
487.6456183356208
 20
415.8696933061162
 30
0.0
 11
482.6454781197214
 21
420.8697098021044
 31
0.0
  0
LINE
  5
23C
330
1F
100
AcDbEntity
  8
D-3
  6
Continuous
 62
     3
370
     9
100
AcDbLine
 10
432.5311196816935
 20
415.8696933061162
 30
0.0
 11
432.5311196816935
 21
407.8697164004997
 31
0.0
  0
LINE
  5
23D
330
1F
100
AcDbEntity
  8
D-3
  6
Continuous
 62
     3
370
     9
100
AcDbLine
 10
452.5311856656461
 20
415.8696933061162
 30
0.0
 11
452.5311856656461
 21
407.8697164004997
 31
0.0
  0
LINE
  5
23E
330
1F
100
AcDbEntity
  8
D-3
  6
Continuous
 62
     3
370
     9
100
AcDbLine
 10
501.2810372017526
 20
415.8696933061162
 30
0.0
 11
447.5311691696581
 21
415.8696933061162
 31
0.0
  0
LINE
  5
23F
330
1F
100
AcDbEntity
  8
D-3
  6
Continuous
 62
     3
370
     9
100
AcDbLine
 10
460.0310866897172
 20
407.8697164004997
 30
0.0
 11
447.5311691696581
 21
407.8697164004997
 31
0.0
  0
LINE
  5
240
330
1F
100
AcDbEntity
  8
D-B
  6
Continuous
 62
     7
370
     9
100
AcDbLine
 10
501.2810372017526
 20
420.8697098021044
 30
0.0
 11
447.5311691696581
 21
420.8697098021044
 31
0.0
  0
LINE
  5
241
330
1F
100
AcDbEntity
  8
D-B
  6
Continuous
 62
     7
370
     9
100
AcDbLine
 10
450.5225929054055
 20
415.8696933061162
 30
0.0
 11
447.5311691696581
 21
418.8611170418637
 31
0.0
  0
LINE
  5
242
330
1F
100
AcDbEntity
  8
D-B
  6
Continuous
 62
     7
370
     9
100
AcDbLine
 10
437.5311361776818
 20
418.2545183166736
 30
0.0
 11
434.9159446922511
 21
420.8697098021044
 31
0.0
  0
LINE
  5
243
330
1F
100
AcDbEntity
  8
D-B
  6
Continuous
 62
     7
370
     9
100
AcDbLine
 10
501.2810372017526
 20
429.6194293703054
 30
0.0
 11
445.4306525153083
 21
429.6194293703054
 31
0.0
  0
LINE
  5
244
330
1F
100
AcDbEntity
  8
D-4
  6
Continuous
 62
     7
370
     9
100
AcDbLine
 10
389.997080210093
 20
479.4514589707066
 30
0.0
 11
317.9941950617609
 21
479.4514589707066
 31
0.0
  0
LINE
  5
245
330
1F
100
AcDbEntity
  8
D-4
  6
Continuous
 62
     7
370
     9
100
AcDbLine
 10
354.2678833007812
 20
420.8697098021044
 30
0.0
 11
389.997080210093
 21
479.4514589707066
 31
0.0
  0
LINE
  5
246
330
1F
100
AcDbEntity
  8
D-B
  6
Continuous
 62
     7
370
     9
100
AcDbLine
 10
482.5312846415753
 20
452.1195036022522
 30
0.0
 11
420.1936464051943
 21
452.1195036022522
 31
0.0
  0
LINE
  5
247
330
1F
100
AcDbEntity
  8
D-B
  6
Continuous
 62
     7
370
     9
100
AcDbLine
 10
501.2810372017526
 20
444.61947885827
 30
0.0
 11
415.61935012405
 21
444.61947885827
 31
0.0
  0
LINE
  5
248
330
1F
100
AcDbEntity
  8
D-B
  6
Continuous
 62
     7
370
     9
100
AcDbLine
 10
457.6940175649284
 20
437.1194541142877
 30
0.0
 11
411.0450538429055
 21
437.1194541142877
 31
0.0
  0
LINE
  5
249
330
1F
100
AcDbEntity
  8
D-B
  6
Continuous
 62
     7
370
     9
100
AcDbLine
 10
439.6316528320312
 20
429.6194293703054
 30
0.0
 11
406.4707575617609
 21
429.6194293703054
 31
0.0
  0
LINE
  5
24A
330
1F
100
AcDbEntity
  8
D-4
  6
Continuous
 62
     7
370
     9
100
AcDbLine
 10
354.2678833007812
 20
420.8697098021044
 30
0.0
 11
359.3280276736698
 21
432.2996975290891
 31
0.0
  0
LINE
  5
24B
330
1F
100
AcDbEntity
  8
D-4
  6
Continuous
 62
     7
370
     9
100
AcDbLine
 10
354.2678833007812
 20
420.8697098021044
 30
0.0
 11
362.1138289168076
 21
430.6006519869651
 31
0.0
  0
LINE
  5
24C
330
1F
100
AcDbEntity
  8
D-4
  6
Continuous
 62
     7
370
     9
100
AcDbLine
 10
388.7517155827703
 20
415.8696933061162
 30
0.0
 11
393.8118599556589
 21
427.299681033101
 31
0.0
  0
LINE
  5
24D
330
1F
100
AcDbEntity
  8
D-4
  6
Continuous
 62
     7
370
     9
100
AcDbLine
 10
388.7517155827703
 20
415.8696933061162
 30
0.0
 11
396.5976611987966
 21
425.6006354909769
 31
0.0
  0
LINE
  5
24E
330
1F
100
AcDbEntity
  8
D-4
  6
Continuous
 62
     7
370
     9
100
AcDbLine
 10
388.7517155827703
 20
415.8696933061162
 30
0.0
 11
520.6665863861908
 21
632.1575227310001
 31
0.0
  0
LINE
  5
24F
330
1F
100
AcDbEntity
  8
D-B
  6
Continuous
 62
     7
370
     9
100
AcDbLine
 10
437.5311361776818
 20
420.8697098021044
 30
0.0
 11
401.1343466269005
 21
420.8697098021044
 31
0.0
  0
LINE
  5
250
330
1F
100
AcDbEntity
  8
D-B
  6
Continuous
 62
     7
370
     9
100
AcDbLine
 10
402.7930594779352
 20
415.8696933061162
 30
0.0
 11
399.868444494299
 21
418.7943082897522
 31
0.0
  0
LINE
  5
251
330
1F
100
AcDbEntity
  8
D-B
  6
Continuous
 62
     7
370
     9
100
AcDbLine
 10
383.5647583007812
 20
420.8697098021044
 30
0.0
 11
317.530987713788
 21
420.8697098021044
 31
0.0
  0
LINE
  5
252
330
1F
100
AcDbEntity
  8
D-B
  6
Continuous
 62
     7
370
     9
100
AcDbLine
 10
382.9277244774073
 20
419.8252663107615
 30
0.0
 11
381.8832809860643
 21
420.8697098021044
 31
0.0
  0
LINE
  5
253
330
1F
100
AcDbEntity
  8
D-B
  6
Continuous
 62
     7
370
     9
100
AcDbLine
 10
402.6240580790753
 20
452.1195036022522
 30
0.0
 11
380.6479376715583
 21
452.1195036022522
 31
0.0
  0
LINE
  5
254
330
1F
100
AcDbEntity
  8
D-B
  6
Continuous
 62
     7
370
     9
100
AcDbLine
 10
366.0064284865922
 20
452.1195036022522
 30
0.0
 11
342.5310701937289
 21
452.1195036022522
 31
0.0
  0
LINE
  5
255
330
1F
100
AcDbEntity
  8
D-B
  6
Continuous
 62
     7
370
     9
100
AcDbLine
 10
398.0497617979307
 20
444.61947885827
 30
0.0
 11
376.0736413904138
 21
444.61947885827
 31
0.0
  0
LINE
  5
256
330
1F
100
AcDbEntity
  8
D-B
  6
Continuous
 62
     7
370
     9
100
AcDbLine
 10
393.4754655167865
 20
437.1194541142877
 30
0.0
 11
371.4993451092695
 21
437.1194541142877
 31
0.0
  0
LINE
  5
257
330
1F
100
AcDbEntity
  8
D-B
  6
Continuous
 62
     7
370
     9
100
AcDbLine
 10
388.9011692356419
 20
429.6194293703054
 30
0.0
 11
366.925048828125
 21
429.6194293703054
 31
0.0
  0
LINE
  5
258
330
1F
100
AcDbEntity
  8
D-B
  6
Continuous
 62
     7
370
     9
100
AcDbLine
 10
352.28366336307
 20
429.6194293703054
 30
0.0
 11
323.7813176335516
 21
429.6194293703054
 31
0.0
  0
LINE
  5
259
330
1F
100
AcDbEntity
  8
D-4
  6
Continuous
 62
     7
370
     9
100
AcDbLine
 10
509.4060949377112
 20
454.6194499902906
 30
0.0
 11
514.4662393105998
 21
466.0494377172755
 31
0.0
  0
LINE
  5
25A
330
1F
100
AcDbEntity
  8
D-4
  6
Continuous
 62
     7
370
     9
100
AcDbLine
 10
509.4060949377112
 20
454.6194499902906
 30
0.0
 11
517.2520405537375
 21
464.3503303151957
 31
0.0
  0
ARC
  5
25B
330
1F
100
AcDbEntity
  8
D-5
  6
Continuous
 62
     7
370
     9
100
AcDbCircle
 10
482.5317795212206
 20
413.3695613382109
 30
0.0
 40
37.50000386624723
100
AcDbArc
 50
248.4898071289062
 51
291.5101928710938
  0
ARC
  5
25C
330
1F
100
AcDbEntity
  8
D-5
  6
Continuous
 62
     7
370
     9
100
AcDbCircle
 10
482.5317795212206
 20
413.3695613382109
 30
0.0
 40
35.50000190734863
100
AcDbArc
 50
257.8034057617188
 51
282.1965942382812
  0
ARC
  5
25D
330
1F
100
AcDbEntity
  8
D-1
  6
Continuous
 62
     2
370
     9
100
AcDbCircle
 10
496.2815155854096
 20
384.6197757860571
 30
0.0
 40
2.500003415185052
100
AcDbArc
 50
90.0
 51
270.0
  0
ARC
  5
25E
330
1F
100
AcDbEntity
  8
D-1
  6
Continuous
 62
     2
370
     9
100
AcDbCircle
 10
468.7815485773859
 20
384.6197757860571
 30
0.0
 40
2.500003415185052
100
AcDbArc
 50
270.0
 51
90.0
  0
ARC
  5
25F
330
1F
100
AcDbEntity
  8
D-1
  6
Continuous
 62
     2
370
     9
100
AcDbCircle
 10
504.406449601457
 20
379.6196355701576
 30
0.0
 40
2.500000032218727
100
AcDbArc
 50
90.0
 51
180.0
  0
ARC
  5
260
330
1F
100
AcDbEntity
  8
D-1
  6
Continuous
 62
     2
370
     9
100
AcDbCircle
 10
460.6561196816935
 20
379.6196355701576
 30
0.0
 40
2.500000032218727
100
AcDbArc
 50
0.0
 51
90.0
  0
ARC
  5
261
330
1F
100
AcDbEntity
  8
D-1
  6
Continuous
 62
     2
370
     9
100
AcDbCircle
 10
456.2811361776818
 20
379.6196355701576
 30
0.0
 40
2.500000032218727
100
AcDbArc
 50
90.0
 51
180.0
  0
ARC
  5
262
330
1F
100
AcDbEntity
  8
D-1
  6
Continuous
 62
     2
370
     9
100
AcDbCircle
 10
456.2811361776818
 20
358.3696273221635
 30
0.0
 40
2.500000032218727
100
AcDbArc
 50
180.0
 51
270.0
  0
ARC
  5
263
330
1F
100
AcDbEntity
  8
D-1
  6
Continuous
 62
     2
370
     9
100
AcDbCircle
 10
466.9066970412797
 20
358.3696273221635
 30
0.0
 40
2.500000032218727
100
AcDbArc
 50
270.0
 51
0.0
  0
ARC
  5
264
330
1F
100
AcDbEntity
  8
D-1
  6
Continuous
 62
     2
370
     9
100
AcDbCircle
 10
466.9066970412797
 20
360.8696355701576
 30
0.0
 40
2.500000032218727
100
AcDbArc
 50
0.0
 51
90.0
  0
ARC
  5
265
330
1F
100
AcDbEntity
  8
D-1
  6
Continuous
 62
     2
370
     9
100
AcDbCircle
 10
465.6563836175044
 20
365.8695283462345
 30
0.0
 40
2.500000032218727
100
AcDbArc
 50
180.0
 51
270.0
  0
ARC
  5
266
330
1F
100
AcDbEntity
  8
D-1
  6
Continuous
 62
     2
370
     9
100
AcDbCircle
 10
512.5313836175044
 20
379.6196355701576
 30
0.0
 40
2.500000032218727
100
AcDbArc
 50
0.0
 51
90.0
  0
ARC
  5
267
330
1F
100
AcDbEntity
  8
D-1
  6
Continuous
 62
     2
370
     9
100
AcDbCircle
 10
498.1566145613388
 20
367.1197180500985
 30
0.0
 40
3.75000004832809
100
AcDbArc
 50
270.0
 51
0.0
  0
ARC
  5
268
330
1F
100
AcDbEntity
  8
D-1
  6
Continuous
 62
     2
370
     9
100
AcDbCircle
 10
530.0313176335516
 20
359.6195695862049
 30
0.0
 40
2.500003415185052
100
AcDbArc
 50
0.0
 51
180.0
  0
ARC
  5
269
330
1F
100
AcDbEntity
  8
D-1
  6
Continuous
 62
     2
370
     9
100
AcDbCircle
 10
512.5313836175044
 20
358.3696273221635
 30
0.0
 40
2.500000032218727
100
AcDbArc
 50
270.0
 51
0.0
  0
ARC
  5
26A
330
1F
100
AcDbEntity
  8
D-1
  6
Continuous
 62
     2
370
     9
100
AcDbCircle
 10
498.1566145613388
 20
358.3696273221635
 30
0.0
 40
2.500000032218727
100
AcDbArc
 50
180.0
 51
270.0
  0
ARC
  5
26B
330
1F
100
AcDbEntity
  8
D-1
  6
Continuous
 62
     2
370
     9
100
AcDbCircle
 10
530.0313176335516
 20
399.6193303943764
 30
0.0
 40
2.500003415185052
100
AcDbArc
 50
180.0
 51
0.0
  0
ARC
  5
26C
330
1F
100
AcDbEntity
  8
D-1
  6
Continuous
 62
     2
370
     9
100
AcDbCircle
 10
525.0315485773859
 20
447.119487106264
 30
0.0
 40
5.000000064437454
100
AcDbArc
 50
90.0
 51
180.0
  0
ARC
  5
26D
330
1F
100
AcDbEntity
  8
D-1
  6
Continuous
 62
     2
370
     9
100
AcDbCircle
 10
495.6564825934333
 20
370.8694211223113
 30
0.0
 40
2.500000032218727
100
AcDbArc
 50
270.0
 51
0.0
  0
ARC
  5
26E
330
1F
100
AcDbEntity
  8
D-1
  6
Continuous
 62
     2
370
     9
100
AcDbCircle
 10
469.4065815693625
 20
370.8694211223113
 30
0.0
 40
2.500000032218727
100
AcDbArc
 50
180.0
 51
270.0
  0
ARC
  5
26F
330
1F
100
AcDbEntity
  8
D-A
  6
Continuous
 62
     2
370
     9
100
AcDbCircle
 10
482.5317795212206
 20
365.7703049773578
 30
0.0
 40
9.849169125428071
100
AcDbArc
 50
15.30145263671878
 51
164.6985473632813
  0
ARC
  5
270
330
1F
100
AcDbEntity
  8
D-A
  6
Continuous
 62
     2
370
     9
100
AcDbCircle
 10
437.5311361776818
 20
394.5485461091146
 30
0.0
 40
3.75000004832809
100
AcDbArc
 50
180.0
 51
254.5338897705078
  0
ARC
  5
271
330
1F
100
AcDbEntity
  8
D-A
  6
Continuous
 62
     2
370
     9
100
AcDbCircle
 10
447.5311691696581
 20
394.5485461091146
 30
0.0
 40
3.75000004832809
100
AcDbArc
 50
285.4661102294922
 51
0.0
  0
ARC
  5
272
330
1F
100
AcDbEntity
  8
D-A
  6
Continuous
 62
     2
370
     9
100
AcDbCircle
 10
442.5311526736698
 20
412.6194475158924
 30
0.0
 40
22.50000077324945
100
AcDbArc
 50
254.5339660644532
 51
266.6239776611328
  0
ARC
  5
273
330
1F
100
AcDbEntity
  8
D-A
  6
Continuous
 62
     2
370
     9
100
AcDbCircle
 10
442.5311526736698
 20
412.6194475158924
 30
0.0
 40
22.50000077324945
100
AcDbArc
 50
273.3760223388672
 51
285.4660186767578
  0
TEXT
  5
274
330
1F
100
AcDbEntity
  8
D-4
  6
Continuous
 62
     2
370
     9
100
AcDbText
 10
480.6566846692886
 20
134.0798316744651
 30
0.0
 40
15.24
  1
33
 41
1.0625
  7
ＭＳ ゴシック
100
AcDbText
  0
TEXT
  5
275
330
1F
100
AcDbEntity
  8
D-4
  6
Continuous
 62
     2
370
     9
100
AcDbText
 10
677.9791234031885
 20
382.9077437772417
 30
0.0
 40
15.24
  1
40
 50
90.0
 41
1.0625
  7
ＭＳ ゴシック
100
AcDbText
  0
TEXT
  5
276
330
1F
100
AcDbEntity
  8
D-4
  6
Continuous
 62
     2
370
     9
100
AcDbText
 10
320.2543433936867
 20
63.22321150449039
 30
0.0
 40
15.24
  1
断面詳細図　Ｓ＝１：２
 41
1.113636363636364
  7
ＭＳ ゴシック
100
AcDbText
  0
TEXT
  5
277
330
1F
100
AcDbEntity
  8
D-4
  6
Continuous
 62
     7
370
     9
100
AcDbText
 10
241.1626248746306
 20
28.89757304376402
 30
0.0
 40
11.43
  1
処理：陽極酸化塗装複合皮膜処理（アルミ材のみ）
 41
1.159420289855073
  7
ＭＳ ゴシック
100
AcDbText
  0
TEXT
  5
278
330
1F
100
AcDbEntity
  8
D-4
  6
Continuous
 62
     7
370
     9
100
AcDbText
 10
639.1463449839
 20
196.9322245165259
 30
0.0
 40
11.43
  1
木ネジ　φ４．１×２５
 41
1.151515151515152
  7
ＭＳ ゴシック
100
AcDbText
  0
TEXT
  5
279
330
1F
100
AcDbEntity
  8
D-4
  6
Continuous
 62
     2
370
     9
100
AcDbText
 10
677.9791234031885
 20
462.5682542785878
 30
0.0
 40
15.24
  1
2
 50
90.0
 41
0.9999999999999998
  7
ＭＳ ゴシック
100
AcDbText
  0
TEXT
  5
27A
330
1F
100
AcDbEntity
  8
D-4
  6
Continuous
 62
     2
370
     9
100
AcDbText
 10
719.9679292256125
 20
382.9077437772417
 30
0.0
 40
15.24
  1
42
 50
90.0
 41
1.0625
  7
ＭＳ ゴシック
100
AcDbText
  0
TEXT
  5
27B
330
1F
100
AcDbEntity
  8
D-4
  6
Continuous
 62
     7
370
     9
100
AcDbText
 10
319.0378838616449
 20
485.0775063339879
 30
0.0
 40
11.43
  1
接着シロ
 41
1.125
  7
ＭＳ ゴシック
100
AcDbText
  0
LWPOLYLINE
  5
27C
330
1F
100
AcDbEntity
  8
D-4
  6
Continuous
 62
     7
370
     9
100
AcDbPolyline
 90
        4
 70
     1
 43
0.5
 10
450.2815485773859
 20
128.2598712648367
 42
0.4142135623731
 10
450.0315485773859
 20
128.5098712648367
 42
0.4142135623731
 10
449.7815485773859
 20
128.2598712648367
 42
0.4142135623731
 10
450.0315485773859
 20
128.0098712648367
 42
0.4142135623731
  0
LWPOLYLINE
  5
27D
330
1F
100
AcDbEntity
  8
D-4
  6
Continuous
 62
     7
370
     9
100
AcDbPolyline
 90
        4
 70
     1
 43
0.5
 10
532.781449601457
 20
128.2598712648367
 42
0.4142135623731
 10
532.5314496014571
 20
128.5098712648367
 42
0.4142135623731
 10
532.2814496014571
 20
128.2598712648367
 42
0.4142135623731
 10
532.5314496014571
 20
128.0098712648367
 42
0.4142135623731
  0
LWPOLYLINE
  5
27E
330
1F
100
AcDbEntity
  8
D-4
  6
Continuous
 62
     7
370
     9
100
AcDbPolyline
 90
        4
 70
     1
 43
0.5
 10
684.049083812817
 20
352.1194211223113
 42
0.4142135623731
 10
683.7990838128169
 20
352.3694211223113
 42
0.4142135623731
 10
683.5490838128169
 20
352.1194211223113
 42
0.4142135623731
 10
683.7990838128169
 20
351.8694211223113
 42
0.4142135623731
  0
LWPOLYLINE
  5
27F
330
1F
100
AcDbEntity
  8
D-4
  6
Continuous
 62
     7
370
     9
100
AcDbPolyline
 90
        4
 70
     1
 43
0.5
 10
684.049083812817
 20
452.1196273221635
 42
0.4142135623731
 10
683.7990838128169
 20
452.3696273221635
 42
0.4142135623731
 10
683.5490838128169
 20
452.1196273221635
 42
0.4142135623731
 10
683.7990838128169
 20
451.8696273221635
 42
0.4142135623731
  0
LWPOLYLINE
  5
280
330
1F
100
AcDbEntity
  8
D-4
  6
Continuous
 62
     7
370
     9
100
AcDbPolyline
 90
        4
 70
     1
 43
0.5
 10
684.049083812817
 20
457.1195200982405
 42
0.4142135623731
 10
683.7990838128169
 20
457.3695200982405
 42
0.4142135623731
 10
683.5490838128169
 20
457.1195200982405
 42
0.4142135623731
 10
683.7990838128169
 20
456.8695200982405
 42
0.4142135623731
  0
LWPOLYLINE
  5
281
330
1F
100
AcDbEntity
  8
D-4
  6
Continuous
 62
     7
370
     9
100
AcDbPolyline
 90
        4
 70
     1
 43
0.5
 10
726.037889635241
 20
352.1194211223113
 42
0.4142135623731
 10
725.7878896352408
 20
352.3694211223113
 42
0.4142135623731
 10
725.5378896352408
 20
352.1194211223113
 42
0.4142135623731
 10
725.7878896352408
 20
351.8694211223113
 42
0.4142135623731
  0
LWPOLYLINE
  5
282
330
1F
100
AcDbEntity
  8
D-4
  6
Continuous
 62
     7
370
     9
100
AcDbPolyline
 90
        4
 70
     1
 43
0.5
 10
726.037889635241
 20
457.1195200982405
 42
0.4142135623731
 10
725.7878896352408
 20
457.3695200982405
 42
0.4142135623731
 10
725.5378896352408
 20
457.1195200982405
 42
0.4142135623731
 10
725.7878896352408
 20
456.8695200982405
 42
0.4142135623731
  0
TEXT
  5
283
330
1F
100
AcDbEntity
  8
D-4
  6
Continuous
 62
     2
370
     9
100
AcDbText
 10
139.8412261138092
 20
134.0798316744651
 30
0.0
 40
15.24
  1
□550
 41
1.1
  7
ＭＳ ゴシック
100
AcDbText
  0
TEXT
  5
284
330
1F
100
AcDbEntity
  8
D-4
  6
Continuous
 62
     7
370
     9
100
AcDbText
 10
587.9628078452362
 20
580.0320404866286
 30
0.0
 40
11.43
  1
蓋フレーム（Ａ６０６３Ｓ－Ｔ５）
 50
0.0000255446035848
 41
1.15625
  7
ＭＳ ゴシック
100
AcDbText
  0
TEXT
  5
285
330
1F
100
AcDbEntity
  8
D-4
  6
Continuous
 62
     7
370
     9
100
AcDbText
 10
613.9486915214877
 20
541.1250357951586
 30
0.0
 40
11.43
  1
アルミ受枠（Ａ６０６３Ｓ－Ｔ５）
 41
1.15625
  7
ＭＳ ゴシック
100
AcDbText
  0
LINE
  5
286
330
1F
100
AcDbEntity
  8
D-4
  6
Continuous
 62
     7
370
     9
100
AcDbLine
 10
866.4028574183417
 20
576.114936258366
 30
0.0
 11
583.5065610355939
 21
576.114936258366
 31
0.0
  0
LINE
  5
287
330
1F
100
AcDbEntity
  8
D-4
  6
Continuous
 62
     7
370
     9
100
AcDbLine
 10
509.4060949377112
 20
454.6194499902906
 30
0.0
 11
583.5065610355939
 21
576.114936258366
 31
0.0
  0
LINE
  5
288
330
1F
100
AcDbEntity
  8
D-4
  6
Continuous
 62
     7
370
     9
100
AcDbLine
 10
526.4983718459672
 20
407.11947885827
 30
0.0
 11
605.3621139926997
 21
536.424351508577
 31
0.0
  0
LINE
  5
289
330
1F
100
AcDbEntity
  8
D-4
  6
Continuous
 62
     7
370
     9
100
AcDbLine
 10
878.7721267120494
 20
536.424351508577
 30
0.0
 11
605.3621139926997
 21
536.424351508577
 31
0.0
  0
LINE
  5
28A
330
1F
100
AcDbEntity
  8
D-4
  6
Continuous
 62
     7
370
     9
100
AcDbLine
 10
138.8626098632812
 20
540.7345467445883
 30
0.0
 11
545.0311196816936
 21
540.7345467445883
 31
0.0
  0
LINE
  5
28B
330
1F
100
AcDbEntity
  8
D-4
  6
Continuous
 62
     7
370
     9
100
AcDbLine
 10
512.5312598975929
 20
466.7052151072141
 30
0.0
 11
512.5312598975929
 21
542.2345269494026
 31
0.0
  0
LINE
  5
28C
330
1F
100
AcDbEntity
  8
D-4
  6
Continuous
 62
     7
370
     9
100
AcDbLine
 10
515.031268145587
 20
466.7052151072141
 30
0.0
 11
515.031268145587
 21
542.2345269494026
 31
0.0
  0
LINE
  5
28D
330
1F
100
AcDbEntity
  8
D-4
  6
Continuous
 62
     7
370
     9
100
AcDbLine
 10
545.0311196816936
 20
466.7052151072141
 30
0.0
 11
545.0311196816936
 21
583.2327693018625
 31
0.0
  0
LINE
  5
28E
330
1F
100
AcDbEntity
  8
D-4
  6
Continuous
 62
     7
370
     9
100
AcDbLine
 10
138.8626098632812
 20
581.7329128169596
 30
0.0
 11
545.0311196816936
 21
581.7329128169596
 31
0.0
  0
TEXT
  5
28F
330
1F
100
AcDbEntity
  8
D-4
  6
Continuous
 62
     2
370
     9
100
AcDbText
 10
497.7805225269215
 20
546.0545549925824
 30
0.0
 40
15.24
  1
1
 41
0.9999999999999998
  7
ＭＳ ゴシック
100
AcDbText
  0
TEXT
  5
290
330
1F
100
AcDbEntity
  8
D-4
  6
Continuous
 62
     2
370
     9
100
AcDbText
 10
519.406255773596
 20
546.0545549925824
 30
0.0
 40
15.24
  1
12
 41
1.0625
  7
ＭＳ ゴシック
100
AcDbText
  0
LWPOLYLINE
  5
291
330
1F
100
AcDbEntity
  8
D-4
  6
Continuous
 62
     7
370
     9
100
AcDbPolyline
 90
        4
 70
     1
 43
0.5
 10
512.7812598975929
 20
540.7345467445883
 42
0.4142135623731
 10
512.5312598975929
 20
540.9845467445883
 42
0.4142135623731
 10
512.281259897593
 20
540.7345467445883
 42
0.4142135623731
 10
512.5312598975929
 20
540.4845467445884
 42
0.4142135623731
  0
LWPOLYLINE
  5
292
330
1F
100
AcDbEntity
  8
D-4
  6
Continuous
 62
     7
370
     9
100
AcDbPolyline
 90
        4
 70
     1
 43
0.5
 10
515.281268145587
 20
540.7345467445883
 42
0.4142135623731
 10
515.031268145587
 20
540.9845467445883
 42
0.4142135623731
 10
514.781268145587
 20
540.7345467445883
 42
0.4142135623731
 10
515.031268145587
 20
540.4845467445884
 42
0.4142135623731
  0
LWPOLYLINE
  5
293
330
1F
100
AcDbEntity
  8
D-4
  6
Continuous
 62
     7
370
     9
100
AcDbPolyline
 90
        4
 70
     1
 43
0.5
 10
545.2811196816934
 20
540.7345467445883
 42
0.4142135623731
 10
545.0311196816936
 20
540.9845467445883
 42
0.4142135623731
 10
544.7811196816936
 20
540.7345467445883
 42
0.4142135623731
 10
545.0311196816936
 20
540.4845467445884
 42
0.4142135623731
  0
LWPOLYLINE
  5
294
330
1F
100
AcDbEntity
  8
D-4
  6
Continuous
 62
     7
370
     9
100
AcDbPolyline
 90
        4
 70
     1
 43
0.5
 10
545.2811196816934
 20
581.7329128169596
 42
0.4142135623731
 10
545.0311196816936
 20
581.9829128169596
 42
0.4142135623731
 10
544.7811196816936
 20
581.7329128169596
 42
0.4142135623731
 10
545.0311196816936
 20
581.4829128169596
 42
0.4142135623731
  0
TEXT
  5
295
330
1F
100
AcDbEntity
  8
D-4
  6
Continuous
 62
     2
370
     9
100
AcDbText
 10
139.8412207462951
 20
546.0545549925616
 30
0.0
 40
15.24
  1
□600
 50
0.0001090558824
 41
1.1
  7
ＭＳ ゴシック
100
AcDbText
  0
TEXT
  5
296
330
1F
100
AcDbEntity
  8
D-4
  6
Continuous
 62
     2
370
     9
100
AcDbText
 10
139.0004148615257
 20
587.6621797681851
 30
0.0
 40
15.24
  1
□626
 50
0.0002181117649
 41
1.1
  7
ＭＳ ゴシック
100
AcDbText
  0
LINE
  5
297
330
1F
100
AcDbEntity
  8
D-4
  6
Continuous
 62
     7
370
     9
100
AcDbLine
 10
275.0312186576227
 20
508.4142901044018
 30
0.0
 11
512.5312598975929
 21
508.4142901044018
 31
0.0
  0
LWPOLYLINE
  5
298
330
1F
100
AcDbEntity
  8
D-4
  6
Continuous
 62
     7
370
     9
100
AcDbPolyline
 90
        4
 70
     1
 43
0.5
 10
275.2812186576227
 20
508.4142901044018
 42
0.4142135623731
 10
275.0312186576227
 20
508.6642901044018
 42
0.4142135623731
 10
274.7812186576227
 20
508.4142901044018
 42
0.4142135623731
 10
275.0312186576227
 20
508.1642901044018
 42
0.4142135623731
  0
LWPOLYLINE
  5
299
330
1F
100
AcDbEntity
  8
D-4
  6
Continuous
 62
     7
370
     9
100
AcDbPolyline
 90
        4
 70
     1
 43
0.5
 10
512.7812598975929
 20
508.4142901044018
 42
0.4142135623731
 10
512.5312598975929
 20
508.6642901044018
 42
0.4142135623731
 10
512.281259897593
 20
508.4142901044018
 42
0.4142135623731
 10
512.5312598975929
 20
508.1642901044018
 42
0.4142135623731
  0
LINE
  5
29A
330
1F
100
AcDbEntity
  8
D-4
  6
Continuous
 62
     7
370
     9
100
AcDbLine
 10
275.0312186576227
 20
509.9142901044018
 30
0.0
 11
275.0312186576227
 21
471.3904551568342
 31
0.0
  0
TEXT
  5
29B
330
1F
100
AcDbEntity
  8
D-4
  6
Continuous
 62
     2
370
   211
100
AcDbText
 10
383.1562392776078
 20
514.2342901044018
 30
0.0
 40
15.24
  1
95
 41
1.0625
  7
ＭＳ ゴシック
100
AcDbText
  0
ARC
  5
29C
330
1F
100
AcDbEntity
  8
D-A
  6
Continuous
 62
     2
370
     9
100
AcDbCircle
 10
252.0310376141524
 20
385.1195423678245
 30
0.0
 40
1.250000016109364
100
AcDbArc
 50
120.0003967285156
 51
180.0
  0
ARC
  5
29D
330
1F
100
AcDbEntity
  8
D-A
  6
Continuous
 62
     2
370
     9
100
AcDbCircle
 10
252.1301991230732
 20
388.746917377722
 30
0.0
 40
5.873256277393651
100
AcDbArc
 50
90.0
 51
124.1535186767578
  0
ARC
  5
29E
330
1F
100
AcDbEntity
  8
D-A
  6
Continuous
 62
     2
370
     9
100
AcDbCircle
 10
252.1301991230732
 20
392.4933728022627
 30
0.0
 40
5.873256277393651
100
AcDbArc
 50
235.8464813232422
 51
270.0
  0
ARC
  5
29F
330
1F
100
AcDbEntity
  8
D-A
  6
Continuous
 62
     2
370
     9
100
AcDbCircle
 10
235.5310388513516
 20
385.1195423678245
 30
0.0
 40
1.250000016109364
100
AcDbArc
 50
0.0
 51
59.99960327148438
  0
ARC
  5
2A0
330
1F
100
AcDbEntity
  8
D-A
  6
Continuous
 62
     2
370
     9
100
AcDbCircle
 10
243.7810536977409
 20
386.6201411721954
 30
0.0
 40
7.500000096656181
100
AcDbArc
 50
201.0391845703125
 51
338.9608154296875
  0
ARC
  5
2A1
330
1F
100
AcDbEntity
  8
D-A
  6
Continuous
 62
     2
370
     9
100
AcDbCircle
 10
235.4319082724084
 20
388.746917377722
 30
0.0
 40
5.873256277393651
100
AcDbArc
 50
55.84648132324219
 51
90.0
  0
ARC
  5
2A2
330
1F
100
AcDbEntity
  8
D-A
  6
Continuous
 62
     2
370
     9
100
AcDbCircle
 10
243.7810536977409
 20
381.5160453008112
 30
0.0
 40
13.10409210823678
100
AcDbArc
 50
67.32431030273438
 51
112.6756896972656
  0
ARC
  5
2A3
330
1F
100
AcDbEntity
  8
D-A
  6
Continuous
 62
     2
370
     9
100
AcDbCircle
 10
235.4319082724084
 20
392.4933728022627
 30
0.0
 40
5.873256277393651
100
AcDbArc
 50
270.0
 51
304.1535186767578
  0
ARC
  5
2A4
330
1F
100
AcDbEntity
  8
D-A
  6
Continuous
 62
     2
370
     9
100
AcDbCircle
 10
243.7810536977409
 20
399.7242139491958
 30
0.0
 40
13.10409210823678
100
AcDbArc
 50
247.3243103027344
 51
292.6756896972656
  0
LINE
  5
2A5
330
1F
100
AcDbEntity
  8
D-A
  6
Continuous
 62
     2
370
     9
100
AcDbLine
 10
248.7816887932854
 20
397.8701164282129
 30
0.0
 11
248.7816887932854
 21
394.6201490077896
 31
0.0
  0
LINE
  5
2A6
330
1F
100
AcDbEntity
  8
D-A
  6
Continuous
 62
     2
370
     9
100
AcDbLine
 10
247.2814611486487
 20
397.8701164282129
 30
0.0
 11
247.2814611486487
 21
394.6201490077896
 31
0.0
  0
LINE
  5
2A7
330
1F
100
AcDbEntity
  8
D-A
  6
Continuous
 62
     2
370
     9
100
AcDbLine
 10
240.2817597260349
 20
397.8701164282129
 30
0.0
 11
240.2817597260349
 21
394.6201490077896
 31
0.0
  0
LINE
  5
2A8
330
1F
100
AcDbEntity
  8
D-A
  6
Continuous
 62
     2
370
     9
100
AcDbLine
 10
238.7815320813979
 20
397.8701164282129
 30
0.0
 11
238.7815320813979
 21
394.6201490077896
 31
0.0
  0
LINE
  5
2A9
330
1F
100
AcDbEntity
  8
D-A
  6
Continuous
 62
     2
370
     9
100
AcDbLine
 10
235.4319082724084
 20
386.6201411721954
 30
0.0
 11
252.1301991230732
 21
386.6201411721954
 31
0.0
  0
LINE
  5
2AA
330
1F
100
AcDbEntity
  8
D-A
  6
Continuous
 62
     2
370
     9
100
AcDbLine
 10
235.4318464124526
 20
394.6201490077896
 30
0.0
 11
252.1302609830289
 21
394.6201490077896
 31
0.0
  0
LINE
  5
2AB
330
1F
100
AcDbEntity
  8
D-A
  6
Continuous
 62
     2
370
     9
100
AcDbLine
 10
252.1302609830289
 20
394.6201490077896
 30
0.0
 11
253.8846402554898
 21
393.6072231638548
 31
0.0
  0
LINE
  5
2AC
330
1F
100
AcDbEntity
  8
D-A
  6
Continuous
 62
     2
370
     9
100
AcDbLine
 10
248.8328469766154
 20
387.6330360861522
 30
0.0
 11
248.8328469766154
 21
393.6072231638548
 31
0.0
  0
LINE
  5
2AD
330
1F
100
AcDbEntity
  8
D-A
  6
Continuous
 62
     2
370
     9
100
AcDbLine
 10
238.7292294888883
 20
387.6330360861522
 30
0.0
 11
238.7292294888883
 21
393.6072231638548
 31
0.0
  0
LINE
  5
2AE
330
1F
100
AcDbEntity
  8
D-A
  6
Continuous
 62
     2
370
     9
100
AcDbLine
 10
253.8846402554898
 20
387.6330360861522
 30
0.0
 11
253.8846402554898
 21
393.6072231638548
 31
0.0
  0
LINE
  5
2AF
330
1F
100
AcDbEntity
  8
D-A
  6
Continuous
 62
     2
370
     9
100
AcDbLine
 10
250.7810334901552
 20
383.9275628822354
 30
0.0
 11
250.7810334901552
 21
385.1195423678245
 31
0.0
  0
LINE
  5
2B0
330
1F
100
AcDbEntity
  8
D-A
  6
Continuous
 62
     2
370
     9
100
AcDbLine
 10
251.4060355521536
 20
386.2020297318975
 30
0.0
 11
253.8846402554898
 21
387.6330360861522
 31
0.0
  0
LINE
  5
2B1
330
1F
100
AcDbEntity
  8
D-A
  6
Continuous
 62
     2
370
     9
100
AcDbLine
 10
236.15604091335
 20
386.2020297318975
 30
0.0
 11
233.6774362100137
 21
387.6330360861522
 31
0.0
  0
LINE
  5
2B2
330
1F
100
AcDbEntity
  8
D-A
  6
Continuous
 62
     2
370
     9
100
AcDbLine
 10
236.7810120453709
 20
385.1195423678245
 30
0.0
 11
236.7810120453709
 21
383.9275628822354
 31
0.0
  0
LINE
  5
2B3
330
1F
100
AcDbEntity
  8
D-A
  6
Continuous
 62
     2
370
     9
100
AcDbLine
 10
235.4318464124526
 20
394.6201490077896
 30
0.0
 11
233.6774362100137
 21
393.6072231638548
 31
0.0
  0
LINE
  5
2B4
330
1F
100
AcDbEntity
  8
D-A
  6
Continuous
 62
     2
370
     9
100
AcDbLine
 10
233.6774362100137
 20
387.6330360861522
 30
0.0
 11
233.6774362100137
 21
393.6072231638548
 31
0.0
  0
LINE
  5
2B5
330
1F
100
AcDbEntity
  8
D-A
  6
Continuous
 62
     2
370
     9
100
AcDbLine
 10
240.2818215859904
 20
424.6197427940808
 30
0.0
 11
240.2818215859904
 21
420.8697098021044
 31
0.0
  0
LINE
  5
2B6
330
1F
100
AcDbEntity
  8
D-A
  6
Continuous
 62
     2
370
     9
100
AcDbLine
 10
247.2815230086044
 20
424.6197427940808
 30
0.0
 11
247.2815230086044
 21
420.8697098021044
 31
0.0
  0
LINE
  5
2B7
330
1F
100
AcDbEntity
  8
D-A
  6
Continuous
 62
     2
370
     9
100
AcDbLine
 10
248.7817506532414
 20
424.6197427940808
 30
0.0
 11
248.7817506532414
 21
420.8697098021044
 31
0.0
  0
LINE
  5
2B8
330
1F
100
AcDbEntity
  8
D-A
  6
Continuous
 62
     2
370
     9
100
AcDbLine
 10
238.7815939413537
 20
424.6197427940808
 30
0.0
 11
238.7815939413537
 21
420.8697098021044
 31
0.0
  0
LINE
  5
2B9
330
1F
100
AcDbEntity
  8
D-2
  6
Continuous
 62
     3
370
     9
100
AcDbLine
 10
298.7814207334779
 20
358.3702046817497
 30
0.0
 11
251.2815114614128
 21
358.3702046817497
 31
0.0
  0
LINE
  5
2BA
330
1F
100
AcDbEntity
  8
D-2
  6
Continuous
 62
     3
370
     9
100
AcDbLine
 10
298.7814207334779
 20
358.3702046817497
 30
0.0
 11
298.7814207334779
 21
347.1198582659981
 31
0.0
  0
LINE
  5
2BB
330
1F
100
AcDbEntity
  8
D-2
  6
Continuous
 62
     3
370
     9
100
AcDbLine
 10
298.7814207334779
 20
347.1198582659981
 30
0.0
 11
275.0312186576227
 21
347.1198582659981
 31
0.0
  0
LINE
  5
2BC
330
1F
100
AcDbEntity
  8
D-2
  6
Continuous
 62
     3
370
     9
100
AcDbLine
 10
251.2815114614128
 20
358.3702046817497
 30
0.0
 11
251.2815114614128
 21
352.1201222018088
 31
0.0
  0
LINE
  5
2BD
330
1F
100
AcDbEntity
  8
D-2
  6
Continuous
 62
     3
370
     9
100
AcDbLine
 10
298.7814207334779
 20
352.1201222018088
 30
0.0
 11
251.2815114614128
 21
352.1201222018088
 31
0.0
  0
LINE
  5
2BE
330
1F
100
AcDbEntity
  8
D-2
  6
Continuous
 62
     3
370
     9
100
AcDbLine
 10
275.0312186576227
 20
347.1198582659981
 30
0.0
 11
275.0312186576227
 21
352.1201222018088
 31
0.0
  0
LINE
  5
2BF
330
1F
100
AcDbEntity
  8
D-2
  6
Continuous
 62
     3
370
     9
100
AcDbLine
 10
280.0316681733005
 20
332.1198087780334
 30
0.0
 11
270.0315114614128
 21
332.1198087780334
 31
0.0
  0
LINE
  5
2C0
330
1F
100
AcDbEntity
  8
D-2
  6
Continuous
 62
     3
370
     9
100
AcDbLine
 10
267.5310701937292
 20
334.6201881857614
 30
0.0
 11
267.5310701937292
 21
352.1201222018088
 31
0.0
  0
LINE
  5
2C1
330
1F
100
AcDbEntity
  8
D-2
  6
Continuous
 62
     3
370
     9
100
AcDbLine
 10
282.5313671215162
 20
334.6201881857614
 30
0.0
 11
282.5313671215162
 21
347.1198582659981
 31
0.0
  0
LINE
  5
2C2
330
1F
100
AcDbEntity
  8
D-0
  6
Continuous
 62
     4
370
     9
100
AcDbLine
 10
231.28144547746
 20
458.3696685621338
 30
0.0
 11
207.4008426150762
 21
455.8629794389287
 31
0.0
  0
LINE
  5
2C3
330
1F
100
AcDbEntity
  8
D-0
  6
Continuous
 62
     4
370
     9
100
AcDbLine
 10
318.7809918377852
 20
458.3696685621338
 30
0.0
 11
342.6614091203021
 21
455.8629794389287
 31
0.0
  0
LINE
  5
2C4
330
1F
100
AcDbEntity
  8
D-0
  6
Continuous
 62
     4
370
     9
100
AcDbLine
 10
318.7809918377852
 20
458.3696685621338
 30
0.0
 11
231.28144547746
 21
458.3696685621338
 31
0.0
  0
LINE
  5
2C5
330
1F
100
AcDbEntity
  8
D-0
  6
Continuous
 62
     4
370
     9
100
AcDbLine
 10
343.7809505978149
 20
454.6197180500983
 30
0.0
 11
343.7809505978149
 21
452.1197098021043
 31
0.0
  0
LINE
  5
2C6
330
1F
100
AcDbEntity
  8
D-0
  6
Continuous
 62
     4
370
     9
100
AcDbLine
 10
206.2814867174305
 20
454.6197180500983
 30
0.0
 11
206.2814867174305
 21
452.1197098021043
 31
0.0
  0
LINE
  5
2C7
330
1F
100
AcDbEntity
  8
D-0
  6
Continuous
 62
     4
370
     9
100
AcDbLine
 10
252.5312062856315
 20
432.1197675380628
 30
0.0
 11
297.5312310296138
 21
432.1197675380628
 31
0.0
  0
LINE
  5
2C8
330
1F
100
AcDbEntity
  8
D-0
  6
Continuous
 62
     4
370
     9
100
AcDbLine
 10
313.781346501531
 20
432.1197675380628
 30
0.0
 11
298.7808021339214
 21
432.1197675380628
 31
0.0
  0
LINE
  5
2C9
330
1F
100
AcDbEntity
  8
D-0
  6
Continuous
 62
     4
370
     9
100
AcDbLine
 10
236.2810908137143
 20
432.1197675380628
 30
0.0
 11
251.281635181324
 21
432.1197675380628
 31
0.0
  0
LINE
  5
2CA
330
1F
100
AcDbEntity
  8
D-A
  6
Continuous
 62
     2
370
     9
100
AcDbLine
 10
315.0310413257498
 20
432.1197675380628
 30
0.0
 11
315.0310413257498
 21
425.8698087780334
 31
0.0
  0
LINE
  5
2CB
330
1F
100
AcDbEntity
  8
D-A
  6
Continuous
 62
     2
370
     9
100
AcDbLine
 10
297.5311073097026
 20
432.1197675380628
 30
0.0
 11
297.5311073097026
 21
425.8698087780334
 31
0.0
  0
LINE
  5
2CC
330
1F
100
AcDbEntity
  8
D-A
  6
Continuous
 62
     2
370
     9
100
AcDbLine
 10
310.656057821738
 20
424.6197427940808
 30
0.0
 11
301.9060908137143
 21
424.6197427940808
 31
0.0
  0
LINE
  5
2CD
330
1F
100
AcDbEntity
  8
D-A
  6
Continuous
 62
     2
370
     9
100
AcDbLine
 10
315.0310413257498
 20
432.1197675380628
 30
0.0
 11
313.781346501531
 21
432.1197675380628
 31
0.0
  0
LINE
  5
2CE
330
1F
100
AcDbEntity
  8
D-A
  6
Continuous
 62
     2
370
     9
100
AcDbLine
 10
306.2810743177261
 20
425.8698087780334
 30
0.0
 11
306.2810743177261
 21
432.1197675380628
 31
0.0
  0
LINE
  5
2CF
330
1F
100
AcDbEntity
  8
D-A
  6
Continuous
 62
     2
370
     9
100
AcDbLine
 10
235.0313341295399
 20
432.1197675380628
 30
0.0
 11
235.0313341295399
 21
425.8698087780334
 31
0.0
  0
LINE
  5
2D0
330
1F
100
AcDbEntity
  8
D-A
  6
Continuous
 62
     2
370
     9
100
AcDbLine
 10
252.5313300055427
 20
432.1197675380628
 30
0.0
 11
252.5313300055427
 21
425.8698087780334
 31
0.0
  0
LINE
  5
2D1
330
1F
100
AcDbEntity
  8
D-A
  6
Continuous
 62
     2
370
     9
100
AcDbLine
 10
239.4063176335519
 20
424.6197427940808
 30
0.0
 11
248.1564083614867
 21
424.6197427940808
 31
0.0
  0
LINE
  5
2D2
330
1F
100
AcDbEntity
  8
D-A
  6
Continuous
 62
     2
370
     9
100
AcDbLine
 10
235.0313341295399
 20
432.1197675380628
 30
0.0
 11
236.2810908137143
 21
432.1197675380628
 31
0.0
  0
LINE
  5
2D3
330
1F
100
AcDbEntity
  8
D-A
  6
Continuous
 62
     2
370
     9
100
AcDbLine
 10
243.7813629975193
 20
425.8698087780334
 30
0.0
 11
243.7813629975193
 21
432.1197675380628
 31
0.0
  0
LINE
  5
2D4
330
1F
100
AcDbEntity
  8
D-2
  6
Continuous
 62
     3
370
     9
100
AcDbLine
 10
282.5313671215162
 20
358.3702046817497
 30
0.0
 11
282.5313671215162
 21
432.1197675380628
 31
0.0
  0
LINE
  5
2D5
330
1F
100
AcDbEntity
  8
D-2
  6
Continuous
 62
     3
370
     9
100
AcDbLine
 10
267.5310701937292
 20
358.3702046817497
 30
0.0
 11
267.5310701937292
 21
432.1197675380628
 31
0.0
  0
LINE
  5
2D6
330
1F
100
AcDbEntity
  8
D-0
  6
Continuous
 62
     4
370
     9
100
AcDbLine
 10
316.4272823849242
 20
434.4638268378412
 30
0.0
 11
317.3847507786107
 21
449.7757742222373
 31
0.0
  0
LINE
  5
2D7
330
1F
100
AcDbEntity
  8
D-0
  6
Continuous
 62
     4
370
     9
100
AcDbLine
 10
233.6351549303211
 20
434.4638268378412
 30
0.0
 11
232.6776865366345
 21
449.7757742222373
 31
0.0
  0
LINE
  5
2D8
330
1F
100
AcDbEntity
  8
D-0
  6
Continuous
 62
     4
370
     9
100
AcDbLine
 10
206.2814867174305
 20
452.1197098021043
 30
0.0
 11
343.7809505978149
 21
452.1197098021043
 31
0.0
  0
LINE
  5
2D9
330
1F
100
AcDbEntity
  8
D-0
  6
Continuous
 62
     4
370
     9
100
AcDbLine
 10
252.4921107936552
 20
432.4324077539625
 30
0.0
 11
252.5312062856315
 21
432.1197675380628
 31
0.0
  0
LINE
  5
2DA
330
1F
100
AcDbEntity
  8
D-0
  6
Continuous
 62
     4
370
     9
100
AcDbLine
 10
295.852042533256
 20
438.0499721872923
 30
0.0
 11
296.2807938859271
 21
434.6197757860569
 31
0.0
  0
LINE
  5
2DB
330
1F
100
AcDbEntity
  8
D-0
  6
Continuous
 62
     4
370
     9
100
AcDbLine
 10
261.6525186074747
 20
444.6196850581221
 30
0.0
 11
288.4099187077706
 21
444.6196850581221
 31
0.0
  0
LINE
  5
2DC
330
1F
100
AcDbEntity
  8
D-0
  6
Continuous
 62
     4
370
     9
100
AcDbLine
 10
254.2103947819894
 20
438.0499721872923
 30
0.0
 11
253.7816434293183
 21
434.6197757860569
 31
0.0
  0
ARC
  5
2DD
330
1F
100
AcDbEntity
  8
D-2
  6
Continuous
 62
     3
370
     9
100
AcDbCircle
 10
270.0315114614128
 20
334.6201881857614
 30
0.0
 40
2.500000273859179
100
AcDbArc
 50
180.0
 51
270.0
  0
ARC
  5
2DE
330
1F
100
AcDbEntity
  8
D-2
  6
Continuous
 62
     3
370
     9
100
AcDbCircle
 10
280.0316681733005
 20
334.6201881857614
 30
0.0
 40
2.500000273859179
100
AcDbArc
 50
270.0
 51
0.0
  0
ARC
  5
2DF
330
1F
100
AcDbEntity
  8
D-0
  6
Continuous
 62
     4
370
     9
100
AcDbCircle
 10
342.5310083337735
 20
454.6197180500983
 30
0.0
 40
1.250000016109364
100
AcDbArc
 50
0.0
 51
84.00610351562501
  0
ARC
  5
2E0
330
1F
100
AcDbEntity
  8
D-0
  6
Continuous
 62
     4
370
     9
100
AcDbCircle
 10
207.5314908414275
 20
454.6197180500983
 30
0.0
 40
1.250000016109364
100
AcDbArc
 50
95.993896484375
 51
180.0
  0
ARC
  5
2E1
330
1F
100
AcDbEntity
  8
D-A
  6
Continuous
 62
     2
370
     9
100
AcDbCircle
 10
310.656057821738
 20
432.9010587780334
 30
0.0
 40
8.281277321480419
100
AcDbArc
 50
238.1089477539062
 51
301.8907012939453
  0
ARC
  5
2E2
330
1F
100
AcDbEntity
  8
D-A
  6
Continuous
 62
     2
370
     9
100
AcDbCircle
 10
301.9060908137143
 20
432.9010587780334
 30
0.0
 40
8.281277321480419
100
AcDbArc
 50
238.1092987060547
 51
301.8910522460938
  0
ARC
  5
2E3
330
1F
100
AcDbEntity
  8
D-A
  6
Continuous
 62
     2
370
     9
100
AcDbCircle
 10
239.4063176335519
 20
432.9010587780334
 30
0.0
 40
8.281277321480419
100
AcDbArc
 50
238.1092987060547
 51
301.8910522460938
  0
ARC
  5
2E4
330
1F
100
AcDbEntity
  8
D-A
  6
Continuous
 62
     2
370
     9
100
AcDbCircle
 10
248.1564083614867
 20
432.9010587780334
 30
0.0
 40
8.281277321480419
100
AcDbArc
 50
238.1089477539062
 51
301.8907012939453
  0
ARC
  5
2E5
330
1F
100
AcDbEntity
  8
D-0
  6
Continuous
 62
     4
370
     9
100
AcDbCircle
 10
319.8798720901078
 20
449.6197634140659
 30
0.0
 40
2.500000032218727
100
AcDbArc
 50
90.0
 51
176.4221649169922
  0
ARC
  5
2E6
330
1F
100
AcDbEntity
  8
D-0
  6
Continuous
 62
     4
370
     9
100
AcDbCircle
 10
313.9321610734271
 20
434.6198376460127
 30
0.0
 40
2.500000032218727
100
AcDbArc
 50
270.0
 51
356.4221649169922
  0
ARC
  5
2E7
330
1F
100
AcDbEntity
  8
D-0
  6
Continuous
 62
     4
370
     9
100
AcDbCircle
 10
230.1825652251375
 20
449.6197634140659
 30
0.0
 40
2.500000032218727
100
AcDbArc
 50
3.577835083007803
 51
89.99999999999999
  0
ARC
  5
2E8
330
1F
100
AcDbEntity
  8
D-0
  6
Continuous
 62
     4
370
     9
100
AcDbCircle
 10
236.1302762418183
 20
434.6198376460127
 30
0.0
 40
2.500000032218727
100
AcDbArc
 50
183.5778350830078
 51
270.0
  0
ARC
  5
2E9
330
1F
100
AcDbEntity
  8
D-0
  6
Continuous
 62
     4
370
     9
100
AcDbCircle
 10
298.7808021339214
 20
434.6197757860569
 30
0.0
 40
2.500000032218727
100
AcDbArc
 50
180.0
 51
270.0
  0
ARC
  5
2EA
330
1F
100
AcDbEntity
  8
D-0
  6
Continuous
 62
     4
370
     9
100
AcDbCircle
 10
251.281635181324
 20
434.6197757860569
 30
0.0
 40
2.500000032218727
100
AcDbArc
 50
270.0
 51
0.0
  0
ARC
  5
2EB
330
1F
100
AcDbEntity
  8
D-0
  6
Continuous
 62
     4
370
     9
100
AcDbCircle
 10
288.4099187077706
 20
437.1196603141397
 30
0.0
 40
7.500000096656181
100
AcDbArc
 50
7.125366210937503
 51
90.00000000000001
  0
ARC
  5
2EC
330
1F
100
AcDbEntity
  8
D-0
  6
Continuous
 62
     4
370
     9
100
AcDbCircle
 10
261.6525186074747
 20
437.1196603141397
 30
0.0
 40
7.500000096656181
100
AcDbArc
 50
90.0
 51
172.8746337890625
  0
LINE
  5
2ED
330
1F
100
AcDbEntity
  8
D-D
  6
Continuous
 62
     7
370
     9
100
AcDbLine
 10
282.5313671215162
 20
420.8697098021044
 30
0.0
 11
374.6754208126586
 21
420.8697098021044
 31
0.0
  0
LINE
  5
2EE
330
1F
100
AcDbEntity
  8
D-3
  6
Continuous
 62
     3
370
     9
100
AcDbLine
 10
311.2812145336255
 20
407.8697164004997
 30
0.0
 11
311.2812145336255
 21
415.8696933061162
 31
0.0
  0
LINE
  5
2EF
330
1F
100
AcDbEntity
  8
D-3
  6
Continuous
 62
     3
370
     9
100
AcDbLine
 10
238.7812227816198
 20
407.8697164004997
 30
0.0
 11
238.7812227816198
 21
415.8696933061162
 31
0.0
  0
LINE
  5
2F0
330
1F
100
AcDbEntity
  8
D-D
  6
Continuous
 62
     7
370
     9
100
AcDbLine
 10
226.2811815416492
 20
415.8696933061162
 30
0.0
 11
226.2811815416492
 21
452.1197098021043
 31
0.0
  0
LINE
  5
2F1
330
1F
100
AcDbEntity
  8
D-D
  6
Continuous
 62
     7
370
     9
100
AcDbLine
 10
323.7812557735961
 20
415.8696933061162
 30
0.0
 11
323.7812557735961
 21
452.1197098021043
 31
0.0
  0
LINE
  5
2F2
330
1F
100
AcDbEntity
  8
D-A
  6
Continuous
 62
     2
370
     9
100
AcDbLine
 10
301.2806866620039
 20
424.6197427940808
 30
0.0
 11
301.2806866620039
 21
420.8697098021044
 31
0.0
  0
LINE
  5
2F3
330
1F
100
AcDbEntity
  8
D-A
  6
Continuous
 62
     2
370
     9
100
AcDbLine
 10
311.2808433738917
 20
424.6197427940808
 30
0.0
 11
311.2808433738917
 21
420.8697098021044
 31
0.0
  0
LINE
  5
2F4
330
1F
100
AcDbEntity
  8
D-A
  6
Continuous
 62
     2
370
     9
100
AcDbLine
 10
309.780615729255
 20
424.6197427940808
 30
0.0
 11
309.780615729255
 21
420.8697098021044
 31
0.0
  0
LINE
  5
2F5
330
1F
100
AcDbEntity
  8
D-A
  6
Continuous
 62
     2
370
     9
100
AcDbLine
 10
302.7809143066409
 20
424.6197427940808
 30
0.0
 11
302.7809143066409
 21
420.8697098021044
 31
0.0
  0
ARC
  5
2F6
330
1F
100
AcDbEntity
  8
D-A
  6
Continuous
 62
     2
370
     9
100
AcDbCircle
 10
314.5307489343591
 20
385.1195423678245
 30
0.0
 40
1.250000016109364
100
AcDbArc
 50
120.0003967285156
 51
180.0
  0
ARC
  5
2F7
330
1F
100
AcDbEntity
  8
D-A
  6
Continuous
 62
     2
370
     9
100
AcDbCircle
 10
314.6299104432802
 20
388.746917377722
 30
0.0
 40
5.873256277393651
100
AcDbArc
 50
90.0
 51
124.1535186767578
  0
ARC
  5
2F8
330
1F
100
AcDbEntity
  8
D-A
  6
Continuous
 62
     2
370
     9
100
AcDbCircle
 10
314.6299104432802
 20
392.4933728022627
 30
0.0
 40
5.873256277393651
100
AcDbArc
 50
235.8464813232422
 51
270.0
  0
ARC
  5
2F9
330
1F
100
AcDbEntity
  8
D-A
  6
Continuous
 62
     2
370
     9
100
AcDbCircle
 10
298.0307501715583
 20
385.1195423678245
 30
0.0
 40
1.250000016109364
100
AcDbArc
 50
0.0
 51
59.99960327148438
  0
ARC
  5
2FA
330
1F
100
AcDbEntity
  8
D-A
  6
Continuous
 62
     2
370
     9
100
AcDbCircle
 10
306.2807650179477
 20
386.6201411721954
 30
0.0
 40
7.500000096656181
100
AcDbArc
 50
201.0391845703125
 51
338.9608154296875
  0
ARC
  5
2FB
330
1F
100
AcDbEntity
  8
D-A
  6
Continuous
 62
     2
370
     9
100
AcDbCircle
 10
297.9316195926151
 20
388.746917377722
 30
0.0
 40
5.873256277393651
100
AcDbArc
 50
55.84648132324219
 51
90.0
  0
ARC
  5
2FC
330
1F
100
AcDbEntity
  8
D-A
  6
Continuous
 62
     2
370
     9
100
AcDbCircle
 10
306.2807650179477
 20
381.5160453008112
 30
0.0
 40
13.10409210823678
100
AcDbArc
 50
67.32431030273438
 51
112.6756896972656
  0
ARC
  5
2FD
330
1F
100
AcDbEntity
  8
D-A
  6
Continuous
 62
     2
370
     9
100
AcDbCircle
 10
297.9316195926151
 20
392.4933728022627
 30
0.0
 40
5.873256277393651
100
AcDbArc
 50
270.0
 51
304.1535186767578
  0
ARC
  5
2FE
330
1F
100
AcDbEntity
  8
D-A
  6
Continuous
 62
     2
370
     9
100
AcDbCircle
 10
306.2807650179477
 20
399.7242139491958
 30
0.0
 40
13.10409210823678
100
AcDbArc
 50
247.3243103027344
 51
292.6756896972656
  0
LINE
  5
2FF
330
1F
100
AcDbEntity
  8
D-A
  6
Continuous
 62
     2
370
     9
100
AcDbLine
 10
311.2814001134925
 20
397.8701164282129
 30
0.0
 11
311.2814001134925
 21
394.6201490077896
 31
0.0
  0
LINE
  5
300
330
1F
100
AcDbEntity
  8
D-A
  6
Continuous
 62
     2
370
     9
100
AcDbLine
 10
309.7811724688557
 20
397.8701164282129
 30
0.0
 11
309.7811724688557
 21
394.6201490077896
 31
0.0
  0
LINE
  5
301
330
1F
100
AcDbEntity
  8
D-A
  6
Continuous
 62
     2
370
     9
100
AcDbLine
 10
302.7814710462417
 20
397.8701164282129
 30
0.0
 11
302.7814710462417
 21
394.6201490077896
 31
0.0
  0
LINE
  5
302
330
1F
100
AcDbEntity
  8
D-A
  6
Continuous
 62
     2
370
     9
100
AcDbLine
 10
301.2812434016047
 20
397.8701164282129
 30
0.0
 11
301.2812434016047
 21
394.6201490077896
 31
0.0
  0
LINE
  5
303
330
1F
100
AcDbEntity
  8
D-A
  6
Continuous
 62
     2
370
     9
100
AcDbLine
 10
297.9316195926151
 20
386.6201411721954
 30
0.0
 11
314.6299104432802
 21
386.6201411721954
 31
0.0
  0
LINE
  5
304
330
1F
100
AcDbEntity
  8
D-A
  6
Continuous
 62
     2
370
     9
100
AcDbLine
 10
297.9315577326594
 20
394.6201490077896
 30
0.0
 11
314.6299723032359
 21
394.6201490077896
 31
0.0
  0
LINE
  5
305
330
1F
100
AcDbEntity
  8
D-A
  6
Continuous
 62
     2
370
     9
100
AcDbLine
 10
314.6299723032359
 20
394.6201490077896
 30
0.0
 11
316.3843515756969
 21
393.6072231638548
 31
0.0
  0
LINE
  5
306
330
1F
100
AcDbEntity
  8
D-A
  6
Continuous
 62
     2
370
     9
100
AcDbLine
 10
311.3325582968221
 20
387.6330360861522
 30
0.0
 11
311.3325582968221
 21
393.6072231638548
 31
0.0
  0
LINE
  5
307
330
1F
100
AcDbEntity
  8
D-A
  6
Continuous
 62
     2
370
     9
100
AcDbLine
 10
301.2289408090953
 20
387.6330360861522
 30
0.0
 11
301.2289408090953
 21
393.6072231638548
 31
0.0
  0
LINE
  5
308
330
1F
100
AcDbEntity
  8
D-A
  6
Continuous
 62
     2
370
     9
100
AcDbLine
 10
316.3843515756969
 20
387.6330360861522
 30
0.0
 11
316.3843515756969
 21
393.6072231638548
 31
0.0
  0
LINE
  5
309
330
1F
100
AcDbEntity
  8
D-A
  6
Continuous
 62
     2
370
     9
100
AcDbLine
 10
313.2807448103623
 20
383.9275628822354
 30
0.0
 11
313.2807448103623
 21
385.1195423678245
 31
0.0
  0
LINE
  5
30A
330
1F
100
AcDbEntity
  8
D-A
  6
Continuous
 62
     2
370
     9
100
AcDbLine
 10
313.9057468723604
 20
386.2020297318975
 30
0.0
 11
316.3843515756969
 21
387.6330360861522
 31
0.0
  0
LINE
  5
30B
330
1F
100
AcDbEntity
  8
D-A
  6
Continuous
 62
     2
370
     9
100
AcDbLine
 10
298.6557522335568
 20
386.2020297318975
 30
0.0
 11
296.1771475302206
 21
387.6330360861522
 31
0.0
  0
LINE
  5
30C
330
1F
100
AcDbEntity
  8
D-A
  6
Continuous
 62
     2
370
     9
100
AcDbLine
 10
299.2807233655776
 20
385.1195423678245
 30
0.0
 11
299.2807233655776
 21
383.9275628822354
 31
0.0
  0
LINE
  5
30D
330
1F
100
AcDbEntity
  8
D-A
  6
Continuous
 62
     2
370
     9
100
AcDbLine
 10
297.9315577326594
 20
394.6201490077896
 30
0.0
 11
296.1771475302206
 21
393.6072231638548
 31
0.0
  0
LINE
  5
30E
330
1F
100
AcDbEntity
  8
D-A
  6
Continuous
 62
     2
370
     9
100
AcDbLine
 10
296.1771475302206
 20
387.6330360861522
 30
0.0
 11
296.1771475302206
 21
393.6072231638548
 31
0.0
  0
LINE
  5
30F
330
1F
100
AcDbEntity
  8
D-A
  6
Continuous
 62
     2
370
     9
100
AcDbLine
 10
253.2805159285263
 20
407.8693452407658
 30
0.0
 11
253.2805159285263
 21
405.3697081525056
 31
0.0
  0
LINE
  5
310
330
1F
100
AcDbEntity
  8
D-A
  6
Continuous
 62
     2
370
     9
100
AcDbLine
 10
253.2805159285263
 20
405.3697081525056
 30
0.0
 11
234.280972867399
 21
405.3697081525056
 31
0.0
  0
LINE
  5
311
330
1F
100
AcDbEntity
  8
D-A
  6
Continuous
 62
     2
370
     9
100
AcDbLine
 10
234.280972867399
 20
407.8693452407658
 30
0.0
 11
234.280972867399
 21
405.3697081525056
 31
0.0
  0
LINE
  5
312
330
1F
100
AcDbEntity
  8
D-A
  6
Continuous
 62
     2
370
     9
100
AcDbLine
 10
252.5313300055427
 20
405.3697081525056
 30
0.0
 11
252.5313300055427
 21
399.1197493924761
 31
0.0
  0
LINE
  5
313
330
1F
100
AcDbEntity
  8
D-A
  6
Continuous
 62
     2
370
     9
100
AcDbLine
 10
235.0313959894956
 20
405.3697081525056
 30
0.0
 11
235.0313959894956
 21
399.1197493924761
 31
0.0
  0
LINE
  5
314
330
1F
100
AcDbEntity
  8
D-A
  6
Continuous
 62
     2
370
     9
100
AcDbLine
 10
243.7813629975193
 20
399.1197493924761
 30
0.0
 11
243.7813629975193
 21
405.3697081525056
 31
0.0
  0
ARC
  5
315
330
1F
100
AcDbEntity
  8
D-A
  6
Continuous
 62
     2
370
     9
100
AcDbCircle
 10
239.4063794935073
 20
406.1509993924761
 30
0.0
 40
8.281277321480419
100
AcDbArc
 50
238.1092987060547
 51
301.8910522460938
  0
ARC
  5
316
330
1F
100
AcDbEntity
  8
D-A
  6
Continuous
 62
     2
370
     9
100
AcDbCircle
 10
248.156346501531
 20
406.1509993924761
 30
0.0
 40
8.281277321480419
100
AcDbArc
 50
238.1089477539062
 51
301.8907012939453
  0
LINE
  5
317
330
1F
100
AcDbEntity
  8
D-A
  6
Continuous
 62
     2
370
     9
100
AcDbLine
 10
308.7804021062081
 20
407.8697164004997
 30
0.0
 11
308.7804021062081
 21
405.3700174522839
 31
0.0
  0
LINE
  5
318
330
1F
100
AcDbEntity
  8
D-A
  6
Continuous
 62
     2
370
     9
100
AcDbLine
 10
310.0304680901607
 20
407.8697164004997
 30
0.0
 11
310.0304680901607
 21
405.3700174522839
 31
0.0
  0
LINE
  5
319
330
1F
100
AcDbEntity
  8
D-A
  6
Continuous
 62
     2
370
     9
100
AcDbLine
 10
315.7802272487334
 20
407.8693452407658
 30
0.0
 11
315.7802272487334
 21
405.3697081525056
 31
0.0
  0
LINE
  5
31A
330
1F
100
AcDbEntity
  8
D-A
  6
Continuous
 62
     2
370
     9
100
AcDbLine
 10
315.7802272487334
 20
405.3697081525056
 30
0.0
 11
296.7806841876057
 21
405.3697081525056
 31
0.0
  0
LINE
  5
31B
330
1F
100
AcDbEntity
  8
D-A
  6
Continuous
 62
     2
370
     9
100
AcDbLine
 10
296.7806841876057
 20
407.8693452407658
 30
0.0
 11
296.7806841876057
 21
405.3697081525056
 31
0.0
  0
LINE
  5
31C
330
1F
100
AcDbEntity
  8
D-A
  6
Continuous
 62
     2
370
     9
100
AcDbLine
 10
315.0310413257498
 20
405.3697081525056
 30
0.0
 11
315.0310413257498
 21
399.1197493924761
 31
0.0
  0
LINE
  5
31D
330
1F
100
AcDbEntity
  8
D-A
  6
Continuous
 62
     2
370
     9
100
AcDbLine
 10
297.5311073097026
 20
405.3697081525056
 30
0.0
 11
297.5311073097026
 21
399.1197493924761
 31
0.0
  0
LINE
  5
31E
330
1F
100
AcDbEntity
  8
D-A
  6
Continuous
 62
     2
370
     9
100
AcDbLine
 10
306.2810743177261
 20
399.1197493924761
 30
0.0
 11
306.2810743177261
 21
405.3697081525056
 31
0.0
  0
ARC
  5
31F
330
1F
100
AcDbEntity
  8
D-A
  6
Continuous
 62
     2
370
     9
100
AcDbCircle
 10
310.656057821738
 20
406.1509993924761
 30
0.0
 40
8.281277321480419
100
AcDbArc
 50
238.1089477539062
 51
301.8907012939453
  0
ARC
  5
320
330
1F
100
AcDbEntity
  8
D-A
  6
Continuous
 62
     2
370
     9
100
AcDbCircle
 10
301.9060908137143
 20
406.1509993924761
 30
0.0
 40
8.281277321480419
100
AcDbArc
 50
238.1092987060547
 51
301.8910522460938
  0
LINE
  5
321
330
1F
100
AcDbEntity
  8
D-B
  6
Continuous
 62
     7
370
     9
100
AcDbLine
 10
376.2769132047089
 20
415.8696933061162
 30
0.0
 11
371.2767729888094
 21
420.8697098021044
 31
0.0
  0
LINE
  5
322
330
1F
100
AcDbEntity
  8
D-B
  6
Continuous
 62
     7
370
     9
100
AcDbLine
 10
381.5801672033362
 20
415.8696933061162
 30
0.0
 11
376.5800269874367
 21
420.8697098021044
 31
0.0
  0
LINE
  5
323
330
1F
100
AcDbEntity
  8
D-B
  6
Continuous
 62
     7
370
     9
100
AcDbLine
 10
365.6704052074539
 20
415.8696933061162
 30
0.0
 11
360.6702649915545
 21
420.8697098021044
 31
0.0
  0
LINE
  5
324
330
1F
100
AcDbEntity
  8
D-B
  6
Continuous
 62
     7
370
     9
100
AcDbLine
 10
370.9736592060813
 20
415.8696933061162
 30
0.0
 11
365.9735189901818
 21
420.8697098021044
 31
0.0
  0
LINE
  5
325
330
1F
100
AcDbEntity
  8
D-B
  6
Continuous
 62
     7
370
     9
100
AcDbLine
 10
355.063897210199
 20
415.8696933061162
 30
0.0
 11
350.0637569942995
 21
420.8697098021044
 31
0.0
  0
LINE
  5
326
330
1F
100
AcDbEntity
  8
D-B
  6
Continuous
 62
     7
370
     9
100
AcDbLine
 10
360.3671512088263
 20
415.8696933061162
 30
0.0
 11
355.3670109929269
 21
420.8697098021044
 31
0.0
  0
LINE
  5
327
330
1F
100
AcDbEntity
  8
D-B
  6
Continuous
 62
     7
370
     9
100
AcDbLine
 10
344.4573892129441
 20
415.8696933061162
 30
0.0
 11
339.4572489970446
 21
420.8697098021044
 31
0.0
  0
LINE
  5
328
330
1F
100
AcDbEntity
  8
D-B
  6
Continuous
 62
     7
370
     9
100
AcDbLine
 10
349.7606432115714
 20
415.8696933061162
 30
0.0
 11
344.7605029956719
 21
420.8697098021044
 31
0.0
  0
LINE
  5
329
330
1F
100
AcDbEntity
  8
D-B
  6
Continuous
 62
     7
370
     9
100
AcDbLine
 10
333.8508812156891
 20
415.8696933061162
 30
0.0
 11
328.8507409997897
 21
420.8697098021044
 31
0.0
  0
LINE
  5
32A
330
1F
100
AcDbEntity
  8
D-B
  6
Continuous
 62
     7
370
     9
100
AcDbLine
 10
339.1541352143165
 20
415.8696933061162
 30
0.0
 11
334.153994998417
 21
420.8697098021044
 31
0.0
  0
LINE
  5
32B
330
1F
100
AcDbEntity
  8
D-B
  6
Continuous
 62
     7
370
     9
100
AcDbLine
 10
224.8019244219824
 20
415.8696933061162
 30
0.0
 11
219.801784206083
 21
420.8697098021044
 31
0.0
  0
LINE
  5
32C
330
1F
100
AcDbEntity
  8
D-B
  6
Continuous
 62
     7
370
     9
100
AcDbLine
 10
219.4986704233551
 20
415.8696933061162
 30
0.0
 11
214.4985302074556
 21
420.8697098021044
 31
0.0
  0
LINE
  5
32D
330
1F
100
AcDbEntity
  8
D-B
  6
Continuous
 62
     7
370
     9
100
AcDbLine
 10
214.1954164247278
 20
415.8696933061162
 30
0.0
 11
209.1952762088283
 21
420.8697098021044
 31
0.0
  0
LINE
  5
32E
330
1F
100
AcDbEntity
  8
D-B
  6
Continuous
 62
     7
370
     9
100
AcDbLine
 10
208.8921624261005
 20
415.8696933061162
 30
0.0
 11
203.892022210201
 21
420.8697098021044
 31
0.0
  0
LINE
  5
32F
330
1F
100
AcDbEntity
  8
D-B
  6
Continuous
 62
     7
370
     9
100
AcDbLine
 10
203.5889084274731
 20
415.8696933061162
 30
0.0
 11
198.5887682115737
 21
420.8697098021044
 31
0.0
  0
LINE
  5
330
330
1F
100
AcDbEntity
  8
D-B
  6
Continuous
 62
     7
370
     9
100
AcDbLine
 10
198.2856544288458
 20
415.8696933061162
 30
0.0
 11
193.2855142129463
 21
420.8697098021044
 31
0.0
  0
LINE
  5
331
330
1F
100
AcDbEntity
  8
D-B
  6
Continuous
 62
     7
370
     9
100
AcDbLine
 10
192.9824004302185
 20
415.8696933061162
 30
0.0
 11
187.982260214319
 21
420.8697098021044
 31
0.0
  0
LINE
  5
332
330
1F
100
AcDbEntity
  8
D-B
  6
Continuous
 62
     7
370
     9
100
AcDbLine
 10
187.6791464315912
 20
415.8696933061162
 30
0.0
 11
182.6790062156917
 21
420.8697098021044
 31
0.0
  0
LINE
  5
333
330
1F
100
AcDbEntity
  8
D-B
  6
Continuous
 62
     7
370
     9
100
AcDbLine
 10
182.3758924329638
 20
415.8696933061162
 30
0.0
 11
177.3757522170644
 21
420.8697098021044
 31
0.0
  0
LINE
  5
334
330
1F
100
AcDbEntity
  8
D-B
  6
Continuous
 62
     7
370
     9
100
AcDbLine
 10
226.2811815416492
 20
419.6935955668192
 30
0.0
 11
225.1050382047103
 21
420.8697098021044
 31
0.0
  0
LINE
  5
335
330
1F
100
AcDbEntity
  8
D-B
  6
Continuous
 62
     7
370
     9
100
AcDbLine
 10
328.5476272170615
 20
415.8696933061162
 30
0.0
 11
323.7812557735961
 21
420.6359468138785
 31
0.0
  0
TEXT
  5
336
330
1F
100
AcDbEntity
  8
D-0
  6
Continuous
 62
     7
370
     9
100
AcDbText
 10
256.4229472113713
 20
637.0776449002601
 30
0.0
 40
11.43
  1
把手カバー
 50
0.0000429614057315
 41
1.133333333333334
  7
ＭＳ ゴシック
100
AcDbText
  0
TEXT
  5
337
330
1F
100
AcDbEntity
  8
D-0
  6
Continuous
 62
     7
370
     9
100
AcDbText
 10
232.9268189632918
 20
615.2321727191229
 30
0.0
 40
11.43
  1
（ＳＣＳ１３）
 41
1.142857142857143
  7
ＭＳ ゴシック
100
AcDbText
  0
LINE
  5
338
330
1F
100
AcDbEntity
  8
D-0
  6
Continuous
 62
     7
370
     9
100
AcDbLine
 10
237.2550534063868
 20
630.0791725607614
 30
0.0
 11
368.4659803235857
 21
630.0791725607614
 31
0.0
  0
LINE
  5
339
330
1F
100
AcDbEntity
  8
D-4
  6
Continuous
 62
     7
370
     9
100
AcDbLine
 10
368.4659803235857
 20
630.0791725607614
 30
0.0
 11
263.740028031792
 21
458.3704108816016
 31
0.0
  0
LINE
  5
33A
330
1F
100
AcDbEntity
  8
D-4
  6
Continuous
 62
     7
370
     9
100
AcDbLine
 10
263.5310380790153
 20
458.3704108816016
 30
0.0
 11
268.59115971459
 21
469.8004226503265
 31
0.0
  0
LINE
  5
33B
330
1F
100
AcDbEntity
  8
D-4
  6
Continuous
 62
     7
370
     9
100
AcDbLine
 10
263.5310380790153
 20
458.3704108816016
 30
0.0
 11
271.377044982473
 21
468.1012985939789
 31
0.0
  0
LINE
  5
33C
330
1F
100
AcDbEntity
  8
0-0
  6
Continuous
 62
     4
370
     9
100
AcDbLine
 10
-662.2261437964715
 20
-37.40345826020103
 30
0.0
 11
-662.2261437964714
 21
70.59650214942738
 31
0.0
  0
LINE
  5
33D
330
1F
100
AcDbEntity
  8
0-0
  6
Continuous
 62
     4
370
     9
100
AcDbLine
 10
-609.2260431709436
 20
-39.40346485859621
 30
0.0
 11
-660.2260877101118
 21
-39.40346485859621
 31
0.0
  0
LINE
  5
33E
330
1F
100
AcDbEntity
  8
0-0
  6
Continuous
 62
     4
370
     9
100
AcDbLine
 10
-607.2259870845837
 20
70.59650214942738
 30
0.0
 11
-607.2259870845838
 21
-37.40345826020103
 31
0.0
  0
LINE
  5
33F
330
1F
100
AcDbEntity
  8
0-0
  6
Continuous
 62
     4
370
     9
100
AcDbLine
 10
-609.2260431709436
 20
72.59655823578723
 30
0.0
 11
-660.2260877101116
 21
72.59655823578723
 31
0.0
  0
LINE
  5
340
330
1F
100
AcDbEntity
  8
0-0
  6
Continuous
 62
     4
370
     9
100
AcDbLine
 10
-661.640354760365
 20
-38.81708196691548
 30
0.0
 11
-651.6402722804243
 21
-28.81704897493918
 31
0.0
  0
LINE
  5
341
330
1F
100
AcDbEntity
  8
0-0
  6
Continuous
 62
     4
370
     9
100
AcDbLine
 10
-607.8114791929031
 20
72.01071971171626
 30
0.0
 11
-617.8115369288616
 21
62.01068671973989
 31
0.0
  0
LINE
  5
342
330
1F
100
AcDbEntity
  8
0-0
  6
Continuous
 62
     4
370
     9
100
AcDbLine
 10
-607.8114791929031
 20
-38.81708196691548
 30
0.0
 11
-617.8115369288618
 21
-28.81704897493918
 31
0.0
  0
LINE
  5
343
330
1F
100
AcDbEntity
  8
0-0
  6
Continuous
 62
     4
370
     9
100
AcDbLine
 10
-619.225705003186
 20
62.59652524381085
 30
0.0
 11
-650.2257577903481
 21
62.59652524381085
 31
0.0
  0
LINE
  5
344
330
1F
100
AcDbEntity
  8
0-0
  6
Continuous
 62
     4
370
     9
100
AcDbLine
 10
-617.225723148773
 20
-27.40343764021574
 30
0.0
 11
-617.225723148773
 21
60.59637018152198
 31
0.0
  0
LINE
  5
345
330
1F
100
AcDbEntity
  8
0-0
  6
Continuous
 62
     4
370
     9
100
AcDbLine
 10
-652.2259128526371
 20
-27.40343764021574
 30
0.0
 11
-652.2259128526371
 21
60.59637018152198
 31
0.0
  0
LINE
  5
346
330
1F
100
AcDbEntity
  8
0-0
  6
Continuous
 62
     4
370
     9
100
AcDbLine
 10
-650.2257577903482
 20
-29.4035184705578
 30
0.0
 11
-619.225705003186
 21
-29.4035184705578
 31
0.0
  0
LINE
  5
347
330
1F
100
AcDbEntity
  8
0-2
  6
Continuous
 62
     3
370
     9
100
AcDbLine
 10
-630.4260438307831
 20
-16.05348432386236
 30
0.0
 11
-639.025889098414
 21
-16.05348432386236
 31
0.0
  0
LINE
  5
348
330
1F
100
AcDbEntity
  8
0-2
  6
Continuous
 62
     3
370
     9
100
AcDbLine
 10
-628.726058017333
 20
-14.35348613842095
 30
0.0
 11
-628.7260580173329
 21
47.54653002764744
 31
0.0
  0
LINE
  5
349
330
1F
100
AcDbEntity
  8
0-0
  6
Continuous
 62
     4
370
     9
100
AcDbLine
 10
-630.2260629661295
 20
-16.55348597346119
 30
0.0
 11
-639.2260431709436
 21
-16.55348597346119
 31
0.0
  0
LINE
  5
34A
330
1F
100
AcDbEntity
  8
0-0
  6
Continuous
 62
     4
370
     9
100
AcDbLine
 10
-641.2260497693388
 20
47.74653563628338
 30
0.0
 11
-641.2260497693388
 21
-14.55349174705702
 31
0.0
  0
LINE
  5
34B
330
1F
100
AcDbEntity
  8
0-0
  6
Continuous
 62
     4
370
     9
100
AcDbLine
 10
-630.2260629661295
 20
49.74652986268755
 30
0.0
 11
-639.2260431709436
 21
49.74652986268755
 31
0.0
  0
LINE
  5
34C
330
1F
100
AcDbEntity
  8
0-0
  6
Continuous
 62
     4
370
     9
100
AcDbLine
 10
-628.2260563677341
 20
47.74653563628338
 30
0.0
 11
-628.2260563677341
 21
-14.55349174705702
 31
0.0
  0
LINE
  5
34D
330
1F
100
AcDbEntity
  8
0-2
  6
Continuous
 62
     3
370
     9
100
AcDbLine
 10
-640.72604811974
 20
47.54639393574497
 30
0.0
 11
-640.72604811974
 21
-14.35312735067825
 31
0.0
  0
LINE
  5
34E
330
1F
100
AcDbEntity
  8
0-2
  6
Continuous
 62
     3
370
     9
100
AcDbLine
 10
-639.0260375623076
 20
49.24639212118631
 30
0.0
 11
-630.4026360235619
 21
49.24639212118631
 31
0.0
  0
LINE
  5
34F
330
1F
100
AcDbEntity
  8
0-0
  6
Continuous
 62
     4
370
     9
100
AcDbLine
 10
-661.640354760365
 20
72.01071971171626
 30
0.0
 11
-651.6402722804241
 21
62.01068671973989
 31
0.0
  0
ARC
  5
350
330
1F
100
AcDbEntity
  8
0-0
  6
Continuous
 62
     4
370
     9
100
AcDbCircle
 10
-650.2257577903481
 20
60.59637018152198
 30
0.0
 40
1.99999983246262
100
AcDbArc
 50
90.0
 51
180.0
  0
ARC
  5
351
330
1F
100
AcDbEntity
  8
0-0
  6
Continuous
 62
     4
370
     9
100
AcDbCircle
 10
-619.225705003186
 20
60.59637018152198
 30
0.0
 40
1.99999983246262
100
AcDbArc
 50
0.0
 51
90.0
  0
ARC
  5
352
330
1F
100
AcDbEntity
  8
0-0
  6
Continuous
 62
     4
370
     9
100
AcDbCircle
 10
-619.225705003186
 20
-27.40343764021574
 30
0.0
 40
1.99999983246262
100
AcDbArc
 50
270.0
 51
0.0
  0
ARC
  5
353
330
1F
100
AcDbEntity
  8
0-0
  6
Continuous
 62
     4
370
     9
100
AcDbCircle
 10
-650.2257577903482
 20
-27.40343764021574
 30
0.0
 40
1.99999983246262
100
AcDbArc
 50
180.0
 51
270.0
  0
ARC
  5
354
330
1F
100
AcDbEntity
  8
0-0
  6
Continuous
 62
     4
370
     9
100
AcDbCircle
 10
-660.2260877101116
 20
70.59650214942738
 30
0.0
 40
2.000000025774982
100
AcDbArc
 50
90.0
 51
180.0
  0
ARC
  5
355
330
1F
100
AcDbEntity
  8
0-0
  6
Continuous
 62
     4
370
     9
100
AcDbCircle
 10
-660.2260877101118
 20
-37.40350774816548
 30
0.0
 40
2.000000025774982
100
AcDbArc
 50
180.0
 51
270.0
  0
ARC
  5
356
330
1F
100
AcDbEntity
  8
0-0
  6
Continuous
 62
     4
370
     9
100
AcDbCircle
 10
-609.2260679149259
 20
-37.40350774816548
 30
0.0
 40
2.000000025774982
100
AcDbArc
 50
270.0
 51
0.0
  0
ARC
  5
357
330
1F
100
AcDbEntity
  8
0-0
  6
Continuous
 62
     4
370
     9
100
AcDbCircle
 10
-609.2260679149258
 20
70.59650214942738
 30
0.0
 40
2.000000025774982
100
AcDbArc
 50
0.0
 51
90.0
  0
ARC
  5
358
330
1F
100
AcDbEntity
  8
0-2
  6
Continuous
 62
     3
370
     9
100
AcDbCircle
 10
-639.025889098414
 20
-14.35312735067825
 30
0.0
 40
1.700000891814361
100
AcDbArc
 50
180.0
 51
270.0
  0
ARC
  5
359
330
1F
100
AcDbEntity
  8
0-2
  6
Continuous
 62
     3
370
     9
100
AcDbCircle
 10
-630.4262170386589
 20
47.54653002764744
 30
0.0
 40
1.700000891814361
100
AcDbArc
 50
0.0
 51
89.20521545410156
  0
ARC
  5
35A
330
1F
100
AcDbEntity
  8
0-2
  6
Continuous
 62
     3
370
     9
100
AcDbCircle
 10
-630.4260438307831
 20
-14.35348613842095
 30
0.0
 40
1.700000118564915
100
AcDbArc
 50
270.0
 51
0.0
  0
ARC
  5
35B
330
1F
100
AcDbEntity
  8
0-0
  6
Continuous
 62
     4
370
     9
100
AcDbCircle
 10
-634.7260530685365
 20
16.59652194461316
 30
0.0
 40
12.50000025774982
100
AcDbArc
 50
301.3322448730469
 51
58.66775512695313
  0
ARC
  5
35C
330
1F
100
AcDbEntity
  8
0-0
  6
Continuous
 62
     4
370
     9
100
AcDbCircle
 10
-634.7260530685365
 20
16.59652194461316
 30
0.0
 40
12.50000025774982
100
AcDbArc
 50
121.3322448730469
 51
238.6677551269532
  0
ARC
  5
35D
330
1F
100
AcDbEntity
  8
0-0
  6
Continuous
 62
     4
370
     9
100
AcDbCircle
 10
-639.2260431709436
 20
-14.55349174705702
 30
0.0
 40
2.000000025774982
100
AcDbArc
 50
180.0
 51
270.0
  0
ARC
  5
35E
330
1F
100
AcDbEntity
  8
0-0
  6
Continuous
 62
     4
370
     9
100
AcDbCircle
 10
-630.2260629661295
 20
-14.55349174705702
 30
0.0
 40
2.000000025774982
100
AcDbArc
 50
270.0
 51
0.0
  0
ARC
  5
35F
330
1F
100
AcDbEntity
  8
0-0
  6
Continuous
 62
     4
370
     9
100
AcDbCircle
 10
-639.2260431709436
 20
47.74653563628338
 30
0.0
 40
2.000000025774982
100
AcDbArc
 50
90.0
 51
180.0
  0
ARC
  5
360
330
1F
100
AcDbEntity
  8
0-0
  6
Continuous
 62
     4
370
     9
100
AcDbCircle
 10
-630.2260629661295
 20
47.74653563628338
 30
0.0
 40
2.000000025774982
100
AcDbArc
 50
0.0
 51
90.0
  0
ARC
  5
361
330
1F
100
AcDbEntity
  8
0-2
  6
Continuous
 62
     3
370
     9
100
AcDbCircle
 10
-639.0260375623076
 20
47.54639393574497
 30
0.0
 40
1.700000118564915
100
AcDbArc
 50
90.0
 51
180.0
  0
LINE
  5
362
330
1F
100
AcDbEntity
  8
0-0
  6
Continuous
 62
     4
370
     9
100
AcDbLine
 10
-252.2335496114487
 20
-37.40345826020103
 30
0.0
 11
-252.2335496114487
 21
70.59650214942738
 31
0.0
  0
LINE
  5
363
330
1F
100
AcDbEntity
  8
0-0
  6
Continuous
 62
     4
370
     9
100
AcDbLine
 10
-199.2334489859209
 20
-39.40346485859621
 30
0.0
 11
-250.2334935250889
 21
-39.40346485859621
 31
0.0
  0
LINE
  5
364
330
1F
100
AcDbEntity
  8
0-0
  6
Continuous
 62
     4
370
     9
100
AcDbLine
 10
-197.233392899561
 20
70.59650214942738
 30
0.0
 11
-197.233392899561
 21
-37.40345826020103
 31
0.0
  0
LINE
  5
365
330
1F
100
AcDbEntity
  8
0-0
  6
Continuous
 62
     4
370
     9
100
AcDbLine
 10
-199.2334489859209
 20
72.59655823578723
 30
0.0
 11
-250.2334935250889
 21
72.59655823578723
 31
0.0
  0
LINE
  5
366
330
1F
100
AcDbEntity
  8
0-0
  6
Continuous
 62
     4
370
     9
100
AcDbLine
 10
-251.6477605753423
 20
-38.81708196691548
 30
0.0
 11
-241.6476780954014
 21
-28.81704897493918
 31
0.0
  0
LINE
  5
367
330
1F
100
AcDbEntity
  8
0-0
  6
Continuous
 62
     4
370
     9
100
AcDbLine
 10
-197.8188850078803
 20
72.01071971171626
 30
0.0
 11
-207.8189427438389
 21
62.01068671973989
 31
0.0
  0
LINE
  5
368
330
1F
100
AcDbEntity
  8
0-0
  6
Continuous
 62
     4
370
     9
100
AcDbLine
 10
-197.8188850078803
 20
-38.81708196691548
 30
0.0
 11
-207.8189427438389
 21
-28.81704897493918
 31
0.0
  0
LINE
  5
369
330
1F
100
AcDbEntity
  8
0-0
  6
Continuous
 62
     4
370
     9
100
AcDbLine
 10
-209.2331108181633
 20
62.59652524381085
 30
0.0
 11
-240.2331636053254
 21
62.59652524381085
 31
0.0
  0
LINE
  5
36A
330
1F
100
AcDbEntity
  8
0-0
  6
Continuous
 62
     4
370
     9
100
AcDbLine
 10
-207.2331289637502
 20
-27.40343764021574
 30
0.0
 11
-207.2331289637502
 21
60.59637018152198
 31
0.0
  0
LINE
  5
36B
330
1F
100
AcDbEntity
  8
0-0
  6
Continuous
 62
     4
370
     9
100
AcDbLine
 10
-242.2333186676143
 20
-27.40343764021574
 30
0.0
 11
-242.2333186676143
 21
60.59637018152198
 31
0.0
  0
LINE
  5
36C
330
1F
100
AcDbEntity
  8
0-0
  6
Continuous
 62
     4
370
     9
100
AcDbLine
 10
-240.2331636053254
 20
-29.4035184705578
 30
0.0
 11
-209.2331108181633
 21
-29.4035184705578
 31
0.0
  0
LINE
  5
36D
330
1F
100
AcDbEntity
  8
0-2
  6
Continuous
 62
     3
370
     9
100
AcDbLine
 10
-220.4334496457604
 20
-16.05348432386236
 30
0.0
 11
-229.0332949133913
 21
-16.05348432386236
 31
0.0
  0
LINE
  5
36E
330
1F
100
AcDbEntity
  8
0-2
  6
Continuous
 62
     3
370
     9
100
AcDbLine
 10
-218.7334638323102
 20
-14.35348613842095
 30
0.0
 11
-218.7334638323102
 21
47.54653002764744
 31
0.0
  0
LINE
  5
36F
330
1F
100
AcDbEntity
  8
0-0
  6
Continuous
 62
     4
370
     9
100
AcDbLine
 10
-220.2334687811066
 20
-16.55348597346119
 30
0.0
 11
-229.2334489859209
 21
-16.55348597346119
 31
0.0
  0
LINE
  5
370
330
1F
100
AcDbEntity
  8
0-0
  6
Continuous
 62
     4
370
     9
100
AcDbLine
 10
-231.2334555843161
 20
47.74653563628338
 30
0.0
 11
-231.2334555843161
 21
-14.55349174705702
 31
0.0
  0
LINE
  5
371
330
1F
100
AcDbEntity
  8
0-0
  6
Continuous
 62
     4
370
     9
100
AcDbLine
 10
-220.2334687811066
 20
49.74652986268755
 30
0.0
 11
-229.2334489859209
 21
49.74652986268755
 31
0.0
  0
LINE
  5
372
330
1F
100
AcDbEntity
  8
0-0
  6
Continuous
 62
     4
370
     9
100
AcDbLine
 10
-218.2334621827114
 20
47.74653563628338
 30
0.0
 11
-218.2334621827114
 21
-14.55349174705702
 31
0.0
  0
LINE
  5
373
330
1F
100
AcDbEntity
  8
0-2
  6
Continuous
 62
     3
370
     9
100
AcDbLine
 10
-230.7334539347173
 20
47.54639393574497
 30
0.0
 11
-230.7334539347173
 21
-14.35312735067825
 31
0.0
  0
LINE
  5
374
330
1F
100
AcDbEntity
  8
0-2
  6
Continuous
 62
     3
370
     9
100
AcDbLine
 10
-229.0334433772849
 20
49.24639212118631
 30
0.0
 11
-220.4100418385391
 21
49.24639212118631
 31
0.0
  0
LINE
  5
375
330
1F
100
AcDbEntity
  8
0-0
  6
Continuous
 62
     4
370
     9
100
AcDbLine
 10
-251.6477605753423
 20
72.01071971171626
 30
0.0
 11
-241.6476780954014
 21
62.01068671973989
 31
0.0
  0
ARC
  5
376
330
1F
100
AcDbEntity
  8
0-0
  6
Continuous
 62
     4
370
     9
100
AcDbCircle
 10
-240.2331636053254
 20
60.59637018152198
 30
0.0
 40
1.99999983246262
100
AcDbArc
 50
90.0
 51
180.0
  0
ARC
  5
377
330
1F
100
AcDbEntity
  8
0-0
  6
Continuous
 62
     4
370
     9
100
AcDbCircle
 10
-209.2331108181633
 20
60.59637018152198
 30
0.0
 40
1.99999983246262
100
AcDbArc
 50
0.0
 51
90.0
  0
ARC
  5
378
330
1F
100
AcDbEntity
  8
0-0
  6
Continuous
 62
     4
370
     9
100
AcDbCircle
 10
-209.2331108181633
 20
-27.40343764021574
 30
0.0
 40
1.99999983246262
100
AcDbArc
 50
270.0
 51
0.0
  0
ARC
  5
379
330
1F
100
AcDbEntity
  8
0-0
  6
Continuous
 62
     4
370
     9
100
AcDbCircle
 10
-240.2331636053254
 20
-27.40343764021574
 30
0.0
 40
1.99999983246262
100
AcDbArc
 50
180.0
 51
270.0
  0
ARC
  5
37A
330
1F
100
AcDbEntity
  8
0-0
  6
Continuous
 62
     4
370
     9
100
AcDbCircle
 10
-250.2334935250889
 20
70.59650214942738
 30
0.0
 40
2.000000025774982
100
AcDbArc
 50
90.0
 51
180.0
  0
ARC
  5
37B
330
1F
100
AcDbEntity
  8
0-0
  6
Continuous
 62
     4
370
     9
100
AcDbCircle
 10
-250.2334935250889
 20
-37.40350774816548
 30
0.0
 40
2.000000025774982
100
AcDbArc
 50
180.0
 51
270.0
  0
ARC
  5
37C
330
1F
100
AcDbEntity
  8
0-0
  6
Continuous
 62
     4
370
     9
100
AcDbCircle
 10
-199.2334737299031
 20
-37.40350774816548
 30
0.0
 40
2.000000025774982
100
AcDbArc
 50
270.0
 51
0.0
  0
ARC
  5
37D
330
1F
100
AcDbEntity
  8
0-0
  6
Continuous
 62
     4
370
     9
100
AcDbCircle
 10
-199.2334737299031
 20
70.59650214942738
 30
0.0
 40
2.000000025774982
100
AcDbArc
 50
0.0
 51
90.0
  0
ARC
  5
37E
330
1F
100
AcDbEntity
  8
0-2
  6
Continuous
 62
     3
370
     9
100
AcDbCircle
 10
-229.0332949133913
 20
-14.35312735067825
 30
0.0
 40
1.700000891814361
100
AcDbArc
 50
180.0
 51
270.0
  0
ARC
  5
37F
330
1F
100
AcDbEntity
  8
0-2
  6
Continuous
 62
     3
370
     9
100
AcDbCircle
 10
-220.4336228536362
 20
47.54653002764744
 30
0.0
 40
1.700000891814361
100
AcDbArc
 50
0.0
 51
89.20521545410156
  0
ARC
  5
380
330
1F
100
AcDbEntity
  8
0-2
  6
Continuous
 62
     3
370
     9
100
AcDbCircle
 10
-220.4334496457604
 20
-14.35348613842095
 30
0.0
 40
1.700000118564915
100
AcDbArc
 50
270.0
 51
0.0
  0
ARC
  5
381
330
1F
100
AcDbEntity
  8
0-0
  6
Continuous
 62
     4
370
     9
100
AcDbCircle
 10
-224.7334588835137
 20
16.59652194461316
 30
0.0
 40
12.50000025774982
100
AcDbArc
 50
301.3322448730469
 51
58.66775512695313
  0
ARC
  5
382
330
1F
100
AcDbEntity
  8
0-0
  6
Continuous
 62
     4
370
     9
100
AcDbCircle
 10
-224.7334588835137
 20
16.59652194461316
 30
0.0
 40
12.50000025774982
100
AcDbArc
 50
121.3322448730469
 51
238.6677551269532
  0
ARC
  5
383
330
1F
100
AcDbEntity
  8
0-0
  6
Continuous
 62
     4
370
     9
100
AcDbCircle
 10
-229.2334489859209
 20
-14.55349174705702
 30
0.0
 40
2.000000025774982
100
AcDbArc
 50
180.0
 51
270.0
  0
ARC
  5
384
330
1F
100
AcDbEntity
  8
0-0
  6
Continuous
 62
     4
370
     9
100
AcDbCircle
 10
-220.2334687811066
 20
-14.55349174705702
 30
0.0
 40
2.000000025774982
100
AcDbArc
 50
270.0
 51
0.0
  0
ARC
  5
385
330
1F
100
AcDbEntity
  8
0-0
  6
Continuous
 62
     4
370
     9
100
AcDbCircle
 10
-229.2334489859209
 20
47.74653563628338
 30
0.0
 40
2.000000025774982
100
AcDbArc
 50
90.0
 51
180.0
  0
ARC
  5
386
330
1F
100
AcDbEntity
  8
0-0
  6
Continuous
 62
     4
370
     9
100
AcDbCircle
 10
-220.2334687811066
 20
47.74653563628338
 30
0.0
 40
2.000000025774982
100
AcDbArc
 50
0.0
 51
90.0
  0
ARC
  5
387
330
1F
100
AcDbEntity
  8
0-2
  6
Continuous
 62
     3
370
     9
100
AcDbCircle
 10
-229.0334433772849
 20
47.54639393574497
 30
0.0
 40
1.700000118564915
100
AcDbArc
 50
90.0
 51
180.0
  0
LINE
  5
388
330
1F
100
AcDbEntity
  8
D-0
  6
Continuous
 62
     4
370
     9
100
AcDbLine
 10
284.6122033700884
 20
-352.0635506954921
 30
0.0
 11
307.4829733863204
 21
-348.6330449944786
 31
0.0
  0
LINE
  5
389
330
1F
100
AcDbEntity
  8
D-0
  6
Continuous
 62
     4
370
     9
100
AcDbLine
 10
282.4831074162244
 20
-354.5359075433067
 30
0.0
 11
282.4831074162244
 21
-354.8829418945525
 31
0.0
  0
LINE
  5
38A
330
1F
100
AcDbEntity
  8
D-2
  6
Continuous
 62
     3
370
     9
100
AcDbLine
 10
342.4828104884371
 20
-448.6329418945525
 30
0.0
 11
502.4828434804134
 21
-448.6329418945525
 31
0.0
  0
LINE
  5
38B
330
1F
100
AcDbEntity
  8
D-2
  6
Continuous
 62
     3
370
     9
100
AcDbLine
 10
342.4828104884371
 20
-454.8830243744934
 30
0.0
 11
502.4828434804134
 21
-454.8830243744934
 31
0.0
  0
LINE
  5
38C
330
1F
100
AcDbEntity
  8
D-2
  6
Continuous
 62
     3
370
     9
100
AcDbLine
 10
384.9830744242478
 20
-445.1329056033785
 30
0.0
 11
392.4829754483188
 21
-447.8829517921454
 31
0.0
  0
LINE
  5
38D
330
1F
100
AcDbEntity
  8
D-2
  6
Continuous
 62
     3
370
     9
100
AcDbLine
 10
459.983074424248
 20
-445.1329056033785
 30
0.0
 11
452.483173400177
 21
-447.8829517921454
 31
0.0
  0
LINE
  5
38E
330
1F
100
AcDbEntity
  8
D-2
  6
Continuous
 62
     3
370
     9
100
AcDbLine
 10
392.4829754483188
 20
-447.8829517921454
 30
0.0
 11
392.4829754483188
 21
-448.6329418945525
 31
0.0
  0
LINE
  5
38F
330
1F
100
AcDbEntity
  8
D-2
  6
Continuous
 62
     3
370
     9
100
AcDbLine
 10
452.483173400177
 20
-447.8829517921454
 30
0.0
 11
452.483173400177
 21
-448.6329418945525
 31
0.0
  0
LINE
  5
390
330
1F
100
AcDbEntity
  8
D-2
  6
Continuous
 62
     3
370
     9
100
AcDbLine
 10
382.4829115263647
 20
-472.3829583905406
 30
0.0
 11
382.4829115263647
 21
-454.8830243744934
 31
0.0
  0
LINE
  5
391
330
1F
100
AcDbEntity
  8
D-2
  6
Continuous
 62
     3
370
     9
100
AcDbLine
 10
459.983074424248
 20
-474.8828429186234
 30
0.0
 11
384.9830744242478
 21
-474.8828429186234
 31
0.0
  0
LINE
  5
392
330
1F
100
AcDbEntity
  8
D-2
  6
Continuous
 62
     3
370
     9
100
AcDbLine
 10
462.4829589523308
 20
-472.3829583905406
 30
0.0
 11
462.4829589523308
 21
-454.8830243744934
 31
0.0
  0
LINE
  5
393
330
1F
100
AcDbEntity
  8
D-2
  6
Continuous
 62
     3
370
     9
100
AcDbLine
 10
342.4828104884371
 20
-448.6329418945525
 30
0.0
 11
342.4828104884371
 21
-459.8830408704815
 31
0.0
  0
LINE
  5
394
330
1F
100
AcDbEntity
  8
D-2
  6
Continuous
 62
     3
370
     9
100
AcDbLine
 10
502.4828434804134
 20
-448.6329418945525
 30
0.0
 11
502.4828434804134
 21
-459.8830408704815
 31
0.0
  0
LINE
  5
395
330
1F
100
AcDbEntity
  8
D-2
  6
Continuous
 62
     3
370
     9
100
AcDbLine
 10
342.4828104884371
 20
-459.8830408704815
 30
0.0
 11
381.857909464366
 21
-459.8830408704815
 31
0.0
  0
LINE
  5
396
330
1F
100
AcDbEntity
  8
D-2
  6
Continuous
 62
     3
370
     9
100
AcDbLine
 10
463.1079919443072
 20
-459.8830408704815
 30
0.0
 11
502.4828434804134
 21
-459.8830408704815
 31
0.0
  0
LINE
  5
397
330
1F
100
AcDbEntity
  8
D-2
  6
Continuous
 62
     3
370
     9
100
AcDbLine
 10
463.1079919443072
 20
-454.8830243744934
 30
0.0
 11
463.1079919443072
 21
-459.8830408704815
 31
0.0
  0
LINE
  5
398
330
1F
100
AcDbEntity
  8
D-2
  6
Continuous
 62
     3
370
     9
100
AcDbLine
 10
381.857909464366
 20
-454.8830243744934
 30
0.0
 11
381.857909464366
 21
-459.8830408704815
 31
0.0
  0
LINE
  5
399
330
1F
100
AcDbEntity
  8
D-2
  6
Continuous
 62
     3
370
     9
100
AcDbLine
 10
384.9830744242478
 20
-412.1328462178211
 30
0.0
 11
384.9830744242478
 21
-445.1329056033785
 31
0.0
  0
LINE
  5
39A
330
1F
100
AcDbEntity
  8
D-2
  6
Continuous
 62
     3
370
     9
100
AcDbLine
 10
459.983074424248
 20
-412.1734263487333
 30
0.0
 11
459.983074424248
 21
-445.1329056033785
 31
0.0
  0
LINE
  5
39B
330
1F
100
AcDbEntity
  8
D-0
  6
Continuous
 62
     4
370
     9
100
AcDbLine
 10
560.3539454784077
 20
-352.0635506954921
 30
0.0
 11
537.4832063921535
 21
-348.6330449944786
 31
0.0
  0
LINE
  5
39C
330
1F
100
AcDbEntity
  8
D-0
  6
Continuous
 62
     4
370
     9
100
AcDbLine
 10
562.4830414322718
 20
-354.5359075433067
 30
0.0
 11
562.4830414322718
 21
-354.8829418945525
 31
0.0
  0
LINE
  5
39D
330
1F
100
AcDbEntity
  8
D-2
  6
Continuous
 62
     3
370
     9
100
AcDbLine
 10
397.4827445044845
 20
-376.1328264226353
 30
0.0
 11
397.4827445044845
 21
-393.7050747268476
 31
0.0
  0
LINE
  5
39E
330
1F
100
AcDbEntity
  8
D-2
  6
Continuous
 62
     3
370
     9
100
AcDbLine
 10
447.4829094643666
 20
-376.1328264226353
 30
0.0
 11
447.4829094643666
 21
-393.6329460185496
 31
0.0
  0
LINE
  5
39F
330
1F
100
AcDbEntity
  8
D-0
  6
Continuous
 62
     4
370
     9
100
AcDbLine
 10
532.6344374877511
 20
-374.882884158594
 30
0.0
 11
517.331150497147
 21
-374.882884158594
 31
0.0
  0
LINE
  5
3A0
330
1F
100
AcDbEntity
  8
D-A
  6
Continuous
 62
     2
370
     9
100
AcDbLine
 10
309.8797373683199
 20
-381.1328429186234
 30
0.0
 11
309.8797373683199
 21
-374.882884158594
 31
0.0
  0
LINE
  5
3A1
330
1F
100
AcDbEntity
  8
D-A
  6
Continuous
 62
     2
370
     9
100
AcDbLine
 10
330.0869723437738
 20
-381.1328429186234
 30
0.0
 11
330.0869723437738
 21
-374.882884158594
 31
0.0
  0
LINE
  5
3A2
330
1F
100
AcDbEntity
  8
D-A
  6
Continuous
 62
     2
370
     9
100
AcDbLine
 10
325.0351790648994
 20
-381.1328429186234
 30
0.0
 11
325.0351790648994
 21
-374.882884158594
 31
0.0
  0
LINE
  5
3A3
330
1F
100
AcDbEntity
  8
D-A
  6
Continuous
 62
     2
370
     9
100
AcDbLine
 10
314.9315306471947
 20
-381.1328429186234
 30
0.0
 11
314.9315306471947
 21
-374.882884158594
 31
0.0
  0
LINE
  5
3A4
330
1F
100
AcDbEntity
  8
D-A
  6
Continuous
 62
     2
370
     9
100
AcDbLine
 10
312.4056340077574
 20
-382.3828470426204
 30
0.0
 11
327.5610757043369
 21
-382.3828470426204
 31
0.0
  0
LINE
  5
3A5
330
1F
100
AcDbEntity
  8
D-A
  6
Continuous
 62
     2
370
     9
100
AcDbLine
 10
330.0869723437738
 20
-374.882884158594
 30
0.0
 11
327.4835961098738
 21
-374.882884158594
 31
0.0
  0
LINE
  5
3A6
330
1F
100
AcDbEntity
  8
D-A
  6
Continuous
 62
     2
370
     9
100
AcDbLine
 10
312.4830826722421
 20
-374.882884158594
 30
0.0
 11
309.8797373683199
 21
-374.882884158594
 31
0.0
  0
LINE
  5
3A7
330
1F
100
AcDbEntity
  8
D-0
  6
Continuous
 62
     4
370
     9
100
AcDbLine
 10
327.6349983513488
 20
-374.882884158594
 30
0.0
 11
312.3317113607449
 21
-374.882884158594
 31
0.0
  0
LINE
  5
3A8
330
1F
100
AcDbEntity
  8
D-0
  6
Continuous
 62
     4
370
     9
100
AcDbLine
 10
308.8795546752509
 20
-357.2270011943309
 30
0.0
 11
309.8365900492478
 21
-372.53876299886
 31
0.0
  0
LINE
  5
3A9
330
1F
100
AcDbEntity
  8
D-0
  6
Continuous
 62
     4
370
     9
100
AcDbLine
 10
536.0865941732452
 20
-357.2270011943309
 30
0.0
 11
535.129558799248
 21
-372.53876299886
 31
0.0
  0
LINE
  5
3AA
330
1F
100
AcDbEntity
  8
D-A
  6
Continuous
 62
     2
370
     9
100
AcDbLine
 10
535.0863805501983
 20
-381.1328429186234
 30
0.0
 11
535.0863805501983
 21
-374.882884158594
 31
0.0
  0
LINE
  5
3AB
330
1F
100
AcDbEntity
  8
D-A
  6
Continuous
 62
     2
370
     9
100
AcDbLine
 10
514.8792074346999
 20
-381.1328429186234
 30
0.0
 11
514.8792074346999
 21
-374.882884158594
 31
0.0
  0
LINE
  5
3AC
330
1F
100
AcDbEntity
  8
D-A
  6
Continuous
 62
     2
370
     9
100
AcDbLine
 10
519.9309388536188
 20
-381.1328429186234
 30
0.0
 11
519.9309388536188
 21
-374.882884158594
 31
0.0
  0
LINE
  5
3AD
330
1F
100
AcDbEntity
  8
D-A
  6
Continuous
 62
     2
370
     9
100
AcDbLine
 10
530.0346491312793
 20
-381.1328429186234
 30
0.0
 11
530.0346491312793
 21
-374.882884158594
 31
0.0
  0
LINE
  5
3AE
330
1F
100
AcDbEntity
  8
D-A
  6
Continuous
 62
     2
370
     9
100
AcDbLine
 10
532.5605148407386
 20
-382.3828470426204
 30
0.0
 11
517.4050731441592
 21
-382.3828470426204
 31
0.0
  0
LINE
  5
3AF
330
1F
100
AcDbEntity
  8
D-A
  6
Continuous
 62
     2
370
     9
100
AcDbLine
 10
514.8792074346999
 20
-374.882884158594
 30
0.0
 11
517.4825218086442
 21
-374.882884158594
 31
0.0
  0
LINE
  5
3B0
330
1F
100
AcDbEntity
  8
D-A
  6
Continuous
 62
     2
370
     9
100
AcDbLine
 10
532.483066176254
 20
-374.882884158594
 30
0.0
 11
535.0863805501983
 21
-374.882884158594
 31
0.0
  0
LINE
  5
3B1
330
1F
100
AcDbEntity
  8
D-5
  6
JWW_PHANTOM2
 62
     7
370
     9
100
AcDbLine
 10
501.6080818474428
 20
-276.1327439426942
 30
0.0
 11
343.3580360710754
 21
-276.1327439426942
 31
0.0
  0
LINE
  5
3B2
330
1F
100
AcDbEntity
  8
D-5
  6
JWW_PHANTOM2
 62
     7
370
     9
100
AcDbLine
 10
397.4827445044845
 20
-302.3827686866767
 30
0.0
 11
397.4827445044845
 21
-319.955016990889
 31
0.0
  0
LINE
  5
3B3
330
1F
100
AcDbEntity
  8
D-5
  6
JWW_PHANTOM2
 62
     7
370
     9
100
AcDbLine
 10
447.4829094643666
 20
-302.3827686866767
 30
0.0
 11
447.4829094643666
 21
-319.8828882825909
 31
0.0
  0
LINE
  5
3B4
330
1F
100
AcDbEntity
  8
D-5
  6
JWW_PHANTOM2
 62
     7
370
     9
100
AcDbLine
 10
340.8580587530593
 20
-287.3827810586679
 30
0.0
 11
340.8580587530593
 21
-278.6328140506441
 31
0.0
  0
LINE
  5
3B5
330
1F
100
AcDbEntity
  8
D-5
  6
JWW_PHANTOM2
 62
     7
370
     9
100
AcDbLine
 10
389.9827197605022
 20
-294.8827439426944
 30
0.0
 11
345.6080682382525
 21
-294.8827439426944
 31
0.0
  0
LINE
  5
3B6
330
1F
100
AcDbEntity
  8
D-5
  6
JWW_PHANTOM2
 62
     7
370
     9
100
AcDbLine
 10
345.6080682382525
 20
-289.8827893066618
 30
0.0
 11
345.6080682382525
 21
-294.8827439426944
 31
0.0
  0
LINE
  5
3B7
330
1F
100
AcDbEntity
  8
D-5
  6
JWW_PHANTOM2
 62
     7
370
     9
100
AcDbLine
 10
504.1080900954369
 20
-287.3827810586679
 30
0.0
 11
504.1080900954369
 21
-278.6328140506441
 31
0.0
  0
LINE
  5
3B8
330
1F
100
AcDbEntity
  8
D-5
  6
JWW_PHANTOM2
 62
     7
370
     9
100
AcDbLine
 10
454.9829032783707
 20
-294.8827439426944
 30
0.0
 11
499.3580806102436
 21
-294.8827439426944
 31
0.0
  0
LINE
  5
3B9
330
1F
100
AcDbEntity
  8
D-5
  6
JWW_PHANTOM2
 62
     7
370
     9
100
AcDbLine
 10
499.3580806102436
 20
-289.8827893066618
 30
0.0
 11
499.3580806102436
 21
-294.8827439426944
 31
0.0
  0
LINE
  5
3BA
330
1F
100
AcDbEntity
  8
D-5
  6
JWW_PHANTOM2
 62
     7
370
     9
100
AcDbLine
 10
501.6080818474428
 20
-289.8827893066618
 30
0.0
 11
343.3580360710754
 21
-289.8827893066618
 31
0.0
  0
LINE
  5
3BB
330
1F
100
AcDbEntity
  8
D-0
  6
Continuous
 62
     4
370
     9
100
AcDbLine
 10
339.3969884603542
 20
-374.882884158594
 30
0.0
 11
505.5691603881418
 21
-374.882884158594
 31
0.0
  0
LINE
  5
3BC
330
1F
100
AcDbEntity
  8
D-0
  6
Continuous
 62
     4
370
     9
100
AcDbLine
 10
562.4830414322718
 20
-354.8829418945525
 30
0.0
 11
282.4831074162244
 21
-354.8829418945525
 31
0.0
  0
LINE
  5
3BD
330
1F
100
AcDbEntity
  8
D-0
  6
Continuous
 62
     4
370
     9
100
AcDbLine
 10
307.4829733863204
 20
-348.6330449944786
 30
0.0
 11
537.4830826722421
 21
-348.6330449944786
 31
0.0
  0
LINE
  5
3BE
330
1F
100
AcDbEntity
  8
D-5
  6
JWW_PHANTOM2
 62
     7
370
     9
100
AcDbLine
 10
384.9830744242478
 20
-346.931339474261
 30
0.0
 11
384.9830744242478
 21
-338.4233686127747
 31
0.0
  0
LINE
  5
3BF
330
1F
100
AcDbEntity
  8
D-5
  6
JWW_PHANTOM2
 62
     7
370
     9
100
AcDbLine
 10
459.983074424248
 20
-346.931339474261
 30
0.0
 11
459.983074424248
 21
-338.4233686127747
 31
0.0
  0
LINE
  5
3C0
330
1F
100
AcDbEntity
  8
D-0
  6
Continuous
 62
     4
370
     9
100
AcDbLine
 10
330.3253496829051
 20
-369.415082677914
 30
0.0
 11
330.1301196628459
 21
-372.53876299886
 31
0.0
  0
LINE
  5
3C1
330
1F
100
AcDbEntity
  8
D-0
  6
Continuous
 62
     4
370
     9
100
AcDbLine
 10
507.1553733711442
 20
-362.3829357085569
 30
0.0
 11
337.8107445473738
 21
-362.3829357085569
 31
0.0
  0
LINE
  5
3C2
330
1F
100
AcDbEntity
  8
D-0
  6
Continuous
 62
     4
370
     9
100
AcDbLine
 10
514.640799165591
 20
-369.415082677914
 30
0.0
 11
514.8360291856501
 21
-372.53876299886
 31
0.0
  0
LINE
  5
3C3
330
1F
100
AcDbEntity
  8
D-0
  6
Continuous
 62
     4
370
     9
100
AcDbLine
 10
511.3825115811313
 20
-363.6876240333564
 30
0.0
 11
510.5305762717989
 21
-370.503013718085
 31
0.0
  0
LINE
  5
3C4
330
1F
100
AcDbEntity
  8
D-0
  6
Continuous
 62
     4
370
     9
100
AcDbLine
 10
333.5836681973423
 20
-363.6876240333564
 30
0.0
 11
334.4356035066749
 21
-370.503013718085
 31
0.0
  0
ARC
  5
3C5
330
1F
100
AcDbEntity
  8
D-0
  6
Continuous
 62
     4
370
     9
100
AcDbCircle
 10
284.9829919443072
 20
-354.5359075433067
 30
0.0
 40
2.500000032218727
100
AcDbArc
 50
98.53070068359375
 51
180.0
  0
ARC
  5
3C6
330
1F
100
AcDbEntity
  8
D-2
  6
Continuous
 62
     3
370
     9
100
AcDbCircle
 10
384.9830744242478
 20
-472.3829583905406
 30
0.0
 40
2.500000032218727
100
AcDbArc
 50
180.0
 51
270.0
  0
ARC
  5
3C7
330
1F
100
AcDbEntity
  8
D-2
  6
Continuous
 62
     3
370
     9
100
AcDbCircle
 10
459.983074424248
 20
-472.3829583905406
 30
0.0
 40
2.500000032218727
100
AcDbArc
 50
270.0
 51
0.0
  0
ARC
  5
3C8
330
1F
100
AcDbEntity
  8
D-2
  6
Continuous
 62
     3
370
     9
100
AcDbCircle
 10
447.4829094643666
 20
-412.1734263487333
 30
0.0
 40
12.50000064437454
100
AcDbArc
 50
0.0
 51
67.9756622314453
  0
ARC
  5
3C9
330
1F
100
AcDbEntity
  8
D-2
  6
Continuous
 62
     3
370
     9
100
AcDbCircle
 10
389.9830599902582
 20
-393.6329460185496
 30
0.0
 40
7.500000096656181
100
AcDbArc
 50
292.0240478515625
 51
359.4492034912109
  0
ARC
  5
3CA
330
1F
100
AcDbEntity
  8
D-2
  6
Continuous
 62
     3
370
     9
100
AcDbCircle
 10
454.9828104884374
 20
-393.6329460185496
 30
0.0
 40
7.500000096656181
100
AcDbArc
 50
180.0
 51
247.9759521484375
  0
ARC
  5
3CB
330
1F
100
AcDbEntity
  8
D-0
  6
Continuous
 62
     4
370
     9
100
AcDbCircle
 10
559.983156904189
 20
-354.5359075433067
 30
0.0
 40
2.500000032218727
100
AcDbArc
 50
0.0
 51
81.46929931640625
  0
ARC
  5
3CC
330
1F
100
AcDbEntity
  8
D-A
  6
Continuous
 62
     2
370
     9
100
AcDbCircle
 10
319.983354856047
 20
-371.5494985879648
 30
0.0
 40
10.83333975559956
100
AcDbArc
 50
242.2042083740235
 51
297.7957916259766
  0
ARC
  5
3CD
330
1F
100
AcDbEntity
  8
D-A
  6
Continuous
 62
     2
370
     9
100
AcDbCircle
 10
327.5610757043369
 20
-379.205781579941
 30
0.0
 40
3.17705507214005
100
AcDbArc
 50
217.3407897949219
 51
322.6592102050781
  0
ARC
  5
3CE
330
1F
100
AcDbEntity
  8
D-A
  6
Continuous
 62
     2
370
     9
100
AcDbCircle
 10
312.4056340077574
 20
-379.205781579941
 30
0.0
 40
3.17705507214005
100
AcDbArc
 50
217.3407897949219
 51
322.6592102050781
  0
ARC
  5
3CF
330
1F
100
AcDbEntity
  8
D-0
  6
Continuous
 62
     4
370
     9
100
AcDbCircle
 10
312.3317113607449
 20
-372.3828759105999
 30
0.0
 40
2.500000032218727
100
AcDbArc
 50
183.576416015625
 51
270.0
  0
ARC
  5
3D0
330
1F
100
AcDbEntity
  8
D-0
  6
Continuous
 62
     4
370
     9
100
AcDbCircle
 10
327.6349983513488
 20
-372.3828759105999
 30
0.0
 40
2.500000032218727
100
AcDbArc
 50
270.0
 51
356.423583984375
  0
ARC
  5
3D1
330
1F
100
AcDbEntity
  8
D-0
  6
Continuous
 62
     4
370
     9
100
AcDbCircle
 10
306.3844333637537
 20
-357.3829501425465
 30
0.0
 40
2.500000032218727
100
AcDbArc
 50
3.576416015625
 51
90.00000000000001
  0
ARC
  5
3D2
330
1F
100
AcDbEntity
  8
D-0
  6
Continuous
 62
     4
370
     9
100
AcDbCircle
 10
532.6344374877511
 20
-372.3828759105999
 30
0.0
 40
2.500000032218727
100
AcDbArc
 50
270.0
 51
356.423583984375
  0
ARC
  5
3D3
330
1F
100
AcDbEntity
  8
D-0
  6
Continuous
 62
     4
370
     9
100
AcDbCircle
 10
517.331150497147
 20
-372.3828759105999
 30
0.0
 40
2.500000032218727
100
AcDbArc
 50
183.576416015625
 51
270.0
  0
ARC
  5
3D4
330
1F
100
AcDbEntity
  8
D-0
  6
Continuous
 62
     4
370
     9
100
AcDbCircle
 10
538.5817154847421
 20
-357.3829501425465
 30
0.0
 40
2.500000032218727
100
AcDbArc
 50
90.0
 51
176.423583984375
  0
ARC
  5
3D5
330
1F
100
AcDbEntity
  8
D-0
  6
Continuous
 62
     4
370
     9
100
AcDbCircle
 10
505.5691603881418
 20
-369.8828676626057
 30
0.0
 40
5.000000064437454
100
AcDbArc
 50
270.0
 51
352.8752899169922
  0
ARC
  5
3D6
330
1F
100
AcDbEntity
  8
D-0
  6
Continuous
 62
     4
370
     9
100
AcDbCircle
 10
339.3969884603542
 20
-369.8828676626057
 30
0.0
 40
5.000000064437454
100
AcDbArc
 50
187.1247100830078
 51
270.0
  0
ARC
  5
3D7
330
1F
100
AcDbEntity
  8
D-A
  6
Continuous
 62
     2
370
     9
100
AcDbCircle
 10
524.982793992449
 20
-371.5494985879648
 30
0.0
 40
10.83333975559956
100
AcDbArc
 50
242.2042083740235
 51
297.7957916259766
  0
ARC
  5
3D8
330
1F
100
AcDbEntity
  8
D-A
  6
Continuous
 62
     2
370
     9
100
AcDbCircle
 10
517.4050731441592
 20
-379.205781579941
 30
0.0
 40
3.17705507214005
100
AcDbArc
 50
217.3407897949219
 51
322.6592102050781
  0
ARC
  5
3D9
330
1F
100
AcDbEntity
  8
D-A
  6
Continuous
 62
     2
370
     9
100
AcDbCircle
 10
532.5605148407386
 20
-379.205781579941
 30
0.0
 40
3.17705507214005
100
AcDbArc
 50
217.3407897949219
 51
322.6592102050781
  0
ARC
  5
3DA
330
1F
100
AcDbEntity
  8
D-5
  6
JWW_PHANTOM2
 62
     7
370
     9
100
AcDbCircle
 10
343.3580360710754
 20
-278.6328140506441
 30
0.0
 40
2.500000032218727
100
AcDbArc
 50
90.0
 51
180.0
  0
ARC
  5
3DB
330
1F
100
AcDbEntity
  8
D-5
  6
JWW_PHANTOM2
 62
     7
370
     9
100
AcDbCircle
 10
501.6080818474428
 20
-278.6328140506441
 30
0.0
 40
2.500000032218727
100
AcDbArc
 50
0.0
 51
90.0
  0
ARC
  5
3DC
330
1F
100
AcDbEntity
  8
D-5
  6
JWW_PHANTOM2
 62
     7
370
     9
100
AcDbCircle
 10
389.9827197605022
 20
-302.3827686866767
 30
0.0
 40
7.500000096656181
100
AcDbArc
 50
0.0
 51
90.0
  0
ARC
  5
3DD
330
1F
100
AcDbEntity
  8
D-5
  6
JWW_PHANTOM2
 62
     7
370
     9
100
AcDbCircle
 10
454.9829032783707
 20
-302.3827686866767
 30
0.0
 40
7.500000096656181
100
AcDbArc
 50
90.0
 51
180.0
  0
ARC
  5
3DE
330
1F
100
AcDbEntity
  8
D-5
  6
JWW_PHANTOM2
 62
     7
370
     9
100
AcDbCircle
 10
343.3580360710754
 20
-287.3827810586679
 30
0.0
 40
2.500000032218727
100
AcDbArc
 50
180.0
 51
270.0
  0
ARC
  5
3DF
330
1F
100
AcDbEntity
  8
D-5
  6
JWW_PHANTOM2
 62
     7
370
     9
100
AcDbCircle
 10
501.6080818474428
 20
-287.3827810586679
 30
0.0
 40
2.500000032218727
100
AcDbArc
 50
270.0
 51
0.0
  0
ARC
  5
3E0
330
1F
100
AcDbEntity
  8
D-5
  6
JWW_PHANTOM2
 62
     7
370
     9
100
AcDbCircle
 10
397.4829919443072
 20
-338.4233686127747
 30
0.0
 40
12.50000064437454
100
AcDbArc
 50
112.0243377685547
 51
180.0
  0
ARC
  5
3E1
330
1F
100
AcDbEntity
  8
D-5
  6
JWW_PHANTOM2
 62
     7
370
     9
100
AcDbCircle
 10
389.9830599902582
 20
-319.8828882825909
 30
0.0
 40
7.500000096656181
100
AcDbArc
 50
292.0240478515625
 51
359.4492034912109
  0
ARC
  5
3E2
330
1F
100
AcDbEntity
  8
D-5
  6
JWW_PHANTOM2
 62
     7
370
     9
100
AcDbCircle
 10
447.4831569041889
 20
-338.4233686127747
 30
0.0
 40
12.50000064437454
100
AcDbArc
 50
0.0
 51
67.9756622314453
  0
ARC
  5
3E3
330
1F
100
AcDbEntity
  8
D-5
  6
JWW_PHANTOM2
 62
     7
370
     9
100
AcDbCircle
 10
454.9830888582376
 20
-319.8828882825909
 30
0.0
 40
7.500000096656181
100
AcDbArc
 50
180.5507965087891
 51
247.9759521484375
  0
ARC
  5
3E4
330
1F
100
AcDbEntity
  8
D-2
  6
Continuous
 62
     3
370
     9
100
AcDbCircle
 10
389.9827197605022
 20
-376.1328264226353
 30
0.0
 40
7.500000096656181
100
AcDbArc
 50
0.0
 51
9.593612670898438
  0
ARC
  5
3E5
330
1F
100
AcDbEntity
  8
D-2
  6
Continuous
 62
     3
370
     9
100
AcDbCircle
 10
454.9829032783707
 20
-376.1328264226353
 30
0.0
 40
7.500000096656181
100
AcDbArc
 50
170.4063873291016
 51
180.0
  0
ARC
  5
3E6
330
1F
100
AcDbEntity
  8
D-0
  6
Continuous
 62
     4
370
     9
100
AcDbCircle
 10
337.8107445473738
 20
-369.8829295225614
 30
0.0
 40
7.500000096656181
100
AcDbArc
 50
90.0
 51
176.423583984375
  0
ARC
  5
3E7
330
1F
100
AcDbEntity
  8
D-0
  6
Continuous
 62
     4
370
     9
100
AcDbCircle
 10
507.1553733711442
 20
-369.8829295225614
 30
0.0
 40
7.500000096656181
100
AcDbArc
 50
3.576400756835938
 51
89.99999999999999
  0
LINE
  5
3E8
330
1F
100
AcDbEntity
  8
D-2
  6
JWW_CENTER1
 62
     3
370
     9
100
AcDbLine
 10
422.4830744242478
 20
-343.7949778624052
 30
0.0
 11
422.4830744242478
 21
-478.2078773952387
 31
0.0
  0
LINE
  5
3E9
330
1F
100
AcDbEntity
  8
D-3
  6
Continuous
 62
     3
370
     9
100
AcDbLine
 10
327.4832558801181
 20
-399.132914676172
 30
0.0
 11
327.4832558801181
 21
-391.1329377705555
 31
0.0
  0
LINE
  5
3EA
330
1F
100
AcDbEntity
  8
D-A
  6
Continuous
 62
     2
370
     9
100
AcDbLine
 10
535.0861331103754
 20
-407.8828816841957
 30
0.0
 11
535.0861331103754
 21
-401.6329229241661
 31
0.0
  0
LINE
  5
3EB
330
1F
100
AcDbEntity
  8
D-A
  6
Continuous
 62
     2
370
     9
100
AcDbLine
 10
514.8789599948772
 20
-407.8828816841957
 30
0.0
 11
514.8789599948772
 21
-401.6329229241661
 31
0.0
  0
LINE
  5
3EC
330
1F
100
AcDbEntity
  8
D-A
  6
Continuous
 62
     2
370
     9
100
AcDbLine
 10
519.9306914137962
 20
-407.8828816841957
 30
0.0
 11
519.9306914137962
 21
-401.6329229241661
 31
0.0
  0
LINE
  5
3ED
330
1F
100
AcDbEntity
  8
D-A
  6
Continuous
 62
     2
370
     9
100
AcDbLine
 10
530.0344016914567
 20
-407.8828816841957
 30
0.0
 11
530.0344016914567
 21
-401.6329229241661
 31
0.0
  0
LINE
  5
3EE
330
1F
100
AcDbEntity
  8
D-A
  6
Continuous
 62
     2
370
     9
100
AcDbLine
 10
532.560267400916
 20
-409.1328858081928
 30
0.0
 11
517.4048257043363
 21
-409.1328858081928
 31
0.0
  0
LINE
  5
3EF
330
1F
100
AcDbEntity
  8
D-A
  6
Continuous
 62
     2
370
     9
100
AcDbLine
 10
534.4822562232342
 20
-399.133285835906
 30
0.0
 11
534.4822562232342
 21
-401.6329847841218
 31
0.0
  0
LINE
  5
3F0
330
1F
100
AcDbEntity
  8
D-A
  6
Continuous
 62
     2
370
     9
100
AcDbLine
 10
515.4827131621066
 20
-399.133285835906
 30
0.0
 11
515.4827131621066
 21
-401.6329847841218
 31
0.0
  0
LINE
  5
3F1
330
1F
100
AcDbEntity
  8
D-A
  6
Continuous
 62
     2
370
     9
100
AcDbLine
 10
527.4824310807087
 20
-399.132914676172
 30
0.0
 11
527.4824310807087
 21
-401.6326136243878
 31
0.0
  0
LINE
  5
3F2
330
1F
100
AcDbEntity
  8
D-A
  6
Continuous
 62
     2
370
     9
100
AcDbLine
 10
528.7324970646615
 20
-399.132914676172
 30
0.0
 11
528.7324970646615
 21
-401.6326136243878
 31
0.0
  0
LINE
  5
3F3
330
1F
100
AcDbEntity
  8
D-A
  6
Continuous
 62
     2
370
     9
100
AcDbLine
 10
535.0861331103754
 20
-401.6329229241661
 30
0.0
 11
514.8789599948772
 21
-401.6329229241661
 31
0.0
  0
LINE
  5
3F4
330
1F
100
AcDbEntity
  8
D-A
  6
Continuous
 62
     2
370
     9
100
AcDbLine
 10
535.0864114801759
 20
-419.3699661502535
 30
0.0
 11
535.0864114801759
 21
-413.3957790725509
 31
0.0
  0
LINE
  5
3F5
330
1F
100
AcDbEntity
  8
D-A
  6
Continuous
 62
     2
370
     9
100
AcDbLine
 10
533.332001277737
 20
-412.3828532286161
 30
0.0
 11
535.0864114801759
 21
-413.3957790725509
 31
0.0
  0
LINE
  5
3F6
330
1F
100
AcDbEntity
  8
D-A
  6
Continuous
 62
     2
370
     9
100
AcDbLine
 10
531.9828356448188
 20
-421.8834598685813
 30
0.0
 11
531.9828356448188
 21
-423.0754393541703
 31
0.0
  0
LINE
  5
3F7
330
1F
100
AcDbEntity
  8
D-A
  6
Continuous
 62
     2
370
     9
100
AcDbLine
 10
532.6078067768397
 20
-420.8009725045082
 30
0.0
 11
535.0864114801759
 21
-419.3699661502535
 31
0.0
  0
LINE
  5
3F8
330
1F
100
AcDbEntity
  8
D-A
  6
Continuous
 62
     2
370
     9
100
AcDbLine
 10
517.357812138036
 20
-420.8009725045082
 30
0.0
 11
514.8792074346999
 21
-419.3699661502535
 31
0.0
  0
LINE
  5
3F9
330
1F
100
AcDbEntity
  8
D-A
  6
Continuous
 62
     2
370
     9
100
AcDbLine
 10
517.9828142000342
 20
-423.0754393541703
 30
0.0
 11
517.9828142000342
 21
-421.8834598685813
 31
0.0
  0
LINE
  5
3FA
330
1F
100
AcDbEntity
  8
D-A
  6
Continuous
 62
     2
370
     9
100
AcDbLine
 10
514.8792074346999
 20
-419.3699661502535
 30
0.0
 11
514.8792074346999
 21
-413.3957790725509
 31
0.0
  0
LINE
  5
3FB
330
1F
100
AcDbEntity
  8
D-A
  6
Continuous
 62
     2
370
     9
100
AcDbLine
 10
530.0346182013014
 20
-419.3699661502535
 30
0.0
 11
530.0346182013014
 21
-413.3957790725509
 31
0.0
  0
LINE
  5
3FC
330
1F
100
AcDbEntity
  8
D-A
  6
Continuous
 62
     2
370
     9
100
AcDbLine
 10
519.9310007135743
 20
-419.3699661502535
 30
0.0
 11
519.9310007135743
 21
-413.3957790725509
 31
0.0
  0
LINE
  5
3FD
330
1F
100
AcDbEntity
  8
D-A
  6
Continuous
 62
     2
370
     9
100
AcDbLine
 10
516.6335867071608
 20
-412.3828532286161
 30
0.0
 11
514.8792074346999
 21
-413.3957790725509
 31
0.0
  0
LINE
  5
3FE
330
1F
100
AcDbEntity
  8
D-A
  6
Continuous
 62
     2
370
     9
100
AcDbLine
 10
533.332001277737
 20
-412.3828532286161
 30
0.0
 11
516.6335867071608
 21
-412.3828532286161
 31
0.0
  0
LINE
  5
3FF
330
1F
100
AcDbEntity
  8
D-A
  6
Continuous
 62
     2
370
     9
100
AcDbLine
 10
533.3319394177813
 20
-420.3828610642104
 30
0.0
 11
516.6336485671166
 21
-420.3828610642104
 31
0.0
  0
LINE
  5
400
330
1F
100
AcDbEntity
  8
D-A
  6
Continuous
 62
     2
370
     9
100
AcDbLine
 10
529.9823156087917
 20
-409.1328858081928
 30
0.0
 11
529.9823156087917
 21
-412.3828532286161
 31
0.0
  0
LINE
  5
401
330
1F
100
AcDbEntity
  8
D-A
  6
Continuous
 62
     2
370
     9
100
AcDbLine
 10
528.4820879641547
 20
-409.1328858081928
 30
0.0
 11
528.4820879641547
 21
-412.3828532286161
 31
0.0
  0
LINE
  5
402
330
1F
100
AcDbEntity
  8
D-A
  6
Continuous
 62
     2
370
     9
100
AcDbLine
 10
521.482386541541
 20
-409.1328858081928
 30
0.0
 11
521.482386541541
 21
-412.3828532286161
 31
0.0
  0
LINE
  5
403
330
1F
100
AcDbEntity
  8
D-A
  6
Continuous
 62
     2
370
     9
100
AcDbLine
 10
519.982158896904
 20
-409.1328858081928
 30
0.0
 11
519.982158896904
 21
-412.3828532286161
 31
0.0
  0
ARC
  5
404
330
1F
100
AcDbEntity
  8
D-A
  6
Continuous
 62
     2
370
     9
100
AcDbCircle
 10
524.9825465526261
 20
-398.2995373535368
 30
0.0
 40
10.83333975559956
100
AcDbArc
 50
242.2042083740234
 51
297.7957916259766
  0
ARC
  5
405
330
1F
100
AcDbEntity
  8
D-A
  6
Continuous
 62
     2
370
     9
100
AcDbCircle
 10
517.4048257043363
 20
-405.9558203455133
 30
0.0
 40
3.17705507214005
100
AcDbArc
 50
217.3407897949219
 51
322.6592102050782
  0
ARC
  5
406
330
1F
100
AcDbEntity
  8
D-A
  6
Continuous
 62
     2
370
     9
100
AcDbCircle
 10
532.560267400916
 20
-405.9558203455133
 30
0.0
 40
3.17705507214005
100
AcDbArc
 50
217.3407897949219
 51
322.6592102050782
  0
ARC
  5
407
330
1F
100
AcDbEntity
  8
D-A
  6
Continuous
 62
     2
370
     9
100
AcDbCircle
 10
524.9827939924488
 20
-407.2787882872099
 30
0.0
 40
13.10409210823678
100
AcDbArc
 50
247.3243103027343
 51
292.6756896972656
  0
ARC
  5
408
330
1F
100
AcDbEntity
  8
D-A
  6
Continuous
 62
     2
370
     9
100
AcDbCircle
 10
533.3319394177813
 20
-414.509629434143
 30
0.0
 40
5.873256277393651
100
AcDbArc
 50
235.8464813232422
 51
270.0
  0
ARC
  5
409
330
1F
100
AcDbEntity
  8
D-A
  6
Continuous
 62
     2
370
     9
100
AcDbCircle
 10
524.9827939924488
 20
-425.4869569355945
 30
0.0
 40
13.10409210823678
100
AcDbArc
 50
67.32431030273438
 51
112.6756896972656
  0
ARC
  5
40A
330
1F
100
AcDbEntity
  8
D-A
  6
Continuous
 62
     2
370
     9
100
AcDbCircle
 10
533.3319394177813
 20
-418.2560848586837
 30
0.0
 40
5.873256277393651
100
AcDbArc
 50
90.0
 51
124.1535186767578
  0
ARC
  5
40B
330
1F
100
AcDbEntity
  8
D-A
  6
Continuous
 62
     2
370
     9
100
AcDbCircle
 10
524.9827939924488
 20
-420.3828610642104
 30
0.0
 40
7.500000096656181
100
AcDbArc
 50
201.0391845703125
 51
338.9608154296875
  0
ARC
  5
40C
330
1F
100
AcDbEntity
  8
D-A
  6
Continuous
 62
     2
370
     9
100
AcDbCircle
 10
533.2328088388381
 20
-421.8834598685813
 30
0.0
 40
1.250000016109364
100
AcDbArc
 50
120.0003967285156
 51
180.0
  0
ARC
  5
40D
330
1F
100
AcDbEntity
  8
D-A
  6
Continuous
 62
     2
370
     9
100
AcDbCircle
 10
516.6336485671166
 20
-414.509629434143
 30
0.0
 40
5.873256277393651
100
AcDbArc
 50
270.0
 51
304.1535186767578
  0
ARC
  5
40E
330
1F
100
AcDbEntity
  8
D-A
  6
Continuous
 62
     2
370
     9
100
AcDbCircle
 10
516.6336485671166
 20
-418.2560848586837
 30
0.0
 40
5.873256277393651
100
AcDbArc
 50
55.84648132324219
 51
90.0
  0
ARC
  5
40F
330
1F
100
AcDbEntity
  8
D-A
  6
Continuous
 62
     2
370
     9
100
AcDbCircle
 10
516.7328100760374
 20
-421.8834598685813
 30
0.0
 40
1.250000016109364
100
AcDbArc
 50
0.0
 51
59.99960327148438
  0
LINE
  5
410
330
1F
100
AcDbEntity
  8
D-3
  6
Continuous
 62
     3
370
     9
100
AcDbLine
 10
517.4828929683777
 20
-399.132914676172
 30
0.0
 11
517.4828929683777
 21
-391.1329377705555
 31
0.0
  0
LINE
  5
411
330
1F
100
AcDbEntity
  8
D-D
  6
Continuous
 62
     7
370
     9
100
AcDbLine
 10
282.4831074162244
 20
-354.8829418945525
 30
0.0
 11
231.2127101268452
 21
-354.8829418945525
 31
0.0
  0
LINE
  5
412
330
1F
100
AcDbEntity
  8
D-D
  6
Continuous
 62
     7
370
     9
100
AcDbLine
 10
302.4830496802657
 20
-361.1329625145377
 30
0.0
 11
231.2127101268452
 21
-361.1329625145377
 31
0.0
  0
LINE
  5
413
330
1F
100
AcDbEntity
  8
D-D
  6
Continuous
 62
     7
370
     9
100
AcDbLine
 10
302.4830496802657
 20
-367.3829212745673
 30
0.0
 11
231.2127101268452
 21
-367.3829212745673
 31
0.0
  0
LINE
  5
414
330
1F
100
AcDbEntity
  8
D-D
  6
Continuous
 62
     7
370
     9
100
AcDbLine
 10
302.4830496802657
 20
-373.6329418945525
 30
0.0
 11
231.2127101268452
 21
-373.6329418945525
 31
0.0
  0
LINE
  5
415
330
1F
100
AcDbEntity
  8
D-D
  6
Continuous
 62
     7
370
     9
100
AcDbLine
 10
302.4830496802657
 20
-379.8829625145377
 30
0.0
 11
231.2127101268452
 21
-379.8829625145377
 31
0.0
  0
LINE
  5
416
330
1F
100
AcDbEntity
  8
D-D
  6
Continuous
 62
     7
370
     9
100
AcDbLine
 10
231.2127101268452
 20
-386.1329212745673
 30
0.0
 11
314.9835548699035
 21
-386.1329212745673
 31
0.0
  0
LINE
  5
417
330
1F
100
AcDbEntity
  8
D-D
  6
Continuous
 62
     7
370
     9
100
AcDbLine
 10
302.4830496802657
 20
-354.8829418945525
 30
0.0
 11
302.4830496802657
 21
-391.1329068405776
 31
0.0
  0
LINE
  5
418
330
1F
100
AcDbEntity
  8
D-D
  6
Continuous
 62
     7
370
     9
100
AcDbLine
 10
324.9837115817912
 20
-386.1329212745673
 30
0.0
 11
397.4827445044845
 21
-386.1329212745673
 31
0.0
  0
LINE
  5
419
330
1F
100
AcDbEntity
  8
D-3
  6
Continuous
 62
     3
370
     9
100
AcDbLine
 10
231.2127101268452
 20
-391.1329068405776
 30
0.0
 11
397.4827445044845
 21
-391.1329068405776
 31
0.0
  0
ARC
  5
41A
330
1F
100
AcDbEntity
  8
D-2
  6
Continuous
 62
     3
370
     9
100
AcDbCircle
 10
397.4829919443072
 20
-412.1734263487333
 30
0.0
 40
12.50000064437454
100
AcDbArc
 50
112.0243377685547
 51
146.2000779342002
  0
ARC
  5
41B
330
1F
100
AcDbEntity
  8
D-2
  6
Continuous
 62
     3
370
     9
100
AcDbCircle
 10
397.4829919443072
 20
-412.1734263487333
 30
0.0
 40
12.50000064437454
100
AcDbArc
 50
146.2000779342002
 51
180.0
  0
LINE
  5
41C
330
1F
100
AcDbEntity
  8
D-3
  6
Continuous
 62
     3
370
     9
100
AcDbLine
 10
231.2127101268452
 20
-399.132914676172
 30
0.0
 11
395.0821134529132
 21
-399.132914676172
 31
0.0
  0
LINE
  5
41D
330
1F
100
AcDbEntity
  8
D-D
  6
Continuous
 62
     7
370
     9
100
AcDbLine
 10
519.9824372667046
 20
-386.1329212745673
 30
0.0
 11
447.4834043440113
 21
-386.1329212745673
 31
0.0
  0
LINE
  5
41E
330
1F
100
AcDbEntity
  8
D-3
  6
Continuous
 62
     3
370
     9
100
AcDbLine
 10
613.7534387216506
 20
-399.132914676172
 30
0.0
 11
449.8840353955824
 21
-399.132914676172
 31
0.0
  0
LINE
  5
41F
330
1F
100
AcDbEntity
  8
D-A
  6
Continuous
 62
     2
370
     9
100
AcDbLine
 10
314.9835548699035
 20
-382.3828470426204
 30
0.0
 11
314.9835548699035
 21
-391.1329068405776
 31
0.0
  0
LINE
  5
420
330
1F
100
AcDbEntity
  8
D-A
  6
Continuous
 62
     2
370
     9
100
AcDbLine
 10
324.9837115817912
 20
-382.3828470426204
 30
0.0
 11
324.9837115817912
 21
-391.1329068405776
 31
0.0
  0
LINE
  5
421
330
1F
100
AcDbEntity
  8
D-A
  6
Continuous
 62
     2
370
     9
100
AcDbLine
 10
323.4835148671324
 20
-382.3828470426204
 30
0.0
 11
323.4835148671324
 21
-391.1329068405776
 31
0.0
  0
LINE
  5
422
330
1F
100
AcDbEntity
  8
D-A
  6
Continuous
 62
     2
370
     9
100
AcDbLine
 10
316.4838134445181
 20
-382.3828470426204
 30
0.0
 11
316.4838134445181
 21
-391.1329068405776
 31
0.0
  0
LINE
  5
423
330
1F
100
AcDbEntity
  8
D-A
  6
Continuous
 62
     2
370
     9
100
AcDbLine
 10
519.982406336727
 20
-382.3828470426204
 30
0.0
 11
519.982406336727
 21
-391.1329068405776
 31
0.0
  0
LINE
  5
424
330
1F
100
AcDbEntity
  8
D-A
  6
Continuous
 62
     2
370
     9
100
AcDbLine
 10
529.9825630486147
 20
-382.3828470426204
 30
0.0
 11
529.9825630486147
 21
-391.1329068405776
 31
0.0
  0
LINE
  5
425
330
1F
100
AcDbEntity
  8
D-A
  6
Continuous
 62
     2
370
     9
100
AcDbLine
 10
521.4826339813636
 20
-382.3828470426204
 30
0.0
 11
521.4826339813636
 21
-391.1329068405776
 31
0.0
  0
LINE
  5
426
330
1F
100
AcDbEntity
  8
D-A
  6
Continuous
 62
     2
370
     9
100
AcDbLine
 10
528.4823354039777
 20
-382.3828470426204
 30
0.0
 11
528.4823354039777
 21
-391.1329068405776
 31
0.0
  0
LINE
  5
427
330
1F
100
AcDbEntity
  8
D-D
  6
Continuous
 62
     7
370
     9
100
AcDbLine
 10
562.4830414322718
 20
-354.8829418945525
 30
0.0
 11
613.7534387216509
 21
-354.8829418945525
 31
0.0
  0
LINE
  5
428
330
1F
100
AcDbEntity
  8
D-D
  6
Continuous
 62
     7
370
     9
100
AcDbLine
 10
542.4830991682303
 20
-354.8829418945525
 30
0.0
 11
542.4830991682303
 21
-391.1329068405776
 31
0.0
  0
LINE
  5
429
330
1F
100
AcDbEntity
  8
D-3
  6
Continuous
 62
     3
370
     9
100
AcDbLine
 10
613.7534387216506
 20
-391.1329068405776
 30
0.0
 11
612.5094146757784
 21
-391.1329068405776
 31
0.0
  0
LINE
  5
42A
330
1F
100
AcDbEntity
  8
D-3
  6
Continuous
 62
     3
370
     9
100
AcDbLine
 10
612.5094146757784
 20
-391.1329068405776
 30
0.0
 11
447.4834043440113
 21
-391.1329068405776
 31
0.0
  0
LINE
  5
42B
330
1F
100
AcDbEntity
  8
D-D
  6
Continuous
 62
     7
370
     9
100
AcDbLine
 10
613.7534387216506
 20
-361.1329625145377
 30
0.0
 11
542.4830991682303
 21
-361.1329625145377
 31
0.0
  0
LINE
  5
42C
330
1F
100
AcDbEntity
  8
D-D
  6
Continuous
 62
     7
370
     9
100
AcDbLine
 10
613.7534387216506
 20
-379.8829625145377
 30
0.0
 11
542.4830991682303
 21
-379.8829625145377
 31
0.0
  0
LINE
  5
42D
330
1F
100
AcDbEntity
  8
D-D
  6
Continuous
 62
     7
370
     9
100
AcDbLine
 10
613.7534387216506
 20
-373.6329418945525
 30
0.0
 11
542.4830991682303
 21
-373.6329418945525
 31
0.0
  0
LINE
  5
42E
330
1F
100
AcDbEntity
  8
D-D
  6
Continuous
 62
     7
370
     9
100
AcDbLine
 10
613.7534387216506
 20
-367.3829212745673
 30
0.0
 11
542.4830991682303
 21
-367.3829212745673
 31
0.0
  0
LINE
  5
42F
330
1F
100
AcDbEntity
  8
D-D
  6
Continuous
 62
     7
370
     9
100
AcDbLine
 10
529.9825630486147
 20
-386.1329212745673
 30
0.0
 11
613.7534387216506
 21
-386.1329212745673
 31
0.0
  0
LINE
  5
430
330
1F
100
AcDbEntity
  8
D-A
  6
Continuous
 62
     2
370
     9
100
AcDbLine
 10
309.8800157381202
 20
-407.8828816841957
 30
0.0
 11
309.8800157381202
 21
-401.6329229241661
 31
0.0
  0
LINE
  5
431
330
1F
100
AcDbEntity
  8
D-A
  6
Continuous
 62
     2
370
     9
100
AcDbLine
 10
330.0871888536186
 20
-407.8828816841957
 30
0.0
 11
330.0871888536186
 21
-401.6329229241661
 31
0.0
  0
LINE
  5
432
330
1F
100
AcDbEntity
  8
D-A
  6
Continuous
 62
     2
370
     9
100
AcDbLine
 10
325.0354574346999
 20
-407.8828816841957
 30
0.0
 11
325.0354574346999
 21
-401.6329229241661
 31
0.0
  0
LINE
  5
433
330
1F
100
AcDbEntity
  8
D-A
  6
Continuous
 62
     2
370
     9
100
AcDbLine
 10
314.9317471570391
 20
-407.8828816841957
 30
0.0
 11
314.9317471570391
 21
-401.6329229241661
 31
0.0
  0
LINE
  5
434
330
1F
100
AcDbEntity
  8
D-A
  6
Continuous
 62
     2
370
     9
100
AcDbLine
 10
312.4058814475801
 20
-409.1328858081928
 30
0.0
 11
327.5613231441592
 21
-409.1328858081928
 31
0.0
  0
LINE
  5
435
330
1F
100
AcDbEntity
  8
D-A
  6
Continuous
 62
     2
370
     9
100
AcDbLine
 10
310.4838926252615
 20
-399.133285835906
 30
0.0
 11
310.4838926252615
 21
-401.6329847841218
 31
0.0
  0
LINE
  5
436
330
1F
100
AcDbEntity
  8
D-A
  6
Continuous
 62
     2
370
     9
100
AcDbLine
 10
329.4834356863892
 20
-399.133285835906
 30
0.0
 11
329.4834356863892
 21
-401.6329847841218
 31
0.0
  0
LINE
  5
437
330
1F
100
AcDbEntity
  8
D-A
  6
Continuous
 62
     2
370
     9
100
AcDbLine
 10
309.8800157381202
 20
-401.6329229241661
 30
0.0
 11
330.0871888536186
 21
-401.6329229241661
 31
0.0
  0
LINE
  5
438
330
1F
100
AcDbEntity
  8
D-A
  6
Continuous
 62
     2
370
     9
100
AcDbLine
 10
309.8797373683199
 20
-419.3699661502535
 30
0.0
 11
309.8797373683199
 21
-413.3957790725509
 31
0.0
  0
LINE
  5
439
330
1F
100
AcDbEntity
  8
D-A
  6
Continuous
 62
     2
370
     9
100
AcDbLine
 10
311.6341475707587
 20
-412.3828532286161
 30
0.0
 11
309.8797373683199
 21
-413.3957790725509
 31
0.0
  0
LINE
  5
43A
330
1F
100
AcDbEntity
  8
D-A
  6
Continuous
 62
     2
370
     9
100
AcDbLine
 10
312.983313203677
 20
-421.8834598685813
 30
0.0
 11
312.983313203677
 21
-423.0754393541703
 31
0.0
  0
LINE
  5
43B
330
1F
100
AcDbEntity
  8
D-A
  6
Continuous
 62
     2
370
     9
100
AcDbLine
 10
312.3583420716561
 20
-420.8009725045082
 30
0.0
 11
309.8797373683199
 21
-419.3699661502535
 31
0.0
  0
LINE
  5
43C
330
1F
100
AcDbEntity
  8
D-A
  6
Continuous
 62
     2
370
     9
100
AcDbLine
 10
327.6083367104598
 20
-420.8009725045082
 30
0.0
 11
330.0869414137962
 21
-419.3699661502535
 31
0.0
  0
LINE
  5
43D
330
1F
100
AcDbEntity
  8
D-A
  6
Continuous
 62
     2
370
     9
100
AcDbLine
 10
326.9833346484613
 20
-423.0754393541703
 30
0.0
 11
326.9833346484613
 21
-421.8834598685813
 31
0.0
  0
LINE
  5
43E
330
1F
100
AcDbEntity
  8
D-A
  6
Continuous
 62
     2
370
     9
100
AcDbLine
 10
330.0869414137962
 20
-419.3699661502535
 30
0.0
 11
330.0869414137962
 21
-413.3957790725509
 31
0.0
  0
LINE
  5
43F
330
1F
100
AcDbEntity
  8
D-A
  6
Continuous
 62
     2
370
     9
100
AcDbLine
 10
314.9315306471947
 20
-419.3699661502535
 30
0.0
 11
314.9315306471947
 21
-413.3957790725509
 31
0.0
  0
LINE
  5
440
330
1F
100
AcDbEntity
  8
D-A
  6
Continuous
 62
     2
370
     9
100
AcDbLine
 10
325.0351481349214
 20
-419.3699661502535
 30
0.0
 11
325.0351481349214
 21
-413.3957790725509
 31
0.0
  0
LINE
  5
441
330
1F
100
AcDbEntity
  8
D-A
  6
Continuous
 62
     2
370
     9
100
AcDbLine
 10
328.3325621413353
 20
-412.3828532286161
 30
0.0
 11
330.0869414137962
 21
-413.3957790725509
 31
0.0
  0
LINE
  5
442
330
1F
100
AcDbEntity
  8
D-A
  6
Continuous
 62
     2
370
     9
100
AcDbLine
 10
311.6341475707587
 20
-412.3828532286161
 30
0.0
 11
328.3325621413353
 21
-412.3828532286161
 31
0.0
  0
LINE
  5
443
330
1F
100
AcDbEntity
  8
D-A
  6
Continuous
 62
     2
370
     9
100
AcDbLine
 10
311.6342094307145
 20
-420.3828610642104
 30
0.0
 11
328.3325002813796
 21
-420.3828610642104
 31
0.0
  0
LINE
  5
444
330
1F
100
AcDbEntity
  8
D-A
  6
Continuous
 62
     2
370
     9
100
AcDbLine
 10
314.983833239704
 20
-409.1328858081928
 30
0.0
 11
314.983833239704
 21
-412.3828532286161
 31
0.0
  0
LINE
  5
445
330
1F
100
AcDbEntity
  8
D-A
  6
Continuous
 62
     2
370
     9
100
AcDbLine
 10
316.484060884341
 20
-409.1328858081928
 30
0.0
 11
316.484060884341
 21
-412.3828532286161
 31
0.0
  0
LINE
  5
446
330
1F
100
AcDbEntity
  8
D-A
  6
Continuous
 62
     2
370
     9
100
AcDbLine
 10
323.4837623069551
 20
-409.1328858081928
 30
0.0
 11
323.4837623069551
 21
-412.3828532286161
 31
0.0
  0
LINE
  5
447
330
1F
100
AcDbEntity
  8
D-A
  6
Continuous
 62
     2
370
     9
100
AcDbLine
 10
324.9839899515915
 20
-409.1328858081928
 30
0.0
 11
324.9839899515915
 21
-412.3828532286161
 31
0.0
  0
ARC
  5
448
330
1F
100
AcDbEntity
  8
D-A
  6
Continuous
 62
     2
370
     9
100
AcDbCircle
 10
319.9836022958697
 20
-398.2995373535368
 30
0.0
 40
10.83333975559956
100
AcDbArc
 50
242.2042083740235
 51
297.7957916259766
  0
ARC
  5
449
330
1F
100
AcDbEntity
  8
D-A
  6
Continuous
 62
     2
370
     9
100
AcDbCircle
 10
327.5613231441592
 20
-405.9558203455133
 30
0.0
 40
3.17705507214005
100
AcDbArc
 50
217.3407897949218
 51
322.6592102050781
  0
ARC
  5
44A
330
1F
100
AcDbEntity
  8
D-A
  6
Continuous
 62
     2
370
     9
100
AcDbCircle
 10
312.4058814475801
 20
-405.9558203455133
 30
0.0
 40
3.17705507214005
100
AcDbArc
 50
217.3407897949218
 51
322.6592102050781
  0
ARC
  5
44B
330
1F
100
AcDbEntity
  8
D-A
  6
Continuous
 62
     2
370
     9
100
AcDbCircle
 10
319.983354856047
 20
-407.2787882872099
 30
0.0
 40
13.10409210823678
100
AcDbArc
 50
247.3243103027344
 51
292.6756896972656
  0
ARC
  5
44C
330
1F
100
AcDbEntity
  8
D-A
  6
Continuous
 62
     2
370
     9
100
AcDbCircle
 10
311.6342094307145
 20
-414.509629434143
 30
0.0
 40
5.873256277393651
100
AcDbArc
 50
270.0
 51
304.1535186767578
  0
ARC
  5
44D
330
1F
100
AcDbEntity
  8
D-A
  6
Continuous
 62
     2
370
     9
100
AcDbCircle
 10
319.983354856047
 20
-425.4869569355945
 30
0.0
 40
13.10409210823678
100
AcDbArc
 50
67.32431030273439
 51
112.6756896972656
  0
ARC
  5
44E
330
1F
100
AcDbEntity
  8
D-A
  6
Continuous
 62
     2
370
     9
100
AcDbCircle
 10
311.6342094307145
 20
-418.2560848586837
 30
0.0
 40
5.873256277393651
100
AcDbArc
 50
55.8464813232422
 51
90.00000000000001
  0
ARC
  5
44F
330
1F
100
AcDbEntity
  8
D-A
  6
Continuous
 62
     2
370
     9
100
AcDbCircle
 10
319.983354856047
 20
-420.3828610642104
 30
0.0
 40
7.500000096656181
100
AcDbArc
 50
201.0391845703125
 51
338.9608154296874
  0
ARC
  5
450
330
1F
100
AcDbEntity
  8
D-A
  6
Continuous
 62
     2
370
     9
100
AcDbCircle
 10
311.7333400096577
 20
-421.8834598685813
 30
0.0
 40
1.250000016109364
100
AcDbArc
 50
0.0000000000000127
 51
59.99960327148439
  0
ARC
  5
451
330
1F
100
AcDbEntity
  8
D-A
  6
Continuous
 62
     2
370
     9
100
AcDbCircle
 10
328.3325002813796
 20
-414.509629434143
 30
0.0
 40
5.873256277393651
100
AcDbArc
 50
235.8464813232422
 51
270.0
  0
ARC
  5
452
330
1F
100
AcDbEntity
  8
D-A
  6
Continuous
 62
     2
370
     9
100
AcDbCircle
 10
328.3325002813796
 20
-418.2560848586837
 30
0.0
 40
5.873256277393651
100
AcDbArc
 50
90.00000000000001
 51
124.1535186767578
  0
ARC
  5
453
330
1F
100
AcDbEntity
  8
D-A
  6
Continuous
 62
     2
370
     9
100
AcDbCircle
 10
328.2333387724584
 20
-421.8834598685813
 30
0.0
 40
1.250000016109364
100
AcDbArc
 50
120.0003967285156
 51
180.0
  0
LINE
  5
454
330
1F
100
AcDbEntity
  8
D-0
  6
Continuous
 62
     4
370
     9
100
AcDbLine
 10
287.4831239122124
 20
-87.64825407789935
 30
0.0
 11
557.4830249362834
 21
-87.64825407789935
 31
0.0
  0
LINE
  5
455
330
1F
100
AcDbEntity
  8
D-0
  6
Continuous
 62
     4
370
     9
100
AcDbLine
 10
282.4831074162244
 20
-220.1485056417191
 30
0.0
 11
282.4831074162244
 21
-92.64839429379883
 31
0.0
  0
LINE
  5
456
330
1F
100
AcDbEntity
  8
D-0
  6
Continuous
 62
     4
370
     9
100
AcDbLine
 10
557.4830249362834
 20
-225.1486458576186
 30
0.0
 11
287.4831239122124
 21
-225.1486458576186
 31
0.0
  0
LINE
  5
457
330
1F
100
AcDbEntity
  8
D-0
  6
Continuous
 62
     4
370
     9
100
AcDbLine
 10
562.4831651521829
 20
-220.1485056417191
 30
0.0
 11
562.4831651521829
 21
-92.64839429379883
 31
0.0
  0
LINE
  5
458
330
1F
100
AcDbEntity
  8
D-0
  6
Continuous
 62
     4
370
     9
100
AcDbLine
 10
283.9490646454259
 20
-89.11272666816544
 30
0.0
 11
308.9491471253667
 21
-114.1129328680176
 31
0.0
  0
LINE
  5
459
330
1F
100
AcDbEntity
  8
D-0
  6
Continuous
 62
     4
370
     9
100
AcDbLine
 10
561.0185688420053
 20
-223.6849155868204
 30
0.0
 11
536.0184863620647
 21
-198.6847712469239
 31
0.0
  0
LINE
  5
45A
330
1F
100
AcDbEntity
  8
D-0
  6
Continuous
 62
     4
370
     9
100
AcDbLine
 10
283.9490646454259
 20
-223.6849155868204
 30
0.0
 11
308.9491471253667
 21
-198.6847712469239
 31
0.0
  0
LINE
  5
45B
330
1F
100
AcDbEntity
  8
D-0
  6
Continuous
 62
     4
370
     9
100
AcDbLine
 10
537.4830826722417
 20
-195.149351061113
 30
0.0
 11
537.4830826722417
 21
-117.6492190932076
 31
0.0
  0
LINE
  5
45C
330
1F
100
AcDbEntity
  8
D-0
  6
Continuous
 62
     4
370
     9
100
AcDbLine
 10
312.4831754621756
 20
-200.1493056971456
 30
0.0
 11
532.4826950165199
 21
-200.1493056971456
 31
0.0
  0
LINE
  5
45D
330
1F
100
AcDbEntity
  8
D-0
  6
Continuous
 62
     4
370
     9
100
AcDbLine
 10
312.4831754621756
 20
-112.6488314374855
 30
0.0
 11
532.4826950165199
 21
-112.6488314374855
 31
0.0
  0
LINE
  5
45E
330
1F
100
AcDbEntity
  8
D-0
  6
Continuous
 62
     4
370
     9
100
AcDbLine
 10
307.4829733863204
 20
-117.6492190932076
 30
0.0
 11
307.4829733863204
 21
-195.149351061113
 31
0.0
  0
LINE
  5
45F
330
1F
100
AcDbEntity
  8
D-2
  6
Continuous
 62
     3
370
     9
100
AcDbLine
 10
340.8580587530589
 20
-167.1485039921203
 30
0.0
 11
340.8580587530589
 21
-145.648890823043
 31
0.0
  0
LINE
  5
460
330
1F
100
AcDbEntity
  8
D-2
  6
Continuous
 62
     3
370
     9
100
AcDbLine
 10
345.1080542166626
 20
-171.3984685257456
 30
0.0
 11
499.8580946318334
 21
-171.3984685257456
 31
0.0
  0
LINE
  5
461
330
1F
100
AcDbEntity
  8
D-0
  6
Continuous
 62
     4
370
     9
100
AcDbLine
 10
339.6080546290621
 20
-167.6484561537545
 30
0.0
 11
339.6080546290621
 21
-145.1485056417191
 31
0.0
  0
LINE
  5
462
330
1F
100
AcDbEntity
  8
D-0
  6
Continuous
 62
     4
370
     9
100
AcDbLine
 10
500.3581086534235
 20
-140.1484891457309
 30
0.0
 11
344.6080401950725
 21
-140.1484891457309
 31
0.0
  0
LINE
  5
463
330
1F
100
AcDbEntity
  8
D-0
  6
Continuous
 62
     4
370
     9
100
AcDbLine
 10
505.3580942194334
 20
-167.6484561537545
 30
0.0
 11
505.3580942194334
 21
-145.1485056417191
 31
0.0
  0
LINE
  5
464
330
1F
100
AcDbEntity
  8
D-0
  6
Continuous
 62
     4
370
     9
100
AcDbLine
 10
500.3581086534235
 20
-172.6484726497427
 30
0.0
 11
344.6080401950725
 21
-172.6484726497427
 31
0.0
  0
LINE
  5
465
330
1F
100
AcDbEntity
  8
D-0
  6
JWW_CENTER1
 62
     4
370
     9
100
AcDbLine
 10
277.6214097810889
 20
-156.3984808977368
 30
0.0
 11
570.909604592111
 21
-156.3984808977368
 31
0.0
  0
LINE
  5
466
330
1F
100
AcDbEntity
  8
D-2
  6
Continuous
 62
     3
370
     9
100
AcDbLine
 10
499.8577544020771
 20
-141.3984932697279
 30
0.0
 11
345.1089511860193
 21
-141.3984932697279
 31
0.0
  0
LINE
  5
467
330
1F
100
AcDbEntity
  8
D-2
  6
Continuous
 62
     3
370
     9
100
AcDbLine
 10
504.1077498656803
 20
-145.648519663309
 30
0.0
 11
504.1077498656803
 21
-167.2070235101734
 31
0.0
  0
LINE
  5
468
330
1F
100
AcDbEntity
  8
D-0
  6
Continuous
 62
     4
370
     9
100
AcDbLine
 10
561.0185688420053
 20
-89.11272666816544
 30
0.0
 11
536.0184863620647
 21
-114.1129328680176
 31
0.0
  0
LINE
  5
469
330
1F
100
AcDbEntity
  8
D-0
  6
JWW_CENTER1
 62
     4
370
     9
100
AcDbLine
 10
422.483074424248
 20
-80.49538740507423
 30
0.0
 11
422.483074424248
 21
-234.6579747513316
 31
0.0
  0
ARC
  5
46A
330
1F
100
AcDbEntity
  8
D-0
  6
Continuous
 62
     4
370
     9
100
AcDbCircle
 10
532.4826950165199
 20
-117.6492190932076
 30
0.0
 40
4.99999958115655
100
AcDbArc
 50
0.0
 51
90.0
  0
ARC
  5
46B
330
1F
100
AcDbEntity
  8
D-0
  6
Continuous
 62
     4
370
     9
100
AcDbCircle
 10
532.4826950165199
 20
-195.149351061113
 30
0.0
 40
4.99999958115655
100
AcDbArc
 50
270.0
 51
0.0
  0
ARC
  5
46C
330
1F
100
AcDbEntity
  8
D-0
  6
Continuous
 62
     4
370
     9
100
AcDbCircle
 10
312.4831754621756
 20
-195.149351061113
 30
0.0
 40
4.99999958115655
100
AcDbArc
 50
180.0
 51
270.0
  0
ARC
  5
46D
330
1F
100
AcDbEntity
  8
D-0
  6
Continuous
 62
     4
370
     9
100
AcDbCircle
 10
312.4831754621756
 20
-117.6492190932076
 30
0.0
 40
4.99999958115655
100
AcDbArc
 50
90.0
 51
180.0
  0
ARC
  5
46E
330
1F
100
AcDbEntity
  8
D-0
  6
Continuous
 62
     4
370
     9
100
AcDbCircle
 10
557.4830249362834
 20
-92.64839429379883
 30
0.0
 40
5.000000064437454
100
AcDbArc
 50
0.0
 51
90.0
  0
ARC
  5
46F
330
1F
100
AcDbEntity
  8
D-0
  6
Continuous
 62
     4
370
     9
100
AcDbCircle
 10
287.4830001923009
 20
-92.64839429379883
 30
0.0
 40
5.000000064437454
100
AcDbArc
 50
90.0
 51
180.0
  0
ARC
  5
470
330
1F
100
AcDbEntity
  8
D-0
  6
Continuous
 62
     4
370
     9
100
AcDbCircle
 10
287.4830001923009
 20
-220.1484437817634
 30
0.0
 40
5.000000064437454
100
AcDbArc
 50
180.0
 51
270.0
  0
ARC
  5
471
330
1F
100
AcDbEntity
  8
D-0
  6
Continuous
 62
     4
370
     9
100
AcDbCircle
 10
557.4830249362834
 20
-220.1484437817634
 30
0.0
 40
5.000000064437454
100
AcDbArc
 50
270.0
 51
0.0
  0
ARC
  5
472
330
1F
100
AcDbEntity
  8
D-2
  6
Continuous
 62
     3
370
     9
100
AcDbCircle
 10
345.1089511860193
 20
-145.648890823043
 30
0.0
 40
4.250002229535902
100
AcDbArc
 50
90.0
 51
180.0
  0
ARC
  5
473
330
1F
100
AcDbEntity
  8
D-2
  6
Continuous
 62
     3
370
     9
100
AcDbCircle
 10
499.8580946318334
 20
-167.1480709724306
 30
0.0
 40
4.250002229535902
100
AcDbArc
 50
270.0
 51
359.2052154541016
  0
ARC
  5
474
330
1F
100
AcDbEntity
  8
D-2
  6
Continuous
 62
     3
370
     9
100
AcDbCircle
 10
345.1080542166626
 20
-167.1485039921203
 30
0.0
 40
4.250000296412288
100
AcDbArc
 50
180.0
 51
270.0
  0
ARC
  5
475
330
1F
100
AcDbEntity
  8
D-0
  6
Continuous
 62
     4
370
     9
100
AcDbCircle
 10
422.483074424248
 20
-156.3984808977368
 30
0.0
 40
31.25000064437454
100
AcDbArc
 50
211.3322448730469
 51
328.6677551269532
  0
ARC
  5
476
330
1F
100
AcDbEntity
  8
D-0
  6
Continuous
 62
     4
370
     9
100
AcDbCircle
 10
422.483074424248
 20
-156.3984808977368
 30
0.0
 40
31.25000064437454
100
AcDbArc
 50
31.33224487304688
 51
148.6677551269531
  0
ARC
  5
477
330
1F
100
AcDbEntity
  8
D-0
  6
Continuous
 62
     4
370
     9
100
AcDbCircle
 10
344.6080401950725
 20
-145.1485056417191
 30
0.0
 40
5.000000064437454
100
AcDbArc
 50
90.0
 51
180.0
  0
ARC
  5
478
330
1F
100
AcDbEntity
  8
D-0
  6
Continuous
 62
     4
370
     9
100
AcDbCircle
 10
344.6080401950725
 20
-167.6484561537545
 30
0.0
 40
5.000000064437454
100
AcDbArc
 50
180.0
 51
270.0
  0
ARC
  5
479
330
1F
100
AcDbEntity
  8
D-0
  6
Continuous
 62
     4
370
     9
100
AcDbCircle
 10
500.3581086534235
 20
-145.1485056417191
 30
0.0
 40
5.000000064437454
100
AcDbArc
 50
0.0
 51
90.0
  0
ARC
  5
47A
330
1F
100
AcDbEntity
  8
D-0
  6
Continuous
 62
     4
370
     9
100
AcDbCircle
 10
500.3581086534235
 20
-167.6484561537545
 30
0.0
 40
5.000000064437454
100
AcDbArc
 50
270.0
 51
0.0
  0
ARC
  5
47B
330
1F
100
AcDbEntity
  8
D-2
  6
Continuous
 62
     3
370
     9
100
AcDbCircle
 10
499.8577544020771
 20
-145.648519663309
 30
0.0
 40
4.250000296412288
100
AcDbArc
 50
0.0
 51
90.0
  0
LINE
  5
47C
330
1F
100
AcDbEntity
  8
D-4
  6
Continuous
 62
     7
370
     9
100
AcDbLine
 10
282.4830001278638
 20
-55.08102880208643
 30
0.0
 11
562.4831651521829
 21
-55.08102880208643
 31
0.0
  0
LINE
  5
47D
330
1F
100
AcDbEntity
  8
D-4
  6
Continuous
 62
     7
370
     9
100
AcDbLine
 10
282.4830001278638
 20
-55.08102880208643
 30
0.0
 11
294.8760608950362
 21
-53.44945139933579
 31
0.0
  0
LINE
  5
47E
330
1F
100
AcDbEntity
  8
D-4
  6
Continuous
 62
     7
370
     9
100
AcDbLine
 10
282.4830001278638
 20
-55.08102880208643
 30
0.0
 11
294.8760608950362
 21
-56.71260620483707
 31
0.0
  0
LINE
  5
47F
330
1F
100
AcDbEntity
  8
D-4
  6
Continuous
 62
     7
370
     9
100
AcDbLine
 10
562.4831651521829
 20
-55.08102880208643
 30
0.0
 11
550.0901043850099
 21
-53.44945139933579
 31
0.0
  0
LINE
  5
480
330
1F
100
AcDbEntity
  8
D-4
  6
Continuous
 62
     7
370
     9
100
AcDbLine
 10
562.4831651521829
 20
-55.08102880208643
 30
0.0
 11
550.0901043850099
 21
-56.71260620483707
 31
0.0
  0
LINE
  5
481
330
1F
100
AcDbEntity
  8
D-4
  6
Continuous
 62
     7
370
     9
100
AcDbLine
 10
282.4830001278638
 20
-53.58102880208641
 30
0.0
 11
282.4830001278638
 21
-82.64839429379883
 31
0.0
  0
LINE
  5
482
330
1F
100
AcDbEntity
  8
D-4
  6
Continuous
 62
     7
370
     9
100
AcDbLine
 10
562.4831651521829
 20
-53.58102880208641
 30
0.0
 11
562.4831651521829
 21
-82.64839429379883
 31
0.0
  0
TEXT
  5
483
330
1F
100
AcDbEntity
  8
D-4
  6
Continuous
 62
     2
370
   211
100
AcDbText
 10
406.2330826400234
 20
-49.26102880208642
 30
0.0
 40
15.24
  1
112
 41
1.083333333333333
  7
ＭＳ ゴシック
100
AcDbText
  0
LINE
  5
484
330
1F
100
AcDbEntity
  8
D-4
  6
Continuous
 62
     7
370
     9
100
AcDbLine
 10
605.3051904078098
 20
-225.1484438462009
 30
0.0
 11
605.3051904078098
 21
-87.64825407789935
 31
0.0
  0
LINE
  5
485
330
1F
100
AcDbEntity
  8
D-4
  6
Continuous
 62
     7
370
     9
100
AcDbLine
 10
605.3051904078098
 20
-225.1484438462009
 30
0.0
 11
603.6736130050589
 21
-212.7553830790282
 31
0.0
  0
LINE
  5
486
330
1F
100
AcDbEntity
  8
D-4
  6
Continuous
 62
     7
370
     9
100
AcDbLine
 10
605.3051904078098
 20
-225.1484438462009
 30
0.0
 11
606.9367678105602
 21
-212.7553830790282
 31
0.0
  0
LINE
  5
487
330
1F
100
AcDbEntity
  8
D-4
  6
Continuous
 62
     7
370
     9
100
AcDbLine
 10
605.3051904078098
 20
-87.64825407789935
 30
0.0
 11
603.6736130050589
 21
-100.041314845072
 31
0.0
  0
LINE
  5
488
330
1F
100
AcDbEntity
  8
D-4
  6
Continuous
 62
     7
370
     9
100
AcDbLine
 10
605.3051904078098
 20
-87.64825407789935
 30
0.0
 11
606.9367678105602
 21
-100.041314845072
 31
0.0
  0
LINE
  5
489
330
1F
100
AcDbEntity
  8
D-4
  6
Continuous
 62
     7
370
     9
100
AcDbLine
 10
606.8051904078096
 20
-225.1484438462009
 30
0.0
 11
567.4830249362834
 21
-225.1484438462009
 31
0.0
  0
LINE
  5
48A
330
1F
100
AcDbEntity
  8
D-4
  6
Continuous
 62
     7
370
     9
100
AcDbLine
 10
606.8051904078096
 20
-87.64825407789935
 30
0.0
 11
567.4830249362834
 21
-87.64825407789935
 31
0.0
  0
TEXT
  5
48B
330
1F
100
AcDbEntity
  8
D-4
  6
Continuous
 62
     2
370
   211
100
AcDbText
 10
599.4851904078097
 20
-167.0233489620501
 30
0.0
 40
15.24
  1
55
 50
90.0
 41
1.0625
  7
ＭＳ ゴシック
100
AcDbText
  0
TEXT
  5
48C
330
1F
100
AcDbEntity
  8
D-F
  6
Continuous
 62
     2
370
     9
100
AcDbText
 10
316.1494785610829
 20
-534.6170821936128
 30
0.0
 40
15.24
  1
把手詳細図　Ｓ＝１：２
 41
1.113636363636364
  7
ＭＳ ゴシック
100
AcDbText
  0
LINE
  5
48D
330
1F
100
AcDbEntity
  8
D-F
  6
Continuous
 62
     7
370
     9
100
AcDbLine
 10
311.4885666104009
 20
-544.6354468638251
 30
0.0
 11
565.5420784071235
 21
-544.6354468638251
 31
0.0
  0
LINE
  5
48E
330
1F
100
AcDbEntity
  8
D-A
  6
JWW_CENTER1
 62
     2
370
     9
100
AcDbLine
 10
319.9833548560467
 20
-356.3351662135982
 30
0.0
 11
319.9833548560467
 21
-434.5027052431061
 31
0.0
  0
LINE
  5
48F
330
1F
100
AcDbEntity
  8
D-A
  6
JWW_CENTER1
 62
     2
370
     9
100
AcDbLine
 10
524.9827939924488
 20
-356.3351662135982
 30
0.0
 11
524.9827939924488
 21
-434.5027052431061
 31
0.0
  0
LINE
  5
490
330
1F
100
AcDbEntity
  8
D-A
  6
Continuous
 62
     2
370
     9
100
AcDbLine
 10
322.4829919443066
 20
-399.132914676172
 30
0.0
 11
322.4829919443066
 21
-401.6326136243878
 31
0.0
  0
LINE
  5
491
330
1F
100
AcDbEntity
  8
D-A
  6
Continuous
 62
     2
370
     9
100
AcDbLine
 10
323.7330579282592
 20
-399.132914676172
 30
0.0
 11
323.7330579282592
 21
-401.6326136243878
 31
0.0
  0
LINE
  5
492
330
1F
100
AcDbEntity
  8
D-D
  6
Continuous
 62
     7
370
     9
100
AcDbLine
 10
206.2814867174305
 20
452.1197098021043
 30
0.0
 11
138.8626098632812
 21
452.1197098021043
 31
0.0
  0
LINE
  5
493
330
1F
100
AcDbEntity
  8
D-3
  6
Continuous
 62
     3
370
     9
100
AcDbLine
 10
267.5310701937292
 20
407.8697164004997
 30
0.0
 11
138.8626098632812
 21
407.8697164004997
 31
0.0
  0
LINE
  5
494
330
1F
100
AcDbEntity
  8
D-D
  6
Continuous
 62
     7
370
     9
100
AcDbLine
 10
138.8626098632812
 20
420.8697098021044
 30
0.0
 11
267.5310701937292
 21
420.8697098021044
 31
0.0
  0
LINE
  5
495
330
1F
100
AcDbEntity
  8
D-3
  6
Continuous
 62
     3
370
     9
100
AcDbLine
 10
267.5310701937292
 20
415.8696933061162
 30
0.0
 11
138.8626098632812
 21
415.8696933061162
 31
0.0
  0
LINE
  5
496
330
1F
100
AcDbEntity
  8
D-B
  6
Continuous
 62
     7
370
     9
100
AcDbLine
 10
226.2811815416492
 20
444.61947885827
 30
0.0
 11
138.8626098632812
 21
444.61947885827
 31
0.0
  0
LINE
  5
497
330
1F
100
AcDbEntity
  8
D-B
  6
Continuous
 62
     7
370
     9
100
AcDbLine
 10
226.2811815416492
 20
429.6194293703054
 30
0.0
 11
138.8626098632812
 21
429.6194293703054
 31
0.0
  0
LINE
  5
498
330
1F
100
AcDbEntity
  8
D-B
  6
Continuous
 62
     7
370
     9
100
AcDbLine
 10
226.2811815416492
 20
437.1194541142877
 30
0.0
 11
138.8626098632812
 21
437.1194541142877
 31
0.0
  0
LINE
  5
499
330
1F
100
AcDbEntity
  8
D-4
  6
Continuous
 62
     7
370
     9
100
AcDbLine
 10
126.0262905986925
 20
452.1197098021046
 30
0.0
 11
86.06154252542399
 21
452.1197098021046
 31
0.0
  0
LWPOLYLINE
  5
49A
330
1F
100
AcDbEntity
  8
D-4
  6
Continuous
 62
     7
370
     9
100
AcDbPolyline
 90
        4
 70
     1
 43
0.5
 10
87.8115227302382
 20
452.1197098021046
 42
0.4142135623731
 10
87.56152273023818
 20
452.3697098021046
 42
0.4142135623731
 10
87.31152273023818
 20
452.1197098021046
 42
0.4142135623731
 10
87.56152273023818
 20
451.8697098021046
 42
0.4142135623731
  0
LINE
  5
49B
330
1F
100
AcDbEntity
  8
D-4
  6
Continuous
 62
     7
370
     9
100
AcDbLine
 10
126.0262905986925
 20
407.9326898353604
 30
0.0
 11
86.06154252542399
 21
407.9326898353604
 31
0.0
  0
LINE
  5
49C
330
1F
100
AcDbEntity
  8
D-4
  6
Continuous
 62
     7
370
     9
100
AcDbLine
 10
126.0262905986925
 20
415.9326667409769
 30
0.0
 11
86.06154252542399
 21
415.9326667409769
 31
0.0
  0
LINE
  5
49D
330
1F
100
AcDbEntity
  8
D-4
  6
Continuous
 62
     7
370
     9
100
AcDbLine
 10
87.56152273023818
 20
415.9326667409769
 30
0.0
 11
87.56152273023818
 21
420.8697098021044
 31
0.0
  0
LINE
  5
49E
330
1F
100
AcDbEntity
  8
D-4
  6
Continuous
 62
     7
370
     9
100
AcDbLine
 10
126.0262905986925
 20
420.8697098021044
 30
0.0
 11
86.06154252542399
 21
420.8697098021044
 31
0.0
  0
LINE
  5
49F
330
1F
100
AcDbEntity
  8
D-4
  6
Continuous
 62
     7
370
     9
100
AcDbLine
 10
87.56152273023818
 20
420.8697098021044
 30
0.0
 11
87.56152273023818
 21
452.1197098021046
 31
0.0
  0
LINE
  5
4A0
330
1F
100
AcDbEntity
  8
D-4
  6
Continuous
 62
     7
370
     9
100
AcDbLine
 10
87.56152273023818
 20
367.0261857971424
 30
0.0
 11
87.56152273023818
 21
415.9326667409769
 31
0.0
  0
LINE
  5
4A1
330
1F
100
AcDbEntity
  8
D-4
  6
Continuous
 62
     7
370
     9
100
AcDbLine
 10
47.79794323277191
 20
403.6242676436373
 30
0.0
 11
47.79794323277191
 21
386.9280181715089
 31
0.0
  0
TEXT
  5
4A2
330
1F
100
AcDbEntity
  8
D-4
  6
Continuous
 62
     2
370
     9
100
AcDbText
 10
82.24139076233271
 20
370.4868709085233
 30
0.0
 40
15.24
  1
3.2
 50
90.0
 41
1.083333333333333
  7
ＭＳ ゴシック
100
AcDbText
  0
TEXT
  5
4A3
330
1F
100
AcDbEntity
  8
D-4
  6
Continuous
 62
     2
370
     9
100
AcDbText
 10
43.98917370152191
 20
390.3886970968943
 30
0.0
 40
15.24
  1
2
 50
90.0
 41
0.9999999999999998
  7
ＭＳ ゴシック
100
AcDbText
  0
LWPOLYLINE
  5
4A4
330
1F
100
AcDbEntity
  8
D-4
  6
Continuous
 62
     7
370
     9
100
AcDbPolyline
 90
        4
 70
     1
 43
0.5
 10
87.8115227302382
 20
407.9326898353604
 42
0.4142135623731
 10
87.56152273023818
 20
408.1826898353603
 42
0.4142135623731
 10
87.31152273023818
 20
407.9326898353604
 42
0.4142135623731
 10
87.56152273023818
 20
407.6826898353604
 42
0.4142135623731
  0
LWPOLYLINE
  5
4A5
330
1F
100
AcDbEntity
  8
D-4
  6
Continuous
 62
     7
370
     9
100
AcDbPolyline
 90
        4
 70
     1
 43
0.5
 10
87.8115227302382
 20
415.9326667409769
 42
0.4142135623731
 10
87.56152273023818
 20
416.1826667409769
 42
0.4142135623731
 10
87.31152273023818
 20
415.9326667409769
 42
0.4142135623731
 10
87.56152273023818
 20
415.6826667409769
 42
0.4142135623731
  0
LWPOLYLINE
  5
4A6
330
1F
100
AcDbEntity
  8
D-4
  6
Continuous
 62
     7
370
     9
100
AcDbPolyline
 90
        4
 70
     1
 43
0.5
 10
87.8115227302382
 20
420.8697098021044
 42
0.4142135623731
 10
87.56152273023818
 20
421.1197098021044
 42
0.4142135623731
 10
87.31152273023818
 20
420.8697098021044
 42
0.4142135623731
 10
87.56152273023818
 20
420.6197098021044
 42
0.4142135623731
  0
LINE
  5
4A7
330
1F
100
AcDbEntity
  8
D-4
  6
Continuous
 62
     7
370
     9
100
AcDbLine
 10
87.56152273023818
 20
419.2018725822191
 30
0.0
 11
47.79794323277191
 21
403.6242676436373
 31
0.0
  0
TEXT
  5
4A8
330
1F
100
AcDbEntity
  8
D-4
  6
Continuous
 62
     2
370
   211
100
AcDbText
 10
81.74152273023819
 20
425.3492531174279
 30
0.0
 40
15.24
  1
12.5
 50
90.0
 41
1.09375
  7
ＭＳ ゴシック
100
AcDbText
  0
LINE
  5
4A9
330
1F
100
AcDbEntity
  8
D-B
  6
Continuous
 62
     7
370
     9
100
AcDbLine
 10
177.0726384343365
 20
415.8696933061162
 30
0.0
 11
172.072498218437
 21
420.8697098021044
 31
0.0
  0
LINE
  5
4AA
330
1F
100
AcDbEntity
  8
D-B
  6
Continuous
 62
     7
370
     9
100
AcDbLine
 10
171.7693844357092
 20
415.8696933061162
 30
0.0
 11
166.7692442198097
 21
420.8697098021044
 31
0.0
  0
LINE
  5
4AB
330
1F
100
AcDbEntity
  8
D-B
  6
Continuous
 62
     7
370
     9
100
AcDbLine
 10
166.4661304370819
 20
415.8696933061162
 30
0.0
 11
161.4659902211824
 21
420.8697098021044
 31
0.0
  0
LINE
  5
4AC
330
1F
100
AcDbEntity
  8
D-B
  6
Continuous
 62
     7
370
     9
100
AcDbLine
 10
161.1628764384545
 20
415.8696933061162
 30
0.0
 11
156.1627362225551
 21
420.8697098021044
 31
0.0
  0
LINE
  5
4AD
330
1F
100
AcDbEntity
  8
D-B
  6
Continuous
 62
     7
370
     9
100
AcDbLine
 10
155.8596224398272
 20
415.8696933061162
 30
0.0
 11
150.8594822239277
 21
420.8697098021044
 31
0.0
  0
LINE
  5
4AE
330
1F
100
AcDbEntity
  8
D-B
  6
Continuous
 62
     7
370
     9
100
AcDbLine
 10
150.5563684411999
 20
415.8696933061162
 30
0.0
 11
145.5562282253004
 21
420.8697098021044
 31
0.0
  0
LINE
  5
4AF
330
1F
100
AcDbEntity
  8
D-B
  6
Continuous
 62
     7
370
     9
100
AcDbLine
 10
145.2531144425726
 20
415.8696933061162
 30
0.0
 11
140.2529742266731
 21
420.8697098021044
 31
0.0
  0
LINE
  5
4B0
330
1F
100
AcDbEntity
  8
D-B
  6
Continuous
 62
     7
370
     9
100
AcDbLine
 10
139.9498604439452
 20
415.8696933061162
 30
0.0
 11
138.8626098632812
 21
416.9569169846255
 31
0.0
  0
TEXT
  5
4B1
330
1F
100
AcDbEntity
  8
D-F
  6
Continuous
 62
     7
370
     9
100
AcDbText
 10
185.0402523472425
 20
-296.7148658795842
 30
0.0
 40
11.43
  1
把手カバ－
 41
1.133333333333333
  7
ＭＳ ゴシック
100
AcDbText
  0
TEXT
  5
4B2
330
1F
100
AcDbEntity
  8
D-F
  6
Continuous
 62
     7
370
     9
100
AcDbText
 10
184.5404092141602
 20
-319.7805256861192
 30
0.0
 40
11.43
  1
ＳＣＳ１３
 41
1.133333333333333
  7
ＭＳ ゴシック
100
AcDbText
  0
LINE
  5
4B3
330
1F
100
AcDbEntity
  8
D-F
  6
Continuous
 62
     7
370
     9
100
AcDbLine
 10
181.0415072825842
 20
-303.8149122663031
 30
0.0
 11
272.9320994379145
 21
-303.8149122663031
 31
0.0
  0
LINE
  5
4B4
330
1F
100
AcDbEntity
  8
D-F
  6
Continuous
 62
     7
370
     9
100
AcDbLine
 10
272.9320994379145
 20
-303.8149122663031
 30
0.0
 11
317.7888005645376
 21
-348.6330449944786
 31
0.0
  0
LINE
  5
4B5
330
1F
100
AcDbEntity
  8
D-F
  6
Continuous
 62
     7
370
     9
100
AcDbLine
 10
317.7888005645376
 20
-348.6330449944786
 30
0.0
 11
307.8686119382151
 21
-341.0277930184961
 31
0.0
  0
LINE
  5
4B6
330
1F
100
AcDbEntity
  8
D-F
  6
Continuous
 62
     7
370
     9
100
AcDbLine
 10
317.7888005645376
 20
-348.6330449944786
 30
0.0
 11
310.1750182229016
 21
-338.7194019479394
 31
0.0
  0
LINE
  5
4B7
330
1F
100
AcDbEntity
  8
D-F
  6
Continuous
 62
     7
370
     9
100
AcDbLine
 10
313.1395494431756
 20
-454.4801299654833
 30
0.0
 11
384.983074424248
 21
-426.987735708845
 31
0.0
  0
LINE
  5
4B8
330
1F
100
AcDbEntity
  8
D-F
  6
Continuous
 62
     7
370
     9
100
AcDbLine
 10
384.983074424248
 20
-426.987735708845
 30
0.0
 11
373.9916591774586
 21
-432.940784580864
 31
0.0
  0
LINE
  5
4B9
330
1F
100
AcDbEntity
  8
D-F
  6
Continuous
 62
     7
370
     9
100
AcDbLine
 10
384.983074424248
 20
-426.987735708845
 30
0.0
 11
372.8254201454019
 21
-429.8931517609897
 31
0.0
  0
LINE
  5
4BA
330
1F
100
AcDbEntity
  8
D-F
  6
Continuous
 62
     7
370
     9
100
AcDbLine
 10
200.4274918888931
 20
-454.4801299654833
 30
0.0
 11
313.1395494431756
 21
-454.4801299654833
 31
0.0
  0
TEXT
  5
4BB
330
1F
100
AcDbEntity
  8
D-F
  6
Continuous
 62
     7
370
     9
100
AcDbText
 10
223.0335206660343
 20
-448.5138528460787
 30
0.0
 40
11.43
  1
把手本体
 41
1.125
  7
ＭＳ ゴシック
100
AcDbText
  0
TEXT
  5
4BC
330
1F
100
AcDbEntity
  8
D-F
  6
Continuous
 62
     7
370
     9
100
AcDbText
 10
205.9602586100014
 20
-472.9388003131861
 30
0.0
 40
11.43
  1
強化ナイロン
 41
1.138888888888889
  7
ＭＳ ゴシック
100
AcDbText
  0
LINE
  5
4BD
330
1F
100
AcDbEntity
  8
D-A
  6
JWW_CENTER1
 62
     2
370
     9
100
AcDbLine
 10
243.7813629975193
 20
423.6162505933838
 30
0.0
 11
243.7813629975193
 21
407.8697164004997
 31
0.0
  0
LINE
  5
4BE
330
1F
100
AcDbEntity
  8
D-A
  6
JWW_CENTER1
 62
     2
370
     9
100
AcDbLine
 10
306.2810743177261
 20
423.6162505933838
 30
0.0
 11
306.2810743177261
 21
407.8697164004997
 31
0.0
  0
LINE
  5
4BF
330
1F
100
AcDbEntity
  8
D-A
  6
JWW_CENTER1
 62
     2
370
     9
100
AcDbLine
 10
243.7813629975193
 20
453.8421384074675
 30
0.0
 11
243.7813629975193
 21
433.1121249467412
 31
0.0
  0
LINE
  5
4C0
330
1F
100
AcDbEntity
  8
D-A
  6
JWW_CENTER1
 62
     2
370
     9
100
AcDbLine
 10
306.2810743177261
 20
453.8421384074675
 30
0.0
 11
306.2810743177261
 21
433.1121249467412
 31
0.0
  0
LINE
  5
4C1
330
1F
100
AcDbEntity
  8
D-A
  6
JWW_CENTER1
 62
     2
370
     9
100
AcDbLine
 10
306.2810743177261
 20
400.2936306530256
 30
0.0
 11
306.2810743177261
 21
376.2182307902722
 31
0.0
  0
LINE
  5
4C2
330
1F
100
AcDbEntity
  8
D-A
  6
JWW_CENTER1
 62
     2
370
     9
100
AcDbLine
 10
243.7813629975193
 20
400.2936306530256
 30
0.0
 11
243.7813629975193
 21
376.2182307902722
 31
0.0
  0
LINE
  5
4C3
330
1F
100
AcDbEntity
  8
D-D
  6
Continuous
 62
     7
370
     9
100
AcDbLine
 10
232.5062555236493
 20
-386.1329212745658
 30
0.0
 11
237.5062101596818
 21
-391.1328759105984
 31
0.0
  0
LINE
  5
4C4
330
1F
100
AcDbEntity
  8
D-D
  6
Continuous
 62
     7
370
     9
100
AcDbLine
 10
237.8095563825511
 20
-386.1329212745631
 30
0.0
 11
242.8095110185836
 21
-391.1328759105956
 31
0.0
  0
LINE
  5
4C5
330
1F
100
AcDbEntity
  8
D-D
  6
Continuous
 62
     7
370
     9
100
AcDbLine
 10
243.1128572414488
 20
-386.1329212745654
 30
0.0
 11
248.1128118774815
 21
-391.1328759105981
 31
0.0
  0
LINE
  5
4C6
330
1F
100
AcDbEntity
  8
D-D
  6
Continuous
 62
     7
370
     9
100
AcDbLine
 10
248.4161581003457
 20
-386.1329212745668
 30
0.0
 11
253.4161127363782
 21
-391.1328759105994
 31
0.0
  0
LINE
  5
4C7
330
1F
100
AcDbEntity
  8
D-D
  6
Continuous
 62
     7
370
     9
100
AcDbLine
 10
253.7194589592475
 20
-386.1329212745641
 30
0.0
 11
258.7194135952801
 21
-391.1328759105967
 31
0.0
  0
LINE
  5
4C8
330
1F
100
AcDbEntity
  8
D-D
  6
Continuous
 62
     7
370
     9
100
AcDbLine
 10
259.0227598181459
 20
-386.132921274567
 30
0.0
 11
264.0227144541786
 21
-391.1328759105998
 31
0.0
  0
LINE
  5
4C9
330
1F
100
AcDbEntity
  8
D-D
  6
Continuous
 62
     7
370
     9
100
AcDbLine
 10
264.3260606770479
 20
-386.1329212745645
 30
0.0
 11
269.3260153130806
 21
-391.1328759105971
 31
0.0
  0
LINE
  5
4CA
330
1F
100
AcDbEntity
  8
D-D
  6
Continuous
 62
     7
370
     9
100
AcDbLine
 10
269.629361535944
 20
-386.1329212745651
 30
0.0
 11
274.6293161719765
 21
-391.1328759105976
 31
0.0
  0
LINE
  5
4CB
330
1F
100
AcDbEntity
  8
D-D
  6
Continuous
 62
     7
370
     9
100
AcDbLine
 10
274.9326623948429
 20
-386.1329212745685
 30
0.0
 11
279.9326170308756
 21
-391.1328759106013
 31
0.0
  0
LINE
  5
4CC
330
1F
100
AcDbEntity
  8
D-D
  6
Continuous
 62
     7
370
     9
100
AcDbLine
 10
280.235963253745
 20
-386.1329212745661
 30
0.0
 11
285.2359178897776
 21
-391.1328759105987
 31
0.0
  0
LINE
  5
4CD
330
1F
100
AcDbEntity
  8
D-D
  6
Continuous
 62
     7
370
     9
100
AcDbLine
 10
285.5392641126405
 20
-386.1329212745661
 30
0.0
 11
290.5392187486729
 21
-391.1328759105986
 31
0.0
  0
LINE
  5
4CE
330
1F
100
AcDbEntity
  8
D-D
  6
Continuous
 62
     7
370
     9
100
AcDbLine
 10
290.8425649715422
 20
-386.1329212745633
 30
0.0
 11
295.8425196075748
 21
-391.1328759105959
 31
0.0
  0
LINE
  5
4CF
330
1F
100
AcDbEntity
  8
D-D
  6
Continuous
 62
     7
370
     9
100
AcDbLine
 10
296.145865830442
 20
-386.1329212745677
 30
0.0
 11
301.1458204664747
 21
-391.1328759106004
 31
0.0
  0
LINE
  5
4D0
330
1F
100
AcDbEntity
  8
D-D
  6
Continuous
 62
     7
370
     9
100
AcDbLine
 10
301.4491666893369
 20
-386.1329212745671
 30
0.0
 11
302.4830496802658
 21
-387.166804265496
 31
0.0
  0
LINE
  5
4D1
330
1F
100
AcDbEntity
  8
D-D
  6
Continuous
 62
     7
370
     9
100
AcDbLine
 10
542.4830991682312
 20
-388.5183151030023
 30
0.0
 11
545.0976599758277
 21
-391.1328759105987
 31
0.0
  0
LINE
  5
4D2
330
1F
100
AcDbEntity
  8
D-D
  6
Continuous
 62
     7
370
     9
100
AcDbLine
 10
545.4010061986996
 20
-386.1329212745662
 30
0.0
 11
550.4009608347321
 21
-391.1328759105987
 31
0.0
  0
LINE
  5
4D3
330
1F
100
AcDbEntity
  8
D-D
  6
Continuous
 62
     7
370
     9
100
AcDbLine
 10
550.7043070575968
 20
-386.1329212745679
 30
0.0
 11
555.7042616936294
 21
-391.1328759106004
 31
0.0
  0
LINE
  5
4D4
330
1F
100
AcDbEntity
  8
D-D
  6
Continuous
 62
     7
370
     9
100
AcDbLine
 10
556.007607916499
 20
-386.1329212745654
 30
0.0
 11
561.0075625525312
 21
-391.1328759105977
 31
0.0
  0
LINE
  5
4D5
330
1F
100
AcDbEntity
  8
D-D
  6
Continuous
 62
     7
370
     9
100
AcDbLine
 10
561.310908775396
 20
-386.1329212745671
 30
0.0
 11
566.3108634114285
 21
-391.1328759105996
 31
0.0
  0
LINE
  5
4D6
330
1F
100
AcDbEntity
  8
D-D
  6
Continuous
 62
     7
370
     9
100
AcDbLine
 10
566.6142096342908
 20
-386.1329212745663
 30
0.0
 11
571.6141642703233
 21
-391.1328759105988
 31
0.0
  0
LINE
  5
4D7
330
1F
100
AcDbEntity
  8
D-D
  6
Continuous
 62
     7
370
     9
100
AcDbLine
 10
571.9175104931951
 20
-386.1329212745662
 30
0.0
 11
576.9174651292276
 21
-391.1328759105987
 31
0.0
  0
LINE
  5
4D8
330
1F
100
AcDbEntity
  8
D-D
  6
Continuous
 62
     7
370
     9
100
AcDbLine
 10
577.2208113520925
 20
-386.132921274568
 30
0.0
 11
582.2207659881249
 21
-391.1328759106005
 31
0.0
  0
LINE
  5
4D9
330
1F
100
AcDbEntity
  8
D-D
  6
Continuous
 62
     7
370
     9
100
AcDbLine
 10
582.5241122109943
 20
-386.1329212745653
 30
0.0
 11
587.5240668470268
 21
-391.1328759105978
 31
0.0
  0
LINE
  5
4DA
330
1F
100
AcDbEntity
  8
D-D
  6
Continuous
 62
     7
370
     9
100
AcDbLine
 10
587.8274130698917
 20
-386.1329212745673
 30
0.0
 11
592.827367705924
 21
-391.1328759105996
 31
0.0
  0
LINE
  5
4DB
330
1F
100
AcDbEntity
  8
D-D
  6
Continuous
 62
     7
370
     9
100
AcDbLine
 10
593.1307139287862
 20
-386.1329212745663
 30
0.0
 11
598.1306685648187
 21
-391.1328759105988
 31
0.0
  0
LINE
  5
4DC
330
1F
100
AcDbEntity
  8
D-D
  6
Continuous
 62
     7
370
     9
100
AcDbLine
 10
598.4340147876908
 20
-386.1329212745663
 30
0.0
 11
603.4339694237232
 21
-391.1328759105987
 31
0.0
  0
LINE
  5
4DD
330
1F
100
AcDbEntity
  8
D-D
  6
Continuous
 62
     7
370
     9
100
AcDbLine
 10
603.7373156465881
 20
-386.1329212745682
 30
0.0
 11
608.7372702826203
 21
-391.1328759106005
 31
0.0
  0
LINE
  5
4DE
330
1F
100
AcDbEntity
  8
D-D
  6
Continuous
 62
     7
370
     9
100
AcDbLine
 10
609.0406165054899
 20
-386.1329212745654
 30
0.0
 11
613.7534387216524
 21
-390.845743490728
 31
0.0
  0
LINE
  5
4DF
330
1F
100
AcDbEntity
  8
D-4
  6
Continuous
 62
     7
370
     9
100
AcDbLine
 10
275.0312186576227
 20
332.1198087780334
 30
0.0
 11
269.9710742847341
 21
320.6898210510486
 31
0.0
  0
LINE
  5
4E0
330
1F
100
AcDbEntity
  8
D-4
  6
Continuous
 62
     7
370
     9
100
AcDbLine
 10
275.0312186576227
 20
332.1198087780334
 30
0.0
 11
267.1851493216852
 21
322.388990313084
 31
0.0
  0
LINE
  5
4E1
330
1F
100
AcDbEntity
  8
D-4
  6
Continuous
 62
     7
370
     9
100
AcDbLine
 10
252.1458564337537
 20
294.5968845845165
 30
0.0
 11
275.0312186576227
 21
332.1198087780334
 31
0.0
  0
LINE
  5
4E2
330
1F
100
AcDbEntity
  8
D-0
  6
Continuous
 62
     7
370
     9
100
AcDbLine
 10
124.2225174569504
 20
294.5968845845165
 30
0.0
 11
252.1458564337537
 21
294.5968845845165
 31
0.0
  0
TEXT
  5
4E3
330
1F
100
AcDbEntity
  8
D-0
  6
Continuous
 62
     7
370
     9
100
AcDbText
 10
154.4341869453521
 20
299.9850185583342
 30
0.0
 40
11.43
  1
把手本体
 41
1.125
  7
ＭＳ ゴシック
100
AcDbText
  0
TEXT
  5
4E4
330
1F
100
AcDbEntity
  8
D-0
  6
Continuous
 62
     7
370
     9
100
AcDbText
 10
119.434186945352
 20
277.3747098854034
 30
0.0
 40
11.43
  1
（強化ナイロン）
 41
1.145833333333333
  7
ＭＳ ゴシック
100
AcDbText
  0
LINE
  5
4E5
330
1F
100
AcDbEntity
  8
D-4
  6
Continuous
 62
     7
370
     9
100
AcDbLine
 10
389.2151095757887
 20
239.5206661862179
 30
0.0
 11
473.1085287558068
 21
377.0727374757741
 31
0.0
  0
TEXT
  5
4E6
330
1F
100
AcDbEntity
  8
D-4
  6
Continuous
 62
     7
370
     9
100
AcDbText
 10
257.9499848026241
 20
245.5681689162134
 30
0.0
 40
11.43
  1
クッション
 41
1.133333333333333
  7
ＭＳ ゴシック
100
AcDbText
  0
TEXT
  5
4E7
330
1F
100
AcDbEntity
  8
D-4
  6
Continuous
 62
     7
370
     9
100
AcDbText
 10
205.5425642211689
 20
221.8584215026749
 30
0.0
 40
11.43
  1
（軟質ポリ塩化ビニル）
 41
1.151515151515152
  7
ＭＳ ゴシック
100
AcDbText
  0
LINE
  5
4E8
330
1F
100
AcDbEntity
  8
D-4
  6
Continuous
 62
     7
370
     9
100
AcDbLine
 10
210.1469396284242
 20
239.5206661862179
 30
0.0
 11
389.2151095757887
 21
239.5206661862179
 31
0.0
  0
LINE
  5
4E9
330
1F
100
AcDbEntity
  8
0-2
  6
Continuous
 62
     7
370
     9
100
AcDbLine
 10
-634.7260530685365
 20
-82.27491218339804
 30
0.0
 11
-224.7334588835137
 21
-82.27491218339804
 31
0.0
  0
LWPOLYLINE
  5
4EA
330
1F
100
AcDbEntity
  8
0-2
  6
Continuous
 62
     7
370
     9
100
AcDbPolyline
 90
        4
 70
     1
 43
0.5
 10
-634.4760530685365
 20
-82.27491218339804
 42
0.4142135623731
 10
-634.7260530685365
 20
-82.02491218339803
 42
0.4142135623731
 10
-634.9760530685365
 20
-82.27491218339804
 42
0.4142135623731
 10
-634.7260530685365
 20
-82.52491218339804
 42
0.4142135623731
  0
LWPOLYLINE
  5
4EB
330
1F
100
AcDbEntity
  8
0-2
  6
Continuous
 62
     7
370
     9
100
AcDbPolyline
 90
        4
 70
     1
 43
0.5
 10
-224.4834588835138
 20
-82.27491218339804
 42
0.4142135623731
 10
-224.7334588835137
 20
-82.02491218339803
 42
0.4142135623731
 10
-224.9834588835137
 20
-82.27491218339804
 42
0.4142135623731
 10
-224.7334588835137
 20
-82.52491218339804
 42
0.4142135623731
  0
LINE
  5
4EC
330
1F
100
AcDbEntity
  8
0-2
  6
Continuous
 62
     7
370
     9
100
AcDbLine
 10
-634.7260530685365
 20
-83.77491218339804
 30
0.0
 11
-634.7260530685365
 21
-52.80283414627121
 31
0.0
  0
LINE
  5
4ED
330
1F
100
AcDbEntity
  8
0-2
  6
Continuous
 62
     7
370
     9
100
AcDbLine
 10
-224.7334588835137
 20
-83.77491218339804
 30
0.0
 11
-224.7334588835137
 21
-52.08132348373582
 31
0.0
  0
TEXT
  5
4EE
330
1F
100
AcDbEntity
  8
0-2
  6
Continuous
 62
     2
370
   211
100
AcDbText
 10
-445.9797559760251
 20
-76.45491218339805
 30
0.0
 40
15.24
  1
410
 41
1.083333333333333
  7
ＭＳ ゴシック
100
AcDbText
  0
TEXT
  5
4EF
330
1F
100
AcDbEntity
  8
D-4
  6
Continuous
 62
     7
370
     9
100
AcDbText
 10
529.427964494035
 20
615.9315150574123
 30
0.0
 40
11.43
  1
溶融亜鉛めっき鋼板
 41
1.148148148148148
  7
ＭＳ ゴシック
100
AcDbText
  0
TEXT
  5
4F0
330
1F
100
AcDbEntity
  8
D-4
  6
Continuous
 62
     7
370
     9
100
AcDbText
 10
529.427964494035
 20
637.2546674733987
 30
0.0
 40
11.43
  1
底板　ｔ＝３．２
 41
1.145833333333333
  7
ＭＳ ゴシック
100
AcDbText
  0
LINE
  5
4F1
330
1F
100
AcDbEntity
  8
D-4
  6
Continuous
 62
     7
370
     9
100
AcDbLine
 10
692.9515074624542
 20
632.1575227310001
 30
0.0
 11
520.6665863861908
 21
632.1575227310001
 31
0.0
  0
TEXT
  5
4F2
330
1F
100
AcDbEntity
  8
F-0
  6
Continuous
 62
     7
370
     9
100
AcDbText
 10
-415.883482559337
 20
-662.7202600305664
 30
0.0
 40
11.43
  1
フロアーハッチ　フローリング床材用（フローリング厚12.5mm）　屋内用　一般形
  7
ＭＳ ゴシック
100
AcDbText
  0
TEXT
  5
4F3
330
1F
100
AcDbEntity
  8
F-0
  6
Continuous
 62
     7
370
     9
100
AcDbText
 10
-414.5217847946876
 20
-683.4720375389618
 30
0.0
 40
11.43
  1
アルミニウム＋スチール製　アルミニウム目地　ＭＯＦＥ－６００－１２.５－Ｍ
  7
ＭＳ ゴシック
100
AcDbText
  0
ENDSEC
  0
SECTION
  2
OBJECTS
  0
DICTIONARY
  5
C
330
0
100
AcDbDictionary
281
     1
  3
ACAD_GROUP
350
D
  3
ACAD_LAYOUT
350
1A
  3
ACAD_MLEADERSTYLE
350
4F5
  3
ACAD_MLINESTYLE
350
17
  3
ACAD_PLOTSETTINGS
350
19
  3
ACAD_PLOTSTYLENAME
350
E
  3
ACAD_TABLESTYLE
350
4F4
  3
ACAD_VISUALSTYLE
350
2A
  0
DICTIONARY
  5
D
102
{ACAD_REACTORS
330
C
102
}
330
C
100
AcDbDictionary
281
     1
  0
DICTIONARY
  5
1A
102
{ACAD_REACTORS
330
C
102
}
330
C
100
AcDbDictionary
281
     1
  3
Layout1
350
1E
  3
Layout2
350
26
  3
Model
350
22
  0
DICTIONARY
  5
4F5
102
{ACAD_REACTORS
330
C
102
}
330
C
100
AcDbDictionary
281
     1
  0
DICTIONARY
  5
17
102
{ACAD_REACTORS
330
C
102
}
330
C
100
AcDbDictionary
281
     1
  3
Standard
350
18
  0
DICTIONARY
  5
19
102
{ACAD_REACTORS
330
C
102
}
330
C
100
AcDbDictionary
281
     1
  0
ACDBDICTIONARYWDFLT
  5
E
102
{ACAD_REACTORS
330
C
102
}
330
C
100
AcDbDictionary
281
     1
  3
Normal
350
F
100
AcDbDictionaryWithDefault
340
F
  0
DICTIONARY
  5
4F4
102
{ACAD_REACTORS
330
C
102
}
330
C
100
AcDbDictionary
281
     1
  0
DICTIONARY
  5
2A
102
{ACAD_REACTORS
330
C
102
}
330
C
100
AcDbDictionary
281
     1
  3
2dWireframe
350
2F
  3
3D Hidden
350
31
  3
3dWireframe
350
30
  3
Basic
350
32
  3
Brighten
350
36
  3
ColorChange
350
3A
  3
Conceptual
350
34
  3
Dim
350
35
  3
Facepattern
350
39
  3
Flat
350
2B
  3
FlatWithEdges
350
2C
  3
Gouraud
350
2D
  3
GouraudWithEdges
350
2E
  3
Linepattern
350
38
  3
Realistic
350
33
  3
Thicken
350
37
  0
LAYOUT
  5
1E
102
{ACAD_REACTORS
330
1A
102
}
330
1A
100
AcDbPlotSettings
  1

  2
none_device
  4

  6

 40
0.0
 41
0.0
 42
0.0
 43
0.0
 44
0.0
 45
0.0
 46
0.0
 47
0.0
 48
0.0
 49
0.0
140
0.0
141
0.0
142
1.0
143
1.0
 70
   688
 72
     0
 73
     0
 74
     5
  7

 75
    16
 76
     0
 77
     5
 78
   300
147
1.0
148
0.0
149
0.0
100
AcDbLayout
  1
Layout1
 70
     1
 71
     1
 10
0.0
 20
0.0
 11
420.0
 21
297.0
 12
0.0
 22
0.0
 32
0.0
 14
1.000000000000000E+20
 24
1.000000000000000E+20
 34
1.000000000000000E+20
 15
-1.000000000000000E+20
 25
-1.000000000000000E+20
 35
-1.000000000000000E+20
146
0.0
 13
0.0
 23
0.0
 33
0.0
 16
1.0
 26
0.0
 36
0.0
 17
0.0
 27
1.0
 37
0.0
 76
     0
330
1B
  0
LAYOUT
  5
26
102
{ACAD_REACTORS
330
1A
102
}
330
1A
100
AcDbPlotSettings
  1

  2
none_device
  4

  6

 40
0.0
 41
0.0
 42
0.0
 43
0.0
 44
0.0
 45
0.0
 46
0.0
 47
0.0
 48
0.0
 49
0.0
140
0.0
141
0.0
142
1.0
143
1.0
 70
   688
 72
     0
 73
     0
 74
     5
  7

 75
    16
 76
     0
 77
     5
 78
   300
147
1.0
148
0.0
149
0.0
100
AcDbLayout
  1
Layout2
 70
     1
 71
     2
 10
0.0
 20
0.0
 11
0.0
 21
0.0
 12
0.0
 22
0.0
 32
0.0
 14
0.0
 24
0.0
 34
0.0
 15
0.0
 25
0.0
 35
0.0
146
0.0
 13
0.0
 23
0.0
 33
0.0
 16
1.0
 26
0.0
 36
0.0
 17
0.0
 27
1.0
 37
0.0
 76
     0
330
23
  0
LAYOUT
  5
22
102
{ACAD_REACTORS
330
1A
102
}
330
1A
100
AcDbPlotSettings
  1

  2
none_device
  4

  6

 40
0.0
 41
0.0
 42
0.0
 43
0.0
 44
0.0
 45
0.0
 46
0.0
 47
0.0
 48
0.0
 49
0.0
140
0.0
141
0.0
142
1.0
143
1.0
 70
  1712
 72
     0
 73
     0
 74
     0
  7

 75
     0
 76
     0
 77
     5
 78
   300
147
1.0
148
0.0
149
0.0
100
AcDbLayout
  1
Model
 70
     1
 71
     0
 10
-1050.0
 20
-742.5
 11
1050.0
 21
742.5
 12
0.0
 22
0.0
 32
0.0
 14
-1050.0
 24
-742.5
 34
0.0
 15
1050.0
 25
742.5
 35
0.0
146
0.0
 13
0.0
 23
0.0
 33
0.0
 16
1.0
 26
0.0
 36
0.0
 17
0.0
 27
1.0
 37
0.0
 76
     0
330
1F
331
29
  0
MLINESTYLE
  5
18
102
{ACAD_REACTORS
330
17
102
}
330
17
100
AcDbMlineStyle
  2
Standard
 70
     0
  3

 62
   256
 51
90.0
 52
90.0
 71
     2
 49
0.5
 62
   256
  6
BYLAYER
 49
-0.5
 62
   256
  6
BYLAYER
  0
ACDBPLACEHOLDER
  5
F
102
{ACAD_REACTORS
330
E
102
}
330
E
  0
VISUALSTYLE
  5
2F
102
{ACAD_REACTORS
330
2A
102
}
330
2A
100
AcDbVisualStyle
  2
2dWireframe
 70
     4
 71
     0
 72
     2
 73
     0
 90
        0
 40
-0.6
 41
-30.0
 62
     5
 63
     7
421
 16777215
 74
     1
 91
        4
 64
     7
 65
   257
 75
     1
175
     1
 42
1.0
 92
        0
 66
   257
 43
1.0
 76
     1
 77
     6
 78
     2
 67
     7
 79
     5
170
     0
171
     0
290
     0
174
     0
 93
        1
 44
0.0
173
     0
291
     0
 45
0.0
1001
ACAD
1000
AcDbSavedByObjectVersion
1070
     0
  0
VISUALSTYLE
  5
31
102
{ACAD_REACTORS
330
2A
102
}
330
2A
100
AcDbVisualStyle
  2
3D Hidden
 70
     6
 71
     1
 72
     2
 73
     2
 90
        0
 40
-0.6
 41
-30.0
 62
     5
 63
     7
421
 16777215
 74
     2
 91
        2
 64
     7
 65
   257
 75
     2
175
     1
 42
40.0
 92
        0
 66
   257
 43
1.0
 76
     1
 77
     6
 78
     2
 67
     7
 79
     3
170
     0
171
     0
290
     0
174
     0
 93
        1
 44
0.0
173
     0
291
     0
 45
0.0
1001
ACAD
1000
AcDbSavedByObjectVersion
1070
     0
  0
VISUALSTYLE
  5
30
102
{ACAD_REACTORS
330
2A
102
}
330
2A
100
AcDbVisualStyle
  2
3dWireframe
 70
     5
 71
     0
 72
     2
 73
     0
 90
        0
 40
-0.6
 41
-30.0
 62
     5
 63
     7
421
 16777215
 74
     1
 91
        4
 64
     7
 65
   257
 75
     1
175
     1
 42
1.0
 92
        0
 66
   257
 43
1.0
 76
     1
 77
     6
 78
     2
 67
     7
 79
     5
170
     0
171
     0
290
     0
174
     0
 93
        1
 44
0.0
173
     0
291
     0
 45
0.0
1001
ACAD
1000
AcDbSavedByObjectVersion
1070
     0
  0
VISUALSTYLE
  5
32
102
{ACAD_REACTORS
330
2A
102
}
330
2A
100
AcDbVisualStyle
  2
Basic
 70
     7
 71
     1
 72
     0
 73
     1
 90
        0
 40
-0.6
 41
-30.0
 62
     5
 63
     7
421
 16777215
 74
     0
 91
        4
 64
     7
 65
   257
 75
     1
175
     1
 42
1.0
 92
        8
 66
     7
 43
1.0
 76
     1
 77
     6
 78
     2
 67
     7
 79
     5
170
     0
171
     0
290
     0
174
     0
 93
        1
 44
0.0
173
     0
291
     1
 45
0.0
1001
ACAD
1000
AcDbSavedByObjectVersion
1070
     0
  0
VISUALSTYLE
  5
36
102
{ACAD_REACTORS
330
2A
102
}
330
2A
100
AcDbVisualStyle
  2
Brighten
 70
    12
 71
     2
 72
     2
 73
     0
 90
        0
 40
-0.6
 41
-30.0
 62
     5
 63
     7
421
 16777215
 74
     1
 91
        4
 64
     7
 65
   257
 75
     1
175
     1
 42
1.0
 92
        8
 66
     7
 43
1.0
 76
     1
 77
     6
 78
     2
 67
     7
 79
     5
170
     0
171
     0
290
     0
174
     0
 93
        1
 44
50.0
173
     0
291
     1
 45
0.0
1001
ACAD
1000
AcDbSavedByObjectVersion
1070
     0
  0
VISUALSTYLE
  5
3A
102
{ACAD_REACTORS
330
2A
102
}
330
2A
100
AcDbVisualStyle
  2
ColorChange
 70
    16
 71
     2
 72
     2
 73
     3
 90
        0
 40
-0.6
 41
-30.0
 62
     5
 63
     8
421
  8421504
 74
     1
 91
        4
 64
     7
 65
   257
 75
     1
175
     1
 42
1.0
 92
        8
 66
     8
424
  8421504
 43
1.0
 76
     1
 77
     6
 78
     2
 67
     7
 79
     5
170
     0
171
     0
290
     0
174
     0
 93
        1
 44
0.0
173
     0
291
     1
 45
0.0
1001
ACAD
1000
AcDbSavedByObjectVersion
1070
     0
  0
VISUALSTYLE
  5
34
102
{ACAD_REACTORS
330
2A
102
}
330
2A
100
AcDbVisualStyle
  2
Conceptual
 70
     9
 71
     3
 72
     2
 73
     0
 90
        0
 40
-0.6
 41
-30.0
 62
     5
 63
     7
421
 16777215
 74
     2
 91
        2
 64
     7
 65
   257
 75
     1
175
     1
 42
40.0
 92
        8
 66
     7
 43
1.0
 76
     1
 77
     6
 78
     2
 67
     7
 79
     3
170
     0
171
     0
290
     0
174
     0
 93
        1
 44
0.0
173
     0
291
     0
 45
0.0
1001
ACAD
1000
AcDbSavedByObjectVersion
1070
     0
  0
VISUALSTYLE
  5
35
102
{ACAD_REACTORS
330
2A
102
}
330
2A
100
AcDbVisualStyle
  2
Dim
 70
    11
 71
     2
 72
     2
 73
     0
 90
        0
 40
-0.6
 41
-30.0
 62
     5
 63
     7
421
 16777215
 74
     1
 91
        4
 64
     7
 65
   257
 75
     1
175
     1
 42
1.0
 92
        8
 66
     7
 43
1.0
 76
     1
 77
     6
 78
     2
 67
     7
 79
     5
170
     0
171
     0
290
     0
174
     0
 93
        1
 44
-50.0
173
     0
291
     1
 45
0.0
1001
ACAD
1000
AcDbSavedByObjectVersion
1070
     0
  0
VISUALSTYLE
  5
39
102
{ACAD_REACTORS
330
2A
102
}
330
2A
100
AcDbVisualStyle
  2
Facepattern
 70
    15
 71
     2
 72
     2
 73
     0
 90
        0
 40
-0.6
 41
-30.0
 62
     5
 63
     7
421
 16777215
 74
     1
 91
        4
 64
     7
 65
   257
 75
     1
175
     1
 42
1.0
 92
        8
 66
     7
 43
1.0
 76
     1
 77
     6
 78
     2
 67
     7
 79
     5
170
     0
171
     0
290
     0
174
     0
 93
        1
 44
0.0
173
     0
291
     1
 45
0.0
1001
ACAD
1000
AcDbSavedByObjectVersion
1070
     0
  0
VISUALSTYLE
  5
2B
102
{ACAD_REACTORS
330
2A
102
}
330
2A
100
AcDbVisualStyle
  2
Flat
 70
     0
 71
     2
 72
     1
 73
     1
 90
        2
 40
-0.6
 41
30.0
 62
     5
 63
     7
421
 16777215
 74
     0
 91
        4
 64
     7
 65
   257
 75
     1
175
     1
 42
1.0
 92
        8
 66
     7
 43
1.0
 76
     1
 77
     6
 78
     2
 67
     7
 79
     5
170
     0
171
     0
290
     0
174
     0
 93
       13
 44
0.0
173
     0
291
     1
 45
0.0
1001
ACAD
1000
AcDbSavedByObjectVersion
1070
     0
  0
VISUALSTYLE
  5
2C
102
{ACAD_REACTORS
330
2A
102
}
330
2A
100
AcDbVisualStyle
  2
FlatWithEdges
 70
     1
 71
     2
 72
     1
 73
     1
 90
        2
 40
-0.6
 41
30.0
 62
     5
 63
     7
421
 16777215
 74
     1
 91
        4
 64
     7
 65
   257
 75
     1
175
     1
 42
1.0
 92
        0
 66
   257
 43
1.0
 76
     1
 77
     6
 78
     2
 67
     7
 79
     5
170
     0
171
     0
290
     0
174
     0
 93
       13
 44
0.0
173
     0
291
     1
 45
0.0
1001
ACAD
1000
AcDbSavedByObjectVersion
1070
     0
  0
VISUALSTYLE
  5
2D
102
{ACAD_REACTORS
330
2A
102
}
330
2A
100
AcDbVisualStyle
  2
Gouraud
 70
     2
 71
     2
 72
     2
 73
     1
 90
        2
 40
-0.6
 41
30.0
 62
     5
 63
     7
421
 16777215
 74
     0
 91
        4
 64
     7
 65
   257
 75
     1
175
     1
 42
1.0
 92
        0
 66
     7
 43
1.0
 76
     1
 77
     6
 78
     2
 67
     7
 79
     5
170
     0
171
     0
290
     0
174
     0
 93
       13
 44
0.0
173
     0
291
     1
 45
0.0
1001
ACAD
1000
AcDbSavedByObjectVersion
1070
     0
  0
VISUALSTYLE
  5
2E
102
{ACAD_REACTORS
330
2A
102
}
330
2A
100
AcDbVisualStyle
  2
GouraudWithEdges
 70
     3
 71
     2
 72
     2
 73
     1
 90
        2
 40
-0.6
 41
30.0
 62
     5
 63
     7
421
 16777215
 74
     1
 91
        4
 64
     7
 65
   257
 75
     1
175
     1
 42
1.0
 92
        0
 66
   257
 43
1.0
 76
     1
 77
     6
 78
     2
 67
     7
 79
     5
170
     0
171
     0
290
     0
174
     0
 93
       13
 44
0.0
173
     0
291
     1
 45
0.0
1001
ACAD
1000
AcDbSavedByObjectVersion
1070
     0
  0
VISUALSTYLE
  5
38
102
{ACAD_REACTORS
330
2A
102
}
330
2A
100
AcDbVisualStyle
  2
Linepattern
 70
    14
 71
     2
 72
     2
 73
     0
 90
        0
 40
-0.6
 41
-30.0
 62
     5
 63
     7
421
 16777215
 74
     1
 91
        4
 64
     7
 65
   257
 75
     7
175
     7
 42
1.0
 92
        8
 66
     7
 43
1.0
 76
     1
 77
     6
 78
     2
 67
     7
 79
     5
170
     0
171
     0
290
     0
174
     0
 93
        1
 44
0.0
173
     0
291
     1
 45
0.0
1001
ACAD
1000
AcDbSavedByObjectVersion
1070
     0
  0
VISUALSTYLE
  5
33
102
{ACAD_REACTORS
330
2A
102
}
330
2A
100
AcDbVisualStyle
  2
Realistic
 70
     8
 71
     2
 72
     2
 73
     0
 90
        0
 40
-0.6
 41
-30.0
 62
     5
 63
     7
421
 16777215
 74
     1
 91
        0
 64
     7
 65
   257
 75
     1
175
     1
 42
1.0
 92
        8
 66
     8
424
  7895160
 43
1.0
 76
     1
 77
     6
 78
     2
 67
     7
 79
     5
170
     0
171
     0
290
     0
174
     0
 93
       13
 44
0.0
173
     0
291
     0
 45
0.0
1001
ACAD
1000
AcDbSavedByObjectVersion
1070
     0
  0
VISUALSTYLE
  5
37
102
{ACAD_REACTORS
330
2A
102
}
330
2A
100
AcDbVisualStyle
  2
Thicken
 70
    13
 71
     2
 72
     2
 73
     0
 90
        0
 40
-0.6
 41
-30.0
 62
     5
 63
     7
421
 16777215
 74
     1
 91
        4
 64
     7
 65
   257
 75
     1
175
     1
 42
1.0
 92
       12
 66
     7
 43
1.0
 76
     1
 77
     6
 78
     2
 67
     7
 79
     5
170
     0
171
     0
290
     0
174
     0
 93
        1
 44
0.0
173
     0
291
     1
 45
0.0
1001
ACAD
1000
AcDbSavedByObjectVersion
1070
     0
  0
ENDSEC
  0
EOF
