  0
SECTION
  2
HEADER
  9
$ACADVER
  1
AC1018
  9
$ACADMAINTVER
 70
     0
  9
$DWGCODEPAGE
  3
ANSI_932
  9
$INSBASE
 10
0.0
 20
0.0
 30
0.0
  9
$EXTMIN
 10
-1050.0
 20
-742.5
 30
0.0
  9
$EXTMAX
 10
1050.0
 20
742.5
 30
0.0
  9
$LIMMIN
 10
-1050.0
 20
-742.5
  9
$LIMMAX
 10
1050.0
 20
742.5
  9
$ORTHOMODE
 70
     0
  9
$REGENMODE
 70
     1
  9
$FILLMODE
 70
     1
  9
$QTEXTMODE
 70
     0
  9
$MIRRTEXT
 70
     1
  9
$LTSCALE
 40
5.0
  9
$ATTMODE
 70
     1
  9
$TEXTSIZE
 40
2.5
  9
$TRACEWID
 40
1.0
  9
$TEXTSTYLE
  7
Standard
  9
$CLAYER
  8
0
  9
$CELTYPE
  6
ByLayer
  9
$CECOLOR
 62
   256
  9
$CELTSCALE
 40
1.0
  9
$DISPSILH
 70
     0
  9
$DIMSCALE
 40
1.0
  9
$DIMASZ
 40
2.5
  9
$DIMEXO
 40
0.625
  9
$DIMDLI
 40
3.75
  9
$DIMRND
 40
0.0
  9
$DIMDLE
 40
0.0
  9
$DIMEXE
 40
1.25
  9
$DIMTP
 40
0.0
  9
$DIMTM
 40
0.0
  9
$DIMTXT
 40
2.5
  9
$DIMCEN
 40
2.5
  9
$DIMTSZ
 40
0.0
  9
$DIMTOL
 70
     0
  9
$DIMLIM
 70
     0
  9
$DIMTIH
 70
     0
  9
$DIMTOH
 70
     0
  9
$DIMSE1
 70
     0
  9
$DIMSE2
 70
     0
  9
$DIMTAD
 70
     1
  9
$DIMZIN
 70
     8
  9
$DIMBLK
  1

  9
$DIMASO
 70
     1
  9
$DIMSHO
 70
     1
  9
$DIMPOST
  1

  9
$DIMAPOST
  1

  9
$DIMALT
 70
     0
  9
$DIMALTD
 70
     3
  9
$DIMALTF
 40
0.03937007874016
  9
$DIMLFAC
 40
1.0
  9
$DIMTOFL
 70
     1
  9
$DIMTVP
 40
0.0
  9
$DIMTIX
 70
     0
  9
$DIMSOXD
 70
     0
  9
$DIMSAH
 70
     0
  9
$DIMBLK1
  1

  9
$DIMBLK2
  1

  9
$DIMSTYLE
  2
ISO-25
  9
$DIMCLRD
 70
     0
  9
$DIMCLRE
 70
     0
  9
$DIMCLRT
 70
     0
  9
$DIMTFAC
 40
1.0
  9
$DIMGAP
 40
0.625
  9
$DIMJUST
 70
     0
  9
$DIMSD1
 70
     0
  9
$DIMSD2
 70
     0
  9
$DIMTOLJ
 70
     0
  9
$DIMTZIN
 70
     8
  9
$DIMALTZ
 70
     0
  9
$DIMALTTZ
 70
     0
  9
$DIMUPT
 70
     0
  9
$DIMDEC
 70
     2
  9
$DIMTDEC
 70
     2
  9
$DIMALTU
 70
     2
  9
$DIMALTTD
 70
     3
  9
$DIMTXSTY
  7
Standard
  9
$DIMAUNIT
 70
     0
  9
$DIMADEC
 70
     0
  9
$DIMALTRND
 40
0.0
  9
$DIMAZIN
 70
     0
  9
$DIMDSEP
 70
    44
  9
$DIMATFIT
 70
     3
  9
$DIMFRAC
 70
     0
  9
$DIMLDRBLK
  1

  9
$DIMLUNIT
 70
     2
  9
$DIMLWD
 70
    -2
  9
$DIMLWE
 70
    -2
  9
$DIMTMOVE
 70
     0
  9
$LUNITS
 70
     2
  9
$LUPREC
 70
     4
  9
$SKETCHINC
 40
1.0
  9
$FILLETRAD
 40
10.0
  9
$AUNITS
 70
     0
  9
$AUPREC
 70
     0
  9
$MENU
  1
.
  9
$ELEVATION
 40
0.0
  9
$PELEVATION
 40
0.0
  9
$THICKNESS
 40
0.0
  9
$LIMCHECK
 70
     0
  9
$CHAMFERA
 40
10.0
  9
$CHAMFERB
 40
10.0
  9
$CHAMFERC
 40
20.0
  9
$CHAMFERD
 40
0.0
  9
$SKPOLY
 70
     0
  9
$TDCREATE
 40
2457904.375136042
  9
$TDUCREATE
 40
2457904.000136042
  9
$TDUPDATE
 40
2457904.375136053
  9
$TDUUPDATE
 40
2457904.000136053
  9
$TDINDWG
 40
0.0000000116
  9
$TDUSRTIMER
 40
0.0000000116
  9
$USRTIMER
 70
     1
  9
$ANGBASE
 50
0.0
  9
$ANGDIR
 70
     0
  9
$PDMODE
 70
     0
  9
$PDSIZE
 40
0.0
  9
$PLINEWID
 40
0.0
  9
$SPLFRAME
 70
     0
  9
$SPLINETYPE
 70
     6
  9
$SPLINESEGS
 70
     8
  9
$HANDSEED
  5
21A
  9
$SURFTAB1
 70
     6
  9
$SURFTAB2
 70
     6
  9
$SURFTYPE
 70
     6
  9
$SURFU
 70
     6
  9
$SURFV
 70
     6
  9
$UCSBASE
  2

  9
$UCSNAME
  2

  9
$UCSORG
 10
0.0
 20
0.0
 30
0.0
  9
$UCSXDIR
 10
1.0
 20
0.0
 30
0.0
  9
$UCSYDIR
 10
0.0
 20
1.0
 30
0.0
  9
$UCSORTHOREF
  2

  9
$UCSORTHOVIEW
 70
     0
  9
$UCSORGTOP
 10
0.0
 20
0.0
 30
0.0
  9
$UCSORGBOTTOM
 10
0.0
 20
0.0
 30
0.0
  9
$UCSORGLEFT
 10
0.0
 20
0.0
 30
0.0
  9
$UCSORGRIGHT
 10
0.0
 20
0.0
 30
0.0
  9
$UCSORGFRONT
 10
0.0
 20
0.0
 30
0.0
  9
$UCSORGBACK
 10
0.0
 20
0.0
 30
0.0
  9
$PUCSBASE
  2

  9
$PUCSNAME
  2

  9
$PUCSORG
 10
0.0
 20
0.0
 30
0.0
  9
$PUCSXDIR
 10
1.0
 20
0.0
 30
0.0
  9
$PUCSYDIR
 10
0.0
 20
1.0
 30
0.0
  9
$PUCSORTHOREF
  2

  9
$PUCSORTHOVIEW
 70
     0
  9
$PUCSORGTOP
 10
0.0
 20
0.0
 30
0.0
  9
$PUCSORGBOTTOM
 10
0.0
 20
0.0
 30
0.0
  9
$PUCSORGLEFT
 10
0.0
 20
0.0
 30
0.0
  9
$PUCSORGRIGHT
 10
0.0
 20
0.0
 30
0.0
  9
$PUCSORGFRONT
 10
0.0
 20
0.0
 30
0.0
  9
$PUCSORGBACK
 10
0.0
 20
0.0
 30
0.0
  9
$USERI1
 70
     0
  9
$USERI2
 70
     0
  9
$USERI3
 70
     0
  9
$USERI4
 70
     0
  9
$USERI5
 70
     0
  9
$USERR1
 40
0.0
  9
$USERR2
 40
0.0
  9
$USERR3
 40
0.0
  9
$USERR4
 40
0.0
  9
$USERR5
 40
0.0
  9
$WORLDVIEW
 70
     1
  9
$SHADEDGE
 70
     3
  9
$SHADEDIF
 70
    70
  9
$TILEMODE
 70
     1
  9
$MAXACTVP
 70
    64
  9
$PINSBASE
 10
0.0
 20
0.0
 30
0.0
  9
$PLIMCHECK
 70
     0
  9
$PEXTMIN
 10
1.000000000000000E+20
 20
1.000000000000000E+20
 30
1.000000000000000E+20
  9
$PEXTMAX
 10
-1.000000000000000E+20
 20
-1.000000000000000E+20
 30
-1.000000000000000E+20
  9
$PLIMMIN
 10
0.0
 20
0.0
  9
$PLIMMAX
 10
420.0
 20
297.0
  9
$UNITMODE
 70
     0
  9
$VISRETAIN
 70
     1
  9
$PLINEGEN
 70
     0
  9
$PSLTSCALE
 70
     1
  9
$TREEDEPTH
 70
  3020
  9
$CMLSTYLE
  2
Standard
  9
$CMLJUST
 70
     0
  9
$CMLSCALE
 40
20.0
  9
$PROXYGRAPHICS
 70
     1
  9
$MEASUREMENT
 70
     1
  9
$CELWEIGHT
370
    -1
  9
$ENDCAPS
280
     0
  9
$JOINSTYLE
280
     0
  9
$LWDISPLAY
290
     0
  9
$INSUNITS
 70
     4
  9
$HYPERLINKBASE
  1

  9
$STYLESHEET
  1

  9
$XEDIT
290
     1
  9
$CEPSNTYPE
380
     0
  9
$PSTYLEMODE
290
     1
  9
$FINGERPRINTGUID
  2
{A7FC79EE-F1C4-440E-9FD0-CFA56821D2F0}
  9
$VERSIONGUID
  2
{FAEB1C32-E019-11D5-929B-00C0DF256EC4}
  9
$EXTNAMES
290
     1
  9
$PSVPSCALE
 40
0.0
  9
$OLESTARTUP
290
     0
  9
$SORTENTS
280
   127
  9
$INDEXCTL
280
     0
  9
$HIDETEXT
280
     1
  9
$XCLIPFRAME
290
     0
  9
$HALOGAP
280
     0
  9
$OBSCOLOR
 70
   257
  9
$OBSLTYPE
280
     0
  9
$INTERSECTIONDISPLAY
280
     0
  9
$INTERSECTIONCOLOR
 70
   257
  9
$DIMASSOC
280
     2
  9
$PROJECTNAME
  1

  0
ENDSEC
  0
SECTION
  2
CLASSES
  0
CLASS
  1
ACDBDICTIONARYWDFLT
  2
AcDbDictionaryWithDefault
  3
ObjectDBX Classes
 90
        0
 91
        4
280
     0
281
     0
  0
CLASS
  1
VISUALSTYLE
  2
AcDbVisualStyle
  3
ObjectDBX Classes
 90
     4095
 91
        4
280
     0
281
     0
  0
ENDSEC
  0
SECTION
  2
TABLES
  0
TABLE
  2
VPORT
  5
8
330
0
100
AcDbSymbolTable
 70
     1
  0
VPORT
  5
29
330
8
100
AcDbSymbolTableRecord
100
AcDbViewportTableRecord
  2
*Active
 70
     0
 10
0.0
 20
0.0
 11
1.0
 21
1.0
 12
0.0
 22
0.0
 13
0.0
 23
0.0
 14
10.0
 24
10.0
 15
10.0
 25
10.0
 16
0.0
 26
0.0
 36
1.0
 17
0.0
 27
0.0
 37
0.0
 40
1633.5
 41
1.414141414141414
 42
50.0
 43
0.0
 44
0.0
 50
0.0
 51
0.0
 71
     0
 72
 10000
 73
     1
 74
     3
 75
     0
 76
     0
 77
     0
 78
     0
281
     0
 65
     1
110
0.0
120
0.0
130
0.0
111
1.0
121
0.0
131
0.0
112
0.0
122
1.0
132
0.0
 79
     0
146
0.0
  0
ENDTAB
  0
TABLE
  2
LTYPE
  5
5
330
0
100
AcDbSymbolTable
 70
     5
  0
LTYPE
  5
14
330
5
100
AcDbSymbolTableRecord
100
AcDbLinetypeTableRecord
  2
ByBlock
 70
     0
  3

 72
    65
 73
     0
 40
0.0
  0
LTYPE
  5
15
330
5
100
AcDbSymbolTableRecord
100
AcDbLinetypeTableRecord
  2
ByLayer
 70
     0
  3

 72
    65
 73
     0
 40
0.0
  0
LTYPE
  5
16
330
5
100
AcDbSymbolTableRecord
100
AcDbLinetypeTableRecord
  2
Continuous
 70
     0
  3
Solid line
 72
    65
 73
     0
 40
0.0
  0
LTYPE
  5
3C
330
5
100
AcDbSymbolTableRecord
100
AcDbLinetypeTableRecord
  2
JWW_CENTER2
 70
     0
  3
-------------  --  -------------
 72
    65
 73
     4
 40
13.54666666666667
 49
11.00666666666667
 74
     0
 49
-0.8466666666666667
 74
     0
 49
0.8466666666666667
 74
     0
 49
-0.8466666666666667
 74
     0
  0
LTYPE
  5
3D
330
5
100
AcDbSymbolTableRecord
100
AcDbLinetypeTableRecord
  2
JWW_DASHED3
 70
     0
  3
---  ------  ------  ------  ---
 72
    65
 73
     2
 40
3.386666666666667
 49
2.54
 74
     0
 49
-0.8466666666666667
 74
     0
  0
LTYPE
  5
3E
330
5
100
AcDbSymbolTableRecord
100
AcDbLinetypeTableRecord
  2
JWW_CENTER1
 70
     0
  3
-----  --  ----------  --  -----
 72
    65
 73
     4
 40
6.773333333333333
 49
4.233333333333333
 74
     0
 49
-0.8466666666666667
 74
     0
 49
0.8466666666666667
 74
     0
 49
-0.8466666666666667
 74
     0
  0
LTYPE
  5
3F
330
5
100
AcDbSymbolTableRecord
100
AcDbLinetypeTableRecord
  2
JWW_PHANTOM1
 70
     0
  3
----  -  -  --------  -  -  ----
 72
    65
 73
     6
 40
6.773333333333333
 49
3.386666666666667
 74
     0
 49
-0.8466666666666667
 74
     0
 49
0.4233333333333333
 74
     0
 49
-0.8466666666666667
 74
     0
 49
0.4233333333333333
 74
     0
 49
-0.8466666666666667
 74
     0
  0
ENDTAB
  0
TABLE
  2
LAYER
  5
2
330
0
100
AcDbSymbolTable
 70
    11
  0
LAYER
  5
10
330
2
100
AcDbSymbolTableRecord
100
AcDbLayerTableRecord
  2
0
 70
     0
 62
     7
  6
Continuous
370
    -3
390
F
  0
LAYER
  5
40
330
2
100
AcDbSymbolTableRecord
100
AcDbLayerTableRecord
  2
D-4
 70
     0
 62
     7
  6
Continuous
370
    -3
390
F
  0
LAYER
  5
41
330
2
100
AcDbSymbolTableRecord
100
AcDbLayerTableRecord
  2
D-6
 70
     0
 62
     7
  6
Continuous
370
    -3
390
F
  0
LAYER
  5
42
330
2
100
AcDbSymbolTableRecord
100
AcDbLayerTableRecord
  2
0-2
 70
     0
 62
     7
  6
Continuous
370
    -3
390
F
  0
LAYER
  5
43
330
2
100
AcDbSymbolTableRecord
100
AcDbLayerTableRecord
  2
0-1
 70
     0
 62
     7
  6
Continuous
370
    -3
390
F
  0
LAYER
  5
44
330
2
100
AcDbSymbolTableRecord
100
AcDbLayerTableRecord
  2
D-2
 70
     0
 62
     7
  6
Continuous
370
    -3
390
F
  0
LAYER
  5
45
330
2
100
AcDbSymbolTableRecord
100
AcDbLayerTableRecord
  2
D-1
 70
     0
 62
     7
  6
Continuous
370
    -3
390
F
  0
LAYER
  5
46
330
2
100
AcDbSymbolTableRecord
100
AcDbLayerTableRecord
  2
D-0
 70
     0
 62
     7
  6
Continuous
370
    -3
390
F
  0
LAYER
  5
47
330
2
100
AcDbSymbolTableRecord
100
AcDbLayerTableRecord
  2
0-4
 70
     0
 62
     7
  6
Continuous
370
    -3
390
F
  0
LAYER
  5
48
330
2
100
AcDbSymbolTableRecord
100
AcDbLayerTableRecord
  2
D-5
 70
     0
 62
     7
  6
Continuous
370
    -3
390
F
  0
LAYER
  5
49
330
2
100
AcDbSymbolTableRecord
100
AcDbLayerTableRecord
  2
F-0
 70
     0
 62
     7
  6
Continuous
370
    -3
390
F
  0
ENDTAB
  0
TABLE
  2
STYLE
  5
3
330
0
100
AcDbSymbolTable
 70
     2
  0
STYLE
  5
11
330
3
100
AcDbSymbolTableRecord
100
AcDbTextStyleTableRecord
  2
Standard
 70
     0
 40
0.0
 41
1.0
 50
0.0
 71
     0
 42
2.5
  3
txt
  4

1001
ACAD
1000

1071
        0
  0
STYLE
  5
3B
330
3
100
AcDbSymbolTableRecord
100
AcDbTextStyleTableRecord
  2
ＭＳ ゴシック
 70
     0
 40
1.0
 41
1.0
 50
0.0
 71
     0
 42
10.0
  3

  4

1001
ACAD
1000
MS Gothic
1071
    32817
  0
ENDTAB
  0
TABLE
  2
VIEW
  5
6
330
0
100
AcDbSymbolTable
 70
     0
  0
ENDTAB
  0
TABLE
  2
UCS
  5
7
330
0
100
AcDbSymbolTable
 70
     0
  0
ENDTAB
  0
TABLE
  2
APPID
  5
9
330
0
100
AcDbSymbolTable
 70
     1
  0
APPID
  5
12
330
9
100
AcDbSymbolTableRecord
100
AcDbRegAppTableRecord
  2
ACAD
 70
     0
  0
ENDTAB
  0
TABLE
  2
DIMSTYLE
  5
A
330
0
100
AcDbSymbolTable
 70
     1
100
AcDbDimStyleTable
  0
DIMSTYLE
105
27
330
A
100
AcDbSymbolTableRecord
100
AcDbDimStyleTableRecord
  2
ISO-25
 70
     0
 41
2.5
 42
0.625
 43
3.75
 44
1.25
 73
     0
 74
     0
 77
     1
 78
     8
140
2.5
141
2.5
143
0.03937007874016
147
0.625
171
     3
172
     1
271
     2
272
     2
274
     3
278
    44
283
     0
284
     8
340
11
  0
ENDTAB
  0
TABLE
  2
BLOCK_RECORD
  5
1
330
0
100
AcDbSymbolTable
 70
     1
  0
BLOCK_RECORD
  5
1F
330
1
100
AcDbSymbolTableRecord
100
AcDbBlockTableRecord
  2
*Model_Space
340
22
  0
BLOCK_RECORD
  5
1B
330
1
100
AcDbSymbolTableRecord
100
AcDbBlockTableRecord
  2
*Paper_Space
340
1E
  0
BLOCK_RECORD
  5
23
330
1
100
AcDbSymbolTableRecord
100
AcDbBlockTableRecord
  2
*Paper_Space0
340
26
  0
ENDTAB
  0
ENDSEC
  0
SECTION
  2
BLOCKS
  0
BLOCK
  5
20
330
1F
100
AcDbEntity
  8
0
100
AcDbBlockBegin
  2
*Model_Space
 70
     0
 10
0.0
 20
0.0
 30
0.0
  3
*Model_Space
  1

  0
ENDBLK
  5
21
330
1F
100
AcDbEntity
  8
0
100
AcDbBlockEnd
  0
BLOCK
  5
1C
330
1B
100
AcDbEntity
 67
     1
  8
0
100
AcDbBlockBegin
  2
*Paper_Space
 70
     0
 10
0.0
 20
0.0
 30
0.0
  3
*Paper_Space
  1

  0
ENDBLK
  5
1D
330
1B
100
AcDbEntity
 67
     1
  8
0
100
AcDbBlockEnd
  0
BLOCK
  5
24
330
23
100
AcDbEntity
  8
0
100
AcDbBlockBegin
  2
*Paper_Space0
 70
     0
 10
0.0
 20
0.0
 30
0.0
  3
*Paper_Space0
  1

  0
ENDBLK
  5
25
330
23
100
AcDbEntity
  8
0
100
AcDbBlockEnd
  0
ENDSEC
  0
SECTION
  2
ENTITIES
  0
LINE
  5
4A
330
1F
100
AcDbEntity
  8
D-4
  6
Continuous
 62
     7
370
     9
100
AcDbLine
 10
430.1122716955237
 20
244.2382977459883
 30
0.0
 11
435.6779356260557
 21
247.4515512827281
 31
0.0
  0
LINE
  5
4B
330
1F
100
AcDbEntity
  8
D-4
  6
Continuous
 62
     7
370
     9
100
AcDbLine
 10
429.5321490313557
 20
246.4032724741344
 30
0.0
 11
436.4703616580448
 21
250.4090757627745
 31
0.0
  0
LINE
  5
4C
330
1F
100
AcDbEntity
  8
D-4
  6
Continuous
 62
     7
370
     9
100
AcDbLine
 10
428.9520263671875
 20
248.5683709221918
 30
0.0
 11
437.262911409945
 21
253.366600242821
 31
0.0
  0
LINE
  5
4D
330
1F
100
AcDbEntity
  8
D-4
  6
Continuous
 62
     7
370
     9
100
AcDbLine
 10
428.3719037030195
 20
250.7334693702492
 30
0.0
 11
438.0552137220229
 21
256.3241247228675
 31
0.0
  0
LINE
  5
4E
330
1F
100
AcDbEntity
  8
D-4
  6
Continuous
 62
     7
370
     9
100
AcDbLine
 10
427.7917810388513
 20
252.8984440983953
 30
0.0
 11
438.8477634739232
 21
259.281649202914
 31
0.0
  0
LINE
  5
4F
330
1F
100
AcDbEntity
  8
D-4
  6
Continuous
 62
     7
370
     9
100
AcDbLine
 10
427.2115346547722
 20
255.0635425464527
 30
0.0
 11
438.8394742398648
 21
261.7769560942779
 31
0.0
  0
LINE
  5
50
330
1F
100
AcDbEntity
  8
D-4
  6
Continuous
 62
     7
370
     9
100
AcDbLine
 10
426.6315357105154
 20
257.2286409945102
 30
0.0
 11
438.8394742398648
 21
264.276964342272
 31
0.0
  0
LINE
  5
51
330
1F
100
AcDbEntity
  8
D-4
  6
Continuous
 62
     7
370
     9
100
AcDbLine
 10
426.0895187790331
 20
271.9156791068413
 30
0.0
 11
438.8394742398648
 21
279.2770138302366
 31
0.0
  0
LINE
  5
52
330
1F
100
AcDbEntity
  8
D-4
  6
Continuous
 62
     7
370
     9
100
AcDbLine
 10
426.0895187790331
 20
269.4157945787584
 30
0.0
 11
438.8394742398648
 21
276.7768818623312
 31
0.0
  0
LINE
  5
53
330
1F
100
AcDbEntity
  8
D-4
  6
Continuous
 62
     7
370
     9
100
AcDbLine
 10
426.0895187790331
 20
266.9157863307645
 30
0.0
 11
438.8394742398648
 21
274.2769973342483
 31
0.0
  0
LINE
  5
54
330
1F
100
AcDbEntity
  8
D-4
  6
Continuous
 62
     7
370
     9
100
AcDbLine
 10
426.0895187790331
 20
264.4157780827703
 30
0.0
 11
438.8394742398648
 21
271.7769890862543
 31
0.0
  0
LINE
  5
55
330
1F
100
AcDbEntity
  8
D-4
  6
Continuous
 62
     7
370
     9
100
AcDbLine
 10
426.0895187790331
 20
261.9157698347761
 30
0.0
 11
438.8394742398648
 21
269.2769808382602
 31
0.0
  0
LINE
  5
56
330
1F
100
AcDbEntity
  8
D-4
  6
Continuous
 62
     7
370
     9
100
AcDbLine
 10
426.0895187790331
 20
259.4157615867822
 30
0.0
 11
438.8394742398648
 21
266.7769725902662
 31
0.0
  0
LINE
  5
57
330
1F
100
AcDbEntity
  8
D-4
  6
Continuous
 62
     7
370
     9
100
AcDbLine
 10
432.4645583694047
 20
240.2889107369089
 30
0.0
 11
427.3395847629857
 21
259.4157615867822
 31
0.0
  0
LINE
  5
58
330
1F
100
AcDbEntity
  8
D-4
  6
Continuous
 62
     7
370
     9
100
AcDbLine
 10
432.4645583694047
 20
240.2889107369089
 30
0.0
 11
437.5895319758234
 21
259.4157615867822
 31
0.0
  0
LINE
  5
59
330
1F
100
AcDbEntity
  8
D-4
  6
JWW_CENTER2
 62
     7
370
     9
100
AcDbLine
 10
432.4645583694047
 20
235.9678691142315
 30
0.0
 11
432.4645583694047
 21
311.8569203969595
 31
0.0
  0
LINE
  5
5A
330
1F
100
AcDbEntity
  8
D-6
  6
Continuous
 62
     6
370
     5
100
AcDbLine
 10
487.4644923854518
 20
355.2890427048142
 30
0.0
 11
599.9644923854519
 21
242.7890427048142
 31
0.0
  0
LINE
  5
5B
330
1F
100
AcDbEntity
  8
D-6
  6
Continuous
 62
     6
370
     5
100
AcDbLine
 10
599.9644923854519
 20
242.7890427048142
 30
0.0
 11
599.9644923854519
 21
355.2890427048142
 31
0.0
  0
LINE
  5
5C
330
1F
100
AcDbEntity
  8
D-6
  6
Continuous
 62
     6
370
     5
100
AcDbLine
 10
487.4644923854518
 20
242.7890427048142
 30
0.0
 11
599.9644923854519
 21
242.7890427048142
 31
0.0
  0
LINE
  5
5D
330
1F
100
AcDbEntity
  8
D-6
  6
Continuous
 62
     6
370
     5
100
AcDbLine
 10
399.9645748653927
 20
286.5390014648438
 30
0.0
 11
399.9645748653927
 21
161.5389602248733
 31
0.0
  0
LINE
  5
5E
330
1F
100
AcDbEntity
  8
0-2
  6
Continuous
 62
     3
370
     9
100
AcDbLine
 10
-269.7973096692884
 20
241.689172693201
 30
0.0
 11
-269.7973096692884
 21
-48.31079431482266
 31
0.0
  0
LINE
  5
5F
330
1F
100
AcDbEntity
  8
0-2
  6
Continuous
 62
     3
370
     9
100
AcDbLine
 10
-269.7973096692884
 20
-48.31079431482266
 30
0.0
 11
-559.7972457473343
 21
-48.31079431482266
 31
0.0
  0
LINE
  5
60
330
1F
100
AcDbEntity
  8
0-2
  6
Continuous
 62
     3
370
     9
100
AcDbLine
 10
-559.7972457473343
 20
-48.31079431482266
 30
0.0
 11
-559.7972457473343
 21
241.689172693201
 31
0.0
  0
LINE
  5
61
330
1F
100
AcDbEntity
  8
0-2
  6
Continuous
 62
     3
370
     9
100
AcDbLine
 10
-559.7972457473343
 20
241.689172693201
 30
0.0
 11
-269.7973096692884
 21
241.689172693201
 31
0.0
  0
LINE
  5
62
330
1F
100
AcDbEntity
  8
0-1
  6
JWW_DASHED3
 62
     2
370
     9
100
AcDbLine
 10
-289.7973137932854
 20
221.689168569204
 30
0.0
 11
-289.7973137932854
 21
-28.31079019082551
 31
0.0
  0
LINE
  5
63
330
1F
100
AcDbEntity
  8
0-1
  6
JWW_DASHED3
 62
     2
370
     9
100
AcDbLine
 10
-289.7973137932854
 20
-28.31079019082551
 30
0.0
 11
-539.797272553315
 21
-28.31079019082551
 31
0.0
  0
LINE
  5
64
330
1F
100
AcDbEntity
  8
0-1
  6
JWW_DASHED3
 62
     2
370
     9
100
AcDbLine
 10
-539.797272553315
 20
-28.31079019082551
 30
0.0
 11
-539.797272553315
 21
221.689168569204
 31
0.0
  0
LINE
  5
65
330
1F
100
AcDbEntity
  8
0-1
  6
JWW_DASHED3
 62
     2
370
     9
100
AcDbLine
 10
-539.797272553315
 20
221.689168569204
 30
0.0
 11
-289.7973137932854
 21
221.689168569204
 31
0.0
  0
LINE
  5
66
330
1F
100
AcDbEntity
  8
0-1
  6
Continuous
 62
     2
370
     9
100
AcDbLine
 10
-251.7972997716954
 20
259.689182590794
 30
0.0
 11
-251.7972997716954
 21
-66.31080421241549
 31
0.0
  0
LINE
  5
67
330
1F
100
AcDbEntity
  8
0-1
  6
Continuous
 62
     2
370
     9
100
AcDbLine
 10
-251.7972997716954
 20
-66.31080421241549
 30
0.0
 11
-577.7972556449272
 21
-66.31080421241549
 31
0.0
  0
LINE
  5
68
330
1F
100
AcDbEntity
  8
0-1
  6
Continuous
 62
     2
370
     9
100
AcDbLine
 10
-577.7972556449272
 20
-66.31080421241549
 30
0.0
 11
-577.7972556449272
 21
259.689182590794
 31
0.0
  0
LINE
  5
69
330
1F
100
AcDbEntity
  8
0-1
  6
Continuous
 62
     2
370
     9
100
AcDbLine
 10
-577.7972556449272
 20
259.689182590794
 30
0.0
 11
-251.7972997716954
 21
259.689182590794
 31
0.0
  0
LINE
  5
6A
330
1F
100
AcDbEntity
  8
0-1
  6
Continuous
 62
     2
370
     9
100
AcDbLine
 10
-565.7972593565245
 20
-54.31077699403502
 30
0.0
 11
-565.7972593565245
 21
247.6892172323691
 31
0.0
  0
LINE
  5
6B
330
1F
100
AcDbEntity
  8
0-1
  6
Continuous
 62
     2
370
     9
100
AcDbLine
 10
-565.7972593565245
 20
247.6892172323691
 30
0.0
 11
-263.7972651301203
 21
247.6892172323691
 31
0.0
  0
LINE
  5
6C
330
1F
100
AcDbEntity
  8
0-1
  6
Continuous
 62
     2
370
     9
100
AcDbLine
 10
-263.7972651301203
 20
247.6892172323691
 30
0.0
 11
-263.7972651301203
 21
-54.31077699403502
 31
0.0
  0
LINE
  5
6D
330
1F
100
AcDbEntity
  8
0-1
  6
Continuous
 62
     2
370
     9
100
AcDbLine
 10
-263.7972651301203
 20
-54.31077699403502
 30
0.0
 11
-565.7972593565245
 21
-54.31077699403502
 31
0.0
  0
LINE
  5
6E
330
1F
100
AcDbEntity
  8
0-2
  6
Continuous
 62
     3
370
     9
100
AcDbLine
 10
-264.7972931733003
 20
-53.31081081081081
 30
0.0
 11
-564.7972622433224
 21
-53.31081081081081
 31
0.0
  0
LINE
  5
6F
330
1F
100
AcDbEntity
  8
0-2
  6
Continuous
 62
     3
370
     9
100
AcDbLine
 10
-264.7972931733003
 20
246.6891891891892
 30
0.0
 11
-264.7972931733003
 21
-53.31081081081081
 31
0.0
  0
LINE
  5
70
330
1F
100
AcDbEntity
  8
0-2
  6
Continuous
 62
     3
370
     9
100
AcDbLine
 10
-564.7972622433224
 20
246.6891891891892
 30
0.0
 11
-264.7972931733003
 21
246.6891891891892
 31
0.0
  0
LINE
  5
71
330
1F
100
AcDbEntity
  8
0-2
  6
Continuous
 62
     3
370
     9
100
AcDbLine
 10
-564.7972622433224
 20
-53.31081081081081
 30
0.0
 11
-564.7972622433224
 21
246.6891891891892
 31
0.0
  0
LINE
  5
72
330
1F
100
AcDbEntity
  8
D-6
  6
Continuous
 62
     6
370
     5
100
AcDbLine
 10
413.0201185071792
 20
286.5390014648438
 30
0.0
 11
427.3395847629857
 21
272.2194114891259
 31
0.0
  0
LINE
  5
73
330
1F
100
AcDbEntity
  8
D-6
  6
Continuous
 62
     6
370
     5
100
AcDbLine
 10
399.9645748653927
 20
274.5944626266892
 30
0.0
 11
431.8037703230576
 21
242.7552671690245
 31
0.0
  0
LINE
  5
74
330
1F
100
AcDbEntity
  8
D-6
  6
Continuous
 62
     6
370
     5
100
AcDbLine
 10
399.9645748653927
 20
174.5943801467483
 30
0.0
 11
413.0201185071792
 21
161.5389602248733
 31
0.0
  0
LINE
  5
75
330
1F
100
AcDbEntity
  8
0-2
  6
Continuous
 62
     3
370
     9
100
AcDbLine
 10
-420.7972758525126
 20
64.3103274783573
 30
0.0
 11
-408.7973104940878
 21
64.3103274783573
 31
0.0
  0
LINE
  5
76
330
1F
100
AcDbEntity
  8
0-2
  6
Continuous
 62
     3
370
     9
100
AcDbLine
 10
-408.7973104940878
 20
64.3103274783573
 30
0.0
 11
-408.7973104940878
 21
128.3102045832455
 31
0.0
  0
LINE
  5
77
330
1F
100
AcDbEntity
  8
0-2
  6
Continuous
 62
     3
370
     9
100
AcDbLine
 10
-408.7973104940878
 20
128.3102045832455
 30
0.0
 11
-420.7972758525126
 21
128.3102045832455
 31
0.0
  0
LINE
  5
78
330
1F
100
AcDbEntity
  8
0-2
  6
Continuous
 62
     3
370
     9
100
AcDbLine
 10
-420.7972758525126
 20
128.3102045832455
 30
0.0
 11
-420.7972758525126
 21
64.3103274783573
 31
0.0
  0
LINE
  5
79
330
1F
100
AcDbEntity
  8
0-2
  6
Continuous
 62
     3
370
     9
100
AcDbLine
 10
-397.2972972972973
 20
50.31024417361706
 30
0.0
 11
-397.2972972972973
 21
142.3102878879857
 31
0.0
  0
LINE
  5
7A
330
1F
100
AcDbEntity
  8
0-2
  6
Continuous
 62
     3
370
     9
100
AcDbLine
 10
-397.2972972972973
 20
142.3102878879857
 30
0.0
 11
-432.2972890493032
 21
142.3102878879857
 31
0.0
  0
LINE
  5
7B
330
1F
100
AcDbEntity
  8
0-2
  6
Continuous
 62
     3
370
     9
100
AcDbLine
 10
-432.2972890493032
 20
142.3102878879857
 30
0.0
 11
-432.2972890493032
 21
50.31024417361706
 31
0.0
  0
LINE
  5
7C
330
1F
100
AcDbEntity
  8
0-2
  6
Continuous
 62
     3
370
     9
100
AcDbLine
 10
-432.2972890493032
 20
50.31024417361706
 30
0.0
 11
-397.2972972972973
 21
50.31024417361706
 31
0.0
  0
LINE
  5
7D
330
1F
100
AcDbEntity
  8
0-2
  6
JWW_CENTER1
 62
     3
370
     9
100
AcDbLine
 10
-414.7972931733002
 20
48.08279089025547
 30
0.0
 11
-414.7972931733002
 21
144.4427861394109
 31
0.0
  0
LINE
  5
7E
330
1F
100
AcDbEntity
  8
0-2
  6
JWW_CENTER1
 62
     3
370
     9
100
AcDbLine
 10
-394.2538493388407
 20
96.6891891891892
 30
0.0
 11
-435.3253338788006
 21
96.6891891891892
 31
0.0
  0
LINE
  5
7F
330
1F
100
AcDbEntity
  8
D-4
  6
Continuous
 62
     7
370
     9
100
AcDbLine
 10
246.0295393660263
 20
66.62599305848829
 30
0.0
 11
507.459238413218
 21
66.62599305848829
 31
0.0
  0
LINE
  5
80
330
1F
100
AcDbEntity
  8
D-2
  6
Continuous
 62
     3
370
     9
100
AcDbLine
 10
387.4645336254224
 20
341.0389833192568
 30
0.0
 11
417.4646326013513
 21
341.0389833192568
 31
0.0
  0
LINE
  5
81
330
1F
100
AcDbEntity
  8
D-2
  6
Continuous
 62
     3
370
     9
100
AcDbLine
 10
454.9646326013513
 20
380.2890014648438
 30
0.0
 11
155.7625023094384
 21
380.2890014648438
 31
0.0
  0
LINE
  5
82
330
1F
100
AcDbEntity
  8
D-2
  6
Continuous
 62
     3
370
     9
100
AcDbLine
 10
449.9646161053633
 20
374.0390427048142
 30
0.0
 11
155.7625023094384
 21
374.0390427048142
 31
0.0
  0
LINE
  5
83
330
1F
100
AcDbEntity
  8
D-2
  6
Continuous
 62
     3
370
     9
100
AcDbLine
 10
449.9646161053633
 20
367.7889602248733
 30
0.0
 11
155.7625023094384
 21
367.7889602248733
 31
0.0
  0
LINE
  5
84
330
1F
100
AcDbEntity
  8
D-2
  6
Continuous
 62
     3
370
     9
100
AcDbLine
 10
449.9646161053633
 20
361.5390014648438
 30
0.0
 11
155.7625023094384
 21
361.5390014648438
 31
0.0
  0
LINE
  5
85
330
1F
100
AcDbEntity
  8
D-2
  6
Continuous
 62
     3
370
     9
100
AcDbLine
 10
462.4645336254224
 20
376.538927232897
 30
0.0
 11
462.4645336254224
 21
386.5389602248733
 31
0.0
  0
LINE
  5
86
330
1F
100
AcDbEntity
  8
D-2
  6
Continuous
 62
     3
370
     9
100
AcDbLine
 10
459.9646490973396
 20
375.2889849688556
 30
0.0
 11
462.4645336254224
 21
376.538927232897
 31
0.0
  0
LINE
  5
87
330
1F
100
AcDbEntity
  8
D-2
  6
Continuous
 62
     3
370
     9
100
AcDbLine
 10
459.9646490973396
 20
335.2889767208616
 30
0.0
 11
459.9646490973396
 21
375.2889849688556
 31
0.0
  0
LINE
  5
88
330
1F
100
AcDbEntity
  8
D-2
  6
Continuous
 62
     3
370
     9
100
AcDbLine
 10
462.4645336254224
 20
334.0389107369089
 30
0.0
 11
459.9646490973396
 21
335.2889767208616
 31
0.0
  0
LINE
  5
89
330
1F
100
AcDbEntity
  8
D-2
  6
Continuous
 62
     3
370
     9
100
AcDbLine
 10
462.4645336254224
 20
324.0390014648438
 30
0.0
 11
462.4645336254224
 21
334.0389107369089
 31
0.0
  0
LINE
  5
8A
330
1F
100
AcDbEntity
  8
D-2
  6
Continuous
 62
     3
370
     9
100
AcDbLine
 10
449.9646161053633
 20
330.2889602248733
 30
0.0
 11
449.9646161053633
 21
324.0390014648438
 31
0.0
  0
LINE
  5
8B
330
1F
100
AcDbEntity
  8
D-2
  6
Continuous
 62
     3
370
     9
100
AcDbLine
 10
454.9646326013513
 20
330.2889602248733
 30
0.0
 11
449.9646161053633
 21
330.2889602248733
 31
0.0
  0
LINE
  5
8C
330
1F
100
AcDbEntity
  8
D-2
  6
Continuous
 62
     3
370
     9
100
AcDbLine
 10
454.9646326013513
 20
342.2889255832982
 30
0.0
 11
454.9646326013513
 21
330.2889602248733
 31
0.0
  0
LINE
  5
8D
330
1F
100
AcDbEntity
  8
D-2
  6
Continuous
 62
     3
370
     9
100
AcDbLine
 10
422.4646490973396
 20
342.2889255832982
 30
0.0
 11
454.9646326013513
 21
342.2889255832982
 31
0.0
  0
LINE
  5
8E
330
1F
100
AcDbEntity
  8
D-2
  6
Continuous
 62
     3
370
     9
100
AcDbLine
 10
422.4646490973396
 20
330.2889602248733
 30
0.0
 11
422.4646490973396
 21
342.2889255832982
 31
0.0
  0
LINE
  5
8F
330
1F
100
AcDbEntity
  8
D-2
  6
Continuous
 62
     3
370
     9
100
AcDbLine
 10
427.4646655933279
 20
330.2889602248733
 30
0.0
 11
422.4646490973396
 21
330.2889602248733
 31
0.0
  0
LINE
  5
90
330
1F
100
AcDbEntity
  8
D-2
  6
Continuous
 62
     3
370
     9
100
AcDbLine
 10
427.4646655933279
 20
324.0390014648438
 30
0.0
 11
427.4646655933279
 21
330.2889602248733
 31
0.0
  0
LINE
  5
91
330
1F
100
AcDbEntity
  8
D-2
  6
Continuous
 62
     3
370
     9
100
AcDbLine
 10
417.4646326013513
 20
336.0389668232687
 30
0.0
 11
417.4646326013513
 21
324.0390014648438
 31
0.0
  0
LINE
  5
92
330
1F
100
AcDbEntity
  8
D-2
  6
Continuous
 62
     3
370
     9
100
AcDbLine
 10
387.4645336254224
 20
336.0389668232687
 30
0.0
 11
417.4646326013513
 21
336.0389668232687
 31
0.0
  0
LINE
  5
93
330
1F
100
AcDbEntity
  8
D-2
  6
Continuous
 62
     3
370
     9
100
AcDbLine
 10
387.4645336254224
 20
341.0389833192568
 30
0.0
 11
387.4645336254224
 21
336.0389668232687
 31
0.0
  0
LINE
  5
94
330
1F
100
AcDbEntity
  8
D-2
  6
Continuous
 62
     3
370
     9
100
AcDbLine
 10
454.9646326013513
 20
347.2889420792864
 30
0.0
 11
155.7625023094384
 21
347.2889420792864
 31
0.0
  0
LINE
  5
95
330
1F
100
AcDbEntity
  8
D-2
  6
Continuous
 62
     3
370
     9
100
AcDbLine
 10
417.4646326013513
 20
347.2889420792864
 30
0.0
 11
417.4646326013513
 21
341.0389833192568
 31
0.0
  0
LINE
  5
96
330
1F
100
AcDbEntity
  8
D-2
  6
Continuous
 62
     3
370
     9
100
AcDbLine
 10
454.9646326013513
 20
380.2890014648438
 30
0.0
 11
454.9646326013513
 21
347.2889420792864
 31
0.0
  0
LINE
  5
97
330
1F
100
AcDbEntity
  8
D-2
  6
Continuous
 62
     3
370
     9
100
AcDbLine
 10
449.9646161053633
 20
386.5389602248733
 30
0.0
 11
449.9646161053633
 21
355.2889189849029
 31
0.0
  0
LINE
  5
98
330
1F
100
AcDbEntity
  8
D-2
  6
Continuous
 62
     3
370
     9
100
AcDbLine
 10
462.4645336254224
 20
386.5389602248733
 30
0.0
 11
155.7625023094384
 21
386.5389602248733
 31
0.0
  0
LINE
  5
99
330
1F
100
AcDbEntity
  8
D-2
  6
Continuous
 62
     3
370
     9
100
AcDbLine
 10
454.9646326013513
 20
355.2889189849029
 30
0.0
 11
155.7625023094384
 21
355.2889189849029
 31
0.0
  0
LINE
  5
9A
330
1F
100
AcDbEntity
  8
D-2
  6
Continuous
 62
     3
370
     9
100
AcDbLine
 10
454.9646326013513
 20
349.9556010478253
 30
0.0
 11
155.7625023094384
 21
349.9556010478253
 31
0.0
  0
LINE
  5
9B
330
1F
100
AcDbEntity
  8
D-2
  6
Continuous
 62
     3
370
     9
100
AcDbLine
 10
454.9646326013513
 20
352.6222600163641
 30
0.0
 11
155.7625023094384
 21
352.6222600163641
 31
0.0
  0
LINE
  5
9C
330
1F
100
AcDbEntity
  8
D-1
  6
Continuous
 62
     2
370
     9
100
AcDbLine
 10
402.4648305532097
 20
324.0390014648438
 30
0.0
 11
462.4645336254224
 21
324.0390014648438
 31
0.0
  0
LINE
  5
9D
330
1F
100
AcDbEntity
  8
D-1
  6
Continuous
 62
     2
370
     9
100
AcDbLine
 10
494.9647645692568
 20
387.789026208826
 30
0.0
 11
488.7146820893159
 21
391.5389767208616
 31
0.0
  0
LINE
  5
9E
330
1F
100
AcDbEntity
  8
D-1
  6
Continuous
 62
     2
370
     9
100
AcDbLine
 10
488.7146820893159
 20
391.5389767208616
 30
0.0
 11
471.2145006334461
 21
391.5389767208616
 31
0.0
  0
LINE
  5
9F
330
1F
100
AcDbEntity
  8
D-1
  6
Continuous
 62
     2
370
     9
100
AcDbLine
 10
471.2145006334461
 20
391.5389767208616
 30
0.0
 11
464.9646655933279
 21
386.5389602248733
 31
0.0
  0
LINE
  5
A0
330
1F
100
AcDbEntity
  8
D-1
  6
Continuous
 62
     2
370
     9
100
AcDbLine
 10
464.9646655933279
 20
386.5389602248733
 30
0.0
 11
464.9646655933279
 21
321.5389932168497
 31
0.0
  0
LINE
  5
A1
330
1F
100
AcDbEntity
  8
D-1
  6
Continuous
 62
     2
370
     9
100
AcDbLine
 10
464.9646655933279
 20
321.5389932168497
 30
0.0
 11
443.7145336254224
 21
321.5389932168497
 31
0.0
  0
LINE
  5
A2
330
1F
100
AcDbEntity
  8
D-1
  6
Continuous
 62
     2
370
     9
100
AcDbLine
 10
443.7145336254224
 20
321.5389932168497
 30
0.0
 11
443.7145336254224
 21
317.7889189849029
 31
0.0
  0
LINE
  5
A3
330
1F
100
AcDbEntity
  8
D-1
  6
Continuous
 62
     2
370
     9
100
AcDbLine
 10
443.7145336254224
 20
317.7889189849029
 30
0.0
 11
448.0897645692568
 21
317.7889189849029
 31
0.0
  0
LINE
  5
A4
330
1F
100
AcDbEntity
  8
D-1
  6
Continuous
 62
     2
370
     9
100
AcDbLine
 10
448.0897645692568
 20
317.7889189849029
 30
0.0
 11
448.0897645692568
 21
305.2890014648438
 31
0.0
  0
LINE
  5
A5
330
1F
100
AcDbEntity
  8
D-1
  6
Continuous
 62
     2
370
     9
100
AcDbLine
 10
445.5896326013513
 20
302.7889932168497
 30
0.0
 11
433.2146721917232
 21
302.7889932168497
 31
0.0
  0
LINE
  5
A6
330
1F
100
AcDbEntity
  8
D-1
  6
Continuous
 62
     2
370
     9
100
AcDbLine
 10
416.839599609375
 20
305.2890014648438
 30
0.0
 11
416.839599609375
 21
317.7889189849029
 31
0.0
  0
LINE
  5
A7
330
1F
100
AcDbEntity
  8
D-1
  6
Continuous
 62
     2
370
     9
100
AcDbLine
 10
416.839599609375
 20
317.7889189849029
 30
0.0
 11
421.2148305532097
 21
317.7889189849029
 31
0.0
  0
LINE
  5
A8
330
1F
100
AcDbEntity
  8
D-1
  6
Continuous
 62
     2
370
     9
100
AcDbLine
 10
421.2148305532097
 20
317.7889189849029
 30
0.0
 11
421.2148305532097
 21
321.5389932168497
 31
0.0
  0
LINE
  5
A9
330
1F
100
AcDbEntity
  8
D-1
  6
Continuous
 62
     2
370
     9
100
AcDbLine
 10
399.9646985853042
 20
286.5390014648438
 30
0.0
 11
426.8396326013513
 21
286.5390014648438
 31
0.0
  0
LINE
  5
AA
330
1F
100
AcDbEntity
  8
D-1
  6
Continuous
 62
     2
370
     9
100
AcDbLine
 10
426.8396326013513
 20
286.5390014648438
 30
0.0
 11
426.8396326013513
 21
290.2889519768793
 31
0.0
  0
LINE
  5
AB
330
1F
100
AcDbEntity
  8
D-1
  6
Continuous
 62
     2
370
     9
100
AcDbLine
 10
426.8396326013513
 20
290.2889519768793
 30
0.0
 11
423.0896820893159
 21
290.2889519768793
 31
0.0
  0
LINE
  5
AC
330
1F
100
AcDbEntity
  8
D-1
  6
Continuous
 62
     2
370
     9
100
AcDbLine
 10
423.0896820893159
 20
290.2889519768793
 30
0.0
 11
423.0896820893159
 21
299.0389189849029
 31
0.0
  0
LINE
  5
AD
330
1F
100
AcDbEntity
  8
D-1
  6
Continuous
 62
     2
370
     9
100
AcDbLine
 10
441.8396820893159
 20
299.0389189849029
 30
0.0
 11
441.8396820893159
 21
290.2889519768793
 31
0.0
  0
LINE
  5
AE
330
1F
100
AcDbEntity
  8
D-1
  6
Continuous
 62
     2
370
     9
100
AcDbLine
 10
441.8396820893159
 20
290.2889519768793
 30
0.0
 11
438.0894841374578
 21
290.2889519768793
 31
0.0
  0
LINE
  5
AF
330
1F
100
AcDbEntity
  8
D-1
  6
Continuous
 62
     2
370
     9
100
AcDbLine
 10
438.0894841374578
 20
290.2889519768793
 30
0.0
 11
438.0894841374578
 21
286.5390014648438
 31
0.0
  0
LINE
  5
B0
330
1F
100
AcDbEntity
  8
D-1
  6
Continuous
 62
     2
370
     9
100
AcDbLine
 10
438.0894841374578
 20
286.5390014648438
 30
0.0
 11
482.464599609375
 21
286.5390014648438
 31
0.0
  0
LINE
  5
B1
330
1F
100
AcDbEntity
  8
D-1
  6
Continuous
 62
     2
370
     9
100
AcDbLine
 10
482.464599609375
 20
286.5390014648438
 30
0.0
 11
482.464599609375
 21
296.5389107369089
 31
0.0
  0
LINE
  5
B2
330
1F
100
AcDbEntity
  8
D-1
  6
Continuous
 62
     2
370
     9
100
AcDbLine
 10
477.4648305532097
 20
291.5388942409207
 30
0.0
 11
469.9646820893159
 21
291.5388942409207
 31
0.0
  0
LINE
  5
B3
330
1F
100
AcDbEntity
  8
D-1
  6
Continuous
 62
     2
370
     9
100
AcDbLine
 10
469.9646820893159
 20
291.5388942409207
 30
0.0
 11
469.9646820893159
 21
336.5389189849029
 31
0.0
  0
LINE
  5
B4
330
1F
100
AcDbEntity
  8
D-1
  6
Continuous
 62
     2
370
     9
100
AcDbLine
 10
469.9646820893159
 20
336.5389189849029
 30
0.0
 11
477.4648305532097
 21
336.5389189849029
 31
0.0
  0
LINE
  5
B5
330
1F
100
AcDbEntity
  8
D-1
  6
Continuous
 62
     2
370
     9
100
AcDbLine
 10
477.4648305532097
 20
331.539026208826
 30
0.0
 11
482.464599609375
 21
331.539026208826
 31
0.0
  0
LINE
  5
B6
330
1F
100
AcDbEntity
  8
D-1
  6
Continuous
 62
     2
370
     9
100
AcDbLine
 10
482.464599609375
 20
331.539026208826
 30
0.0
 11
482.464599609375
 21
341.5389354808912
 31
0.0
  0
LINE
  5
B7
330
1F
100
AcDbEntity
  8
D-1
  6
Continuous
 62
     2
370
     9
100
AcDbLine
 10
482.464599609375
 20
341.5389354808912
 30
0.0
 11
469.9646820893159
 21
341.5389354808912
 31
0.0
  0
LINE
  5
B8
330
1F
100
AcDbEntity
  8
D-1
  6
Continuous
 62
     2
370
     9
100
AcDbLine
 10
469.9646820893159
 20
341.5389354808912
 30
0.0
 11
469.9646820893159
 21
384.1358246674409
 31
0.0
  0
LINE
  5
B9
330
1F
100
AcDbEntity
  8
D-1
  6
Continuous
 62
     2
370
     9
100
AcDbLine
 10
464.9646655933279
 20
292.7889602248733
 30
0.0
 11
464.9646655933279
 21
315.2889107369089
 31
0.0
  0
LINE
  5
BA
330
1F
100
AcDbEntity
  8
D-1
  6
Continuous
 62
     2
370
     9
100
AcDbLine
 10
462.4645336254224
 20
317.7889189849029
 30
0.0
 11
454.339599609375
 21
317.7889189849029
 31
0.0
  0
LINE
  5
BB
330
1F
100
AcDbEntity
  8
D-1
  6
Continuous
 62
     2
370
     9
100
AcDbLine
 10
451.8394676414698
 20
315.2889107369089
 30
0.0
 11
451.8394676414698
 21
305.2890014648438
 31
0.0
  0
LINE
  5
BC
330
1F
100
AcDbEntity
  8
D-1
  6
Continuous
 62
     2
370
     9
100
AcDbLine
 10
441.8396820893159
 20
299.0389189849029
 30
0.0
 11
423.0896820893159
 21
299.0389189849029
 31
0.0
  0
LINE
  5
BD
330
1F
100
AcDbEntity
  8
D-1
  6
Continuous
 62
     2
370
     9
100
AcDbLine
 10
448.0897645692568
 20
290.2889519768793
 30
0.0
 11
462.4645336254224
 21
290.2889519768793
 31
0.0
  0
LINE
  5
BE
330
1F
100
AcDbEntity
  8
D-1
  6
Continuous
 62
     2
370
     9
100
AcDbLine
 10
445.5896326013513
 20
299.0389189849029
 30
0.0
 11
445.5896326013513
 21
292.7889602248733
 31
0.0
  0
LINE
  5
BF
330
1F
100
AcDbEntity
  8
D-1
  6
Continuous
 62
     2
370
     9
100
AcDbLine
 10
410.5897645692568
 20
317.7889189849029
 30
0.0
 11
406.2145336254224
 21
317.7889189849029
 31
0.0
  0
LINE
  5
C0
330
1F
100
AcDbEntity
  8
D-1
  6
Continuous
 62
     2
370
     9
100
AcDbLine
 10
413.0896490973396
 20
305.2890014648438
 30
0.0
 11
413.0896490973396
 21
315.2889107369089
 31
0.0
  0
LINE
  5
C1
330
1F
100
AcDbEntity
  8
D-1
  6
Continuous
 62
     2
370
     9
100
AcDbLine
 10
403.7146490973396
 20
315.2889107369089
 30
0.0
 11
403.7146490973396
 21
292.7889602248733
 31
0.0
  0
LINE
  5
C2
330
1F
100
AcDbEntity
  8
D-1
  6
Continuous
 62
     2
370
     9
100
AcDbLine
 10
419.3394841374578
 20
292.7889602248733
 30
0.0
 11
419.3394841374578
 21
299.0389189849029
 31
0.0
  0
LINE
  5
C3
330
1F
100
AcDbEntity
  8
D-1
  6
Continuous
 62
     2
370
     9
100
AcDbLine
 10
406.2145336254224
 20
290.2889519768793
 30
0.0
 11
416.839599609375
 21
290.2889519768793
 31
0.0
  0
LINE
  5
C4
330
1F
100
AcDbEntity
  8
D-1
  6
Continuous
 62
     2
370
     9
100
AcDbLine
 10
433.2146721917232
 20
302.7889932168497
 30
0.0
 11
433.2146721917232
 21
302.0390031144426
 31
0.0
  0
LINE
  5
C5
330
1F
100
AcDbEntity
  8
D-1
  6
Continuous
 62
     2
370
     9
100
AcDbLine
 10
433.2146721917232
 20
302.0390031144426
 30
0.0
 11
431.7146919869089
 21
302.0390031144426
 31
0.0
  0
LINE
  5
C6
330
1F
100
AcDbEntity
  8
D-1
  6
Continuous
 62
     2
370
     9
100
AcDbLine
 10
431.7146919869089
 20
302.0390031144426
 30
0.0
 11
431.7146919869089
 21
302.7889932168497
 31
0.0
  0
LINE
  5
C7
330
1F
100
AcDbEntity
  8
D-1
  6
Continuous
 62
     2
370
     9
100
AcDbLine
 10
431.7146919869089
 20
302.7889932168497
 30
0.0
 11
419.3394841374578
 21
302.7889932168497
 31
0.0
  0
LINE
  5
C8
330
1F
100
AcDbEntity
  8
D-1
  6
Continuous
 62
     2
370
     9
100
AcDbLine
 10
399.9646985853042
 20
321.5389932168497
 30
0.0
 11
399.9646985853042
 21
286.5390014648438
 31
0.0
  0
LINE
  5
C9
330
1F
100
AcDbEntity
  8
D-1
  6
Continuous
 62
     2
370
     9
100
AcDbLine
 10
439.9648305532097
 20
314.0389684728675
 30
0.0
 11
439.9648305532097
 21
321.5389932168497
 31
0.0
  0
LINE
  5
CA
330
1F
100
AcDbEntity
  8
D-1
  6
Continuous
 62
     2
370
     9
100
AcDbLine
 10
424.9645336254224
 20
321.5389932168497
 30
0.0
 11
424.9645336254224
 21
314.0389684728675
 31
0.0
  0
LINE
  5
CB
330
1F
100
AcDbEntity
  8
D-1
  6
Continuous
 62
     2
370
     9
100
AcDbLine
 10
443.0895006334461
 20
321.5377560177366
 30
0.0
 11
462.4645336254224
 21
321.5389932168497
 31
0.0
  0
LINE
  5
CC
330
1F
100
AcDbEntity
  8
D-1
  6
Continuous
 62
     2
370
     9
100
AcDbLine
 10
443.0895006334461
 20
315.2889107369089
 30
0.0
 11
443.0895006334461
 21
321.5389932168497
 31
0.0
  0
LINE
  5
CD
330
1F
100
AcDbEntity
  8
D-1
  6
Continuous
 62
     2
370
     9
100
AcDbLine
 10
446.2146655933279
 20
315.2889107369089
 30
0.0
 11
443.0895006334461
 21
315.2889107369089
 31
0.0
  0
LINE
  5
CE
330
1F
100
AcDbEntity
  8
D-1
  6
Continuous
 62
     2
370
     9
100
AcDbLine
 10
446.2146655933279
 20
313.788683092272
 30
0.0
 11
446.2146655933279
 21
315.2889107369089
 31
0.0
  0
LINE
  5
CF
330
1F
100
AcDbEntity
  8
D-1
  6
Continuous
 62
     2
370
     9
100
AcDbLine
 10
418.7146985853042
 20
315.2889107369089
 30
0.0
 11
418.7146985853042
 21
313.788683092272
 31
0.0
  0
LINE
  5
D0
330
1F
100
AcDbEntity
  8
D-1
  6
Continuous
 62
     2
370
     9
100
AcDbLine
 10
421.8396161053633
 20
315.2889107369089
 30
0.0
 11
418.7146985853042
 21
315.2889107369089
 31
0.0
  0
LINE
  5
D1
330
1F
100
AcDbEntity
  8
D-1
  6
Continuous
 62
     2
370
     9
100
AcDbLine
 10
402.4648305532097
 20
324.0390014648438
 30
0.0
 11
402.4648305532097
 21
321.5389932168497
 31
0.0
  0
LINE
  5
D2
330
1F
100
AcDbEntity
  8
D-1
  6
Continuous
 62
     2
370
     9
100
AcDbLine
 10
462.4645336254224
 20
321.5389932168497
 30
0.0
 11
462.4645336254224
 21
324.0390014648438
 31
0.0
  0
LINE
  5
D3
330
1F
100
AcDbEntity
  8
D-1
  6
Continuous
 62
     2
370
     9
100
AcDbLine
 10
494.9647645692568
 20
387.789026208826
 30
0.0
 11
494.9647645692568
 21
386.5389602248733
 31
0.0
  0
LINE
  5
D4
330
1F
100
AcDbEntity
  8
D-1
  6
Continuous
 62
     2
370
     9
100
AcDbLine
 10
472.9686015361065
 20
386.5389602248733
 30
0.0
 11
469.9646820893159
 21
384.1358246674409
 31
0.0
  0
LINE
  5
D5
330
1F
100
AcDbEntity
  8
D-1
  6
Continuous
 62
     2
370
     9
100
AcDbLine
 10
402.4648305532097
 20
321.5389932168497
 30
0.0
 11
404.9647150812922
 21
324.0390014648438
 31
0.0
  0
LINE
  5
D6
330
1F
100
AcDbEntity
  8
D-1
  6
Continuous
 62
     2
370
     9
100
AcDbLine
 10
439.9648305532097
 20
321.5389932168497
 30
0.0
 11
424.9645336254224
 21
321.5389932168497
 31
0.0
  0
LINE
  5
D7
330
1F
100
AcDbEntity
  8
D-1
  6
Continuous
 62
     2
370
     9
100
AcDbLine
 10
407.464599609375
 20
321.5389932168497
 30
0.0
 11
409.9647315772805
 21
324.0390014648438
 31
0.0
  0
LINE
  5
D8
330
1F
100
AcDbEntity
  8
D-1
  6
Continuous
 62
     2
370
     9
100
AcDbLine
 10
412.4648635451859
 20
321.5389932168497
 30
0.0
 11
414.9647480732688
 21
324.0390014648438
 31
0.0
  0
LINE
  5
D9
330
1F
100
AcDbEntity
  8
D-1
  6
Continuous
 62
     2
370
     9
100
AcDbLine
 10
417.4646326013513
 20
321.5389932168497
 30
0.0
 11
419.9647645692568
 21
324.0390014648438
 31
0.0
  0
LINE
  5
DA
330
1F
100
AcDbEntity
  8
D-1
  6
Continuous
 62
     2
370
     9
100
AcDbLine
 10
457.4647645692568
 20
321.5389932168497
 30
0.0
 11
459.9648965371622
 21
324.0390014648438
 31
0.0
  0
LINE
  5
DB
330
1F
100
AcDbEntity
  8
D-1
  6
Continuous
 62
     2
370
     9
100
AcDbLine
 10
421.8396161053633
 20
321.5389932168497
 30
0.0
 11
399.9646985853042
 21
321.5389932168497
 31
0.0
  0
LINE
  5
DC
330
1F
100
AcDbEntity
  8
D-1
  6
Continuous
 62
     2
370
     9
100
AcDbLine
 10
421.8396161053633
 20
321.5389932168497
 30
0.0
 11
421.8396161053633
 21
315.2889107369089
 31
0.0
  0
LINE
  5
DD
330
1F
100
AcDbEntity
  8
D-1
  6
Continuous
 62
     2
370
     9
100
AcDbLine
 10
421.8396161053633
 20
320.9139602248733
 30
0.0
 11
424.9645336254224
 21
324.0390014648438
 31
0.0
  0
LINE
  5
DE
330
1F
100
AcDbEntity
  8
D-1
  6
Continuous
 62
     2
370
     9
100
AcDbLine
 10
427.4646655933279
 20
321.5389932168497
 30
0.0
 11
429.9647975612331
 21
324.0390014648438
 31
0.0
  0
LINE
  5
DF
330
1F
100
AcDbEntity
  8
D-1
  6
Continuous
 62
     2
370
     9
100
AcDbLine
 10
421.8396161053633
 20
315.9139437288852
 30
0.0
 11
424.9645336254224
 21
319.0389849688556
 31
0.0
  0
LINE
  5
E0
330
1F
100
AcDbEntity
  8
D-1
  6
Continuous
 62
     2
370
     9
100
AcDbLine
 10
419.4401921452703
 20
313.5145197687923
 30
0.0
 11
421.2148305532097
 21
315.2889107369089
 31
0.0
  0
LINE
  5
E1
330
1F
100
AcDbEntity
  8
D-1
  6
Continuous
 62
     2
370
     9
100
AcDbLine
 10
423.2636322846284
 20
312.3379434121622
 30
0.0
 11
424.9645336254224
 21
314.0389684728675
 31
0.0
  0
LINE
  5
E2
330
1F
100
AcDbEntity
  8
D-1
  6
Continuous
 62
     2
370
     9
100
AcDbLine
 10
432.4646820893159
 20
321.5389932168497
 30
0.0
 11
434.9645666173987
 21
324.0390014648438
 31
0.0
  0
LINE
  5
E3
330
1F
100
AcDbEntity
  8
D-1
  6
Continuous
 62
     2
370
     9
100
AcDbLine
 10
437.4646985853042
 20
321.5389932168497
 30
0.0
 11
439.9648305532097
 21
324.0390014648438
 31
0.0
  0
LINE
  5
E4
330
1F
100
AcDbEntity
  8
D-1
  6
Continuous
 62
     2
370
     9
100
AcDbLine
 10
439.9648305532097
 20
319.0389849688556
 30
0.0
 11
444.964599609375
 21
324.0390014648438
 31
0.0
  0
LINE
  5
E5
330
1F
100
AcDbEntity
  8
D-1
  6
Continuous
 62
     2
370
     9
100
AcDbLine
 10
427.4602116765203
 20
311.5345063080659
 30
0.0
 11
429.3095769108953
 21
313.3837478225296
 31
0.0
  0
LINE
  5
E6
330
1F
100
AcDbEntity
  8
D-1
  6
Continuous
 62
     2
370
     9
100
AcDbLine
 10
432.1294011296453
 20
311.2036792652027
 30
0.0
 11
434.2128444362331
 21
313.2871225717906
 31
0.0
  0
LINE
  5
E7
330
1F
100
AcDbEntity
  8
D-1
  6
Continuous
 62
     2
370
     9
100
AcDbLine
 10
447.4637418179898
 20
321.5380034575591
 30
0.0
 11
449.9648635451859
 21
324.0390014648438
 31
0.0
  0
LINE
  5
E8
330
1F
100
AcDbEntity
  8
D-1
  6
Continuous
 62
     2
370
     9
100
AcDbLine
 10
437.4590074693836
 20
311.5331453890414
 30
0.0
 11
443.0895006334461
 21
317.1637622730152
 31
0.0
  0
LINE
  5
E9
330
1F
100
AcDbEntity
  8
D-1
  6
Continuous
 62
     2
370
     9
100
AcDbLine
 10
452.4640057538008
 20
321.5382508973818
 30
0.0
 11
454.9646326013513
 21
324.0390014648438
 31
0.0
  0
LINE
  5
EA
330
1F
100
AcDbEntity
  8
D-1
  6
Continuous
 62
     2
370
     9
100
AcDbLine
 10
443.8961544552365
 20
312.9702758789062
 30
0.0
 11
446.2146655933279
 21
315.2889107369089
 31
0.0
  0
LINE
  5
EB
330
1F
100
AcDbEntity
  8
D-1
  6
Continuous
 62
     2
370
     9
100
AcDbLine
 10
472.9686015361065
 20
386.5389602248733
 30
0.0
 11
494.9647645692568
 21
386.5389602248733
 31
0.0
  0
LINE
  5
EC
330
1F
100
AcDbEntity
  8
D-1
  6
Continuous
 62
     2
370
     9
100
AcDbLine
 10
477.4648305532097
 20
296.5389107369089
 30
0.0
 11
477.4648305532097
 21
291.5388942409207
 31
0.0
  0
LINE
  5
ED
330
1F
100
AcDbEntity
  8
D-1
  6
Continuous
 62
     2
370
     9
100
AcDbLine
 10
482.464599609375
 20
296.5389107369089
 30
0.0
 11
477.4648305532097
 21
296.5389107369089
 31
0.0
  0
LINE
  5
EE
330
1F
100
AcDbEntity
  8
D-4
  6
Continuous
 62
     7
370
     9
100
AcDbLine
 10
427.3395847629857
 20
259.4157615867822
 30
0.0
 11
427.3395847629857
 21
299.0389189849029
 31
0.0
  0
LINE
  5
EF
330
1F
100
AcDbEntity
  8
D-4
  6
Continuous
 62
     7
370
     9
100
AcDbLine
 10
437.5895319758234
 20
259.4157615867822
 30
0.0
 11
437.5895319758234
 21
299.0389189849029
 31
0.0
  0
LINE
  5
F0
330
1F
100
AcDbEntity
  8
D-6
  6
Continuous
 62
     6
370
     5
100
AcDbLine
 10
399.9645748653927
 20
199.5944626266892
 30
0.0
 11
438.0200772672086
 21
161.5389602248733
 31
0.0
  0
LINE
  5
F1
330
1F
100
AcDbEntity
  8
D-1
  6
Continuous
 62
     2
370
     9
100
AcDbLine
 10
477.4648305532097
 20
336.5389189849029
 30
0.0
 11
477.4648305532097
 21
331.539026208826
 31
0.0
  0
LINE
  5
F2
330
1F
100
AcDbEntity
  8
D-0
  6
Continuous
 62
     7
370
     9
100
AcDbLine
 10
128.0405817805111
 20
-528.8920211791992
 30
0.0
 11
128.0405817805111
 21
-496.3922696500211
 31
0.0
  0
LINE
  5
F3
330
1F
100
AcDbEntity
  8
D-0
  6
Continuous
 62
     7
370
     9
100
AcDbLine
 10
128.0405817805111
 20
-496.3922696500211
 30
0.0
 11
415.5407879803633
 21
-496.3922696500211
 31
0.0
  0
LINE
  5
F4
330
1F
100
AcDbEntity
  8
D-0
  6
Continuous
 62
     7
370
     9
100
AcDbLine
 10
415.5407879803633
 20
-496.3922696500211
 30
0.0
 11
415.5407879803633
 21
-528.8920211791992
 31
0.0
  0
LINE
  5
F5
330
1F
100
AcDbEntity
  8
D-0
  6
Continuous
 62
     7
370
     9
100
AcDbLine
 10
415.5407879803633
 20
-528.8920211791992
 30
0.0
 11
128.0405817805111
 21
-528.8920211791992
 31
0.0
  0
LINE
  5
F6
330
1F
100
AcDbEntity
  8
D-0
  6
Continuous
 62
     3
370
     9
100
AcDbLine
 10
381.472902040224
 20
-319.052272487331
 30
0.0
 11
155.9727024387669
 21
-319.052272487331
 31
0.0
  0
LINE
  5
F7
330
1F
100
AcDbEntity
  8
D-0
  6
Continuous
 62
     3
370
     9
100
AcDbLine
 10
361.0203923405828
 20
-326.552173511402
 30
0.0
 11
383.7222537478885
 21
-326.552173511402
 31
0.0
  0
LINE
  5
F8
330
1F
100
AcDbEntity
  8
D-0
  6
Continuous
 62
     3
370
     9
100
AcDbLine
 10
359.8204329207138
 20
-326.552173511402
 30
0.0
 11
153.7222372519004
 21
-326.552173511402
 31
0.0
  0
LINE
  5
F9
330
1F
100
AcDbEntity
  8
D-0
  6
JWW_DASHED3
 62
     3
370
     9
100
AcDbLine
 10
177.6251715582771
 20
-327.4557000237542
 30
0.0
 11
180.9725374788852
 21
-337.802272487331
 31
0.0
  0
LINE
  5
FA
330
1F
100
AcDbEntity
  8
D-0
  6
Continuous
 62
     3
370
     9
100
AcDbLine
 10
153.7222372519004
 20
-321.3022427945523
 30
0.0
 11
153.7222372519004
 21
-326.552173511402
 31
0.0
  0
LINE
  5
FB
330
1F
100
AcDbEntity
  8
D-0
  6
Continuous
 62
     3
370
     9
100
AcDbLine
 10
383.7222537478885
 20
-321.3022427945523
 30
0.0
 11
383.7222537478885
 21
-326.552173511402
 31
0.0
  0
LINE
  5
FC
330
1F
100
AcDbEntity
  8
D-0
  6
JWW_CENTER1
 62
     3
370
     9
100
AcDbLine
 10
268.7224929397172
 20
-229.1920264991554
 30
0.0
 11
268.7224929397172
 21
-458.5983111407306
 31
0.0
  0
LINE
  5
FD
330
1F
100
AcDbEntity
  8
D-0
  6
JWW_DASHED3
 62
     3
370
     9
100
AcDbLine
 10
359.8204329207138
 20
-327.4557000237542
 30
0.0
 11
356.472448400549
 21
-337.802272487331
 31
0.0
  0
LINE
  5
FE
330
1F
100
AcDbEntity
  8
D-0
  6
JWW_DASHED3
 62
     3
370
     9
100
AcDbLine
 10
187.2223725190034
 20
-344.0523549672719
 30
0.0
 11
350.2226133604307
 21
-344.0523549672719
 31
0.0
  0
LINE
  5
FF
330
1F
100
AcDbEntity
  8
D-0
  6
JWW_DASHED3
 62
     3
370
     9
100
AcDbLine
 10
159.9725671716639
 20
-326.552173511402
 30
0.0
 11
159.9725671716639
 21
-350.3021900073902
 31
0.0
  0
LINE
  5
100
330
1F
100
AcDbEntity
  8
D-0
  6
JWW_DASHED3
 62
     3
370
     9
100
AcDbLine
 10
377.4724187077703
 20
-326.552173511402
 30
0.0
 11
377.4724187077703
 21
-350.3021900073902
 31
0.0
  0
LINE
  5
101
330
1F
100
AcDbEntity
  8
D-0
  6
Continuous
 62
     3
370
     9
100
AcDbLine
 10
154.9723032358531
 20
-326.552173511402
 30
0.0
 11
154.9723032358531
 21
-350.3021900073902
 31
0.0
  0
LINE
  5
102
330
1F
100
AcDbEntity
  8
D-0
  6
Continuous
 62
     3
370
     9
100
AcDbLine
 10
382.4726826435813
 20
-326.552173511402
 30
0.0
 11
382.4726826435813
 21
-350.3021900073902
 31
0.0
  0
LINE
  5
103
330
1F
100
AcDbEntity
  8
D-0
  6
Continuous
 62
     3
370
     9
100
AcDbLine
 10
378.7224846917229
 20
-66.5528003589526
 30
0.0
 11
158.7225011877112
 21
-66.5528003589526
 31
0.0
  0
LINE
  5
104
330
1F
100
AcDbEntity
  8
D-0
  6
Continuous
 62
     3
370
     9
100
AcDbLine
 10
383.7225011877112
 20
-149.0529488228462
 30
0.0
 11
383.7225011877112
 21
-71.55281685494089
 31
0.0
  0
LINE
  5
105
330
1F
100
AcDbEntity
  8
D-0
  6
Continuous
 62
     3
370
     9
100
AcDbLine
 10
153.7224846917231
 20
-149.0529488228462
 30
0.0
 11
153.7224846917231
 21
-71.55281685494089
 31
0.0
  0
LINE
  5
106
330
1F
100
AcDbEntity
  8
D-0
  6
Continuous
 62
     3
370
     9
100
AcDbLine
 10
158.7225011877112
 20
-154.0529653188344
 30
0.0
 11
378.7224846917229
 21
-154.0529653188344
 31
0.0
  0
LINE
  5
107
330
1F
100
AcDbEntity
  8
D-0
  6
Continuous
 62
     3
370
     9
100
AcDbLine
 10
187.2224962389147
 20
-120.0530016100084
 30
0.0
 11
187.2224962389147
 21
-100.5530115076013
 31
0.0
  0
LINE
  5
108
330
1F
100
AcDbEntity
  8
D-0
  6
Continuous
 62
     3
370
     9
100
AcDbLine
 10
344.7225209828972
 20
-95.05291913006758
 30
0.0
 11
192.7224648965372
 21
-95.05291913006758
 31
0.0
  0
LINE
  5
109
330
1F
100
AcDbEntity
  8
D-0
  6
Continuous
 62
     3
370
     9
100
AcDbLine
 10
350.2224896405195
 20
-120.0530016100084
 30
0.0
 11
350.2224896405195
 21
-100.5530115076013
 31
0.0
  0
LINE
  5
10A
330
1F
100
AcDbEntity
  8
D-0
  6
Continuous
 62
     3
370
     9
100
AcDbLine
 10
344.7225209828972
 20
-125.5528465477195
 30
0.0
 11
192.7224648965372
 21
-125.5528465477195
 31
0.0
  0
LINE
  5
10B
330
1F
100
AcDbEntity
  8
D-0
  6
JWW_CENTER1
 62
     3
370
     9
100
AcDbLine
 10
268.7224929397172
 20
-169.8049844277871
 30
0.0
 11
268.7224929397172
 21
-48.21651974239856
 31
0.0
  0
LINE
  5
10C
330
1F
100
AcDbEntity
  8
D-0
  6
JWW_CENTER1
 62
     3
370
     9
100
AcDbLine
 10
136.3037109375
 20
-110.3028828388936
 30
0.0
 11
401.9276386982688
 21
-110.3028828388936
 31
0.0
  0
LINE
  5
10D
330
1F
100
AcDbEntity
  8
D-0
  6
Continuous
 62
     3
370
     9
100
AcDbLine
 10
188.7224764437289
 20
-417.8024127032305
 30
0.0
 11
348.7225094357052
 21
-417.8024127032305
 31
0.0
  0
LINE
  5
10E
330
1F
100
AcDbEntity
  8
D-0
  6
Continuous
 62
     3
370
     9
100
AcDbLine
 10
188.7224764437289
 20
-424.0524951831715
 30
0.0
 11
348.7225094357052
 21
-424.0524951831715
 31
0.0
  0
LINE
  5
10F
330
1F
100
AcDbEntity
  8
D-0
  6
Continuous
 62
     3
370
     9
100
AcDbLine
 10
231.2224929397172
 20
-414.3023764120566
 30
0.0
 11
238.7225176836995
 21
-417.0524226008234
 31
0.0
  0
LINE
  5
110
330
1F
100
AcDbEntity
  8
D-0
  6
Continuous
 62
     3
370
     9
100
AcDbLine
 10
306.2224929397172
 20
-414.3023764120566
 30
0.0
 11
298.7225919156461
 21
-417.0524226008234
 31
0.0
  0
LINE
  5
111
330
1F
100
AcDbEntity
  8
D-0
  6
Continuous
 62
     3
370
     9
100
AcDbLine
 10
238.7225176836995
 20
-417.0524226008234
 30
0.0
 11
238.7225176836995
 21
-417.8024127032305
 31
0.0
  0
LINE
  5
112
330
1F
100
AcDbEntity
  8
D-0
  6
Continuous
 62
     3
370
     9
100
AcDbLine
 10
298.7225919156461
 20
-417.0524226008234
 30
0.0
 11
298.7225919156461
 21
-417.8024127032305
 31
0.0
  0
LINE
  5
113
330
1F
100
AcDbEntity
  8
D-0
  6
Continuous
 62
     3
370
     9
100
AcDbLine
 10
228.7224846917231
 20
-441.5524291992188
 30
0.0
 11
228.7224846917231
 21
-424.0524951831715
 31
0.0
  0
LINE
  5
114
330
1F
100
AcDbEntity
  8
D-0
  6
Continuous
 62
     3
370
     9
100
AcDbLine
 10
306.2224929397172
 20
-444.0523137273015
 30
0.0
 11
231.2224929397172
 21
-444.0523137273015
 31
0.0
  0
LINE
  5
115
330
1F
100
AcDbEntity
  8
D-0
  6
Continuous
 62
     3
370
     9
100
AcDbLine
 10
308.7225011877112
 20
-441.5524291992188
 30
0.0
 11
308.7225011877112
 21
-424.0524951831715
 31
0.0
  0
LINE
  5
116
330
1F
100
AcDbEntity
  8
D-0
  6
Continuous
 62
     3
370
     9
100
AcDbLine
 10
188.7224764437289
 20
-417.8024127032305
 30
0.0
 11
188.7224764437289
 21
-429.0525116791596
 31
0.0
  0
LINE
  5
117
330
1F
100
AcDbEntity
  8
D-0
  6
Continuous
 62
     3
370
     9
100
AcDbLine
 10
348.7225094357052
 20
-417.8024127032305
 30
0.0
 11
348.7225094357052
 21
-429.0525116791596
 31
0.0
  0
LINE
  5
118
330
1F
100
AcDbEntity
  8
D-0
  6
Continuous
 62
     3
370
     9
100
AcDbLine
 10
188.7224764437289
 20
-429.0525116791596
 30
0.0
 11
228.0975754196579
 21
-429.0525116791596
 31
0.0
  0
LINE
  5
119
330
1F
100
AcDbEntity
  8
D-0
  6
Continuous
 62
     3
370
     9
100
AcDbLine
 10
309.3475341796875
 20
-429.0525116791596
 30
0.0
 11
348.7225094357052
 21
-429.0525116791596
 31
0.0
  0
LINE
  5
11A
330
1F
100
AcDbEntity
  8
D-0
  6
Continuous
 62
     3
370
     9
100
AcDbLine
 10
309.3475341796875
 20
-424.0524951831715
 30
0.0
 11
309.3475341796875
 21
-429.0525116791596
 31
0.0
  0
LINE
  5
11B
330
1F
100
AcDbEntity
  8
D-0
  6
Continuous
 62
     3
370
     9
100
AcDbLine
 10
228.0975754196579
 20
-424.0524951831715
 30
0.0
 11
228.0975754196579
 21
-429.0525116791596
 31
0.0
  0
LINE
  5
11C
330
1F
100
AcDbEntity
  8
D-0
  6
Continuous
 62
     3
370
     9
100
AcDbLine
 10
231.2224929397172
 20
-381.3023170264992
 30
0.0
 11
231.2224929397172
 21
-414.3023764120566
 31
0.0
  0
LINE
  5
11D
330
1F
100
AcDbEntity
  8
D-0
  6
Continuous
 62
     3
370
     9
100
AcDbLine
 10
306.2224929397172
 20
-381.3428971574114
 30
0.0
 11
306.2224929397172
 21
-414.3023764120566
 31
0.0
  0
LINE
  5
11E
330
1F
100
AcDbEntity
  8
D-0
  6
JWW_PHANTOM1
 62
     3
370
     9
100
AcDbLine
 10
188.9725143845017
 20
-244.052272487331
 30
0.0
 11
348.4724714949326
 21
-244.052272487331
 31
0.0
  0
LINE
  5
11F
330
1F
100
AcDbEntity
  8
D-0
  6
JWW_PHANTOM1
 62
     3
370
     9
100
AcDbLine
 10
188.9725143845017
 20
-255.3023714632601
 30
0.0
 11
348.4724714949326
 21
-255.3023714632601
 31
0.0
  0
LINE
  5
120
330
1F
100
AcDbEntity
  8
D-0
  6
JWW_PHANTOM1
 62
     3
370
     9
100
AcDbLine
 10
188.9725143845017
 20
-244.052272487331
 30
0.0
 11
188.9725143845017
 21
-255.3023714632601
 31
0.0
  0
LINE
  5
121
330
1F
100
AcDbEntity
  8
D-0
  6
JWW_PHANTOM1
 62
     3
370
     9
100
AcDbLine
 10
348.4724714949326
 20
-244.052272487331
 30
0.0
 11
348.4724714949326
 21
-255.3023714632601
 31
0.0
  0
LINE
  5
122
330
1F
100
AcDbEntity
  8
D-0
  6
JWW_PHANTOM1
 62
     3
370
     9
100
AcDbLine
 10
345.4725110853042
 20
-255.3023714632601
 30
0.0
 11
345.4725110853042
 21
-261.5523302232896
 31
0.0
  0
LINE
  5
123
330
1F
100
AcDbEntity
  8
D-0
  6
JWW_PHANTOM1
 62
     3
370
     9
100
AcDbLine
 10
191.9724747941301
 20
-255.3023714632601
 30
0.0
 11
191.9724747941301
 21
-261.5523302232896
 31
0.0
  0
LINE
  5
124
330
1F
100
AcDbEntity
  8
D-0
  6
JWW_PHANTOM1
 62
     3
370
     9
100
AcDbLine
 10
236.2225094357052
 20
-261.5523302232896
 30
0.0
 11
191.9724747941301
 21
-261.5523302232896
 31
0.0
  0
LINE
  5
125
330
1F
100
AcDbEntity
  8
D-0
  6
JWW_PHANTOM1
 62
     3
370
     9
100
AcDbLine
 10
301.2224764437289
 20
-261.5523302232896
 30
0.0
 11
345.4725110853042
 21
-261.5523302232896
 31
0.0
  0
LINE
  5
126
330
1F
100
AcDbEntity
  8
D-0
  6
JWW_PHANTOM1
 62
     3
370
     9
100
AcDbLine
 10
231.2226166596284
 20
-305.0522510425464
 30
0.0
 11
231.2226166596284
 21
-319.052272487331
 31
0.0
  0
LINE
  5
127
330
1F
100
AcDbEntity
  8
D-0
  6
JWW_PHANTOM1
 62
     3
370
     9
100
AcDbLine
 10
243.7225341796875
 20
-286.5522889833192
 30
0.0
 11
243.7225341796875
 21
-269.0523549672719
 31
0.0
  0
LINE
  5
128
330
1F
100
AcDbEntity
  8
D-0
  6
JWW_PHANTOM1
 62
     3
370
     9
100
AcDbLine
 10
293.7226991395693
 20
-286.5522889833192
 30
0.0
 11
293.7226991395693
 21
-269.0523549672719
 31
0.0
  0
LINE
  5
129
330
1F
100
AcDbEntity
  8
D-0
  6
JWW_PHANTOM1
 62
     3
370
     9
100
AcDbLine
 10
306.2226166596284
 20
-305.0928311734586
 30
0.0
 11
306.2226166596284
 21
-319.052272487331
 31
0.0
  0
LINE
  5
12A
330
1F
100
AcDbEntity
  8
D-0
  6
JWW_PHANTOM1
 62
     3
370
     9
100
AcDbLine
 10
242.2225539748734
 20
-247.8023467192779
 30
0.0
 11
295.2224319045609
 21
-247.8023467192779
 31
0.0
  0
LINE
  5
12B
330
1F
100
AcDbEntity
  8
D-0
  6
JWW_PHANTOM1
 62
     3
370
     9
100
AcDbLine
 10
242.2225539748734
 20
-247.8023467192779
 30
0.0
 11
242.2225539748734
 21
-255.3023714632601
 31
0.0
  0
LINE
  5
12C
330
1F
100
AcDbEntity
  8
D-0
  6
JWW_PHANTOM1
 62
     3
370
     9
100
AcDbLine
 10
295.2224319045609
 20
-247.8023467192779
 30
0.0
 11
295.2224319045609
 21
-255.3023714632601
 31
0.0
  0
LINE
  5
12D
330
1F
100
AcDbEntity
  8
D-0
  6
Continuous
 62
     3
370
     9
100
AcDbLine
 10
243.7224104597763
 20
-362.8024786871833
 30
0.0
 11
243.7224104597763
 21
-350.3021900073902
 31
0.0
  0
LINE
  5
12E
330
1F
100
AcDbEntity
  8
D-0
  6
Continuous
 62
     3
370
     9
100
AcDbLine
 10
293.7224516997466
 20
-362.8024786871833
 30
0.0
 11
293.7224516997466
 21
-350.3021900073902
 31
0.0
  0
LINE
  5
12F
330
1F
100
AcDbEntity
  8
D-0
  6
Continuous
 62
     3
370
     9
100
AcDbLine
 10
382.4726826435813
 20
-350.3021900073902
 30
0.0
 11
154.9723032358531
 21
-350.3021900073902
 31
0.0
  0
LINE
  5
130
330
1F
100
AcDbEntity
  8
D-0
  6
JWW_DASHED3
 62
     3
370
     9
100
AcDbLine
 10
243.7224104597763
 20
-350.3021900073902
 30
0.0
 11
243.7224104597763
 21
-344.0523549672719
 31
0.0
  0
LINE
  5
131
330
1F
100
AcDbEntity
  8
D-0
  6
JWW_DASHED3
 62
     3
370
     9
100
AcDbLine
 10
293.7224516997466
 20
-350.3021900073902
 30
0.0
 11
293.7224516997466
 21
-344.0523549672719
 31
0.0
  0
LINE
  5
132
330
1F
100
AcDbEntity
  8
0-4
  6
Continuous
 62
     7
370
     9
100
AcDbLine
 10
-535.4811797270904
 20
-157.0242227090371
 30
0.0
 11
-270.2170294684332
 21
-157.0242227090371
 31
0.0
  0
LINE
  5
133
330
1F
100
AcDbEntity
  8
0-4
  6
Continuous
 62
     7
370
     9
100
AcDbLine
 10
-539.797272553315
 20
304.6391007706926
 30
0.0
 11
-289.7973137932854
 21
304.6391007706926
 31
0.0
  0
LINE
  5
134
330
1F
100
AcDbEntity
  8
0-4
  6
Continuous
 62
     7
370
     9
100
AcDbLine
 10
-539.797272553315
 20
236.0013353502428
 30
0.0
 11
-539.797272553315
 21
306.1390809755068
 31
0.0
  0
LINE
  5
135
330
1F
100
AcDbEntity
  8
0-4
  6
Continuous
 62
     7
370
     9
100
AcDbLine
 10
-289.7973137932854
 20
236.0013353502428
 30
0.0
 11
-289.7973137932854
 21
306.1390809755068
 31
0.0
  0
LINE
  5
136
330
1F
100
AcDbEntity
  8
0-4
  6
Continuous
 62
     7
370
     9
100
AcDbLine
 10
-564.7972622433224
 20
339.756131558805
 30
0.0
 11
-264.7972931733003
 21
339.756131558805
 31
0.0
  0
LINE
  5
137
330
1F
100
AcDbEntity
  8
0-4
  6
Continuous
 62
     7
370
     9
100
AcDbLine
 10
-564.7972622433224
 20
255.1560850401182
 30
0.0
 11
-564.7972622433224
 21
341.2561117636192
 31
0.0
  0
LINE
  5
138
330
1F
100
AcDbEntity
  8
0-4
  6
Continuous
 62
     7
370
     9
100
AcDbLine
 10
-264.7972931733003
 20
255.1560850401182
 30
0.0
 11
-264.7972931733003
 21
341.2561117636192
 31
0.0
  0
LINE
  5
139
330
1F
100
AcDbEntity
  8
0-4
  6
Continuous
 62
     7
370
     9
100
AcDbLine
 10
-577.7972556449272
 20
369.6702451963683
 30
0.0
 11
-251.7972997716954
 21
369.6702451963683
 31
0.0
  0
LINE
  5
13A
330
1F
100
AcDbEntity
  8
0-4
  6
Continuous
 62
     7
370
     9
100
AcDbLine
 10
-577.7972556449272
 20
267.410975275813
 30
0.0
 11
-577.7972556449272
 21
371.1702254011826
 31
0.0
  0
LINE
  5
13B
330
1F
100
AcDbEntity
  8
0-4
  6
Continuous
 62
     7
370
     9
100
AcDbLine
 10
-251.7972997716954
 20
267.410975275813
 30
0.0
 11
-251.7972997716954
 21
371.1702254011826
 31
0.0
  0
LINE
  5
13C
330
1F
100
AcDbEntity
  8
0-4
  6
Continuous
 62
     7
370
     9
100
AcDbLine
 10
-622.7472047548035
 20
-28.31079019082551
 30
0.0
 11
-622.7472047548035
 21
221.689168569204
 31
0.0
  0
LINE
  5
13D
330
1F
100
AcDbEntity
  8
0-4
  6
Continuous
 62
     7
370
     9
100
AcDbLine
 10
-554.1094393343539
 20
-28.31079019082551
 30
0.0
 11
-624.2471849596178
 21
-28.31079019082551
 31
0.0
  0
LINE
  5
13E
330
1F
100
AcDbEntity
  8
0-4
  6
Continuous
 62
     7
370
     9
100
AcDbLine
 10
-554.1094393343539
 20
221.689168569204
 30
0.0
 11
-624.2471849596178
 21
221.689168569204
 31
0.0
  0
LINE
  5
13F
330
1F
100
AcDbEntity
  8
0-4
  6
Continuous
 62
     7
370
     9
100
AcDbLine
 10
-657.8642355429158
 20
-53.31081081081081
 30
0.0
 11
-657.8642355429158
 21
246.6891891891892
 31
0.0
  0
LINE
  5
140
330
1F
100
AcDbEntity
  8
0-4
  6
Continuous
 62
     7
370
     9
100
AcDbLine
 10
-573.2641890242293
 20
-53.31081081081081
 30
0.0
 11
-659.3642157477302
 21
-53.31081081081081
 31
0.0
  0
LINE
  5
141
330
1F
100
AcDbEntity
  8
0-4
  6
Continuous
 62
     7
370
     9
100
AcDbLine
 10
-573.2641890242293
 20
246.6891891891892
 30
0.0
 11
-659.3642157477302
 21
246.6891891891892
 31
0.0
  0
LINE
  5
142
330
1F
100
AcDbEntity
  8
0-4
  6
Continuous
 62
     7
370
     9
100
AcDbLine
 10
-687.7782873205238
 20
-66.31080421241549
 30
0.0
 11
-687.7782873205238
 21
259.689182590794
 31
0.0
  0
LINE
  5
143
330
1F
100
AcDbEntity
  8
0-4
  6
Continuous
 62
     7
370
     9
100
AcDbLine
 10
-585.519079259924
 20
-66.31080421241549
 30
0.0
 11
-689.2782675253377
 21
-66.31080421241549
 31
0.0
  0
LINE
  5
144
330
1F
100
AcDbEntity
  8
0-4
  6
Continuous
 62
     7
370
     9
100
AcDbLine
 10
-585.519079259924
 20
259.689182590794
 30
0.0
 11
-689.2782675253377
 21
259.689182590794
 31
0.0
  0
LINE
  5
145
330
1F
100
AcDbEntity
  8
D-4
  6
Continuous
 62
     7
370
     9
100
AcDbLine
 10
121.47216796875
 20
302.9532932590794
 30
0.0
 11
121.47216796875
 21
386.5389602248733
 31
0.0
  0
LINE
  5
146
330
1F
100
AcDbEntity
  8
D-4
  6
Continuous
 62
     7
370
     9
100
AcDbLine
 10
146.8611021299621
 20
347.2889420792864
 30
0.0
 11
119.9721877639358
 21
347.2889420792864
 31
0.0
  0
LINE
  5
147
330
1F
100
AcDbEntity
  8
D-4
  6
Continuous
 62
     7
370
     9
100
AcDbLine
 10
146.8611021299621
 20
355.2889189849029
 30
0.0
 11
119.9721877639358
 21
355.2889189849029
 31
0.0
  0
LINE
  5
148
330
1F
100
AcDbEntity
  8
D-4
  6
Continuous
 62
     7
370
     9
100
AcDbLine
 10
146.8611021299621
 20
386.5389602248733
 30
0.0
 11
119.9721877639358
 21
386.5389602248733
 31
0.0
  0
LINE
  5
149
330
1F
100
AcDbEntity
  8
D-4
  6
Continuous
 62
     7
370
     9
100
AcDbLine
 10
362.640380859375
 20
286.5390014648438
 30
0.0
 11
362.640380859375
 21
391.5389767208616
 31
0.0
  0
LINE
  5
14A
330
1F
100
AcDbEntity
  8
D-4
  6
Continuous
 62
     7
370
     9
100
AcDbLine
 10
395.2252362225508
 20
286.5390014648438
 30
0.0
 11
361.1404006545609
 21
286.5390014648438
 31
0.0
  0
LINE
  5
14B
330
1F
100
AcDbEntity
  8
D-4
  6
Continuous
 62
     7
370
     9
100
AcDbLine
 10
155.7625023094384
 20
459.5742880331504
 30
0.0
 11
494.9647645692568
 21
459.5742880331504
 31
0.0
  0
LINE
  5
14C
330
1F
100
AcDbEntity
  8
D-4
  6
Continuous
 62
     7
370
     9
100
AcDbLine
 10
462.4645336254224
 20
397.760851061022
 30
0.0
 11
462.4645336254224
 21
461.0742682379646
 31
0.0
  0
LINE
  5
14D
330
1F
100
AcDbEntity
  8
D-4
  6
Continuous
 62
     7
370
     9
100
AcDbLine
 10
464.9646655933279
 20
397.760851061022
 30
0.0
 11
464.9646655933279
 21
461.0742682379646
 31
0.0
  0
LINE
  5
14E
330
1F
100
AcDbEntity
  8
D-4
  6
Continuous
 62
     7
370
     9
100
AcDbLine
 10
494.9647645692568
 20
397.760851061022
 30
0.0
 11
494.9647645692568
 21
496.5370961782095
 31
0.0
  0
LINE
  5
14F
330
1F
100
AcDbEntity
  8
D-4
  6
Continuous
 62
     7
370
     9
100
AcDbLine
 10
155.7625023094384
 20
495.0371159733953
 30
0.0
 11
494.9647645692568
 21
495.0371159733953
 31
0.0
  0
LINE
  5
150
330
1F
100
AcDbEntity
  8
D-4
  6
Continuous
 62
     7
370
     9
100
AcDbLine
 10
155.7625023094384
 20
196.0526708654456
 30
0.0
 11
482.4643521695523
 21
196.0526708654456
 31
0.0
  0
LINE
  5
151
330
1F
100
AcDbEntity
  8
D-4
  6
Continuous
 62
     7
370
     9
100
AcDbLine
 10
399.9645748653927
 20
196.0526708654456
 30
0.0
 11
399.9645748653927
 21
194.5526906606314
 31
0.0
  0
LINE
  5
152
330
1F
100
AcDbEntity
  8
D-4
  6
Continuous
 62
     7
370
     9
100
AcDbLine
 10
573.9083367425044
 20
286.5390014648438
 30
0.0
 11
573.9083367425044
 21
412.937572582348
 31
0.0
  0
LINE
  5
153
330
1F
100
AcDbEntity
  8
D-4
  6
Continuous
 62
     7
370
     9
100
AcDbLine
 10
486.3972844304266
 20
286.5390014648438
 30
0.0
 11
575.4083169473186
 21
286.5390014648438
 31
0.0
  0
LINE
  5
154
330
1F
100
AcDbEntity
  8
D-4
  6
Continuous
 62
     7
370
     9
100
AcDbLine
 10
501.9034720755914
 20
391.5389767208616
 30
0.0
 11
575.4083169473186
 21
391.5389767208616
 31
0.0
  0
LINE
  5
155
330
1F
100
AcDbEntity
  8
D-6
  6
Continuous
 62
     6
370
     5
100
AcDbLine
 10
487.4644923854518
 20
242.7890427048142
 30
0.0
 11
561.5970920872044
 21
316.9216424065668
 31
0.0
  0
LINE
  5
156
330
1F
100
AcDbEntity
  8
D-6
  6
Continuous
 62
     6
370
     5
100
AcDbLine
 10
584.5395887220229
 20
339.8641390413852
 30
0.0
 11
599.9644923854519
 21
355.2890427048142
 31
0.0
  0
LINE
  5
157
330
1F
100
AcDbEntity
  8
D-4
  6
Continuous
 62
     7
370
     9
100
AcDbLine
 10
456.0418618691935
 20
391.5389767208616
 30
0.0
 11
361.1404006545609
 21
391.5389767208616
 31
0.0
  0
LINE
  5
158
330
1F
100
AcDbEntity
  8
D-6
  6
Continuous
 62
     6
370
     5
100
AcDbLine
 10
399.9645748653927
 20
249.5943801467483
 30
0.0
 11
429.5867095122466
 21
219.9722454998945
 31
0.0
  0
LINE
  5
159
330
1F
100
AcDbEntity
  8
D-6
  6
Continuous
 62
     6
370
     5
100
AcDbLine
 10
432.8461105759081
 20
241.7129269161741
 30
0.0
 11
454.5867919921875
 21
219.9722454998945
 31
0.0
  0
LINE
  5
15A
330
1F
100
AcDbEntity
  8
D-6
  6
Continuous
 62
     6
370
     5
100
AcDbLine
 10
399.9645748653927
 20
224.5944213867188
 30
0.0
 11
420.0581731023016
 21
204.5007612898543
 31
0.0
  0
LINE
  5
15B
330
1F
100
AcDbEntity
  8
D-6
  6
Continuous
 62
     6
370
     5
100
AcDbLine
 10
433.2040322793497
 20
191.3549021128063
 30
0.0
 11
463.0200360272383
 21
161.5389602248733
 31
0.0
  0
LINE
  5
15C
330
1F
100
AcDbEntity
  8
D-6
  6
Continuous
 62
     6
370
     5
100
AcDbLine
 10
463.0200360272383
 20
286.5390014648438
 30
0.0
 11
487.4644923854518
 21
262.0944213867188
 31
0.0
  0
LINE
  5
15D
330
1F
100
AcDbEntity
  8
D-6
  6
Continuous
 62
     6
370
     5
100
AcDbLine
 10
438.0200772672086
 20
286.5390014648438
 30
0.0
 11
487.4644923854518
 21
237.0944626266892
 31
0.0
  0
LINE
  5
15E
330
1F
100
AcDbEntity
  8
D-6
  6
Continuous
 62
     6
370
     5
100
AcDbLine
 10
437.5895319758234
 20
261.969464276288
 30
0.0
 11
487.4644923854518
 21
212.0943801467483
 31
0.0
  0
LINE
  5
15F
330
1F
100
AcDbEntity
  8
D-6
  6
Continuous
 62
     6
370
     5
100
AcDbLine
 10
459.8044318121833
 20
214.7546056798987
 30
0.0
 11
487.4644923854518
 21
187.0945451066301
 31
0.0
  0
LINE
  5
160
330
1F
100
AcDbEntity
  8
D-6
  6
Continuous
 62
     6
370
     5
100
AcDbLine
 10
458.2039910393794
 20
191.3549021128063
 30
0.0
 11
487.4644923854518
 21
162.0944626266892
 31
0.0
  0
LINE
  5
161
330
1F
100
AcDbEntity
  8
D-6
  6
Continuous
 62
     6
370
     5
100
AcDbLine
 10
482.464599609375
 20
286.5390014648438
 30
0.0
 11
487.4644923854518
 21
286.5390014648438
 31
0.0
  0
LINE
  5
162
330
1F
100
AcDbEntity
  8
D-4
  6
Continuous
 62
     7
370
     9
100
AcDbLine
 10
482.4643521695523
 20
283.1677576013515
 30
0.0
 11
482.4643521695523
 21
194.5526906606314
 31
0.0
  0
LINE
  5
163
330
1F
100
AcDbEntity
  8
D-6
  6
Continuous
 62
     6
370
     5
100
AcDbLine
 10
487.4644923854518
 20
161.5389602248733
 30
0.0
 11
487.4644923854518
 21
386.5389602248733
 31
0.0
  0
LINE
  5
164
330
1F
100
AcDbEntity
  8
D-6
  6
Continuous
 62
     6
370
     5
100
AcDbLine
 10
487.4644923854518
 20
380.2890014648438
 30
0.0
 11
685.51025390625
 21
380.2890014648438
 31
0.0
  0
LINE
  5
165
330
1F
100
AcDbEntity
  8
D-6
  6
Continuous
 62
     6
370
     5
100
AcDbLine
 10
487.4644923854518
 20
374.0390427048142
 30
0.0
 11
685.51025390625
 21
374.0390427048142
 31
0.0
  0
LINE
  5
166
330
1F
100
AcDbEntity
  8
D-6
  6
Continuous
 62
     6
370
     5
100
AcDbLine
 10
487.4644923854518
 20
367.7889602248733
 30
0.0
 11
685.51025390625
 21
367.7889602248733
 31
0.0
  0
LINE
  5
167
330
1F
100
AcDbEntity
  8
D-6
  6
Continuous
 62
     6
370
     5
100
AcDbLine
 10
487.4644923854518
 20
361.5390014648438
 30
0.0
 11
685.51025390625
 21
361.5390014648438
 31
0.0
  0
LINE
  5
168
330
1F
100
AcDbEntity
  8
D-6
  6
Continuous
 62
     6
370
     5
100
AcDbLine
 10
487.4644923854518
 20
355.2890427048142
 30
0.0
 11
685.51025390625
 21
355.2890427048142
 31
0.0
  0
LINE
  5
169
330
1F
100
AcDbEntity
  8
D-6
  6
Continuous
 62
     6
370
     5
100
AcDbLine
 10
487.4644923854518
 20
386.5389602248733
 30
0.0
 11
685.51025390625
 21
386.5389602248733
 31
0.0
  0
ARC
  5
16A
330
1F
100
AcDbEntity
  8
D-4
  6
Continuous
 62
     7
370
     9
100
AcDbCircle
 10
432.4645583694047
 20
300.1898853198902
 30
0.0
 40
9.849138195450243
100
AcDbArc
 50
15.30130004882812
 51
164.6986846923828
  0
ARC
  5
16B
330
1F
100
AcDbEntity
  8
0-2
  6
Continuous
 62
     3
370
     9
100
AcDbCircle
 10
-414.797169453389
 20
96.31023510082358
 30
0.0
 40
12.0000020877735
100
AcDbArc
 50
120.0000457763672
 51
240.0000152587891
  0
ARC
  5
16C
330
1F
100
AcDbEntity
  8
0-2
  6
Continuous
 62
     3
370
     9
100
AcDbCircle
 10
-414.797169453389
 20
96.31023510082358
 30
0.0
 40
12.0000020877735
100
AcDbArc
 50
299.9999542236328
 51
60.00003051757815
  0
ARC
  5
16D
330
1F
100
AcDbEntity
  8
D-1
  6
Continuous
 62
     2
370
     9
100
AcDbCircle
 10
454.339599609375
 20
315.2889107369089
 30
0.0
 40
2.499999790578275
100
AcDbArc
 50
90.0
 51
180.0
  0
ARC
  5
16E
330
1F
100
AcDbEntity
  8
D-1
  6
Continuous
 62
     2
370
     9
100
AcDbCircle
 10
462.4645336254224
 20
315.2889107369089
 30
0.0
 40
2.499999790578275
100
AcDbArc
 50
7.016464233398438
 51
90.0
  0
ARC
  5
16F
330
1F
100
AcDbEntity
  8
D-1
  6
Continuous
 62
     2
370
     9
100
AcDbCircle
 10
462.4645336254224
 20
292.7889602248733
 30
0.0
 40
2.499999790578275
100
AcDbArc
 50
270.0
 51
0.0
  0
ARC
  5
170
330
1F
100
AcDbEntity
  8
D-1
  6
Continuous
 62
     2
370
     9
100
AcDbCircle
 10
448.0897645692568
 20
292.7889602248733
 30
0.0
 40
2.499999790578275
100
AcDbArc
 50
180.0
 51
270.0
  0
ARC
  5
171
330
1F
100
AcDbEntity
  8
D-1
  6
Continuous
 62
     2
370
     9
100
AcDbCircle
 10
416.839599609375
 20
292.7889602248733
 30
0.0
 40
2.499999790578275
100
AcDbArc
 50
270.0
 51
0.0
  0
ARC
  5
172
330
1F
100
AcDbEntity
  8
D-1
  6
Continuous
 62
     2
370
     9
100
AcDbCircle
 10
406.2145336254224
 20
292.7889602248733
 30
0.0
 40
2.499999790578275
100
AcDbArc
 50
180.0
 51
270.0
  0
ARC
  5
173
330
1F
100
AcDbEntity
  8
D-1
  6
Continuous
 62
     2
370
     9
100
AcDbCircle
 10
406.2145336254224
 20
315.2889107369089
 30
0.0
 40
2.499999790578275
100
AcDbArc
 50
90.0
 51
180.0
  0
ARC
  5
174
330
1F
100
AcDbEntity
  8
D-1
  6
Continuous
 62
     2
370
     9
100
AcDbCircle
 10
410.5897645692568
 20
315.2889107369089
 30
0.0
 40
2.499999790578275
100
AcDbArc
 50
7.016464233398438
 51
90.0
  0
ARC
  5
175
330
1F
100
AcDbEntity
  8
D-1
  6
Continuous
 62
     2
370
     9
100
AcDbCircle
 10
445.5896326013513
 20
305.2890014648438
 30
0.0
 40
2.499999790578275
100
AcDbArc
 50
270.0
 51
0.0
  0
ARC
  5
176
330
1F
100
AcDbEntity
  8
D-1
  6
Continuous
 62
     2
370
     9
100
AcDbCircle
 10
419.3394841374578
 20
305.2890014648438
 30
0.0
 40
2.499999790578275
100
AcDbArc
 50
180.0
 51
270.0
  0
ARC
  5
177
330
1F
100
AcDbEntity
  8
D-1
  6
Continuous
 62
     2
370
     9
100
AcDbCircle
 10
445.5896326013513
 20
305.2890014648438
 30
0.0
 40
6.250000322187269
100
AcDbArc
 50
270.0
 51
0.0
  0
ARC
  5
178
330
1F
100
AcDbEntity
  8
D-1
  6
Continuous
 62
     2
370
     9
100
AcDbCircle
 10
419.3394841374578
 20
305.2890014648438
 30
0.0
 40
6.250000322187269
100
AcDbArc
 50
180.0
 51
270.0
  0
ARC
  5
179
330
1F
100
AcDbEntity
  8
D-1
  6
Continuous
 62
     2
370
     9
100
AcDbCircle
 10
432.4646820893159
 20
349.0389602248733
 30
0.0
 40
35.79455195246516
100
AcDbArc
 50
257.9052581787109
 51
282.0947265625
  0
ARC
  5
17A
330
1F
100
AcDbEntity
  8
D-1
  6
Continuous
 62
     2
370
     9
100
AcDbCircle
 10
432.4646820893159
 20
349.0389602248733
 30
0.0
 40
37.83683519105654
100
AcDbArc
 50
248.690673828125
 51
291.3093109130859
  0
ARC
  5
17B
330
1F
100
AcDbEntity
  8
D-0
  6
JWW_DASHED3
 62
     3
370
     9
100
AcDbCircle
 10
187.2223725190034
 20
-337.802272487331
 30
0.0
 40
6.250000322187269
100
AcDbArc
 50
180.0
 51
270.0
  0
ARC
  5
17C
330
1F
100
AcDbEntity
  8
D-0
  6
JWW_DASHED3
 62
     3
370
     9
100
AcDbCircle
 10
350.2226133604307
 20
-337.802272487331
 30
0.0
 40
6.250000322187269
100
AcDbArc
 50
270.0
 51
0.0
  0
ARC
  5
17D
330
1F
100
AcDbEntity
  8
D-0
  6
Continuous
 62
     3
370
     9
100
AcDbCircle
 10
155.9727024387669
 20
-321.3022427945523
 30
0.0
 40
2.249999787356403
100
AcDbArc
 50
90.0
 51
180.0
  0
ARC
  5
17E
330
1F
100
AcDbEntity
  8
D-0
  6
Continuous
 62
     3
370
     9
100
AcDbCircle
 10
381.472902040224
 20
-321.3022427945523
 30
0.0
 40
2.249999787356403
100
AcDbArc
 50
0.0
 51
90.0
  0
ARC
  5
17F
330
1F
100
AcDbEntity
  8
D-0
  6
JWW_DASHED3
 62
     3
370
     9
100
AcDbCircle
 10
361.0203923405828
 20
-327.8022394953547
 30
0.0
 40
1.249999895289138
100
AcDbArc
 50
90.0
 51
163.8992004394532
  0
ARC
  5
180
330
1F
100
AcDbEntity
  8
D-0
  6
JWW_DASHED3
 62
     3
370
     9
100
AcDbCircle
 10
176.4240986592061
 20
-327.8022394953547
 30
0.0
 40
1.249999895289138
100
AcDbArc
 50
16.10079956054688
 51
90.0
  0
ARC
  5
181
330
1F
100
AcDbEntity
  8
D-0
  6
Continuous
 62
     3
370
     9
100
AcDbCircle
 10
158.7225011877112
 20
-71.55281685494089
 30
0.0
 40
5.000000064437454
100
AcDbArc
 50
90.0
 51
180.0
  0
ARC
  5
182
330
1F
100
AcDbEntity
  8
D-0
  6
Continuous
 62
     3
370
     9
100
AcDbCircle
 10
378.7224846917229
 20
-71.55281685494089
 30
0.0
 40
5.000000064437454
100
AcDbArc
 50
0.0
 51
90.0
  0
ARC
  5
183
330
1F
100
AcDbEntity
  8
D-0
  6
Continuous
 62
     3
370
     9
100
AcDbCircle
 10
378.7224846917229
 20
-149.0529488228462
 30
0.0
 40
5.000000064437454
100
AcDbArc
 50
270.0
 51
0.0
  0
ARC
  5
184
330
1F
100
AcDbEntity
  8
D-0
  6
Continuous
 62
     3
370
     9
100
AcDbCircle
 10
158.7225011877112
 20
-149.0529488228462
 30
0.0
 40
5.000000064437454
100
AcDbArc
 50
180.0
 51
270.0
  0
ARC
  5
185
330
1F
100
AcDbEntity
  8
D-0
  6
Continuous
 62
     3
370
     9
100
AcDbCircle
 10
192.7224648965372
 20
-100.5530115076013
 30
0.0
 40
5.5000000708812
100
AcDbArc
 50
90.0
 51
180.0
  0
ARC
  5
186
330
1F
100
AcDbEntity
  8
D-0
  6
Continuous
 62
     3
370
     9
100
AcDbCircle
 10
192.7224648965372
 20
-120.0530016100084
 30
0.0
 40
5.5000000708812
100
AcDbArc
 50
180.0
 51
270.0
  0
ARC
  5
187
330
1F
100
AcDbEntity
  8
D-0
  6
Continuous
 62
     3
370
     9
100
AcDbCircle
 10
344.7225209828972
 20
-100.5530115076013
 30
0.0
 40
5.5000000708812
100
AcDbArc
 50
0.0
 51
90.0
  0
ARC
  5
188
330
1F
100
AcDbEntity
  8
D-0
  6
Continuous
 62
     3
370
     9
100
AcDbCircle
 10
344.7225209828972
 20
-120.0530016100084
 30
0.0
 40
5.5000000708812
100
AcDbArc
 50
270.0
 51
0.0
  0
ARC
  5
189
330
1F
100
AcDbEntity
  8
D-0
  6
Continuous
 62
     3
370
     9
100
AcDbCircle
 10
231.2224929397172
 20
-441.5524291992188
 30
0.0
 40
2.500000032218727
100
AcDbArc
 50
180.0
 51
270.0
  0
ARC
  5
18A
330
1F
100
AcDbEntity
  8
D-0
  6
Continuous
 62
     3
370
     9
100
AcDbCircle
 10
306.2224929397172
 20
-441.5524291992188
 30
0.0
 40
2.500000032218727
100
AcDbArc
 50
270.0
 51
0.0
  0
ARC
  5
18B
330
1F
100
AcDbEntity
  8
D-0
  6
Continuous
 62
     3
370
     9
100
AcDbCircle
 10
236.2225094357052
 20
-362.8024786871833
 30
0.0
 40
7.500000096656181
100
AcDbArc
 50
292.0240478515625
 51
0.0000000000000382
  0
ARC
  5
18C
330
1F
100
AcDbEntity
  8
D-0
  6
Continuous
 62
     3
370
     9
100
AcDbCircle
 10
243.7225341796875
 20
-381.3428971574114
 30
0.0
 40
12.50000064437454
100
AcDbArc
 50
112.0243377685547
 51
180.0
  0
ARC
  5
18D
330
1F
100
AcDbEntity
  8
D-0
  6
Continuous
 62
     3
370
     9
100
AcDbCircle
 10
293.7224516997466
 20
-381.3428971574114
 30
0.0
 40
12.50000064437454
100
AcDbArc
 50
0.0
 51
67.9756622314453
  0
ARC
  5
18E
330
1F
100
AcDbEntity
  8
D-0
  6
Continuous
 62
     3
370
     9
100
AcDbCircle
 10
301.2224764437289
 20
-362.8024786871833
 30
0.0
 40
7.500000096656181
100
AcDbArc
 50
180.0
 51
247.9759521484375
  0
ARC
  5
18F
330
1F
100
AcDbEntity
  8
D-0
  6
Continuous
 62
     3
370
     9
100
AcDbCircle
 10
268.7224929397172
 20
-110.3028828388936
 30
0.0
 40
32.49999896900074
100
AcDbArc
 50
207.9842987060547
 51
332.0157012939453
  0
ARC
  5
190
330
1F
100
AcDbEntity
  8
D-0
  6
Continuous
 62
     3
370
     9
100
AcDbCircle
 10
268.7224929397172
 20
-110.3028828388936
 30
0.0
 40
32.49999896900074
100
AcDbArc
 50
27.98429870605469
 51
152.0157012939453
  0
ARC
  5
191
330
1F
100
AcDbEntity
  8
D-0
  6
JWW_PHANTOM1
 62
     3
370
     9
100
AcDbCircle
 10
236.2225094357052
 20
-269.0523549672719
 30
0.0
 40
7.500000096656181
100
AcDbArc
 50
0.0
 51
90.0
  0
ARC
  5
192
330
1F
100
AcDbEntity
  8
D-0
  6
JWW_PHANTOM1
 62
     3
370
     9
100
AcDbCircle
 10
301.2224764437289
 20
-269.0523549672719
 30
0.0
 40
7.500000096656181
100
AcDbArc
 50
90.0
 51
180.0
  0
ARC
  5
193
330
1F
100
AcDbEntity
  8
D-0
  6
JWW_PHANTOM1
 62
     3
370
     9
100
AcDbCircle
 10
301.2224764437289
 20
-286.5522889833192
 30
0.0
 40
7.500000096656181
100
AcDbArc
 50
180.0
 51
247.9759521484375
  0
ARC
  5
194
330
1F
100
AcDbEntity
  8
D-0
  6
JWW_PHANTOM1
 62
     3
370
     9
100
AcDbCircle
 10
293.7226991395693
 20
-305.0928311734586
 30
0.0
 40
12.50000064437454
100
AcDbArc
 50
0.0
 51
67.97628784179688
  0
ARC
  5
195
330
1F
100
AcDbEntity
  8
D-0
  6
JWW_PHANTOM1
 62
     3
370
     9
100
AcDbCircle
 10
236.2225094357052
 20
-286.5522889833192
 30
0.0
 40
7.500000096656181
100
AcDbArc
 50
292.0240478515625
 51
0.0000000000000382
  0
ARC
  5
196
330
1F
100
AcDbEntity
  8
D-0
  6
JWW_PHANTOM1
 62
     3
370
     9
100
AcDbCircle
 10
243.7224104597763
 20
-305.0928311734586
 30
0.0
 40
12.50000064437454
100
AcDbArc
 50
112.0237121582031
 51
180.0
  0
TEXT
  5
197
330
1F
100
AcDbEntity
  8
D-4
  6
Continuous
 62
     2
370
     9
100
AcDbText
 10
255.1844746357686
 20
73.67647170608112
 30
0.0
 40
15.24
  1
断面詳細図　Ｓ＝１：２
 41
1.113636363636364
  7
ＭＳ ゴシック
100
AcDbText
  0
TEXT
  5
198
330
1F
100
AcDbEntity
  8
D-0
  6
Continuous
 62
     2
370
     9
100
AcDbText
 10
149.2907467403928
 20
-519.822170674092
 30
0.0
 40
15.24
  1
把手詳細図　Ｓ＝１：２
 41
1.113636363636364
  7
ＭＳ ゴシック
100
AcDbText
  0
TEXT
  5
199
330
1F
100
AcDbEntity
  8
0-4
  6
Continuous
 62
     2
370
     9
100
AcDbText
 10
-525.9173810804213
 20
-150.8442373574746
 30
0.0
 40
15.24
  1
平面詳細図　Ｓ＝１：５
 41
1.113636363636364
  7
ＭＳ ゴシック
100
AcDbText
  0
TEXT
  5
19A
330
1F
100
AcDbEntity
  8
0-4
  6
Continuous
 62
     2
370
     9
100
AcDbText
 10
-431.0472931733002
 20
309.9591090186867
 30
0.0
 40
15.24
  1
250
 41
1.083333333333333
  7
ＭＳ ゴシック
100
AcDbText
  0
TEXT
  5
19B
330
1F
100
AcDbEntity
  8
0-4
  6
Continuous
 62
     2
370
     9
100
AcDbText
 10
-431.0472931733002
 20
345.0761398067991
 30
0.0
 40
15.24
  1
300
 41
1.083333333333333
  7
ＭＳ ゴシック
100
AcDbText
  0
TEXT
  5
19C
330
1F
100
AcDbEntity
  8
0-4
  6
Continuous
 62
     2
370
     9
100
AcDbText
 10
-431.0472931733002
 20
374.990129724451
 30
0.0
 40
15.24
  1
326
 41
1.083333333333333
  7
ＭＳ ゴシック
100
AcDbText
  0
TEXT
  5
19D
330
1F
100
AcDbEntity
  8
0-4
  6
Continuous
 62
     2
370
     9
100
AcDbText
 10
-628.0672130027978
 20
80.43918918918926
 30
0.0
 40
15.24
  1
250
 50
90.0
 41
1.083333333333333
  7
ＭＳ ゴシック
100
AcDbText
  0
TEXT
  5
19E
330
1F
100
AcDbEntity
  8
0-4
  6
Continuous
 62
     2
370
     9
100
AcDbText
 10
-663.18424379091
 20
80.43918918918926
 30
0.0
 40
15.24
  1
300
 50
90.0
 41
1.083333333333333
  7
ＭＳ ゴシック
100
AcDbText
  0
TEXT
  5
19F
330
1F
100
AcDbEntity
  8
0-4
  6
Continuous
 62
     2
370
     9
100
AcDbText
 10
-693.0982955685178
 20
80.43918918918926
 30
0.0
 40
15.24
  1
326
 50
90.0
 41
1.083333333333333
  7
ＭＳ ゴシック
100
AcDbText
  0
TEXT
  5
1A0
330
1F
100
AcDbEntity
  8
D-4
  6
Continuous
 62
     2
370
     9
100
AcDbText
 10
116.152159720756
 20
307.0145148199958
 30
0.0
 40
15.24
  1
3.2
 50
90.0
 41
1.083333333333333
  7
ＭＳ ゴシック
100
AcDbText
  0
TEXT
  5
1A1
330
1F
100
AcDbEntity
  8
D-4
  6
Continuous
 62
     2
370
     9
100
AcDbText
 10
116.152159720756
 20
349.0389396048881
 30
0.0
 40
15.24
  1
12.5
 50
90.0
 41
1.09375
  7
ＭＳ ゴシック
100
AcDbText
  0
TEXT
  5
1A2
330
1F
100
AcDbEntity
  8
D-4
  6
Continuous
 62
     2
370
     9
100
AcDbText
 10
357.320372611381
 20
318.5838235391154
 30
0.0
 40
15.24
  1
42
 50
90.0
 41
1.0625
  7
ＭＳ ゴシック
100
AcDbText
  0
TEXT
  5
1A3
330
1F
100
AcDbEntity
  8
D-4
  6
Continuous
 62
     2
370
     9
100
AcDbText
 10
447.9388427734376
 20
464.8942962811445
 30
0.0
 40
15.24
  1
1
 41
0.9999999999999998
  7
ＭＳ ゴシック
100
AcDbText
  0
TEXT
  5
1A4
330
1F
100
AcDbEntity
  8
D-4
  6
Continuous
 62
     2
370
     9
100
AcDbText
 10
469.339776941248
 20
464.8942962811445
 30
0.0
 40
15.24
  1
12
 41
1.0625
  7
ＭＳ ゴシック
100
AcDbText
  0
TEXT
  5
1A5
330
1F
100
AcDbEntity
  8
D-4
  6
Continuous
 62
     2
370
     9
100
AcDbText
 10
155.8785433382602
 20
464.8942962811445
 30
0.0
 40
15.24
  1
300
 41
1.083333333333333
  7
ＭＳ ゴシック
100
AcDbText
  0
TEXT
  5
1A6
330
1F
100
AcDbEntity
  8
D-4
  6
Continuous
 62
     2
370
     9
100
AcDbText
 10
156.5671683646538
 20
500.3571242213895
 30
0.0
 40
15.24
  1
326
 41
1.083333333333333
  7
ＭＳ ゴシック
100
AcDbText
  0
TEXT
  5
1A7
330
1F
100
AcDbEntity
  8
D-4
  6
Continuous
 62
     2
370
     9
100
AcDbText
 10
157.3166635874156
 20
201.3726791134397
 30
0.0
 40
15.24
  1
250
 41
1.083333333333333
  7
ＭＳ ゴシック
100
AcDbText
  0
TEXT
  5
1A8
330
1F
100
AcDbEntity
  8
D-4
  6
Continuous
 62
     2
370
     9
100
AcDbText
 10
568.5883284945102
 20
325.9139808448586
 30
0.0
 40
15.24
  1
40
 50
90.0
 41
1.0625
  7
ＭＳ ゴシック
100
AcDbText
  0
TEXT
  5
1A9
330
1F
100
AcDbEntity
  8
D-4
  6
Continuous
 62
     2
370
     9
100
AcDbText
 10
568.5883284945102
 20
398.1516987568624
 30
0.0
 40
15.24
  1
2
 50
90.0
 41
0.9999999999999998
  7
ＭＳ ゴシック
100
AcDbText
  0
TEXT
  5
1AA
330
1F
100
AcDbEntity
  8
D-4
  6
Continuous
 62
     7
370
     9
100
AcDbText
 10
449.6967418773755
 20
28.94555568385768
 30
0.0
 40
11.43
  1
処理：陽極酸化塗装複合皮膜処理（アルミ材のみ）
 41
1.159420289855073
  7
ＭＳ ゴシック
100
AcDbText
  0
TEXT
  5
1AB
330
1F
100
AcDbEntity
  8
D-4
  6
Continuous
 62
     2
370
     9
100
AcDbText
 10
430.5894635174727
 20
201.3726791134397
 30
0.0
 40
15.24
  1
33
 41
1.0625
  7
ＭＳ ゴシック
100
AcDbText
  0
LWPOLYLINE
  5
1AC
330
1F
100
AcDbEntity
  8
0-4
  6
Continuous
 62
     7
370
     9
100
AcDbPolyline
 90
        4
 70
     1
 43
0.5
 10
-539.547272553315
 20
304.6391007706926
 42
0.4142135623731
 10
-539.797272553315
 20
304.8891007706926
 42
0.4142135623731
 10
-540.047272553315
 20
304.6391007706926
 42
0.4142135623731
 10
-539.797272553315
 20
304.3891007706926
 42
0.4142135623731
  0
LWPOLYLINE
  5
1AD
330
1F
100
AcDbEntity
  8
0-4
  6
Continuous
 62
     7
370
     9
100
AcDbPolyline
 90
        4
 70
     1
 43
0.5
 10
-289.5473137932854
 20
304.6391007706926
 42
0.4142135623731
 10
-289.7973137932854
 20
304.8891007706926
 42
0.4142135623731
 10
-290.0473137932854
 20
304.6391007706926
 42
0.4142135623731
 10
-289.7973137932854
 20
304.3891007706926
 42
0.4142135623731
  0
LWPOLYLINE
  5
1AE
330
1F
100
AcDbEntity
  8
0-4
  6
Continuous
 62
     7
370
     9
100
AcDbPolyline
 90
        4
 70
     1
 43
0.5
 10
-564.5472622433224
 20
339.756131558805
 42
0.4142135623731
 10
-564.7972622433224
 20
340.006131558805
 42
0.4142135623731
 10
-565.0472622433224
 20
339.756131558805
 42
0.4142135623731
 10
-564.7972622433224
 20
339.506131558805
 42
0.4142135623731
  0
LWPOLYLINE
  5
1AF
330
1F
100
AcDbEntity
  8
0-4
  6
Continuous
 62
     7
370
     9
100
AcDbPolyline
 90
        4
 70
     1
 43
0.5
 10
-264.5472931733003
 20
339.756131558805
 42
0.4142135623731
 10
-264.7972931733003
 20
340.006131558805
 42
0.4142135623731
 10
-265.0472931733003
 20
339.756131558805
 42
0.4142135623731
 10
-264.7972931733003
 20
339.506131558805
 42
0.4142135623731
  0
LWPOLYLINE
  5
1B0
330
1F
100
AcDbEntity
  8
0-4
  6
Continuous
 62
     7
370
     9
100
AcDbPolyline
 90
        4
 70
     1
 43
0.5
 10
-577.5472556449272
 20
369.6702451963683
 42
0.4142135623731
 10
-577.7972556449272
 20
369.9202451963683
 42
0.4142135623731
 10
-578.0472556449272
 20
369.6702451963683
 42
0.4142135623731
 10
-577.7972556449272
 20
369.4202451963684
 42
0.4142135623731
  0
LWPOLYLINE
  5
1B1
330
1F
100
AcDbEntity
  8
0-4
  6
Continuous
 62
     7
370
     9
100
AcDbPolyline
 90
        4
 70
     1
 43
0.5
 10
-251.5472997716955
 20
369.6702451963683
 42
0.4142135623731
 10
-251.7972997716954
 20
369.9202451963683
 42
0.4142135623731
 10
-252.0472997716954
 20
369.6702451963683
 42
0.4142135623731
 10
-251.7972997716954
 20
369.4202451963684
 42
0.4142135623731
  0
LWPOLYLINE
  5
1B2
330
1F
100
AcDbEntity
  8
0-4
  6
Continuous
 62
     7
370
     9
100
AcDbPolyline
 90
        4
 70
     1
 43
0.5
 10
-622.4972047548035
 20
-28.31079019082551
 42
0.4142135623731
 10
-622.7472047548035
 20
-28.06079019082551
 42
0.4142135623731
 10
-622.9972047548035
 20
-28.31079019082551
 42
0.4142135623731
 10
-622.7472047548035
 20
-28.56079019082551
 42
0.4142135623731
  0
LWPOLYLINE
  5
1B3
330
1F
100
AcDbEntity
  8
0-4
  6
Continuous
 62
     7
370
     9
100
AcDbPolyline
 90
        4
 70
     1
 43
0.5
 10
-622.4972047548035
 20
221.689168569204
 42
0.4142135623731
 10
-622.7472047548035
 20
221.939168569204
 42
0.4142135623731
 10
-622.9972047548035
 20
221.689168569204
 42
0.4142135623731
 10
-622.7472047548035
 20
221.4391685692041
 42
0.4142135623731
  0
LWPOLYLINE
  5
1B4
330
1F
100
AcDbEntity
  8
0-4
  6
Continuous
 62
     7
370
     9
100
AcDbPolyline
 90
        4
 70
     1
 43
0.5
 10
-657.6142355429158
 20
-53.31081081081081
 42
0.4142135623731
 10
-657.8642355429158
 20
-53.06081081081081
 42
0.4142135623731
 10
-658.1142355429159
 20
-53.31081081081081
 42
0.4142135623731
 10
-657.8642355429158
 20
-53.56081081081081
 42
0.4142135623731
  0
LWPOLYLINE
  5
1B5
330
1F
100
AcDbEntity
  8
0-4
  6
Continuous
 62
     7
370
     9
100
AcDbPolyline
 90
        4
 70
     1
 43
0.5
 10
-657.6142355429158
 20
246.6891891891892
 42
0.4142135623731
 10
-657.8642355429158
 20
246.9391891891892
 42
0.4142135623731
 10
-658.1142355429159
 20
246.6891891891892
 42
0.4142135623731
 10
-657.8642355429158
 20
246.4391891891892
 42
0.4142135623731
  0
LWPOLYLINE
  5
1B6
330
1F
100
AcDbEntity
  8
0-4
  6
Continuous
 62
     7
370
     9
100
AcDbPolyline
 90
        4
 70
     1
 43
0.5
 10
-687.5282873205236
 20
-66.31080421241549
 42
0.4142135623731
 10
-687.7782873205238
 20
-66.06080421241549
 42
0.4142135623731
 10
-688.0282873205238
 20
-66.31080421241549
 42
0.4142135623731
 10
-687.7782873205238
 20
-66.56080421241549
 42
0.4142135623731
  0
LWPOLYLINE
  5
1B7
330
1F
100
AcDbEntity
  8
0-4
  6
Continuous
 62
     7
370
     9
100
AcDbPolyline
 90
        4
 70
     1
 43
0.5
 10
-687.5282873205236
 20
259.689182590794
 42
0.4142135623731
 10
-687.7782873205238
 20
259.939182590794
 42
0.4142135623731
 10
-688.0282873205238
 20
259.689182590794
 42
0.4142135623731
 10
-687.7782873205238
 20
259.439182590794
 42
0.4142135623731
  0
LWPOLYLINE
  5
1B8
330
1F
100
AcDbEntity
  8
D-4
  6
Continuous
 62
     7
370
     9
100
AcDbPolyline
 90
        4
 70
     1
 43
0.5
 10
121.72216796875
 20
347.2889420792864
 42
0.4142135623731
 10
121.47216796875
 20
347.5389420792863
 42
0.4142135623731
 10
121.22216796875
 20
347.2889420792864
 42
0.4142135623731
 10
121.47216796875
 20
347.0389420792864
 42
0.4142135623731
  0
LWPOLYLINE
  5
1B9
330
1F
100
AcDbEntity
  8
D-4
  6
Continuous
 62
     7
370
     9
100
AcDbPolyline
 90
        4
 70
     1
 43
0.5
 10
121.72216796875
 20
355.2889189849029
 42
0.4142135623731
 10
121.47216796875
 20
355.5389189849029
 42
0.4142135623731
 10
121.22216796875
 20
355.2889189849029
 42
0.4142135623731
 10
121.47216796875
 20
355.0389189849029
 42
0.4142135623731
  0
LWPOLYLINE
  5
1BA
330
1F
100
AcDbEntity
  8
D-4
  6
Continuous
 62
     7
370
     9
100
AcDbPolyline
 90
        4
 70
     1
 43
0.5
 10
121.72216796875
 20
386.5389602248733
 42
0.4142135623731
 10
121.47216796875
 20
386.7889602248733
 42
0.4142135623731
 10
121.22216796875
 20
386.5389602248733
 42
0.4142135623731
 10
121.47216796875
 20
386.2889602248733
 42
0.4142135623731
  0
LWPOLYLINE
  5
1BB
330
1F
100
AcDbEntity
  8
D-4
  6
Continuous
 62
     7
370
     9
100
AcDbPolyline
 90
        4
 70
     1
 43
0.5
 10
362.890380859375
 20
286.5390014648438
 42
0.4142135623731
 10
362.640380859375
 20
286.7890014648438
 42
0.4142135623731
 10
362.390380859375
 20
286.5390014648438
 42
0.4142135623731
 10
362.640380859375
 20
286.2890014648438
 42
0.4142135623731
  0
LWPOLYLINE
  5
1BC
330
1F
100
AcDbEntity
  8
D-4
  6
Continuous
 62
     7
370
     9
100
AcDbPolyline
 90
        4
 70
     1
 43
0.5
 10
362.890380859375
 20
391.5389767208616
 42
0.4142135623731
 10
362.640380859375
 20
391.7889767208616
 42
0.4142135623731
 10
362.390380859375
 20
391.5389767208616
 42
0.4142135623731
 10
362.640380859375
 20
391.2889767208616
 42
0.4142135623731
  0
LWPOLYLINE
  5
1BD
330
1F
100
AcDbEntity
  8
D-4
  6
Continuous
 62
     7
370
     9
100
AcDbPolyline
 90
        4
 70
     1
 43
0.5
 10
462.7145336254224
 20
459.5742880331504
 42
0.4142135623731
 10
462.4645336254224
 20
459.8242880331504
 42
0.4142135623731
 10
462.2145336254224
 20
459.5742880331504
 42
0.4142135623731
 10
462.4645336254224
 20
459.3242880331504
 42
0.4142135623731
  0
LWPOLYLINE
  5
1BE
330
1F
100
AcDbEntity
  8
D-4
  6
Continuous
 62
     7
370
     9
100
AcDbPolyline
 90
        4
 70
     1
 43
0.5
 10
465.2146655933279
 20
459.5742880331504
 42
0.4142135623731
 10
464.9646655933279
 20
459.8242880331504
 42
0.4142135623731
 10
464.7146655933279
 20
459.5742880331504
 42
0.4142135623731
 10
464.9646655933279
 20
459.3242880331504
 42
0.4142135623731
  0
LWPOLYLINE
  5
1BF
330
1F
100
AcDbEntity
  8
D-4
  6
Continuous
 62
     7
370
     9
100
AcDbPolyline
 90
        4
 70
     1
 43
0.5
 10
495.2147645692568
 20
459.5742880331504
 42
0.4142135623731
 10
494.9647645692568
 20
459.8242880331504
 42
0.4142135623731
 10
494.7147645692568
 20
459.5742880331504
 42
0.4142135623731
 10
494.9647645692568
 20
459.3242880331504
 42
0.4142135623731
  0
LWPOLYLINE
  5
1C0
330
1F
100
AcDbEntity
  8
D-4
  6
Continuous
 62
     7
370
     9
100
AcDbPolyline
 90
        4
 70
     1
 43
0.5
 10
495.2147645692568
 20
495.0371159733953
 42
0.4142135623731
 10
494.9647645692568
 20
495.2871159733953
 42
0.4142135623731
 10
494.7147645692568
 20
495.0371159733953
 42
0.4142135623731
 10
494.9647645692568
 20
494.7871159733953
 42
0.4142135623731
  0
LWPOLYLINE
  5
1C1
330
1F
100
AcDbEntity
  8
D-4
  6
Continuous
 62
     7
370
     9
100
AcDbPolyline
 90
        4
 70
     1
 43
0.5
 10
400.2145748653927
 20
196.0526708654456
 42
0.4142135623731
 10
399.9645748653927
 20
196.3026708654456
 42
0.4142135623731
 10
399.7145748653927
 20
196.0526708654456
 42
0.4142135623731
 10
399.9645748653927
 20
195.8026708654456
 42
0.4142135623731
  0
LWPOLYLINE
  5
1C2
330
1F
100
AcDbEntity
  8
D-4
  6
Continuous
 62
     7
370
     9
100
AcDbPolyline
 90
        4
 70
     1
 43
0.5
 10
482.7143521695523
 20
196.0526708654456
 42
0.4142135623731
 10
482.4643521695523
 20
196.3026708654456
 42
0.4142135623731
 10
482.2143521695523
 20
196.0526708654456
 42
0.4142135623731
 10
482.4643521695523
 20
195.8026708654456
 42
0.4142135623731
  0
LWPOLYLINE
  5
1C3
330
1F
100
AcDbEntity
  8
D-4
  6
Continuous
 62
     7
370
     9
100
AcDbPolyline
 90
        4
 70
     1
 43
0.5
 10
574.1583367425044
 20
286.5390014648438
 42
0.4142135623731
 10
573.9083367425044
 20
286.7890014648438
 42
0.4142135623731
 10
573.6583367425045
 20
286.5390014648438
 42
0.4142135623731
 10
573.9083367425044
 20
286.2890014648438
 42
0.4142135623731
  0
LWPOLYLINE
  5
1C4
330
1F
100
AcDbEntity
  8
D-4
  6
Continuous
 62
     7
370
     9
100
AcDbPolyline
 90
        4
 70
     1
 43
0.5
 10
574.1583367425044
 20
386.5389602248733
 42
0.4142135623731
 10
573.9083367425044
 20
386.7889602248733
 42
0.4142135623731
 10
573.6583367425045
 20
386.5389602248733
 42
0.4142135623731
 10
573.9083367425044
 20
386.2889602248733
 42
0.4142135623731
  0
LWPOLYLINE
  5
1C5
330
1F
100
AcDbEntity
  8
D-4
  6
Continuous
 62
     7
370
     9
100
AcDbPolyline
 90
        4
 70
     1
 43
0.5
 10
574.1583367425044
 20
391.5389767208616
 42
0.4142135623731
 10
573.9083367425044
 20
391.7889767208616
 42
0.4142135623731
 10
573.6583367425045
 20
391.5389767208616
 42
0.4142135623731
 10
573.9083367425044
 20
391.2889767208616
 42
0.4142135623731
  0
TEXT
  5
1C6
330
1F
100
AcDbEntity
  8
D-5
  6
Continuous
 62
     7
370
     9
100
AcDbText
 10
209.6845708193895
 20
220.0541605654416
 30
0.0
 40
11.43
  1
軟質ポリ塩化ビニル
 41
1.148148148148148
  7
ＭＳ ゴシック
100
AcDbText
  0
LINE
  5
1C7
330
1F
100
AcDbEntity
  8
D-5
  6
Continuous
 62
     7
370
     9
100
AcDbLine
 10
334.2325571421031
 20
350.3570721600508
 30
0.0
 11
329.4416272962417
 21
338.8116537558067
 31
0.0
  0
LINE
  5
1C8
330
1F
100
AcDbEntity
  8
D-5
  6
Continuous
 62
     7
370
     9
100
AcDbLine
 10
334.2325571421031
 20
350.3570721600508
 30
0.0
 11
326.6167305611276
 21
340.4450040250213
 31
0.0
  0
LINE
  5
1C9
330
1F
100
AcDbEntity
  8
D-5
  6
Continuous
 62
     7
370
     9
100
AcDbLine
 10
365.2294674435177
 20
237.4371049210832
 30
0.0
 11
424.6886382231841
 21
322.4322509765625
 31
0.0
  0
LINE
  5
1CA
330
1F
100
AcDbEntity
  8
D-5
  6
Continuous
 62
     7
370
     9
100
AcDbLine
 10
424.6886382231841
 20
322.4322509765625
 30
0.0
 11
418.9215582770271
 21
311.3419981260558
 31
0.0
  0
LINE
  5
1CB
330
1F
100
AcDbEntity
  8
D-5
  6
Continuous
 62
     7
370
     9
100
AcDbLine
 10
424.6886382231841
 20
322.4322509765625
 30
0.0
 11
416.2477235536318
 21
313.2123957453548
 31
0.0
  0
LINE
  5
1CC
330
1F
100
AcDbEntity
  8
D-5
  6
Continuous
 62
     7
370
     9
100
AcDbLine
 10
292.9807508313979
 20
279.01206764015
 30
0.0
 11
334.2325571421031
 21
350.3570721600508
 31
0.0
  0
TEXT
  5
1CD
330
1F
100
AcDbEntity
  8
D-5
  6
Continuous
 62
     7
370
     9
100
AcDbText
 10
247.5436273550445
 20
242.3548015435502
 30
0.0
 40
11.43
  1
クッション
 41
1.133333333333333
  7
ＭＳ ゴシック
100
AcDbText
  0
LINE
  5
1CE
330
1F
100
AcDbEntity
  8
D-5
  6
Continuous
 62
     7
370
     9
100
AcDbLine
 10
365.2294674435177
 20
237.4371049210832
 30
0.0
 11
210.5618556638372
 21
237.4371049210832
 31
0.0
  0
LINE
  5
1CF
330
1F
100
AcDbEntity
  8
D-5
  6
Continuous
 62
     7
370
     9
100
AcDbLine
 10
459.5958400417018
 20
384.2053552576015
 30
0.0
 11
524.5275136586783
 21
495.0371159733953
 31
0.0
  0
LINE
  5
1D0
330
1F
100
AcDbEntity
  8
D-5
  6
Continuous
 62
     7
370
     9
100
AcDbLine
 10
813.4205586201438
 20
495.0371159733953
 30
0.0
 11
524.5275136586783
 21
495.0371159733953
 31
0.0
  0
LINE
  5
1D1
330
1F
100
AcDbEntity
  8
D-5
  6
Continuous
 62
     7
370
     9
100
AcDbLine
 10
488.9816696579393
 20
388.2695543443834
 30
0.0
 11
525.698027739654
 21
450.9406177417652
 31
0.0
  0
LINE
  5
1D2
330
1F
100
AcDbEntity
  8
D-5
  6
Continuous
 62
     7
370
     9
100
AcDbLine
 10
525.698027739654
 20
450.9406177417652
 30
0.0
 11
793.2194477803
 21
450.9406177417652
 31
0.0
  0
LINE
  5
1D3
330
1F
100
AcDbEntity
  8
D-5
  6
Continuous
 62
     7
370
     9
100
AcDbLine
 10
459.5958400417018
 20
384.2053552576015
 30
0.0
 11
464.4527126002956
 21
395.7231841216216
 31
0.0
  0
LINE
  5
1D4
330
1F
100
AcDbEntity
  8
D-5
  6
Continuous
 62
     7
370
     9
100
AcDbLine
 10
459.5958400417018
 20
384.2053552576015
 30
0.0
 11
467.2682066221495
 21
394.0737502639358
 31
0.0
  0
LINE
  5
1D5
330
1F
100
AcDbEntity
  8
D-5
  6
Continuous
 62
     7
370
     9
100
AcDbLine
 10
488.9816696579393
 20
388.2695543443834
 30
0.0
 11
493.8385422165331
 21
399.7873832084038
 31
0.0
  0
LINE
  5
1D6
330
1F
100
AcDbEntity
  8
D-5
  6
Continuous
 62
     7
370
     9
100
AcDbLine
 10
488.9816696579393
 20
388.2695543443834
 30
0.0
 11
496.654036238387
 21
398.137949350718
 31
0.0
  0
TEXT
  5
1D7
330
1F
100
AcDbEntity
  8
D-5
  6
Continuous
 62
     7
370
     9
100
AcDbText
 10
526.4473002665752
 20
456.9218649704392
 30
0.0
 40
11.43
  1
アルミ受枠（Ａ６０６３Ｓ－Ｔ５）
 41
1.15625
  7
ＭＳ ゴシック
100
AcDbText
  0
TEXT
  5
1D8
330
1F
100
AcDbEntity
  8
D-5
  6
Continuous
 62
     7
370
     9
100
AcDbText
 10
533.7223403518266
 20
501.9431695391681
 30
0.0
 40
11.43
  1
蓋フレーム（Ａ６０６３Ｓ－Ｔ５）
 41
1.15625
  7
ＭＳ ゴシック
100
AcDbText
  0
LINE
  5
1D9
330
1F
100
AcDbEntity
  8
D-5
  6
Continuous
 62
     7
370
     9
100
AcDbLine
 10
496.0105689796242
 20
195.7836419182856
 30
0.0
 11
688.5105854756125
 21
195.7836419182856
 31
0.0
  0
TEXT
  5
1DA
330
1F
100
AcDbEntity
  8
D-5
  6
Continuous
 62
     7
370
     9
100
AcDbText
 10
498.654962488123
 20
202.1803406091639
 30
0.0
 40
11.43
  1
木ネジ　φ４．１×２５
 41
1.151515151515152
  7
ＭＳ ゴシック
100
AcDbText
  0
LINE
  5
1DB
330
1F
100
AcDbEntity
  8
D-5
  6
Continuous
 62
     7
370
     9
100
AcDbLine
 10
496.0105689796242
 20
195.7836419182856
 30
0.0
 11
436.8949683936867
 21
256.8234582849452
 31
0.0
  0
LINE
  5
1DC
330
1F
100
AcDbEntity
  8
D-5
  6
Continuous
 62
     7
370
     9
100
AcDbLine
 10
436.8949683936867
 20
256.8234582849452
 30
0.0
 11
444.344762853674
 21
246.7859381598396
 31
0.0
  0
LINE
  5
1DD
330
1F
100
AcDbEntity
  8
D-5
  6
Continuous
 62
     7
370
     9
100
AcDbLine
 10
436.8949683936867
 20
256.8234582849452
 30
0.0
 11
446.6887602934966
 21
249.0561985325169
 31
0.0
  0
LINE
  5
1DE
330
1F
100
AcDbEntity
  8
D-5
  6
Continuous
 62
     7
370
     9
100
AcDbLine
 10
-23.71314796241549
 20
-319.2574001002956
 30
0.0
 11
133.4913099134292
 21
-319.2574001002956
 31
0.0
  0
LINE
  5
1DF
330
1F
100
AcDbEntity
  8
D-5
  6
Continuous
 62
     7
370
     9
100
AcDbLine
 10
133.4913099134292
 20
-319.2574001002956
 30
0.0
 11
156.1008762668919
 21
-341.9275892103041
 31
0.0
  0
LINE
  5
1E0
330
1F
100
AcDbEntity
  8
D-5
  6
Continuous
 62
     7
370
     9
100
AcDbLine
 10
156.1008762668919
 20
-341.9275892103041
 30
0.0
 11
146.1941280880491
 21
-334.3048343142947
 31
0.0
  0
LINE
  5
1E1
330
1F
100
AcDbEntity
  8
D-5
  6
Continuous
 62
     7
370
     9
100
AcDbLine
 10
156.1008762668919
 20
-341.9275892103041
 30
0.0
 11
148.5044737119934
 21
-332.0005509660051
 31
0.0
  0
LINE
  5
1E2
330
1F
100
AcDbEntity
  8
D-5
  6
Continuous
 62
     7
370
     9
100
AcDbLine
 10
-33.8809451541384
 20
-234.776990735853
 30
0.0
 11
131.067265690984
 21
-234.776990735853
 31
0.0
  0
LINE
  5
1E3
330
1F
100
AcDbEntity
  8
D-5
  6
Continuous
 62
     7
370
     9
100
AcDbLine
 10
-4.468515756967832
 20
-450.2239577834671
 30
0.0
 11
167.1164022909629
 21
-450.2239577834671
 31
0.0
  0
LINE
  5
1E4
330
1F
100
AcDbEntity
  8
D-5
  6
Continuous
 62
     7
370
     9
100
AcDbLine
 10
-3.81985226192981
 20
-368.9070665514146
 30
0.0
 11
163.345666833826
 21
-368.9070665514146
 31
0.0
  0
LINE
  5
1E5
330
1F
100
AcDbEntity
  8
D-5
  6
Continuous
 62
     7
370
     9
100
AcDbLine
 10
131.067265690984
 20
-234.776990735853
 30
0.0
 11
178.7591882654139
 21
-319.052272487331
 31
0.0
  0
LINE
  5
1E6
330
1F
100
AcDbEntity
  8
D-5
  6
Continuous
 62
     7
370
     9
100
AcDbLine
 10
163.345666833826
 20
-368.9070665514146
 30
0.0
 11
205.5511062209672
 21
-344.0524786871833
 31
0.0
  0
LINE
  5
1E7
330
1F
100
AcDbEntity
  8
D-5
  6
Continuous
 62
     7
370
     9
100
AcDbLine
 10
163.345666833826
 20
-368.9070665514146
 30
0.0
 11
231.2224929397172
 21
-388.0398559570312
 31
0.0
  0
LINE
  5
1E8
330
1F
100
AcDbEntity
  8
D-5
  6
Continuous
 62
     7
370
     9
100
AcDbLine
 10
167.1164022909629
 20
-450.2239577834671
 30
0.0
 11
190.0877256651184
 21
-419.8578953098606
 31
0.0
  0
TEXT
  5
1E9
330
1F
100
AcDbEntity
  8
D-5
  6
Continuous
 62
     7
370
     9
100
AcDbText
 10
-22.31934006149693
 20
-313.869266126478
 30
0.0
 40
11.43
  1
アルミ製ボックス
 41
1.145833333333333
  7
ＭＳ ゴシック
100
AcDbText
  0
TEXT
  5
1EA
330
1F
100
AcDbEntity
  8
D-5
  6
Continuous
 62
     7
370
     9
100
AcDbText
 10
-22.31930294552356
 20
-298.2597723553631
 30
0.0
 40
11.43
  1
かさ上げ用
 41
1.133333333333333
  7
ＭＳ ゴシック
100
AcDbText
  0
TEXT
  5
1EB
330
1F
100
AcDbEntity
  8
D-5
  6
Continuous
 62
     7
370
     9
100
AcDbText
 10
-31.47036165804472
 20
-227.778518396326
 30
0.0
 40
11.43
  1
把手カバー　ｔ＝0.5
 41
1.157894736842105
  7
ＭＳ ゴシック
100
AcDbText
  0
TEXT
  5
1EC
330
1F
100
AcDbEntity
  8
D-5
  6
Continuous
 62
     7
370
     9
100
AcDbText
 10
-14.59686691696568
 20
-249.6239905774915
 30
0.0
 40
11.43
  1
（SUS304　ＨＬ）
 41
1.145833333333333
  7
ＭＳ ゴシック
100
AcDbText
  0
TEXT
  5
1ED
330
1F
100
AcDbEntity
  8
D-5
  6
Continuous
 62
     7
370
     9
100
AcDbText
 10
3.968448123416479
 20
-442.971859625739
 30
0.0
 40
11.43
  1
ストッパープレート
 41
1.148148148148148
  7
ＭＳ ゴシック
100
AcDbText
  0
TEXT
  5
1EE
330
1F
100
AcDbEntity
  8
D-5
  6
Continuous
 62
     7
370
     9
100
AcDbText
 10
41.90169463286537
 20
-363.5189325775971
 30
0.0
 40
11.43
  1
把手本体
 41
1.125
  7
ＭＳ ゴシック
100
AcDbText
  0
TEXT
  5
1EF
330
1F
100
AcDbEntity
  8
D-5
  6
Continuous
 62
     7
370
     9
100
AcDbText
 10
-7.795740076013473
 20
-386.1292412505279
 30
0.0
 40
11.43
  1
（強化ナイロン樹脂）
 41
1.15
  7
ＭＳ ゴシック
100
AcDbText
  0
TEXT
  5
1F0
330
1F
100
AcDbEntity
  8
D-5
  6
Continuous
 62
     7
370
     9
100
AcDbText
 10
-3.735606850822627
 20
-466.4148342318134
 30
0.0
 40
11.43
  1
（SUS304　ｔ＝2.5）
 50
359.9999891776649
 41
1.149122807017544
  7
ＭＳ ゴシック
100
AcDbText
  0
LINE
  5
1F1
330
1F
100
AcDbEntity
  8
D-5
  6
Continuous
 62
     7
370
     9
100
AcDbLine
 10
178.7591882654139
 20
-319.052272487331
 30
0.0
 11
171.2354092984587
 21
-309.0700551625844
 31
0.0
  0
LINE
  5
1F2
330
1F
100
AcDbEntity
  8
D-5
  6
Continuous
 62
     7
370
     9
100
AcDbLine
 10
178.7591882654139
 20
-319.052272487331
 30
0.0
 11
174.0753998627534
 21
-307.4629335145692
 31
0.0
  0
LINE
  5
1F3
330
1F
100
AcDbEntity
  8
D-5
  6
Continuous
 62
     7
370
     9
100
AcDbLine
 10
205.5511062209672
 20
-344.0524786871833
 30
0.0
 11
194.0442884290542
 21
-348.9352087072424
 31
0.0
  0
LINE
  5
1F4
330
1F
100
AcDbEntity
  8
D-5
  6
Continuous
 62
     7
370
     9
100
AcDbLine
 10
205.5511062209672
 20
-344.0524786871833
 30
0.0
 11
195.7001557221284
 21
-351.747114851668
 31
0.0
  0
LINE
  5
1F5
330
1F
100
AcDbEntity
  8
D-5
  6
Continuous
 62
     7
370
     9
100
AcDbLine
 10
190.0877256651184
 20
-419.8578953098606
 30
0.0
 11
181.3097979571369
 21
-428.7570685309333
 31
0.0
  0
LINE
  5
1F6
330
1F
100
AcDbEntity
  8
D-5
  6
Continuous
 62
     7
370
     9
100
AcDbLine
 10
190.0877256651184
 20
-419.8578953098606
 30
0.0
 11
183.9121225717906
 21
-430.7256997598183
 31
0.0
  0
LINE
  5
1F7
330
1F
100
AcDbEntity
  8
D-5
  6
Continuous
 62
     7
370
     9
100
AcDbLine
 10
231.2224929397172
 20
-388.0398559570312
 30
0.0
 11
218.8516152871622
 21
-386.2478967615075
 31
0.0
  0
LINE
  5
1F8
330
1F
100
AcDbEntity
  8
D-5
  6
Continuous
 62
     7
370
     9
100
AcDbLine
 10
231.2224929397172
 20
-388.0398559570312
 30
0.0
 11
219.7369549725508
 21
-383.1071430927998
 31
0.0
  0
LINE
  5
1F9
330
1F
100
AcDbEntity
  8
D-4
  6
Continuous
 62
     7
370
     9
100
AcDbLine
 10
153.7224846917231
 20
-198.3070827174831
 30
0.0
 11
383.7225011877112
 21
-198.3070827174831
 31
0.0
  0
LINE
  5
1FA
330
1F
100
AcDbEntity
  8
D-4
  6
Continuous
 62
     7
370
     9
100
AcDbLine
 10
153.7224846917231
 20
-161.5528663429054
 30
0.0
 11
153.7224846917231
 21
-199.8070629222973
 31
0.0
  0
LINE
  5
1FB
330
1F
100
AcDbEntity
  8
D-4
  6
Continuous
 62
     7
370
     9
100
AcDbLine
 10
383.7225011877112
 20
-161.5528663429054
 30
0.0
 11
383.7225011877112
 21
-199.8070629222973
 31
0.0
  0
LINE
  5
1FC
330
1F
100
AcDbEntity
  8
D-4
  6
Continuous
 62
     7
370
     9
100
AcDbLine
 10
476.247550345756
 20
-154.0529653188344
 30
0.0
 11
476.247550345756
 21
-66.5528003589526
 31
0.0
  0
LINE
  5
1FD
330
1F
100
AcDbEntity
  8
D-4
  6
Continuous
 62
     7
370
     9
100
AcDbLine
 10
391.2225259316935
 20
-154.0529653188344
 30
0.0
 11
477.7474068306589
 21
-154.0529653188344
 31
0.0
  0
LINE
  5
1FE
330
1F
100
AcDbEntity
  8
D-4
  6
Continuous
 62
     7
370
     9
100
AcDbLine
 10
391.2225259316935
 20
-66.5528003589526
 30
0.0
 11
477.7474068306589
 21
-66.5528003589526
 31
0.0
  0
LINE
  5
1FF
330
1F
100
AcDbEntity
  8
D-4
  6
Continuous
 62
     7
370
     9
100
AcDbLine
 10
476.247550345756
 20
-444.0523137273015
 30
0.0
 11
476.247550345756
 21
-244.052272487331
 31
0.0
  0
LINE
  5
200
330
1F
100
AcDbEntity
  8
D-4
  6
Continuous
 62
     7
370
     9
100
AcDbLine
 10
318.7225341796875
 20
-444.0523137273015
 30
0.0
 11
477.7474068306589
 21
-444.0523137273015
 31
0.0
  0
LINE
  5
201
330
1F
100
AcDbEntity
  8
D-4
  6
Continuous
 62
     7
370
     9
100
AcDbLine
 10
396.2225424276818
 20
-319.052272487331
 30
0.0
 11
477.7474068306589
 21
-319.052272487331
 31
0.0
  0
LINE
  5
202
330
1F
100
AcDbEntity
  8
D-4
  6
Continuous
 62
     7
370
     9
100
AcDbLine
 10
360.9725127349029
 20
-244.052272487331
 30
0.0
 11
477.7474068306589
 21
-244.052272487331
 31
0.0
  0
LINE
  5
203
330
1F
100
AcDbEntity
  8
D-4
  6
Continuous
 62
     7
370
     9
100
AcDbLine
 10
396.2225424276818
 20
-350.3021900073902
 30
0.0
 11
440.4428842905406
 21
-350.3021900073902
 31
0.0
  0
LINE
  5
204
330
1F
100
AcDbEntity
  8
D-4
  6
Continuous
 62
     7
370
     9
100
AcDbLine
 10
438.9429040857263
 20
-397.8068006360853
 30
0.0
 11
438.9429040857263
 21
-319.052272487331
 31
0.0
  0
TEXT
  5
205
330
1F
100
AcDbEntity
  8
D-4
  6
Continuous
 62
     2
370
     9
100
AcDbText
 10
258.0975547996728
 20
-190.4870662214949
 30
0.0
 40
15.24
  1
92
 41
1.0625
  7
ＭＳ ゴシック
100
AcDbText
  0
TEXT
  5
206
330
1F
100
AcDbEntity
  8
D-4
  6
Continuous
 62
     2
370
     9
100
AcDbText
 10
468.4271626900339
 20
-120.9279446988492
 30
0.0
 40
15.24
  1
35
 50
90.0
 41
1.0625
  7
ＭＳ ゴシック
100
AcDbText
  0
TEXT
  5
207
330
1F
100
AcDbEntity
  8
D-4
  6
Continuous
 62
     2
370
     9
100
AcDbText
 10
468.4271626900339
 20
-392.1772931073162
 30
0.0
 40
15.24
  1
50
 50
90.0
 41
1.0625
  7
ＭＳ ゴシック
100
AcDbText
  0
TEXT
  5
208
330
1F
100
AcDbEntity
  8
D-4
  6
Continuous
 62
     2
370
     9
100
AcDbText
 10
468.4271626900339
 20
-292.1773343472867
 30
0.0
 40
15.24
  1
30
 50
90.0
 41
1.0625
  7
ＭＳ ゴシック
100
AcDbText
  0
TEXT
  5
209
330
1F
100
AcDbEntity
  8
D-4
  6
Continuous
 62
     2
370
     9
100
AcDbText
 10
433.6230195576438
 20
-397.0574342882311
 30
0.0
 40
15.24
  1
12.5
 50
90.0
 41
1.09375
  7
ＭＳ ゴシック
100
AcDbText
  0
LWPOLYLINE
  5
20A
330
1F
100
AcDbEntity
  8
D-4
  6
Continuous
 62
     7
370
     9
100
AcDbPolyline
 90
        4
 70
     1
 43
0.5
 10
153.9724846917231
 20
-198.3070827174831
 42
0.4142135623731
 10
153.7224846917231
 20
-198.0570827174831
 42
0.4142135623731
 10
153.4724846917231
 20
-198.3070827174831
 42
0.4142135623731
 10
153.7224846917231
 20
-198.5570827174831
 42
0.4142135623731
  0
LWPOLYLINE
  5
20B
330
1F
100
AcDbEntity
  8
D-4
  6
Continuous
 62
     7
370
     9
100
AcDbPolyline
 90
        4
 70
     1
 43
0.5
 10
383.9725011877112
 20
-198.3070827174831
 42
0.4142135623731
 10
383.7225011877112
 20
-198.0570827174831
 42
0.4142135623731
 10
383.4725011877112
 20
-198.3070827174831
 42
0.4142135623731
 10
383.7225011877112
 20
-198.5570827174831
 42
0.4142135623731
  0
LWPOLYLINE
  5
20C
330
1F
100
AcDbEntity
  8
D-4
  6
Continuous
 62
     7
370
     9
100
AcDbPolyline
 90
        4
 70
     1
 43
0.5
 10
476.497550345756
 20
-154.0529653188344
 42
0.4142135623731
 10
476.247550345756
 20
-153.8029653188344
 42
0.4142135623731
 10
475.997550345756
 20
-154.0529653188344
 42
0.4142135623731
 10
476.247550345756
 20
-154.3029653188345
 42
0.4142135623731
  0
LWPOLYLINE
  5
20D
330
1F
100
AcDbEntity
  8
D-4
  6
Continuous
 62
     7
370
     9
100
AcDbPolyline
 90
        4
 70
     1
 43
0.5
 10
476.497550345756
 20
-66.5528003589526
 42
0.4142135623731
 10
476.247550345756
 20
-66.3028003589526
 42
0.4142135623731
 10
475.997550345756
 20
-66.5528003589526
 42
0.4142135623731
 10
476.247550345756
 20
-66.8028003589526
 42
0.4142135623731
  0
LWPOLYLINE
  5
20E
330
1F
100
AcDbEntity
  8
D-4
  6
Continuous
 62
     7
370
     9
100
AcDbPolyline
 90
        4
 70
     1
 43
0.5
 10
476.497550345756
 20
-444.0523137273015
 42
0.4142135623731
 10
476.247550345756
 20
-443.8023137273015
 42
0.4142135623731
 10
475.997550345756
 20
-444.0523137273015
 42
0.4142135623731
 10
476.247550345756
 20
-444.3023137273015
 42
0.4142135623731
  0
LWPOLYLINE
  5
20F
330
1F
100
AcDbEntity
  8
D-4
  6
Continuous
 62
     7
370
     9
100
AcDbPolyline
 90
        4
 70
     1
 43
0.5
 10
476.497550345756
 20
-319.052272487331
 42
0.4142135623731
 10
476.247550345756
 20
-318.802272487331
 42
0.4142135623731
 10
475.997550345756
 20
-319.052272487331
 42
0.4142135623731
 10
476.247550345756
 20
-319.302272487331
 42
0.4142135623731
  0
LWPOLYLINE
  5
210
330
1F
100
AcDbEntity
  8
D-4
  6
Continuous
 62
     7
370
     9
100
AcDbPolyline
 90
        4
 70
     1
 43
0.5
 10
476.497550345756
 20
-244.052272487331
 42
0.4142135623731
 10
476.247550345756
 20
-243.8022724873311
 42
0.4142135623731
 10
475.997550345756
 20
-244.052272487331
 42
0.4142135623731
 10
476.247550345756
 20
-244.302272487331
 42
0.4142135623731
  0
LWPOLYLINE
  5
211
330
1F
100
AcDbEntity
  8
D-4
  6
Continuous
 62
     7
370
     9
100
AcDbPolyline
 90
        4
 70
     1
 43
0.5
 10
439.1929040857263
 20
-350.3021900073902
 42
0.4142135623731
 10
438.9429040857263
 20
-350.0521900073902
 42
0.4142135623731
 10
438.6929040857263
 20
-350.3021900073902
 42
0.4142135623731
 10
438.9429040857263
 20
-350.5521900073902
 42
0.4142135623731
  0
LWPOLYLINE
  5
212
330
1F
100
AcDbEntity
  8
D-4
  6
Continuous
 62
     7
370
     9
100
AcDbPolyline
 90
        4
 70
     1
 43
0.5
 10
439.1929040857263
 20
-319.052272487331
 42
0.4142135623731
 10
438.9429040857263
 20
-318.802272487331
 42
0.4142135623731
 10
438.6929040857263
 20
-319.052272487331
 42
0.4142135623731
 10
438.9429040857263
 20
-319.302272487331
 42
0.4142135623731
  0
TEXT
  5
213
330
1F
100
AcDbEntity
  8
D-5
  6
Continuous
 62
     7
370
     9
100
AcDbText
 10
132.7104002274305
 20
284.1092123825487
 30
0.0
 40
11.43
  1
底板　ｔ＝３．２
 41
1.145833333333333
  7
ＭＳ ゴシック
100
AcDbText
  0
TEXT
  5
214
330
1F
100
AcDbEntity
  8
D-5
  6
Continuous
 62
     7
370
     9
100
AcDbText
 10
132.7104002274305
 20
262.7860599665622
 30
0.0
 40
11.43
  1
溶融亜鉛めっき鋼板
 41
1.148148148148148
  7
ＭＳ ゴシック
100
AcDbText
  0
LINE
  5
215
330
1F
100
AcDbEntity
  8
D-5
  6
Continuous
 62
     7
370
     9
100
AcDbLine
 10
128.0382910521515
 20
279.01206764015
 30
0.0
 11
292.9807508313979
 21
279.01206764015
 31
0.0
  0
TEXT
  5
216
330
1F
100
AcDbEntity
  8
F-0
  6
Continuous
 62
     7
370
     9
100
AcDbText
 10
-425.9400765089363
 20
-662.0287892442515
 30
0.0
 40
11.43
  1
フロアーハッチ　フローリング床材用（フローリング厚12.5mm）屋内用　一般形
 41
1.097222222222222
  7
ＭＳ ゴシック
100
AcDbText
  0
TEXT
  5
217
330
1F
100
AcDbEntity
  8
F-0
  6
Continuous
 62
     7
370
     9
100
AcDbText
 10
-424.5530517346521
 20
-682.8185120079382
 30
0.0
 40
11.43
  1
アルミニウム＋スチール製　アルミニウム目地　ＭＯＦＭ－３００－１２.５－Ｍ
 41
1.097260273972603
  7
ＭＳ ゴシック
100
AcDbText
  0
ENDSEC
  0
SECTION
  2
OBJECTS
  0
DICTIONARY
  5
C
330
0
100
AcDbDictionary
281
     1
  3
ACAD_GROUP
350
D
  3
ACAD_LAYOUT
350
1A
  3
ACAD_MLEADERSTYLE
350
219
  3
ACAD_MLINESTYLE
350
17
  3
ACAD_PLOTSETTINGS
350
19
  3
ACAD_PLOTSTYLENAME
350
E
  3
ACAD_TABLESTYLE
350
218
  3
ACAD_VISUALSTYLE
350
2A
  0
DICTIONARY
  5
D
102
{ACAD_REACTORS
330
C
102
}
330
C
100
AcDbDictionary
281
     1
  0
DICTIONARY
  5
1A
102
{ACAD_REACTORS
330
C
102
}
330
C
100
AcDbDictionary
281
     1
  3
Layout1
350
1E
  3
Layout2
350
26
  3
Model
350
22
  0
DICTIONARY
  5
219
102
{ACAD_REACTORS
330
C
102
}
330
C
100
AcDbDictionary
281
     1
  0
DICTIONARY
  5
17
102
{ACAD_REACTORS
330
C
102
}
330
C
100
AcDbDictionary
281
     1
  3
Standard
350
18
  0
DICTIONARY
  5
19
102
{ACAD_REACTORS
330
C
102
}
330
C
100
AcDbDictionary
281
     1
  0
ACDBDICTIONARYWDFLT
  5
E
102
{ACAD_REACTORS
330
C
102
}
330
C
100
AcDbDictionary
281
     1
  3
Normal
350
F
100
AcDbDictionaryWithDefault
340
F
  0
DICTIONARY
  5
218
102
{ACAD_REACTORS
330
C
102
}
330
C
100
AcDbDictionary
281
     1
  0
DICTIONARY
  5
2A
102
{ACAD_REACTORS
330
C
102
}
330
C
100
AcDbDictionary
281
     1
  3
2dWireframe
350
2F
  3
3D Hidden
350
31
  3
3dWireframe
350
30
  3
Basic
350
32
  3
Brighten
350
36
  3
ColorChange
350
3A
  3
Conceptual
350
34
  3
Dim
350
35
  3
Facepattern
350
39
  3
Flat
350
2B
  3
FlatWithEdges
350
2C
  3
Gouraud
350
2D
  3
GouraudWithEdges
350
2E
  3
Linepattern
350
38
  3
Realistic
350
33
  3
Thicken
350
37
  0
LAYOUT
  5
1E
102
{ACAD_REACTORS
330
1A
102
}
330
1A
100
AcDbPlotSettings
  1

  2
none_device
  4

  6

 40
0.0
 41
0.0
 42
0.0
 43
0.0
 44
0.0
 45
0.0
 46
0.0
 47
0.0
 48
0.0
 49
0.0
140
0.0
141
0.0
142
1.0
143
1.0
 70
   688
 72
     0
 73
     0
 74
     5
  7

 75
    16
 76
     0
 77
     5
 78
   300
147
1.0
148
0.0
149
0.0
100
AcDbLayout
  1
Layout1
 70
     1
 71
     1
 10
0.0
 20
0.0
 11
420.0
 21
297.0
 12
0.0
 22
0.0
 32
0.0
 14
1.000000000000000E+20
 24
1.000000000000000E+20
 34
1.000000000000000E+20
 15
-1.000000000000000E+20
 25
-1.000000000000000E+20
 35
-1.000000000000000E+20
146
0.0
 13
0.0
 23
0.0
 33
0.0
 16
1.0
 26
0.0
 36
0.0
 17
0.0
 27
1.0
 37
0.0
 76
     0
330
1B
  0
LAYOUT
  5
26
102
{ACAD_REACTORS
330
1A
102
}
330
1A
100
AcDbPlotSettings
  1

  2
none_device
  4

  6

 40
0.0
 41
0.0
 42
0.0
 43
0.0
 44
0.0
 45
0.0
 46
0.0
 47
0.0
 48
0.0
 49
0.0
140
0.0
141
0.0
142
1.0
143
1.0
 70
   688
 72
     0
 73
     0
 74
     5
  7

 75
    16
 76
     0
 77
     5
 78
   300
147
1.0
148
0.0
149
0.0
100
AcDbLayout
  1
Layout2
 70
     1
 71
     2
 10
0.0
 20
0.0
 11
0.0
 21
0.0
 12
0.0
 22
0.0
 32
0.0
 14
0.0
 24
0.0
 34
0.0
 15
0.0
 25
0.0
 35
0.0
146
0.0
 13
0.0
 23
0.0
 33
0.0
 16
1.0
 26
0.0
 36
0.0
 17
0.0
 27
1.0
 37
0.0
 76
     0
330
23
  0
LAYOUT
  5
22
102
{ACAD_REACTORS
330
1A
102
}
330
1A
100
AcDbPlotSettings
  1

  2
none_device
  4

  6

 40
0.0
 41
0.0
 42
0.0
 43
0.0
 44
0.0
 45
0.0
 46
0.0
 47
0.0
 48
0.0
 49
0.0
140
0.0
141
0.0
142
1.0
143
1.0
 70
  1712
 72
     0
 73
     0
 74
     0
  7

 75
     0
 76
     0
 77
     5
 78
   300
147
1.0
148
0.0
149
0.0
100
AcDbLayout
  1
Model
 70
     1
 71
     0
 10
-1050.0
 20
-742.5
 11
1050.0
 21
742.5
 12
0.0
 22
0.0
 32
0.0
 14
-1050.0
 24
-742.5
 34
0.0
 15
1050.0
 25
742.5
 35
0.0
146
0.0
 13
0.0
 23
0.0
 33
0.0
 16
1.0
 26
0.0
 36
0.0
 17
0.0
 27
1.0
 37
0.0
 76
     0
330
1F
331
29
  0
MLINESTYLE
  5
18
102
{ACAD_REACTORS
330
17
102
}
330
17
100
AcDbMlineStyle
  2
Standard
 70
     0
  3

 62
   256
 51
90.0
 52
90.0
 71
     2
 49
0.5
 62
   256
  6
BYLAYER
 49
-0.5
 62
   256
  6
BYLAYER
  0
ACDBPLACEHOLDER
  5
F
102
{ACAD_REACTORS
330
E
102
}
330
E
  0
VISUALSTYLE
  5
2F
102
{ACAD_REACTORS
330
2A
102
}
330
2A
100
AcDbVisualStyle
  2
2dWireframe
 70
     4
 71
     0
 72
     2
 73
     0
 90
        0
 40
-0.6
 41
-30.0
 62
     5
 63
     7
421
 16777215
 74
     1
 91
        4
 64
     7
 65
   257
 75
     1
175
     1
 42
1.0
 92
        0
 66
   257
 43
1.0
 76
     1
 77
     6
 78
     2
 67
     7
 79
     5
170
     0
171
     0
290
     0
174
     0
 93
        1
 44
0.0
173
     0
291
     0
 45
0.0
1001
ACAD
1000
AcDbSavedByObjectVersion
1070
     0
  0
VISUALSTYLE
  5
31
102
{ACAD_REACTORS
330
2A
102
}
330
2A
100
AcDbVisualStyle
  2
3D Hidden
 70
     6
 71
     1
 72
     2
 73
     2
 90
        0
 40
-0.6
 41
-30.0
 62
     5
 63
     7
421
 16777215
 74
     2
 91
        2
 64
     7
 65
   257
 75
     2
175
     1
 42
40.0
 92
        0
 66
   257
 43
1.0
 76
     1
 77
     6
 78
     2
 67
     7
 79
     3
170
     0
171
     0
290
     0
174
     0
 93
        1
 44
0.0
173
     0
291
     0
 45
0.0
1001
ACAD
1000
AcDbSavedByObjectVersion
1070
     0
  0
VISUALSTYLE
  5
30
102
{ACAD_REACTORS
330
2A
102
}
330
2A
100
AcDbVisualStyle
  2
3dWireframe
 70
     5
 71
     0
 72
     2
 73
     0
 90
        0
 40
-0.6
 41
-30.0
 62
     5
 63
     7
421
 16777215
 74
     1
 91
        4
 64
     7
 65
   257
 75
     1
175
     1
 42
1.0
 92
        0
 66
   257
 43
1.0
 76
     1
 77
     6
 78
     2
 67
     7
 79
     5
170
     0
171
     0
290
     0
174
     0
 93
        1
 44
0.0
173
     0
291
     0
 45
0.0
1001
ACAD
1000
AcDbSavedByObjectVersion
1070
     0
  0
VISUALSTYLE
  5
32
102
{ACAD_REACTORS
330
2A
102
}
330
2A
100
AcDbVisualStyle
  2
Basic
 70
     7
 71
     1
 72
     0
 73
     1
 90
        0
 40
-0.6
 41
-30.0
 62
     5
 63
     7
421
 16777215
 74
     0
 91
        4
 64
     7
 65
   257
 75
     1
175
     1
 42
1.0
 92
        8
 66
     7
 43
1.0
 76
     1
 77
     6
 78
     2
 67
     7
 79
     5
170
     0
171
     0
290
     0
174
     0
 93
        1
 44
0.0
173
     0
291
     1
 45
0.0
1001
ACAD
1000
AcDbSavedByObjectVersion
1070
     0
  0
VISUALSTYLE
  5
36
102
{ACAD_REACTORS
330
2A
102
}
330
2A
100
AcDbVisualStyle
  2
Brighten
 70
    12
 71
     2
 72
     2
 73
     0
 90
        0
 40
-0.6
 41
-30.0
 62
     5
 63
     7
421
 16777215
 74
     1
 91
        4
 64
     7
 65
   257
 75
     1
175
     1
 42
1.0
 92
        8
 66
     7
 43
1.0
 76
     1
 77
     6
 78
     2
 67
     7
 79
     5
170
     0
171
     0
290
     0
174
     0
 93
        1
 44
50.0
173
     0
291
     1
 45
0.0
1001
ACAD
1000
AcDbSavedByObjectVersion
1070
     0
  0
VISUALSTYLE
  5
3A
102
{ACAD_REACTORS
330
2A
102
}
330
2A
100
AcDbVisualStyle
  2
ColorChange
 70
    16
 71
     2
 72
     2
 73
     3
 90
        0
 40
-0.6
 41
-30.0
 62
     5
 63
     8
421
  8421504
 74
     1
 91
        4
 64
     7
 65
   257
 75
     1
175
     1
 42
1.0
 92
        8
 66
     8
424
  8421504
 43
1.0
 76
     1
 77
     6
 78
     2
 67
     7
 79
     5
170
     0
171
     0
290
     0
174
     0
 93
        1
 44
0.0
173
     0
291
     1
 45
0.0
1001
ACAD
1000
AcDbSavedByObjectVersion
1070
     0
  0
VISUALSTYLE
  5
34
102
{ACAD_REACTORS
330
2A
102
}
330
2A
100
AcDbVisualStyle
  2
Conceptual
 70
     9
 71
     3
 72
     2
 73
     0
 90
        0
 40
-0.6
 41
-30.0
 62
     5
 63
     7
421
 16777215
 74
     2
 91
        2
 64
     7
 65
   257
 75
     1
175
     1
 42
40.0
 92
        8
 66
     7
 43
1.0
 76
     1
 77
     6
 78
     2
 67
     7
 79
     3
170
     0
171
     0
290
     0
174
     0
 93
        1
 44
0.0
173
     0
291
     0
 45
0.0
1001
ACAD
1000
AcDbSavedByObjectVersion
1070
     0
  0
VISUALSTYLE
  5
35
102
{ACAD_REACTORS
330
2A
102
}
330
2A
100
AcDbVisualStyle
  2
Dim
 70
    11
 71
     2
 72
     2
 73
     0
 90
        0
 40
-0.6
 41
-30.0
 62
     5
 63
     7
421
 16777215
 74
     1
 91
        4
 64
     7
 65
   257
 75
     1
175
     1
 42
1.0
 92
        8
 66
     7
 43
1.0
 76
     1
 77
     6
 78
     2
 67
     7
 79
     5
170
     0
171
     0
290
     0
174
     0
 93
        1
 44
-50.0
173
     0
291
     1
 45
0.0
1001
ACAD
1000
AcDbSavedByObjectVersion
1070
     0
  0
VISUALSTYLE
  5
39
102
{ACAD_REACTORS
330
2A
102
}
330
2A
100
AcDbVisualStyle
  2
Facepattern
 70
    15
 71
     2
 72
     2
 73
     0
 90
        0
 40
-0.6
 41
-30.0
 62
     5
 63
     7
421
 16777215
 74
     1
 91
        4
 64
     7
 65
   257
 75
     1
175
     1
 42
1.0
 92
        8
 66
     7
 43
1.0
 76
     1
 77
     6
 78
     2
 67
     7
 79
     5
170
     0
171
     0
290
     0
174
     0
 93
        1
 44
0.0
173
     0
291
     1
 45
0.0
1001
ACAD
1000
AcDbSavedByObjectVersion
1070
     0
  0
VISUALSTYLE
  5
2B
102
{ACAD_REACTORS
330
2A
102
}
330
2A
100
AcDbVisualStyle
  2
Flat
 70
     0
 71
     2
 72
     1
 73
     1
 90
        2
 40
-0.6
 41
30.0
 62
     5
 63
     7
421
 16777215
 74
     0
 91
        4
 64
     7
 65
   257
 75
     1
175
     1
 42
1.0
 92
        8
 66
     7
 43
1.0
 76
     1
 77
     6
 78
     2
 67
     7
 79
     5
170
     0
171
     0
290
     0
174
     0
 93
       13
 44
0.0
173
     0
291
     1
 45
0.0
1001
ACAD
1000
AcDbSavedByObjectVersion
1070
     0
  0
VISUALSTYLE
  5
2C
102
{ACAD_REACTORS
330
2A
102
}
330
2A
100
AcDbVisualStyle
  2
FlatWithEdges
 70
     1
 71
     2
 72
     1
 73
     1
 90
        2
 40
-0.6
 41
30.0
 62
     5
 63
     7
421
 16777215
 74
     1
 91
        4
 64
     7
 65
   257
 75
     1
175
     1
 42
1.0
 92
        0
 66
   257
 43
1.0
 76
     1
 77
     6
 78
     2
 67
     7
 79
     5
170
     0
171
     0
290
     0
174
     0
 93
       13
 44
0.0
173
     0
291
     1
 45
0.0
1001
ACAD
1000
AcDbSavedByObjectVersion
1070
     0
  0
VISUALSTYLE
  5
2D
102
{ACAD_REACTORS
330
2A
102
}
330
2A
100
AcDbVisualStyle
  2
Gouraud
 70
     2
 71
     2
 72
     2
 73
     1
 90
        2
 40
-0.6
 41
30.0
 62
     5
 63
     7
421
 16777215
 74
     0
 91
        4
 64
     7
 65
   257
 75
     1
175
     1
 42
1.0
 92
        0
 66
     7
 43
1.0
 76
     1
 77
     6
 78
     2
 67
     7
 79
     5
170
     0
171
     0
290
     0
174
     0
 93
       13
 44
0.0
173
     0
291
     1
 45
0.0
1001
ACAD
1000
AcDbSavedByObjectVersion
1070
     0
  0
VISUALSTYLE
  5
2E
102
{ACAD_REACTORS
330
2A
102
}
330
2A
100
AcDbVisualStyle
  2
GouraudWithEdges
 70
     3
 71
     2
 72
     2
 73
     1
 90
        2
 40
-0.6
 41
30.0
 62
     5
 63
     7
421
 16777215
 74
     1
 91
        4
 64
     7
 65
   257
 75
     1
175
     1
 42
1.0
 92
        0
 66
   257
 43
1.0
 76
     1
 77
     6
 78
     2
 67
     7
 79
     5
170
     0
171
     0
290
     0
174
     0
 93
       13
 44
0.0
173
     0
291
     1
 45
0.0
1001
ACAD
1000
AcDbSavedByObjectVersion
1070
     0
  0
VISUALSTYLE
  5
38
102
{ACAD_REACTORS
330
2A
102
}
330
2A
100
AcDbVisualStyle
  2
Linepattern
 70
    14
 71
     2
 72
     2
 73
     0
 90
        0
 40
-0.6
 41
-30.0
 62
     5
 63
     7
421
 16777215
 74
     1
 91
        4
 64
     7
 65
   257
 75
     7
175
     7
 42
1.0
 92
        8
 66
     7
 43
1.0
 76
     1
 77
     6
 78
     2
 67
     7
 79
     5
170
     0
171
     0
290
     0
174
     0
 93
        1
 44
0.0
173
     0
291
     1
 45
0.0
1001
ACAD
1000
AcDbSavedByObjectVersion
1070
     0
  0
VISUALSTYLE
  5
33
102
{ACAD_REACTORS
330
2A
102
}
330
2A
100
AcDbVisualStyle
  2
Realistic
 70
     8
 71
     2
 72
     2
 73
     0
 90
        0
 40
-0.6
 41
-30.0
 62
     5
 63
     7
421
 16777215
 74
     1
 91
        0
 64
     7
 65
   257
 75
     1
175
     1
 42
1.0
 92
        8
 66
     8
424
  7895160
 43
1.0
 76
     1
 77
     6
 78
     2
 67
     7
 79
     5
170
     0
171
     0
290
     0
174
     0
 93
       13
 44
0.0
173
     0
291
     0
 45
0.0
1001
ACAD
1000
AcDbSavedByObjectVersion
1070
     0
  0
VISUALSTYLE
  5
37
102
{ACAD_REACTORS
330
2A
102
}
330
2A
100
AcDbVisualStyle
  2
Thicken
 70
    13
 71
     2
 72
     2
 73
     0
 90
        0
 40
-0.6
 41
-30.0
 62
     5
 63
     7
421
 16777215
 74
     1
 91
        4
 64
     7
 65
   257
 75
     1
175
     1
 42
1.0
 92
       12
 66
     7
 43
1.0
 76
     1
 77
     6
 78
     2
 67
     7
 79
     5
170
     0
171
     0
290
     0
174
     0
 93
        1
 44
0.0
173
     0
291
     1
 45
0.0
1001
ACAD
1000
AcDbSavedByObjectVersion
1070
     0
  0
ENDSEC
  0
EOF
