  0
SECTION
  2
HEADER
  9
$ACADVER
  1
AC1018
  9
$ACADMAINTVER
 70
     0
  9
$DWGCODEPAGE
  3
ANSI_932
  9
$INSBASE
 10
0.0
 20
0.0
 30
0.0
  9
$EXTMIN
 10
-1050.0
 20
-742.5
 30
0.0
  9
$EXTMAX
 10
1050.0
 20
742.5
 30
0.0
  9
$LIMMIN
 10
-1050.0
 20
-742.5
  9
$LIMMAX
 10
1050.0
 20
742.5
  9
$ORTHOMODE
 70
     0
  9
$REGENMODE
 70
     1
  9
$FILLMODE
 70
     1
  9
$QTEXTMODE
 70
     0
  9
$MIRRTEXT
 70
     1
  9
$LTSCALE
 40
5.0
  9
$ATTMODE
 70
     1
  9
$TEXTSIZE
 40
2.5
  9
$TRACEWID
 40
1.0
  9
$TEXTSTYLE
  7
Standard
  9
$CLAYER
  8
0
  9
$CELTYPE
  6
ByLayer
  9
$CECOLOR
 62
   256
  9
$CELTSCALE
 40
1.0
  9
$DISPSILH
 70
     0
  9
$DIMSCALE
 40
1.0
  9
$DIMASZ
 40
2.5
  9
$DIMEXO
 40
0.625
  9
$DIMDLI
 40
3.75
  9
$DIMRND
 40
0.0
  9
$DIMDLE
 40
0.0
  9
$DIMEXE
 40
1.25
  9
$DIMTP
 40
0.0
  9
$DIMTM
 40
0.0
  9
$DIMTXT
 40
2.5
  9
$DIMCEN
 40
2.5
  9
$DIMTSZ
 40
0.0
  9
$DIMTOL
 70
     0
  9
$DIMLIM
 70
     0
  9
$DIMTIH
 70
     0
  9
$DIMTOH
 70
     0
  9
$DIMSE1
 70
     0
  9
$DIMSE2
 70
     0
  9
$DIMTAD
 70
     1
  9
$DIMZIN
 70
     8
  9
$DIMBLK
  1

  9
$DIMASO
 70
     1
  9
$DIMSHO
 70
     1
  9
$DIMPOST
  1

  9
$DIMAPOST
  1

  9
$DIMALT
 70
     0
  9
$DIMALTD
 70
     3
  9
$DIMALTF
 40
0.03937007874016
  9
$DIMLFAC
 40
1.0
  9
$DIMTOFL
 70
     1
  9
$DIMTVP
 40
0.0
  9
$DIMTIX
 70
     0
  9
$DIMSOXD
 70
     0
  9
$DIMSAH
 70
     0
  9
$DIMBLK1
  1

  9
$DIMBLK2
  1

  9
$DIMSTYLE
  2
ISO-25
  9
$DIMCLRD
 70
     0
  9
$DIMCLRE
 70
     0
  9
$DIMCLRT
 70
     0
  9
$DIMTFAC
 40
1.0
  9
$DIMGAP
 40
0.625
  9
$DIMJUST
 70
     0
  9
$DIMSD1
 70
     0
  9
$DIMSD2
 70
     0
  9
$DIMTOLJ
 70
     0
  9
$DIMTZIN
 70
     8
  9
$DIMALTZ
 70
     0
  9
$DIMALTTZ
 70
     0
  9
$DIMUPT
 70
     0
  9
$DIMDEC
 70
     2
  9
$DIMTDEC
 70
     2
  9
$DIMALTU
 70
     2
  9
$DIMALTTD
 70
     3
  9
$DIMTXSTY
  7
Standard
  9
$DIMAUNIT
 70
     0
  9
$DIMADEC
 70
     0
  9
$DIMALTRND
 40
0.0
  9
$DIMAZIN
 70
     0
  9
$DIMDSEP
 70
    44
  9
$DIMATFIT
 70
     3
  9
$DIMFRAC
 70
     0
  9
$DIMLDRBLK
  1

  9
$DIMLUNIT
 70
     2
  9
$DIMLWD
 70
    -2
  9
$DIMLWE
 70
    -2
  9
$DIMTMOVE
 70
     0
  9
$LUNITS
 70
     2
  9
$LUPREC
 70
     4
  9
$SKETCHINC
 40
1.0
  9
$FILLETRAD
 40
10.0
  9
$AUNITS
 70
     0
  9
$AUPREC
 70
     0
  9
$MENU
  1
.
  9
$ELEVATION
 40
0.0
  9
$PELEVATION
 40
0.0
  9
$THICKNESS
 40
0.0
  9
$LIMCHECK
 70
     0
  9
$CHAMFERA
 40
10.0
  9
$CHAMFERB
 40
10.0
  9
$CHAMFERC
 40
20.0
  9
$CHAMFERD
 40
0.0
  9
$SKPOLY
 70
     0
  9
$TDCREATE
 40
2457904.375142361
  9
$TDUCREATE
 40
2457904.000142361
  9
$TDUPDATE
 40
2457904.375142373
  9
$TDUUPDATE
 40
2457904.000142373
  9
$TDINDWG
 40
0.0000000116
  9
$TDUSRTIMER
 40
0.0000000116
  9
$USRTIMER
 70
     1
  9
$ANGBASE
 50
0.0
  9
$ANGDIR
 70
     0
  9
$PDMODE
 70
     0
  9
$PDSIZE
 40
0.0
  9
$PLINEWID
 40
0.0
  9
$SPLFRAME
 70
     0
  9
$SPLINETYPE
 70
     6
  9
$SPLINESEGS
 70
     8
  9
$HANDSEED
  5
23C
  9
$SURFTAB1
 70
     6
  9
$SURFTAB2
 70
     6
  9
$SURFTYPE
 70
     6
  9
$SURFU
 70
     6
  9
$SURFV
 70
     6
  9
$UCSBASE
  2

  9
$UCSNAME
  2

  9
$UCSORG
 10
0.0
 20
0.0
 30
0.0
  9
$UCSXDIR
 10
1.0
 20
0.0
 30
0.0
  9
$UCSYDIR
 10
0.0
 20
1.0
 30
0.0
  9
$UCSORTHOREF
  2

  9
$UCSORTHOVIEW
 70
     0
  9
$UCSORGTOP
 10
0.0
 20
0.0
 30
0.0
  9
$UCSORGBOTTOM
 10
0.0
 20
0.0
 30
0.0
  9
$UCSORGLEFT
 10
0.0
 20
0.0
 30
0.0
  9
$UCSORGRIGHT
 10
0.0
 20
0.0
 30
0.0
  9
$UCSORGFRONT
 10
0.0
 20
0.0
 30
0.0
  9
$UCSORGBACK
 10
0.0
 20
0.0
 30
0.0
  9
$PUCSBASE
  2

  9
$PUCSNAME
  2

  9
$PUCSORG
 10
0.0
 20
0.0
 30
0.0
  9
$PUCSXDIR
 10
1.0
 20
0.0
 30
0.0
  9
$PUCSYDIR
 10
0.0
 20
1.0
 30
0.0
  9
$PUCSORTHOREF
  2

  9
$PUCSORTHOVIEW
 70
     0
  9
$PUCSORGTOP
 10
0.0
 20
0.0
 30
0.0
  9
$PUCSORGBOTTOM
 10
0.0
 20
0.0
 30
0.0
  9
$PUCSORGLEFT
 10
0.0
 20
0.0
 30
0.0
  9
$PUCSORGRIGHT
 10
0.0
 20
0.0
 30
0.0
  9
$PUCSORGFRONT
 10
0.0
 20
0.0
 30
0.0
  9
$PUCSORGBACK
 10
0.0
 20
0.0
 30
0.0
  9
$USERI1
 70
     0
  9
$USERI2
 70
     0
  9
$USERI3
 70
     0
  9
$USERI4
 70
     0
  9
$USERI5
 70
     0
  9
$USERR1
 40
0.0
  9
$USERR2
 40
0.0
  9
$USERR3
 40
0.0
  9
$USERR4
 40
0.0
  9
$USERR5
 40
0.0
  9
$WORLDVIEW
 70
     1
  9
$SHADEDGE
 70
     3
  9
$SHADEDIF
 70
    70
  9
$TILEMODE
 70
     1
  9
$MAXACTVP
 70
    64
  9
$PINSBASE
 10
0.0
 20
0.0
 30
0.0
  9
$PLIMCHECK
 70
     0
  9
$PEXTMIN
 10
1.000000000000000E+20
 20
1.000000000000000E+20
 30
1.000000000000000E+20
  9
$PEXTMAX
 10
-1.000000000000000E+20
 20
-1.000000000000000E+20
 30
-1.000000000000000E+20
  9
$PLIMMIN
 10
0.0
 20
0.0
  9
$PLIMMAX
 10
420.0
 20
297.0
  9
$UNITMODE
 70
     0
  9
$VISRETAIN
 70
     1
  9
$PLINEGEN
 70
     0
  9
$PSLTSCALE
 70
     1
  9
$TREEDEPTH
 70
  3020
  9
$CMLSTYLE
  2
Standard
  9
$CMLJUST
 70
     0
  9
$CMLSCALE
 40
20.0
  9
$PROXYGRAPHICS
 70
     1
  9
$MEASUREMENT
 70
     1
  9
$CELWEIGHT
370
    -1
  9
$ENDCAPS
280
     0
  9
$JOINSTYLE
280
     0
  9
$LWDISPLAY
290
     0
  9
$INSUNITS
 70
     4
  9
$HYPERLINKBASE
  1

  9
$STYLESHEET
  1

  9
$XEDIT
290
     1
  9
$CEPSNTYPE
380
     0
  9
$PSTYLEMODE
290
     1
  9
$FINGERPRINTGUID
  2
{87C0E657-4A11-4E27-8F95-447EE0C631D5}
  9
$VERSIONGUID
  2
{FAEB1C32-E019-11D5-929B-00C0DF256EC4}
  9
$EXTNAMES
290
     1
  9
$PSVPSCALE
 40
0.0
  9
$OLESTARTUP
290
     0
  9
$SORTENTS
280
   127
  9
$INDEXCTL
280
     0
  9
$HIDETEXT
280
     1
  9
$XCLIPFRAME
290
     0
  9
$HALOGAP
280
     0
  9
$OBSCOLOR
 70
   257
  9
$OBSLTYPE
280
     0
  9
$INTERSECTIONDISPLAY
280
     0
  9
$INTERSECTIONCOLOR
 70
   257
  9
$DIMASSOC
280
     2
  9
$PROJECTNAME
  1

  0
ENDSEC
  0
SECTION
  2
CLASSES
  0
CLASS
  1
ACDBDICTIONARYWDFLT
  2
AcDbDictionaryWithDefault
  3
ObjectDBX Classes
 90
        0
 91
        4
280
     0
281
     0
  0
CLASS
  1
VISUALSTYLE
  2
AcDbVisualStyle
  3
ObjectDBX Classes
 90
     4095
 91
        4
280
     0
281
     0
  0
ENDSEC
  0
SECTION
  2
TABLES
  0
TABLE
  2
VPORT
  5
8
330
0
100
AcDbSymbolTable
 70
     1
  0
VPORT
  5
29
330
8
100
AcDbSymbolTableRecord
100
AcDbViewportTableRecord
  2
*Active
 70
     0
 10
0.0
 20
0.0
 11
1.0
 21
1.0
 12
0.0
 22
0.0
 13
0.0
 23
0.0
 14
10.0
 24
10.0
 15
10.0
 25
10.0
 16
0.0
 26
0.0
 36
1.0
 17
0.0
 27
0.0
 37
0.0
 40
1633.5
 41
1.414141414141414
 42
50.0
 43
0.0
 44
0.0
 50
0.0
 51
0.0
 71
     0
 72
 10000
 73
     1
 74
     3
 75
     0
 76
     0
 77
     0
 78
     0
281
     0
 65
     1
110
0.0
120
0.0
130
0.0
111
1.0
121
0.0
131
0.0
112
0.0
122
1.0
132
0.0
 79
     0
146
0.0
  0
ENDTAB
  0
TABLE
  2
LTYPE
  5
5
330
0
100
AcDbSymbolTable
 70
     5
  0
LTYPE
  5
14
330
5
100
AcDbSymbolTableRecord
100
AcDbLinetypeTableRecord
  2
ByBlock
 70
     0
  3

 72
    65
 73
     0
 40
0.0
  0
LTYPE
  5
15
330
5
100
AcDbSymbolTableRecord
100
AcDbLinetypeTableRecord
  2
ByLayer
 70
     0
  3

 72
    65
 73
     0
 40
0.0
  0
LTYPE
  5
16
330
5
100
AcDbSymbolTableRecord
100
AcDbLinetypeTableRecord
  2
Continuous
 70
     0
  3
Solid line
 72
    65
 73
     0
 40
0.0
  0
LTYPE
  5
3C
330
5
100
AcDbSymbolTableRecord
100
AcDbLinetypeTableRecord
  2
JWW_DASHED3
 70
     0
  3
---  ------  ------  ------  ---
 72
    65
 73
     2
 40
3.386666666666667
 49
2.54
 74
     0
 49
-0.8466666666666667
 74
     0
  0
LTYPE
  5
3D
330
5
100
AcDbSymbolTableRecord
100
AcDbLinetypeTableRecord
  2
JWW_CENTER1
 70
     0
  3
-----  --  ----------  --  -----
 72
    65
 73
     4
 40
6.773333333333333
 49
4.233333333333333
 74
     0
 49
-0.8466666666666667
 74
     0
 49
0.8466666666666667
 74
     0
 49
-0.8466666666666667
 74
     0
  0
LTYPE
  5
3E
330
5
100
AcDbSymbolTableRecord
100
AcDbLinetypeTableRecord
  2
JWW_CENTER2
 70
     0
  3
-------------  --  -------------
 72
    65
 73
     4
 40
13.54666666666667
 49
11.00666666666667
 74
     0
 49
-0.8466666666666667
 74
     0
 49
0.8466666666666667
 74
     0
 49
-0.8466666666666667
 74
     0
  0
LTYPE
  5
3F
330
5
100
AcDbSymbolTableRecord
100
AcDbLinetypeTableRecord
  2
JWW_PHANTOM1
 70
     0
  3
----  -  -  --------  -  -  ----
 72
    65
 73
     6
 40
6.773333333333333
 49
3.386666666666667
 74
     0
 49
-0.8466666666666667
 74
     0
 49
0.4233333333333333
 74
     0
 49
-0.8466666666666667
 74
     0
 49
0.4233333333333333
 74
     0
 49
-0.8466666666666667
 74
     0
  0
ENDTAB
  0
TABLE
  2
LAYER
  5
2
330
0
100
AcDbSymbolTable
 70
    11
  0
LAYER
  5
10
330
2
100
AcDbSymbolTableRecord
100
AcDbLayerTableRecord
  2
0
 70
     0
 62
     7
  6
Continuous
370
    -3
390
F
  0
LAYER
  5
40
330
2
100
AcDbSymbolTableRecord
100
AcDbLayerTableRecord
  2
0-2
 70
     0
 62
     7
  6
Continuous
370
    -3
390
F
  0
LAYER
  5
41
330
2
100
AcDbSymbolTableRecord
100
AcDbLayerTableRecord
  2
0-1
 70
     0
 62
     7
  6
Continuous
370
    -3
390
F
  0
LAYER
  5
42
330
2
100
AcDbSymbolTableRecord
100
AcDbLayerTableRecord
  2
0-4
 70
     0
 62
     7
  6
Continuous
370
    -3
390
F
  0
LAYER
  5
43
330
2
100
AcDbSymbolTableRecord
100
AcDbLayerTableRecord
  2
D-4
 70
     0
 62
     7
  6
Continuous
370
    -3
390
F
  0
LAYER
  5
44
330
2
100
AcDbSymbolTableRecord
100
AcDbLayerTableRecord
  2
D-6
 70
     0
 62
     7
  6
Continuous
370
    -3
390
F
  0
LAYER
  5
45
330
2
100
AcDbSymbolTableRecord
100
AcDbLayerTableRecord
  2
D-2
 70
     0
 62
     7
  6
Continuous
370
    -3
390
F
  0
LAYER
  5
46
330
2
100
AcDbSymbolTableRecord
100
AcDbLayerTableRecord
  2
D-1
 70
     0
 62
     7
  6
Continuous
370
    -3
390
F
  0
LAYER
  5
47
330
2
100
AcDbSymbolTableRecord
100
AcDbLayerTableRecord
  2
D-0
 70
     0
 62
     7
  6
Continuous
370
    -3
390
F
  0
LAYER
  5
48
330
2
100
AcDbSymbolTableRecord
100
AcDbLayerTableRecord
  2
D-5
 70
     0
 62
     7
  6
Continuous
370
    -3
390
F
  0
LAYER
  5
49
330
2
100
AcDbSymbolTableRecord
100
AcDbLayerTableRecord
  2
F-0
 70
     0
 62
     7
  6
Continuous
370
    -3
390
F
  0
ENDTAB
  0
TABLE
  2
STYLE
  5
3
330
0
100
AcDbSymbolTable
 70
     2
  0
STYLE
  5
11
330
3
100
AcDbSymbolTableRecord
100
AcDbTextStyleTableRecord
  2
Standard
 70
     0
 40
0.0
 41
1.0
 50
0.0
 71
     0
 42
2.5
  3
txt
  4

1001
ACAD
1000

1071
        0
  0
STYLE
  5
3B
330
3
100
AcDbSymbolTableRecord
100
AcDbTextStyleTableRecord
  2
ＭＳ ゴシック
 70
     0
 40
1.0
 41
1.0
 50
0.0
 71
     0
 42
10.0
  3

  4

1001
ACAD
1000
MS Gothic
1071
    32817
  0
ENDTAB
  0
TABLE
  2
VIEW
  5
6
330
0
100
AcDbSymbolTable
 70
     0
  0
ENDTAB
  0
TABLE
  2
UCS
  5
7
330
0
100
AcDbSymbolTable
 70
     0
  0
ENDTAB
  0
TABLE
  2
APPID
  5
9
330
0
100
AcDbSymbolTable
 70
     1
  0
APPID
  5
12
330
9
100
AcDbSymbolTableRecord
100
AcDbRegAppTableRecord
  2
ACAD
 70
     0
  0
ENDTAB
  0
TABLE
  2
DIMSTYLE
  5
A
330
0
100
AcDbSymbolTable
 70
     1
100
AcDbDimStyleTable
  0
DIMSTYLE
105
27
330
A
100
AcDbSymbolTableRecord
100
AcDbDimStyleTableRecord
  2
ISO-25
 70
     0
 41
2.5
 42
0.625
 43
3.75
 44
1.25
 73
     0
 74
     0
 77
     1
 78
     8
140
2.5
141
2.5
143
0.03937007874016
147
0.625
171
     3
172
     1
271
     2
272
     2
274
     3
278
    44
283
     0
284
     8
340
11
  0
ENDTAB
  0
TABLE
  2
BLOCK_RECORD
  5
1
330
0
100
AcDbSymbolTable
 70
     1
  0
BLOCK_RECORD
  5
1F
330
1
100
AcDbSymbolTableRecord
100
AcDbBlockTableRecord
  2
*Model_Space
340
22
  0
BLOCK_RECORD
  5
1B
330
1
100
AcDbSymbolTableRecord
100
AcDbBlockTableRecord
  2
*Paper_Space
340
1E
  0
BLOCK_RECORD
  5
23
330
1
100
AcDbSymbolTableRecord
100
AcDbBlockTableRecord
  2
*Paper_Space0
340
26
  0
ENDTAB
  0
ENDSEC
  0
SECTION
  2
BLOCKS
  0
BLOCK
  5
20
330
1F
100
AcDbEntity
  8
0
100
AcDbBlockBegin
  2
*Model_Space
 70
     0
 10
0.0
 20
0.0
 30
0.0
  3
*Model_Space
  1

  0
ENDBLK
  5
21
330
1F
100
AcDbEntity
  8
0
100
AcDbBlockEnd
  0
BLOCK
  5
1C
330
1B
100
AcDbEntity
 67
     1
  8
0
100
AcDbBlockBegin
  2
*Paper_Space
 70
     0
 10
0.0
 20
0.0
 30
0.0
  3
*Paper_Space
  1

  0
ENDBLK
  5
1D
330
1B
100
AcDbEntity
 67
     1
  8
0
100
AcDbBlockEnd
  0
BLOCK
  5
24
330
23
100
AcDbEntity
  8
0
100
AcDbBlockBegin
  2
*Paper_Space0
 70
     0
 10
0.0
 20
0.0
 30
0.0
  3
*Paper_Space0
  1

  0
ENDBLK
  5
25
330
23
100
AcDbEntity
  8
0
100
AcDbBlockEnd
  0
ENDSEC
  0
SECTION
  2
ENTITIES
  0
LINE
  5
4A
330
1F
100
AcDbEntity
  8
0-2
  6
Continuous
 62
     3
370
     9
100
AcDbLine
 10
-616.8919125118771
 20
-137.7701877903294
 30
0.0
 11
-616.8919125118771
 21
312.2298122096707
 31
0.0
  0
LINE
  5
4B
330
1F
100
AcDbEntity
  8
0-2
  6
Continuous
 62
     3
370
     9
100
AcDbLine
 10
-616.8919125118771
 20
312.2298122096707
 30
0.0
 11
-166.8919125118771
 21
312.2298122096707
 31
0.0
  0
LINE
  5
4C
330
1F
100
AcDbEntity
  8
0-2
  6
Continuous
 62
     3
370
     9
100
AcDbLine
 10
-166.8919125118771
 20
312.2298122096707
 30
0.0
 11
-166.8919125118771
 21
-137.7701877903294
 31
0.0
  0
LINE
  5
4D
330
1F
100
AcDbEntity
  8
0-2
  6
Continuous
 62
     3
370
     9
100
AcDbLine
 10
-166.8919125118771
 20
-137.7701877903294
 30
0.0
 11
-616.8919125118771
 21
-137.7701877903294
 31
0.0
  0
LINE
  5
4E
330
1F
100
AcDbEntity
  8
0-1
  6
Continuous
 62
     2
370
     9
100
AcDbLine
 10
-165.8919463286529
 20
-138.7702158335092
 30
0.0
 11
-617.8919096250792
 21
-138.7702158335092
 31
0.0
  0
LINE
  5
4F
330
1F
100
AcDbEntity
  8
0-1
  6
Continuous
 62
     2
370
     9
100
AcDbLine
 10
-165.8919463286529
 20
313.2297165329392
 30
0.0
 11
-165.8919463286529
 21
-138.7702158335092
 31
0.0
  0
LINE
  5
50
330
1F
100
AcDbEntity
  8
0-1
  6
Continuous
 62
     2
370
     9
100
AcDbLine
 10
-617.8919096250792
 20
313.2297165329392
 30
0.0
 11
-165.8919463286529
 21
313.2297165329392
 31
0.0
  0
LINE
  5
51
330
1F
100
AcDbEntity
  8
0-1
  6
Continuous
 62
     2
370
     9
100
AcDbLine
 10
-617.8919096250792
 20
-138.7702158335092
 30
0.0
 11
-617.8919096250792
 21
313.2297165329392
 31
0.0
  0
LINE
  5
52
330
1F
100
AcDbEntity
  8
0-1
  6
Continuous
 62
     2
370
     9
100
AcDbLine
 10
-629.8919059134819
 20
325.2298056112754
 30
0.0
 11
-153.8919191102724
 21
325.2298056112754
 31
0.0
  0
LINE
  5
53
330
1F
100
AcDbEntity
  8
0-1
  6
Continuous
 62
     2
370
     9
100
AcDbLine
 10
-629.8919059134819
 20
-150.7702430518898
 30
0.0
 11
-629.8919059134819
 21
325.2298056112754
 31
0.0
  0
LINE
  5
54
330
1F
100
AcDbEntity
  8
0-1
  6
Continuous
 62
     2
370
     9
100
AcDbLine
 10
-153.8919191102724
 20
-150.7702430518898
 30
0.0
 11
-629.8919059134819
 21
-150.7702430518898
 31
0.0
  0
LINE
  5
55
330
1F
100
AcDbEntity
  8
0-1
  6
Continuous
 62
     2
370
     9
100
AcDbLine
 10
-153.8919191102724
 20
325.2298056112754
 30
0.0
 11
-153.8919191102724
 21
-150.7702430518898
 31
0.0
  0
LINE
  5
56
330
1F
100
AcDbEntity
  8
0-1
  6
JWW_DASHED3
 62
     2
370
     9
100
AcDbLine
 10
-591.8918918918919
 20
287.2297297297298
 30
0.0
 11
-191.8919331318622
 21
287.2297297297298
 31
0.0
  0
LINE
  5
57
330
1F
100
AcDbEntity
  8
0-1
  6
JWW_DASHED3
 62
     2
370
     9
100
AcDbLine
 10
-591.8918918918919
 20
-112.7702290302998
 30
0.0
 11
-591.8918918918919
 21
287.2297297297298
 31
0.0
  0
LINE
  5
58
330
1F
100
AcDbEntity
  8
0-1
  6
JWW_DASHED3
 62
     2
370
     9
100
AcDbLine
 10
-191.8919331318622
 20
-112.7702290302998
 30
0.0
 11
-591.8918918918919
 21
-112.7702290302998
 31
0.0
  0
LINE
  5
59
330
1F
100
AcDbEntity
  8
0-1
  6
JWW_DASHED3
 62
     2
370
     9
100
AcDbLine
 10
-191.8919331318622
 20
287.2297297297298
 30
0.0
 11
-191.8919331318622
 21
-112.7702290302998
 31
0.0
  0
LINE
  5
5A
330
1F
100
AcDbEntity
  8
0-2
  6
Continuous
 62
     3
370
     9
100
AcDbLine
 10
-611.891896015889
 20
307.2297957136824
 30
0.0
 11
-171.8919290078652
 21
307.2297957136824
 31
0.0
  0
LINE
  5
5B
330
1F
100
AcDbEntity
  8
0-2
  6
Continuous
 62
     3
370
     9
100
AcDbLine
 10
-611.891896015889
 20
-132.7702331542969
 30
0.0
 11
-611.891896015889
 21
307.2297957136824
 31
0.0
  0
LINE
  5
5C
330
1F
100
AcDbEntity
  8
0-2
  6
Continuous
 62
     3
370
     9
100
AcDbLine
 10
-171.8919290078652
 20
-132.7702331542969
 30
0.0
 11
-611.891896015889
 21
-132.7702331542969
 31
0.0
  0
LINE
  5
5D
330
1F
100
AcDbEntity
  8
0-2
  6
Continuous
 62
     3
370
     9
100
AcDbLine
 10
-171.8919290078652
 20
307.2297957136824
 30
0.0
 11
-171.8919290078652
 21
-132.7702331542969
 31
0.0
  0
LINE
  5
5E
330
1F
100
AcDbEntity
  8
0-2
  6
Continuous
 62
     3
370
     9
100
AcDbLine
 10
-506.3918448783256
 20
41.22969756255287
 30
0.0
 11
-537.3918481775231
 21
41.22969756255287
 31
0.0
  0
LINE
  5
5F
330
1F
100
AcDbEntity
  8
0-2
  6
Continuous
 62
     3
370
     9
100
AcDbLine
 10
-504.3919125118771
 20
131.2298089104731
 30
0.0
 11
-504.3919125118771
 21
43.2296917889569
 31
0.0
  0
LINE
  5
60
330
1F
100
AcDbEntity
  8
0-2
  6
Continuous
 62
     3
370
     9
100
AcDbLine
 10
-539.3919351938608
 20
131.2298089104731
 30
0.0
 11
-539.3919351938608
 21
43.2296917889569
 31
0.0
  0
LINE
  5
61
330
1F
100
AcDbEntity
  8
0-2
  6
Continuous
 62
     3
370
     9
100
AcDbLine
 10
-537.3918481775231
 20
133.2298031368772
 30
0.0
 11
-506.3918448783256
 21
133.2298031368772
 31
0.0
  0
LINE
  5
62
330
1F
100
AcDbEntity
  8
0-2
  6
Continuous
 62
     3
370
     9
100
AcDbLine
 10
-527.9919804753483
 20
117.6297120790224
 30
0.0
 11
-527.9919804753483
 21
56.82966490049623
 31
0.0
  0
LINE
  5
63
330
1F
100
AcDbEntity
  8
0-2
  6
Continuous
 62
     3
370
     9
100
AcDbLine
 10
-517.9918237634606
 20
119.8297614020271
 30
0.0
 11
-525.7919311523438
 21
119.8297614020271
 31
0.0
  0
LINE
  5
64
330
1F
100
AcDbEntity
  8
0-2
  6
Continuous
 62
     3
370
     9
100
AcDbLine
 10
-517.9918237634606
 20
54.62967743744727
 30
0.0
 11
-525.7919311523438
 21
54.62967743744727
 31
0.0
  0
LINE
  5
65
330
1F
100
AcDbEntity
  8
0-2
  6
Continuous
 62
     3
370
     9
100
AcDbLine
 10
-515.7920218802788
 20
56.82966490049623
 30
0.0
 11
-515.7920218802788
 21
117.6297120790224
 31
0.0
  0
LINE
  5
66
330
1F
100
AcDbEntity
  8
0-2
  6
JWW_CENTER1
 62
     3
370
     9
100
AcDbLine
 10
-543.7047185124577
 20
87.22975034971498
 30
0.0
 11
-501.0457837903822
 21
87.22975034971498
 31
0.0
  0
LINE
  5
67
330
1F
100
AcDbEntity
  8
0-2
  6
JWW_CENTER1
 62
     3
370
     9
100
AcDbLine
 10
-521.89190838788
 20
35.95032150680964
 30
0.0
 11
-521.89190838788
 21
137.1608177391259
 31
0.0
  0
LINE
  5
68
330
1F
100
AcDbEntity
  8
0-2
  6
Continuous
 62
     3
370
     9
100
AcDbLine
 10
-246.3918531263197
 20
41.22969756255287
 30
0.0
 11
-277.3918564255173
 21
41.22969756255287
 31
0.0
  0
LINE
  5
69
330
1F
100
AcDbEntity
  8
0-2
  6
Continuous
 62
     3
370
     9
100
AcDbLine
 10
-244.3918588999155
 20
131.2298089104731
 30
0.0
 11
-244.3918588999155
 21
43.2296917889569
 31
0.0
  0
LINE
  5
6A
330
1F
100
AcDbEntity
  8
0-2
  6
Continuous
 62
     3
370
     9
100
AcDbLine
 10
-279.3919743718327
 20
131.2298089104731
 30
0.0
 11
-279.3919743718327
 21
43.2296917889569
 31
0.0
  0
LINE
  5
6B
330
1F
100
AcDbEntity
  8
0-2
  6
Continuous
 62
     3
370
     9
100
AcDbLine
 10
-277.3918564255173
 20
133.2298031368772
 30
0.0
 11
-246.3918531263197
 21
133.2298031368772
 31
0.0
  0
LINE
  5
6C
330
1F
100
AcDbEntity
  8
0-2
  6
Continuous
 62
     3
370
     9
100
AcDbLine
 10
-267.9919887233424
 20
117.6297120790224
 30
0.0
 11
-267.9919887233424
 21
56.82966490049623
 31
0.0
  0
LINE
  5
6D
330
1F
100
AcDbEntity
  8
0-2
  6
Continuous
 62
     3
370
     9
100
AcDbLine
 10
-257.9918938714104
 20
119.8297614020271
 30
0.0
 11
-265.7919394003378
 21
119.8297614020271
 31
0.0
  0
LINE
  5
6E
330
1F
100
AcDbEntity
  8
0-2
  6
Continuous
 62
     3
370
     9
100
AcDbLine
 10
-257.9918938714104
 20
54.62967743744727
 30
0.0
 11
-265.7919394003378
 21
54.62967743744727
 31
0.0
  0
LINE
  5
6F
330
1F
100
AcDbEntity
  8
0-2
  6
Continuous
 62
     3
370
     9
100
AcDbLine
 10
-255.7920301282728
 20
56.82966490049623
 30
0.0
 11
-255.7920301282728
 21
117.6297120790224
 31
0.0
  0
LINE
  5
70
330
1F
100
AcDbEntity
  8
0-2
  6
JWW_CENTER1
 62
     3
370
     9
100
AcDbLine
 10
-283.7047267604518
 20
87.22975034971498
 30
0.0
 11
-241.0457920383762
 21
87.22975034971498
 31
0.0
  0
LINE
  5
71
330
1F
100
AcDbEntity
  8
0-2
  6
JWW_CENTER1
 62
     3
370
     9
100
AcDbLine
 10
-261.8919166358741
 20
35.95032150680964
 30
0.0
 11
-261.8919166358741
 21
137.1608177391259
 31
0.0
  0
LINE
  5
72
330
1F
100
AcDbEntity
  8
0-4
  6
Continuous
 62
     7
370
     9
100
AcDbLine
 10
-591.8918918918919
 20
382.2154442039697
 30
0.0
 11
-191.8919331318622
 21
382.2154442039697
 31
0.0
  0
LINE
  5
73
330
1F
100
AcDbEntity
  8
0-4
  6
Continuous
 62
     7
370
     9
100
AcDbLine
 10
-591.8918918918919
 20
294.0601204537057
 30
0.0
 11
-591.8918918918919
 21
383.7154244087839
 31
0.0
  0
LINE
  5
74
330
1F
100
AcDbEntity
  8
0-4
  6
Continuous
 62
     7
370
     9
100
AcDbLine
 10
-191.8919331318622
 20
294.0601204537057
 30
0.0
 11
-191.8919331318622
 21
383.7154244087839
 31
0.0
  0
LINE
  5
75
330
1F
100
AcDbEntity
  8
0-4
  6
Continuous
 62
     7
370
     9
100
AcDbLine
 10
-616.8919125118771
 20
426.2931370090794
 30
0.0
 11
-166.8919125118771
 21
426.2931370090794
 31
0.0
  0
LINE
  5
76
330
1F
100
AcDbEntity
  8
0-4
  6
Continuous
 62
     7
370
     9
100
AcDbLine
 10
-616.8919125118771
 20
321.8126616606841
 30
0.0
 11
-616.8919125118771
 21
427.7931172138937
 31
0.0
  0
LINE
  5
77
330
1F
100
AcDbEntity
  8
0-4
  6
Continuous
 62
     7
370
     9
100
AcDbLine
 10
-166.8919125118771
 20
321.8126616606841
 30
0.0
 11
-166.8919125118771
 21
427.7931172138937
 31
0.0
  0
LINE
  5
78
330
1F
100
AcDbEntity
  8
0-4
  6
Continuous
 62
     7
370
     9
100
AcDbLine
 10
-629.8919059134819
 20
464.675012536951
 30
0.0
 11
-153.8919191102724
 21
464.675012536951
 31
0.0
  0
LINE
  5
79
330
1F
100
AcDbEntity
  8
0-4
  6
Continuous
 62
     7
370
     9
100
AcDbLine
 10
-629.8919059134819
 20
335.790537241343
 30
0.0
 11
-629.8919059134819
 21
466.1749927417652
 31
0.0
  0
LINE
  5
7A
330
1F
100
AcDbEntity
  8
0-4
  6
Continuous
 62
     7
370
     9
100
AcDbLine
 10
-153.8919191102724
 20
335.790537241343
 30
0.0
 11
-153.8919191102724
 21
466.1749927417652
 31
0.0
  0
LINE
  5
7B
330
1F
100
AcDbEntity
  8
0-4
  6
Continuous
 62
     7
370
     9
100
AcDbLine
 10
-686.8776063661318
 20
-112.7702290302998
 30
0.0
 11
-686.8776063661318
 21
287.2297297297298
 31
0.0
  0
LINE
  5
7C
330
1F
100
AcDbEntity
  8
0-4
  6
Continuous
 62
     7
370
     9
100
AcDbLine
 10
-598.7222826158678
 20
-112.7702290302998
 30
0.0
 11
-688.3775865709458
 21
-112.7702290302998
 31
0.0
  0
LINE
  5
7D
330
1F
100
AcDbEntity
  8
0-4
  6
Continuous
 62
     7
370
     9
100
AcDbLine
 10
-598.7222826158678
 20
287.2297297297298
 30
0.0
 11
-688.3775865709458
 21
287.2297297297298
 31
0.0
  0
LINE
  5
7E
330
1F
100
AcDbEntity
  8
0-4
  6
Continuous
 62
     7
370
     9
100
AcDbLine
 10
-730.9552373112859
 20
-137.770249650285
 30
0.0
 11
-730.9552373112859
 21
312.2298122096707
 31
0.0
  0
LINE
  5
7F
330
1F
100
AcDbEntity
  8
0-4
  6
Continuous
 62
     7
370
     9
100
AcDbLine
 10
-626.474885682802
 20
-137.770249650285
 30
0.0
 11
-732.4552175161
 21
-137.770249650285
 31
0.0
  0
LINE
  5
80
330
1F
100
AcDbEntity
  8
0-4
  6
Continuous
 62
     7
370
     9
100
AcDbLine
 10
-626.474885682802
 20
312.2298122096707
 30
0.0
 11
-732.4552175161
 21
312.2298122096707
 31
0.0
  0
LINE
  5
81
330
1F
100
AcDbEntity
  8
0-4
  6
Continuous
 62
     7
370
     9
100
AcDbLine
 10
-769.3372365590687
 20
-150.7702430518898
 30
0.0
 11
-769.3372365590687
 21
325.2298056112754
 31
0.0
  0
LINE
  5
82
330
1F
100
AcDbEntity
  8
0-4
  6
Continuous
 62
     7
370
     9
100
AcDbLine
 10
-640.4527612634606
 20
-150.7702430518898
 30
0.0
 11
-770.8372167638831
 21
-150.7702430518898
 31
0.0
  0
LINE
  5
83
330
1F
100
AcDbEntity
  8
0-4
  6
Continuous
 62
     7
370
     9
100
AcDbLine
 10
-640.4527612634606
 20
325.2298056112754
 30
0.0
 11
-770.8372167638831
 21
325.2298056112754
 31
0.0
  0
LINE
  5
84
330
1F
100
AcDbEntity
  8
0-4
  6
Continuous
 62
     7
370
     9
100
AcDbLine
 10
-506.594621812975
 20
-235.9053781870249
 30
0.0
 11
-241.330471554318
 21
-235.9053781870249
 31
0.0
  0
LINE
  5
85
330
1F
100
AcDbEntity
  8
D-4
  6
Continuous
 62
     7
370
     9
100
AcDbLine
 10
444.6199159364443
 20
254.326171875
 30
0.0
 11
450.1855798669763
 21
257.53942541174
 31
0.0
  0
LINE
  5
86
330
1F
100
AcDbEntity
  8
D-4
  6
Continuous
 62
     7
370
     9
100
AcDbLine
 10
444.0396695523648
 20
256.4911466031463
 30
0.0
 11
450.9778821790542
 21
260.4969498917864
 31
0.0
  0
LINE
  5
87
330
1F
100
AcDbEntity
  8
D-4
  6
Continuous
 62
     7
370
     9
100
AcDbLine
 10
443.4596706081081
 20
258.6562450512037
 30
0.0
 11
451.7706793707771
 21
263.4544743718328
 31
0.0
  0
LINE
  5
88
330
1F
100
AcDbEntity
  8
D-4
  6
Continuous
 62
     7
370
     9
100
AcDbLine
 10
442.8794242240289
 20
260.821343499261
 30
0.0
 11
452.5629816828547
 21
266.4119988518793
 31
0.0
  0
LINE
  5
89
330
1F
100
AcDbEntity
  8
D-4
  6
Continuous
 62
     7
370
     9
100
AcDbLine
 10
442.2994252797722
 20
262.9863182274072
 30
0.0
 11
453.3552839949326
 21
269.3695233319258
 31
0.0
  0
LINE
  5
8A
330
1F
100
AcDbEntity
  8
D-4
  6
Continuous
 62
     7
370
     9
100
AcDbLine
 10
441.7191788956927
 20
265.1514166754646
 30
0.0
 11
453.3471184807857
 21
271.8648302232897
 31
0.0
  0
LINE
  5
8B
330
1F
100
AcDbEntity
  8
D-4
  6
Continuous
 62
     7
370
     9
100
AcDbLine
 10
441.1391799514359
 20
267.316515123522
 30
0.0
 11
453.3471184807857
 21
274.3648384712839
 31
0.0
  0
LINE
  5
8C
330
1F
100
AcDbEntity
  8
D-4
  6
Continuous
 62
     7
370
     9
100
AcDbLine
 10
440.5972867398648
 20
282.0035532358531
 30
0.0
 11
453.3471184807857
 21
289.3648879592483
 31
0.0
  0
LINE
  5
8D
330
1F
100
AcDbEntity
  8
D-4
  6
Continuous
 62
     7
370
     9
100
AcDbLine
 10
440.5972867398648
 20
279.5036687077703
 30
0.0
 11
453.3471184807857
 21
286.864755991343
 31
0.0
  0
LINE
  5
8E
330
1F
100
AcDbEntity
  8
D-4
  6
Continuous
 62
     7
370
     9
100
AcDbLine
 10
440.5972867398648
 20
277.0036604597761
 30
0.0
 11
453.3471184807857
 21
284.3648714632602
 31
0.0
  0
LINE
  5
8F
330
1F
100
AcDbEntity
  8
D-4
  6
Continuous
 62
     7
370
     9
100
AcDbLine
 10
440.5972867398648
 20
274.5036522117822
 30
0.0
 11
453.3471184807857
 21
281.8648632152662
 31
0.0
  0
LINE
  5
90
330
1F
100
AcDbEntity
  8
D-4
  6
Continuous
 62
     7
370
     9
100
AcDbLine
 10
440.5972867398648
 20
272.003643963788
 30
0.0
 11
453.3471184807857
 21
279.364854967272
 31
0.0
  0
LINE
  5
91
330
1F
100
AcDbEntity
  8
D-4
  6
Continuous
 62
     7
370
     9
100
AcDbLine
 10
440.5972867398648
 20
269.503635715794
 30
0.0
 11
453.3471184807857
 21
276.8648467192779
 31
0.0
  0
LINE
  5
92
330
1F
100
AcDbEntity
  8
D-4
  6
Continuous
 62
     7
370
     9
100
AcDbLine
 10
446.9720788904138
 20
250.3767848659207
 30
0.0
 11
441.8473527238177
 21
269.503635715794
 31
0.0
  0
LINE
  5
93
330
1F
100
AcDbEntity
  8
D-4
  6
Continuous
 62
     7
370
     9
100
AcDbLine
 10
446.9720788904138
 20
250.3767848659207
 30
0.0
 11
452.0972999366555
 21
269.503635715794
 31
0.0
  0
LINE
  5
94
330
1F
100
AcDbEntity
  8
D-4
  6
JWW_CENTER2
 62
     7
370
     9
100
AcDbLine
 10
446.9720788904138
 20
246.0557432432432
 30
0.0
 11
446.9720788904138
 21
321.9447945259714
 31
0.0
  0
LINE
  5
95
330
1F
100
AcDbEntity
  8
D-6
  6
Continuous
 62
     6
370
     5
100
AcDbLine
 10
501.9720129064612
 20
365.376916833826
 30
0.0
 11
614.4722603462839
 21
252.876916833826
 31
0.0
  0
LINE
  5
96
330
1F
100
AcDbEntity
  8
D-6
  6
Continuous
 62
     6
370
     5
100
AcDbLine
 10
614.4722603462839
 20
252.876916833826
 30
0.0
 11
614.4722603462839
 21
365.376916833826
 31
0.0
  0
LINE
  5
97
330
1F
100
AcDbEntity
  8
D-6
  6
Continuous
 62
     6
370
     5
100
AcDbLine
 10
501.9720129064612
 20
252.876916833826
 30
0.0
 11
614.4722603462839
 21
252.876916833826
 31
0.0
  0
LINE
  5
98
330
1F
100
AcDbEntity
  8
D-6
  6
Continuous
 62
     6
370
     5
100
AcDbLine
 10
414.4720953864021
 20
296.6268755938556
 30
0.0
 11
414.4720953864021
 21
171.6268343538852
 31
0.0
  0
LINE
  5
99
330
1F
100
AcDbEntity
  8
D-6
  6
Continuous
 62
     6
370
     5
100
AcDbLine
 10
427.5277627480997
 20
296.6268755938556
 30
0.0
 11
441.8473527238177
 21
282.3072856181378
 31
0.0
  0
LINE
  5
9A
330
1F
100
AcDbEntity
  8
D-6
  6
Continuous
 62
     6
370
     5
100
AcDbLine
 10
414.4720953864021
 20
284.682336755701
 30
0.0
 11
446.3114145639781
 21
252.8431412980363
 31
0.0
  0
LINE
  5
9B
330
1F
100
AcDbEntity
  8
D-6
  6
Continuous
 62
     6
370
     5
100
AcDbLine
 10
414.4720953864021
 20
184.6822542757602
 30
0.0
 11
427.5277627480997
 21
171.6268343538852
 31
0.0
  0
LINE
  5
9C
330
1F
100
AcDbEntity
  8
D-4
  6
Continuous
 62
     7
370
     9
100
AcDbLine
 10
260.5373073268581
 20
76.7138671875
 30
0.0
 11
521.9668826541385
 21
76.7138671875
 31
0.0
  0
LINE
  5
9D
330
1F
100
AcDbEntity
  8
D-2
  6
Continuous
 62
     3
370
     9
100
AcDbLine
 10
401.972177866343
 20
351.1268574482687
 30
0.0
 11
431.9722768422722
 21
351.1268574482687
 31
0.0
  0
LINE
  5
9E
330
1F
100
AcDbEntity
  8
D-2
  6
Continuous
 62
     3
370
     9
100
AcDbLine
 10
469.4722768422722
 20
390.3768755938556
 30
0.0
 11
170.2702702702703
 21
390.3768755938556
 31
0.0
  0
LINE
  5
9F
330
1F
100
AcDbEntity
  8
D-2
  6
Continuous
 62
     3
370
     9
100
AcDbLine
 10
464.4722603462839
 20
384.126916833826
 30
0.0
 11
170.2702702702703
 21
384.126916833826
 31
0.0
  0
LINE
  5
A0
330
1F
100
AcDbEntity
  8
D-2
  6
Continuous
 62
     3
370
     9
100
AcDbLine
 10
464.4722603462839
 20
377.8768343538852
 30
0.0
 11
170.2702702702703
 21
377.8768343538852
 31
0.0
  0
LINE
  5
A1
330
1F
100
AcDbEntity
  8
D-2
  6
Continuous
 62
     3
370
     9
100
AcDbLine
 10
464.4722603462839
 20
371.6268755938556
 30
0.0
 11
170.2702702702703
 21
371.6268755938556
 31
0.0
  0
LINE
  5
A2
330
1F
100
AcDbEntity
  8
D-2
  6
Continuous
 62
     3
370
     9
100
AcDbLine
 10
476.972177866343
 20
386.6268013619089
 30
0.0
 11
476.972177866343
 21
396.6268343538852
 31
0.0
  0
LINE
  5
A3
330
1F
100
AcDbEntity
  8
D-2
  6
Continuous
 62
     3
370
     9
100
AcDbLine
 10
474.4722933382602
 20
385.3768590978675
 30
0.0
 11
476.972177866343
 21
386.6268013619089
 31
0.0
  0
LINE
  5
A4
330
1F
100
AcDbEntity
  8
D-2
  6
Continuous
 62
     3
370
     9
100
AcDbLine
 10
474.4722933382602
 20
345.3768508498733
 30
0.0
 11
474.4722933382602
 21
385.3768590978675
 31
0.0
  0
LINE
  5
A5
330
1F
100
AcDbEntity
  8
D-2
  6
Continuous
 62
     3
370
     9
100
AcDbLine
 10
476.972177866343
 20
344.1267848659207
 30
0.0
 11
474.4722933382602
 21
345.3768508498733
 31
0.0
  0
LINE
  5
A6
330
1F
100
AcDbEntity
  8
D-2
  6
Continuous
 62
     3
370
     9
100
AcDbLine
 10
476.972177866343
 20
334.1268755938556
 30
0.0
 11
476.972177866343
 21
344.1267848659207
 31
0.0
  0
LINE
  5
A7
330
1F
100
AcDbEntity
  8
D-2
  6
Continuous
 62
     3
370
     9
100
AcDbLine
 10
464.4722603462839
 20
340.3768343538852
 30
0.0
 11
464.4722603462839
 21
334.1268755938556
 31
0.0
  0
LINE
  5
A8
330
1F
100
AcDbEntity
  8
D-2
  6
Continuous
 62
     3
370
     9
100
AcDbLine
 10
469.4722768422722
 20
340.3768343538852
 30
0.0
 11
464.4722603462839
 21
340.3768343538852
 31
0.0
  0
LINE
  5
A9
330
1F
100
AcDbEntity
  8
D-2
  6
Continuous
 62
     3
370
     9
100
AcDbLine
 10
469.4722768422722
 20
352.37679971231
 30
0.0
 11
469.4722768422722
 21
340.3768343538852
 31
0.0
  0
LINE
  5
AA
330
1F
100
AcDbEntity
  8
D-2
  6
Continuous
 62
     3
370
     9
100
AcDbLine
 10
436.9722933382602
 20
352.37679971231
 30
0.0
 11
469.4722768422722
 21
352.37679971231
 31
0.0
  0
LINE
  5
AB
330
1F
100
AcDbEntity
  8
D-2
  6
Continuous
 62
     3
370
     9
100
AcDbLine
 10
436.9722933382602
 20
340.3768343538852
 30
0.0
 11
436.9722933382602
 21
352.37679971231
 31
0.0
  0
LINE
  5
AC
330
1F
100
AcDbEntity
  8
D-2
  6
Continuous
 62
     3
370
     9
100
AcDbLine
 10
441.9723098342484
 20
340.3768343538852
 30
0.0
 11
436.9722933382602
 21
340.3768343538852
 31
0.0
  0
LINE
  5
AD
330
1F
100
AcDbEntity
  8
D-2
  6
Continuous
 62
     3
370
     9
100
AcDbLine
 10
441.9723098342484
 20
334.1268755938556
 30
0.0
 11
441.9723098342484
 21
340.3768343538852
 31
0.0
  0
LINE
  5
AE
330
1F
100
AcDbEntity
  8
D-2
  6
Continuous
 62
     3
370
     9
100
AcDbLine
 10
431.9722768422722
 20
346.1268409522805
 30
0.0
 11
431.9722768422722
 21
334.1268755938556
 31
0.0
  0
LINE
  5
AF
330
1F
100
AcDbEntity
  8
D-2
  6
Continuous
 62
     3
370
     9
100
AcDbLine
 10
401.972177866343
 20
346.1268409522805
 30
0.0
 11
431.9722768422722
 21
346.1268409522805
 31
0.0
  0
LINE
  5
B0
330
1F
100
AcDbEntity
  8
D-2
  6
Continuous
 62
     3
370
     9
100
AcDbLine
 10
401.972177866343
 20
351.1268574482687
 30
0.0
 11
401.972177866343
 21
346.1268409522805
 31
0.0
  0
LINE
  5
B1
330
1F
100
AcDbEntity
  8
D-2
  6
Continuous
 62
     3
370
     9
100
AcDbLine
 10
469.4722768422722
 20
357.3768162082982
 30
0.0
 11
170.2702702702703
 21
357.3768162082982
 31
0.0
  0
LINE
  5
B2
330
1F
100
AcDbEntity
  8
D-2
  6
Continuous
 62
     3
370
     9
100
AcDbLine
 10
431.9722768422722
 20
357.3768162082982
 30
0.0
 11
431.9722768422722
 21
351.1268574482687
 31
0.0
  0
LINE
  5
B3
330
1F
100
AcDbEntity
  8
D-2
  6
Continuous
 62
     3
370
     9
100
AcDbLine
 10
469.4722768422722
 20
390.3768755938556
 30
0.0
 11
469.4722768422722
 21
357.3768162082982
 31
0.0
  0
LINE
  5
B4
330
1F
100
AcDbEntity
  8
D-2
  6
Continuous
 62
     3
370
     9
100
AcDbLine
 10
464.4722603462839
 20
396.6268343538852
 30
0.0
 11
464.4722603462839
 21
365.3767931139147
 31
0.0
  0
LINE
  5
B5
330
1F
100
AcDbEntity
  8
D-2
  6
Continuous
 62
     3
370
     9
100
AcDbLine
 10
476.972177866343
 20
396.6268343538852
 30
0.0
 11
170.2702702702703
 21
396.6268343538852
 31
0.0
  0
LINE
  5
B6
330
1F
100
AcDbEntity
  8
D-2
  6
Continuous
 62
     3
370
     9
100
AcDbLine
 10
469.4722768422722
 20
365.3767931139147
 30
0.0
 11
170.2702702702703
 21
365.3767931139147
 31
0.0
  0
LINE
  5
B7
330
1F
100
AcDbEntity
  8
D-2
  6
Continuous
 62
     3
370
     9
100
AcDbLine
 10
469.4722768422722
 20
360.0434751768371
 30
0.0
 11
170.2702702702703
 21
360.0434751768371
 31
0.0
  0
LINE
  5
B8
330
1F
100
AcDbEntity
  8
D-2
  6
Continuous
 62
     3
370
     9
100
AcDbLine
 10
469.4722768422722
 20
362.7101341453759
 30
0.0
 11
170.2702702702703
 21
362.7101341453759
 31
0.0
  0
LINE
  5
B9
330
1F
100
AcDbEntity
  8
D-1
  6
Continuous
 62
     2
370
     9
100
AcDbLine
 10
416.9724747941302
 20
334.1268755938556
 30
0.0
 11
476.972177866343
 21
334.1268755938556
 31
0.0
  0
LINE
  5
BA
330
1F
100
AcDbEntity
  8
D-1
  6
Continuous
 62
     2
370
     9
100
AcDbLine
 10
509.4724088101773
 20
397.8769003378379
 30
0.0
 11
503.2223263302365
 21
401.6268508498733
 31
0.0
  0
LINE
  5
BB
330
1F
100
AcDbEntity
  8
D-1
  6
Continuous
 62
     2
370
     9
100
AcDbLine
 10
503.2223263302365
 20
401.6268508498733
 30
0.0
 11
485.7221448743667
 21
401.6268508498733
 31
0.0
  0
LINE
  5
BC
330
1F
100
AcDbEntity
  8
D-1
  6
Continuous
 62
     2
370
     9
100
AcDbLine
 10
485.7221448743667
 20
401.6268508498733
 30
0.0
 11
479.4723098342484
 21
396.6268343538852
 31
0.0
  0
LINE
  5
BD
330
1F
100
AcDbEntity
  8
D-1
  6
Continuous
 62
     2
370
     9
100
AcDbLine
 10
479.4723098342484
 20
396.6268343538852
 30
0.0
 11
479.4723098342484
 21
331.6268673458616
 31
0.0
  0
LINE
  5
BE
330
1F
100
AcDbEntity
  8
D-1
  6
Continuous
 62
     2
370
     9
100
AcDbLine
 10
479.4723098342484
 20
331.6268673458616
 30
0.0
 11
458.222177866343
 21
331.6268673458616
 31
0.0
  0
LINE
  5
BF
330
1F
100
AcDbEntity
  8
D-1
  6
Continuous
 62
     2
370
     9
100
AcDbLine
 10
458.222177866343
 20
331.6268673458616
 30
0.0
 11
458.222177866343
 21
327.8767931139147
 31
0.0
  0
LINE
  5
C0
330
1F
100
AcDbEntity
  8
D-1
  6
Continuous
 62
     2
370
     9
100
AcDbLine
 10
458.222177866343
 20
327.8767931139147
 30
0.0
 11
462.5974088101773
 21
327.8767931139147
 31
0.0
  0
LINE
  5
C1
330
1F
100
AcDbEntity
  8
D-1
  6
Continuous
 62
     2
370
     9
100
AcDbLine
 10
462.5974088101773
 20
327.8767931139147
 30
0.0
 11
462.5974088101773
 21
315.3768755938556
 31
0.0
  0
LINE
  5
C2
330
1F
100
AcDbEntity
  8
D-1
  6
Continuous
 62
     2
370
     9
100
AcDbLine
 10
460.0972768422722
 20
312.8768673458616
 30
0.0
 11
447.7223164326438
 21
312.8768673458616
 31
0.0
  0
LINE
  5
C3
330
1F
100
AcDbEntity
  8
D-1
  6
Continuous
 62
     2
370
     9
100
AcDbLine
 10
431.3472438502956
 20
315.3768755938556
 30
0.0
 11
431.3472438502956
 21
327.8767931139147
 31
0.0
  0
LINE
  5
C4
330
1F
100
AcDbEntity
  8
D-1
  6
Continuous
 62
     2
370
     9
100
AcDbLine
 10
431.3472438502956
 20
327.8767931139147
 30
0.0
 11
435.7224747941302
 21
327.8767931139147
 31
0.0
  0
LINE
  5
C5
330
1F
100
AcDbEntity
  8
D-1
  6
Continuous
 62
     2
370
     9
100
AcDbLine
 10
435.7224747941302
 20
327.8767931139147
 30
0.0
 11
435.7224747941302
 21
331.6268673458616
 31
0.0
  0
LINE
  5
C6
330
1F
100
AcDbEntity
  8
D-1
  6
Continuous
 62
     2
370
     9
100
AcDbLine
 10
414.4723428262247
 20
296.6268755938556
 30
0.0
 11
441.3472768422722
 21
296.6268755938556
 31
0.0
  0
LINE
  5
C7
330
1F
100
AcDbEntity
  8
D-1
  6
Continuous
 62
     2
370
     9
100
AcDbLine
 10
441.3472768422722
 20
296.6268755938556
 30
0.0
 11
441.3472768422722
 21
300.3768261058912
 31
0.0
  0
LINE
  5
C8
330
1F
100
AcDbEntity
  8
D-1
  6
Continuous
 62
     2
370
     9
100
AcDbLine
 10
441.3472768422722
 20
300.3768261058912
 30
0.0
 11
437.5973263302365
 21
300.3768261058912
 31
0.0
  0
LINE
  5
C9
330
1F
100
AcDbEntity
  8
D-1
  6
Continuous
 62
     2
370
     9
100
AcDbLine
 10
437.5973263302365
 20
300.3768261058912
 30
0.0
 11
437.5973263302365
 21
309.1267931139147
 31
0.0
  0
LINE
  5
CA
330
1F
100
AcDbEntity
  8
D-1
  6
Continuous
 62
     2
370
     9
100
AcDbLine
 10
456.3473263302365
 20
309.1267931139147
 30
0.0
 11
456.3473263302365
 21
300.3768261058912
 31
0.0
  0
LINE
  5
CB
330
1F
100
AcDbEntity
  8
D-1
  6
Continuous
 62
     2
370
     9
100
AcDbLine
 10
456.3473263302365
 20
300.3768261058912
 30
0.0
 11
452.5971283783784
 21
300.3768261058912
 31
0.0
  0
LINE
  5
CC
330
1F
100
AcDbEntity
  8
D-1
  6
Continuous
 62
     2
370
     9
100
AcDbLine
 10
452.5971283783784
 20
300.3768261058912
 30
0.0
 11
452.5971283783784
 21
296.6268755938556
 31
0.0
  0
LINE
  5
CD
330
1F
100
AcDbEntity
  8
D-1
  6
Continuous
 62
     2
370
     9
100
AcDbLine
 10
452.5971283783784
 20
296.6268755938556
 30
0.0
 11
496.9722438502956
 21
296.6268755938556
 31
0.0
  0
LINE
  5
CE
330
1F
100
AcDbEntity
  8
D-1
  6
Continuous
 62
     2
370
     9
100
AcDbLine
 10
496.9722438502956
 20
296.6268755938556
 30
0.0
 11
496.9722438502956
 21
306.6267848659207
 31
0.0
  0
LINE
  5
CF
330
1F
100
AcDbEntity
  8
D-1
  6
Continuous
 62
     2
370
     9
100
AcDbLine
 10
491.9724747941302
 20
301.6267683699324
 30
0.0
 11
484.4723263302365
 21
301.6267683699324
 31
0.0
  0
LINE
  5
D0
330
1F
100
AcDbEntity
  8
D-1
  6
Continuous
 62
     2
370
     9
100
AcDbLine
 10
484.4723263302365
 20
301.6267683699324
 30
0.0
 11
484.4723263302365
 21
346.6267931139147
 31
0.0
  0
LINE
  5
D1
330
1F
100
AcDbEntity
  8
D-1
  6
Continuous
 62
     2
370
     9
100
AcDbLine
 10
484.4723263302365
 20
346.6267931139147
 30
0.0
 11
491.9724747941302
 21
346.6267931139147
 31
0.0
  0
LINE
  5
D2
330
1F
100
AcDbEntity
  8
D-1
  6
Continuous
 62
     2
370
     9
100
AcDbLine
 10
491.9724747941302
 20
341.6269003378379
 30
0.0
 11
496.9722438502956
 21
341.6269003378379
 31
0.0
  0
LINE
  5
D3
330
1F
100
AcDbEntity
  8
D-1
  6
Continuous
 62
     2
370
     9
100
AcDbLine
 10
496.9722438502956
 20
341.6269003378379
 30
0.0
 11
496.9722438502956
 21
351.6268096099029
 31
0.0
  0
LINE
  5
D4
330
1F
100
AcDbEntity
  8
D-1
  6
Continuous
 62
     2
370
     9
100
AcDbLine
 10
496.9722438502956
 20
351.6268096099029
 30
0.0
 11
484.4723263302365
 21
351.6268096099029
 31
0.0
  0
LINE
  5
D5
330
1F
100
AcDbEntity
  8
D-1
  6
Continuous
 62
     2
370
     9
100
AcDbLine
 10
484.4723263302365
 20
351.6268096099029
 30
0.0
 11
484.4723263302365
 21
394.2236987964527
 31
0.0
  0
LINE
  5
D6
330
1F
100
AcDbEntity
  8
D-1
  6
Continuous
 62
     2
370
     9
100
AcDbLine
 10
479.4723098342484
 20
302.8768343538852
 30
0.0
 11
479.4723098342484
 21
325.3767848659207
 31
0.0
  0
LINE
  5
D7
330
1F
100
AcDbEntity
  8
D-1
  6
Continuous
 62
     2
370
     9
100
AcDbLine
 10
476.972177866343
 20
327.8767931139147
 30
0.0
 11
468.8472438502956
 21
327.8767931139147
 31
0.0
  0
LINE
  5
D8
330
1F
100
AcDbEntity
  8
D-1
  6
Continuous
 62
     2
370
     9
100
AcDbLine
 10
466.3471118823904
 20
325.3767848659207
 30
0.0
 11
466.3471118823904
 21
315.3768755938556
 31
0.0
  0
LINE
  5
D9
330
1F
100
AcDbEntity
  8
D-1
  6
Continuous
 62
     2
370
     9
100
AcDbLine
 10
456.3473263302365
 20
309.1267931139147
 30
0.0
 11
437.5973263302365
 21
309.1267931139147
 31
0.0
  0
LINE
  5
DA
330
1F
100
AcDbEntity
  8
D-1
  6
Continuous
 62
     2
370
     9
100
AcDbLine
 10
462.5974088101773
 20
300.3768261058912
 30
0.0
 11
476.972177866343
 21
300.3768261058912
 31
0.0
  0
LINE
  5
DB
330
1F
100
AcDbEntity
  8
D-1
  6
Continuous
 62
     2
370
     9
100
AcDbLine
 10
460.0972768422722
 20
309.1267931139147
 30
0.0
 11
460.0972768422722
 21
302.8768343538852
 31
0.0
  0
LINE
  5
DC
330
1F
100
AcDbEntity
  8
D-1
  6
Continuous
 62
     2
370
     9
100
AcDbLine
 10
425.0974088101773
 20
327.8767931139147
 30
0.0
 11
420.722177866343
 21
327.8767931139147
 31
0.0
  0
LINE
  5
DD
330
1F
100
AcDbEntity
  8
D-1
  6
Continuous
 62
     2
370
     9
100
AcDbLine
 10
427.5972933382602
 20
315.3768755938556
 30
0.0
 11
427.5972933382602
 21
325.3767848659207
 31
0.0
  0
LINE
  5
DE
330
1F
100
AcDbEntity
  8
D-1
  6
Continuous
 62
     2
370
     9
100
AcDbLine
 10
418.2222933382602
 20
325.3767848659207
 30
0.0
 11
418.2222933382602
 21
302.8768343538852
 31
0.0
  0
LINE
  5
DF
330
1F
100
AcDbEntity
  8
D-1
  6
Continuous
 62
     2
370
     9
100
AcDbLine
 10
433.8471283783784
 20
302.8768343538852
 30
0.0
 11
433.8471283783784
 21
309.1267931139147
 31
0.0
  0
LINE
  5
E0
330
1F
100
AcDbEntity
  8
D-1
  6
Continuous
 62
     2
370
     9
100
AcDbLine
 10
420.722177866343
 20
300.3768261058912
 30
0.0
 11
431.3472438502956
 21
300.3768261058912
 31
0.0
  0
LINE
  5
E1
330
1F
100
AcDbEntity
  8
D-1
  6
Continuous
 62
     2
370
     9
100
AcDbLine
 10
447.7223164326438
 20
312.8768673458616
 30
0.0
 11
447.7223164326438
 21
312.1268772434544
 31
0.0
  0
LINE
  5
E2
330
1F
100
AcDbEntity
  8
D-1
  6
Continuous
 62
     2
370
     9
100
AcDbLine
 10
447.7223164326438
 20
312.1268772434544
 30
0.0
 11
446.2223362278294
 21
312.1268772434544
 31
0.0
  0
LINE
  5
E3
330
1F
100
AcDbEntity
  8
D-1
  6
Continuous
 62
     2
370
     9
100
AcDbLine
 10
446.2223362278294
 20
312.1268772434544
 30
0.0
 11
446.2223362278294
 21
312.8768673458616
 31
0.0
  0
LINE
  5
E4
330
1F
100
AcDbEntity
  8
D-1
  6
Continuous
 62
     2
370
     9
100
AcDbLine
 10
446.2223362278294
 20
312.8768673458616
 30
0.0
 11
433.8471283783784
 21
312.8768673458616
 31
0.0
  0
LINE
  5
E5
330
1F
100
AcDbEntity
  8
D-1
  6
Continuous
 62
     2
370
     9
100
AcDbLine
 10
414.4723428262247
 20
331.6268673458616
 30
0.0
 11
414.4723428262247
 21
296.6268755938556
 31
0.0
  0
LINE
  5
E6
330
1F
100
AcDbEntity
  8
D-1
  6
Continuous
 62
     2
370
     9
100
AcDbLine
 10
454.4724747941302
 20
324.1268426018793
 30
0.0
 11
454.4724747941302
 21
331.6268673458616
 31
0.0
  0
LINE
  5
E7
330
1F
100
AcDbEntity
  8
D-1
  6
Continuous
 62
     2
370
     9
100
AcDbLine
 10
439.472177866343
 20
331.6268673458616
 30
0.0
 11
439.472177866343
 21
324.1268426018793
 31
0.0
  0
LINE
  5
E8
330
1F
100
AcDbEntity
  8
D-1
  6
Continuous
 62
     2
370
     9
100
AcDbLine
 10
457.5971448743667
 20
331.6256301467483
 30
0.0
 11
476.972177866343
 21
331.6268673458616
 31
0.0
  0
LINE
  5
E9
330
1F
100
AcDbEntity
  8
D-1
  6
Continuous
 62
     2
370
     9
100
AcDbLine
 10
457.5971448743667
 20
325.3767848659207
 30
0.0
 11
457.5971448743667
 21
331.6268673458616
 31
0.0
  0
LINE
  5
EA
330
1F
100
AcDbEntity
  8
D-1
  6
Continuous
 62
     2
370
     9
100
AcDbLine
 10
460.7223098342484
 20
325.3767848659207
 30
0.0
 11
457.5971448743667
 21
325.3767848659207
 31
0.0
  0
LINE
  5
EB
330
1F
100
AcDbEntity
  8
D-1
  6
Continuous
 62
     2
370
     9
100
AcDbLine
 10
460.7223098342484
 20
323.8765572212839
 30
0.0
 11
460.7223098342484
 21
325.3767848659207
 31
0.0
  0
LINE
  5
EC
330
1F
100
AcDbEntity
  8
D-1
  6
Continuous
 62
     2
370
     9
100
AcDbLine
 10
433.2223428262247
 20
325.3767848659207
 30
0.0
 11
433.2223428262247
 21
323.8765572212839
 31
0.0
  0
LINE
  5
ED
330
1F
100
AcDbEntity
  8
D-1
  6
Continuous
 62
     2
370
     9
100
AcDbLine
 10
436.3472603462839
 20
325.3767848659207
 30
0.0
 11
433.2223428262247
 21
325.3767848659207
 31
0.0
  0
LINE
  5
EE
330
1F
100
AcDbEntity
  8
D-1
  6
Continuous
 62
     2
370
     9
100
AcDbLine
 10
416.9724747941302
 20
334.1268755938556
 30
0.0
 11
416.9724747941302
 21
331.6268673458616
 31
0.0
  0
LINE
  5
EF
330
1F
100
AcDbEntity
  8
D-1
  6
Continuous
 62
     2
370
     9
100
AcDbLine
 10
476.972177866343
 20
331.6268673458616
 30
0.0
 11
476.972177866343
 21
334.1268755938556
 31
0.0
  0
LINE
  5
F0
330
1F
100
AcDbEntity
  8
D-1
  6
Continuous
 62
     2
370
     9
100
AcDbLine
 10
509.4724088101773
 20
397.8769003378379
 30
0.0
 11
509.4724088101773
 21
396.6268343538852
 31
0.0
  0
LINE
  5
F1
330
1F
100
AcDbEntity
  8
D-1
  6
Continuous
 62
     2
370
     9
100
AcDbLine
 10
487.4762457770271
 20
396.6268343538852
 30
0.0
 11
484.4723263302365
 21
394.2236987964527
 31
0.0
  0
LINE
  5
F2
330
1F
100
AcDbEntity
  8
D-1
  6
Continuous
 62
     2
370
     9
100
AcDbLine
 10
416.9724747941302
 20
331.6268673458616
 30
0.0
 11
419.472359322213
 21
334.1268755938556
 31
0.0
  0
LINE
  5
F3
330
1F
100
AcDbEntity
  8
D-1
  6
Continuous
 62
     2
370
     9
100
AcDbLine
 10
454.4724747941302
 20
331.6268673458616
 30
0.0
 11
439.472177866343
 21
331.6268673458616
 31
0.0
  0
LINE
  5
F4
330
1F
100
AcDbEntity
  8
D-1
  6
Continuous
 62
     2
370
     9
100
AcDbLine
 10
421.9722438502956
 20
331.6268673458616
 30
0.0
 11
424.472375818201
 21
334.1268755938556
 31
0.0
  0
LINE
  5
F5
330
1F
100
AcDbEntity
  8
D-1
  6
Continuous
 62
     2
370
     9
100
AcDbLine
 10
426.9725077861065
 20
331.6268673458616
 30
0.0
 11
429.4723923141893
 21
334.1268755938556
 31
0.0
  0
LINE
  5
F6
330
1F
100
AcDbEntity
  8
D-1
  6
Continuous
 62
     2
370
     9
100
AcDbLine
 10
431.9722768422722
 20
331.6268673458616
 30
0.0
 11
434.4724088101773
 21
334.1268755938556
 31
0.0
  0
LINE
  5
F7
330
1F
100
AcDbEntity
  8
D-1
  6
Continuous
 62
     2
370
     9
100
AcDbLine
 10
471.9724088101773
 20
331.6268673458616
 30
0.0
 11
474.4725407780828
 21
334.1268755938556
 31
0.0
  0
LINE
  5
F8
330
1F
100
AcDbEntity
  8
D-1
  6
Continuous
 62
     2
370
     9
100
AcDbLine
 10
436.3472603462839
 20
331.6268673458616
 30
0.0
 11
414.4723428262247
 21
331.6268673458616
 31
0.0
  0
LINE
  5
F9
330
1F
100
AcDbEntity
  8
D-1
  6
Continuous
 62
     2
370
     9
100
AcDbLine
 10
436.3472603462839
 20
331.6268673458616
 30
0.0
 11
436.3472603462839
 21
325.3767848659207
 31
0.0
  0
LINE
  5
FA
330
1F
100
AcDbEntity
  8
D-1
  6
Continuous
 62
     2
370
     9
100
AcDbLine
 10
436.3472603462839
 20
331.0018343538852
 30
0.0
 11
439.472177866343
 21
334.1268755938556
 31
0.0
  0
LINE
  5
FB
330
1F
100
AcDbEntity
  8
D-1
  6
Continuous
 62
     2
370
     9
100
AcDbLine
 10
441.9723098342484
 20
331.6268673458616
 30
0.0
 11
444.4724418021539
 21
334.1268755938556
 31
0.0
  0
LINE
  5
FC
330
1F
100
AcDbEntity
  8
D-1
  6
Continuous
 62
     2
370
     9
100
AcDbLine
 10
436.3472603462839
 20
326.001817857897
 30
0.0
 11
439.472177866343
 21
329.1268590978675
 31
0.0
  0
LINE
  5
FD
330
1F
100
AcDbEntity
  8
D-1
  6
Continuous
 62
     2
370
     9
100
AcDbLine
 10
433.9478363861909
 20
323.6023938978042
 30
0.0
 11
435.7224747941302
 21
325.3767848659207
 31
0.0
  0
LINE
  5
FE
330
1F
100
AcDbEntity
  8
D-1
  6
Continuous
 62
     2
370
     9
100
AcDbLine
 10
437.771276525549
 20
322.4258175411741
 30
0.0
 11
439.472177866343
 21
324.1268426018793
 31
0.0
  0
LINE
  5
FF
330
1F
100
AcDbEntity
  8
D-1
  6
Continuous
 62
     2
370
     9
100
AcDbLine
 10
446.9723263302365
 20
331.6268673458616
 30
0.0
 11
449.4722108583193
 21
334.1268755938556
 31
0.0
  0
LINE
  5
100
330
1F
100
AcDbEntity
  8
D-1
  6
Continuous
 62
     2
370
     9
100
AcDbLine
 10
451.9723428262247
 20
331.6268673458616
 30
0.0
 11
454.4724747941302
 21
334.1268755938556
 31
0.0
  0
LINE
  5
101
330
1F
100
AcDbEntity
  8
D-1
  6
Continuous
 62
     2
370
     9
100
AcDbLine
 10
454.4724747941302
 20
329.1268590978675
 30
0.0
 11
459.4722438502956
 21
334.1268755938556
 31
0.0
  0
LINE
  5
102
330
1F
100
AcDbEntity
  8
D-1
  6
Continuous
 62
     2
370
     9
100
AcDbLine
 10
441.9678559174409
 20
321.6223804370777
 30
0.0
 11
443.8172211518159
 21
323.4716219515414
 31
0.0
  0
LINE
  5
103
330
1F
100
AcDbEntity
  8
D-1
  6
Continuous
 62
     2
370
     9
100
AcDbLine
 10
446.6370453705659
 20
321.2915533942146
 30
0.0
 11
448.7204886771539
 21
323.3749967008025
 31
0.0
  0
LINE
  5
104
330
1F
100
AcDbEntity
  8
D-1
  6
Continuous
 62
     2
370
     9
100
AcDbLine
 10
461.9713860589107
 20
331.6258775865709
 30
0.0
 11
464.4725077861065
 21
334.1268755938556
 31
0.0
  0
LINE
  5
105
330
1F
100
AcDbEntity
  8
D-1
  6
Continuous
 62
     2
370
     9
100
AcDbLine
 10
451.9666517103042
 20
321.6210195180532
 30
0.0
 11
457.5971448743667
 21
327.2516364020271
 31
0.0
  0
LINE
  5
106
330
1F
100
AcDbEntity
  8
D-1
  6
Continuous
 62
     2
370
     9
100
AcDbLine
 10
466.9716499947214
 20
331.6261250263937
 30
0.0
 11
469.4722768422722
 21
334.1268755938556
 31
0.0
  0
LINE
  5
107
330
1F
100
AcDbEntity
  8
D-1
  6
Continuous
 62
     2
370
     9
100
AcDbLine
 10
458.4037986961573
 20
323.0581500079181
 30
0.0
 11
460.7223098342484
 21
325.3767848659207
 31
0.0
  0
LINE
  5
108
330
1F
100
AcDbEntity
  8
D-1
  6
Continuous
 62
     2
370
     9
100
AcDbLine
 10
487.4762457770271
 20
396.6268343538852
 30
0.0
 11
509.4724088101773
 21
396.6268343538852
 31
0.0
  0
LINE
  5
109
330
1F
100
AcDbEntity
  8
D-1
  6
Continuous
 62
     2
370
     9
100
AcDbLine
 10
491.9724747941302
 20
306.6267848659207
 30
0.0
 11
491.9724747941302
 21
301.6267683699324
 31
0.0
  0
LINE
  5
10A
330
1F
100
AcDbEntity
  8
D-1
  6
Continuous
 62
     2
370
     9
100
AcDbLine
 10
496.9722438502956
 20
306.6267848659207
 30
0.0
 11
491.9724747941302
 21
306.6267848659207
 31
0.0
  0
LINE
  5
10B
330
1F
100
AcDbEntity
  8
D-4
  6
Continuous
 62
     7
370
     9
100
AcDbLine
 10
441.8473527238177
 20
269.503635715794
 30
0.0
 11
441.8473527238177
 21
309.1267931139147
 31
0.0
  0
LINE
  5
10C
330
1F
100
AcDbEntity
  8
D-4
  6
Continuous
 62
     7
370
     9
100
AcDbLine
 10
452.0972999366555
 20
269.503635715794
 30
0.0
 11
452.0972999366555
 21
309.1267931139147
 31
0.0
  0
LINE
  5
10D
330
1F
100
AcDbEntity
  8
D-6
  6
Continuous
 62
     6
370
     5
100
AcDbLine
 10
414.4720953864021
 20
209.682336755701
 30
0.0
 11
452.5278452280406
 21
171.6268343538852
 31
0.0
  0
LINE
  5
10E
330
1F
100
AcDbEntity
  8
D-1
  6
Continuous
 62
     2
370
     9
100
AcDbLine
 10
491.9724747941302
 20
346.6267931139147
 30
0.0
 11
491.9724747941302
 21
341.6269003378379
 31
0.0
  0
LINE
  5
10F
330
1F
100
AcDbEntity
  8
D-0
  6
Continuous
 62
     7
370
     9
100
AcDbLine
 10
142.5481023015203
 20
-518.8041315851984
 30
0.0
 11
142.5481023015203
 21
-486.3043955210093
 31
0.0
  0
LINE
  5
110
330
1F
100
AcDbEntity
  8
D-0
  6
Continuous
 62
     7
370
     9
100
AcDbLine
 10
142.5481023015203
 20
-486.3043955210093
 30
0.0
 11
430.0484322212839
 21
-486.3043955210093
 31
0.0
  0
LINE
  5
111
330
1F
100
AcDbEntity
  8
D-0
  6
Continuous
 62
     7
370
     9
100
AcDbLine
 10
430.0484322212839
 20
-486.3043955210093
 30
0.0
 11
430.0484322212839
 21
-518.8041315851984
 31
0.0
  0
LINE
  5
112
330
1F
100
AcDbEntity
  8
D-0
  6
Continuous
 62
     7
370
     9
100
AcDbLine
 10
430.0484322212839
 20
-518.8041315851984
 30
0.0
 11
142.5481023015203
 21
-518.8041315851984
 31
0.0
  0
LINE
  5
113
330
1F
100
AcDbEntity
  8
D-0
  6
Continuous
 62
     3
370
     9
100
AcDbLine
 10
395.9804225612331
 20
-308.9644602182749
 30
0.0
 11
170.4803466796875
 21
-308.9644602182749
 31
0.0
  0
LINE
  5
114
330
1F
100
AcDbEntity
  8
D-0
  6
Continuous
 62
     3
370
     9
100
AcDbLine
 10
375.5280365815034
 20
-316.4642993823902
 30
0.0
 11
398.2298979888091
 21
-316.4642993823902
 31
0.0
  0
LINE
  5
115
330
1F
100
AcDbEntity
  8
D-0
  6
Continuous
 62
     3
370
     9
100
AcDbLine
 10
374.3279534417229
 20
-316.4642993823902
 30
0.0
 11
168.229881492821
 21
-316.4642993823902
 31
0.0
  0
LINE
  5
116
330
1F
100
AcDbEntity
  8
D-0
  6
JWW_DASHED3
 62
     3
370
     9
100
AcDbLine
 10
192.1328157991977
 20
-317.3678258947424
 30
0.0
 11
195.4801817198059
 21
-327.7144602182749
 31
0.0
  0
LINE
  5
117
330
1F
100
AcDbEntity
  8
D-0
  6
Continuous
 62
     3
370
     9
100
AcDbLine
 10
168.229881492821
 20
-311.2143686655405
 30
0.0
 11
168.229881492821
 21
-316.4642993823902
 31
0.0
  0
LINE
  5
118
330
1F
100
AcDbEntity
  8
D-0
  6
Continuous
 62
     3
370
     9
100
AcDbLine
 10
398.2298979888091
 20
-311.2143686655405
 30
0.0
 11
398.2298979888091
 21
-316.4642993823902
 31
0.0
  0
LINE
  5
119
330
1F
100
AcDbEntity
  8
D-0
  6
JWW_CENTER1
 62
     3
370
     9
100
AcDbLine
 10
283.2300134607263
 20
-219.1041523701435
 30
0.0
 11
283.2300134607263
 21
-448.5103751517631
 31
0.0
  0
LINE
  5
11A
330
1F
100
AcDbEntity
  8
D-0
  6
JWW_DASHED3
 62
     3
370
     9
100
AcDbLine
 10
374.3279534417229
 20
-317.3678258947424
 30
0.0
 11
370.9800926414698
 21
-327.7144602182749
 31
0.0
  0
LINE
  5
11B
330
1F
100
AcDbEntity
  8
D-0
  6
JWW_DASHED3
 62
     3
370
     9
100
AcDbLine
 10
201.7300167599241
 20
-333.9644189783044
 30
0.0
 11
364.7302576013513
 21
-333.9644189783044
 31
0.0
  0
LINE
  5
11C
330
1F
100
AcDbEntity
  8
D-0
  6
JWW_DASHED3
 62
     3
370
     9
100
AcDbLine
 10
174.4802114125845
 20
-316.4642993823902
 30
0.0
 11
174.4802114125845
 21
-340.214377738334
 31
0.0
  0
LINE
  5
11D
330
1F
100
AcDbEntity
  8
D-0
  6
JWW_DASHED3
 62
     3
370
     9
100
AcDbLine
 10
391.9800629486909
 20
-316.4642993823902
 30
0.0
 11
391.9800629486909
 21
-340.214377738334
 31
0.0
  0
LINE
  5
11E
330
1F
100
AcDbEntity
  8
D-0
  6
Continuous
 62
     3
370
     9
100
AcDbLine
 10
169.4799474767737
 20
-316.4642993823902
 30
0.0
 11
169.4799474767737
 21
-340.214377738334
 31
0.0
  0
LINE
  5
11F
330
1F
100
AcDbEntity
  8
D-0
  6
Continuous
 62
     3
370
     9
100
AcDbLine
 10
396.9803268845018
 20
-316.4642993823902
 30
0.0
 11
396.9803268845018
 21
-340.214377738334
 31
0.0
  0
LINE
  5
120
330
1F
100
AcDbEntity
  8
D-0
  6
Continuous
 62
     3
370
     9
100
AcDbLine
 10
393.2301289326438
 20
-56.46492622994089
 30
0.0
 11
173.2301454286318
 21
-56.46492622994089
 31
0.0
  0
LINE
  5
121
330
1F
100
AcDbEntity
  8
D-0
  6
Continuous
 62
     3
370
     9
100
AcDbLine
 10
398.2301454286318
 20
-138.9650746938344
 30
0.0
 11
398.2301454286318
 21
-61.46494272592903
 31
0.0
  0
LINE
  5
122
330
1F
100
AcDbEntity
  8
D-0
  6
Continuous
 62
     3
370
     9
100
AcDbLine
 10
168.2301289326436
 20
-138.9650746938344
 30
0.0
 11
168.2301289326436
 21
-61.46494272592903
 31
0.0
  0
LINE
  5
123
330
1F
100
AcDbEntity
  8
D-0
  6
Continuous
 62
     3
370
     9
100
AcDbLine
 10
173.2301454286318
 20
-143.9650911898226
 30
0.0
 11
393.2301289326438
 21
-143.9650911898226
 31
0.0
  0
LINE
  5
124
330
1F
100
AcDbEntity
  8
D-0
  6
Continuous
 62
     3
370
     9
100
AcDbLine
 10
201.7302641997468
 20
-109.9651274809966
 30
0.0
 11
201.7302641997468
 21
-90.46513737858945
 31
0.0
  0
LINE
  5
125
330
1F
100
AcDbEntity
  8
D-0
  6
Continuous
 62
     3
370
     9
100
AcDbLine
 10
359.2301652238177
 20
-84.96504500105573
 30
0.0
 11
207.2301091374578
 21
-84.96504500105573
 31
0.0
  0
LINE
  5
126
330
1F
100
AcDbEntity
  8
D-0
  6
Continuous
 62
     3
370
     9
100
AcDbLine
 10
364.7302576013513
 20
-109.9651274809966
 30
0.0
 11
364.7302576013513
 21
-90.46513737858945
 31
0.0
  0
LINE
  5
127
330
1F
100
AcDbEntity
  8
D-0
  6
Continuous
 62
     3
370
     9
100
AcDbLine
 10
359.2301652238177
 20
-115.4649724187077
 30
0.0
 11
207.2301091374578
 21
-115.4649724187077
 31
0.0
  0
LINE
  5
128
330
1F
100
AcDbEntity
  8
D-0
  6
JWW_CENTER1
 62
     3
370
     9
100
AcDbLine
 10
283.2300134607263
 20
-159.717172158731
 30
0.0
 11
283.2300134607263
 21
-38.12864561338685
 31
0.0
  0
LINE
  5
129
330
1F
100
AcDbEntity
  8
D-0
  6
JWW_CENTER1
 62
     3
370
     9
100
AcDbLine
 10
150.8113551784207
 20
-100.2150087098818
 30
0.0
 11
416.4352829391893
 21
-100.2150087098818
 31
0.0
  0
LINE
  5
12A
330
1F
100
AcDbEntity
  8
D-0
  6
Continuous
 62
     3
370
     9
100
AcDbLine
 10
203.2302444045609
 20
-407.7144767142631
 30
0.0
 11
363.2302773965372
 21
-407.7144767142631
 31
0.0
  0
LINE
  5
12B
330
1F
100
AcDbEntity
  8
D-0
  6
Continuous
 62
     3
370
     9
100
AcDbLine
 10
203.2302444045609
 20
-413.9646829141153
 30
0.0
 11
363.2302773965372
 21
-413.9646829141153
 31
0.0
  0
LINE
  5
12C
330
1F
100
AcDbEntity
  8
D-0
  6
Continuous
 62
     3
370
     9
100
AcDbLine
 10
245.7300134607263
 20
-404.2145641430004
 30
0.0
 11
253.2301619246201
 21
-406.9645484718117
 31
0.0
  0
LINE
  5
12D
330
1F
100
AcDbEntity
  8
D-0
  6
Continuous
 62
     3
370
     9
100
AcDbLine
 10
320.7300134607263
 20
-404.2145641430004
 30
0.0
 11
313.2301124366555
 21
-406.9645484718117
 31
0.0
  0
LINE
  5
12E
330
1F
100
AcDbEntity
  8
D-0
  6
Continuous
 62
     3
370
     9
100
AcDbLine
 10
253.2301619246201
 20
-406.9645484718117
 30
0.0
 11
253.2301619246201
 21
-407.7144767142631
 31
0.0
  0
LINE
  5
12F
330
1F
100
AcDbEntity
  8
D-0
  6
Continuous
 62
     3
370
     9
100
AcDbLine
 10
313.2301124366555
 20
-406.9645484718117
 30
0.0
 11
313.2301124366555
 21
-407.7144767142631
 31
0.0
  0
LINE
  5
130
330
1F
100
AcDbEntity
  8
D-0
  6
Continuous
 62
     3
370
     9
100
AcDbLine
 10
243.2301289326438
 20
-431.4645550702069
 30
0.0
 11
243.2301289326438
 21
-413.9646829141153
 31
0.0
  0
LINE
  5
131
330
1F
100
AcDbEntity
  8
D-0
  6
Continuous
 62
     3
370
     9
100
AcDbLine
 10
320.7300134607263
 20
-433.9644395982897
 30
0.0
 11
245.7300134607263
 21
-433.9644395982897
 31
0.0
  0
LINE
  5
132
330
1F
100
AcDbEntity
  8
D-0
  6
Continuous
 62
     3
370
     9
100
AcDbLine
 10
323.2301454286318
 20
-431.4645550702069
 30
0.0
 11
323.2301454286318
 21
-413.9646829141153
 31
0.0
  0
LINE
  5
133
330
1F
100
AcDbEntity
  8
D-0
  6
Continuous
 62
     3
370
     9
100
AcDbLine
 10
203.2302444045609
 20
-407.7144767142631
 30
0.0
 11
203.2302444045609
 21
-418.9646994101034
 31
0.0
  0
LINE
  5
134
330
1F
100
AcDbEntity
  8
D-0
  6
Continuous
 62
     3
370
     9
100
AcDbLine
 10
363.2302773965372
 20
-407.7144767142631
 30
0.0
 11
363.2302773965372
 21
-418.9646994101034
 31
0.0
  0
LINE
  5
135
330
1F
100
AcDbEntity
  8
D-0
  6
Continuous
 62
     3
370
     9
100
AcDbLine
 10
203.2302444045609
 20
-418.9646994101034
 30
0.0
 11
242.6053433804898
 21
-418.9646994101034
 31
0.0
  0
LINE
  5
136
330
1F
100
AcDbEntity
  8
D-0
  6
Continuous
 62
     3
370
     9
100
AcDbLine
 10
323.8551784206081
 20
-418.9646994101034
 30
0.0
 11
363.2302773965372
 21
-418.9646994101034
 31
0.0
  0
LINE
  5
137
330
1F
100
AcDbEntity
  8
D-0
  6
Continuous
 62
     3
370
     9
100
AcDbLine
 10
323.8551784206081
 20
-413.9646829141153
 30
0.0
 11
323.8551784206081
 21
-418.9646994101034
 31
0.0
  0
LINE
  5
138
330
1F
100
AcDbEntity
  8
D-0
  6
Continuous
 62
     3
370
     9
100
AcDbLine
 10
242.6053433804898
 20
-413.9646829141153
 30
0.0
 11
242.6053433804898
 21
-418.9646994101034
 31
0.0
  0
LINE
  5
139
330
1F
100
AcDbEntity
  8
D-0
  6
Continuous
 62
     3
370
     9
100
AcDbLine
 10
245.7300134607263
 20
-371.2144428974873
 30
0.0
 11
245.7300134607263
 21
-404.2145641430004
 31
0.0
  0
LINE
  5
13A
330
1F
100
AcDbEntity
  8
D-0
  6
Continuous
 62
     3
370
     9
100
AcDbLine
 10
320.7300134607263
 20
-371.2550230283995
 30
0.0
 11
320.7300134607263
 21
-404.2145641430004
 31
0.0
  0
LINE
  5
13B
330
1F
100
AcDbEntity
  8
D-0
  6
JWW_PHANTOM1
 62
     3
370
     9
100
AcDbLine
 10
203.4801586254224
 20
-233.9643983583192
 30
0.0
 11
362.9801157358531
 21
-233.9643983583192
 31
0.0
  0
LINE
  5
13C
330
1F
100
AcDbEntity
  8
D-0
  6
JWW_PHANTOM1
 62
     3
370
     9
100
AcDbLine
 10
203.4801586254224
 20
-245.2144973342483
 30
0.0
 11
362.9801157358531
 21
-245.2144973342483
 31
0.0
  0
LINE
  5
13D
330
1F
100
AcDbEntity
  8
D-0
  6
JWW_PHANTOM1
 62
     3
370
     9
100
AcDbLine
 10
203.4801586254224
 20
-233.9643983583192
 30
0.0
 11
203.4801586254224
 21
-245.2144973342483
 31
0.0
  0
LINE
  5
13E
330
1F
100
AcDbEntity
  8
D-0
  6
JWW_PHANTOM1
 62
     3
370
     9
100
AcDbLine
 10
362.9801157358531
 20
-233.9643983583192
 30
0.0
 11
362.9801157358531
 21
-245.2144973342483
 31
0.0
  0
LINE
  5
13F
330
1F
100
AcDbEntity
  8
D-0
  6
JWW_PHANTOM1
 62
     3
370
     9
100
AcDbLine
 10
359.9801553262247
 20
-245.2144973342483
 30
0.0
 11
359.9801553262247
 21
-251.4644560942779
 31
0.0
  0
LINE
  5
140
330
1F
100
AcDbEntity
  8
D-0
  6
JWW_PHANTOM1
 62
     3
370
     9
100
AcDbLine
 10
206.4801190350508
 20
-245.2144973342483
 30
0.0
 11
206.4801190350508
 21
-251.4644560942779
 31
0.0
  0
LINE
  5
141
330
1F
100
AcDbEntity
  8
D-0
  6
JWW_PHANTOM1
 62
     3
370
     9
100
AcDbLine
 10
250.7302773965372
 20
-251.4644560942779
 30
0.0
 11
206.4801190350508
 21
-251.4644560942779
 31
0.0
  0
LINE
  5
142
330
1F
100
AcDbEntity
  8
D-0
  6
JWW_PHANTOM1
 62
     3
370
     9
100
AcDbLine
 10
315.7302444045609
 20
-251.4644560942779
 30
0.0
 11
359.9801553262247
 21
-251.4644560942779
 31
0.0
  0
LINE
  5
143
330
1F
100
AcDbEntity
  8
D-0
  6
JWW_PHANTOM1
 62
     3
370
     9
100
AcDbLine
 10
245.730260900549
 20
-294.9644387734902
 30
0.0
 11
245.730260900549
 21
-308.9644602182749
 31
0.0
  0
LINE
  5
144
330
1F
100
AcDbEntity
  8
D-0
  6
JWW_PHANTOM1
 62
     3
370
     9
100
AcDbLine
 10
258.2301784206081
 20
-276.4644148543074
 30
0.0
 11
258.2301784206081
 21
-258.9644808382601
 31
0.0
  0
LINE
  5
145
330
1F
100
AcDbEntity
  8
D-0
  6
JWW_PHANTOM1
 62
     3
370
     9
100
AcDbLine
 10
308.2303433804898
 20
-276.4644148543074
 30
0.0
 11
308.2303433804898
 21
-258.9644808382601
 31
0.0
  0
LINE
  5
146
330
1F
100
AcDbEntity
  8
D-0
  6
JWW_PHANTOM1
 62
     3
370
     9
100
AcDbLine
 10
320.730260900549
 20
-295.0048951844911
 30
0.0
 11
320.730260900549
 21
-308.9644602182749
 31
0.0
  0
LINE
  5
147
330
1F
100
AcDbEntity
  8
D-0
  6
JWW_PHANTOM1
 62
     3
370
     9
100
AcDbLine
 10
256.730198215794
 20
-237.7145344502217
 30
0.0
 11
309.7300761454815
 21
-237.7145344502217
 31
0.0
  0
LINE
  5
148
330
1F
100
AcDbEntity
  8
D-0
  6
JWW_PHANTOM1
 62
     3
370
     9
100
AcDbLine
 10
256.730198215794
 20
-237.7145344502217
 30
0.0
 11
256.730198215794
 21
-245.2144973342483
 31
0.0
  0
LINE
  5
149
330
1F
100
AcDbEntity
  8
D-0
  6
JWW_PHANTOM1
 62
     3
370
     9
100
AcDbLine
 10
309.7300761454815
 20
-237.7145344502217
 30
0.0
 11
309.7300761454815
 21
-245.2144973342483
 31
0.0
  0
LINE
  5
14A
330
1F
100
AcDbEntity
  8
D-0
  6
Continuous
 62
     3
370
     9
100
AcDbLine
 10
258.2301784206081
 20
-352.7146045581714
 30
0.0
 11
258.2301784206081
 21
-340.214377738334
 31
0.0
  0
LINE
  5
14B
330
1F
100
AcDbEntity
  8
D-0
  6
Continuous
 62
     3
370
     9
100
AcDbLine
 10
308.2300959406672
 20
-352.7146045581714
 30
0.0
 11
308.2300959406672
 21
-340.214377738334
 31
0.0
  0
LINE
  5
14C
330
1F
100
AcDbEntity
  8
D-0
  6
Continuous
 62
     3
370
     9
100
AcDbLine
 10
396.9803268845018
 20
-340.214377738334
 30
0.0
 11
169.4799474767737
 21
-340.214377738334
 31
0.0
  0
LINE
  5
14D
330
1F
100
AcDbEntity
  8
D-0
  6
JWW_DASHED3
 62
     3
370
     9
100
AcDbLine
 10
258.2301784206081
 20
-340.214377738334
 30
0.0
 11
258.2301784206081
 21
-333.9644189783044
 31
0.0
  0
LINE
  5
14E
330
1F
100
AcDbEntity
  8
D-0
  6
JWW_DASHED3
 62
     3
370
     9
100
AcDbLine
 10
308.2300959406672
 20
-340.214377738334
 30
0.0
 11
308.2300959406672
 21
-333.9644189783044
 31
0.0
  0
LINE
  5
14F
330
1F
100
AcDbEntity
  8
D-4
  6
Continuous
 62
     7
370
     9
100
AcDbLine
 10
135.9798122096707
 20
313.0411673880913
 30
0.0
 11
135.9798122096707
 21
396.6268343538852
 31
0.0
  0
LINE
  5
150
330
1F
100
AcDbEntity
  8
D-4
  6
Continuous
 62
     7
370
     9
100
AcDbLine
 10
161.3686226509714
 20
357.3768162082982
 30
0.0
 11
134.4798320048565
 21
357.3768162082982
 31
0.0
  0
LINE
  5
151
330
1F
100
AcDbEntity
  8
D-4
  6
Continuous
 62
     7
370
     9
100
AcDbLine
 10
161.3686226509714
 20
365.3767931139147
 30
0.0
 11
134.4798320048565
 21
365.3767931139147
 31
0.0
  0
LINE
  5
152
330
1F
100
AcDbEntity
  8
D-4
  6
Continuous
 62
     7
370
     9
100
AcDbLine
 10
161.3686226509714
 20
396.6268343538852
 30
0.0
 11
134.4798320048565
 21
396.6268343538852
 31
0.0
  0
LINE
  5
153
330
1F
100
AcDbEntity
  8
D-4
  6
Continuous
 62
     7
370
     9
100
AcDbLine
 10
377.1480251002956
 20
296.6268755938556
 30
0.0
 11
377.1480251002956
 21
401.6268508498733
 31
0.0
  0
LINE
  5
154
330
1F
100
AcDbEntity
  8
D-4
  6
Continuous
 62
     7
370
     9
100
AcDbLine
 10
409.7328804634714
 20
296.6268755938556
 30
0.0
 11
375.6480448954815
 21
296.6268755938556
 31
0.0
  0
LINE
  5
155
330
1F
100
AcDbEntity
  8
D-4
  6
Continuous
 62
     7
370
     9
100
AcDbLine
 10
170.2702702702703
 20
469.6621621621622
 30
0.0
 11
509.4724088101773
 21
469.6621621621622
 31
0.0
  0
LINE
  5
156
330
1F
100
AcDbEntity
  8
D-4
  6
Continuous
 62
     7
370
     9
100
AcDbLine
 10
476.972177866343
 20
407.8487251900339
 30
0.0
 11
476.972177866343
 21
471.1621423669765
 31
0.0
  0
LINE
  5
157
330
1F
100
AcDbEntity
  8
D-4
  6
Continuous
 62
     7
370
     9
100
AcDbLine
 10
479.4723098342484
 20
407.8487251900339
 30
0.0
 11
479.4723098342484
 21
471.1621423669765
 31
0.0
  0
LINE
  5
158
330
1F
100
AcDbEntity
  8
D-4
  6
Continuous
 62
     7
370
     9
100
AcDbLine
 10
509.4724088101773
 20
407.8487251900339
 30
0.0
 11
509.4724088101773
 21
506.6249703072214
 31
0.0
  0
LINE
  5
159
330
1F
100
AcDbEntity
  8
D-4
  6
Continuous
 62
     7
370
     9
100
AcDbLine
 10
170.2702702702703
 20
505.1249901024072
 30
0.0
 11
509.4724088101773
 21
505.1249901024072
 31
0.0
  0
LINE
  5
15A
330
1F
100
AcDbEntity
  8
D-4
  6
Continuous
 62
     7
370
     9
100
AcDbLine
 10
170.2702702702703
 20
206.1405449944574
 30
0.0
 11
496.9719964104732
 21
206.1405449944574
 31
0.0
  0
LINE
  5
15B
330
1F
100
AcDbEntity
  8
D-4
  6
Continuous
 62
     7
370
     9
100
AcDbLine
 10
414.4720953864021
 20
206.1405449944574
 30
0.0
 11
414.4720953864021
 21
204.6405647896432
 31
0.0
  0
LINE
  5
15C
330
1F
100
AcDbEntity
  8
D-4
  6
Continuous
 62
     7
370
     9
100
AcDbLine
 10
588.4158572635135
 20
296.6268755938556
 30
0.0
 11
588.4158572635135
 21
423.0254467113599
 31
0.0
  0
LINE
  5
15D
330
1F
100
AcDbEntity
  8
D-4
  6
Continuous
 62
     7
370
     9
100
AcDbLine
 10
500.9048049514359
 20
296.6268755938556
 30
0.0
 11
589.9160849081505
 21
296.6268755938556
 31
0.0
  0
LINE
  5
15E
330
1F
100
AcDbEntity
  8
D-4
  6
Continuous
 62
     7
370
     9
100
AcDbLine
 10
516.411116316512
 20
401.6268508498733
 30
0.0
 11
589.9160849081505
 21
401.6268508498733
 31
0.0
  0
LINE
  5
15F
330
1F
100
AcDbEntity
  8
D-6
  6
Continuous
 62
     6
370
     5
100
AcDbLine
 10
501.9720129064612
 20
252.876916833826
 30
0.0
 11
576.104736328125
 21
327.0095165355787
 31
0.0
  0
LINE
  5
160
330
1F
100
AcDbEntity
  8
D-6
  6
Continuous
 62
     6
370
     5
100
AcDbLine
 10
599.0471092430323
 20
349.952013170397
 30
0.0
 11
614.4722603462839
 21
365.376916833826
 31
0.0
  0
LINE
  5
161
330
1F
100
AcDbEntity
  8
D-4
  6
Continuous
 62
     7
370
     9
100
AcDbLine
 10
470.5493823902029
 20
401.6268508498733
 30
0.0
 11
375.6480448954815
 21
401.6268508498733
 31
0.0
  0
LINE
  5
162
330
1F
100
AcDbEntity
  8
D-6
  6
Continuous
 62
     6
370
     5
100
AcDbLine
 10
414.4720953864021
 20
259.6822542757602
 30
0.0
 11
441.6951772328972
 21
232.4591724292652
 31
0.0
  0
LINE
  5
163
330
1F
100
AcDbEntity
  8
D-6
  6
Continuous
 62
     6
370
     5
100
AcDbLine
 10
447.3538785367398
 20
251.8008010451858
 30
0.0
 11
466.6953834327492
 21
232.4591724292652
 31
0.0
  0
LINE
  5
164
330
1F
100
AcDbEntity
  8
D-6
  6
Continuous
 62
     6
370
     5
100
AcDbLine
 10
414.4720953864021
 20
234.6822955157306
 30
0.0
 11
435.5115323453336
 21
213.6429204167547
 31
0.0
  0
LINE
  5
165
330
1F
100
AcDbEntity
  8
D-6
  6
Continuous
 62
     6
370
     5
100
AcDbLine
 10
447.1687935494089
 20
201.9857210726352
 30
0.0
 11
477.5276802681589
 21
171.6268343538852
 31
0.0
  0
LINE
  5
166
330
1F
100
AcDbEntity
  8
D-6
  6
Continuous
 62
     6
370
     5
100
AcDbLine
 10
501.9720129064612
 20
171.6268343538852
 30
0.0
 11
501.9720129064612
 21
396.6268343538852
 31
0.0
  0
LINE
  5
167
330
1F
100
AcDbEntity
  8
D-6
  6
Continuous
 62
     6
370
     5
100
AcDbLine
 10
501.9720129064612
 20
390.3768755938556
 30
0.0
 11
700.0178981471706
 21
390.3768755938556
 31
0.0
  0
LINE
  5
168
330
1F
100
AcDbEntity
  8
D-6
  6
Continuous
 62
     6
370
     5
100
AcDbLine
 10
501.9720129064612
 20
384.126916833826
 30
0.0
 11
700.0178981471706
 21
384.126916833826
 31
0.0
  0
LINE
  5
169
330
1F
100
AcDbEntity
  8
D-6
  6
Continuous
 62
     6
370
     5
100
AcDbLine
 10
501.9720129064612
 20
377.8768343538852
 30
0.0
 11
700.0178981471706
 21
377.8768343538852
 31
0.0
  0
LINE
  5
16A
330
1F
100
AcDbEntity
  8
D-6
  6
Continuous
 62
     6
370
     5
100
AcDbLine
 10
501.9720129064612
 20
371.6268755938556
 30
0.0
 11
700.0178981471706
 21
371.6268755938556
 31
0.0
  0
LINE
  5
16B
330
1F
100
AcDbEntity
  8
D-6
  6
Continuous
 62
     6
370
     5
100
AcDbLine
 10
501.9720129064612
 20
365.376916833826
 30
0.0
 11
700.0178981471706
 21
365.376916833826
 31
0.0
  0
LINE
  5
16C
330
1F
100
AcDbEntity
  8
D-6
  6
Continuous
 62
     6
370
     5
100
AcDbLine
 10
501.9720129064612
 20
396.6268343538852
 30
0.0
 11
700.0178981471706
 21
396.6268343538852
 31
0.0
  0
LINE
  5
16D
330
1F
100
AcDbEntity
  8
D-6
  6
Continuous
 62
     6
370
     5
100
AcDbLine
 10
477.5276802681589
 20
296.6268755938556
 30
0.0
 11
501.9720129064612
 21
272.182233655775
 31
0.0
  0
LINE
  5
16E
330
1F
100
AcDbEntity
  8
D-6
  6
Continuous
 62
     6
370
     5
100
AcDbLine
 10
452.5278452280406
 20
296.6268755938556
 30
0.0
 11
501.9720129064612
 21
247.1822748957455
 31
0.0
  0
LINE
  5
16F
330
1F
100
AcDbEntity
  8
D-6
  6
Continuous
 62
     6
370
     5
100
AcDbLine
 10
452.0972999366555
 20
272.0573384052999
 30
0.0
 11
501.9720129064612
 21
222.1821924158046
 31
0.0
  0
LINE
  5
170
330
1F
100
AcDbEntity
  8
D-6
  6
Continuous
 62
     6
370
     5
100
AcDbLine
 10
473.2405379011826
 20
225.914017960832
 30
0.0
 11
501.9720129064612
 21
197.1824192356419
 31
0.0
  0
LINE
  5
171
330
1F
100
AcDbEntity
  8
D-6
  6
Continuous
 62
     6
370
     5
100
AcDbLine
 10
472.1687523094386
 20
201.9857210726352
 30
0.0
 11
501.9720129064612
 21
172.182336755701
 31
0.0
  0
LINE
  5
172
330
1F
100
AcDbEntity
  8
D-4
  6
Continuous
 62
     7
370
     9
100
AcDbLine
 10
496.9719964104732
 20
293.7031266495989
 30
0.0
 11
496.9719964104732
 21
204.6405647896432
 31
0.0
  0
LINE
  5
173
330
1F
100
AcDbEntity
  8
D-6
  6
Continuous
 62
     6
370
     5
100
AcDbLine
 10
496.9722438502956
 20
296.6268755938556
 30
0.0
 11
501.9720129064612
 21
296.6268755938556
 31
0.0
  0
ARC
  5
174
330
1F
100
AcDbEntity
  8
0-2
  6
Continuous
 62
     3
370
     9
100
AcDbCircle
 10
-537.3918481775231
 20
43.2296917889569
 30
0.0
 40
1.999999904954756
100
AcDbArc
 50
180.0
 51
270.0
  0
ARC
  5
175
330
1F
100
AcDbEntity
  8
0-2
  6
Continuous
 62
     3
370
     9
100
AcDbCircle
 10
-506.3918448783256
 20
43.2296917889569
 30
0.0
 40
1.999999904954756
100
AcDbArc
 50
270.0
 51
0.0
  0
ARC
  5
176
330
1F
100
AcDbEntity
  8
0-2
  6
Continuous
 62
     3
370
     9
100
AcDbCircle
 10
-506.3918448783256
 20
131.2298089104731
 30
0.0
 40
1.999999904954756
100
AcDbArc
 50
0.0
 51
90.0
  0
ARC
  5
177
330
1F
100
AcDbEntity
  8
0-2
  6
Continuous
 62
     3
370
     9
100
AcDbCircle
 10
-537.3918481775231
 20
131.2298089104731
 30
0.0
 40
1.999999904954756
100
AcDbArc
 50
90.0
 51
180.0
  0
ARC
  5
178
330
1F
100
AcDbEntity
  8
0-2
  6
Continuous
 62
     3
370
     9
100
AcDbCircle
 10
-525.7919311523438
 20
56.82966490049623
 30
0.0
 40
2.20000002835248
100
AcDbArc
 50
180.0
 51
270.0
  0
ARC
  5
179
330
1F
100
AcDbEntity
  8
0-2
  6
Continuous
 62
     3
370
     9
100
AcDbCircle
 10
-525.7919311523438
 20
117.6297120790224
 30
0.0
 40
2.20000002835248
100
AcDbArc
 50
90.0
 51
180.0
  0
ARC
  5
17A
330
1F
100
AcDbEntity
  8
0-2
  6
Continuous
 62
     3
370
     9
100
AcDbCircle
 10
-517.9918237634606
 20
117.6297120790224
 30
0.0
 40
2.20000002835248
100
AcDbArc
 50
0.0
 51
90.0
  0
ARC
  5
17B
330
1F
100
AcDbEntity
  8
0-2
  6
Continuous
 62
     3
370
     9
100
AcDbCircle
 10
-517.9918237634606
 20
56.82966490049623
 30
0.0
 40
2.20000002835248
100
AcDbArc
 50
270.0
 51
0.0
  0
ARC
  5
17C
330
1F
100
AcDbEntity
  8
0-2
  6
Continuous
 62
     3
370
     9
100
AcDbCircle
 10
-521.89190838788
 20
87.22975034971498
 30
0.0
 40
12.49999871125092
100
AcDbArc
 50
299.2091369628906
 51
60.7908630371094
  0
ARC
  5
17D
330
1F
100
AcDbEntity
  8
0-2
  6
Continuous
 62
     3
370
     9
100
AcDbCircle
 10
-521.89190838788
 20
87.22975034971498
 30
0.0
 40
12.49999871125092
100
AcDbArc
 50
119.2092742919922
 51
240.7907257080078
  0
ARC
  5
17E
330
1F
100
AcDbEntity
  8
0-2
  6
Continuous
 62
     3
370
     9
100
AcDbCircle
 10
-277.3918564255173
 20
43.2296917889569
 30
0.0
 40
1.999999904954756
100
AcDbArc
 50
180.0
 51
270.0
  0
ARC
  5
17F
330
1F
100
AcDbEntity
  8
0-2
  6
Continuous
 62
     3
370
     9
100
AcDbCircle
 10
-246.3918531263197
 20
43.2296917889569
 30
0.0
 40
1.999999904954756
100
AcDbArc
 50
270.0
 51
0.0
  0
ARC
  5
180
330
1F
100
AcDbEntity
  8
0-2
  6
Continuous
 62
     3
370
     9
100
AcDbCircle
 10
-246.3918531263197
 20
131.2298089104731
 30
0.0
 40
1.999999904954756
100
AcDbArc
 50
0.0
 51
90.0
  0
ARC
  5
181
330
1F
100
AcDbEntity
  8
0-2
  6
Continuous
 62
     3
370
     9
100
AcDbCircle
 10
-277.3918564255173
 20
131.2298089104731
 30
0.0
 40
1.999999904954756
100
AcDbArc
 50
90.0
 51
180.0
  0
ARC
  5
182
330
1F
100
AcDbEntity
  8
0-2
  6
Continuous
 62
     3
370
     9
100
AcDbCircle
 10
-265.7919394003378
 20
56.82966490049623
 30
0.0
 40
2.20000002835248
100
AcDbArc
 50
180.0
 51
270.0
  0
ARC
  5
183
330
1F
100
AcDbEntity
  8
0-2
  6
Continuous
 62
     3
370
     9
100
AcDbCircle
 10
-265.7919394003378
 20
117.6297120790224
 30
0.0
 40
2.20000002835248
100
AcDbArc
 50
90.0
 51
180.0
  0
ARC
  5
184
330
1F
100
AcDbEntity
  8
0-2
  6
Continuous
 62
     3
370
     9
100
AcDbCircle
 10
-257.9918938714104
 20
117.6297120790224
 30
0.0
 40
2.20000002835248
100
AcDbArc
 50
0.0
 51
90.0
  0
ARC
  5
185
330
1F
100
AcDbEntity
  8
0-2
  6
Continuous
 62
     3
370
     9
100
AcDbCircle
 10
-257.9918938714104
 20
56.82966490049623
 30
0.0
 40
2.20000002835248
100
AcDbArc
 50
270.0
 51
0.0
  0
ARC
  5
186
330
1F
100
AcDbEntity
  8
0-2
  6
Continuous
 62
     3
370
     9
100
AcDbCircle
 10
-261.8919166358741
 20
87.22975034971498
 30
0.0
 40
12.49999871125092
100
AcDbArc
 50
299.2091369628906
 51
60.7908630371094
  0
ARC
  5
187
330
1F
100
AcDbEntity
  8
0-2
  6
Continuous
 62
     3
370
     9
100
AcDbCircle
 10
-261.8919166358741
 20
87.22975034971498
 30
0.0
 40
12.49999871125092
100
AcDbArc
 50
119.2092742919922
 51
240.7907257080078
  0
ARC
  5
188
330
1F
100
AcDbEntity
  8
D-4
  6
Continuous
 62
     7
370
     9
100
AcDbCircle
 10
446.9720788904138
 20
310.2777594489021
 30
0.0
 40
9.849138195450243
100
AcDbArc
 50
15.30130004882812
 51
164.6986846923828
  0
ARC
  5
189
330
1F
100
AcDbEntity
  8
D-1
  6
Continuous
 62
     2
370
     9
100
AcDbCircle
 10
468.8472438502956
 20
325.3767848659207
 30
0.0
 40
2.499999790578275
100
AcDbArc
 50
90.0
 51
180.0
  0
ARC
  5
18A
330
1F
100
AcDbEntity
  8
D-1
  6
Continuous
 62
     2
370
     9
100
AcDbCircle
 10
476.972177866343
 20
325.3767848659207
 30
0.0
 40
2.499999790578275
100
AcDbArc
 50
7.016464233398438
 51
90.0
  0
ARC
  5
18B
330
1F
100
AcDbEntity
  8
D-1
  6
Continuous
 62
     2
370
     9
100
AcDbCircle
 10
476.972177866343
 20
302.8768343538852
 30
0.0
 40
2.499999790578275
100
AcDbArc
 50
270.0
 51
0.0
  0
ARC
  5
18C
330
1F
100
AcDbEntity
  8
D-1
  6
Continuous
 62
     2
370
     9
100
AcDbCircle
 10
462.5974088101773
 20
302.8768343538852
 30
0.0
 40
2.499999790578275
100
AcDbArc
 50
180.0
 51
270.0
  0
ARC
  5
18D
330
1F
100
AcDbEntity
  8
D-1
  6
Continuous
 62
     2
370
     9
100
AcDbCircle
 10
431.3472438502956
 20
302.8768343538852
 30
0.0
 40
2.499999790578275
100
AcDbArc
 50
270.0
 51
0.0
  0
ARC
  5
18E
330
1F
100
AcDbEntity
  8
D-1
  6
Continuous
 62
     2
370
     9
100
AcDbCircle
 10
420.722177866343
 20
302.8768343538852
 30
0.0
 40
2.499999790578275
100
AcDbArc
 50
180.0
 51
270.0
  0
ARC
  5
18F
330
1F
100
AcDbEntity
  8
D-1
  6
Continuous
 62
     2
370
     9
100
AcDbCircle
 10
420.722177866343
 20
325.3767848659207
 30
0.0
 40
2.499999790578275
100
AcDbArc
 50
90.0
 51
180.0
  0
ARC
  5
190
330
1F
100
AcDbEntity
  8
D-1
  6
Continuous
 62
     2
370
     9
100
AcDbCircle
 10
425.0974088101773
 20
325.3767848659207
 30
0.0
 40
2.499999790578275
100
AcDbArc
 50
7.016464233398438
 51
90.0
  0
ARC
  5
191
330
1F
100
AcDbEntity
  8
D-1
  6
Continuous
 62
     2
370
     9
100
AcDbCircle
 10
460.0972768422722
 20
315.3768755938556
 30
0.0
 40
2.499999790578275
100
AcDbArc
 50
270.0
 51
0.0
  0
ARC
  5
192
330
1F
100
AcDbEntity
  8
D-1
  6
Continuous
 62
     2
370
     9
100
AcDbCircle
 10
433.8471283783784
 20
315.3768755938556
 30
0.0
 40
2.499999790578275
100
AcDbArc
 50
180.0
 51
270.0
  0
ARC
  5
193
330
1F
100
AcDbEntity
  8
D-1
  6
Continuous
 62
     2
370
     9
100
AcDbCircle
 10
460.0972768422722
 20
315.3768755938556
 30
0.0
 40
6.250000322187269
100
AcDbArc
 50
270.0
 51
0.0
  0
ARC
  5
194
330
1F
100
AcDbEntity
  8
D-1
  6
Continuous
 62
     2
370
     9
100
AcDbCircle
 10
433.8471283783784
 20
315.3768755938556
 30
0.0
 40
6.250000322187269
100
AcDbArc
 50
180.0
 51
270.0
  0
ARC
  5
195
330
1F
100
AcDbEntity
  8
D-1
  6
Continuous
 62
     2
370
     9
100
AcDbCircle
 10
446.9723263302365
 20
359.1268343538852
 30
0.0
 40
35.79455195246516
100
AcDbArc
 50
257.9052581787109
 51
282.0947265625
  0
ARC
  5
196
330
1F
100
AcDbEntity
  8
D-1
  6
Continuous
 62
     2
370
     9
100
AcDbCircle
 10
446.9723263302365
 20
359.1268343538852
 30
0.0
 40
37.83683519105654
100
AcDbArc
 50
248.690673828125
 51
291.3093109130859
  0
ARC
  5
197
330
1F
100
AcDbEntity
  8
D-0
  6
JWW_DASHED3
 62
     3
370
     9
100
AcDbCircle
 10
201.7300167599241
 20
-327.7144602182749
 30
0.0
 40
6.250000322187269
100
AcDbArc
 50
180.0
 51
270.0
  0
ARC
  5
198
330
1F
100
AcDbEntity
  8
D-0
  6
JWW_DASHED3
 62
     3
370
     9
100
AcDbCircle
 10
364.7302576013513
 20
-327.7144602182749
 30
0.0
 40
6.250000322187269
100
AcDbArc
 50
270.0
 51
0.0
  0
ARC
  5
199
330
1F
100
AcDbEntity
  8
D-0
  6
Continuous
 62
     3
370
     9
100
AcDbCircle
 10
170.4803466796875
 20
-311.2143686655405
 30
0.0
 40
2.249999787356403
100
AcDbArc
 50
90.0
 51
180.0
  0
ARC
  5
19A
330
1F
100
AcDbEntity
  8
D-0
  6
Continuous
 62
     3
370
     9
100
AcDbCircle
 10
395.9804225612331
 20
-311.2143686655405
 30
0.0
 40
2.249999787356403
100
AcDbArc
 50
0.0
 51
90.0
  0
ARC
  5
19B
330
1F
100
AcDbEntity
  8
D-0
  6
JWW_DASHED3
 62
     3
370
     9
100
AcDbCircle
 10
375.5280365815034
 20
-317.7143653663429
 30
0.0
 40
1.249999895289138
100
AcDbArc
 50
90.0
 51
163.8992004394532
  0
ARC
  5
19C
330
1F
100
AcDbEntity
  8
D-0
  6
Continuous
 62
     3
370
     9
100
AcDbCircle
 10
173.2301454286318
 20
-61.46494272592903
 30
0.0
 40
5.000000064437454
100
AcDbArc
 50
90.0
 51
180.0
  0
ARC
  5
19D
330
1F
100
AcDbEntity
  8
D-0
  6
Continuous
 62
     3
370
     9
100
AcDbCircle
 10
393.2301289326438
 20
-61.46494272592903
 30
0.0
 40
5.000000064437454
100
AcDbArc
 50
0.0
 51
90.0
  0
ARC
  5
19E
330
1F
100
AcDbEntity
  8
D-0
  6
Continuous
 62
     3
370
     9
100
AcDbCircle
 10
393.2301289326438
 20
-138.9650746938344
 30
0.0
 40
5.000000064437454
100
AcDbArc
 50
270.0
 51
0.0
  0
ARC
  5
19F
330
1F
100
AcDbEntity
  8
D-0
  6
Continuous
 62
     3
370
     9
100
AcDbCircle
 10
173.2301454286318
 20
-138.9650746938344
 30
0.0
 40
5.000000064437454
100
AcDbArc
 50
180.0
 51
270.0
  0
ARC
  5
1A0
330
1F
100
AcDbEntity
  8
D-0
  6
Continuous
 62
     3
370
     9
100
AcDbCircle
 10
207.2301091374578
 20
-90.46513737858945
 30
0.0
 40
5.5000000708812
100
AcDbArc
 50
90.0
 51
180.0
  0
ARC
  5
1A1
330
1F
100
AcDbEntity
  8
D-0
  6
Continuous
 62
     3
370
     9
100
AcDbCircle
 10
207.2301091374578
 20
-109.9651274809966
 30
0.0
 40
5.5000000708812
100
AcDbArc
 50
180.0
 51
270.0
  0
ARC
  5
1A2
330
1F
100
AcDbEntity
  8
D-0
  6
Continuous
 62
     3
370
     9
100
AcDbCircle
 10
359.2301652238177
 20
-90.46513737858945
 30
0.0
 40
5.5000000708812
100
AcDbArc
 50
0.0
 51
90.0
  0
ARC
  5
1A3
330
1F
100
AcDbEntity
  8
D-0
  6
Continuous
 62
     3
370
     9
100
AcDbCircle
 10
359.2301652238177
 20
-109.9651274809966
 30
0.0
 40
5.5000000708812
100
AcDbArc
 50
270.0
 51
0.0
  0
ARC
  5
1A4
330
1F
100
AcDbEntity
  8
D-0
  6
Continuous
 62
     3
370
     9
100
AcDbCircle
 10
245.7300134607263
 20
-431.4645550702069
 30
0.0
 40
2.500000032218727
100
AcDbArc
 50
180.0
 51
270.0
  0
ARC
  5
1A5
330
1F
100
AcDbEntity
  8
D-0
  6
Continuous
 62
     3
370
     9
100
AcDbCircle
 10
320.7300134607263
 20
-431.4645550702069
 30
0.0
 40
2.500000032218727
100
AcDbArc
 50
270.0
 51
0.0
  0
ARC
  5
1A6
330
1F
100
AcDbEntity
  8
D-0
  6
Continuous
 62
     3
370
     9
100
AcDbCircle
 10
250.7302773965372
 20
-352.7146045581714
 30
0.0
 40
7.500000096656181
100
AcDbArc
 50
292.0240478515625
 51
0.0000000000000382
  0
ARC
  5
1A7
330
1F
100
AcDbEntity
  8
D-0
  6
Continuous
 62
     3
370
     9
100
AcDbCircle
 10
258.2301784206081
 20
-371.2550230283995
 30
0.0
 40
12.50000064437454
100
AcDbArc
 50
112.0243377685547
 51
180.0
  0
ARC
  5
1A8
330
1F
100
AcDbEntity
  8
D-0
  6
Continuous
 62
     3
370
     9
100
AcDbCircle
 10
308.2300959406672
 20
-371.2550230283995
 30
0.0
 40
12.50000064437454
100
AcDbArc
 50
0.0
 51
67.9756622314453
  0
ARC
  5
1A9
330
1F
100
AcDbEntity
  8
D-0
  6
Continuous
 62
     3
370
     9
100
AcDbCircle
 10
315.7302444045609
 20
-352.7146045581714
 30
0.0
 40
7.500000096656181
100
AcDbArc
 50
180.0
 51
247.9759521484375
  0
ARC
  5
1AA
330
1F
100
AcDbEntity
  8
D-0
  6
Continuous
 62
     3
370
     9
100
AcDbCircle
 10
283.2300134607263
 20
-100.2150087098818
 30
0.0
 40
32.49999896900074
100
AcDbArc
 50
207.9842987060547
 51
332.0157012939453
  0
ARC
  5
1AB
330
1F
100
AcDbEntity
  8
D-0
  6
Continuous
 62
     3
370
     9
100
AcDbCircle
 10
283.2300134607263
 20
-100.2150087098818
 30
0.0
 40
32.49999896900074
100
AcDbArc
 50
27.98429870605469
 51
152.0157012939453
  0
ARC
  5
1AC
330
1F
100
AcDbEntity
  8
D-0
  6
JWW_PHANTOM1
 62
     3
370
     9
100
AcDbCircle
 10
250.7302773965372
 20
-258.9644808382601
 30
0.0
 40
7.500000096656181
100
AcDbArc
 50
0.0
 51
90.0
  0
ARC
  5
1AD
330
1F
100
AcDbEntity
  8
D-0
  6
JWW_PHANTOM1
 62
     3
370
     9
100
AcDbCircle
 10
315.7302444045609
 20
-258.9644808382601
 30
0.0
 40
7.500000096656181
100
AcDbArc
 50
90.0
 51
180.0
  0
ARC
  5
1AE
330
1F
100
AcDbEntity
  8
D-0
  6
JWW_PHANTOM1
 62
     3
370
     9
100
AcDbCircle
 10
315.7302444045609
 20
-276.4644148543074
 30
0.0
 40
7.500000096656181
100
AcDbArc
 50
180.0
 51
247.9759521484375
  0
ARC
  5
1AF
330
1F
100
AcDbEntity
  8
D-0
  6
JWW_PHANTOM1
 62
     3
370
     9
100
AcDbCircle
 10
308.2303433804898
 20
-295.0048951844911
 30
0.0
 40
12.50000064437454
100
AcDbArc
 50
0.0
 51
67.97628784179688
  0
ARC
  5
1B0
330
1F
100
AcDbEntity
  8
D-0
  6
JWW_PHANTOM1
 62
     3
370
     9
100
AcDbCircle
 10
250.7302773965372
 20
-276.4644148543074
 30
0.0
 40
7.500000096656181
100
AcDbArc
 50
292.0240478515625
 51
0.0000000000000382
  0
ARC
  5
1B1
330
1F
100
AcDbEntity
  8
D-0
  6
JWW_PHANTOM1
 62
     3
370
     9
100
AcDbCircle
 10
258.2301784206081
 20
-295.0048951844911
 30
0.0
 40
12.50000064437454
100
AcDbArc
 50
112.0237121582031
 51
180.0
  0
TEXT
  5
1B2
330
1F
100
AcDbEntity
  8
0-4
  6
Continuous
 62
     2
370
     9
100
AcDbText
 10
-408.1419125118771
 20
387.5354524519638
 30
0.0
 40
15.24
  1
400
 41
1.083333333333333
  7
ＭＳ ゴシック
100
AcDbText
  0
TEXT
  5
1B3
330
1F
100
AcDbEntity
  8
0-4
  6
Continuous
 62
     2
370
     9
100
AcDbText
 10
-408.1419125118771
 20
431.6130215371622
 30
0.0
 40
15.24
  1
450
 41
1.083333333333333
  7
ＭＳ ゴシック
100
AcDbText
  0
TEXT
  5
1B4
330
1F
100
AcDbEntity
  8
0-4
  6
Continuous
 62
     2
370
     9
100
AcDbText
 10
-408.1419125118771
 20
469.9951445048565
 30
0.0
 40
15.24
  1
476
 41
1.083333333333333
  7
ＭＳ ゴシック
100
AcDbText
  0
TEXT
  5
1B5
330
1F
100
AcDbEntity
  8
0-4
  6
Continuous
 62
     2
370
     9
100
AcDbText
 10
-692.1976146141259
 20
70.97975034971505
 30
0.0
 40
15.24
  1
400
 50
90.0
 41
1.083333333333333
  7
ＭＳ ゴシック
100
AcDbText
  0
TEXT
  5
1B6
330
1F
100
AcDbEntity
  8
0-4
  6
Continuous
 62
     2
370
     9
100
AcDbText
 10
-736.27524555928
 20
70.97975034971505
 30
0.0
 40
15.24
  1
450
 50
90.0
 41
1.083333333333333
  7
ＭＳ ゴシック
100
AcDbText
  0
TEXT
  5
1B7
330
1F
100
AcDbEntity
  8
0-4
  6
Continuous
 62
     2
370
     9
100
AcDbText
 10
-774.657244807063
 20
70.97975034971505
 30
0.0
 40
15.24
  1
476
 50
90.0
 41
1.083333333333333
  7
ＭＳ ゴシック
100
AcDbText
  0
TEXT
  5
1B8
330
1F
100
AcDbEntity
  8
0-4
  6
Continuous
 62
     2
370
     9
100
AcDbText
 10
-497.0308231663059
 20
-229.7253928354624
 30
0.0
 40
15.24
  1
平面詳細図　Ｓ＝１：５
 41
1.113636363636364
  7
ＭＳ ゴシック
100
AcDbText
  0
TEXT
  5
1B9
330
1F
100
AcDbEntity
  8
D-4
  6
Continuous
 62
     2
370
     9
100
AcDbText
 10
269.6921188766893
 20
83.76434583509297
 30
0.0
 40
15.24
  1
断面詳細図　Ｓ＝１：２
 41
1.113636363636364
  7
ＭＳ ゴシック
100
AcDbText
  0
TEXT
  5
1BA
330
1F
100
AcDbEntity
  8
D-0
  6
Continuous
 62
     2
370
     9
100
AcDbText
 10
163.7982672614021
 20
-509.7342965450802
 30
0.0
 40
15.24
  1
把手詳細図　Ｓ＝１：２
 41
1.113636363636364
  7
ＭＳ ゴシック
100
AcDbText
  0
TEXT
  5
1BB
330
1F
100
AcDbEntity
  8
D-4
  6
Continuous
 62
     2
370
     9
100
AcDbText
 10
130.6599276815879
 20
317.1023889490076
 30
0.0
 40
15.24
  1
3.2
 50
90.0
 41
1.083333333333333
  7
ＭＳ ゴシック
100
AcDbText
  0
TEXT
  5
1BC
330
1F
100
AcDbEntity
  8
D-4
  6
Continuous
 62
     2
370
     9
100
AcDbText
 10
130.6599276815879
 20
359.1268137339
 30
0.0
 40
15.24
  1
12.5
 50
90.0
 41
1.09375
  7
ＭＳ ゴシック
100
AcDbText
  0
TEXT
  5
1BD
330
1F
100
AcDbEntity
  8
D-4
  6
Continuous
 62
     2
370
     9
100
AcDbText
 10
371.828140572213
 20
328.6716976681271
 30
0.0
 40
15.24
  1
42
 50
90.0
 41
1.0625
  7
ＭＳ ゴシック
100
AcDbText
  0
TEXT
  5
1BE
330
1F
100
AcDbEntity
  8
D-4
  6
Continuous
 62
     2
370
     9
100
AcDbText
 10
462.4464870143582
 20
474.9821704101562
 30
0.0
 40
15.24
  1
1
 41
0.9999999999999998
  7
ＭＳ ゴシック
100
AcDbText
  0
TEXT
  5
1BF
330
1F
100
AcDbEntity
  8
D-4
  6
Continuous
 62
     2
370
     9
100
AcDbText
 10
483.8472974622573
 20
474.9821704101562
 30
0.0
 40
15.24
  1
12
 41
1.0625
  7
ＭＳ ゴシック
100
AcDbText
  0
TEXT
  5
1C0
330
1F
100
AcDbEntity
  8
D-4
  6
Continuous
 62
     2
370
     9
100
AcDbText
 10
445.0972314783046
 20
211.4605532424514
 30
0.0
 40
15.24
  1
33
 41
1.0625
  7
ＭＳ ゴシック
100
AcDbText
  0
TEXT
  5
1C1
330
1F
100
AcDbEntity
  8
D-4
  6
Continuous
 62
     2
370
     9
100
AcDbText
 10
583.0959727354307
 20
336.0018549738704
 30
0.0
 40
15.24
  1
40
 50
90.0
 41
1.0625
  7
ＭＳ ゴシック
100
AcDbText
  0
TEXT
  5
1C2
330
1F
100
AcDbEntity
  8
D-4
  6
Continuous
 62
     2
370
     9
100
AcDbText
 10
583.0959727354307
 20
408.2395728858742
 30
0.0
 40
15.24
  1
2
 50
90.0
 41
0.9999999999999998
  7
ＭＳ ゴシック
100
AcDbText
  0
TEXT
  5
1C3
330
1F
100
AcDbEntity
  8
D-4
  6
Continuous
 62
     7
370
     9
100
AcDbText
 10
464.2045095111253
 20
39.03336795291069
 30
0.0
 40
11.43
  1
処理：陽極酸化塗装複合皮膜処理（アルミ材のみ）
 50
0.0000088607868638
 41
1.159420289855072
  7
ＭＳ ゴシック
100
AcDbText
  0
TEXT
  5
1C4
330
1F
100
AcDbEntity
  8
D-4
  6
Continuous
 62
     2
370
     9
100
AcDbText
 10
171.0751837653083
 20
510.4449983504013
 30
0.0
 40
15.24
  1
476
 41
1.083333333333333
  7
ＭＳ ゴシック
100
AcDbText
  0
TEXT
  5
1C5
330
1F
100
AcDbEntity
  8
D-4
  6
Continuous
 62
     2
370
     9
100
AcDbText
 10
170.3863112990921
 20
474.9821704101562
 30
0.0
 40
15.24
  1
450
 41
1.083333333333333
  7
ＭＳ ゴシック
100
AcDbText
  0
TEXT
  5
1C6
330
1F
100
AcDbEntity
  8
D-4
  6
Continuous
 62
     2
370
     9
100
AcDbText
 10
171.8244315482475
 20
211.4605532424514
 30
0.0
 40
15.24
  1
400
 41
1.083333333333333
  7
ＭＳ ゴシック
100
AcDbText
  0
LWPOLYLINE
  5
1C7
330
1F
100
AcDbEntity
  8
0-4
  6
Continuous
 62
     7
370
     9
100
AcDbPolyline
 90
        4
 70
     1
 43
0.5
 10
-591.6418918918919
 20
382.2154442039697
 42
0.4142135623731
 10
-591.8918918918919
 20
382.4654442039696
 42
0.4142135623731
 10
-592.1418918918919
 20
382.2154442039697
 42
0.4142135623731
 10
-591.8918918918919
 20
381.9654442039697
 42
0.4142135623731
  0
LWPOLYLINE
  5
1C8
330
1F
100
AcDbEntity
  8
0-4
  6
Continuous
 62
     7
370
     9
100
AcDbPolyline
 90
        4
 70
     1
 43
0.5
 10
-191.6419331318622
 20
382.2154442039697
 42
0.4142135623731
 10
-191.8919331318622
 20
382.4654442039696
 42
0.4142135623731
 10
-192.1419331318622
 20
382.2154442039697
 42
0.4142135623731
 10
-191.8919331318622
 20
381.9654442039697
 42
0.4142135623731
  0
LWPOLYLINE
  5
1C9
330
1F
100
AcDbEntity
  8
0-4
  6
Continuous
 62
     7
370
     9
100
AcDbPolyline
 90
        4
 70
     1
 43
0.5
 10
-616.6419125118771
 20
426.2931370090794
 42
0.4142135623731
 10
-616.8919125118771
 20
426.5431370090794
 42
0.4142135623731
 10
-617.1419125118771
 20
426.2931370090794
 42
0.4142135623731
 10
-616.8919125118771
 20
426.0431370090794
 42
0.4142135623731
  0
LWPOLYLINE
  5
1CA
330
1F
100
AcDbEntity
  8
0-4
  6
Continuous
 62
     7
370
     9
100
AcDbPolyline
 90
        4
 70
     1
 43
0.5
 10
-166.6419125118771
 20
426.2931370090794
 42
0.4142135623731
 10
-166.8919125118771
 20
426.5431370090794
 42
0.4142135623731
 10
-167.1419125118771
 20
426.2931370090794
 42
0.4142135623731
 10
-166.8919125118771
 20
426.0431370090794
 42
0.4142135623731
  0
LWPOLYLINE
  5
1CB
330
1F
100
AcDbEntity
  8
0-4
  6
Continuous
 62
     7
370
     9
100
AcDbPolyline
 90
        4
 70
     1
 43
0.5
 10
-629.6419059134819
 20
464.675012536951
 42
0.4142135623731
 10
-629.8919059134819
 20
464.925012536951
 42
0.4142135623731
 10
-630.1419059134819
 20
464.675012536951
 42
0.4142135623731
 10
-629.8919059134819
 20
464.425012536951
 42
0.4142135623731
  0
LWPOLYLINE
  5
1CC
330
1F
100
AcDbEntity
  8
0-4
  6
Continuous
 62
     7
370
     9
100
AcDbPolyline
 90
        4
 70
     1
 43
0.5
 10
-153.6419191102724
 20
464.675012536951
 42
0.4142135623731
 10
-153.8919191102724
 20
464.925012536951
 42
0.4142135623731
 10
-154.1419191102724
 20
464.675012536951
 42
0.4142135623731
 10
-153.8919191102724
 20
464.425012536951
 42
0.4142135623731
  0
LWPOLYLINE
  5
1CD
330
1F
100
AcDbEntity
  8
0-4
  6
Continuous
 62
     7
370
     9
100
AcDbPolyline
 90
        4
 70
     1
 43
0.5
 10
-686.6276063661317
 20
-112.7702290302998
 42
0.4142135623731
 10
-686.8776063661318
 20
-112.5202290302998
 42
0.4142135623731
 10
-687.1276063661319
 20
-112.7702290302998
 42
0.4142135623731
 10
-686.8776063661318
 20
-113.0202290302998
 42
0.4142135623731
  0
LWPOLYLINE
  5
1CE
330
1F
100
AcDbEntity
  8
0-4
  6
Continuous
 62
     7
370
     9
100
AcDbPolyline
 90
        4
 70
     1
 43
0.5
 10
-686.6276063661317
 20
287.2297297297298
 42
0.4142135623731
 10
-686.8776063661318
 20
287.4797297297298
 42
0.4142135623731
 10
-687.1276063661319
 20
287.2297297297298
 42
0.4142135623731
 10
-686.8776063661318
 20
286.9797297297299
 42
0.4142135623731
  0
LWPOLYLINE
  5
1CF
330
1F
100
AcDbEntity
  8
0-4
  6
Continuous
 62
     7
370
     9
100
AcDbPolyline
 90
        4
 70
     1
 43
0.5
 10
-730.7052373112858
 20
-137.770249650285
 42
0.4142135623731
 10
-730.9552373112859
 20
-137.520249650285
 42
0.4142135623731
 10
-731.205237311286
 20
-137.770249650285
 42
0.4142135623731
 10
-730.9552373112859
 20
-138.020249650285
 42
0.4142135623731
  0
LWPOLYLINE
  5
1D0
330
1F
100
AcDbEntity
  8
0-4
  6
Continuous
 62
     7
370
     9
100
AcDbPolyline
 90
        4
 70
     1
 43
0.5
 10
-730.7052373112858
 20
312.2298122096707
 42
0.4142135623731
 10
-730.9552373112859
 20
312.4798122096707
 42
0.4142135623731
 10
-731.205237311286
 20
312.2298122096707
 42
0.4142135623731
 10
-730.9552373112859
 20
311.9798122096707
 42
0.4142135623731
  0
LWPOLYLINE
  5
1D1
330
1F
100
AcDbEntity
  8
0-4
  6
Continuous
 62
     7
370
     9
100
AcDbPolyline
 90
        4
 70
     1
 43
0.5
 10
-769.0872365590687
 20
-150.7702430518898
 42
0.4142135623731
 10
-769.3372365590687
 20
-150.5202430518898
 42
0.4142135623731
 10
-769.5872365590687
 20
-150.7702430518898
 42
0.4142135623731
 10
-769.3372365590687
 20
-151.0202430518898
 42
0.4142135623731
  0
LWPOLYLINE
  5
1D2
330
1F
100
AcDbEntity
  8
0-4
  6
Continuous
 62
     7
370
     9
100
AcDbPolyline
 90
        4
 70
     1
 43
0.5
 10
-769.0872365590687
 20
325.2298056112754
 42
0.4142135623731
 10
-769.3372365590687
 20
325.4798056112754
 42
0.4142135623731
 10
-769.5872365590687
 20
325.2298056112754
 42
0.4142135623731
 10
-769.3372365590687
 20
324.9798056112754
 42
0.4142135623731
  0
LWPOLYLINE
  5
1D3
330
1F
100
AcDbEntity
  8
D-4
  6
Continuous
 62
     7
370
     9
100
AcDbPolyline
 90
        4
 70
     1
 43
0.5
 10
136.2298122096707
 20
357.3768162082982
 42
0.4142135623731
 10
135.9798122096707
 20
357.6268162082982
 42
0.4142135623731
 10
135.7298122096707
 20
357.3768162082982
 42
0.4142135623731
 10
135.9798122096707
 20
357.1268162082982
 42
0.4142135623731
  0
LWPOLYLINE
  5
1D4
330
1F
100
AcDbEntity
  8
D-4
  6
Continuous
 62
     7
370
     9
100
AcDbPolyline
 90
        4
 70
     1
 43
0.5
 10
136.2298122096707
 20
365.3767931139147
 42
0.4142135623731
 10
135.9798122096707
 20
365.6267931139147
 42
0.4142135623731
 10
135.7298122096707
 20
365.3767931139147
 42
0.4142135623731
 10
135.9798122096707
 20
365.1267931139147
 42
0.4142135623731
  0
LWPOLYLINE
  5
1D5
330
1F
100
AcDbEntity
  8
D-4
  6
Continuous
 62
     7
370
     9
100
AcDbPolyline
 90
        4
 70
     1
 43
0.5
 10
136.2298122096707
 20
396.6268343538852
 42
0.4142135623731
 10
135.9798122096707
 20
396.8768343538852
 42
0.4142135623731
 10
135.7298122096707
 20
396.6268343538852
 42
0.4142135623731
 10
135.9798122096707
 20
396.3768343538852
 42
0.4142135623731
  0
LWPOLYLINE
  5
1D6
330
1F
100
AcDbEntity
  8
D-4
  6
Continuous
 62
     7
370
     9
100
AcDbPolyline
 90
        4
 70
     1
 43
0.5
 10
377.3980251002956
 20
296.6268755938556
 42
0.4142135623731
 10
377.1480251002956
 20
296.8768755938556
 42
0.4142135623731
 10
376.8980251002956
 20
296.6268755938556
 42
0.4142135623731
 10
377.1480251002956
 20
296.3768755938556
 42
0.4142135623731
  0
LWPOLYLINE
  5
1D7
330
1F
100
AcDbEntity
  8
D-4
  6
Continuous
 62
     7
370
     9
100
AcDbPolyline
 90
        4
 70
     1
 43
0.5
 10
377.3980251002956
 20
401.6268508498733
 42
0.4142135623731
 10
377.1480251002956
 20
401.8768508498733
 42
0.4142135623731
 10
376.8980251002956
 20
401.6268508498733
 42
0.4142135623731
 10
377.1480251002956
 20
401.3768508498733
 42
0.4142135623731
  0
LWPOLYLINE
  5
1D8
330
1F
100
AcDbEntity
  8
D-4
  6
Continuous
 62
     7
370
     9
100
AcDbPolyline
 90
        4
 70
     1
 43
0.5
 10
477.222177866343
 20
469.6621621621622
 42
0.4142135623731
 10
476.972177866343
 20
469.9121621621622
 42
0.4142135623731
 10
476.722177866343
 20
469.6621621621622
 42
0.4142135623731
 10
476.972177866343
 20
469.4121621621622
 42
0.4142135623731
  0
LWPOLYLINE
  5
1D9
330
1F
100
AcDbEntity
  8
D-4
  6
Continuous
 62
     7
370
     9
100
AcDbPolyline
 90
        4
 70
     1
 43
0.5
 10
479.7223098342484
 20
469.6621621621622
 42
0.4142135623731
 10
479.4723098342484
 20
469.9121621621622
 42
0.4142135623731
 10
479.2223098342484
 20
469.6621621621622
 42
0.4142135623731
 10
479.4723098342484
 20
469.4121621621622
 42
0.4142135623731
  0
LWPOLYLINE
  5
1DA
330
1F
100
AcDbEntity
  8
D-4
  6
Continuous
 62
     7
370
     9
100
AcDbPolyline
 90
        4
 70
     1
 43
0.5
 10
509.7224088101773
 20
469.6621621621622
 42
0.4142135623731
 10
509.4724088101773
 20
469.9121621621622
 42
0.4142135623731
 10
509.2224088101773
 20
469.6621621621622
 42
0.4142135623731
 10
509.4724088101773
 20
469.4121621621622
 42
0.4142135623731
  0
LWPOLYLINE
  5
1DB
330
1F
100
AcDbEntity
  8
D-4
  6
Continuous
 62
     7
370
     9
100
AcDbPolyline
 90
        4
 70
     1
 43
0.5
 10
509.7224088101773
 20
505.1249901024072
 42
0.4142135623731
 10
509.4724088101773
 20
505.3749901024071
 42
0.4142135623731
 10
509.2224088101773
 20
505.1249901024072
 42
0.4142135623731
 10
509.4724088101773
 20
504.8749901024072
 42
0.4142135623731
  0
LWPOLYLINE
  5
1DC
330
1F
100
AcDbEntity
  8
D-4
  6
Continuous
 62
     7
370
     9
100
AcDbPolyline
 90
        4
 70
     1
 43
0.5
 10
414.7220953864021
 20
206.1405449944574
 42
0.4142135623731
 10
414.4720953864021
 20
206.3905449944574
 42
0.4142135623731
 10
414.2220953864021
 20
206.1405449944574
 42
0.4142135623731
 10
414.4720953864021
 20
205.8905449944575
 42
0.4142135623731
  0
LWPOLYLINE
  5
1DD
330
1F
100
AcDbEntity
  8
D-4
  6
Continuous
 62
     7
370
     9
100
AcDbPolyline
 90
        4
 70
     1
 43
0.5
 10
497.2219964104732
 20
206.1405449944574
 42
0.4142135623731
 10
496.9719964104732
 20
206.3905449944574
 42
0.4142135623731
 10
496.7219964104732
 20
206.1405449944574
 42
0.4142135623731
 10
496.9719964104732
 20
205.8905449944575
 42
0.4142135623731
  0
LWPOLYLINE
  5
1DE
330
1F
100
AcDbEntity
  8
D-4
  6
Continuous
 62
     7
370
     9
100
AcDbPolyline
 90
        4
 70
     1
 43
0.5
 10
588.6658572635135
 20
296.6268755938556
 42
0.4142135623731
 10
588.4158572635135
 20
296.8768755938556
 42
0.4142135623731
 10
588.1658572635135
 20
296.6268755938556
 42
0.4142135623731
 10
588.4158572635135
 20
296.3768755938556
 42
0.4142135623731
  0
LWPOLYLINE
  5
1DF
330
1F
100
AcDbEntity
  8
D-4
  6
Continuous
 62
     7
370
     9
100
AcDbPolyline
 90
        4
 70
     1
 43
0.5
 10
588.6658572635135
 20
396.6268343538852
 42
0.4142135623731
 10
588.4158572635135
 20
396.8768343538852
 42
0.4142135623731
 10
588.1658572635135
 20
396.6268343538852
 42
0.4142135623731
 10
588.4158572635135
 20
396.3768343538852
 42
0.4142135623731
  0
LWPOLYLINE
  5
1E0
330
1F
100
AcDbEntity
  8
D-4
  6
Continuous
 62
     7
370
     9
100
AcDbPolyline
 90
        4
 70
     1
 43
0.5
 10
588.6658572635135
 20
401.6268508498733
 42
0.4142135623731
 10
588.4158572635135
 20
401.8768508498733
 42
0.4142135623731
 10
588.1658572635135
 20
401.6268508498733
 42
0.4142135623731
 10
588.4158572635135
 20
401.3768508498733
 42
0.4142135623731
  0
LINE
  5
1E1
330
1F
100
AcDbEntity
  8
D-5
  6
Continuous
 62
     7
370
     9
100
AcDbLine
 10
510.5183369404563
 20
205.8715160472974
 30
0.0
 11
703.0183534364443
 21
205.8715160472974
 31
0.0
  0
LINE
  5
1E2
330
1F
100
AcDbEntity
  8
D-5
  6
Continuous
 62
     7
370
     9
100
AcDbLine
 10
348.7402013830237
 20
360.4449462890625
 30
0.0
 11
343.9492715371622
 21
348.8995278848185
 31
0.0
  0
LINE
  5
1E3
330
1F
100
AcDbEntity
  8
D-5
  6
Continuous
 62
     7
370
     9
100
AcDbLine
 10
348.7402013830237
 20
360.4449462890625
 30
0.0
 11
341.1244985219597
 21
350.5328781540329
 31
0.0
  0
LINE
  5
1E4
330
1F
100
AcDbEntity
  8
D-5
  6
Continuous
 62
     7
370
     9
100
AcDbLine
 10
379.7369879645271
 20
247.5249171901395
 30
0.0
 11
439.1962824641047
 21
332.5201251055744
 31
0.0
  0
LINE
  5
1E5
330
1F
100
AcDbEntity
  8
D-5
  6
Continuous
 62
     7
370
     9
100
AcDbLine
 10
439.1962824641047
 20
332.5201251055744
 30
0.0
 11
433.4292025179477
 21
321.4298722550676
 31
0.0
  0
LINE
  5
1E6
330
1F
100
AcDbEntity
  8
D-5
  6
Continuous
 62
     7
370
     9
100
AcDbLine
 10
439.1962824641047
 20
332.5201251055744
 30
0.0
 11
430.7553677945523
 21
323.3002698743667
 31
0.0
  0
LINE
  5
1E7
330
1F
100
AcDbEntity
  8
D-5
  6
Continuous
 62
     7
370
     9
100
AcDbLine
 10
510.5183369404563
 20
205.8715160472974
 30
0.0
 11
451.4027363545188
 21
266.911332413957
 31
0.0
  0
LINE
  5
1E8
330
1F
100
AcDbEntity
  8
D-5
  6
Continuous
 62
     7
370
     9
100
AcDbLine
 10
451.4027363545188
 20
266.911332413957
 30
0.0
 11
461.1964045344172
 21
259.1440726615288
 31
0.0
  0
LINE
  5
1E9
330
1F
100
AcDbEntity
  8
D-5
  6
Continuous
 62
     7
370
     9
100
AcDbLine
 10
451.4027363545188
 20
266.911332413957
 30
0.0
 11
458.8524070945948
 21
256.8738122888515
 31
0.0
  0
LINE
  5
1EA
330
1F
100
AcDbEntity
  8
D-5
  6
Continuous
 62
     7
370
     9
100
AcDbLine
 10
307.4885187922297
 20
289.0998799092062
 30
0.0
 11
348.7402013830237
 21
360.4449462890625
 31
0.0
  0
LINE
  5
1EB
330
1F
100
AcDbEntity
  8
D-5
  6
Continuous
 62
     7
370
     9
100
AcDbLine
 10
474.1036080025339
 20
394.2932293866133
 30
0.0
 11
478.9603568412164
 21
405.8110582506334
 31
0.0
  0
LINE
  5
1EC
330
1F
100
AcDbEntity
  8
D-5
  6
Continuous
 62
     7
370
     9
100
AcDbLine
 10
474.1036080025339
 20
394.2932293866133
 30
0.0
 11
481.7757271431589
 21
404.1616243929477
 31
0.0
  0
LINE
  5
1ED
330
1F
100
AcDbEntity
  8
D-5
  6
Continuous
 62
     7
370
     9
100
AcDbLine
 10
503.4893138988599
 20
398.3574284733953
 30
0.0
 11
511.1616804793076
 21
408.2258234797298
 31
0.0
  0
TEXT
  5
1EE
330
1F
100
AcDbEntity
  8
D-5
  6
Continuous
 62
     7
370
     9
100
AcDbText
 10
513.1624830091323
 20
212.2682147381758
 30
0.0
 40
11.43
  1
木ネジ　φ４．１×２５
 41
1.151515151515152
  7
ＭＳ ゴシック
100
AcDbText
  0
TEXT
  5
1EF
330
1F
100
AcDbEntity
  8
D-5
  6
Continuous
 62
     7
370
     9
100
AcDbText
 10
224.2032941401931
 20
230.0634301862151
 30
0.0
 40
11.43
  1
軟質ポリ塩化ビニル
 50
0.00006915737602
 41
1.148148148148148
  7
ＭＳ ゴシック
100
AcDbText
  0
TEXT
  5
1F0
330
1F
100
AcDbEntity
  8
D-5
  6
Continuous
 62
     7
370
     9
100
AcDbText
 10
261.638943377508
 20
253.2021401867857
 30
0.0
 40
11.43
  1
クッション
 50
0.00006915737602
 41
1.133333333333334
  7
ＭＳ ゴシック
100
AcDbText
  0
LINE
  5
1F1
330
1F
100
AcDbEntity
  8
D-5
  6
Continuous
 62
     7
370
     9
100
AcDbLine
 10
379.7369879645271
 20
247.5249171901395
 30
0.0
 11
224.9870501404896
 21
247.5249171901395
 31
0.0
  0
LINE
  5
1F2
330
1F
100
AcDbEntity
  8
D-5
  6
Continuous
 62
     7
370
     9
100
AcDbLine
 10
474.1036080025339
 20
394.2932293866133
 30
0.0
 11
539.0352816195102
 21
505.1249901024072
 31
0.0
  0
LINE
  5
1F3
330
1F
100
AcDbEntity
  8
D-5
  6
Continuous
 62
     7
370
     9
100
AcDbLine
 10
503.4893138988599
 20
398.3574284733953
 30
0.0
 11
540.2056719805745
 21
461.0284918707771
 31
0.0
  0
LINE
  5
1F4
330
1F
100
AcDbEntity
  8
D-5
  6
Continuous
 62
     7
370
     9
100
AcDbLine
 10
503.4893138988599
 20
398.3574284733953
 30
0.0
 11
508.3463101773648
 21
409.8752573374156
 31
0.0
  0
TEXT
  5
1F5
330
1F
100
AcDbEntity
  8
D-5
  6
Continuous
 62
     7
370
     9
100
AcDbText
 10
548.2301701726141
 20
512.0310436681799
 30
0.0
 40
11.43
  1
蓋フレーム（Ａ６０６３Ｓ－Ｔ５）
 41
1.15625
  7
ＭＳ ゴシック
100
AcDbText
  0
LINE
  5
1F6
330
1F
100
AcDbEntity
  8
D-5
  6
Continuous
 62
     7
370
     9
100
AcDbLine
 10
827.9282028610644
 20
505.1249901024072
 30
0.0
 11
539.0352816195102
 21
505.1249901024072
 31
0.0
  0
TEXT
  5
1F7
330
1F
100
AcDbEntity
  8
D-5
  6
Continuous
 62
     7
370
     9
100
AcDbText
 10
540.9549445074958
 20
467.0097390994511
 30
0.0
 40
11.43
  1
アルミ受枠（Ａ６０６３Ｓ－Ｔ５）
 41
1.15625
  7
ＭＳ ゴシック
100
AcDbText
  0
LINE
  5
1F8
330
1F
100
AcDbEntity
  8
D-5
  6
Continuous
 62
     7
370
     9
100
AcDbLine
 10
540.2056719805745
 20
461.0284918707771
 30
0.0
 11
807.7272157411318
 21
461.0284918707771
 31
0.0
  0
LINE
  5
1F9
330
1F
100
AcDbEntity
  8
D-5
  6
Continuous
 62
     7
370
     9
100
AcDbLine
 10
-9.205503721494921
 20
-309.1695259712838
 30
0.0
 11
147.9989541543497
 21
-309.1695259712838
 31
0.0
  0
LINE
  5
1FA
330
1F
100
AcDbEntity
  8
D-5
  6
Continuous
 62
     7
370
     9
100
AcDbLine
 10
147.9989541543497
 20
-309.1695259712838
 30
0.0
 11
170.6085205078125
 21
-331.8397150812922
 31
0.0
  0
LINE
  5
1FB
330
1F
100
AcDbEntity
  8
D-5
  6
Continuous
 62
     7
370
     9
100
AcDbLine
 10
170.6085205078125
 20
-331.8397150812922
 30
0.0
 11
160.7017723289697
 21
-324.2169601852829
 31
0.0
  0
LINE
  5
1FC
330
1F
100
AcDbEntity
  8
D-5
  6
Continuous
 62
     7
370
     9
100
AcDbLine
 10
170.6085205078125
 20
-331.8397150812922
 30
0.0
 11
163.0121179529139
 21
-321.9126768369932
 31
0.0
  0
LINE
  5
1FD
330
1F
100
AcDbEntity
  8
D-5
  6
Continuous
 62
     7
370
     9
100
AcDbLine
 10
-19.37330091321783
 20
-224.6891166068412
 30
0.0
 11
145.5747862119934
 21
-224.6891166068412
 31
0.0
  0
LINE
  5
1FE
330
1F
100
AcDbEntity
  8
D-5
  6
Continuous
 62
     7
370
     9
100
AcDbLine
 10
10.68791569890209
 20
-358.8191924224029
 30
0.0
 11
177.8533110747468
 21
-358.8191924224029
 31
0.0
  0
LINE
  5
1FF
330
1F
100
AcDbEntity
  8
D-5
  6
Continuous
 62
     7
370
     9
100
AcDbLine
 10
145.5747862119934
 20
-224.6891166068412
 30
0.0
 11
193.2668325063345
 21
-308.9644602182749
 31
0.0
  0
LINE
  5
200
330
1F
100
AcDbEntity
  8
D-5
  6
Continuous
 62
     7
370
     9
100
AcDbLine
 10
193.2668325063345
 20
-308.9644602182749
 30
0.0
 11
185.7431772592906
 21
-298.9821810335726
 31
0.0
  0
LINE
  5
201
330
1F
100
AcDbEntity
  8
D-5
  6
Continuous
 62
     7
370
     9
100
AcDbLine
 10
193.2668325063345
 20
-308.9644602182749
 30
0.0
 11
188.5830441036741
 21
-297.3750593855574
 31
0.0
  0
LINE
  5
202
330
1F
100
AcDbEntity
  8
D-5
  6
Continuous
 62
     7
370
     9
100
AcDbLine
 10
177.8533110747468
 20
-358.8191924224029
 30
0.0
 11
220.0586267419764
 21
-333.9646045581714
 31
0.0
  0
LINE
  5
203
330
1F
100
AcDbEntity
  8
D-5
  6
Continuous
 62
     7
370
     9
100
AcDbLine
 10
220.0586267419764
 20
-333.9646045581714
 30
0.0
 11
210.2077999630491
 21
-341.6591788627006
 31
0.0
  0
LINE
  5
204
330
1F
100
AcDbEntity
  8
D-5
  6
Continuous
 62
     7
370
     9
100
AcDbLine
 10
220.0586267419764
 20
-333.9646045581714
 30
0.0
 11
208.5519326699747
 21
-338.8473345782305
 31
0.0
  0
LINE
  5
205
330
1F
100
AcDbEntity
  8
D-5
  6
Continuous
 62
     7
370
     9
100
AcDbLine
 10
177.8533110747468
 20
-358.8191924224029
 30
0.0
 11
245.7300134607263
 21
-377.9519818280194
 31
0.0
  0
LINE
  5
206
330
1F
100
AcDbEntity
  8
D-5
  6
Continuous
 62
     7
370
     9
100
AcDbLine
 10
245.7300134607263
 20
-377.9519818280194
 30
0.0
 11
233.3592595280828
 21
-376.1600226324958
 31
0.0
  0
LINE
  5
207
330
1F
100
AcDbEntity
  8
D-5
  6
Continuous
 62
     7
370
     9
100
AcDbLine
 10
245.7300134607263
 20
-377.9519818280194
 30
0.0
 11
234.2445992134714
 21
-373.0193308237436
 31
0.0
  0
ARC
  5
208
330
1F
100
AcDbEntity
  8
D-5
  6
JWW_DASHED3
 62
     3
370
     9
100
AcDbCircle
 10
190.9317429001267
 20
-317.7143653663429
 30
0.0
 40
1.249999895289138
100
AcDbArc
 50
16.10079956054688
 51
90.0
  0
TEXT
  5
209
330
1F
100
AcDbEntity
  8
D-5
  6
Continuous
 62
     7
370
     9
100
AcDbText
 10
-7.811695820576361
 20
-303.7813919974662
 30
0.0
 40
11.43
  1
アルミ製ボックス
 41
1.145833333333333
  7
ＭＳ ゴシック
100
AcDbText
  0
TEXT
  5
20A
330
1F
100
AcDbEntity
  8
D-5
  6
Continuous
 62
     7
370
     9
100
AcDbText
 10
-7.811658704602991
 20
-288.1718982263513
 30
0.0
 40
11.43
  1
かさ上げ用
 41
1.133333333333333
  7
ＭＳ ゴシック
100
AcDbText
  0
TEXT
  5
20B
330
1F
100
AcDbEntity
  8
D-5
  6
Continuous
 62
     7
370
     9
100
AcDbText
 10
-16.96271741712408
 20
-217.6906442673142
 30
0.0
 40
11.43
  1
把手カバー　ｔ＝0.5
 41
1.157894736842105
  7
ＭＳ ゴシック
100
AcDbText
  0
TEXT
  5
20C
330
1F
100
AcDbEntity
  8
D-5
  6
Continuous
 62
     7
370
     9
100
AcDbText
 10
-0.0890989561337818
 20
-239.5361164484797
 30
0.0
 40
11.43
  1
（SUS304　ＨＬ）
 41
1.145833333333333
  7
ＭＳ ゴシック
100
AcDbText
  0
TEXT
  5
20D
330
1F
100
AcDbEntity
  8
D-5
  6
Continuous
 62
     7
370
     9
100
AcDbText
 10
18.47609236433705
 20
-432.8839854967272
 30
0.0
 40
11.43
  1
ストッパープレート
 41
1.148148148148148
  7
ＭＳ ゴシック
100
AcDbText
  0
TEXT
  5
20E
330
1F
100
AcDbEntity
  8
D-5
  6
Continuous
 62
     7
370
     9
100
AcDbText
 10
56.40933887378594
 20
-353.4311203085409
 30
0.0
 40
11.43
  1
把手本体
 41
1.125
  7
ＭＳ ゴシック
100
AcDbText
  0
TEXT
  5
20F
330
1F
100
AcDbEntity
  8
D-5
  6
Continuous
 62
     7
370
     9
100
AcDbText
 10
6.712027884818497
 20
-376.0414289814717
 30
0.0
 40
11.43
  1
（強化ナイロン樹脂）
 41
1.15
  7
ＭＳ ゴシック
100
AcDbText
  0
TEXT
  5
210
330
1F
100
AcDbEntity
  8
D-5
  6
Continuous
 62
     7
370
     9
100
AcDbText
 10
10.77203699060398
 20
-456.3269910327808
 30
0.0
 40
11.43
  1
（SUS304　ｔ＝2.5）
 41
1.149122807017544
  7
ＭＳ ゴシック
100
AcDbText
  0
LINE
  5
211
330
1F
100
AcDbEntity
  8
D-5
  6
Continuous
 62
     7
370
     9
100
AcDbLine
 10
203.2302444045609
 20
-413.9646829141153
 30
0.0
 11
197.0546413112332
 21
-424.8325492240287
 31
0.0
  0
LINE
  5
212
330
1F
100
AcDbEntity
  8
D-5
  6
Continuous
 62
     7
370
     9
100
AcDbLine
 10
203.2302444045609
 20
-413.9646829141153
 30
0.0
 11
194.4523166965796
 21
-422.8638561351879
 31
0.0
  0
LINE
  5
213
330
1F
100
AcDbEntity
  8
D-5
  6
Continuous
 62
     7
370
     9
100
AcDbLine
 10
10.03912848395274
 20
-440.1360836544552
 30
0.0
 11
183.432099350901
 21
-440.1360836544552
 31
0.0
  0
LINE
  5
214
330
1F
100
AcDbEntity
  8
D-5
  6
Continuous
 62
     7
370
     9
100
AcDbLine
 10
183.432099350901
 20
-440.1360836544552
 30
0.0
 11
203.2302444045609
 21
-413.9646829141153
 31
0.0
  0
LINE
  5
215
330
1F
100
AcDbEntity
  8
D-4
  6
Continuous
 62
     7
370
     9
100
AcDbLine
 10
168.2301289326436
 20
-188.2192085884712
 30
0.0
 11
398.2301454286318
 21
-188.2192085884712
 31
0.0
  0
LINE
  5
216
330
1F
100
AcDbEntity
  8
D-4
  6
Continuous
 62
     7
370
     9
100
AcDbLine
 10
490.755318306588
 20
-143.9650911898226
 30
0.0
 11
490.755318306588
 21
-56.46492622994089
 31
0.0
  0
LINE
  5
217
330
1F
100
AcDbEntity
  8
D-4
  6
Continuous
 62
     7
370
     9
100
AcDbLine
 10
405.7300464527029
 20
-143.9650911898226
 30
0.0
 11
492.2550510715794
 21
-143.9650911898226
 31
0.0
  0
LINE
  5
218
330
1F
100
AcDbEntity
  8
D-4
  6
Continuous
 62
     7
370
     9
100
AcDbLine
 10
405.7300464527029
 20
-56.46492622994089
 30
0.0
 11
492.2550510715794
 21
-56.46492622994089
 31
0.0
  0
LINE
  5
219
330
1F
100
AcDbEntity
  8
D-4
  6
Continuous
 62
     7
370
     9
100
AcDbLine
 10
490.755318306588
 20
-433.9644395982897
 30
0.0
 11
490.755318306588
 21
-233.9643983583192
 31
0.0
  0
LINE
  5
21A
330
1F
100
AcDbEntity
  8
D-4
  6
Continuous
 62
     7
370
     9
100
AcDbLine
 10
333.2301784206081
 20
-433.9644395982897
 30
0.0
 11
492.2550510715794
 21
-433.9644395982897
 31
0.0
  0
LINE
  5
21B
330
1F
100
AcDbEntity
  8
D-4
  6
Continuous
 62
     7
370
     9
100
AcDbLine
 10
410.7303103885135
 20
-308.9644602182749
 30
0.0
 11
492.2550510715794
 21
-308.9644602182749
 31
0.0
  0
LINE
  5
21C
330
1F
100
AcDbEntity
  8
D-4
  6
Continuous
 62
     7
370
     9
100
AcDbLine
 10
375.4800332559122
 20
-233.9643983583192
 30
0.0
 11
492.2550510715794
 21
-233.9643983583192
 31
0.0
  0
LINE
  5
21D
330
1F
100
AcDbEntity
  8
D-4
  6
Continuous
 62
     7
370
     9
100
AcDbLine
 10
410.7303103885135
 20
-340.214377738334
 30
0.0
 11
454.9505285314612
 21
-340.214377738334
 31
0.0
  0
LINE
  5
21E
330
1F
100
AcDbEntity
  8
D-4
  6
Continuous
 62
     7
370
     9
100
AcDbLine
 10
453.4505483266472
 20
-387.7189265070734
 30
0.0
 11
453.4505483266472
 21
-308.9644602182749
 31
0.0
  0
TEXT
  5
21F
330
1F
100
AcDbEntity
  8
D-4
  6
Continuous
 62
     2
370
     9
100
AcDbText
 10
272.6051990405933
 20
-180.3991920924831
 30
0.0
 40
15.24
  1
92
 41
1.0625
  7
ＭＳ ゴシック
100
AcDbText
  0
TEXT
  5
220
330
1F
100
AcDbEntity
  8
D-4
  6
Continuous
 62
     2
370
     9
100
AcDbText
 10
482.9348069309544
 20
-110.8400705698374
 30
0.0
 40
15.24
  1
35
 50
90.0
 41
1.0625
  7
ＭＳ ゴシック
100
AcDbText
  0
TEXT
  5
221
330
1F
100
AcDbEntity
  8
D-4
  6
Continuous
 62
     2
370
     9
100
AcDbText
 10
482.9348069309544
 20
-382.0894189783044
 30
0.0
 40
15.24
  1
50
 50
90.0
 41
1.0625
  7
ＭＳ ゴシック
100
AcDbText
  0
TEXT
  5
222
330
1F
100
AcDbEntity
  8
D-4
  6
Continuous
 62
     2
370
     9
100
AcDbText
 10
482.9348069309544
 20
-282.0895220782306
 30
0.0
 40
15.24
  1
30
 50
90.0
 41
1.0625
  7
ＭＳ ゴシック
100
AcDbText
  0
TEXT
  5
223
330
1F
100
AcDbEntity
  8
D-4
  6
Continuous
 62
     2
370
     9
100
AcDbText
 10
448.1306637985643
 20
-386.9696220191749
 30
0.0
 40
15.24
  1
12.5
 50
90.0
 41
1.09375
  7
ＭＳ ゴシック
100
AcDbText
  0
LWPOLYLINE
  5
224
330
1F
100
AcDbEntity
  8
D-4
  6
Continuous
 62
     7
370
     9
100
AcDbPolyline
 90
        4
 70
     1
 43
0.5
 10
168.4801289326436
 20
-188.2192085884712
 42
0.4142135623731
 10
168.2301289326436
 20
-187.9692085884712
 42
0.4142135623731
 10
167.9801289326437
 20
-188.2192085884712
 42
0.4142135623731
 10
168.2301289326436
 20
-188.4692085884712
 42
0.4142135623731
  0
LWPOLYLINE
  5
225
330
1F
100
AcDbEntity
  8
D-4
  6
Continuous
 62
     7
370
     9
100
AcDbPolyline
 90
        4
 70
     1
 43
0.5
 10
398.4801454286318
 20
-188.2192085884712
 42
0.4142135623731
 10
398.2301454286318
 20
-187.9692085884712
 42
0.4142135623731
 10
397.9801454286318
 20
-188.2192085884712
 42
0.4142135623731
 10
398.2301454286318
 20
-188.4692085884712
 42
0.4142135623731
  0
LWPOLYLINE
  5
226
330
1F
100
AcDbEntity
  8
D-4
  6
Continuous
 62
     7
370
     9
100
AcDbPolyline
 90
        4
 70
     1
 43
0.5
 10
491.005318306588
 20
-143.9650911898226
 42
0.4142135623731
 10
490.755318306588
 20
-143.7150911898226
 42
0.4142135623731
 10
490.505318306588
 20
-143.9650911898226
 42
0.4142135623731
 10
490.755318306588
 20
-144.2150911898226
 42
0.4142135623731
  0
LWPOLYLINE
  5
227
330
1F
100
AcDbEntity
  8
D-4
  6
Continuous
 62
     7
370
     9
100
AcDbPolyline
 90
        4
 70
     1
 43
0.5
 10
491.005318306588
 20
-56.46492622994089
 42
0.4142135623731
 10
490.755318306588
 20
-56.21492622994089
 42
0.4142135623731
 10
490.505318306588
 20
-56.46492622994089
 42
0.4142135623731
 10
490.755318306588
 20
-56.71492622994089
 42
0.4142135623731
  0
LWPOLYLINE
  5
228
330
1F
100
AcDbEntity
  8
D-4
  6
Continuous
 62
     7
370
     9
100
AcDbPolyline
 90
        4
 70
     1
 43
0.5
 10
491.005318306588
 20
-433.9644395982897
 42
0.4142135623731
 10
490.755318306588
 20
-433.7144395982897
 42
0.4142135623731
 10
490.505318306588
 20
-433.9644395982897
 42
0.4142135623731
 10
490.755318306588
 20
-434.2144395982897
 42
0.4142135623731
  0
LWPOLYLINE
  5
229
330
1F
100
AcDbEntity
  8
D-4
  6
Continuous
 62
     7
370
     9
100
AcDbPolyline
 90
        4
 70
     1
 43
0.5
 10
491.005318306588
 20
-308.9644602182749
 42
0.4142135623731
 10
490.755318306588
 20
-308.7144602182749
 42
0.4142135623731
 10
490.505318306588
 20
-308.9644602182749
 42
0.4142135623731
 10
490.755318306588
 20
-309.2144602182748
 42
0.4142135623731
  0
LWPOLYLINE
  5
22A
330
1F
100
AcDbEntity
  8
D-4
  6
Continuous
 62
     7
370
     9
100
AcDbPolyline
 90
        4
 70
     1
 43
0.5
 10
491.005318306588
 20
-233.9643983583192
 42
0.4142135623731
 10
490.755318306588
 20
-233.7143983583192
 42
0.4142135623731
 10
490.505318306588
 20
-233.9643983583192
 42
0.4142135623731
 10
490.755318306588
 20
-234.2143983583192
 42
0.4142135623731
  0
LWPOLYLINE
  5
22B
330
1F
100
AcDbEntity
  8
D-4
  6
Continuous
 62
     7
370
     9
100
AcDbPolyline
 90
        4
 70
     1
 43
0.5
 10
453.7005483266472
 20
-340.214377738334
 42
0.4142135623731
 10
453.4505483266472
 20
-339.964377738334
 42
0.4142135623731
 10
453.2005483266472
 20
-340.214377738334
 42
0.4142135623731
 10
453.4505483266472
 20
-340.464377738334
 42
0.4142135623731
  0
LWPOLYLINE
  5
22C
330
1F
100
AcDbEntity
  8
D-4
  6
Continuous
 62
     7
370
     9
100
AcDbPolyline
 90
        4
 70
     1
 43
0.5
 10
453.7005483266472
 20
-308.9644602182749
 42
0.4142135623731
 10
453.4505483266472
 20
-308.7144602182749
 42
0.4142135623731
 10
453.2005483266472
 20
-308.9644602182749
 42
0.4142135623731
 10
453.4505483266472
 20
-309.2144602182748
 42
0.4142135623731
  0
LINE
  5
22D
330
1F
100
AcDbEntity
  8
D-4
  6
Continuous
 62
     7
370
     9
100
AcDbLine
 10
398.2301454286318
 20
-151.4649922138935
 30
0.0
 11
398.2301454286318
 21
-189.7191887932854
 31
0.0
  0
LINE
  5
22E
330
1F
100
AcDbEntity
  8
D-4
  6
Continuous
 62
     7
370
     9
100
AcDbLine
 10
168.2301289326436
 20
-151.4649922138935
 30
0.0
 11
168.2301289326436
 21
-189.7191887932854
 31
0.0
  0
LINE
  5
22F
330
1F
100
AcDbEntity
  8
0-1
  6
Continuous
 62
     7
370
     9
100
AcDbLine
 10
-521.89190838788
 20
-8.735440931780367
 30
0.0
 11
-261.8919166358741
 21
-8.735440931780367
 31
0.0
  0
LWPOLYLINE
  5
230
330
1F
100
AcDbEntity
  8
0-1
  6
Continuous
 62
     7
370
     9
100
AcDbPolyline
 90
        4
 70
     1
 43
0.5
 10
-521.64190838788
 20
-8.735440931780367
 42
0.4142135623731
 10
-521.89190838788
 20
-8.485440931780367
 42
0.4142135623731
 10
-522.14190838788
 20
-8.735440931780367
 42
0.4142135623731
 10
-521.89190838788
 20
-8.985440931780367
 42
0.4142135623731
  0
LWPOLYLINE
  5
231
330
1F
100
AcDbEntity
  8
0-1
  6
Continuous
 62
     7
370
     9
100
AcDbPolyline
 90
        4
 70
     1
 43
0.5
 10
-261.6419166358741
 20
-8.735440931780367
 42
0.4142135623731
 10
-261.8919166358741
 20
-8.485440931780367
 42
0.4142135623731
 10
-262.1419166358741
 20
-8.735440931780367
 42
0.4142135623731
 10
-261.8919166358741
 20
-8.985440931780367
 42
0.4142135623731
  0
LINE
  5
232
330
1F
100
AcDbEntity
  8
0-1
  6
Continuous
 62
     7
370
     9
100
AcDbLine
 10
-521.89190838788
 20
-10.23544093178037
 30
0.0
 11
-521.89190838788
 21
25.95032150680964
 31
0.0
  0
LINE
  5
233
330
1F
100
AcDbEntity
  8
0-1
  6
Continuous
 62
     7
370
     9
100
AcDbLine
 10
-261.8919166358741
 20
-10.23544093178037
 30
0.0
 11
-261.8919166358741
 21
25.95032150680964
 31
0.0
  0
TEXT
  5
234
330
1F
100
AcDbEntity
  8
0-1
  6
Continuous
 62
     2
370
   211
100
AcDbText
 10
-408.1419125118771
 20
-3.415440931780367
 30
0.0
 40
15.24
  1
260
 41
1.083333333333333
  7
ＭＳ ゴシック
100
AcDbText
  0
TEXT
  5
235
330
1F
100
AcDbEntity
  8
D-5
  6
Continuous
 62
     7
370
     9
100
AcDbText
 10
149.4711689908768
 20
294.1970246516048
 30
0.0
 40
11.43
  1
底板　ｔ＝３．２
 41
1.145833333333333
  7
ＭＳ ゴシック
100
AcDbText
  0
TEXT
  5
236
330
1F
100
AcDbEntity
  8
D-5
  6
Continuous
 62
     7
370
     9
100
AcDbText
 10
149.4711689908768
 20
272.8738722356183
 30
0.0
 40
11.43
  1
溶融亜鉛めっき鋼板
 41
1.148148148148148
  7
ＭＳ ゴシック
100
AcDbText
  0
LINE
  5
237
330
1F
100
AcDbEntity
  8
D-5
  6
Continuous
 62
     7
370
     9
100
AcDbLine
 10
143.0409911399043
 20
289.0998799092062
 30
0.0
 11
307.4885187922297
 21
289.0998799092062
 31
0.0
  0
TEXT
  5
238
330
1F
100
AcDbEntity
  8
F-0
  6
Continuous
 62
     7
370
     9
100
AcDbText
 10
-425.5546144224328
 20
-663.3253032155876
 30
0.0
 40
11.43
  1
フロアーハッチ　フローリング床材用（フローリング厚12.5mm）屋内用　一般形
 41
1.097222222222222
  7
ＭＳ ゴシック
100
AcDbText
  0
TEXT
  5
239
330
1F
100
AcDbEntity
  8
F-0
  6
Continuous
 62
     7
370
     9
100
AcDbText
 10
-424.991710710575
 20
-682.440834123865
 30
0.0
 40
11.43
  1
アルミニウム＋スチール製　アルミニウム目地　ＭＯＦＭ－４５０－１２.５－Ｍ
 41
1.097260273972603
  7
ＭＳ ゴシック
100
AcDbText
  0
ENDSEC
  0
SECTION
  2
OBJECTS
  0
DICTIONARY
  5
C
330
0
100
AcDbDictionary
281
     1
  3
ACAD_GROUP
350
D
  3
ACAD_LAYOUT
350
1A
  3
ACAD_MLEADERSTYLE
350
23B
  3
ACAD_MLINESTYLE
350
17
  3
ACAD_PLOTSETTINGS
350
19
  3
ACAD_PLOTSTYLENAME
350
E
  3
ACAD_TABLESTYLE
350
23A
  3
ACAD_VISUALSTYLE
350
2A
  0
DICTIONARY
  5
D
102
{ACAD_REACTORS
330
C
102
}
330
C
100
AcDbDictionary
281
     1
  0
DICTIONARY
  5
1A
102
{ACAD_REACTORS
330
C
102
}
330
C
100
AcDbDictionary
281
     1
  3
Layout1
350
1E
  3
Layout2
350
26
  3
Model
350
22
  0
DICTIONARY
  5
23B
102
{ACAD_REACTORS
330
C
102
}
330
C
100
AcDbDictionary
281
     1
  0
DICTIONARY
  5
17
102
{ACAD_REACTORS
330
C
102
}
330
C
100
AcDbDictionary
281
     1
  3
Standard
350
18
  0
DICTIONARY
  5
19
102
{ACAD_REACTORS
330
C
102
}
330
C
100
AcDbDictionary
281
     1
  0
ACDBDICTIONARYWDFLT
  5
E
102
{ACAD_REACTORS
330
C
102
}
330
C
100
AcDbDictionary
281
     1
  3
Normal
350
F
100
AcDbDictionaryWithDefault
340
F
  0
DICTIONARY
  5
23A
102
{ACAD_REACTORS
330
C
102
}
330
C
100
AcDbDictionary
281
     1
  0
DICTIONARY
  5
2A
102
{ACAD_REACTORS
330
C
102
}
330
C
100
AcDbDictionary
281
     1
  3
2dWireframe
350
2F
  3
3D Hidden
350
31
  3
3dWireframe
350
30
  3
Basic
350
32
  3
Brighten
350
36
  3
ColorChange
350
3A
  3
Conceptual
350
34
  3
Dim
350
35
  3
Facepattern
350
39
  3
Flat
350
2B
  3
FlatWithEdges
350
2C
  3
Gouraud
350
2D
  3
GouraudWithEdges
350
2E
  3
Linepattern
350
38
  3
Realistic
350
33
  3
Thicken
350
37
  0
LAYOUT
  5
1E
102
{ACAD_REACTORS
330
1A
102
}
330
1A
100
AcDbPlotSettings
  1

  2
none_device
  4

  6

 40
0.0
 41
0.0
 42
0.0
 43
0.0
 44
0.0
 45
0.0
 46
0.0
 47
0.0
 48
0.0
 49
0.0
140
0.0
141
0.0
142
1.0
143
1.0
 70
   688
 72
     0
 73
     0
 74
     5
  7

 75
    16
 76
     0
 77
     5
 78
   300
147
1.0
148
0.0
149
0.0
100
AcDbLayout
  1
Layout1
 70
     1
 71
     1
 10
0.0
 20
0.0
 11
420.0
 21
297.0
 12
0.0
 22
0.0
 32
0.0
 14
1.000000000000000E+20
 24
1.000000000000000E+20
 34
1.000000000000000E+20
 15
-1.000000000000000E+20
 25
-1.000000000000000E+20
 35
-1.000000000000000E+20
146
0.0
 13
0.0
 23
0.0
 33
0.0
 16
1.0
 26
0.0
 36
0.0
 17
0.0
 27
1.0
 37
0.0
 76
     0
330
1B
  0
LAYOUT
  5
26
102
{ACAD_REACTORS
330
1A
102
}
330
1A
100
AcDbPlotSettings
  1

  2
none_device
  4

  6

 40
0.0
 41
0.0
 42
0.0
 43
0.0
 44
0.0
 45
0.0
 46
0.0
 47
0.0
 48
0.0
 49
0.0
140
0.0
141
0.0
142
1.0
143
1.0
 70
   688
 72
     0
 73
     0
 74
     5
  7

 75
    16
 76
     0
 77
     5
 78
   300
147
1.0
148
0.0
149
0.0
100
AcDbLayout
  1
Layout2
 70
     1
 71
     2
 10
0.0
 20
0.0
 11
0.0
 21
0.0
 12
0.0
 22
0.0
 32
0.0
 14
0.0
 24
0.0
 34
0.0
 15
0.0
 25
0.0
 35
0.0
146
0.0
 13
0.0
 23
0.0
 33
0.0
 16
1.0
 26
0.0
 36
0.0
 17
0.0
 27
1.0
 37
0.0
 76
     0
330
23
  0
LAYOUT
  5
22
102
{ACAD_REACTORS
330
1A
102
}
330
1A
100
AcDbPlotSettings
  1

  2
none_device
  4

  6

 40
0.0
 41
0.0
 42
0.0
 43
0.0
 44
0.0
 45
0.0
 46
0.0
 47
0.0
 48
0.0
 49
0.0
140
0.0
141
0.0
142
1.0
143
1.0
 70
  1712
 72
     0
 73
     0
 74
     0
  7

 75
     0
 76
     0
 77
     5
 78
   300
147
1.0
148
0.0
149
0.0
100
AcDbLayout
  1
Model
 70
     1
 71
     0
 10
-1050.0
 20
-742.5
 11
1050.0
 21
742.5
 12
0.0
 22
0.0
 32
0.0
 14
-1050.0
 24
-742.5
 34
0.0
 15
1050.0
 25
742.5
 35
0.0
146
0.0
 13
0.0
 23
0.0
 33
0.0
 16
1.0
 26
0.0
 36
0.0
 17
0.0
 27
1.0
 37
0.0
 76
     0
330
1F
331
29
  0
MLINESTYLE
  5
18
102
{ACAD_REACTORS
330
17
102
}
330
17
100
AcDbMlineStyle
  2
Standard
 70
     0
  3

 62
   256
 51
90.0
 52
90.0
 71
     2
 49
0.5
 62
   256
  6
BYLAYER
 49
-0.5
 62
   256
  6
BYLAYER
  0
ACDBPLACEHOLDER
  5
F
102
{ACAD_REACTORS
330
E
102
}
330
E
  0
VISUALSTYLE
  5
2F
102
{ACAD_REACTORS
330
2A
102
}
330
2A
100
AcDbVisualStyle
  2
2dWireframe
 70
     4
 71
     0
 72
     2
 73
     0
 90
        0
 40
-0.6
 41
-30.0
 62
     5
 63
     7
421
 16777215
 74
     1
 91
        4
 64
     7
 65
   257
 75
     1
175
     1
 42
1.0
 92
        0
 66
   257
 43
1.0
 76
     1
 77
     6
 78
     2
 67
     7
 79
     5
170
     0
171
     0
290
     0
174
     0
 93
        1
 44
0.0
173
     0
291
     0
 45
0.0
1001
ACAD
1000
AcDbSavedByObjectVersion
1070
     0
  0
VISUALSTYLE
  5
31
102
{ACAD_REACTORS
330
2A
102
}
330
2A
100
AcDbVisualStyle
  2
3D Hidden
 70
     6
 71
     1
 72
     2
 73
     2
 90
        0
 40
-0.6
 41
-30.0
 62
     5
 63
     7
421
 16777215
 74
     2
 91
        2
 64
     7
 65
   257
 75
     2
175
     1
 42
40.0
 92
        0
 66
   257
 43
1.0
 76
     1
 77
     6
 78
     2
 67
     7
 79
     3
170
     0
171
     0
290
     0
174
     0
 93
        1
 44
0.0
173
     0
291
     0
 45
0.0
1001
ACAD
1000
AcDbSavedByObjectVersion
1070
     0
  0
VISUALSTYLE
  5
30
102
{ACAD_REACTORS
330
2A
102
}
330
2A
100
AcDbVisualStyle
  2
3dWireframe
 70
     5
 71
     0
 72
     2
 73
     0
 90
        0
 40
-0.6
 41
-30.0
 62
     5
 63
     7
421
 16777215
 74
     1
 91
        4
 64
     7
 65
   257
 75
     1
175
     1
 42
1.0
 92
        0
 66
   257
 43
1.0
 76
     1
 77
     6
 78
     2
 67
     7
 79
     5
170
     0
171
     0
290
     0
174
     0
 93
        1
 44
0.0
173
     0
291
     0
 45
0.0
1001
ACAD
1000
AcDbSavedByObjectVersion
1070
     0
  0
VISUALSTYLE
  5
32
102
{ACAD_REACTORS
330
2A
102
}
330
2A
100
AcDbVisualStyle
  2
Basic
 70
     7
 71
     1
 72
     0
 73
     1
 90
        0
 40
-0.6
 41
-30.0
 62
     5
 63
     7
421
 16777215
 74
     0
 91
        4
 64
     7
 65
   257
 75
     1
175
     1
 42
1.0
 92
        8
 66
     7
 43
1.0
 76
     1
 77
     6
 78
     2
 67
     7
 79
     5
170
     0
171
     0
290
     0
174
     0
 93
        1
 44
0.0
173
     0
291
     1
 45
0.0
1001
ACAD
1000
AcDbSavedByObjectVersion
1070
     0
  0
VISUALSTYLE
  5
36
102
{ACAD_REACTORS
330
2A
102
}
330
2A
100
AcDbVisualStyle
  2
Brighten
 70
    12
 71
     2
 72
     2
 73
     0
 90
        0
 40
-0.6
 41
-30.0
 62
     5
 63
     7
421
 16777215
 74
     1
 91
        4
 64
     7
 65
   257
 75
     1
175
     1
 42
1.0
 92
        8
 66
     7
 43
1.0
 76
     1
 77
     6
 78
     2
 67
     7
 79
     5
170
     0
171
     0
290
     0
174
     0
 93
        1
 44
50.0
173
     0
291
     1
 45
0.0
1001
ACAD
1000
AcDbSavedByObjectVersion
1070
     0
  0
VISUALSTYLE
  5
3A
102
{ACAD_REACTORS
330
2A
102
}
330
2A
100
AcDbVisualStyle
  2
ColorChange
 70
    16
 71
     2
 72
     2
 73
     3
 90
        0
 40
-0.6
 41
-30.0
 62
     5
 63
     8
421
  8421504
 74
     1
 91
        4
 64
     7
 65
   257
 75
     1
175
     1
 42
1.0
 92
        8
 66
     8
424
  8421504
 43
1.0
 76
     1
 77
     6
 78
     2
 67
     7
 79
     5
170
     0
171
     0
290
     0
174
     0
 93
        1
 44
0.0
173
     0
291
     1
 45
0.0
1001
ACAD
1000
AcDbSavedByObjectVersion
1070
     0
  0
VISUALSTYLE
  5
34
102
{ACAD_REACTORS
330
2A
102
}
330
2A
100
AcDbVisualStyle
  2
Conceptual
 70
     9
 71
     3
 72
     2
 73
     0
 90
        0
 40
-0.6
 41
-30.0
 62
     5
 63
     7
421
 16777215
 74
     2
 91
        2
 64
     7
 65
   257
 75
     1
175
     1
 42
40.0
 92
        8
 66
     7
 43
1.0
 76
     1
 77
     6
 78
     2
 67
     7
 79
     3
170
     0
171
     0
290
     0
174
     0
 93
        1
 44
0.0
173
     0
291
     0
 45
0.0
1001
ACAD
1000
AcDbSavedByObjectVersion
1070
     0
  0
VISUALSTYLE
  5
35
102
{ACAD_REACTORS
330
2A
102
}
330
2A
100
AcDbVisualStyle
  2
Dim
 70
    11
 71
     2
 72
     2
 73
     0
 90
        0
 40
-0.6
 41
-30.0
 62
     5
 63
     7
421
 16777215
 74
     1
 91
        4
 64
     7
 65
   257
 75
     1
175
     1
 42
1.0
 92
        8
 66
     7
 43
1.0
 76
     1
 77
     6
 78
     2
 67
     7
 79
     5
170
     0
171
     0
290
     0
174
     0
 93
        1
 44
-50.0
173
     0
291
     1
 45
0.0
1001
ACAD
1000
AcDbSavedByObjectVersion
1070
     0
  0
VISUALSTYLE
  5
39
102
{ACAD_REACTORS
330
2A
102
}
330
2A
100
AcDbVisualStyle
  2
Facepattern
 70
    15
 71
     2
 72
     2
 73
     0
 90
        0
 40
-0.6
 41
-30.0
 62
     5
 63
     7
421
 16777215
 74
     1
 91
        4
 64
     7
 65
   257
 75
     1
175
     1
 42
1.0
 92
        8
 66
     7
 43
1.0
 76
     1
 77
     6
 78
     2
 67
     7
 79
     5
170
     0
171
     0
290
     0
174
     0
 93
        1
 44
0.0
173
     0
291
     1
 45
0.0
1001
ACAD
1000
AcDbSavedByObjectVersion
1070
     0
  0
VISUALSTYLE
  5
2B
102
{ACAD_REACTORS
330
2A
102
}
330
2A
100
AcDbVisualStyle
  2
Flat
 70
     0
 71
     2
 72
     1
 73
     1
 90
        2
 40
-0.6
 41
30.0
 62
     5
 63
     7
421
 16777215
 74
     0
 91
        4
 64
     7
 65
   257
 75
     1
175
     1
 42
1.0
 92
        8
 66
     7
 43
1.0
 76
     1
 77
     6
 78
     2
 67
     7
 79
     5
170
     0
171
     0
290
     0
174
     0
 93
       13
 44
0.0
173
     0
291
     1
 45
0.0
1001
ACAD
1000
AcDbSavedByObjectVersion
1070
     0
  0
VISUALSTYLE
  5
2C
102
{ACAD_REACTORS
330
2A
102
}
330
2A
100
AcDbVisualStyle
  2
FlatWithEdges
 70
     1
 71
     2
 72
     1
 73
     1
 90
        2
 40
-0.6
 41
30.0
 62
     5
 63
     7
421
 16777215
 74
     1
 91
        4
 64
     7
 65
   257
 75
     1
175
     1
 42
1.0
 92
        0
 66
   257
 43
1.0
 76
     1
 77
     6
 78
     2
 67
     7
 79
     5
170
     0
171
     0
290
     0
174
     0
 93
       13
 44
0.0
173
     0
291
     1
 45
0.0
1001
ACAD
1000
AcDbSavedByObjectVersion
1070
     0
  0
VISUALSTYLE
  5
2D
102
{ACAD_REACTORS
330
2A
102
}
330
2A
100
AcDbVisualStyle
  2
Gouraud
 70
     2
 71
     2
 72
     2
 73
     1
 90
        2
 40
-0.6
 41
30.0
 62
     5
 63
     7
421
 16777215
 74
     0
 91
        4
 64
     7
 65
   257
 75
     1
175
     1
 42
1.0
 92
        0
 66
     7
 43
1.0
 76
     1
 77
     6
 78
     2
 67
     7
 79
     5
170
     0
171
     0
290
     0
174
     0
 93
       13
 44
0.0
173
     0
291
     1
 45
0.0
1001
ACAD
1000
AcDbSavedByObjectVersion
1070
     0
  0
VISUALSTYLE
  5
2E
102
{ACAD_REACTORS
330
2A
102
}
330
2A
100
AcDbVisualStyle
  2
GouraudWithEdges
 70
     3
 71
     2
 72
     2
 73
     1
 90
        2
 40
-0.6
 41
30.0
 62
     5
 63
     7
421
 16777215
 74
     1
 91
        4
 64
     7
 65
   257
 75
     1
175
     1
 42
1.0
 92
        0
 66
   257
 43
1.0
 76
     1
 77
     6
 78
     2
 67
     7
 79
     5
170
     0
171
     0
290
     0
174
     0
 93
       13
 44
0.0
173
     0
291
     1
 45
0.0
1001
ACAD
1000
AcDbSavedByObjectVersion
1070
     0
  0
VISUALSTYLE
  5
38
102
{ACAD_REACTORS
330
2A
102
}
330
2A
100
AcDbVisualStyle
  2
Linepattern
 70
    14
 71
     2
 72
     2
 73
     0
 90
        0
 40
-0.6
 41
-30.0
 62
     5
 63
     7
421
 16777215
 74
     1
 91
        4
 64
     7
 65
   257
 75
     7
175
     7
 42
1.0
 92
        8
 66
     7
 43
1.0
 76
     1
 77
     6
 78
     2
 67
     7
 79
     5
170
     0
171
     0
290
     0
174
     0
 93
        1
 44
0.0
173
     0
291
     1
 45
0.0
1001
ACAD
1000
AcDbSavedByObjectVersion
1070
     0
  0
VISUALSTYLE
  5
33
102
{ACAD_REACTORS
330
2A
102
}
330
2A
100
AcDbVisualStyle
  2
Realistic
 70
     8
 71
     2
 72
     2
 73
     0
 90
        0
 40
-0.6
 41
-30.0
 62
     5
 63
     7
421
 16777215
 74
     1
 91
        0
 64
     7
 65
   257
 75
     1
175
     1
 42
1.0
 92
        8
 66
     8
424
  7895160
 43
1.0
 76
     1
 77
     6
 78
     2
 67
     7
 79
     5
170
     0
171
     0
290
     0
174
     0
 93
       13
 44
0.0
173
     0
291
     0
 45
0.0
1001
ACAD
1000
AcDbSavedByObjectVersion
1070
     0
  0
VISUALSTYLE
  5
37
102
{ACAD_REACTORS
330
2A
102
}
330
2A
100
AcDbVisualStyle
  2
Thicken
 70
    13
 71
     2
 72
     2
 73
     0
 90
        0
 40
-0.6
 41
-30.0
 62
     5
 63
     7
421
 16777215
 74
     1
 91
        4
 64
     7
 65
   257
 75
     1
175
     1
 42
1.0
 92
       12
 66
     7
 43
1.0
 76
     1
 77
     6
 78
     2
 67
     7
 79
     5
170
     0
171
     0
290
     0
174
     0
 93
        1
 44
0.0
173
     0
291
     1
 45
0.0
1001
ACAD
1000
AcDbSavedByObjectVersion
1070
     0
  0
ENDSEC
  0
EOF
