  0
SECTION
  2
HEADER
  9
$ACADVER
  1
AC1018
  9
$ACADMAINTVER
 70
     0
  9
$DWGCODEPAGE
  3
ANSI_932
  9
$INSBASE
 10
0.0
 20
0.0
 30
0.0
  9
$EXTMIN
 10
-1050.0
 20
-742.5
 30
0.0
  9
$EXTMAX
 10
1050.0
 20
742.5
 30
0.0
  9
$LIMMIN
 10
-1050.0
 20
-742.5
  9
$LIMMAX
 10
1050.0
 20
742.5
  9
$ORTHOMODE
 70
     0
  9
$REGENMODE
 70
     1
  9
$FILLMODE
 70
     1
  9
$QTEXTMODE
 70
     0
  9
$MIRRTEXT
 70
     1
  9
$LTSCALE
 40
5.0
  9
$ATTMODE
 70
     1
  9
$TEXTSIZE
 40
2.5
  9
$TRACEWID
 40
1.0
  9
$TEXTSTYLE
  7
Standard
  9
$CLAYER
  8
0
  9
$CELTYPE
  6
ByLayer
  9
$CECOLOR
 62
   256
  9
$CELTSCALE
 40
1.0
  9
$DISPSILH
 70
     0
  9
$DIMSCALE
 40
1.0
  9
$DIMASZ
 40
2.5
  9
$DIMEXO
 40
0.625
  9
$DIMDLI
 40
3.75
  9
$DIMRND
 40
0.0
  9
$DIMDLE
 40
0.0
  9
$DIMEXE
 40
1.25
  9
$DIMTP
 40
0.0
  9
$DIMTM
 40
0.0
  9
$DIMTXT
 40
2.5
  9
$DIMCEN
 40
2.5
  9
$DIMTSZ
 40
0.0
  9
$DIMTOL
 70
     0
  9
$DIMLIM
 70
     0
  9
$DIMTIH
 70
     0
  9
$DIMTOH
 70
     0
  9
$DIMSE1
 70
     0
  9
$DIMSE2
 70
     0
  9
$DIMTAD
 70
     1
  9
$DIMZIN
 70
     8
  9
$DIMBLK
  1

  9
$DIMASO
 70
     1
  9
$DIMSHO
 70
     1
  9
$DIMPOST
  1

  9
$DIMAPOST
  1

  9
$DIMALT
 70
     0
  9
$DIMALTD
 70
     3
  9
$DIMALTF
 40
0.03937007874016
  9
$DIMLFAC
 40
1.0
  9
$DIMTOFL
 70
     1
  9
$DIMTVP
 40
0.0
  9
$DIMTIX
 70
     0
  9
$DIMSOXD
 70
     0
  9
$DIMSAH
 70
     0
  9
$DIMBLK1
  1

  9
$DIMBLK2
  1

  9
$DIMSTYLE
  2
ISO-25
  9
$DIMCLRD
 70
     0
  9
$DIMCLRE
 70
     0
  9
$DIMCLRT
 70
     0
  9
$DIMTFAC
 40
1.0
  9
$DIMGAP
 40
0.625
  9
$DIMJUST
 70
     0
  9
$DIMSD1
 70
     0
  9
$DIMSD2
 70
     0
  9
$DIMTOLJ
 70
     0
  9
$DIMTZIN
 70
     8
  9
$DIMALTZ
 70
     0
  9
$DIMALTTZ
 70
     0
  9
$DIMUPT
 70
     0
  9
$DIMDEC
 70
     2
  9
$DIMTDEC
 70
     2
  9
$DIMALTU
 70
     2
  9
$DIMALTTD
 70
     3
  9
$DIMTXSTY
  7
Standard
  9
$DIMAUNIT
 70
     0
  9
$DIMADEC
 70
     0
  9
$DIMALTRND
 40
0.0
  9
$DIMAZIN
 70
     0
  9
$DIMDSEP
 70
    44
  9
$DIMATFIT
 70
     3
  9
$DIMFRAC
 70
     0
  9
$DIMLDRBLK
  1

  9
$DIMLUNIT
 70
     2
  9
$DIMLWD
 70
    -2
  9
$DIMLWE
 70
    -2
  9
$DIMTMOVE
 70
     0
  9
$LUNITS
 70
     2
  9
$LUPREC
 70
     4
  9
$SKETCHINC
 40
1.0
  9
$FILLETRAD
 40
10.0
  9
$AUNITS
 70
     0
  9
$AUPREC
 70
     0
  9
$MENU
  1
.
  9
$ELEVATION
 40
0.0
  9
$PELEVATION
 40
0.0
  9
$THICKNESS
 40
0.0
  9
$LIMCHECK
 70
     0
  9
$CHAMFERA
 40
10.0
  9
$CHAMFERB
 40
10.0
  9
$CHAMFERC
 40
20.0
  9
$CHAMFERD
 40
0.0
  9
$SKPOLY
 70
     0
  9
$TDCREATE
 40
2457904.375143808
  9
$TDUCREATE
 40
2457904.000143808
  9
$TDUPDATE
 40
2457904.375143819
  9
$TDUUPDATE
 40
2457904.000143819
  9
$TDINDWG
 40
0.0000000116
  9
$TDUSRTIMER
 40
0.0000000116
  9
$USRTIMER
 70
     1
  9
$ANGBASE
 50
0.0
  9
$ANGDIR
 70
     0
  9
$PDMODE
 70
     0
  9
$PDSIZE
 40
0.0
  9
$PLINEWID
 40
0.0
  9
$SPLFRAME
 70
     0
  9
$SPLINETYPE
 70
     6
  9
$SPLINESEGS
 70
     8
  9
$HANDSEED
  5
39C
  9
$SURFTAB1
 70
     6
  9
$SURFTAB2
 70
     6
  9
$SURFTYPE
 70
     6
  9
$SURFU
 70
     6
  9
$SURFV
 70
     6
  9
$UCSBASE
  2

  9
$UCSNAME
  2

  9
$UCSORG
 10
0.0
 20
0.0
 30
0.0
  9
$UCSXDIR
 10
1.0
 20
0.0
 30
0.0
  9
$UCSYDIR
 10
0.0
 20
1.0
 30
0.0
  9
$UCSORTHOREF
  2

  9
$UCSORTHOVIEW
 70
     0
  9
$UCSORGTOP
 10
0.0
 20
0.0
 30
0.0
  9
$UCSORGBOTTOM
 10
0.0
 20
0.0
 30
0.0
  9
$UCSORGLEFT
 10
0.0
 20
0.0
 30
0.0
  9
$UCSORGRIGHT
 10
0.0
 20
0.0
 30
0.0
  9
$UCSORGFRONT
 10
0.0
 20
0.0
 30
0.0
  9
$UCSORGBACK
 10
0.0
 20
0.0
 30
0.0
  9
$PUCSBASE
  2

  9
$PUCSNAME
  2

  9
$PUCSORG
 10
0.0
 20
0.0
 30
0.0
  9
$PUCSXDIR
 10
1.0
 20
0.0
 30
0.0
  9
$PUCSYDIR
 10
0.0
 20
1.0
 30
0.0
  9
$PUCSORTHOREF
  2

  9
$PUCSORTHOVIEW
 70
     0
  9
$PUCSORGTOP
 10
0.0
 20
0.0
 30
0.0
  9
$PUCSORGBOTTOM
 10
0.0
 20
0.0
 30
0.0
  9
$PUCSORGLEFT
 10
0.0
 20
0.0
 30
0.0
  9
$PUCSORGRIGHT
 10
0.0
 20
0.0
 30
0.0
  9
$PUCSORGFRONT
 10
0.0
 20
0.0
 30
0.0
  9
$PUCSORGBACK
 10
0.0
 20
0.0
 30
0.0
  9
$USERI1
 70
     0
  9
$USERI2
 70
     0
  9
$USERI3
 70
     0
  9
$USERI4
 70
     0
  9
$USERI5
 70
     0
  9
$USERR1
 40
0.0
  9
$USERR2
 40
0.0
  9
$USERR3
 40
0.0
  9
$USERR4
 40
0.0
  9
$USERR5
 40
0.0
  9
$WORLDVIEW
 70
     1
  9
$SHADEDGE
 70
     3
  9
$SHADEDIF
 70
    70
  9
$TILEMODE
 70
     1
  9
$MAXACTVP
 70
    64
  9
$PINSBASE
 10
0.0
 20
0.0
 30
0.0
  9
$PLIMCHECK
 70
     0
  9
$PEXTMIN
 10
1.000000000000000E+20
 20
1.000000000000000E+20
 30
1.000000000000000E+20
  9
$PEXTMAX
 10
-1.000000000000000E+20
 20
-1.000000000000000E+20
 30
-1.000000000000000E+20
  9
$PLIMMIN
 10
0.0
 20
0.0
  9
$PLIMMAX
 10
420.0
 20
297.0
  9
$UNITMODE
 70
     0
  9
$VISRETAIN
 70
     1
  9
$PLINEGEN
 70
     0
  9
$PSLTSCALE
 70
     1
  9
$TREEDEPTH
 70
  3020
  9
$CMLSTYLE
  2
Standard
  9
$CMLJUST
 70
     0
  9
$CMLSCALE
 40
20.0
  9
$PROXYGRAPHICS
 70
     1
  9
$MEASUREMENT
 70
     1
  9
$CELWEIGHT
370
    -1
  9
$ENDCAPS
280
     0
  9
$JOINSTYLE
280
     0
  9
$LWDISPLAY
290
     0
  9
$INSUNITS
 70
     4
  9
$HYPERLINKBASE
  1

  9
$STYLESHEET
  1

  9
$XEDIT
290
     1
  9
$CEPSNTYPE
380
     0
  9
$PSTYLEMODE
290
     1
  9
$FINGERPRINTGUID
  2
{464316C0-F8E4-465A-A2FC-5A1326BC42CC}
  9
$VERSIONGUID
  2
{FAEB1C32-E019-11D5-929B-00C0DF256EC4}
  9
$EXTNAMES
290
     1
  9
$PSVPSCALE
 40
0.0
  9
$OLESTARTUP
290
     0
  9
$SORTENTS
280
   127
  9
$INDEXCTL
280
     0
  9
$HIDETEXT
280
     1
  9
$XCLIPFRAME
290
     0
  9
$HALOGAP
280
     0
  9
$OBSCOLOR
 70
   257
  9
$OBSLTYPE
280
     0
  9
$INTERSECTIONDISPLAY
280
     0
  9
$INTERSECTIONCOLOR
 70
   257
  9
$DIMASSOC
280
     2
  9
$PROJECTNAME
  1

  0
ENDSEC
  0
SECTION
  2
CLASSES
  0
CLASS
  1
ACDBDICTIONARYWDFLT
  2
AcDbDictionaryWithDefault
  3
ObjectDBX Classes
 90
        0
 91
        4
280
     0
281
     0
  0
CLASS
  1
VISUALSTYLE
  2
AcDbVisualStyle
  3
ObjectDBX Classes
 90
     4095
 91
        4
280
     0
281
     0
  0
ENDSEC
  0
SECTION
  2
TABLES
  0
TABLE
  2
VPORT
  5
8
330
0
100
AcDbSymbolTable
 70
     1
  0
VPORT
  5
29
330
8
100
AcDbSymbolTableRecord
100
AcDbViewportTableRecord
  2
*Active
 70
     0
 10
0.0
 20
0.0
 11
1.0
 21
1.0
 12
0.0
 22
0.0
 13
0.0
 23
0.0
 14
10.0
 24
10.0
 15
10.0
 25
10.0
 16
0.0
 26
0.0
 36
1.0
 17
0.0
 27
0.0
 37
0.0
 40
1633.5
 41
1.414141414141414
 42
50.0
 43
0.0
 44
0.0
 50
0.0
 51
0.0
 71
     0
 72
 10000
 73
     1
 74
     3
 75
     0
 76
     0
 77
     0
 78
     0
281
     0
 65
     1
110
0.0
120
0.0
130
0.0
111
1.0
121
0.0
131
0.0
112
0.0
122
1.0
132
0.0
 79
     0
146
0.0
  0
ENDTAB
  0
TABLE
  2
LTYPE
  5
5
330
0
100
AcDbSymbolTable
 70
     5
  0
LTYPE
  5
14
330
5
100
AcDbSymbolTableRecord
100
AcDbLinetypeTableRecord
  2
ByBlock
 70
     0
  3

 72
    65
 73
     0
 40
0.0
  0
LTYPE
  5
15
330
5
100
AcDbSymbolTableRecord
100
AcDbLinetypeTableRecord
  2
ByLayer
 70
     0
  3

 72
    65
 73
     0
 40
0.0
  0
LTYPE
  5
16
330
5
100
AcDbSymbolTableRecord
100
AcDbLinetypeTableRecord
  2
Continuous
 70
     0
  3
Solid line
 72
    65
 73
     0
 40
0.0
  0
LTYPE
  5
3C
330
5
100
AcDbSymbolTableRecord
100
AcDbLinetypeTableRecord
  2
JWW_DASHED3
 70
     0
  3
---  ------  ------  ------  ---
 72
    65
 73
     2
 40
3.386666666666667
 49
2.54
 74
     0
 49
-0.8466666666666667
 74
     0
  0
LTYPE
  5
3D
330
5
100
AcDbSymbolTableRecord
100
AcDbLinetypeTableRecord
  2
JWW_CENTER1
 70
     0
  3
-----  --  ----------  --  -----
 72
    65
 73
     4
 40
6.773333333333333
 49
4.233333333333333
 74
     0
 49
-0.8466666666666667
 74
     0
 49
0.8466666666666667
 74
     0
 49
-0.8466666666666667
 74
     0
  0
LTYPE
  5
3E
330
5
100
AcDbSymbolTableRecord
100
AcDbLinetypeTableRecord
  2
JWW_CENTER2
 70
     0
  3
-------------  --  -------------
 72
    65
 73
     4
 40
13.54666666666667
 49
11.00666666666667
 74
     0
 49
-0.8466666666666667
 74
     0
 49
0.8466666666666667
 74
     0
 49
-0.8466666666666667
 74
     0
  0
LTYPE
  5
3F
330
5
100
AcDbSymbolTableRecord
100
AcDbLinetypeTableRecord
  2
JWW_PHANTOM1
 70
     0
  3
----  -  -  --------  -  -  ----
 72
    65
 73
     6
 40
6.773333333333333
 49
3.386666666666667
 74
     0
 49
-0.8466666666666667
 74
     0
 49
0.4233333333333333
 74
     0
 49
-0.8466666666666667
 74
     0
 49
0.4233333333333333
 74
     0
 49
-0.8466666666666667
 74
     0
  0
ENDTAB
  0
TABLE
  2
LAYER
  5
2
330
0
100
AcDbSymbolTable
 70
    11
  0
LAYER
  5
10
330
2
100
AcDbSymbolTableRecord
100
AcDbLayerTableRecord
  2
0
 70
     0
 62
     7
  6
Continuous
370
    -3
390
F
  0
LAYER
  5
40
330
2
100
AcDbSymbolTableRecord
100
AcDbLayerTableRecord
  2
0-1
 70
     0
 62
     7
  6
Continuous
370
    -3
390
F
  0
LAYER
  5
41
330
2
100
AcDbSymbolTableRecord
100
AcDbLayerTableRecord
  2
0-2
 70
     0
 62
     7
  6
Continuous
370
    -3
390
F
  0
LAYER
  5
42
330
2
100
AcDbSymbolTableRecord
100
AcDbLayerTableRecord
  2
0-4
 70
     0
 62
     7
  6
Continuous
370
    -3
390
F
  0
LAYER
  5
43
330
2
100
AcDbSymbolTableRecord
100
AcDbLayerTableRecord
  2
D-2
 70
     0
 62
     7
  6
Continuous
370
    -3
390
F
  0
LAYER
  5
44
330
2
100
AcDbSymbolTableRecord
100
AcDbLayerTableRecord
  2
D-1
 70
     0
 62
     7
  6
Continuous
370
    -3
390
F
  0
LAYER
  5
45
330
2
100
AcDbSymbolTableRecord
100
AcDbLayerTableRecord
  2
D-6
 70
     0
 62
     7
  6
Continuous
370
    -3
390
F
  0
LAYER
  5
46
330
2
100
AcDbSymbolTableRecord
100
AcDbLayerTableRecord
  2
D-4
 70
     0
 62
     7
  6
Continuous
370
    -3
390
F
  0
LAYER
  5
47
330
2
100
AcDbSymbolTableRecord
100
AcDbLayerTableRecord
  2
D-0
 70
     0
 62
     7
  6
Continuous
370
    -3
390
F
  0
LAYER
  5
48
330
2
100
AcDbSymbolTableRecord
100
AcDbLayerTableRecord
  2
D-5
 70
     0
 62
     7
  6
Continuous
370
    -3
390
F
  0
LAYER
  5
49
330
2
100
AcDbSymbolTableRecord
100
AcDbLayerTableRecord
  2
F-0
 70
     0
 62
     7
  6
Continuous
370
    -3
390
F
  0
ENDTAB
  0
TABLE
  2
STYLE
  5
3
330
0
100
AcDbSymbolTable
 70
     2
  0
STYLE
  5
11
330
3
100
AcDbSymbolTableRecord
100
AcDbTextStyleTableRecord
  2
Standard
 70
     0
 40
0.0
 41
1.0
 50
0.0
 71
     0
 42
2.5
  3
txt
  4

1001
ACAD
1000

1071
        0
  0
STYLE
  5
3B
330
3
100
AcDbSymbolTableRecord
100
AcDbTextStyleTableRecord
  2
ＭＳ ゴシック
 70
     0
 40
1.0
 41
1.0
 50
0.0
 71
     0
 42
10.0
  3

  4

1001
ACAD
1000
MS Gothic
1071
    32817
  0
ENDTAB
  0
TABLE
  2
VIEW
  5
6
330
0
100
AcDbSymbolTable
 70
     0
  0
ENDTAB
  0
TABLE
  2
UCS
  5
7
330
0
100
AcDbSymbolTable
 70
     0
  0
ENDTAB
  0
TABLE
  2
APPID
  5
9
330
0
100
AcDbSymbolTable
 70
     1
  0
APPID
  5
12
330
9
100
AcDbSymbolTableRecord
100
AcDbRegAppTableRecord
  2
ACAD
 70
     0
  0
ENDTAB
  0
TABLE
  2
DIMSTYLE
  5
A
330
0
100
AcDbSymbolTable
 70
     1
100
AcDbDimStyleTable
  0
DIMSTYLE
105
27
330
A
100
AcDbSymbolTableRecord
100
AcDbDimStyleTableRecord
  2
ISO-25
 70
     0
 41
2.5
 42
0.625
 43
3.75
 44
1.25
 73
     0
 74
     0
 77
     1
 78
     8
140
2.5
141
2.5
143
0.03937007874016
147
0.625
171
     3
172
     1
271
     2
272
     2
274
     3
278
    44
283
     0
284
     8
340
11
  0
ENDTAB
  0
TABLE
  2
BLOCK_RECORD
  5
1
330
0
100
AcDbSymbolTable
 70
     1
  0
BLOCK_RECORD
  5
1F
330
1
100
AcDbSymbolTableRecord
100
AcDbBlockTableRecord
  2
*Model_Space
340
22
  0
BLOCK_RECORD
  5
1B
330
1
100
AcDbSymbolTableRecord
100
AcDbBlockTableRecord
  2
*Paper_Space
340
1E
  0
BLOCK_RECORD
  5
23
330
1
100
AcDbSymbolTableRecord
100
AcDbBlockTableRecord
  2
*Paper_Space0
340
26
  0
ENDTAB
  0
ENDSEC
  0
SECTION
  2
BLOCKS
  0
BLOCK
  5
20
330
1F
100
AcDbEntity
  8
0
100
AcDbBlockBegin
  2
*Model_Space
 70
     0
 10
0.0
 20
0.0
 30
0.0
  3
*Model_Space
  1

  0
ENDBLK
  5
21
330
1F
100
AcDbEntity
  8
0
100
AcDbBlockEnd
  0
BLOCK
  5
1C
330
1B
100
AcDbEntity
 67
     1
  8
0
100
AcDbBlockBegin
  2
*Paper_Space
 70
     0
 10
0.0
 20
0.0
 30
0.0
  3
*Paper_Space
  1

  0
ENDBLK
  5
1D
330
1B
100
AcDbEntity
 67
     1
  8
0
100
AcDbBlockEnd
  0
BLOCK
  5
24
330
23
100
AcDbEntity
  8
0
100
AcDbBlockBegin
  2
*Paper_Space0
 70
     0
 10
0.0
 20
0.0
 30
0.0
  3
*Paper_Space0
  1

  0
ENDBLK
  5
25
330
23
100
AcDbEntity
  8
0
100
AcDbBlockEnd
  0
ENDSEC
  0
SECTION
  2
ENTITIES
  0
LINE
  5
4A
330
1F
100
AcDbEntity
  8
0-1
  6
JWW_DASHED3
 62
     2
370
     9
100
AcDbLine
 10
-207.4973441459036
 20
267.4432043127112
 30
0.0
 11
-190.997314453125
 21
267.4432043127112
 31
0.0
  0
LINE
  5
4B
330
1F
100
AcDbEntity
  8
0-1
  6
JWW_DASHED3
 62
     2
370
     9
100
AcDbLine
 10
-207.4973441459036
 20
269.7431574641048
 30
0.0
 11
-191.29733523807
 21
269.7431574641048
 31
0.0
  0
LINE
  5
4C
330
1F
100
AcDbEntity
  8
0-1
  6
Continuous
 62
     2
370
     9
100
AcDbLine
 10
-191.29733523807
 20
299.7432564400339
 30
0.0
 11
-178.2973418364654
 21
299.7432564400339
 31
0.0
  0
LINE
  5
4D
330
1F
100
AcDbEntity
  8
0-1
  6
Continuous
 62
     2
370
     9
100
AcDbLine
 10
-176.2972857501055
 20
297.7432003536741
 30
0.0
 11
-176.2972857501055
 21
276.7432300464527
 31
0.0
  0
LINE
  5
4E
330
1F
100
AcDbEntity
  8
0-1
  6
JWW_DASHED3
 62
     2
370
     9
100
AcDbLine
 10
-191.29733523807
 20
274.743173960093
 30
0.0
 11
-178.2973418364654
 21
274.743173960093
 31
0.0
  0
LINE
  5
4F
330
1F
100
AcDbEntity
  8
0-1
  6
JWW_DASHED3
 62
     2
370
     9
100
AcDbLine
 10
-207.4973441459036
 20
269.7431574641048
 30
0.0
 11
-207.4973441459036
 21
267.4432043127112
 31
0.0
  0
LINE
  5
50
330
1F
100
AcDbEntity
  8
0-1
  6
JWW_DASHED3
 62
     2
370
     9
100
AcDbLine
 10
-197.2973797772381
 20
277.1254008525128
 30
0.0
 11
-197.2973797772381
 21
259.7187516495989
 31
0.0
  0
LINE
  5
51
330
1F
100
AcDbEntity
  8
0-1
  6
JWW_DASHED3
 62
     2
370
     9
100
AcDbLine
 10
-473.2973253404771
 20
277.1254008525128
 30
0.0
 11
-473.2973253404771
 21
259.7187516495989
 31
0.0
  0
LINE
  5
52
330
1F
100
AcDbEntity
  8
0-1
  6
JWW_DASHED3
 62
     2
370
     9
100
AcDbLine
 10
-483.4972897091427
 20
269.7431574641048
 30
0.0
 11
-483.4972897091427
 21
267.4432043127112
 31
0.0
  0
LINE
  5
53
330
1F
100
AcDbEntity
  8
0-1
  6
JWW_DASHED3
 62
     2
370
     9
100
AcDbLine
 10
-467.2972808013091
 20
274.743173960093
 30
0.0
 11
-454.2972873997044
 21
274.743173960093
 31
0.0
  0
LINE
  5
54
330
1F
100
AcDbEntity
  8
0-1
  6
Continuous
 62
     2
370
     9
100
AcDbLine
 10
-452.2972313133446
 20
297.7432003536741
 30
0.0
 11
-452.2972313133446
 21
276.7432300464527
 31
0.0
  0
LINE
  5
55
330
1F
100
AcDbEntity
  8
0-1
  6
Continuous
 62
     2
370
     9
100
AcDbLine
 10
-467.2972808013091
 20
299.7432564400339
 30
0.0
 11
-454.2972873997044
 21
299.7432564400339
 31
0.0
  0
LINE
  5
56
330
1F
100
AcDbEntity
  8
0-1
  6
JWW_DASHED3
 62
     2
370
     9
100
AcDbLine
 10
-483.4972897091427
 20
269.7431574641048
 30
0.0
 11
-467.2972808013091
 21
269.7431574641048
 31
0.0
  0
LINE
  5
57
330
1F
100
AcDbEntity
  8
0-1
  6
JWW_DASHED3
 62
     2
370
     9
100
AcDbLine
 10
-483.4972897091427
 20
267.4432043127112
 30
0.0
 11
-466.9973837362753
 21
267.4432043127112
 31
0.0
  0
LINE
  5
58
330
1F
100
AcDbEntity
  8
0-2
  6
Continuous
 62
     3
370
     9
100
AcDbLine
 10
-560.297290698902
 20
-186.256763355152
 30
0.0
 11
-560.297290698902
 21
263.743236644848
 31
0.0
  0
LINE
  5
59
330
1F
100
AcDbEntity
  8
0-2
  6
Continuous
 62
     3
370
     9
100
AcDbLine
 10
-560.297290698902
 20
263.743236644848
 30
0.0
 11
-110.2973525588577
 21
263.743236644848
 31
0.0
  0
LINE
  5
5A
330
1F
100
AcDbEntity
  8
0-2
  6
Continuous
 62
     3
370
     9
100
AcDbLine
 10
-110.2973525588577
 20
263.743236644848
 30
0.0
 11
-110.2973525588577
 21
-186.256763355152
 31
0.0
  0
LINE
  5
5B
330
1F
100
AcDbEntity
  8
0-2
  6
Continuous
 62
     3
370
     9
100
AcDbLine
 10
-110.2973525588577
 20
-186.256763355152
 30
0.0
 11
-560.297290698902
 21
-186.256763355152
 31
0.0
  0
LINE
  5
5C
330
1F
100
AcDbEntity
  8
0-1
  6
Continuous
 62
     2
370
     9
100
AcDbLine
 10
-109.2972626557221
 20
-187.2567913983319
 30
0.0
 11
-561.2973187420819
 21
-187.2567913983319
 31
0.0
  0
LINE
  5
5D
330
1F
100
AcDbEntity
  8
0-1
  6
Continuous
 62
     2
370
     9
100
AcDbLine
 10
-109.2972626557221
 20
264.7432646880279
 30
0.0
 11
-109.2972626557221
 21
-187.2567913983319
 31
0.0
  0
LINE
  5
5E
330
1F
100
AcDbEntity
  8
0-1
  6
Continuous
 62
     2
370
     9
100
AcDbLine
 10
-561.2973187420819
 20
264.7432646880279
 30
0.0
 11
-109.2972626557221
 21
264.7432646880279
 31
0.0
  0
LINE
  5
5F
330
1F
100
AcDbEntity
  8
0-1
  6
Continuous
 62
     2
370
     9
100
AcDbLine
 10
-561.2973187420819
 20
-187.2567913983319
 30
0.0
 11
-561.2973187420819
 21
264.7432646880279
 31
0.0
  0
LINE
  5
60
330
1F
100
AcDbEntity
  8
0-1
  6
Continuous
 62
     2
370
     9
100
AcDbLine
 10
-573.2972841005067
 20
276.7432300464527
 30
0.0
 11
-97.29729729729726
 21
276.7432300464527
 31
0.0
  0
LINE
  5
61
330
1F
100
AcDbEntity
  8
0-1
  6
Continuous
 62
     2
370
     9
100
AcDbLine
 10
-573.2972841005067
 20
-199.2567567567567
 30
0.0
 11
-573.2972841005067
 21
276.7432300464527
 31
0.0
  0
LINE
  5
62
330
1F
100
AcDbEntity
  8
0-1
  6
Continuous
 62
     2
370
     9
100
AcDbLine
 10
-97.29729729729726
 20
-199.2567567567567
 30
0.0
 11
-573.2972841005067
 21
-199.2567567567567
 31
0.0
  0
LINE
  5
63
330
1F
100
AcDbEntity
  8
0-1
  6
Continuous
 62
     2
370
     9
100
AcDbLine
 10
-97.29729729729726
 20
276.7432300464527
 30
0.0
 11
-97.29729729729726
 21
-199.2567567567567
 31
0.0
  0
LINE
  5
64
330
1F
100
AcDbEntity
  8
0-1
  6
JWW_DASHED3
 62
     2
370
     9
100
AcDbLine
 10
-535.2972082189611
 20
238.7431541649072
 30
0.0
 11
-135.2973113188872
 21
238.7431541649072
 31
0.0
  0
LINE
  5
65
330
1F
100
AcDbEntity
  8
0-1
  6
JWW_DASHED3
 62
     2
370
     9
100
AcDbLine
 10
-535.2972082189611
 20
-161.2568045951224
 30
0.0
 11
-535.2972082189611
 21
238.7431541649072
 31
0.0
  0
LINE
  5
66
330
1F
100
AcDbEntity
  8
0-1
  6
JWW_DASHED3
 62
     2
370
     9
100
AcDbLine
 10
-135.2973113188872
 20
-161.2568045951224
 30
0.0
 11
-535.2972082189611
 21
-161.2568045951224
 31
0.0
  0
LINE
  5
67
330
1F
100
AcDbEntity
  8
0-1
  6
JWW_DASHED3
 62
     2
370
     9
100
AcDbLine
 10
-135.2973113188872
 20
238.7431541649072
 30
0.0
 11
-135.2973113188872
 21
-161.2568045951224
 31
0.0
  0
LINE
  5
68
330
1F
100
AcDbEntity
  8
0-2
  6
Continuous
 62
     3
370
     9
100
AcDbLine
 10
-555.2972742029137
 20
258.7432201488599
 30
0.0
 11
-115.2973071948901
 21
258.7432201488599
 31
0.0
  0
LINE
  5
69
330
1F
100
AcDbEntity
  8
0-2
  6
Continuous
 62
     3
370
     9
100
AcDbLine
 10
-555.2972742029137
 20
-181.2567468591638
 30
0.0
 11
-555.2972742029137
 21
258.7432201488599
 31
0.0
  0
LINE
  5
6A
330
1F
100
AcDbEntity
  8
0-2
  6
Continuous
 62
     3
370
     9
100
AcDbLine
 10
-115.2973071948901
 20
-181.2567468591638
 30
0.0
 11
-555.2972742029137
 21
-181.2567468591638
 31
0.0
  0
LINE
  5
6B
330
1F
100
AcDbEntity
  8
0-2
  6
Continuous
 62
     3
370
     9
100
AcDbLine
 10
-115.2973071948901
 20
258.7432201488599
 30
0.0
 11
-115.2973071948901
 21
-181.2567468591638
 31
0.0
  0
LINE
  5
6C
330
1F
100
AcDbEntity
  8
0-1
  6
JWW_DASHED3
 62
     2
370
     9
100
AcDbLine
 10
-467.2972808013091
 20
276.7432300464527
 30
0.0
 11
-467.2972808013091
 21
269.7431574641048
 31
0.0
  0
LINE
  5
6D
330
1F
100
AcDbEntity
  8
0-1
  6
JWW_DASHED3
 62
     2
370
     9
100
AcDbLine
 10
-464.9973276499155
 20
276.7432300464527
 30
0.0
 11
-464.9973276499155
 21
269.4431366791596
 31
0.0
  0
LINE
  5
6E
330
1F
100
AcDbEntity
  8
0-1
  6
Continuous
 62
     2
370
     9
100
AcDbLine
 10
-467.2972808013091
 20
299.7432564400339
 30
0.0
 11
-467.2972808013091
 21
276.7432300464527
 31
0.0
  0
LINE
  5
6F
330
1F
100
AcDbEntity
  8
0-1
  6
Continuous
 62
     2
370
     9
100
AcDbLine
 10
-464.9973276499155
 20
299.7432564400339
 30
0.0
 11
-464.9973276499155
 21
276.7432300464527
 31
0.0
  0
LINE
  5
70
330
1F
100
AcDbEntity
  8
0-1
  6
JWW_DASHED3
 62
     2
370
     9
100
AcDbLine
 10
-191.29733523807
 20
276.7432300464527
 30
0.0
 11
-191.29733523807
 21
269.7431574641048
 31
0.0
  0
LINE
  5
71
330
1F
100
AcDbEntity
  8
0-1
  6
JWW_DASHED3
 62
     2
370
     9
100
AcDbLine
 10
-188.9973202267208
 20
276.7432300464527
 30
0.0
 11
-188.9973202267208
 21
269.4431366791596
 31
0.0
  0
LINE
  5
72
330
1F
100
AcDbEntity
  8
0-1
  6
Continuous
 62
     2
370
     9
100
AcDbLine
 10
-191.29733523807
 20
299.7432564400339
 30
0.0
 11
-191.29733523807
 21
276.7432300464527
 31
0.0
  0
LINE
  5
73
330
1F
100
AcDbEntity
  8
0-1
  6
Continuous
 62
     2
370
     9
100
AcDbLine
 10
-188.9973202267208
 20
299.7432564400339
 30
0.0
 11
-188.9973202267208
 21
276.7432300464527
 31
0.0
  0
LINE
  5
74
330
1F
100
AcDbEntity
  8
0-1
  6
JWW_DASHED3
 62
     2
370
     9
100
AcDbLine
 10
-563.9972583667652
 20
166.5431831978464
 30
0.0
 11
-563.9972583667652
 21
183.043212890625
 31
0.0
  0
LINE
  5
75
330
1F
100
AcDbEntity
  8
0-1
  6
JWW_DASHED3
 62
     2
370
     9
100
AcDbLine
 10
-566.2972115181587
 20
166.5431831978464
 30
0.0
 11
-566.2972115181587
 21
182.74319210568
 31
0.0
  0
LINE
  5
76
330
1F
100
AcDbEntity
  8
0-1
  6
Continuous
 62
     2
370
     9
100
AcDbLine
 10
-596.2973104940878
 20
182.74319210568
 30
0.0
 11
-596.2973104940878
 21
195.7431855072846
 31
0.0
  0
LINE
  5
77
330
1F
100
AcDbEntity
  8
0-1
  6
Continuous
 62
     2
370
     9
100
AcDbLine
 10
-594.297254407728
 20
197.7432415936445
 30
0.0
 11
-573.2972841005067
 21
197.7432415936445
 31
0.0
  0
LINE
  5
78
330
1F
100
AcDbEntity
  8
0-1
  6
JWW_DASHED3
 62
     2
370
     9
100
AcDbLine
 10
-571.297228014147
 20
182.74319210568
 30
0.0
 11
-571.297228014147
 21
195.7431855072846
 31
0.0
  0
LINE
  5
79
330
1F
100
AcDbEntity
  8
0-1
  6
JWW_DASHED3
 62
     2
370
     9
100
AcDbLine
 10
-566.2972115181587
 20
166.5431831978464
 30
0.0
 11
-563.9972583667652
 21
166.5431831978464
 31
0.0
  0
LINE
  5
7A
330
1F
100
AcDbEntity
  8
0-1
  6
JWW_DASHED3
 62
     2
370
     9
100
AcDbLine
 10
-573.6794549065667
 20
176.7431475665119
 30
0.0
 11
-556.2729294235642
 21
176.7431475665119
 31
0.0
  0
LINE
  5
7B
330
1F
100
AcDbEntity
  8
0-1
  6
JWW_DASHED3
 62
     2
370
     9
100
AcDbLine
 10
-573.6794549065667
 20
-99.25679799672722
 30
0.0
 11
-556.2729294235642
 21
-99.25679799672722
 31
0.0
  0
LINE
  5
7C
330
1F
100
AcDbEntity
  8
0-1
  6
JWW_DASHED3
 62
     2
370
     9
100
AcDbLine
 10
-566.2972115181587
 20
-109.4567623653927
 30
0.0
 11
-563.9972583667652
 21
-109.4567623653927
 31
0.0
  0
LINE
  5
7D
330
1F
100
AcDbEntity
  8
0-1
  6
JWW_DASHED3
 62
     2
370
     9
100
AcDbLine
 10
-571.297228014147
 20
-93.25675345755911
 30
0.0
 11
-571.297228014147
 21
-80.25676005595429
 31
0.0
  0
LINE
  5
7E
330
1F
100
AcDbEntity
  8
0-1
  6
Continuous
 62
     2
370
     9
100
AcDbLine
 10
-594.297254407728
 20
-78.25670396959453
 30
0.0
 11
-573.2972841005067
 21
-78.25670396959453
 31
0.0
  0
LINE
  5
7F
330
1F
100
AcDbEntity
  8
0-1
  6
Continuous
 62
     2
370
     9
100
AcDbLine
 10
-596.2973104940878
 20
-93.25675345755911
 30
0.0
 11
-596.2973104940878
 21
-80.25676005595429
 31
0.0
  0
LINE
  5
80
330
1F
100
AcDbEntity
  8
0-1
  6
JWW_DASHED3
 62
     2
370
     9
100
AcDbLine
 10
-566.2972115181587
 20
-109.4567623653927
 30
0.0
 11
-566.2972115181587
 21
-93.25675345755911
 31
0.0
  0
LINE
  5
81
330
1F
100
AcDbEntity
  8
0-1
  6
JWW_DASHED3
 62
     2
370
     9
100
AcDbLine
 10
-563.9972583667652
 20
-109.4567623653927
 30
0.0
 11
-563.9972583667652
 21
-92.95685639252525
 31
0.0
  0
LINE
  5
82
330
1F
100
AcDbEntity
  8
0-1
  6
JWW_DASHED3
 62
     2
370
     9
100
AcDbLine
 10
-573.2972841005067
 20
-93.25675345755911
 30
0.0
 11
-566.2972115181587
 21
-93.25675345755911
 31
0.0
  0
LINE
  5
83
330
1F
100
AcDbEntity
  8
0-1
  6
JWW_DASHED3
 62
     2
370
     9
100
AcDbLine
 10
-573.2972841005067
 20
-90.95680030616549
 30
0.0
 11
-565.997314453125
 21
-90.95680030616549
 31
0.0
  0
LINE
  5
84
330
1F
100
AcDbEntity
  8
0-1
  6
Continuous
 62
     2
370
     9
100
AcDbLine
 10
-596.2973104940878
 20
-93.25675345755911
 30
0.0
 11
-573.2972841005067
 21
-93.25675345755911
 31
0.0
  0
LINE
  5
85
330
1F
100
AcDbEntity
  8
0-1
  6
Continuous
 62
     2
370
     9
100
AcDbLine
 10
-596.2973104940878
 20
-90.95680030616549
 30
0.0
 11
-573.2972841005067
 21
-90.95680030616549
 31
0.0
  0
LINE
  5
86
330
1F
100
AcDbEntity
  8
0-1
  6
JWW_DASHED3
 62
     2
370
     9
100
AcDbLine
 10
-573.2972841005067
 20
182.74319210568
 30
0.0
 11
-566.2972115181587
 21
182.74319210568
 31
0.0
  0
LINE
  5
87
330
1F
100
AcDbEntity
  8
0-1
  6
JWW_DASHED3
 62
     2
370
     9
100
AcDbLine
 10
-573.2972841005067
 20
185.0431452570736
 30
0.0
 11
-565.997314453125
 21
185.0431452570736
 31
0.0
  0
LINE
  5
88
330
1F
100
AcDbEntity
  8
0-1
  6
Continuous
 62
     2
370
     9
100
AcDbLine
 10
-596.2973104940878
 20
182.74319210568
 30
0.0
 11
-573.2972841005067
 21
182.74319210568
 31
0.0
  0
LINE
  5
89
330
1F
100
AcDbEntity
  8
0-1
  6
Continuous
 62
     2
370
     9
100
AcDbLine
 10
-596.2973104940878
 20
185.0431452570736
 30
0.0
 11
-573.2972841005067
 21
185.0431452570736
 31
0.0
  0
LINE
  5
8A
330
1F
100
AcDbEntity
  8
0-1
  6
JWW_DASHED3
 62
     2
370
     9
100
AcDbLine
 10
-463.0972372519003
 20
-189.9568547429265
 30
0.0
 11
-479.5972669446791
 21
-189.9568547429265
 31
0.0
  0
LINE
  5
8B
330
1F
100
AcDbEntity
  8
0-1
  6
JWW_DASHED3
 62
     2
370
     9
100
AcDbLine
 10
-463.0972372519003
 20
-192.25680789432
 30
0.0
 11
-479.2972461597339
 21
-192.25680789432
 31
0.0
  0
LINE
  5
8C
330
1F
100
AcDbEntity
  8
0-1
  6
Continuous
 62
     2
370
     9
100
AcDbLine
 10
-479.2972461597339
 20
-222.2568450102935
 30
0.0
 11
-492.2972395613386
 21
-222.2568450102935
 31
0.0
  0
LINE
  5
8D
330
1F
100
AcDbEntity
  8
0-1
  6
Continuous
 62
     2
370
     9
100
AcDbLine
 10
-494.2972956476984
 20
-220.2567889239336
 30
0.0
 11
-494.2972956476984
 21
-199.2568186167124
 31
0.0
  0
LINE
  5
8E
330
1F
100
AcDbEntity
  8
0-1
  6
JWW_DASHED3
 62
     2
370
     9
100
AcDbLine
 10
-479.2972461597339
 20
-197.2568243903083
 30
0.0
 11
-492.2972395613386
 21
-197.2568243903083
 31
0.0
  0
LINE
  5
8F
330
1F
100
AcDbEntity
  8
0-1
  6
JWW_DASHED3
 62
     2
370
     9
100
AcDbLine
 10
-463.0972372519003
 20
-192.25680789432
 30
0.0
 11
-463.0972372519003
 21
-189.9568547429265
 31
0.0
  0
LINE
  5
90
330
1F
100
AcDbEntity
  8
0-1
  6
JWW_DASHED3
 62
     2
370
     9
100
AcDbLine
 10
-473.2973253404771
 20
-199.6389894227723
 30
0.0
 11
-473.2973253404771
 21
-182.2324020798142
 31
0.0
  0
LINE
  5
91
330
1F
100
AcDbEntity
  8
0-1
  6
JWW_DASHED3
 62
     2
370
     9
100
AcDbLine
 10
-197.2973797772381
 20
-199.6389894227723
 30
0.0
 11
-197.2973797772381
 21
-182.2324020798142
 31
0.0
  0
LINE
  5
92
330
1F
100
AcDbEntity
  8
0-1
  6
JWW_DASHED3
 62
     2
370
     9
100
AcDbLine
 10
-187.0972916886613
 20
-192.25680789432
 30
0.0
 11
-187.0972916886613
 21
-189.9568547429265
 31
0.0
  0
LINE
  5
93
330
1F
100
AcDbEntity
  8
0-1
  6
JWW_DASHED3
 62
     2
370
     9
100
AcDbLine
 10
-203.2973005964949
 20
-197.2568243903083
 30
0.0
 11
-216.2972939980996
 21
-197.2568243903083
 31
0.0
  0
LINE
  5
94
330
1F
100
AcDbEntity
  8
0-1
  6
Continuous
 62
     2
370
     9
100
AcDbLine
 10
-218.2973500844594
 20
-220.2567889239336
 30
0.0
 11
-218.2973500844594
 21
-199.2568186167124
 31
0.0
  0
LINE
  5
95
330
1F
100
AcDbEntity
  8
0-1
  6
Continuous
 62
     2
370
     9
100
AcDbLine
 10
-203.2973005964949
 20
-222.2568450102935
 30
0.0
 11
-216.2972939980996
 21
-222.2568450102935
 31
0.0
  0
LINE
  5
96
330
1F
100
AcDbEntity
  8
0-1
  6
JWW_DASHED3
 62
     2
370
     9
100
AcDbLine
 10
-187.0972916886613
 20
-192.25680789432
 30
0.0
 11
-203.2973005964949
 21
-192.25680789432
 31
0.0
  0
LINE
  5
97
330
1F
100
AcDbEntity
  8
0-1
  6
JWW_DASHED3
 62
     2
370
     9
100
AcDbLine
 10
-187.0972916886613
 20
-189.9568547429265
 30
0.0
 11
-203.5971976615286
 21
-189.9568547429265
 31
0.0
  0
LINE
  5
98
330
1F
100
AcDbEntity
  8
0-1
  6
JWW_DASHED3
 62
     2
370
     9
100
AcDbLine
 10
-203.2973005964949
 20
-199.2568186167124
 30
0.0
 11
-203.2973005964949
 21
-192.25680789432
 31
0.0
  0
LINE
  5
99
330
1F
100
AcDbEntity
  8
0-1
  6
JWW_DASHED3
 62
     2
370
     9
100
AcDbLine
 10
-205.5972537478884
 20
-199.2568186167124
 30
0.0
 11
-205.5972537478884
 21
-191.956787109375
 31
0.0
  0
LINE
  5
9A
330
1F
100
AcDbEntity
  8
0-1
  6
Continuous
 62
     2
370
     9
100
AcDbLine
 10
-203.2973005964949
 20
-222.2568450102935
 30
0.0
 11
-203.2973005964949
 21
-199.2568186167124
 31
0.0
  0
LINE
  5
9B
330
1F
100
AcDbEntity
  8
0-1
  6
Continuous
 62
     2
370
     9
100
AcDbLine
 10
-205.5972537478884
 20
-222.2568450102935
 30
0.0
 11
-205.5972537478884
 21
-199.2568186167124
 31
0.0
  0
LINE
  5
9C
330
1F
100
AcDbEntity
  8
0-1
  6
JWW_DASHED3
 62
     2
370
     9
100
AcDbLine
 10
-479.2972461597339
 20
-199.2568186167124
 30
0.0
 11
-479.2972461597339
 21
-192.25680789432
 31
0.0
  0
LINE
  5
9D
330
1F
100
AcDbEntity
  8
0-1
  6
JWW_DASHED3
 62
     2
370
     9
100
AcDbLine
 10
-481.5973230310388
 20
-199.2568186167124
 30
0.0
 11
-481.5973230310388
 21
-191.956787109375
 31
0.0
  0
LINE
  5
9E
330
1F
100
AcDbEntity
  8
0-1
  6
Continuous
 62
     2
370
     9
100
AcDbLine
 10
-479.2972461597339
 20
-222.2568450102935
 30
0.0
 11
-479.2972461597339
 21
-199.2568186167124
 31
0.0
  0
LINE
  5
9F
330
1F
100
AcDbEntity
  8
0-1
  6
Continuous
 62
     2
370
     9
100
AcDbLine
 10
-481.5973230310388
 20
-222.2568450102935
 30
0.0
 11
-481.5973230310388
 21
-199.2568186167124
 31
0.0
  0
LINE
  5
A0
330
1F
100
AcDbEntity
  8
0-1
  6
JWW_DASHED3
 62
     2
370
     9
100
AcDbLine
 10
-106.5972611710832
 20
-89.05670990815025
 30
0.0
 11
-106.5972611710832
 21
-105.556739600929
 31
0.0
  0
LINE
  5
A1
330
1F
100
AcDbEntity
  8
0-1
  6
JWW_DASHED3
 62
     2
370
     9
100
AcDbLine
 10
-104.2973080196896
 20
-89.05670990815025
 30
0.0
 11
-104.2973080196896
 21
-105.2567188159839
 31
0.0
  0
LINE
  5
A2
330
1F
100
AcDbEntity
  8
0-1
  6
Continuous
 62
     2
370
     9
100
AcDbLine
 10
-74.29727090371614
 20
-105.2567188159839
 30
0.0
 11
-74.29727090371614
 21
-118.2567122175887
 31
0.0
  0
LINE
  5
A3
330
1F
100
AcDbEntity
  8
0-1
  6
Continuous
 62
     2
370
     9
100
AcDbLine
 10
-76.2973269900759
 20
-120.2567683039484
 30
0.0
 11
-97.29729729729726
 21
-120.2567683039484
 31
0.0
  0
LINE
  5
A4
330
1F
100
AcDbEntity
  8
0-1
  6
JWW_DASHED3
 62
     2
370
     9
100
AcDbLine
 10
-99.29729152370143
 20
-105.2567188159839
 30
0.0
 11
-99.29729152370143
 21
-118.2567122175887
 31
0.0
  0
LINE
  5
A5
330
1F
100
AcDbEntity
  8
0-1
  6
JWW_DASHED3
 62
     2
370
     9
100
AcDbLine
 10
-104.2973080196896
 20
-89.05670990815025
 30
0.0
 11
-106.5972611710832
 21
-89.05670990815025
 31
0.0
  0
LINE
  5
A6
330
1F
100
AcDbEntity
  8
0-1
  6
JWW_DASHED3
 62
     2
370
     9
100
AcDbLine
 10
-96.91512649123723
 20
-99.25679799672722
 30
0.0
 11
-114.3217138341954
 21
-99.25679799672722
 31
0.0
  0
LINE
  5
A7
330
1F
100
AcDbEntity
  8
0-1
  6
JWW_DASHED3
 62
     2
370
     9
100
AcDbLine
 10
-96.91512649123723
 20
176.7431475665119
 30
0.0
 11
-114.3217138341954
 21
176.7431475665119
 31
0.0
  0
LINE
  5
A8
330
1F
100
AcDbEntity
  8
0-1
  6
JWW_DASHED3
 62
     2
370
     9
100
AcDbLine
 10
-104.2973080196896
 20
186.9432356550887
 30
0.0
 11
-106.5972611710832
 21
186.9432356550887
 31
0.0
  0
LINE
  5
A9
330
1F
100
AcDbEntity
  8
0-1
  6
JWW_DASHED3
 62
     2
370
     9
100
AcDbLine
 10
-99.29729152370143
 20
170.7432267472551
 30
0.0
 11
-99.29729152370143
 21
157.7432333456504
 31
0.0
  0
LINE
  5
AA
330
1F
100
AcDbEntity
  8
0-1
  6
Continuous
 62
     2
370
     9
100
AcDbLine
 10
-76.2973269900759
 20
155.7431772592906
 30
0.0
 11
-97.29729729729726
 21
155.7431772592906
 31
0.0
  0
LINE
  5
AB
330
1F
100
AcDbEntity
  8
0-1
  6
Continuous
 62
     2
370
     9
100
AcDbLine
 10
-74.29727090371614
 20
170.7432267472551
 30
0.0
 11
-74.29727090371614
 21
157.7432333456504
 31
0.0
  0
LINE
  5
AC
330
1F
100
AcDbEntity
  8
0-1
  6
JWW_DASHED3
 62
     2
370
     9
100
AcDbLine
 10
-104.2973080196896
 20
186.9432356550887
 30
0.0
 11
-104.2973080196896
 21
170.7432267472551
 31
0.0
  0
LINE
  5
AD
330
1F
100
AcDbEntity
  8
0-1
  6
JWW_DASHED3
 62
     2
370
     9
100
AcDbLine
 10
-106.5972611710832
 20
186.9432356550887
 30
0.0
 11
-106.5972611710832
 21
170.44320596231
 31
0.0
  0
LINE
  5
AE
330
1F
100
AcDbEntity
  8
0-1
  6
JWW_DASHED3
 62
     2
370
     9
100
AcDbLine
 10
-97.29729729729726
 20
170.7432267472551
 30
0.0
 11
-104.2973080196896
 21
170.7432267472551
 31
0.0
  0
LINE
  5
AF
330
1F
100
AcDbEntity
  8
0-1
  6
JWW_DASHED3
 62
     2
370
     9
100
AcDbLine
 10
-97.29729729729726
 20
168.4431498759503
 30
0.0
 11
-104.5973288046346
 21
168.4431498759503
 31
0.0
  0
LINE
  5
B0
330
1F
100
AcDbEntity
  8
0-1
  6
Continuous
 62
     2
370
     9
100
AcDbLine
 10
-74.29727090371614
 20
170.7432267472551
 30
0.0
 11
-97.29729729729726
 21
170.7432267472551
 31
0.0
  0
LINE
  5
B1
330
1F
100
AcDbEntity
  8
0-1
  6
Continuous
 62
     2
370
     9
100
AcDbLine
 10
-74.29727090371614
 20
168.4431498759503
 30
0.0
 11
-97.29729729729726
 21
168.4431498759503
 31
0.0
  0
LINE
  5
B2
330
1F
100
AcDbEntity
  8
0-1
  6
JWW_DASHED3
 62
     2
370
     9
100
AcDbLine
 10
-97.29729729729726
 20
-105.2567188159839
 30
0.0
 11
-104.2973080196896
 21
-105.2567188159839
 31
0.0
  0
LINE
  5
B3
330
1F
100
AcDbEntity
  8
0-1
  6
JWW_DASHED3
 62
     2
370
     9
100
AcDbLine
 10
-97.29729729729726
 20
-107.5567956872888
 30
0.0
 11
-104.5973288046346
 21
-107.5567956872888
 31
0.0
  0
LINE
  5
B4
330
1F
100
AcDbEntity
  8
0-1
  6
Continuous
 62
     2
370
     9
100
AcDbLine
 10
-74.29727090371614
 20
-105.2567188159839
 30
0.0
 11
-97.29729729729726
 21
-105.2567188159839
 31
0.0
  0
LINE
  5
B5
330
1F
100
AcDbEntity
  8
0-1
  6
Continuous
 62
     2
370
     9
100
AcDbLine
 10
-74.29727090371614
 20
-107.5567956872888
 30
0.0
 11
-97.29729729729726
 21
-107.5567956872888
 31
0.0
  0
LINE
  5
B6
330
1F
100
AcDbEntity
  8
0-2
  6
Continuous
 62
     3
370
     9
100
AcDbLine
 10
-449.7972230653505
 20
-7.256816142314193
 30
0.0
 11
-480.7972263645481
 21
-7.256816142314193
 31
0.0
  0
LINE
  5
B7
330
1F
100
AcDbEntity
  8
0-2
  6
Continuous
 62
     3
370
     9
100
AcDbLine
 10
-447.797290698902
 20
82.7432333456504
 30
0.0
 11
-447.797290698902
 21
-5.256883775865617
 31
0.0
  0
LINE
  5
B8
330
1F
100
AcDbEntity
  8
0-2
  6
Continuous
 62
     3
370
     9
100
AcDbLine
 10
-482.7972824509079
 20
82.7432333456504
 30
0.0
 11
-482.7972824509079
 21
-5.256883775865617
 31
0.0
  0
LINE
  5
B9
330
1F
100
AcDbEntity
  8
0-2
  6
Continuous
 62
     3
370
     9
100
AcDbLine
 10
-480.7972263645481
 20
84.74328943201016
 30
0.0
 11
-449.7972230653505
 21
84.74328943201016
 31
0.0
  0
LINE
  5
BA
330
1F
100
AcDbEntity
  8
0-2
  6
Continuous
 62
     3
370
     9
100
AcDbLine
 10
-471.3973586623733
 20
69.14319837415547
 30
0.0
 11
-471.3973586623733
 21
8.343151195629304
 31
0.0
  0
LINE
  5
BB
330
1F
100
AcDbEntity
  8
0-2
  6
Continuous
 62
     3
370
     9
100
AcDbLine
 10
-461.3972019504856
 20
71.34318583720443
 30
0.0
 11
-469.1973711993243
 21
71.34318583720443
 31
0.0
  0
LINE
  5
BC
330
1F
100
AcDbEntity
  8
0-2
  6
Continuous
 62
     3
370
     9
100
AcDbLine
 10
-461.3972019504856
 20
6.143163732580348
 30
0.0
 11
-469.1973711993243
 21
6.143163732580348
 31
0.0
  0
LINE
  5
BD
330
1F
100
AcDbEntity
  8
0-2
  6
Continuous
 62
     3
370
     9
100
AcDbLine
 10
-459.1973382073479
 20
8.343151195629304
 30
0.0
 11
-459.1973382073479
 21
69.14319837415547
 31
0.0
  0
LINE
  5
BE
330
1F
100
AcDbEntity
  8
0-2
  6
JWW_CENTER1
 62
     3
370
     9
100
AcDbLine
 10
-487.110034839527
 20
38.74323664484805
 30
0.0
 11
-444.451161977407
 21
38.74323664484805
 31
0.0
  0
LINE
  5
BF
330
1F
100
AcDbEntity
  8
0-2
  6
JWW_CENTER1
 62
     3
370
     9
100
AcDbLine
 10
-465.2972247149493
 20
-12.53619219805742
 30
0.0
 11
-465.2972247149493
 21
88.67424217430326
 31
0.0
  0
LINE
  5
C0
330
1F
100
AcDbEntity
  8
0-2
  6
Continuous
 62
     3
370
     9
100
AcDbLine
 10
-189.7972313133445
 20
-7.256816142314193
 30
0.0
 11
-220.7972346125422
 21
-7.256816142314193
 31
0.0
  0
LINE
  5
C1
330
1F
100
AcDbEntity
  8
0-2
  6
Continuous
 62
     3
370
     9
100
AcDbLine
 10
-187.7972370869404
 20
82.7432333456504
 30
0.0
 11
-187.7972370869404
 21
-5.256883775865617
 31
0.0
  0
LINE
  5
C2
330
1F
100
AcDbEntity
  8
0-2
  6
Continuous
 62
     3
370
     9
100
AcDbLine
 10
-222.7972906989019
 20
82.7432333456504
 30
0.0
 11
-222.7972906989019
 21
-5.256883775865617
 31
0.0
  0
LINE
  5
C3
330
1F
100
AcDbEntity
  8
0-2
  6
Continuous
 62
     3
370
     9
100
AcDbLine
 10
-220.7972346125422
 20
84.74328943201016
 30
0.0
 11
-189.7972313133445
 21
84.74328943201016
 31
0.0
  0
LINE
  5
C4
330
1F
100
AcDbEntity
  8
0-2
  6
Continuous
 62
     3
370
     9
100
AcDbLine
 10
-211.3973669103673
 20
69.14319837415547
 30
0.0
 11
-211.3973669103673
 21
8.343151195629304
 31
0.0
  0
LINE
  5
C5
330
1F
100
AcDbEntity
  8
0-2
  6
Continuous
 62
     3
370
     9
100
AcDbLine
 10
-201.3972101984797
 20
71.34318583720443
 30
0.0
 11
-209.197255727407
 21
71.34318583720443
 31
0.0
  0
LINE
  5
C6
330
1F
100
AcDbEntity
  8
0-2
  6
Continuous
 62
     3
370
     9
100
AcDbLine
 10
-201.3972101984797
 20
6.143163732580348
 30
0.0
 11
-209.197255727407
 21
6.143163732580348
 31
0.0
  0
LINE
  5
C7
330
1F
100
AcDbEntity
  8
0-2
  6
Continuous
 62
     3
370
     9
100
AcDbLine
 10
-199.1974701752534
 20
8.343151195629304
 30
0.0
 11
-199.1974701752534
 21
69.14319837415547
 31
0.0
  0
LINE
  5
C8
330
1F
100
AcDbEntity
  8
0-2
  6
JWW_CENTER1
 62
     3
370
     9
100
AcDbLine
 10
-227.1101668074324
 20
38.74323664484805
 30
0.0
 11
-184.4511702254012
 21
38.74323664484805
 31
0.0
  0
LINE
  5
C9
330
1F
100
AcDbEntity
  8
0-2
  6
JWW_CENTER1
 62
     3
370
     9
100
AcDbLine
 10
-205.2973566828547
 20
-12.53619219805742
 30
0.0
 11
-205.2973566828547
 21
88.67424217430326
 31
0.0
  0
LINE
  5
CA
330
1F
100
AcDbEntity
  8
0-4
  6
Continuous
 62
     7
370
     9
100
AcDbLine
 10
-446.0559329471072
 20
-273.5548936998521
 30
0.0
 11
-224.5386484506967
 21
-273.5548936998521
 31
0.0
  0
LINE
  5
CB
330
1F
100
AcDbEntity
  8
0-4
  6
Continuous
 62
     7
370
     9
100
AcDbLine
 10
-535.2972082189611
 20
341.9907605970229
 30
0.0
 11
-135.2973113188872
 21
341.9907605970229
 31
0.0
  0
LINE
  5
CC
330
1F
100
AcDbEntity
  8
0-4
  6
Continuous
 62
     7
370
     9
100
AcDbLine
 10
-535.2972082189611
 20
248.8570713352513
 30
0.0
 11
-535.2972082189611
 21
343.4907408018371
 31
0.0
  0
LINE
  5
CD
330
1F
100
AcDbEntity
  8
0-4
  6
Continuous
 62
     7
370
     9
100
AcDbLine
 10
-135.2973113188872
 20
248.8570713352513
 30
0.0
 11
-135.2973113188872
 21
343.4907408018371
 31
0.0
  0
LINE
  5
CE
330
1F
100
AcDbEntity
  8
0-4
  6
Continuous
 62
     7
370
     9
100
AcDbLine
 10
-560.297290698902
 20
381.9051546663852
 30
0.0
 11
-110.2973525588577
 21
381.9051546663852
 31
0.0
  0
LINE
  5
CF
330
1F
100
AcDbEntity
  8
0-4
  6
Continuous
 62
     7
370
     9
100
AcDbLine
 10
-560.297290698902
 20
272.8057201488599
 30
0.0
 11
-560.297290698902
 21
383.4051348711994
 31
0.0
  0
LINE
  5
D0
330
1F
100
AcDbEntity
  8
0-4
  6
Continuous
 62
     7
370
     9
100
AcDbLine
 10
-110.2973525588577
 20
272.8057201488599
 30
0.0
 11
-110.2973525588577
 21
383.4051348711994
 31
0.0
  0
LINE
  5
D1
330
1F
100
AcDbEntity
  8
0-4
  6
Continuous
 62
     7
370
     9
100
AcDbLine
 10
-573.2972841005067
 20
413.2498416385135
 30
0.0
 11
-97.29729729729726
 21
413.2498416385135
 31
0.0
  0
LINE
  5
D2
330
1F
100
AcDbEntity
  8
0-4
  6
Continuous
 62
     7
370
     9
100
AcDbLine
 10
-573.2972841005067
 20
284.2714010702598
 30
0.0
 11
-573.2972841005067
 21
414.7498218433277
 31
0.0
  0
LINE
  5
D3
330
1F
100
AcDbEntity
  8
0-4
  6
Continuous
 62
     7
370
     9
100
AcDbLine
 10
-97.29729729729726
 20
284.2714010702598
 30
0.0
 11
-97.29729729729726
 21
414.7498218433277
 31
0.0
  0
LINE
  5
D4
330
1F
100
AcDbEntity
  8
0-4
  6
Continuous
 62
     7
370
     9
100
AcDbLine
 10
-638.5448765110325
 20
-161.2567427351668
 30
0.0
 11
-638.5448765110325
 21
238.7431541649072
 31
0.0
  0
LINE
  5
D5
330
1F
100
AcDbEntity
  8
0-4
  6
Continuous
 62
     7
370
     9
100
AcDbLine
 10
-545.4111872492609
 20
-161.2567427351668
 30
0.0
 11
-640.0448567158467
 21
-161.2567427351668
 31
0.0
  0
LINE
  5
D6
330
1F
100
AcDbEntity
  8
0-4
  6
Continuous
 62
     7
370
     9
100
AcDbLine
 10
-545.4111872492609
 20
238.7431541649072
 30
0.0
 11
-640.0448567158467
 21
238.7431541649072
 31
0.0
  0
LINE
  5
D7
330
1F
100
AcDbEntity
  8
0-4
  6
Continuous
 62
     7
370
     9
100
AcDbLine
 10
-678.4592705803948
 20
-186.2568252151077
 30
0.0
 11
-678.4592705803948
 21
263.7431129249367
 31
0.0
  0
LINE
  5
D8
330
1F
100
AcDbEntity
  8
0-4
  6
Continuous
 62
     7
370
     9
100
AcDbLine
 10
-569.3598360628695
 20
-186.2568252151077
 30
0.0
 11
-679.9592507852092
 21
-186.2568252151077
 31
0.0
  0
LINE
  5
D9
330
1F
100
AcDbEntity
  8
0-4
  6
Continuous
 62
     7
370
     9
100
AcDbLine
 10
-569.3598360628695
 20
263.7431129249367
 30
0.0
 11
-679.9592507852092
 21
263.7431129249367
 31
0.0
  0
LINE
  5
DA
330
1F
100
AcDbEntity
  8
0-4
  6
Continuous
 62
     7
370
     9
100
AcDbLine
 10
-709.8039575525231
 20
-199.2568186167124
 30
0.0
 11
-709.8039575525231
 21
276.7431681864971
 31
0.0
  0
LINE
  5
DB
330
1F
100
AcDbEntity
  8
0-4
  6
Continuous
 62
     7
370
     9
100
AcDbLine
 10
-580.8255169842694
 20
-199.2568186167124
 30
0.0
 11
-711.3039377573374
 21
-199.2568186167124
 31
0.0
  0
LINE
  5
DC
330
1F
100
AcDbEntity
  8
0-4
  6
Continuous
 62
     7
370
     9
100
AcDbLine
 10
-580.8255169842694
 20
276.7431681864971
 30
0.0
 11
-711.3039377573374
 21
276.7431681864971
 31
0.0
  0
LINE
  5
DD
330
1F
100
AcDbEntity
  8
D-2
  6
Continuous
 62
     3
370
     9
100
AcDbLine
 10
406.7023612357477
 20
404.0949393607475
 30
0.0
 11
406.7023612357477
 21
414.0948486328125
 31
0.0
  0
LINE
  5
DE
330
1F
100
AcDbEntity
  8
D-2
  6
Continuous
 62
     3
370
     9
100
AcDbLine
 10
404.2024767076649
 20
402.8449970967062
 30
0.0
 11
406.7023612357477
 21
404.0949393607475
 31
0.0
  0
LINE
  5
DF
330
1F
100
AcDbEntity
  8
D-2
  6
Continuous
 62
     3
370
     9
100
AcDbLine
 10
404.2024767076649
 20
362.8448651288008
 30
0.0
 11
404.2024767076649
 21
402.8449970967062
 31
0.0
  0
LINE
  5
E0
330
1F
100
AcDbEntity
  8
D-2
  6
Continuous
 62
     3
370
     9
100
AcDbLine
 10
406.7023612357477
 20
361.594799144848
 30
0.0
 11
404.2024767076649
 21
362.8448651288008
 31
0.0
  0
LINE
  5
E1
330
1F
100
AcDbEntity
  8
D-2
  6
Continuous
 62
     3
370
     9
100
AcDbLine
 10
399.2022127718539
 20
357.8448486328125
 30
0.0
 11
394.2024437156886
 21
357.8448486328125
 31
0.0
  0
LINE
  5
E2
330
1F
100
AcDbEntity
  8
D-2
  6
Continuous
 62
     3
370
     9
100
AcDbLine
 10
399.2022127718539
 20
369.8449377111487
 30
0.0
 11
399.2022127718539
 21
357.8448486328125
 31
0.0
  0
LINE
  5
E3
330
1F
100
AcDbEntity
  8
D-2
  6
Continuous
 62
     3
370
     9
100
AcDbLine
 10
366.7024767076649
 20
369.8449377111487
 30
0.0
 11
399.2022127718539
 21
369.8449377111487
 31
0.0
  0
LINE
  5
E4
330
1F
100
AcDbEntity
  8
D-2
  6
Continuous
 62
     3
370
     9
100
AcDbLine
 10
366.7024767076649
 20
357.8448486328125
 30
0.0
 11
366.7024767076649
 21
369.8449377111487
 31
0.0
  0
LINE
  5
E5
330
1F
100
AcDbEntity
  8
D-2
  6
Continuous
 62
     3
370
     9
100
AcDbLine
 10
371.7022457638302
 20
357.8448486328125
 30
0.0
 11
366.7024767076649
 21
357.8448486328125
 31
0.0
  0
LINE
  5
E6
330
1F
100
AcDbEntity
  8
D-2
  6
Continuous
 62
     3
370
     9
100
AcDbLine
 10
331.7023612357477
 20
363.5948552312078
 30
0.0
 11
361.7022127718539
 21
363.5948552312078
 31
0.0
  0
LINE
  5
E7
330
1F
100
AcDbEntity
  8
D-2
  6
Continuous
 62
     3
370
     9
100
AcDbLine
 10
331.7023612357477
 20
368.5948717271959
 30
0.0
 11
331.7023612357477
 21
363.5948552312078
 31
0.0
  0
LINE
  5
E8
330
1F
100
AcDbEntity
  8
D-2
  6
Continuous
 62
     3
370
     9
100
AcDbLine
 10
361.7022127718539
 20
368.5948717271959
 30
0.0
 11
99.99995876002956
 21
368.5948717271959
 31
0.0
  0
LINE
  5
E9
330
1F
100
AcDbEntity
  8
D-2
  6
Continuous
 62
     3
370
     9
100
AcDbLine
 10
361.7022127718539
 20
376.5948486328125
 30
0.0
 11
361.7022127718539
 21
368.5948717271959
 31
0.0
  0
LINE
  5
EA
330
1F
100
AcDbEntity
  8
D-2
  6
Continuous
 62
     3
370
     9
100
AcDbLine
 10
399.2022127718539
 20
374.8449542071369
 30
0.0
 11
361.7022127718539
 21
374.8449542071369
 31
0.0
  0
LINE
  5
EB
330
1F
100
AcDbEntity
  8
D-2
  6
Continuous
 62
     3
370
     9
100
AcDbLine
 10
399.2022127718539
 20
407.8448898727829
 30
0.0
 11
399.2022127718539
 21
374.8449542071369
 31
0.0
  0
LINE
  5
EC
330
1F
100
AcDbEntity
  8
D-2
  6
Continuous
 62
     3
370
     9
100
AcDbLine
 10
394.2024437156886
 20
407.8448898727829
 30
0.0
 11
399.2022127718539
 21
407.8448898727829
 31
0.0
  0
LINE
  5
ED
330
1F
100
AcDbEntity
  8
D-2
  6
Continuous
 62
     3
370
     9
100
AcDbLine
 10
394.2024437156886
 20
414.0948486328125
 30
0.0
 11
394.2024437156886
 21
376.5948486328125
 31
0.0
  0
LINE
  5
EE
330
1F
100
AcDbEntity
  8
D-2
  6
Continuous
 62
     3
370
     9
100
AcDbLine
 10
406.7023612357477
 20
414.0948486328125
 30
0.0
 11
99.99995876002956
 21
414.0948486328125
 31
0.0
  0
LINE
  5
EF
330
1F
100
AcDbEntity
  8
D-2
  6
Continuous
 62
     3
370
     9
100
AcDbLine
 10
394.2024437156886
 20
376.5948486328125
 30
0.0
 11
99.99995876002956
 21
376.5948486328125
 31
0.0
  0
LINE
  5
F0
330
1F
100
AcDbEntity
  8
D-2
  6
Continuous
 62
     3
370
     9
100
AcDbLine
 10
394.2024437156886
 20
384.0949970967062
 30
0.0
 11
99.99995876002956
 21
384.0949970967062
 31
0.0
  0
LINE
  5
F1
330
1F
100
AcDbEntity
  8
D-2
  6
Continuous
 62
     3
370
     9
100
AcDbLine
 10
394.2024437156886
 20
391.5948981207771
 30
0.0
 11
99.99995876002956
 21
391.5948981207771
 31
0.0
  0
LINE
  5
F2
330
1F
100
AcDbEntity
  8
D-2
  6
Continuous
 62
     3
370
     9
100
AcDbLine
 10
394.2024437156886
 20
399.0950465846707
 30
0.0
 11
99.99995876002956
 21
399.0950465846707
 31
0.0
  0
LINE
  5
F3
330
1F
100
AcDbEntity
  8
D-2
  6
Continuous
 62
     3
370
     9
100
AcDbLine
 10
394.2024437156886
 20
406.5949476087417
 30
0.0
 11
99.99995876002956
 21
406.5949476087417
 31
0.0
  0
LINE
  5
F4
330
1F
100
AcDbEntity
  8
D-2
  6
Continuous
 62
     3
370
     9
100
AcDbLine
 10
361.7022127718539
 20
371.2615306957349
 30
0.0
 11
99.99995876002956
 21
371.2615306957349
 31
0.0
  0
LINE
  5
F5
330
1F
100
AcDbEntity
  8
D-2
  6
Continuous
 62
     3
370
     9
100
AcDbLine
 10
361.7022127718539
 20
373.928313384185
 30
0.0
 11
99.99995876002956
 21
373.928313384185
 31
0.0
  0
LINE
  5
F6
330
1F
100
AcDbEntity
  8
D-1
  6
JWW_DASHED3
 62
     2
370
     9
100
AcDbLine
 10
421.702410723712
 20
330.344881624789
 30
0.0
 11
421.702410723712
 21
355.3449641047298
 31
0.0
  0
LINE
  5
F7
330
1F
100
AcDbEntity
  8
D-1
  6
Continuous
 62
     2
370
     9
100
AcDbLine
 10
439.2023447397594
 20
415.3449146167652
 30
0.0
 11
432.9525096996412
 21
419.0948651288008
 31
0.0
  0
LINE
  5
F8
330
1F
100
AcDbEntity
  8
D-1
  6
Continuous
 62
     2
370
     9
100
AcDbLine
 10
432.9525096996412
 20
419.0948651288008
 30
0.0
 11
415.4523282437711
 21
419.0948651288008
 31
0.0
  0
LINE
  5
F9
330
1F
100
AcDbEntity
  8
D-1
  6
Continuous
 62
     2
370
     9
100
AcDbLine
 10
415.4523282437711
 20
419.0948651288008
 30
0.0
 11
409.2022457638302
 21
414.0948486328125
 31
0.0
  0
LINE
  5
FA
330
1F
100
AcDbEntity
  8
D-1
  6
Continuous
 62
     2
370
     9
100
AcDbLine
 10
409.2022457638302
 20
414.0948486328125
 30
0.0
 11
409.2022457638302
 21
349.094881624789
 31
0.0
  0
LINE
  5
FB
330
1F
100
AcDbEntity
  8
D-1
  6
Continuous
 62
     2
370
     9
100
AcDbLine
 10
409.2022457638302
 20
349.094881624789
 30
0.0
 11
387.9523612357477
 21
349.094881624789
 31
0.0
  0
LINE
  5
FC
330
1F
100
AcDbEntity
  8
D-1
  6
Continuous
 62
     2
370
     9
100
AcDbLine
 10
387.9523612357477
 20
349.094881624789
 30
0.0
 11
387.9523612357477
 21
345.3449311127534
 31
0.0
  0
LINE
  5
FD
330
1F
100
AcDbEntity
  8
D-1
  6
Continuous
 62
     2
370
     9
100
AcDbLine
 10
387.9523612357477
 20
345.3449311127534
 30
0.0
 11
392.3273447397594
 21
345.3449311127534
 31
0.0
  0
LINE
  5
FE
330
1F
100
AcDbEntity
  8
D-1
  6
Continuous
 62
     2
370
     9
100
AcDbLine
 10
392.3273447397594
 20
345.3449311127534
 30
0.0
 11
392.3273447397594
 21
332.8448898727829
 31
0.0
  0
LINE
  5
FF
330
1F
100
AcDbEntity
  8
D-1
  6
Continuous
 62
     2
370
     9
100
AcDbLine
 10
389.8272127718539
 20
330.344881624789
 30
0.0
 11
377.4522523622255
 21
330.344881624789
 31
0.0
  0
LINE
  5
100
330
1F
100
AcDbEntity
  8
D-1
  6
Continuous
 62
     2
370
     9
100
AcDbLine
 10
361.0771797798776
 20
332.8448898727829
 30
0.0
 11
361.0771797798776
 21
345.3449311127534
 31
0.0
  0
LINE
  5
101
330
1F
100
AcDbEntity
  8
D-1
  6
Continuous
 62
     2
370
     9
100
AcDbLine
 10
361.0771797798776
 20
345.3449311127534
 30
0.0
 11
365.452410723712
 21
345.3449311127534
 31
0.0
  0
LINE
  5
102
330
1F
100
AcDbEntity
  8
D-1
  6
Continuous
 62
     2
370
     9
100
AcDbLine
 10
365.452410723712
 20
345.3449311127534
 30
0.0
 11
365.452410723712
 21
349.094881624789
 31
0.0
  0
LINE
  5
103
330
1F
100
AcDbEntity
  8
D-1
  6
Continuous
 62
     2
370
     9
100
AcDbLine
 10
344.2022787558068
 20
314.0948898727829
 30
0.0
 11
371.0772127718539
 21
314.0948898727829
 31
0.0
  0
LINE
  5
104
330
1F
100
AcDbEntity
  8
D-1
  6
Continuous
 62
     2
370
     9
100
AcDbLine
 10
371.0772127718539
 20
314.0948898727829
 30
0.0
 11
371.0772127718539
 21
317.8449641047298
 31
0.0
  0
LINE
  5
105
330
1F
100
AcDbEntity
  8
D-1
  6
Continuous
 62
     2
370
     9
100
AcDbLine
 10
371.0772127718539
 20
317.8449641047298
 30
0.0
 11
367.3275096996412
 21
317.8449641047298
 31
0.0
  0
LINE
  5
106
330
1F
100
AcDbEntity
  8
D-1
  6
Continuous
 62
     2
370
     9
100
AcDbLine
 10
367.3275096996412
 20
317.8449641047298
 30
0.0
 11
367.3275096996412
 21
326.5949311127534
 31
0.0
  0
LINE
  5
107
330
1F
100
AcDbEntity
  8
D-1
  6
Continuous
 62
     2
370
     9
100
AcDbLine
 10
386.0775096996412
 20
326.5949311127534
 30
0.0
 11
386.0775096996412
 21
317.8449641047298
 31
0.0
  0
LINE
  5
108
330
1F
100
AcDbEntity
  8
D-1
  6
Continuous
 62
     2
370
     9
100
AcDbLine
 10
386.0775096996412
 20
317.8449641047298
 30
0.0
 11
382.3273117477831
 21
317.8449641047298
 31
0.0
  0
LINE
  5
109
330
1F
100
AcDbEntity
  8
D-1
  6
Continuous
 62
     2
370
     9
100
AcDbLine
 10
382.3273117477831
 20
317.8449641047298
 30
0.0
 11
382.3273117477831
 21
314.0948898727829
 31
0.0
  0
LINE
  5
10A
330
1F
100
AcDbEntity
  8
D-1
  6
Continuous
 62
     2
370
     9
100
AcDbLine
 10
382.3273117477831
 20
314.0948898727829
 30
0.0
 11
426.7021797798776
 21
314.0948898727829
 31
0.0
  0
LINE
  5
10B
330
1F
100
AcDbEntity
  8
D-1
  6
Continuous
 62
     2
370
     9
100
AcDbLine
 10
426.7021797798776
 20
314.0948898727829
 30
0.0
 11
426.7021797798776
 21
324.0950465846707
 31
0.0
  0
LINE
  5
10C
330
1F
100
AcDbEntity
  8
D-1
  6
Continuous
 62
     2
370
     9
100
AcDbLine
 10
426.7021797798776
 20
324.0950465846707
 30
0.0
 11
421.702410723712
 21
324.0950465846707
 31
0.0
  0
LINE
  5
10D
330
1F
100
AcDbEntity
  8
D-1
  6
Continuous
 62
     2
370
     9
100
AcDbLine
 10
421.702410723712
 20
330.344881624789
 30
0.0
 11
421.702410723712
 21
319.0947826488599
 31
0.0
  0
LINE
  5
10E
330
1F
100
AcDbEntity
  8
D-1
  6
Continuous
 62
     2
370
     9
100
AcDbLine
 10
421.702410723712
 20
319.0947826488599
 30
0.0
 11
414.2025096996412
 21
319.0947826488599
 31
0.0
  0
LINE
  5
10F
330
1F
100
AcDbEntity
  8
D-1
  6
Continuous
 62
     2
370
     9
100
AcDbLine
 10
414.2025096996412
 20
319.0947826488599
 30
0.0
 11
414.2025096996412
 21
364.0949311127534
 31
0.0
  0
LINE
  5
110
330
1F
100
AcDbEntity
  8
D-1
  6
Continuous
 62
     2
370
     9
100
AcDbLine
 10
414.2025096996412
 20
364.0949311127534
 30
0.0
 11
421.702410723712
 21
364.0949311127534
 31
0.0
  0
LINE
  5
111
330
1F
100
AcDbEntity
  8
D-1
  6
Continuous
 62
     2
370
     9
100
AcDbLine
 10
421.702410723712
 20
364.0949311127534
 30
0.0
 11
421.702410723712
 21
355.3449641047298
 31
0.0
  0
LINE
  5
112
330
1F
100
AcDbEntity
  8
D-1
  6
Continuous
 62
     2
370
     9
100
AcDbLine
 10
421.702410723712
 20
359.0949146167652
 30
0.0
 11
426.7021797798776
 21
359.0949146167652
 31
0.0
  0
LINE
  5
113
330
1F
100
AcDbEntity
  8
D-1
  6
Continuous
 62
     2
370
     9
100
AcDbLine
 10
426.7021797798776
 20
359.0949146167652
 30
0.0
 11
426.7021797798776
 21
369.0949476087417
 31
0.0
  0
LINE
  5
114
330
1F
100
AcDbEntity
  8
D-1
  6
Continuous
 62
     2
370
     9
100
AcDbLine
 10
426.7021797798776
 20
369.0949476087417
 30
0.0
 11
414.2025096996412
 21
369.0949476087417
 31
0.0
  0
LINE
  5
115
330
1F
100
AcDbEntity
  8
D-1
  6
Continuous
 62
     2
370
     9
100
AcDbLine
 10
414.2025096996412
 20
369.0949476087417
 30
0.0
 11
414.2025096996412
 21
411.6918367952914
 31
0.0
  0
LINE
  5
116
330
1F
100
AcDbEntity
  8
D-1
  6
Continuous
 62
     2
370
     9
100
AcDbLine
 10
409.2022457638302
 20
320.3448486328125
 30
0.0
 11
409.2022457638302
 21
342.8450465846707
 31
0.0
  0
LINE
  5
117
330
1F
100
AcDbEntity
  8
D-1
  6
Continuous
 62
     2
370
     9
100
AcDbLine
 10
406.7023612357477
 20
345.3449311127534
 30
0.0
 11
398.5771797798776
 21
345.3449311127534
 31
0.0
  0
LINE
  5
118
330
1F
100
AcDbEntity
  8
D-1
  6
Continuous
 62
     2
370
     9
100
AcDbLine
 10
396.0772952517948
 20
342.8450465846707
 30
0.0
 11
396.0772952517948
 21
332.8448898727829
 31
0.0
  0
LINE
  5
119
330
1F
100
AcDbEntity
  8
D-1
  6
Continuous
 62
     2
370
     9
100
AcDbLine
 10
386.0775096996412
 20
326.5949311127534
 30
0.0
 11
367.3275096996412
 21
326.5949311127534
 31
0.0
  0
LINE
  5
11A
330
1F
100
AcDbEntity
  8
D-1
  6
Continuous
 62
     2
370
     9
100
AcDbLine
 10
392.3273447397594
 20
317.8449641047298
 30
0.0
 11
406.7023612357477
 21
317.8449641047298
 31
0.0
  0
LINE
  5
11B
330
1F
100
AcDbEntity
  8
D-1
  6
Continuous
 62
     2
370
     9
100
AcDbLine
 10
389.8272127718539
 20
326.5949311127534
 30
0.0
 11
389.8272127718539
 21
320.3448486328125
 31
0.0
  0
LINE
  5
11C
330
1F
100
AcDbEntity
  8
D-1
  6
Continuous
 62
     2
370
     9
100
AcDbLine
 10
354.8273447397594
 20
345.3449311127534
 30
0.0
 11
350.4523612357477
 21
345.3449311127534
 31
0.0
  0
LINE
  5
11D
330
1F
100
AcDbEntity
  8
D-1
  6
Continuous
 62
     2
370
     9
100
AcDbLine
 10
357.3274767076649
 20
332.8448898727829
 30
0.0
 11
357.3274767076649
 21
342.8450465846707
 31
0.0
  0
LINE
  5
11E
330
1F
100
AcDbEntity
  8
D-1
  6
Continuous
 62
     2
370
     9
100
AcDbLine
 10
347.9524767076649
 20
342.8450465846707
 30
0.0
 11
347.9524767076649
 21
320.3448486328125
 31
0.0
  0
LINE
  5
11F
330
1F
100
AcDbEntity
  8
D-1
  6
Continuous
 62
     2
370
     9
100
AcDbLine
 10
363.5773117477831
 20
320.3448486328125
 30
0.0
 11
363.5773117477831
 21
326.5949311127534
 31
0.0
  0
LINE
  5
120
330
1F
100
AcDbEntity
  8
D-1
  6
Continuous
 62
     2
370
     9
100
AcDbLine
 10
350.4523612357477
 20
317.8449641047298
 30
0.0
 11
361.0771797798776
 21
317.8449641047298
 31
0.0
  0
LINE
  5
121
330
1F
100
AcDbEntity
  8
D-1
  6
Continuous
 62
     2
370
     9
100
AcDbLine
 10
377.4522523622255
 20
330.344881624789
 30
0.0
 11
377.4522523622255
 21
329.5948915223818
 31
0.0
  0
LINE
  5
122
330
1F
100
AcDbEntity
  8
D-1
  6
Continuous
 62
     2
370
     9
100
AcDbLine
 10
377.4522523622255
 20
329.5948915223818
 30
0.0
 11
375.9522721574115
 21
329.5948915223818
 31
0.0
  0
LINE
  5
123
330
1F
100
AcDbEntity
  8
D-1
  6
Continuous
 62
     2
370
     9
100
AcDbLine
 10
375.9522721574115
 20
329.5948915223818
 30
0.0
 11
375.9522721574115
 21
330.344881624789
 31
0.0
  0
LINE
  5
124
330
1F
100
AcDbEntity
  8
D-1
  6
Continuous
 62
     2
370
     9
100
AcDbLine
 10
375.9522721574115
 20
330.344881624789
 30
0.0
 11
363.5773117477831
 21
330.344881624789
 31
0.0
  0
LINE
  5
125
330
1F
100
AcDbEntity
  8
D-1
  6
Continuous
 62
     2
370
     9
100
AcDbLine
 10
434.2023282437711
 20
342.8450465846707
 30
0.0
 11
434.2023282437711
 21
350.5948618296031
 31
0.0
  0
LINE
  5
126
330
1F
100
AcDbEntity
  8
D-1
  6
Continuous
 62
     2
370
     9
100
AcDbLine
 10
344.2022787558068
 20
349.094881624789
 30
0.0
 11
344.2022787558068
 21
314.0948898727829
 31
0.0
  0
LINE
  5
127
330
1F
100
AcDbEntity
  8
D-1
  6
Continuous
 62
     2
370
     9
100
AcDbLine
 10
384.202410723712
 20
341.594980600718
 30
0.0
 11
384.202410723712
 21
349.094881624789
 31
0.0
  0
LINE
  5
128
330
1F
100
AcDbEntity
  8
D-1
  6
Continuous
 62
     2
370
     9
100
AcDbLine
 10
369.2023612357477
 20
349.094881624789
 30
0.0
 11
369.2023612357477
 21
341.594980600718
 31
0.0
  0
LINE
  5
129
330
1F
100
AcDbEntity
  8
D-1
  6
Continuous
 62
     2
370
     9
100
AcDbLine
 10
387.3273282437711
 20
349.0936444256758
 30
0.0
 11
406.7023612357477
 21
349.094881624789
 31
0.0
  0
LINE
  5
12A
330
1F
100
AcDbEntity
  8
D-1
  6
Continuous
 62
     2
370
     9
100
AcDbLine
 10
387.3273282437711
 20
342.8450465846707
 30
0.0
 11
387.3273282437711
 21
349.094881624789
 31
0.0
  0
LINE
  5
12B
330
1F
100
AcDbEntity
  8
D-1
  6
Continuous
 62
     2
370
     9
100
AcDbLine
 10
390.4524932036529
 20
342.8450465846707
 30
0.0
 11
387.3273282437711
 21
342.8450465846707
 31
0.0
  0
LINE
  5
12C
330
1F
100
AcDbEntity
  8
D-1
  6
Continuous
 62
     2
370
     9
100
AcDbLine
 10
390.4524932036529
 20
341.3446952201225
 30
0.0
 11
390.4524932036529
 21
342.8450465846707
 31
0.0
  0
LINE
  5
12D
330
1F
100
AcDbEntity
  8
D-1
  6
Continuous
 62
     2
370
     9
100
AcDbLine
 10
362.9522787558068
 20
342.8450465846707
 30
0.0
 11
362.9522787558068
 21
341.3446952201225
 31
0.0
  0
LINE
  5
12E
330
1F
100
AcDbEntity
  8
D-1
  6
Continuous
 62
     2
370
     9
100
AcDbLine
 10
366.0774437156886
 20
342.8450465846707
 30
0.0
 11
362.9522787558068
 21
342.8450465846707
 31
0.0
  0
LINE
  5
12F
330
1F
100
AcDbEntity
  8
D-1
  6
Continuous
 62
     2
370
     9
100
AcDbLine
 10
346.702410723712
 20
351.5947661528716
 30
0.0
 11
346.702410723712
 21
349.094881624789
 31
0.0
  0
LINE
  5
130
330
1F
100
AcDbEntity
  8
D-1
  6
Continuous
 62
     2
370
     9
100
AcDbLine
 10
406.7023612357477
 20
349.094881624789
 30
0.0
 11
406.7023612357477
 21
351.5947661528716
 31
0.0
  0
LINE
  5
131
330
1F
100
AcDbEntity
  8
D-1
  6
Continuous
 62
     2
370
     9
100
AcDbLine
 10
496.702410723712
 20
311.0948057432433
 30
0.0
 11
434.2023282437711
 21
311.0948057432433
 31
0.0
  0
LINE
  5
132
330
1F
100
AcDbEntity
  8
D-1
  6
Continuous
 62
     2
370
     9
100
AcDbLine
 10
432.7377319335938
 20
319.3093129750845
 30
0.0
 11
421.702410723712
 21
330.344881624789
 31
0.0
  0
LINE
  5
133
330
1F
100
AcDbEntity
  8
D-1
  6
Continuous
 62
     2
370
     9
100
AcDbLine
 10
434.2023282437711
 20
305.3450465846707
 30
0.0
 11
434.2023282437711
 21
315.7738927892737
 31
0.0
  0
LINE
  5
134
330
1F
100
AcDbEntity
  8
D-1
  6
Continuous
 62
     2
370
     9
100
AcDbLine
 10
496.702410723712
 20
305.3450465846707
 30
0.0
 11
434.2023282437711
 21
305.3450465846707
 31
0.0
  0
LINE
  5
135
330
1F
100
AcDbEntity
  8
D-6
  6
Continuous
 62
     6
370
     5
100
AcDbLine
 10
420.6522761164484
 20
407.8448898727829
 30
0.0
 11
624.748065020587
 21
407.8448898727829
 31
0.0
  0
LINE
  5
136
330
1F
100
AcDbEntity
  8
D-6
  6
Continuous
 62
     6
370
     5
100
AcDbLine
 10
420.6522761164484
 20
401.5949311127534
 30
0.0
 11
624.748065020587
 21
401.5949311127534
 31
0.0
  0
LINE
  5
137
330
1F
100
AcDbEntity
  8
D-6
  6
Continuous
 62
     6
370
     5
100
AcDbLine
 10
553.8248835383234
 20
326.5949311127534
 30
0.0
 11
624.748065020587
 21
255.67174963049
 31
0.0
  0
LINE
  5
138
330
1F
100
AcDbEntity
  8
D-6
  6
Continuous
 62
     6
370
     5
100
AcDbLine
 10
468.2183755410685
 20
276.5948898727829
 30
0.0
 11
555.7182930611276
 21
189.0949104927682
 31
0.0
  0
LINE
  5
139
330
1F
100
AcDbEntity
  8
D-6
  6
Continuous
 62
     6
370
     5
100
AcDbLine
 10
473.5217532596073
 20
276.5948898727829
 30
0.0
 11
561.0216707796665
 21
189.0949104927682
 31
0.0
  0
LINE
  5
13A
330
1F
100
AcDbEntity
  8
D-6
  6
Continuous
 62
     6
370
     5
100
AcDbLine
 10
478.8248835383234
 20
276.5948898727829
 30
0.0
 11
566.3250484982052
 21
189.0949104927682
 31
0.0
  0
LINE
  5
13B
330
1F
100
AcDbEntity
  8
D-6
  6
Continuous
 62
     6
370
     5
100
AcDbLine
 10
406.7023612357477
 20
223.7174327953443
 30
0.0
 11
441.3248835383234
 21
189.0949104927682
 31
0.0
  0
LINE
  5
13C
330
1F
100
AcDbEntity
  8
D-6
  6
Continuous
 62
     6
370
     5
100
AcDbLine
 10
406.7023612357477
 20
218.4141787967167
 30
0.0
 11
436.0217532596073
 21
189.0949104927682
 31
0.0
  0
LINE
  5
13D
330
1F
100
AcDbEntity
  8
D-6
  6
Continuous
 62
     6
370
     5
100
AcDbLine
 10
406.7023612357477
 20
213.1109247980892
 30
0.0
 11
430.7183755410685
 21
189.0949104927682
 31
0.0
  0
LINE
  5
13E
330
1F
100
AcDbEntity
  8
D-6
  6
Continuous
 62
     6
370
     5
100
AcDbLine
 10
519.2023612357477
 20
326.5949311127534
 30
0.0
 11
519.2023612357477
 21
276.5948898727829
 31
0.0
  0
LINE
  5
13F
330
1F
100
AcDbEntity
  8
D-6
  6
Continuous
 62
     6
370
     5
100
AcDbLine
 10
406.7023612357477
 20
276.5948898727829
 30
0.0
 11
519.2023612357477
 21
276.5948898727829
 31
0.0
  0
LINE
  5
140
330
1F
100
AcDbEntity
  8
D-6
  6
Continuous
 62
     6
370
     5
100
AcDbLine
 10
406.7023612357477
 20
276.5948898727829
 30
0.0
 11
406.7023612357477
 21
189.0949104927682
 31
0.0
  0
LINE
  5
141
330
1F
100
AcDbEntity
  8
D-6
  6
JWW_DASHED3
 62
     6
370
     5
100
AcDbLine
 10
461.4031405062289
 20
232.3169563912057
 30
0.0
 11
461.4031405062289
 21
276.5948898727829
 31
0.0
  0
LINE
  5
142
330
1F
100
AcDbEntity
  8
D-6
  6
JWW_DASHED3
 62
     6
370
     5
100
AcDbLine
 10
483.903338458087
 20
232.3169563912057
 30
0.0
 11
483.903338458087
 21
276.5948898727829
 31
0.0
  0
LINE
  5
143
330
1F
100
AcDbEntity
  8
D-6
  6
Continuous
 62
     6
370
     5
100
AcDbLine
 10
461.4031405062289
 20
338.5106432115709
 30
0.0
 11
483.903338458087
 21
338.5106432115709
 31
0.0
  0
LINE
  5
144
330
1F
100
AcDbEntity
  8
D-1
  6
Continuous
 62
     2
370
     9
100
AcDbLine
 10
421.702410723712
 20
355.3449641047298
 30
0.0
 11
443.0411261481208
 21
334.0060012404983
 31
0.0
  0
LINE
  5
145
330
1F
100
AcDbEntity
  8
D-1
  6
Continuous
 62
     2
370
     9
100
AcDbLine
 10
415.9524041253169
 20
320.3448486328125
 30
0.0
 11
421.702410723712
 21
320.3448486328125
 31
0.0
  0
LINE
  5
146
330
1F
100
AcDbEntity
  8
D-1
  6
Continuous
 62
     2
370
     9
100
AcDbLine
 10
415.9524041253169
 20
364.0949311127534
 30
0.0
 11
415.9524041253169
 21
320.3448486328125
 31
0.0
  0
LINE
  5
147
330
1F
100
AcDbEntity
  8
D-1
  6
JWW_CENTER2
 62
     2
370
     9
100
AcDbLine
 10
443.1999825142526
 20
341.594980600718
 30
0.0
 11
412.9905494483742
 21
341.594980600718
 31
0.0
  0
LINE
  5
148
330
1F
100
AcDbEntity
  8
D-1
  6
JWW_DASHED3
 62
     2
370
     9
100
AcDbLine
 10
434.2023282437711
 20
336.5949641047298
 30
0.0
 11
415.9524041253169
 21
336.5949641047298
 31
0.0
  0
LINE
  5
149
330
1F
100
AcDbEntity
  8
D-1
  6
JWW_DASHED3
 62
     2
370
     9
100
AcDbLine
 10
434.2023282437711
 20
332.5948519320102
 30
0.0
 11
434.2023282437711
 21
342.8450465846707
 31
0.0
  0
LINE
  5
14A
330
1F
100
AcDbEntity
  8
D-1
  6
JWW_DASHED3
 62
     2
370
     9
100
AcDbLine
 10
434.2023282437711
 20
337.2199970967062
 30
0.0
 11
415.9524041253169
 21
337.2199970967062
 31
0.0
  0
LINE
  5
14B
330
1F
100
AcDbEntity
  8
D-1
  6
Continuous
 62
     2
370
     9
100
AcDbLine
 10
414.8272952517948
 20
346.5949970967062
 30
0.0
 11
414.2025096996412
 21
345.9699641047298
 31
0.0
  0
LINE
  5
14C
330
1F
100
AcDbEntity
  8
D-1
  6
Continuous
 62
     2
370
     9
100
AcDbLine
 10
414.8272952517948
 20
336.5949641047298
 30
0.0
 11
414.2025096996412
 21
337.2199970967062
 31
0.0
  0
LINE
  5
14D
330
1F
100
AcDbEntity
  8
D-1
  6
JWW_DASHED3
 62
     2
370
     9
100
AcDbLine
 10
414.8272952517948
 20
346.5949970967062
 30
0.0
 11
414.8272952517948
 21
336.5949641047298
 31
0.0
  0
LINE
  5
14E
330
1F
100
AcDbEntity
  8
D-1
  6
JWW_DASHED3
 62
     2
370
     9
100
AcDbLine
 10
431.077410723712
 20
345.9699641047298
 30
0.0
 11
415.9524041253169
 21
345.9699641047298
 31
0.0
  0
LINE
  5
14F
330
1F
100
AcDbEntity
  8
D-1
  6
JWW_DASHED3
 62
     2
370
     9
100
AcDbLine
 10
430.4523777317357
 20
346.5949970967062
 30
0.0
 11
415.9524041253169
 21
346.5949970967062
 31
0.0
  0
LINE
  5
150
330
1F
100
AcDbEntity
  8
D-1
  6
Continuous
 62
     2
370
     9
100
AcDbLine
 10
415.9524041253169
 20
345.9699641047298
 30
0.0
 11
414.2025096996412
 21
345.9699641047298
 31
0.0
  0
LINE
  5
151
330
1F
100
AcDbEntity
  8
D-1
  6
Continuous
 62
     2
370
     9
100
AcDbLine
 10
415.9524041253169
 20
346.5949970967062
 30
0.0
 11
414.8272952517948
 21
346.5949970967062
 31
0.0
  0
LINE
  5
152
330
1F
100
AcDbEntity
  8
D-1
  6
Continuous
 62
     2
370
     9
100
AcDbLine
 10
415.9524041253169
 20
337.2199970967062
 30
0.0
 11
414.2025096996412
 21
337.2199970967062
 31
0.0
  0
LINE
  5
153
330
1F
100
AcDbEntity
  8
D-1
  6
Continuous
 62
     2
370
     9
100
AcDbLine
 10
415.9524041253169
 20
336.5949641047298
 30
0.0
 11
414.8272952517948
 21
336.5949641047298
 31
0.0
  0
LINE
  5
154
330
1F
100
AcDbEntity
  8
D-1
  6
Continuous
 62
     2
370
     9
100
AcDbLine
 10
439.2023447397594
 20
415.3449146167652
 30
0.0
 11
439.2023447397594
 21
414.0948486328125
 31
0.0
  0
LINE
  5
155
330
1F
100
AcDbEntity
  8
D-1
  6
Continuous
 62
     2
370
     9
100
AcDbLine
 10
417.2064291464318
 20
414.0948486328125
 30
0.0
 11
414.2025096996412
 21
411.6918367952914
 31
0.0
  0
LINE
  5
156
330
1F
100
AcDbEntity
  8
D-1
  6
Continuous
 62
     2
370
     9
100
AcDbLine
 10
346.702410723712
 20
349.094881624789
 30
0.0
 11
349.2025426916175
 21
351.5947661528716
 31
0.0
  0
LINE
  5
157
330
1F
100
AcDbEntity
  8
D-1
  6
Continuous
 62
     2
370
     9
100
AcDbLine
 10
384.202410723712
 20
349.094881624789
 30
0.0
 11
369.2023612357477
 21
349.094881624789
 31
0.0
  0
LINE
  5
158
330
1F
100
AcDbEntity
  8
D-1
  6
Continuous
 62
     2
370
     9
100
AcDbLine
 10
351.7024272197003
 20
349.094881624789
 30
0.0
 11
354.2023117477831
 21
351.5947661528716
 31
0.0
  0
LINE
  5
159
330
1F
100
AcDbEntity
  8
D-1
  6
Continuous
 62
     2
370
     9
100
AcDbLine
 10
356.7024437156886
 20
349.094881624789
 30
0.0
 11
359.2025756835938
 21
351.5947661528716
 31
0.0
  0
LINE
  5
15A
330
1F
100
AcDbEntity
  8
D-1
  6
Continuous
 62
     2
370
     9
100
AcDbLine
 10
361.7024602116766
 20
349.094881624789
 30
0.0
 11
364.2023447397594
 21
351.5947661528716
 31
0.0
  0
LINE
  5
15B
330
1F
100
AcDbEntity
  8
D-1
  6
Continuous
 62
     2
370
     9
100
AcDbLine
 10
401.7023447397594
 20
349.094881624789
 30
0.0
 11
404.2024767076649
 21
351.5947661528716
 31
0.0
  0
LINE
  5
15C
330
1F
100
AcDbEntity
  8
D-1
  6
Continuous
 62
     2
370
     9
100
AcDbLine
 10
406.7023612357477
 20
351.5947661528716
 30
0.0
 11
346.702410723712
 21
351.5947661528716
 31
0.0
  0
LINE
  5
15D
330
1F
100
AcDbEntity
  8
D-1
  6
Continuous
 62
     2
370
     9
100
AcDbLine
 10
366.0774437156886
 20
349.094881624789
 30
0.0
 11
344.2022787558068
 21
349.094881624789
 31
0.0
  0
LINE
  5
15E
330
1F
100
AcDbEntity
  8
D-1
  6
Continuous
 62
     2
370
     9
100
AcDbLine
 10
366.0774437156886
 20
349.094881624789
 30
0.0
 11
366.0774437156886
 21
342.8450465846707
 31
0.0
  0
LINE
  5
15F
330
1F
100
AcDbEntity
  8
D-1
  6
Continuous
 62
     2
370
     9
100
AcDbLine
 10
366.0774437156886
 20
348.4698486328125
 30
0.0
 11
369.2023612357477
 21
351.5947661528716
 31
0.0
  0
LINE
  5
160
330
1F
100
AcDbEntity
  8
D-1
  6
Continuous
 62
     2
370
     9
100
AcDbLine
 10
371.7024932036529
 20
349.094881624789
 30
0.0
 11
374.2023777317357
 21
351.5947661528716
 31
0.0
  0
LINE
  5
161
330
1F
100
AcDbEntity
  8
D-1
  6
Continuous
 62
     2
370
     9
100
AcDbLine
 10
366.0774437156886
 20
343.4698321368244
 30
0.0
 11
369.2023612357477
 21
346.5949970967062
 31
0.0
  0
LINE
  5
162
330
1F
100
AcDbEntity
  8
D-1
  6
Continuous
 62
     2
370
     9
100
AcDbLine
 10
363.6777723157729
 20
341.0704081767315
 30
0.0
 11
365.452410723712
 21
342.8450465846707
 31
0.0
  0
LINE
  5
163
330
1F
100
AcDbEntity
  8
D-1
  6
Continuous
 62
     2
370
     9
100
AcDbLine
 10
367.501212455131
 20
339.8938318201015
 30
0.0
 11
369.2023612357477
 21
341.594980600718
 31
0.0
  0
LINE
  5
164
330
1F
100
AcDbEntity
  8
D-1
  6
Continuous
 62
     2
370
     9
100
AcDbLine
 10
376.7025096996412
 20
349.094881624789
 30
0.0
 11
379.202394227724
 21
351.5947661528716
 31
0.0
  0
LINE
  5
165
330
1F
100
AcDbEntity
  8
D-1
  6
Continuous
 62
     2
370
     9
100
AcDbLine
 10
381.7022787558068
 20
349.094881624789
 30
0.0
 11
384.202410723712
 21
351.5947661528716
 31
0.0
  0
LINE
  5
166
330
1F
100
AcDbEntity
  8
D-1
  6
Continuous
 62
     2
370
     9
100
AcDbLine
 10
384.202410723712
 20
346.5949970967062
 30
0.0
 11
389.2024272197003
 21
351.5947661528716
 31
0.0
  0
LINE
  5
167
330
1F
100
AcDbEntity
  8
D-1
  6
Continuous
 62
     2
370
     9
100
AcDbLine
 10
371.6977918470229
 20
339.0905184359164
 30
0.0
 11
373.5471570813979
 21
340.9397599503801
 31
0.0
  0
LINE
  5
168
330
1F
100
AcDbEntity
  8
D-1
  6
Continuous
 62
     2
370
     9
100
AcDbLine
 10
376.3669813001479
 20
338.7595676731419
 30
0.0
 11
378.4504246067357
 21
340.8430109797298
 31
0.0
  0
LINE
  5
169
330
1F
100
AcDbEntity
  8
D-1
  6
Continuous
 62
     2
370
     9
100
AcDbLine
 10
391.7013219884925
 20
349.0938918654983
 30
0.0
 11
394.2024437156886
 21
351.5947661528716
 31
0.0
  0
LINE
  5
16A
330
1F
100
AcDbEntity
  8
D-1
  6
Continuous
 62
     2
370
     9
100
AcDbLine
 10
381.6968350797086
 20
339.0891575168919
 30
0.0
 11
387.3273282437711
 21
344.7196506809544
 31
0.0
  0
LINE
  5
16B
330
1F
100
AcDbEntity
  8
D-1
  6
Continuous
 62
     2
370
     9
100
AcDbLine
 10
396.7018333641261
 20
349.0941393053209
 30
0.0
 11
399.2024602116766
 21
351.5947661528716
 31
0.0
  0
LINE
  5
16C
330
1F
100
AcDbEntity
  8
D-1
  6
Continuous
 62
     2
370
     9
100
AcDbLine
 10
388.1337346257391
 20
340.5261642868454
 30
0.0
 11
390.4524932036529
 21
342.844799144848
 31
0.0
  0
LINE
  5
16D
330
1F
100
AcDbEntity
  8
D-1
  6
Continuous
 62
     2
370
     9
100
AcDbLine
 10
434.2023282437711
 20
345.9699641047298
 30
0.0
 11
431.077410723712
 21
345.9699641047298
 31
0.0
  0
LINE
  5
16E
330
1F
100
AcDbEntity
  8
D-1
  6
Continuous
 62
     2
370
     9
100
AcDbLine
 10
434.2023282437711
 20
346.5949970967062
 30
0.0
 11
430.4523777317357
 21
346.5949970967062
 31
0.0
  0
LINE
  5
16F
330
1F
100
AcDbEntity
  8
D-4
  6
Continuous
 62
     7
370
     9
100
AcDbLine
 10
202.7013417836783
 20
90.38621644716017
 30
0.0
 11
467.9654920423354
 21
90.38621644716017
 31
0.0
  0
LINE
  5
170
330
1F
100
AcDbEntity
  8
D-1
  6
Continuous
 62
     2
370
     9
100
AcDbLine
 10
417.2064291464318
 20
414.0948486328125
 30
0.0
 11
439.2023447397594
 21
414.0948486328125
 31
0.0
  0
LINE
  5
171
330
1F
100
AcDbEntity
  8
D-6
  6
Continuous
 62
     6
370
     5
100
AcDbLine
 10
439.2023447397594
 20
414.0948486328125
 30
0.0
 11
683.9668480125636
 21
414.0948486328125
 31
0.0
  0
LINE
  5
172
330
1F
100
AcDbEntity
  8
D-6
  6
Continuous
 62
     6
370
     5
100
AcDbLine
 10
344.2022787558068
 20
314.0948898727829
 30
0.0
 11
344.2022787558068
 21
130.7255884118983
 31
0.0
  0
LINE
  5
173
330
1F
100
AcDbEntity
  8
D-6
  6
JWW_CENTER2
 62
     6
370
     5
100
AcDbLine
 10
472.6529920423354
 20
232.3169563912057
 30
0.0
 11
472.6529920423354
 21
348.4168965107687
 31
0.0
  0
LINE
  5
174
330
1F
100
AcDbEntity
  8
D-6
  6
Continuous
 62
     6
370
     5
100
AcDbLine
 10
461.4031405062289
 20
276.5948898727829
 30
0.0
 11
461.4031405062289
 21
305.3450465846707
 31
0.0
  0
LINE
  5
175
330
1F
100
AcDbEntity
  8
D-6
  6
Continuous
 62
     6
370
     5
100
AcDbLine
 10
483.903338458087
 20
276.5948898727829
 30
0.0
 11
483.903338458087
 21
305.3450465846707
 31
0.0
  0
LINE
  5
176
330
1F
100
AcDbEntity
  8
D-6
  6
Continuous
 62
     6
370
     5
100
AcDbLine
 10
483.903338458087
 20
330.344881624789
 30
0.0
 11
483.903338458087
 21
338.5106432115709
 31
0.0
  0
LINE
  5
177
330
1F
100
AcDbEntity
  8
D-6
  6
JWW_DASHED3
 62
     6
370
     5
100
AcDbLine
 10
483.903338458087
 20
305.3450465846707
 30
0.0
 11
483.903338458087
 21
330.344881624789
 31
0.0
  0
LINE
  5
178
330
1F
100
AcDbEntity
  8
D-6
  6
Continuous
 62
     6
370
     5
100
AcDbLine
 10
461.4031405062289
 20
330.344881624789
 30
0.0
 11
461.4031405062289
 21
338.5106432115709
 31
0.0
  0
LINE
  5
179
330
1F
100
AcDbEntity
  8
D-6
  6
JWW_DASHED3
 62
     6
370
     5
100
AcDbLine
 10
461.4031405062289
 20
305.3450465846707
 30
0.0
 11
461.4031405062289
 21
330.344881624789
 31
0.0
  0
LINE
  5
17A
330
1F
100
AcDbEntity
  8
D-1
  6
Continuous
 62
     2
370
     9
100
AcDbLine
 10
451.8801714922932
 20
330.344881624789
 30
0.0
 11
491.702394227724
 21
330.344881624789
 31
0.0
  0
LINE
  5
17B
330
1F
100
AcDbEntity
  8
D-1
  6
Continuous
 62
     2
370
     9
100
AcDbLine
 10
496.702410723712
 20
325.3448651288008
 30
0.0
 11
496.702410723712
 21
305.3450465846707
 31
0.0
  0
LINE
  5
17C
330
1F
100
AcDbEntity
  8
D-6
  6
Continuous
 62
     6
370
     5
100
AcDbLine
 10
553.5764539563979
 20
382.8449311127534
 30
0.0
 11
624.748065020587
 21
382.8449311127534
 31
0.0
  0
LINE
  5
17D
330
1F
100
AcDbEntity
  8
D-6
  6
Continuous
 62
     6
370
     5
100
AcDbLine
 10
553.5764539563979
 20
389.0948898727829
 30
0.0
 11
624.748065020587
 21
389.0948898727829
 31
0.0
  0
LINE
  5
17E
330
1F
100
AcDbEntity
  8
D-6
  6
Continuous
 62
     6
370
     5
100
AcDbLine
 10
553.5764539563979
 20
395.3448486328125
 30
0.0
 11
624.748065020587
 21
395.3448486328125
 31
0.0
  0
LINE
  5
17F
330
1F
100
AcDbEntity
  8
D-2
  6
Continuous
 62
     3
370
     9
100
AcDbLine
 10
371.7022457638302
 20
357.8448486328125
 30
0.0
 11
371.7022457638302
 21
351.5947661528716
 31
0.0
  0
LINE
  5
180
330
1F
100
AcDbEntity
  8
D-2
  6
Continuous
 62
     3
370
     9
100
AcDbLine
 10
361.7022127718539
 20
363.5948552312078
 30
0.0
 11
361.7022127718539
 21
351.5947661528716
 31
0.0
  0
LINE
  5
181
330
1F
100
AcDbEntity
  8
D-2
  6
Continuous
 62
     3
370
     9
100
AcDbLine
 10
361.7022127718539
 20
351.5947661528716
 30
0.0
 11
371.7022457638302
 21
351.5947661528716
 31
0.0
  0
LINE
  5
182
330
1F
100
AcDbEntity
  8
D-2
  6
Continuous
 62
     3
370
     9
100
AcDbLine
 10
394.2024437156886
 20
357.8448486328125
 30
0.0
 11
394.2024437156886
 21
351.5947661528716
 31
0.0
  0
LINE
  5
183
330
1F
100
AcDbEntity
  8
D-2
  6
Continuous
 62
     3
370
     9
100
AcDbLine
 10
406.7023612357477
 20
361.594799144848
 30
0.0
 11
406.7023612357477
 21
351.5947661528716
 31
0.0
  0
LINE
  5
184
330
1F
100
AcDbEntity
  8
D-2
  6
Continuous
 62
     3
370
     9
100
AcDbLine
 10
394.2024437156886
 20
351.5947661528716
 30
0.0
 11
406.7023612357477
 21
351.5947661528716
 31
0.0
  0
LINE
  5
185
330
1F
100
AcDbEntity
  8
D-4
  6
Continuous
 62
     7
370
     9
100
AcDbLine
 10
99.99995876002956
 20
491.283701303843
 30
0.0
 11
439.2023447397594
 21
491.283701303843
 31
0.0
  0
LINE
  5
186
330
1F
100
AcDbEntity
  8
D-4
  6
Continuous
 62
     7
370
     9
100
AcDbLine
 10
406.7023612357477
 20
427.7493203652872
 30
0.0
 11
406.7023612357477
 21
492.7836815086572
 31
0.0
  0
LINE
  5
187
330
1F
100
AcDbEntity
  8
D-4
  6
Continuous
 62
     7
370
     9
100
AcDbLine
 10
409.2022457638302
 20
427.7493203652872
 30
0.0
 11
409.2022457638302
 21
492.7836815086572
 31
0.0
  0
LINE
  5
188
330
1F
100
AcDbEntity
  8
D-4
  6
Continuous
 62
     7
370
     9
100
AcDbLine
 10
439.2023447397594
 20
427.7493203652872
 30
0.0
 11
439.2023447397594
 21
535.8050537109375
 31
0.0
  0
LINE
  5
189
330
1F
100
AcDbEntity
  8
D-4
  6
Continuous
 62
     7
370
     9
100
AcDbLine
 10
99.99995876002956
 20
534.3050735061234
 30
0.0
 11
439.2023447397594
 21
534.3050735061234
 31
0.0
  0
LINE
  5
18A
330
1F
100
AcDbEntity
  8
D-4
  6
Continuous
 62
     7
370
     9
100
AcDbLine
 10
60.08494609111068
 20
324.6413937130491
 30
0.0
 11
60.08494609111068
 21
414.0948486328125
 31
0.0
  0
LINE
  5
18B
330
1F
100
AcDbEntity
  8
D-4
  6
Continuous
 62
     7
370
     9
100
AcDbLine
 10
92.54311226509714
 20
368.5948717271959
 30
0.0
 11
58.58496588629649
 21
368.5948717271959
 31
0.0
  0
LINE
  5
18C
330
1F
100
AcDbEntity
  8
D-4
  6
Continuous
 62
     7
370
     9
100
AcDbLine
 10
92.54311226509714
 20
376.5948486328125
 30
0.0
 11
58.58496588629649
 21
376.5948486328125
 31
0.0
  0
LINE
  5
18D
330
1F
100
AcDbEntity
  8
D-4
  6
Continuous
 62
     7
370
     9
100
AcDbLine
 10
92.54311226509714
 20
414.0948486328125
 30
0.0
 11
58.58496588629649
 21
414.0948486328125
 31
0.0
  0
LINE
  5
18E
330
1F
100
AcDbEntity
  8
D-4
  6
Continuous
 62
     7
370
     9
100
AcDbLine
 10
99.99995876002956
 20
210.8025586927261
 30
0.0
 11
496.702410723712
 21
210.8025586927261
 31
0.0
  0
LINE
  5
18F
330
1F
100
AcDbEntity
  8
D-4
  6
Continuous
 62
     7
370
     9
100
AcDbLine
 10
344.2027736354518
 20
154.895015407253
 30
0.0
 11
519.2023612357477
 21
154.895015407253
 31
0.0
  0
LINE
  5
190
330
1F
100
AcDbEntity
  8
D-4
  6
Continuous
 62
     7
370
     9
100
AcDbLine
 10
519.2023612357477
 20
265.3369965424409
 30
0.0
 11
519.2023612357477
 21
153.3950352024388
 31
0.0
  0
LINE
  5
191
330
1F
100
AcDbEntity
  8
D-4
  6
Continuous
 62
     7
370
     9
100
AcDbLine
 10
548.7159935203761
 20
305.3450465846707
 30
0.0
 11
548.7159935203761
 21
436.8167526657517
 31
0.0
  0
LINE
  5
192
330
1F
100
AcDbEntity
  8
D-4
  6
Continuous
 62
     7
370
     9
100
AcDbLine
 10
500.1267304291596
 20
305.3450465846707
 30
0.0
 11
550.2159737251901
 21
305.3450465846707
 31
0.0
  0
LINE
  5
193
330
1F
100
AcDbEntity
  8
D-4
  6
Continuous
 62
     7
370
     9
100
AcDbLine
 10
500.1267304291596
 20
330.344881624789
 30
0.0
 11
550.2159737251901
 21
330.344881624789
 31
0.0
  0
LINE
  5
194
330
1F
100
AcDbEntity
  8
D-6
  6
Continuous
 62
     6
370
     5
100
AcDbLine
 10
420.6522761164484
 20
395.3448486328125
 30
0.0
 11
524.038077689506
 21
395.3448486328125
 31
0.0
  0
LINE
  5
195
330
1F
100
AcDbEntity
  8
D-6
  6
Continuous
 62
     6
370
     5
100
AcDbLine
 10
420.6522761164484
 20
389.0948898727829
 30
0.0
 11
524.038077689506
 21
389.0948898727829
 31
0.0
  0
LINE
  5
196
330
1F
100
AcDbEntity
  8
D-4
  6
Continuous
 62
     7
370
     9
100
AcDbLine
 10
645.9994341876057
 20
276.5948898727829
 30
0.0
 11
645.9994341876057
 21
414.0948486328125
 31
0.0
  0
LINE
  5
197
330
1F
100
AcDbEntity
  8
D-4
  6
Continuous
 62
     7
370
     9
100
AcDbLine
 10
534.9744229703335
 20
276.5948898727829
 30
0.0
 11
647.4994143924198
 21
276.5948898727829
 31
0.0
  0
LINE
  5
198
330
1F
100
AcDbEntity
  8
D-4
  6
Continuous
 62
     7
370
     9
100
AcDbLine
 10
289.6229924382391
 20
314.0948898727829
 30
0.0
 11
289.6229924382391
 21
419.0948651288008
 31
0.0
  0
LINE
  5
199
330
1F
100
AcDbEntity
  8
D-4
  6
Continuous
 62
     7
370
     9
100
AcDbLine
 10
342.7978103225297
 20
314.0948898727829
 30
0.0
 11
288.123012233425
 21
314.0948898727829
 31
0.0
  0
LINE
  5
19A
330
1F
100
AcDbEntity
  8
D-4
  6
Continuous
 62
     7
370
     9
100
AcDbLine
 10
404.3068963128169
 20
419.0948651288008
 30
0.0
 11
288.123012233425
 21
419.0948651288008
 31
0.0
  0
LINE
  5
19B
330
1F
100
AcDbEntity
  8
D-6
  6
Continuous
 62
     6
370
     5
100
AcDbLine
 10
519.2023612357477
 20
326.5949311127534
 30
0.0
 11
523.4454593142948
 21
326.5949311127534
 31
0.0
  0
LINE
  5
19C
330
1F
100
AcDbEntity
  8
D-6
  6
Continuous
 62
     6
370
     5
100
AcDbLine
 10
553.2176662135769
 20
326.5949311127534
 30
0.0
 11
624.748065020587
 21
326.5949311127534
 31
0.0
  0
LINE
  5
19D
330
1F
100
AcDbEntity
  8
D-6
  6
Continuous
 62
     6
370
     5
100
AcDbLine
 10
553.2176662135769
 20
316.5956404402449
 30
0.0
 11
624.748065020587
 21
245.0651179133236
 31
0.0
  0
LINE
  5
19E
330
1F
100
AcDbEntity
  8
D-6
  6
Continuous
 62
     6
370
     5
100
AcDbLine
 10
553.2176662135769
 20
321.8990181587839
 30
0.0
 11
624.748065020587
 21
250.3684337719068
 31
0.0
  0
LINE
  5
19F
330
1F
100
AcDbEntity
  8
D-4
  6
Continuous
 62
     7
370
     9
100
AcDbLine
 10
426.7021797798776
 20
308.4115683065879
 30
0.0
 11
426.7021797798776
 21
209.3025784879119
 31
0.0
  0
LINE
  5
1A0
330
1F
100
AcDbEntity
  8
D-4
  6
Continuous
 62
     7
370
     9
100
AcDbLine
 10
496.702410723712
 20
301.0908137141048
 30
0.0
 11
496.702410723712
 21
209.3025784879119
 31
0.0
  0
LINE
  5
1A1
330
1F
100
AcDbEntity
  8
D-0
  6
Continuous
 62
     7
370
     9
100
AcDbLine
 10
185.1350938951647
 20
-471.1003937592378
 30
0.0
 11
185.1350938951647
 21
-438.6006576950485
 31
0.0
  0
LINE
  5
1A2
330
1F
100
AcDbEntity
  8
D-0
  6
Continuous
 62
     7
370
     9
100
AcDbLine
 10
185.1350938951647
 20
-438.6006576950485
 30
0.0
 11
472.6351763751057
 21
-438.6006576950485
 31
0.0
  0
LINE
  5
1A3
330
1F
100
AcDbEntity
  8
D-0
  6
Continuous
 62
     7
370
     9
100
AcDbLine
 10
472.6351763751057
 20
-438.6006576950485
 30
0.0
 11
472.6351763751057
 21
-471.1003937592378
 31
0.0
  0
LINE
  5
1A4
330
1F
100
AcDbEntity
  8
D-0
  6
Continuous
 62
     7
370
     9
100
AcDbLine
 10
472.6351763751057
 20
-471.1003937592378
 30
0.0
 11
185.1350938951647
 21
-471.1003937592378
 31
0.0
  0
LINE
  5
1A5
330
1F
100
AcDbEntity
  8
D-0
  6
Continuous
 62
     3
370
     9
100
AcDbLine
 10
438.5674141548776
 20
-261.2606605323585
 30
0.0
 11
213.0670908335094
 21
-261.2606605323585
 31
0.0
  0
LINE
  5
1A6
330
1F
100
AcDbEntity
  8
D-0
  6
Continuous
 62
     3
370
     9
100
AcDbLine
 10
418.1150281751479
 20
-268.7605615564294
 30
0.0
 11
440.816642142631
 21
-268.7605615564294
 31
0.0
  0
LINE
  5
1A7
330
1F
100
AcDbEntity
  8
D-0
  6
Continuous
 62
     3
370
     9
100
AcDbLine
 10
416.9149450353675
 20
-268.7605615564294
 30
0.0
 11
210.8168730864655
 21
-268.7605615564294
 31
0.0
  0
LINE
  5
1A8
330
1F
100
AcDbEntity
  8
D-0
  6
JWW_DASHED3
 62
     3
370
     9
100
AcDbLine
 10
234.7198073928422
 20
-269.6640880687817
 30
0.0
 11
238.0669258736276
 21
-280.0106605323585
 31
0.0
  0
LINE
  5
1A9
330
1F
100
AcDbEntity
  8
D-0
  6
Continuous
 62
     3
370
     9
100
AcDbLine
 10
210.8168730864655
 20
-263.5106308395798
 30
0.0
 11
210.8168730864655
 21
-268.7605615564294
 31
0.0
  0
LINE
  5
1AA
330
1F
100
AcDbEntity
  8
D-0
  6
Continuous
 62
     3
370
     9
100
AcDbLine
 10
440.816642142631
 20
-263.5106308395798
 30
0.0
 11
440.816642142631
 21
-268.7605615564294
 31
0.0
  0
LINE
  5
1AB
330
1F
100
AcDbEntity
  8
D-0
  6
JWW_CENTER1
 62
     3
370
     9
100
AcDbLine
 10
325.8170050543708
 20
-171.4004145441828
 30
0.0
 11
325.8170050543708
 21
-400.806699185758
 31
0.0
  0
LINE
  5
1AC
330
1F
100
AcDbEntity
  8
D-0
  6
JWW_DASHED3
 62
     3
370
     9
100
AcDbLine
 10
416.9149450353675
 20
-269.6640880687817
 30
0.0
 11
413.5670842351141
 21
-280.0106605323585
 31
0.0
  0
LINE
  5
1AD
330
1F
100
AcDbEntity
  8
D-0
  6
JWW_DASHED3
 62
     3
370
     9
100
AcDbLine
 10
244.3167609137458
 20
-286.2607430122994
 30
0.0
 11
407.3172491949958
 21
-286.2607430122994
 31
0.0
  0
LINE
  5
1AE
330
1F
100
AcDbEntity
  8
D-0
  6
Continuous
 62
     3
370
     9
100
AcDbLine
 10
435.8168730864654
 20
-8.761188403980071
 30
0.0
 11
215.8171370222763
 21
-8.761188403980071
 31
0.0
  0
LINE
  5
1AF
330
1F
100
AcDbEntity
  8
D-0
  6
Continuous
 62
     3
370
     9
100
AcDbLine
 10
440.8171370222763
 20
-91.2613368678737
 30
0.0
 11
440.8171370222763
 21
-13.76114304001263
 31
0.0
  0
LINE
  5
1B0
330
1F
100
AcDbEntity
  8
D-0
  6
Continuous
 62
     3
370
     9
100
AcDbLine
 10
210.8168730864655
 20
-91.2613368678737
 30
0.0
 11
210.8168730864655
 21
-13.76114304001263
 31
0.0
  0
LINE
  5
1B1
330
1F
100
AcDbEntity
  8
D-0
  6
Continuous
 62
     3
370
     9
100
AcDbLine
 10
215.8171370222763
 20
-96.26135336386184
 30
0.0
 11
435.8168730864654
 21
-96.26135336386184
 31
0.0
  0
LINE
  5
1B2
330
1F
100
AcDbEntity
  8
D-0
  6
Continuous
 62
     3
370
     9
100
AcDbLine
 10
244.3170083535685
 20
-62.2613896550358
 30
0.0
 11
244.3170083535685
 21
-42.76139955262877
 31
0.0
  0
LINE
  5
1B3
330
1F
100
AcDbEntity
  8
D-0
  6
Continuous
 62
     3
370
     9
100
AcDbLine
 10
401.817156817462
 20
-37.26124531513932
 30
0.0
 11
249.8168532912797
 21
-37.26124531513932
 31
0.0
  0
LINE
  5
1B4
330
1F
100
AcDbEntity
  8
D-0
  6
Continuous
 62
     3
370
     9
100
AcDbLine
 10
407.3170017551732
 20
-62.2613896550358
 30
0.0
 11
407.3170017551732
 21
-42.76139955262877
 31
0.0
  0
LINE
  5
1B5
330
1F
100
AcDbEntity
  8
D-0
  6
Continuous
 62
     3
370
     9
100
AcDbLine
 10
401.817156817462
 20
-67.761234592747
 30
0.0
 11
249.8168532912797
 21
-67.761234592747
 31
0.0
  0
LINE
  5
1B6
330
1F
100
AcDbEntity
  8
D-0
  6
JWW_CENTER1
 62
     3
370
     9
100
AcDbLine
 10
325.8170050543708
 20
-112.0133724728146
 30
0.0
 11
325.8170050543708
 21
9.575154072529557
 31
0.0
  0
LINE
  5
1B7
330
1F
100
AcDbEntity
  8
D-0
  6
JWW_CENTER1
 62
     3
370
     9
100
AcDbLine
 10
193.3980993322425
 20
-52.51127088392096
 30
0.0
 11
459.0222745328336
 21
-52.51127088392096
 31
0.0
  0
LINE
  5
1B8
330
1F
100
AcDbEntity
  8
D-0
  6
Continuous
 62
     3
370
     9
100
AcDbLine
 10
245.8169885583825
 20
-360.010800748258
 30
0.0
 11
405.8170215503591
 21
-360.010800748258
 31
0.0
  0
LINE
  5
1B9
330
1F
100
AcDbEntity
  8
D-0
  6
Continuous
 62
     3
370
     9
100
AcDbLine
 10
245.8169885583825
 20
-366.2608832281989
 30
0.0
 11
405.8170215503591
 21
-366.2608832281989
 31
0.0
  0
LINE
  5
1BA
330
1F
100
AcDbEntity
  8
D-0
  6
Continuous
 62
     3
370
     9
100
AcDbLine
 10
288.3170050543708
 20
-356.5107644570841
 30
0.0
 11
295.8169060784417
 21
-359.2608106458509
 31
0.0
  0
LINE
  5
1BB
330
1F
100
AcDbEntity
  8
D-0
  6
Continuous
 62
     3
370
     9
100
AcDbLine
 10
363.3170050543708
 20
-356.5107644570841
 30
0.0
 11
355.8171040303
 21
-359.2608106458509
 31
0.0
  0
LINE
  5
1BC
330
1F
100
AcDbEntity
  8
D-0
  6
Continuous
 62
     3
370
     9
100
AcDbLine
 10
295.8169060784417
 20
-359.2608106458509
 30
0.0
 11
295.8169060784417
 21
-360.010800748258
 31
0.0
  0
LINE
  5
1BD
330
1F
100
AcDbEntity
  8
D-0
  6
Continuous
 62
     3
370
     9
100
AcDbLine
 10
355.8171040303
 20
-359.2608106458509
 30
0.0
 11
355.8171040303
 21
-360.010800748258
 31
0.0
  0
LINE
  5
1BE
330
1F
100
AcDbEntity
  8
D-0
  6
Continuous
 62
     3
370
     9
100
AcDbLine
 10
285.8168730864654
 20
-383.7608172442461
 30
0.0
 11
285.8168730864654
 21
-366.2608832281989
 31
0.0
  0
LINE
  5
1BF
330
1F
100
AcDbEntity
  8
D-0
  6
Continuous
 62
     3
370
     9
100
AcDbLine
 10
363.3170050543708
 20
-386.260701772329
 30
0.0
 11
288.3170050543708
 21
-386.260701772329
 31
0.0
  0
LINE
  5
1C0
330
1F
100
AcDbEntity
  8
D-0
  6
Continuous
 62
     3
370
     9
100
AcDbLine
 10
365.8171370222763
 20
-383.7608172442461
 30
0.0
 11
365.8171370222763
 21
-366.2608832281989
 31
0.0
  0
LINE
  5
1C1
330
1F
100
AcDbEntity
  8
D-0
  6
Continuous
 62
     3
370
     9
100
AcDbLine
 10
245.8169885583825
 20
-360.010800748258
 30
0.0
 11
245.8169885583825
 21
-371.260899724187
 31
0.0
  0
LINE
  5
1C2
330
1F
100
AcDbEntity
  8
D-0
  6
Continuous
 62
     3
370
     9
100
AcDbLine
 10
405.8170215503591
 20
-360.010800748258
 30
0.0
 11
405.8170215503591
 21
-371.260899724187
 31
0.0
  0
LINE
  5
1C3
330
1F
100
AcDbEntity
  8
D-0
  6
Continuous
 62
     3
370
     9
100
AcDbLine
 10
245.8169885583825
 20
-371.260899724187
 30
0.0
 11
285.1920875343117
 21
-371.260899724187
 31
0.0
  0
LINE
  5
1C4
330
1F
100
AcDbEntity
  8
D-0
  6
Continuous
 62
     3
370
     9
100
AcDbLine
 10
366.4421700142526
 20
-371.260899724187
 30
0.0
 11
405.8170215503591
 21
-371.260899724187
 31
0.0
  0
LINE
  5
1C5
330
1F
100
AcDbEntity
  8
D-0
  6
Continuous
 62
     3
370
     9
100
AcDbLine
 10
366.4421700142526
 20
-366.2608832281989
 30
0.0
 11
366.4421700142526
 21
-371.260899724187
 31
0.0
  0
LINE
  5
1C6
330
1F
100
AcDbEntity
  8
D-0
  6
Continuous
 62
     3
370
     9
100
AcDbLine
 10
285.1920875343117
 20
-366.2608832281989
 30
0.0
 11
285.1920875343117
 21
-371.260899724187
 31
0.0
  0
LINE
  5
1C7
330
1F
100
AcDbEntity
  8
D-0
  6
Continuous
 62
     3
370
     9
100
AcDbLine
 10
288.3170050543708
 20
-323.5107050715266
 30
0.0
 11
288.3170050543708
 21
-356.5107644570841
 31
0.0
  0
LINE
  5
1C8
330
1F
100
AcDbEntity
  8
D-0
  6
Continuous
 62
     3
370
     9
100
AcDbLine
 10
363.3170050543708
 20
-323.5512852024387
 30
0.0
 11
363.3170050543708
 21
-356.5107644570841
 31
0.0
  0
LINE
  5
1C9
330
1F
100
AcDbEntity
  8
D-0
  6
JWW_PHANTOM1
 62
     3
370
     9
100
AcDbLine
 10
246.0671502190667
 20
-186.2606605323585
 30
0.0
 11
405.566859889675
 21
-186.2606605323585
 31
0.0
  0
LINE
  5
1CA
330
1F
100
AcDbEntity
  8
D-0
  6
JWW_PHANTOM1
 62
     3
370
     9
100
AcDbLine
 10
246.0671502190667
 20
-197.5107595082875
 30
0.0
 11
405.566859889675
 21
-197.5107595082875
 31
0.0
  0
LINE
  5
1CB
330
1F
100
AcDbEntity
  8
D-0
  6
JWW_PHANTOM1
 62
     3
370
     9
100
AcDbLine
 10
246.0671502190667
 20
-186.2606605323585
 30
0.0
 11
246.0671502190667
 21
-197.5107595082875
 31
0.0
  0
LINE
  5
1CC
330
1F
100
AcDbEntity
  8
D-0
  6
JWW_PHANTOM1
 62
     3
370
     9
100
AcDbLine
 10
405.566859889675
 20
-186.2606605323585
 30
0.0
 11
405.566859889675
 21
-197.5107595082875
 31
0.0
  0
LINE
  5
1CD
330
1F
100
AcDbEntity
  8
D-0
  6
JWW_PHANTOM1
 62
     3
370
     9
100
AcDbLine
 10
402.5668994800466
 20
-197.5107595082875
 30
0.0
 11
402.5668994800466
 21
-203.7607182683171
 31
0.0
  0
LINE
  5
1CE
330
1F
100
AcDbEntity
  8
D-0
  6
JWW_PHANTOM1
 62
     3
370
     9
100
AcDbLine
 10
249.067110628695
 20
-197.5107595082875
 30
0.0
 11
249.067110628695
 21
-203.7607182683171
 31
0.0
  0
LINE
  5
1CF
330
1F
100
AcDbEntity
  8
D-0
  6
JWW_PHANTOM1
 62
     3
370
     9
100
AcDbLine
 10
293.3170215503591
 20
-203.7607182683171
 30
0.0
 11
249.067110628695
 21
-203.7607182683171
 31
0.0
  0
LINE
  5
1D0
330
1F
100
AcDbEntity
  8
D-0
  6
JWW_PHANTOM1
 62
     3
370
     9
100
AcDbLine
 10
358.3169885583825
 20
-203.7607182683171
 30
0.0
 11
402.5668994800466
 21
-203.7607182683171
 31
0.0
  0
LINE
  5
1D1
330
1F
100
AcDbEntity
  8
D-0
  6
JWW_PHANTOM1
 62
     3
370
     9
100
AcDbLine
 10
288.3170050543708
 20
-247.2606390875739
 30
0.0
 11
288.3170050543708
 21
-261.2606605323585
 31
0.0
  0
LINE
  5
1D2
330
1F
100
AcDbEntity
  8
D-0
  6
JWW_PHANTOM1
 62
     3
370
     9
100
AcDbLine
 10
300.8171700142526
 20
-228.7606770283467
 30
0.0
 11
300.8171700142526
 21
-211.2607430122994
 31
0.0
  0
LINE
  5
1D3
330
1F
100
AcDbEntity
  8
D-0
  6
JWW_PHANTOM1
 62
     3
370
     9
100
AcDbLine
 10
350.8173349741344
 20
-228.7606770283467
 30
0.0
 11
350.8173349741344
 21
-211.2607430122994
 31
0.0
  0
LINE
  5
1D4
330
1F
100
AcDbEntity
  8
D-0
  6
JWW_PHANTOM1
 62
     3
370
     9
100
AcDbLine
 10
363.3170050543708
 20
-247.3012192184861
 30
0.0
 11
363.3170050543708
 21
-261.2606605323585
 31
0.0
  0
LINE
  5
1D5
330
1F
100
AcDbEntity
  8
D-0
  6
JWW_PHANTOM1
 62
     3
370
     9
100
AcDbLine
 10
299.3171898094386
 20
-190.0107347643053
 30
0.0
 11
352.3168202993034
 21
-190.0107347643053
 31
0.0
  0
LINE
  5
1D6
330
1F
100
AcDbEntity
  8
D-0
  6
JWW_PHANTOM1
 62
     3
370
     9
100
AcDbLine
 10
299.3171898094386
 20
-190.0107347643053
 30
0.0
 11
299.3171898094386
 21
-197.5107595082875
 31
0.0
  0
LINE
  5
1D7
330
1F
100
AcDbEntity
  8
D-0
  6
JWW_PHANTOM1
 62
     3
370
     9
100
AcDbLine
 10
352.3168202993034
 20
-190.0107347643053
 30
0.0
 11
352.3168202993034
 21
-197.5107595082875
 31
0.0
  0
LINE
  5
1D8
330
1F
100
AcDbEntity
  8
D-0
  6
Continuous
 62
     3
370
     9
100
AcDbLine
 10
212.0669390704181
 20
-268.7605615564294
 30
0.0
 11
212.0669390704181
 21
-298.7606605323585
 31
0.0
  0
LINE
  5
1D9
330
1F
100
AcDbEntity
  8
D-0
  6
Continuous
 62
     3
370
     9
100
AcDbLine
 10
439.5670710383234
 20
-268.7605615564294
 30
0.0
 11
439.5670710383234
 21
-298.7606605323585
 31
0.0
  0
LINE
  5
1DA
330
1F
100
AcDbEntity
  8
D-0
  6
JWW_DASHED3
 62
     3
370
     9
100
AcDbLine
 10
434.5668071025128
 20
-268.7605615564294
 30
0.0
 11
434.5668071025128
 21
-298.7606605323585
 31
0.0
  0
LINE
  5
1DB
330
1F
100
AcDbEntity
  8
D-0
  6
JWW_DASHED3
 62
     3
370
     9
100
AcDbLine
 10
217.0672030062289
 20
-268.7605615564294
 30
0.0
 11
217.0672030062289
 21
-298.7606605323585
 31
0.0
  0
LINE
  5
1DC
330
1F
100
AcDbEntity
  8
D-0
  6
Continuous
 62
     3
370
     9
100
AcDbLine
 10
439.5670710383234
 20
-298.7606605323585
 30
0.0
 11
212.0669390704181
 21
-298.7606605323585
 31
0.0
  0
LINE
  5
1DD
330
1F
100
AcDbEntity
  8
D-0
  6
Continuous
 62
     3
370
     9
100
AcDbLine
 10
300.81692257443
 20
-305.0108667322107
 30
0.0
 11
300.81692257443
 21
-298.7606605323585
 31
0.0
  0
LINE
  5
1DE
330
1F
100
AcDbEntity
  8
D-0
  6
Continuous
 62
     3
370
     9
100
AcDbLine
 10
350.8168400944891
 20
-305.0108667322107
 30
0.0
 11
350.8168400944891
 21
-298.7606605323585
 31
0.0
  0
LINE
  5
1DF
330
1F
100
AcDbEntity
  8
D-0
  6
JWW_DASHED3
 62
     3
370
     9
100
AcDbLine
 10
350.8168400944891
 20
-298.7606605323585
 30
0.0
 11
350.8168400944891
 21
-286.2607430122994
 31
0.0
  0
LINE
  5
1E0
330
1F
100
AcDbEntity
  8
D-0
  6
JWW_DASHED3
 62
     3
370
     9
100
AcDbLine
 10
300.81692257443
 20
-298.7606605323585
 30
0.0
 11
300.81692257443
 21
-286.2607430122994
 31
0.0
  0
LINE
  5
1E1
330
1F
100
AcDbEntity
  8
D-4
  6
Continuous
 62
     7
370
     9
100
AcDbLine
 10
494.0028422587628
 20
-298.7606605323585
 30
0.0
 11
494.0028422587628
 21
-261.2606605323585
 31
0.0
  0
LINE
  5
1E2
330
1F
100
AcDbEntity
  8
D-4
  6
Continuous
 62
     7
370
     9
100
AcDbLine
 10
451.6258033546242
 20
-298.7606605323585
 30
0.0
 11
495.5028224635768
 21
-298.7606605323585
 31
0.0
  0
LINE
  5
1E3
330
1F
100
AcDbEntity
  8
D-4
  6
Continuous
 62
     7
370
     9
100
AcDbLine
 10
451.6258033546242
 20
-261.2606605323585
 30
0.0
 11
495.5028224635768
 21
-261.2606605323585
 31
0.0
  0
LINE
  5
1E4
330
1F
100
AcDbEntity
  8
D-6
  6
Continuous
 62
     6
370
     5
100
AcDbLine
 10
420.6522761164484
 20
376.5948486328125
 30
0.0
 11
420.6522761164484
 21
414.0948486328125
 31
0.0
  0
LINE
  5
1E5
330
1F
100
AcDbEntity
  8
D-6
  6
Continuous
 62
     6
370
     5
100
AcDbLine
 10
420.6522761164484
 20
382.8449311127534
 30
0.0
 11
524.038077689506
 21
382.8449311127534
 31
0.0
  0
LINE
  5
1E6
330
1F
100
AcDbEntity
  8
D-6
  6
Continuous
 62
     6
370
     5
100
AcDbLine
 10
414.2025096996412
 20
376.5948486328125
 30
0.0
 11
523.9614950644005
 21
376.5948486328125
 31
0.0
  0
LINE
  5
1E7
330
1F
100
AcDbEntity
  8
D-6
  6
Continuous
 62
     6
370
     5
100
AcDbLine
 10
553.5764539563979
 20
376.5948486328125
 30
0.0
 11
624.748065020587
 21
376.5948486328125
 31
0.0
  0
ARC
  5
1E8
330
1F
100
AcDbEntity
  8
0-1
  6
Continuous
 62
     2
370
     9
100
AcDbCircle
 10
-178.2973418364654
 20
297.7432003536741
 30
0.0
 40
1.999999904954756
100
AcDbArc
 50
0.0
 51
90.0
  0
ARC
  5
1E9
330
1F
100
AcDbEntity
  8
0-1
  6
JWW_DASHED3
 62
     2
370
     9
100
AcDbCircle
 10
-178.2973418364654
 20
276.7432300464527
 30
0.0
 40
1.999999904954756
100
AcDbArc
 50
270.0
 51
0.0
  0
ARC
  5
1EA
330
1F
100
AcDbEntity
  8
0-1
  6
JWW_DASHED3
 62
     2
370
     9
100
AcDbCircle
 10
-190.997314453125
 20
269.4431366791596
 30
0.0
 40
1.999999904954756
100
AcDbArc
 50
270.0
 51
0.0
  0
ARC
  5
1EB
330
1F
100
AcDbEntity
  8
0-1
  6
JWW_DASHED3
 62
     2
370
     9
100
AcDbCircle
 10
-466.9973837362753
 20
269.4431366791596
 30
0.0
 40
1.999999904954756
100
AcDbArc
 50
270.0
 51
0.0
  0
ARC
  5
1EC
330
1F
100
AcDbEntity
  8
0-1
  6
JWW_DASHED3
 62
     2
370
     9
100
AcDbCircle
 10
-454.2972873997044
 20
276.7432300464527
 30
0.0
 40
1.999999904954756
100
AcDbArc
 50
270.0
 51
0.0
  0
ARC
  5
1ED
330
1F
100
AcDbEntity
  8
0-1
  6
Continuous
 62
     2
370
     9
100
AcDbCircle
 10
-454.2972873997044
 20
297.7432003536741
 30
0.0
 40
1.999999904954756
100
AcDbArc
 50
0.0
 51
90.0
  0
ARC
  5
1EE
330
1F
100
AcDbEntity
  8
0-1
  6
Continuous
 62
     2
370
     9
100
AcDbCircle
 10
-594.297254407728
 20
195.7431855072846
 30
0.0
 40
1.999999904954756
100
AcDbArc
 50
90.0
 51
180.0
  0
ARC
  5
1EF
330
1F
100
AcDbEntity
  8
0-1
  6
JWW_DASHED3
 62
     2
370
     9
100
AcDbCircle
 10
-573.2972841005067
 20
195.7431855072846
 30
0.0
 40
1.999999904954756
100
AcDbArc
 50
0.0
 51
90.0
  0
ARC
  5
1F0
330
1F
100
AcDbEntity
  8
0-1
  6
JWW_DASHED3
 62
     2
370
     9
100
AcDbCircle
 10
-565.997314453125
 20
183.043212890625
 30
0.0
 40
1.999999904954756
100
AcDbArc
 50
0.0
 51
90.0
  0
ARC
  5
1F1
330
1F
100
AcDbEntity
  8
0-1
  6
JWW_DASHED3
 62
     2
370
     9
100
AcDbCircle
 10
-565.997314453125
 20
-92.95685639252525
 30
0.0
 40
1.999999904954756
100
AcDbArc
 50
0.0
 51
90.0
  0
ARC
  5
1F2
330
1F
100
AcDbEntity
  8
0-1
  6
JWW_DASHED3
 62
     2
370
     9
100
AcDbCircle
 10
-573.2972841005067
 20
-80.25676005595429
 30
0.0
 40
1.999999904954756
100
AcDbArc
 50
0.0
 51
90.0
  0
ARC
  5
1F3
330
1F
100
AcDbEntity
  8
0-1
  6
Continuous
 62
     2
370
     9
100
AcDbCircle
 10
-594.297254407728
 20
-80.25676005595429
 30
0.0
 40
1.999999904954756
100
AcDbArc
 50
90.0
 51
180.0
  0
ARC
  5
1F4
330
1F
100
AcDbEntity
  8
0-1
  6
Continuous
 62
     2
370
     9
100
AcDbCircle
 10
-492.2972395613386
 20
-220.2567889239336
 30
0.0
 40
1.999999904954756
100
AcDbArc
 50
180.0
 51
270.0
  0
ARC
  5
1F5
330
1F
100
AcDbEntity
  8
0-1
  6
JWW_DASHED3
 62
     2
370
     9
100
AcDbCircle
 10
-492.2972395613386
 20
-199.2568186167124
 30
0.0
 40
1.999999904954756
100
AcDbArc
 50
90.0
 51
180.0
  0
ARC
  5
1F6
330
1F
100
AcDbEntity
  8
0-1
  6
JWW_DASHED3
 62
     2
370
     9
100
AcDbCircle
 10
-479.5972669446791
 20
-191.956787109375
 30
0.0
 40
1.999999904954756
100
AcDbArc
 50
90.0
 51
180.0
  0
ARC
  5
1F7
330
1F
100
AcDbEntity
  8
0-1
  6
JWW_DASHED3
 62
     2
370
     9
100
AcDbCircle
 10
-203.5971976615286
 20
-191.956787109375
 30
0.0
 40
1.999999904954756
100
AcDbArc
 50
90.0
 51
180.0
  0
ARC
  5
1F8
330
1F
100
AcDbEntity
  8
0-1
  6
JWW_DASHED3
 62
     2
370
     9
100
AcDbCircle
 10
-216.2972939980996
 20
-199.2568186167124
 30
0.0
 40
1.999999904954756
100
AcDbArc
 50
90.0
 51
180.0
  0
ARC
  5
1F9
330
1F
100
AcDbEntity
  8
0-1
  6
Continuous
 62
     2
370
     9
100
AcDbCircle
 10
-216.2972939980996
 20
-220.2567889239336
 30
0.0
 40
1.999999904954756
100
AcDbArc
 50
180.0
 51
270.0
  0
ARC
  5
1FA
330
1F
100
AcDbEntity
  8
0-1
  6
Continuous
 62
     2
370
     9
100
AcDbCircle
 10
-76.2973269900759
 20
-118.2567122175887
 30
0.0
 40
1.999999904954756
100
AcDbArc
 50
270.0
 51
0.0
  0
ARC
  5
1FB
330
1F
100
AcDbEntity
  8
0-1
  6
JWW_DASHED3
 62
     2
370
     9
100
AcDbCircle
 10
-97.29729729729726
 20
-118.2567122175887
 30
0.0
 40
1.999999904954756
100
AcDbArc
 50
180.0
 51
270.0
  0
ARC
  5
1FC
330
1F
100
AcDbEntity
  8
0-1
  6
JWW_DASHED3
 62
     2
370
     9
100
AcDbCircle
 10
-104.5973288046346
 20
-105.556739600929
 30
0.0
 40
1.999999904954756
100
AcDbArc
 50
180.0
 51
270.0
  0
ARC
  5
1FD
330
1F
100
AcDbEntity
  8
0-1
  6
JWW_DASHED3
 62
     2
370
     9
100
AcDbCircle
 10
-104.5973288046346
 20
170.44320596231
 30
0.0
 40
1.999999904954756
100
AcDbArc
 50
180.0
 51
270.0
  0
ARC
  5
1FE
330
1F
100
AcDbEntity
  8
0-1
  6
JWW_DASHED3
 62
     2
370
     9
100
AcDbCircle
 10
-97.29729729729726
 20
157.7432333456504
 30
0.0
 40
1.999999904954756
100
AcDbArc
 50
180.0
 51
270.0
  0
ARC
  5
1FF
330
1F
100
AcDbEntity
  8
0-1
  6
Continuous
 62
     2
370
     9
100
AcDbCircle
 10
-76.2973269900759
 20
157.7432333456504
 30
0.0
 40
1.999999904954756
100
AcDbArc
 50
270.0
 51
0.0
  0
ARC
  5
200
330
1F
100
AcDbEntity
  8
0-2
  6
Continuous
 62
     3
370
     9
100
AcDbCircle
 10
-480.7972263645481
 20
-5.256883775865617
 30
0.0
 40
1.999999904954756
100
AcDbArc
 50
180.0
 51
270.0
  0
ARC
  5
201
330
1F
100
AcDbEntity
  8
0-2
  6
Continuous
 62
     3
370
     9
100
AcDbCircle
 10
-449.7972230653505
 20
-5.256883775865617
 30
0.0
 40
1.999999904954756
100
AcDbArc
 50
270.0
 51
0.0
  0
ARC
  5
202
330
1F
100
AcDbEntity
  8
0-2
  6
Continuous
 62
     3
370
     9
100
AcDbCircle
 10
-449.7972230653505
 20
82.7432333456504
 30
0.0
 40
1.999999904954756
100
AcDbArc
 50
0.0
 51
90.0
  0
ARC
  5
203
330
1F
100
AcDbEntity
  8
0-2
  6
Continuous
 62
     3
370
     9
100
AcDbCircle
 10
-480.7972263645481
 20
82.7432333456504
 30
0.0
 40
1.999999904954756
100
AcDbArc
 50
90.0
 51
180.0
  0
ARC
  5
204
330
1F
100
AcDbEntity
  8
0-2
  6
Continuous
 62
     3
370
     9
100
AcDbCircle
 10
-469.1973711993243
 20
8.343151195629304
 30
0.0
 40
2.20000002835248
100
AcDbArc
 50
180.0
 51
270.0
  0
ARC
  5
205
330
1F
100
AcDbEntity
  8
0-2
  6
Continuous
 62
     3
370
     9
100
AcDbCircle
 10
-469.1973711993243
 20
69.14319837415547
 30
0.0
 40
2.20000002835248
100
AcDbArc
 50
90.0
 51
180.0
  0
ARC
  5
206
330
1F
100
AcDbEntity
  8
0-2
  6
Continuous
 62
     3
370
     9
100
AcDbCircle
 10
-461.3972019504856
 20
69.14319837415547
 30
0.0
 40
2.20000002835248
100
AcDbArc
 50
0.0
 51
90.0
  0
ARC
  5
207
330
1F
100
AcDbEntity
  8
0-2
  6
Continuous
 62
     3
370
     9
100
AcDbCircle
 10
-461.3972019504856
 20
8.343151195629304
 30
0.0
 40
2.20000002835248
100
AcDbArc
 50
270.0
 51
0.0
  0
ARC
  5
208
330
1F
100
AcDbEntity
  8
0-2
  6
Continuous
 62
     3
370
     9
100
AcDbCircle
 10
-465.2972247149493
 20
38.74323664484805
 30
0.0
 40
12.49999871125092
100
AcDbArc
 50
299.2091369628906
 51
60.7908630371094
  0
ARC
  5
209
330
1F
100
AcDbEntity
  8
0-2
  6
Continuous
 62
     3
370
     9
100
AcDbCircle
 10
-465.2972247149493
 20
38.74323664484805
 30
0.0
 40
12.49999871125092
100
AcDbArc
 50
119.2092742919922
 51
240.7907257080078
  0
ARC
  5
20A
330
1F
100
AcDbEntity
  8
0-2
  6
Continuous
 62
     3
370
     9
100
AcDbCircle
 10
-220.7972346125422
 20
-5.256883775865617
 30
0.0
 40
1.999999904954756
100
AcDbArc
 50
180.0
 51
270.0
  0
ARC
  5
20B
330
1F
100
AcDbEntity
  8
0-2
  6
Continuous
 62
     3
370
     9
100
AcDbCircle
 10
-189.7972313133445
 20
-5.256883775865617
 30
0.0
 40
1.999999904954756
100
AcDbArc
 50
270.0
 51
0.0
  0
ARC
  5
20C
330
1F
100
AcDbEntity
  8
0-2
  6
Continuous
 62
     3
370
     9
100
AcDbCircle
 10
-189.7972313133445
 20
82.7432333456504
 30
0.0
 40
1.999999904954756
100
AcDbArc
 50
0.0
 51
90.0
  0
ARC
  5
20D
330
1F
100
AcDbEntity
  8
0-2
  6
Continuous
 62
     3
370
     9
100
AcDbCircle
 10
-220.7972346125422
 20
82.7432333456504
 30
0.0
 40
1.999999904954756
100
AcDbArc
 50
90.0
 51
180.0
  0
ARC
  5
20E
330
1F
100
AcDbEntity
  8
0-2
  6
Continuous
 62
     3
370
     9
100
AcDbCircle
 10
-209.197255727407
 20
8.343151195629304
 30
0.0
 40
2.20000002835248
100
AcDbArc
 50
180.0
 51
270.0
  0
ARC
  5
20F
330
1F
100
AcDbEntity
  8
0-2
  6
Continuous
 62
     3
370
     9
100
AcDbCircle
 10
-209.197255727407
 20
69.14319837415547
 30
0.0
 40
2.20000002835248
100
AcDbArc
 50
90.0
 51
180.0
  0
ARC
  5
210
330
1F
100
AcDbEntity
  8
0-2
  6
Continuous
 62
     3
370
     9
100
AcDbCircle
 10
-201.3972101984797
 20
69.14319837415547
 30
0.0
 40
2.20000002835248
100
AcDbArc
 50
0.0
 51
90.0
  0
ARC
  5
211
330
1F
100
AcDbEntity
  8
0-2
  6
Continuous
 62
     3
370
     9
100
AcDbCircle
 10
-201.3972101984797
 20
8.343151195629304
 30
0.0
 40
2.20000002835248
100
AcDbArc
 50
270.0
 51
0.0
  0
ARC
  5
212
330
1F
100
AcDbEntity
  8
0-2
  6
Continuous
 62
     3
370
     9
100
AcDbCircle
 10
-205.2973566828547
 20
38.74323664484805
 30
0.0
 40
12.49999871125092
100
AcDbArc
 50
299.2091369628906
 51
60.7908630371094
  0
ARC
  5
213
330
1F
100
AcDbEntity
  8
0-2
  6
Continuous
 62
     3
370
     9
100
AcDbCircle
 10
-205.2973566828547
 20
38.74323664484805
 30
0.0
 40
12.49999871125092
100
AcDbArc
 50
119.2092742919922
 51
240.7907257080078
  0
ARC
  5
214
330
1F
100
AcDbEntity
  8
D-1
  6
Continuous
 62
     2
370
     9
100
AcDbCircle
 10
398.5771797798776
 20
342.8450465846707
 30
0.0
 40
2.499999790578275
100
AcDbArc
 50
90.0
 51
180.0
  0
ARC
  5
215
330
1F
100
AcDbEntity
  8
D-1
  6
Continuous
 62
     2
370
     9
100
AcDbCircle
 10
406.7023612357477
 20
342.8450465846707
 30
0.0
 40
2.499999790578275
100
AcDbArc
 50
7.016464233398438
 51
90.0
  0
ARC
  5
216
330
1F
100
AcDbEntity
  8
D-1
  6
Continuous
 62
     2
370
     9
100
AcDbCircle
 10
406.7023612357477
 20
320.3448486328125
 30
0.0
 40
2.499999790578275
100
AcDbArc
 50
270.0
 51
0.0
  0
ARC
  5
217
330
1F
100
AcDbEntity
  8
D-1
  6
Continuous
 62
     2
370
     9
100
AcDbCircle
 10
392.3273447397594
 20
320.3448486328125
 30
0.0
 40
2.499999790578275
100
AcDbArc
 50
180.0
 51
270.0
  0
ARC
  5
218
330
1F
100
AcDbEntity
  8
D-1
  6
Continuous
 62
     2
370
     9
100
AcDbCircle
 10
361.0771797798776
 20
320.3448486328125
 30
0.0
 40
2.499999790578275
100
AcDbArc
 50
270.0
 51
0.0
  0
ARC
  5
219
330
1F
100
AcDbEntity
  8
D-1
  6
Continuous
 62
     2
370
     9
100
AcDbCircle
 10
350.4523612357477
 20
320.3448486328125
 30
0.0
 40
2.499999790578275
100
AcDbArc
 50
180.0
 51
270.0
  0
ARC
  5
21A
330
1F
100
AcDbEntity
  8
D-1
  6
Continuous
 62
     2
370
     9
100
AcDbCircle
 10
350.4523612357477
 20
342.8450465846707
 30
0.0
 40
2.499999790578275
100
AcDbArc
 50
90.0
 51
180.0
  0
ARC
  5
21B
330
1F
100
AcDbEntity
  8
D-1
  6
Continuous
 62
     2
370
     9
100
AcDbCircle
 10
354.8273447397594
 20
342.8450465846707
 30
0.0
 40
2.499999790578275
100
AcDbArc
 50
7.016464233398438
 51
90.0
  0
ARC
  5
21C
330
1F
100
AcDbEntity
  8
D-1
  6
Continuous
 62
     2
370
     9
100
AcDbCircle
 10
389.8272127718539
 20
332.8448898727829
 30
0.0
 40
2.499999790578275
100
AcDbArc
 50
270.0
 51
0.0
  0
ARC
  5
21D
330
1F
100
AcDbEntity
  8
D-1
  6
Continuous
 62
     2
370
     9
100
AcDbCircle
 10
363.5773117477831
 20
332.8448898727829
 30
0.0
 40
2.499999790578275
100
AcDbArc
 50
180.0
 51
270.0
  0
ARC
  5
21E
330
1F
100
AcDbEntity
  8
D-1
  6
Continuous
 62
     2
370
     9
100
AcDbCircle
 10
389.8272127718539
 20
332.8448898727829
 30
0.0
 40
6.250000322187269
100
AcDbArc
 50
270.0
 51
0.0
  0
ARC
  5
21F
330
1F
100
AcDbEntity
  8
D-1
  6
Continuous
 62
     2
370
     9
100
AcDbCircle
 10
363.5773117477831
 20
332.8448898727829
 30
0.0
 40
6.250000322187269
100
AcDbArc
 50
180.0
 51
270.0
  0
ARC
  5
220
330
1F
100
AcDbEntity
  8
D-1
  6
Continuous
 62
     2
370
     9
100
AcDbCircle
 10
376.7025096996412
 20
376.5948486328125
 30
0.0
 40
35.79455195246516
100
AcDbArc
 50
257.9052581787109
 51
282.0947265625
  0
ARC
  5
221
330
1F
100
AcDbEntity
  8
D-1
  6
Continuous
 62
     2
370
     9
100
AcDbCircle
 10
376.7025096996412
 20
376.5948486328125
 30
0.0
 40
37.83683519105654
100
AcDbArc
 50
248.690673828125
 51
291.3093109130859
  0
ARC
  5
222
330
1F
100
AcDbEntity
  8
D-1
  6
Continuous
 62
     2
370
     9
100
AcDbCircle
 10
429.2023117477831
 20
315.7738927892737
 30
0.0
 40
4.99999958115655
100
AcDbArc
 50
7.016464233398438
 51
45.0
  0
ARC
  5
223
330
1F
100
AcDbEntity
  8
D-1
  6
Continuous
 62
     2
370
     9
100
AcDbCircle
 10
451.8801714922932
 20
342.8450465846707
 30
0.0
 40
12.50000064437454
100
AcDbArc
 50
225.0
 51
270.0
  0
ARC
  5
224
330
1F
100
AcDbEntity
  8
D-1
  6
Continuous
 62
     2
370
     9
100
AcDbCircle
 10
434.2023282437711
 20
341.594980600718
 30
0.0
 40
9.000004948796454
100
AcDbArc
 50
320.6364898681641
 51
90.00000000000003
  0
ARC
  5
225
330
1F
100
AcDbEntity
  8
D-1
  6
JWW_DASHED3
 62
     2
370
     9
100
AcDbCircle
 10
434.2023282437711
 20
341.594980600718
 30
0.0
 40
9.000004948796454
100
AcDbArc
 50
270.0
 51
320.6364898681641
  0
ARC
  5
226
330
1F
100
AcDbEntity
  8
D-1
  6
Continuous
 62
     2
370
     9
100
AcDbCircle
 10
491.702394227724
 20
325.3448651288008
 30
0.0
 40
4.99999958115655
100
AcDbArc
 50
0.0
 51
90.0
  0
ARC
  5
227
330
1F
100
AcDbEntity
  8
D-0
  6
JWW_DASHED3
 62
     3
370
     9
100
AcDbCircle
 10
244.3167609137458
 20
-280.0106605323585
 30
0.0
 40
6.250000322187269
100
AcDbArc
 50
180.0
 51
270.0
  0
ARC
  5
228
330
1F
100
AcDbEntity
  8
D-0
  6
JWW_DASHED3
 62
     3
370
     9
100
AcDbCircle
 10
407.3172491949958
 20
-280.0106605323585
 30
0.0
 40
6.250000322187269
100
AcDbArc
 50
270.0
 51
0.0
  0
ARC
  5
229
330
1F
100
AcDbEntity
  8
D-0
  6
Continuous
 62
     3
370
     9
100
AcDbCircle
 10
213.0670908335094
 20
-263.5106308395798
 30
0.0
 40
2.249999787356403
100
AcDbArc
 50
90.0
 51
180.0
  0
ARC
  5
22A
330
1F
100
AcDbEntity
  8
D-0
  6
Continuous
 62
     3
370
     9
100
AcDbCircle
 10
438.5674141548776
 20
-263.5106308395798
 30
0.0
 40
2.249999787356403
100
AcDbArc
 50
0.0
 51
90.0
  0
ARC
  5
22B
330
1F
100
AcDbEntity
  8
D-0
  6
JWW_DASHED3
 62
     3
370
     9
100
AcDbCircle
 10
418.1150281751479
 20
-270.0106275403822
 30
0.0
 40
1.249999895289138
100
AcDbArc
 50
90.0
 51
163.8992004394532
  0
ARC
  5
22C
330
1F
100
AcDbEntity
  8
D-0
  6
JWW_DASHED3
 62
     3
370
     9
100
AcDbCircle
 10
233.5184870539484
 20
-270.0106275403822
 30
0.0
 40
1.249999895289138
100
AcDbArc
 50
16.10079956054688
 51
90.0
  0
ARC
  5
22D
330
1F
100
AcDbEntity
  8
D-0
  6
Continuous
 62
     3
370
     9
100
AcDbCircle
 10
215.8171370222763
 20
-13.76114304001263
 30
0.0
 40
5.000000064437454
100
AcDbArc
 50
90.0
 51
180.0
  0
ARC
  5
22E
330
1F
100
AcDbEntity
  8
D-0
  6
Continuous
 62
     3
370
     9
100
AcDbCircle
 10
435.8168730864654
 20
-13.76114304001263
 30
0.0
 40
5.000000064437454
100
AcDbArc
 50
0.0
 51
90.0
  0
ARC
  5
22F
330
1F
100
AcDbEntity
  8
D-0
  6
Continuous
 62
     3
370
     9
100
AcDbCircle
 10
435.8168730864654
 20
-91.2613368678737
 30
0.0
 40
5.000000064437454
100
AcDbArc
 50
270.0
 51
0.0
  0
ARC
  5
230
330
1F
100
AcDbEntity
  8
D-0
  6
Continuous
 62
     3
370
     9
100
AcDbCircle
 10
215.8171370222763
 20
-91.2613368678737
 30
0.0
 40
5.000000064437454
100
AcDbArc
 50
180.0
 51
270.0
  0
ARC
  5
231
330
1F
100
AcDbEntity
  8
D-0
  6
Continuous
 62
     3
370
     9
100
AcDbCircle
 10
249.8168532912797
 20
-42.76139955262877
 30
0.0
 40
5.5000000708812
100
AcDbArc
 50
90.0
 51
180.0
  0
ARC
  5
232
330
1F
100
AcDbEntity
  8
D-0
  6
Continuous
 62
     3
370
     9
100
AcDbCircle
 10
249.8168532912797
 20
-62.2613896550358
 30
0.0
 40
5.5000000708812
100
AcDbArc
 50
180.0
 51
270.0
  0
ARC
  5
233
330
1F
100
AcDbEntity
  8
D-0
  6
Continuous
 62
     3
370
     9
100
AcDbCircle
 10
401.817156817462
 20
-42.76139955262877
 30
0.0
 40
5.5000000708812
100
AcDbArc
 50
0.0
 51
90.0
  0
ARC
  5
234
330
1F
100
AcDbEntity
  8
D-0
  6
Continuous
 62
     3
370
     9
100
AcDbCircle
 10
401.817156817462
 20
-62.2613896550358
 30
0.0
 40
5.5000000708812
100
AcDbArc
 50
270.0
 51
0.0
  0
ARC
  5
235
330
1F
100
AcDbEntity
  8
D-0
  6
Continuous
 62
     3
370
     9
100
AcDbCircle
 10
288.3170050543708
 20
-383.7608172442461
 30
0.0
 40
2.500000032218727
100
AcDbArc
 50
180.0
 51
270.0
  0
ARC
  5
236
330
1F
100
AcDbEntity
  8
D-0
  6
Continuous
 62
     3
370
     9
100
AcDbCircle
 10
363.3170050543708
 20
-383.7608172442461
 30
0.0
 40
2.500000032218727
100
AcDbArc
 50
270.0
 51
0.0
  0
ARC
  5
237
330
1F
100
AcDbEntity
  8
D-0
  6
Continuous
 62
     3
370
     9
100
AcDbCircle
 10
293.3170215503591
 20
-305.0108667322107
 30
0.0
 40
7.500000096656181
100
AcDbArc
 50
292.0240478515625
 51
0.0000000000000382
  0
ARC
  5
238
330
1F
100
AcDbEntity
  8
D-0
  6
Continuous
 62
     3
370
     9
100
AcDbCircle
 10
300.8171700142526
 20
-323.5512852024387
 30
0.0
 40
12.50000064437454
100
AcDbArc
 50
112.0243377685547
 51
180.0
  0
ARC
  5
239
330
1F
100
AcDbEntity
  8
D-0
  6
Continuous
 62
     3
370
     9
100
AcDbCircle
 10
350.8168400944891
 20
-323.5512852024387
 30
0.0
 40
12.50000064437454
100
AcDbArc
 50
0.0
 51
67.9756622314453
  0
ARC
  5
23A
330
1F
100
AcDbEntity
  8
D-0
  6
Continuous
 62
     3
370
     9
100
AcDbCircle
 10
358.3169885583825
 20
-305.0108667322107
 30
0.0
 40
7.500000096656181
100
AcDbArc
 50
180.0
 51
247.9759521484375
  0
ARC
  5
23B
330
1F
100
AcDbEntity
  8
D-0
  6
Continuous
 62
     3
370
     9
100
AcDbCircle
 10
325.8170050543708
 20
-52.51127088392096
 30
0.0
 40
32.49999896900074
100
AcDbArc
 50
207.9842987060547
 51
332.0157012939453
  0
ARC
  5
23C
330
1F
100
AcDbEntity
  8
D-0
  6
Continuous
 62
     3
370
     9
100
AcDbCircle
 10
325.8170050543708
 20
-52.51127088392096
 30
0.0
 40
32.49999896900074
100
AcDbArc
 50
27.98429870605469
 51
152.0157012939453
  0
ARC
  5
23D
330
1F
100
AcDbEntity
  8
D-0
  6
JWW_PHANTOM1
 62
     3
370
     9
100
AcDbCircle
 10
293.3170215503591
 20
-211.2607430122994
 30
0.0
 40
7.500000096656181
100
AcDbArc
 50
0.0
 51
90.0
  0
ARC
  5
23E
330
1F
100
AcDbEntity
  8
D-0
  6
JWW_PHANTOM1
 62
     3
370
     9
100
AcDbCircle
 10
358.3169885583825
 20
-211.2607430122994
 30
0.0
 40
7.500000096656181
100
AcDbArc
 50
90.0
 51
180.0
  0
ARC
  5
23F
330
1F
100
AcDbEntity
  8
D-0
  6
JWW_PHANTOM1
 62
     3
370
     9
100
AcDbCircle
 10
358.3169885583825
 20
-228.7606770283467
 30
0.0
 40
7.500000096656181
100
AcDbArc
 50
180.0
 51
247.9759521484375
  0
ARC
  5
240
330
1F
100
AcDbEntity
  8
D-0
  6
JWW_PHANTOM1
 62
     3
370
     9
100
AcDbCircle
 10
350.8173349741344
 20
-247.3012192184861
 30
0.0
 40
12.50000064437454
100
AcDbArc
 50
0.0
 51
67.97628784179688
  0
ARC
  5
241
330
1F
100
AcDbEntity
  8
D-0
  6
JWW_PHANTOM1
 62
     3
370
     9
100
AcDbCircle
 10
293.3170215503591
 20
-228.7606770283467
 30
0.0
 40
7.500000096656181
100
AcDbArc
 50
292.0240478515625
 51
0.0000000000000382
  0
ARC
  5
242
330
1F
100
AcDbEntity
  8
D-0
  6
JWW_PHANTOM1
 62
     3
370
     9
100
AcDbCircle
 10
300.81692257443
 20
-247.3012192184861
 30
0.0
 40
12.50000064437454
100
AcDbArc
 50
112.0237121582031
 51
180.0
  0
TEXT
  5
243
330
1F
100
AcDbEntity
  8
0-4
  6
Continuous
 62
     2
370
     9
100
AcDbText
 10
-435.8137285387194
 20
-266.5044150522593
 30
0.0
 40
15.24
  1
平面図　Ｓ＝１：５
 41
1.111111111111111
  7
ＭＳ ゴシック
100
AcDbText
  0
TEXT
  5
244
330
1F
100
AcDbEntity
  8
0-4
  6
Continuous
 62
     2
370
     9
100
AcDbText
 10
-351.547290698902
 20
347.3107688450169
 30
0.0
 40
15.24
  1
400
 41
1.083333333333333
  7
ＭＳ ゴシック
100
AcDbText
  0
TEXT
  5
245
330
1F
100
AcDbEntity
  8
0-4
  6
Continuous
 62
     2
370
     9
100
AcDbText
 10
-351.5473525588576
 20
387.2251629143793
 30
0.0
 40
15.24
  1
450
 41
1.083333333333333
  7
ＭＳ ゴシック
100
AcDbText
  0
TEXT
  5
246
330
1F
100
AcDbEntity
  8
0-4
  6
Continuous
 62
     2
370
     9
100
AcDbText
 10
-351.547290698902
 20
418.5698498865077
 30
0.0
 40
15.24
  1
476
 41
1.083333333333333
  7
ＭＳ ゴシック
100
AcDbText
  0
TEXT
  5
247
330
1F
100
AcDbEntity
  8
0-4
  6
Continuous
 62
     2
370
     9
100
AcDbText
 10
-643.8648847590266
 20
22.49317478489239
 30
0.0
 40
15.24
  1
400
 50
90.0
 41
1.083333333333333
  7
ＭＳ ゴシック
100
AcDbText
  0
TEXT
  5
248
330
1F
100
AcDbEntity
  8
0-4
  6
Continuous
 62
     2
370
     9
100
AcDbText
 10
-683.779278828389
 20
22.49311292493665
 30
0.0
 40
15.24
  1
450
 50
90.0
 41
1.083333333333333
  7
ＭＳ ゴシック
100
AcDbText
  0
TEXT
  5
249
330
1F
100
AcDbEntity
  8
0-4
  6
Continuous
 62
     2
370
     9
100
AcDbText
 10
-715.1239658005173
 20
22.49317478489239
 30
0.0
 40
15.24
  1
476
 50
90.0
 41
1.083333333333333
  7
ＭＳ ゴシック
100
AcDbText
  0
TEXT
  5
24A
330
1F
100
AcDbEntity
  8
D-4
  6
Continuous
 62
     2
370
     9
100
AcDbText
 10
214.4250735721073
 20
96.56620179872266
 30
0.0
 40
15.24
  1
断面詳細図　Ｓ＝１：２
 41
1.113636363636364
  7
ＭＳ ゴシック
100
AcDbText
  0
TEXT
  5
24B
330
1F
100
AcDbEntity
  8
D-4
  6
Continuous
 62
     2
370
     9
100
AcDbText
 10
391.6679341084249
 20
496.6035858319258
 30
0.0
 40
15.24
  1
1
 41
0.9999999999999998
  7
ＭＳ ゴシック
100
AcDbText
  0
TEXT
  5
24C
330
1F
100
AcDbEntity
  8
D-4
  6
Continuous
 62
     2
370
     9
100
AcDbText
 10
413.5774644134883
 20
496.603585831902
 30
0.0
 40
15.24
  1
12
 50
0.0003335824004124
 41
1.062499999999999
  7
ＭＳ ゴシック
100
AcDbText
  0
TEXT
  5
24D
330
1F
100
AcDbEntity
  8
D-4
  6
Continuous
 62
     2
370
     9
100
AcDbText
 10
54.76481412320535
 20
329.7210775839317
 30
0.0
 40
15.24
  1
3.2
 50
90.0
 41
1.083333333333333
  7
ＭＳ ゴシック
100
AcDbText
  0
TEXT
  5
24E
330
1F
100
AcDbEntity
  8
D-4
  6
Continuous
 62
     2
370
     9
100
AcDbText
 10
54.76481412320535
 20
384.7200342126796
 30
0.0
 40
15.24
  1
15
 50
90.0
 41
1.0625
  7
ＭＳ ゴシック
100
AcDbText
  0
TEXT
  5
24F
330
1F
100
AcDbEntity
  8
D-4
  6
Continuous
 62
     2
370
     9
100
AcDbText
 10
374.8274148477091
 20
216.1226906606314
 30
0.0
 40
15.24
  1
33
 41
1.0625
  7
ＭＳ ゴシック
100
AcDbText
  0
TEXT
  5
250
330
1F
100
AcDbEntity
  8
D-4
  6
Continuous
 62
     2
370
     9
100
AcDbText
 10
451.0774808316619
 20
216.1226906606314
 30
0.0
 40
15.24
  1
28
 41
1.0625
  7
ＭＳ ゴシック
100
AcDbText
  0
TEXT
  5
251
330
1F
100
AcDbEntity
  8
D-4
  6
Continuous
 62
     2
370
     9
100
AcDbText
 10
398.577691155511
 20
160.2148999353358
 30
0.0
 40
15.24
  1
70～80
 41
1.104166666666667
  7
ＭＳ ゴシック
100
AcDbText
  0
TEXT
  5
252
330
1F
100
AcDbEntity
  8
D-4
  6
Continuous
 62
     2
370
     9
100
AcDbText
 10
543.3961089922932
 20
307.2200259646854
 30
0.0
 40
15.24
  1
10
 50
90.0
 41
1.0625
  7
ＭＳ ゴシック
100
AcDbText
  0
TEXT
  5
253
330
1F
100
AcDbEntity
  8
D-4
  6
Continuous
 62
     2
370
     9
100
AcDbText
 10
543.3961089922932
 20
350.3449269887565
 30
0.0
 40
15.24
  1
33.5
 50
90.0
 41
1.09375
  7
ＭＳ ゴシック
100
AcDbText
  0
TEXT
  5
254
330
1F
100
AcDbEntity
  8
D-4
  6
Continuous
 62
     2
370
     9
100
AcDbText
 10
543.3961089922932
 20
424.0048300253379
 30
0.0
 40
15.24
  1
2
 50
90.0
 41
0.9999999999999998
  7
ＭＳ ゴシック
100
AcDbText
  0
TEXT
  5
255
330
1F
100
AcDbEntity
  8
D-4
  6
Continuous
 62
     2
370
     9
100
AcDbText
 10
640.6795496595229
 20
312.2199311127534
 30
0.0
 40
15.24
  1
55～65
 50
90.0
 41
1.104166666666667
  7
ＭＳ ゴシック
100
AcDbText
  0
TEXT
  5
256
330
1F
100
AcDbEntity
  8
D-4
  6
Continuous
 62
     2
370
     9
100
AcDbText
 10
284.3028604703336
 20
343.6653137207032
 30
0.0
 40
15.24
  1
42
 50
90.0
 41
1.0625
  7
ＭＳ ゴシック
100
AcDbText
  0
TEXT
  5
257
330
1F
100
AcDbEntity
  8
D-0
  6
Continuous
 62
     2
370
     9
100
AcDbText
 10
206.3852588550466
 20
-462.0305587191195
 30
0.0
 40
15.24
  1
把手詳細図　Ｓ＝１：２
 41
1.113636363636364
  7
ＭＳ ゴシック
100
AcDbText
  0
TEXT
  5
258
330
1F
100
AcDbEntity
  8
D-4
  6
Continuous
 62
     2
370
     9
100
AcDbText
 10
488.6827102908573
 20
-290.6356605323585
 30
0.0
 40
15.24
  1
15
 50
90.0
 41
1.0625
  7
ＭＳ ゴシック
100
AcDbText
  0
TEXT
  5
259
330
1F
100
AcDbEntity
  8
D-4
  6
Continuous
 62
     7
370
     9
100
AcDbText
 10
495.1660362449853
 20
72.55311282596081
 30
0.0
 40
11.43
  1
処理：陽極酸化塗装複合皮膜処理（アルミ材のみ）
 41
1.159420289855073
  7
ＭＳ ゴシック
100
AcDbText
  0
TEXT
  5
25A
330
1F
100
AcDbEntity
  8
D-4
  6
Continuous
 62
     2
370
     9
100
AcDbText
 10
101.3541886613177
 20
540.2502384660052
 30
0.0
 40
15.24
  1
476
 41
1.083333333333333
  7
ＭＳ ゴシック
100
AcDbText
  0
TEXT
  5
25B
330
1F
100
AcDbEntity
  8
D-4
  6
Continuous
 62
     2
370
     9
100
AcDbText
 10
101.3541886613177
 20
497.6688142683701
 30
0.0
 40
15.24
  1
450
 41
1.083333333333333
  7
ＭＳ ゴシック
100
AcDbText
  0
TEXT
  5
25C
330
1F
100
AcDbEntity
  8
D-4
  6
Continuous
 62
     2
370
     9
100
AcDbText
 10
99.99995051203548
 20
216.1777460211677
 30
0.0
 40
15.24
  1
400
 41
1.083333333333333
  7
ＭＳ ゴシック
100
AcDbText
  0
LWPOLYLINE
  5
25D
330
1F
100
AcDbEntity
  8
0-4
  6
Continuous
 62
     7
370
     9
100
AcDbPolyline
 90
        4
 70
     1
 43
0.5
 10
-535.0472082189611
 20
341.9907605970229
 42
0.4142135623731
 10
-535.2972082189611
 20
342.2407605970229
 42
0.4142135623731
 10
-535.5472082189611
 20
341.9907605970229
 42
0.4142135623731
 10
-535.2972082189611
 20
341.7407605970229
 42
0.4142135623731
  0
LWPOLYLINE
  5
25E
330
1F
100
AcDbEntity
  8
0-4
  6
Continuous
 62
     7
370
     9
100
AcDbPolyline
 90
        4
 70
     1
 43
0.5
 10
-135.0473113188872
 20
341.9907605970229
 42
0.4142135623731
 10
-135.2973113188872
 20
342.2407605970229
 42
0.4142135623731
 10
-135.5473113188872
 20
341.9907605970229
 42
0.4142135623731
 10
-135.2973113188872
 20
341.7407605970229
 42
0.4142135623731
  0
LWPOLYLINE
  5
25F
330
1F
100
AcDbEntity
  8
0-4
  6
Continuous
 62
     7
370
     9
100
AcDbPolyline
 90
        4
 70
     1
 43
0.5
 10
-560.0472906989021
 20
381.9051546663852
 42
0.4142135623731
 10
-560.297290698902
 20
382.1551546663852
 42
0.4142135623731
 10
-560.547290698902
 20
381.9051546663852
 42
0.4142135623731
 10
-560.297290698902
 20
381.6551546663852
 42
0.4142135623731
  0
LWPOLYLINE
  5
260
330
1F
100
AcDbEntity
  8
0-4
  6
Continuous
 62
     7
370
     9
100
AcDbPolyline
 90
        4
 70
     1
 43
0.5
 10
-110.0473525588577
 20
381.9051546663852
 42
0.4142135623731
 10
-110.2973525588577
 20
382.1551546663852
 42
0.4142135623731
 10
-110.5473525588577
 20
381.9051546663852
 42
0.4142135623731
 10
-110.2973525588577
 20
381.6551546663852
 42
0.4142135623731
  0
LWPOLYLINE
  5
261
330
1F
100
AcDbEntity
  8
0-4
  6
Continuous
 62
     7
370
     9
100
AcDbPolyline
 90
        4
 70
     1
 43
0.5
 10
-573.0472841005067
 20
413.2498416385135
 42
0.4142135623731
 10
-573.2972841005067
 20
413.4998416385135
 42
0.4142135623731
 10
-573.5472841005067
 20
413.2498416385135
 42
0.4142135623731
 10
-573.2972841005067
 20
412.9998416385135
 42
0.4142135623731
  0
LWPOLYLINE
  5
262
330
1F
100
AcDbEntity
  8
0-4
  6
Continuous
 62
     7
370
     9
100
AcDbPolyline
 90
        4
 70
     1
 43
0.5
 10
-97.04729729729726
 20
413.2498416385135
 42
0.4142135623731
 10
-97.29729729729726
 20
413.4998416385135
 42
0.4142135623731
 10
-97.54729729729726
 20
413.2498416385135
 42
0.4142135623731
 10
-97.29729729729726
 20
412.9998416385135
 42
0.4142135623731
  0
LWPOLYLINE
  5
263
330
1F
100
AcDbEntity
  8
0-4
  6
Continuous
 62
     7
370
     9
100
AcDbPolyline
 90
        4
 70
     1
 43
0.5
 10
-638.2948765110325
 20
-161.2567427351668
 42
0.4142135623731
 10
-638.5448765110325
 20
-161.0067427351668
 42
0.4142135623731
 10
-638.7948765110325
 20
-161.2567427351668
 42
0.4142135623731
 10
-638.5448765110325
 20
-161.5067427351668
 42
0.4142135623731
  0
LWPOLYLINE
  5
264
330
1F
100
AcDbEntity
  8
0-4
  6
Continuous
 62
     7
370
     9
100
AcDbPolyline
 90
        4
 70
     1
 43
0.5
 10
-638.2948765110325
 20
238.7431541649072
 42
0.4142135623731
 10
-638.5448765110325
 20
238.9931541649071
 42
0.4142135623731
 10
-638.7948765110325
 20
238.7431541649072
 42
0.4142135623731
 10
-638.5448765110325
 20
238.4931541649072
 42
0.4142135623731
  0
LWPOLYLINE
  5
265
330
1F
100
AcDbEntity
  8
0-4
  6
Continuous
 62
     7
370
     9
100
AcDbPolyline
 90
        4
 70
     1
 43
0.5
 10
-678.2092705803948
 20
-186.2568252151077
 42
0.4142135623731
 10
-678.4592705803948
 20
-186.0068252151077
 42
0.4142135623731
 10
-678.7092705803948
 20
-186.2568252151077
 42
0.4142135623731
 10
-678.4592705803948
 20
-186.5068252151077
 42
0.4142135623731
  0
LWPOLYLINE
  5
266
330
1F
100
AcDbEntity
  8
0-4
  6
Continuous
 62
     7
370
     9
100
AcDbPolyline
 90
        4
 70
     1
 43
0.5
 10
-678.2092705803948
 20
263.7431129249367
 42
0.4142135623731
 10
-678.4592705803948
 20
263.9931129249367
 42
0.4142135623731
 10
-678.7092705803948
 20
263.7431129249367
 42
0.4142135623731
 10
-678.4592705803948
 20
263.4931129249367
 42
0.4142135623731
  0
LWPOLYLINE
  5
267
330
1F
100
AcDbEntity
  8
0-4
  6
Continuous
 62
     7
370
     9
100
AcDbPolyline
 90
        4
 70
     1
 43
0.5
 10
-709.5539575525231
 20
-199.2568186167124
 42
0.4142135623731
 10
-709.8039575525231
 20
-199.0068186167124
 42
0.4142135623731
 10
-710.0539575525232
 20
-199.2568186167124
 42
0.4142135623731
 10
-709.8039575525231
 20
-199.5068186167123
 42
0.4142135623731
  0
LWPOLYLINE
  5
268
330
1F
100
AcDbEntity
  8
0-4
  6
Continuous
 62
     7
370
     9
100
AcDbPolyline
 90
        4
 70
     1
 43
0.5
 10
-709.5539575525231
 20
276.7431681864971
 42
0.4142135623731
 10
-709.8039575525231
 20
276.9931681864971
 42
0.4142135623731
 10
-710.0539575525232
 20
276.7431681864971
 42
0.4142135623731
 10
-709.8039575525231
 20
276.4931681864971
 42
0.4142135623731
  0
LWPOLYLINE
  5
269
330
1F
100
AcDbEntity
  8
D-4
  6
Continuous
 62
     7
370
     9
100
AcDbPolyline
 90
        4
 70
     1
 43
0.5
 10
406.9523612357477
 20
491.283701303843
 42
0.4142135623731
 10
406.7023612357477
 20
491.533701303843
 42
0.4142135623731
 10
406.4523612357477
 20
491.283701303843
 42
0.4142135623731
 10
406.7023612357477
 20
491.033701303843
 42
0.4142135623731
  0
LWPOLYLINE
  5
26A
330
1F
100
AcDbEntity
  8
D-4
  6
Continuous
 62
     7
370
     9
100
AcDbPolyline
 90
        4
 70
     1
 43
0.5
 10
409.4522457638302
 20
491.283701303843
 42
0.4142135623731
 10
409.2022457638302
 20
491.533701303843
 42
0.4142135623731
 10
408.9522457638302
 20
491.283701303843
 42
0.4142135623731
 10
409.2022457638302
 20
491.033701303843
 42
0.4142135623731
  0
LWPOLYLINE
  5
26B
330
1F
100
AcDbEntity
  8
D-4
  6
Continuous
 62
     7
370
     9
100
AcDbPolyline
 90
        4
 70
     1
 43
0.5
 10
439.4523447397594
 20
491.283701303843
 42
0.4142135623731
 10
439.2023447397594
 20
491.533701303843
 42
0.4142135623731
 10
438.9523447397594
 20
491.283701303843
 42
0.4142135623731
 10
439.2023447397594
 20
491.033701303843
 42
0.4142135623731
  0
LWPOLYLINE
  5
26C
330
1F
100
AcDbEntity
  8
D-4
  6
Continuous
 62
     7
370
     9
100
AcDbPolyline
 90
        4
 70
     1
 43
0.5
 10
439.4523447397594
 20
534.3050735061234
 42
0.4142135623731
 10
439.2023447397594
 20
534.5550735061234
 42
0.4142135623731
 10
438.9523447397594
 20
534.3050735061234
 42
0.4142135623731
 10
439.2023447397594
 20
534.0550735061234
 42
0.4142135623731
  0
LWPOLYLINE
  5
26D
330
1F
100
AcDbEntity
  8
D-4
  6
Continuous
 62
     7
370
     9
100
AcDbPolyline
 90
        4
 70
     1
 43
0.5
 10
60.33494609111068
 20
368.5948717271959
 42
0.4142135623731
 10
60.08494609111068
 20
368.8448717271959
 42
0.4142135623731
 10
59.83494609111068
 20
368.5948717271959
 42
0.4142135623731
 10
60.08494609111068
 20
368.344871727196
 42
0.4142135623731
  0
LWPOLYLINE
  5
26E
330
1F
100
AcDbEntity
  8
D-4
  6
Continuous
 62
     7
370
     9
100
AcDbPolyline
 90
        4
 70
     1
 43
0.5
 10
60.33494609111068
 20
376.5948486328125
 42
0.4142135623731
 10
60.08494609111068
 20
376.8448486328125
 42
0.4142135623731
 10
59.83494609111068
 20
376.5948486328125
 42
0.4142135623731
 10
60.08494609111068
 20
376.3448486328125
 42
0.4142135623731
  0
LWPOLYLINE
  5
26F
330
1F
100
AcDbEntity
  8
D-4
  6
Continuous
 62
     7
370
     9
100
AcDbPolyline
 90
        4
 70
     1
 43
0.5
 10
60.33494609111068
 20
414.0948486328125
 42
0.4142135623731
 10
60.08494609111068
 20
414.3448486328125
 42
0.4142135623731
 10
59.83494609111068
 20
414.0948486328125
 42
0.4142135623731
 10
60.08494609111068
 20
413.8448486328125
 42
0.4142135623731
  0
LWPOLYLINE
  5
270
330
1F
100
AcDbEntity
  8
D-4
  6
Continuous
 62
     7
370
     9
100
AcDbPolyline
 90
        4
 70
     1
 43
0.5
 10
344.4527736354518
 20
210.8025586927261
 42
0.4142135623731
 10
344.2027736354518
 20
211.0525586927261
 42
0.4142135623731
 10
343.9527736354518
 20
210.8025586927261
 42
0.4142135623731
 10
344.2027736354518
 20
210.5525586927261
 42
0.4142135623731
  0
LWPOLYLINE
  5
271
330
1F
100
AcDbEntity
  8
D-4
  6
Continuous
 62
     7
370
     9
100
AcDbPolyline
 90
        4
 70
     1
 43
0.5
 10
426.9521797798776
 20
210.8025586927261
 42
0.4142135623731
 10
426.7021797798776
 20
211.0525586927261
 42
0.4142135623731
 10
426.4521797798776
 20
210.8025586927261
 42
0.4142135623731
 10
426.7021797798776
 20
210.5525586927261
 42
0.4142135623731
  0
LWPOLYLINE
  5
272
330
1F
100
AcDbEntity
  8
D-4
  6
Continuous
 62
     7
370
     9
100
AcDbPolyline
 90
        4
 70
     1
 43
0.5
 10
496.952410723712
 20
210.8025586927261
 42
0.4142135623731
 10
496.702410723712
 20
211.0525586927261
 42
0.4142135623731
 10
496.452410723712
 20
210.8025586927261
 42
0.4142135623731
 10
496.702410723712
 20
210.5525586927261
 42
0.4142135623731
  0
LWPOLYLINE
  5
273
330
1F
100
AcDbEntity
  8
D-4
  6
Continuous
 62
     7
370
     9
100
AcDbPolyline
 90
        4
 70
     1
 43
0.5
 10
344.4527736354518
 20
154.895015407253
 42
0.4142135623731
 10
344.2027736354518
 20
155.145015407253
 42
0.4142135623731
 10
343.9527736354518
 20
154.895015407253
 42
0.4142135623731
 10
344.2027736354518
 20
154.645015407253
 42
0.4142135623731
  0
LWPOLYLINE
  5
274
330
1F
100
AcDbEntity
  8
D-4
  6
Continuous
 62
     7
370
     9
100
AcDbPolyline
 90
        4
 70
     1
 43
0.5
 10
519.4523612357476
 20
154.895015407253
 42
0.4142135623731
 10
519.2023612357477
 20
155.145015407253
 42
0.4142135623731
 10
518.9523612357477
 20
154.895015407253
 42
0.4142135623731
 10
519.2023612357477
 20
154.645015407253
 42
0.4142135623731
  0
LWPOLYLINE
  5
275
330
1F
100
AcDbEntity
  8
D-4
  6
Continuous
 62
     7
370
     9
100
AcDbPolyline
 90
        4
 70
     1
 43
0.5
 10
548.9659935203761
 20
305.3450465846707
 42
0.4142135623731
 10
548.7159935203761
 20
305.5950465846707
 42
0.4142135623731
 10
548.4659935203761
 20
305.3450465846707
 42
0.4142135623731
 10
548.7159935203761
 20
305.0950465846707
 42
0.4142135623731
  0
LWPOLYLINE
  5
276
330
1F
100
AcDbEntity
  8
D-4
  6
Continuous
 62
     7
370
     9
100
AcDbPolyline
 90
        4
 70
     1
 43
0.5
 10
548.9659935203761
 20
330.344881624789
 42
0.4142135623731
 10
548.7159935203761
 20
330.5948816247889
 42
0.4142135623731
 10
548.4659935203761
 20
330.344881624789
 42
0.4142135623731
 10
548.7159935203761
 20
330.094881624789
 42
0.4142135623731
  0
LWPOLYLINE
  5
277
330
1F
100
AcDbEntity
  8
D-4
  6
Continuous
 62
     7
370
     9
100
AcDbPolyline
 90
        4
 70
     1
 43
0.5
 10
548.9659935203761
 20
414.0948486328125
 42
0.4142135623731
 10
548.7159935203761
 20
414.3448486328125
 42
0.4142135623731
 10
548.4659935203761
 20
414.0948486328125
 42
0.4142135623731
 10
548.7159935203761
 20
413.8448486328125
 42
0.4142135623731
  0
LWPOLYLINE
  5
278
330
1F
100
AcDbEntity
  8
D-4
  6
Continuous
 62
     7
370
     9
100
AcDbPolyline
 90
        4
 70
     1
 43
0.5
 10
548.9659935203761
 20
419.0948651288008
 42
0.4142135623731
 10
548.7159935203761
 20
419.3448651288008
 42
0.4142135623731
 10
548.4659935203761
 20
419.0948651288008
 42
0.4142135623731
 10
548.7159935203761
 20
418.8448651288008
 42
0.4142135623731
  0
LWPOLYLINE
  5
279
330
1F
100
AcDbEntity
  8
D-4
  6
Continuous
 62
     7
370
     9
100
AcDbPolyline
 90
        4
 70
     1
 43
0.5
 10
646.2494341876059
 20
276.5948898727829
 42
0.4142135623731
 10
645.9994341876057
 20
276.8448898727829
 42
0.4142135623731
 10
645.7494341876056
 20
276.5948898727829
 42
0.4142135623731
 10
645.9994341876057
 20
276.344889872783
 42
0.4142135623731
  0
LWPOLYLINE
  5
27A
330
1F
100
AcDbEntity
  8
D-4
  6
Continuous
 62
     7
370
     9
100
AcDbPolyline
 90
        4
 70
     1
 43
0.5
 10
646.2494341876059
 20
414.0948486328125
 42
0.4142135623731
 10
645.9994341876057
 20
414.3448486328125
 42
0.4142135623731
 10
645.7494341876056
 20
414.0948486328125
 42
0.4142135623731
 10
645.9994341876057
 20
413.8448486328125
 42
0.4142135623731
  0
LWPOLYLINE
  5
27B
330
1F
100
AcDbEntity
  8
D-4
  6
Continuous
 62
     7
370
     9
100
AcDbPolyline
 90
        4
 70
     1
 43
0.5
 10
289.8729924382391
 20
314.0948898727829
 42
0.4142135623731
 10
289.6229924382391
 20
314.3448898727829
 42
0.4142135623731
 10
289.3729924382391
 20
314.0948898727829
 42
0.4142135623731
 10
289.6229924382391
 20
313.844889872783
 42
0.4142135623731
  0
LWPOLYLINE
  5
27C
330
1F
100
AcDbEntity
  8
D-4
  6
Continuous
 62
     7
370
     9
100
AcDbPolyline
 90
        4
 70
     1
 43
0.5
 10
289.8729924382391
 20
419.0948651288008
 42
0.4142135623731
 10
289.6229924382391
 20
419.3448651288008
 42
0.4142135623731
 10
289.3729924382391
 20
419.0948651288008
 42
0.4142135623731
 10
289.6229924382391
 20
418.8448651288008
 42
0.4142135623731
  0
LWPOLYLINE
  5
27D
330
1F
100
AcDbEntity
  8
D-4
  6
Continuous
 62
     7
370
     9
100
AcDbPolyline
 90
        4
 70
     1
 43
0.5
 10
494.2528422587628
 20
-298.7606605323585
 42
0.4142135623731
 10
494.0028422587628
 20
-298.5106605323585
 42
0.4142135623731
 10
493.7528422587628
 20
-298.7606605323585
 42
0.4142135623731
 10
494.0028422587628
 20
-299.0106605323585
 42
0.4142135623731
  0
LWPOLYLINE
  5
27E
330
1F
100
AcDbEntity
  8
D-4
  6
Continuous
 62
     7
370
     9
100
AcDbPolyline
 90
        4
 70
     1
 43
0.5
 10
494.2528422587628
 20
-261.2606605323585
 42
0.4142135623731
 10
494.0028422587628
 20
-261.0106605323585
 42
0.4142135623731
 10
493.7528422587628
 20
-261.2606605323585
 42
0.4142135623731
 10
494.0028422587628
 20
-261.5106605323585
 42
0.4142135623731
  0
LINE
  5
27F
330
1F
100
AcDbEntity
  8
D-0
  6
Continuous
 62
     7
370
     9
100
AcDbLine
 10
361.0353774148553
 20
278.0275422934737
 30
0.0
 11
361.0353774148553
 21
278.7776834372725
 31
0.0
  0
LINE
  5
280
330
1F
100
AcDbEntity
  8
D-0
  6
Continuous
 62
     7
370
     9
100
AcDbLine
 10
361.0353774148553
 20
278.7776834372725
 30
0.0
 11
361.7852706033319
 21
278.7776834372725
 31
0.0
  0
LINE
  5
281
330
1F
100
AcDbEntity
  8
D-0
  6
Continuous
 62
     7
370
     9
100
AcDbLine
 10
361.7852706033319
 20
278.7776834372725
 30
0.0
 11
361.7852706033319
 21
278.0275422934737
 31
0.0
  0
LINE
  5
282
330
1F
100
AcDbEntity
  8
D-0
  6
Continuous
 62
     7
370
     9
100
AcDbLine
 10
361.7852706033319
 20
278.0275422934737
 30
0.0
 11
361.0353774148553
 21
278.0275422934737
 31
0.0
  0
LINE
  5
283
330
1F
100
AcDbEntity
  8
D-0
  6
Continuous
 62
     7
370
     9
100
AcDbLine
 10
362.7893512618524
 20
299.9522153809375
 30
0.0
 11
362.7893512618524
 21
300.7023565247363
 31
0.0
  0
LINE
  5
284
330
1F
100
AcDbEntity
  8
D-0
  6
Continuous
 62
     7
370
     9
100
AcDbLine
 10
362.7893512618524
 20
300.7023565247363
 30
0.0
 11
363.539244450329
 21
300.7023565247363
 31
0.0
  0
LINE
  5
285
330
1F
100
AcDbEntity
  8
D-0
  6
Continuous
 62
     7
370
     9
100
AcDbLine
 10
363.539244450329
 20
300.7023565247363
 30
0.0
 11
363.539244450329
 21
299.9522153809375
 31
0.0
  0
LINE
  5
286
330
1F
100
AcDbEntity
  8
D-0
  6
Continuous
 62
     7
370
     9
100
AcDbLine
 10
363.539244450329
 20
299.9522153809375
 30
0.0
 11
362.7893512618524
 21
299.9522153809375
 31
0.0
  0
LINE
  5
287
330
1F
100
AcDbEntity
  8
D-0
  6
Continuous
 62
     7
370
     9
100
AcDbLine
 10
386.0295047345639
 20
277.5890488317244
 30
0.0
 11
386.0295047345639
 21
278.3391899755233
 31
0.0
  0
LINE
  5
288
330
1F
100
AcDbEntity
  8
D-0
  6
Continuous
 62
     7
370
     9
100
AcDbLine
 10
386.0295047345639
 20
278.3391899755233
 30
0.0
 11
386.7793979230405
 21
278.3391899755233
 31
0.0
  0
LINE
  5
289
330
1F
100
AcDbEntity
  8
D-0
  6
Continuous
 62
     7
370
     9
100
AcDbLine
 10
386.7793979230405
 20
278.3391899755233
 30
0.0
 11
386.7793979230405
 21
277.5890488317244
 31
0.0
  0
LINE
  5
28A
330
1F
100
AcDbEntity
  8
D-0
  6
Continuous
 62
     7
370
     9
100
AcDbLine
 10
386.7793979230405
 20
277.5890488317244
 30
0.0
 11
386.0295047345639
 21
277.5890488317244
 31
0.0
  0
LINE
  5
28B
330
1F
100
AcDbEntity
  8
D-0
  6
Continuous
 62
     7
370
     9
100
AcDbLine
 10
379.3118005060359
 20
254.6949618734378
 30
0.0
 11
379.3118005060359
 21
255.4451030172366
 31
0.0
  0
LINE
  5
28C
330
1F
100
AcDbEntity
  8
D-0
  6
Continuous
 62
     7
370
     9
100
AcDbLine
 10
379.3118005060359
 20
255.4451030172366
 30
0.0
 11
380.0616936945125
 21
255.4451030172366
 31
0.0
  0
LINE
  5
28D
330
1F
100
AcDbEntity
  8
D-0
  6
Continuous
 62
     7
370
     9
100
AcDbLine
 10
380.0616936945125
 20
255.4451030172366
 30
0.0
 11
380.0616936945125
 21
254.6949618734378
 31
0.0
  0
LINE
  5
28E
330
1F
100
AcDbEntity
  8
D-0
  6
Continuous
 62
     7
370
     9
100
AcDbLine
 10
380.0616936945125
 20
254.6949618734378
 30
0.0
 11
379.3118005060359
 21
254.6949618734378
 31
0.0
  0
LINE
  5
28F
330
1F
100
AcDbEntity
  8
D-0
  6
Continuous
 62
     7
370
     9
100
AcDbLine
 10
361.7115047027452
 20
260.9068309804816
 30
0.0
 11
361.7115047027452
 21
261.6569721242804
 31
0.0
  0
LINE
  5
290
330
1F
100
AcDbEntity
  8
D-0
  6
Continuous
 62
     7
370
     9
100
AcDbLine
 10
361.7115047027452
 20
261.6569721242804
 30
0.0
 11
362.4613978912217
 21
261.6569721242804
 31
0.0
  0
LINE
  5
291
330
1F
100
AcDbEntity
  8
D-0
  6
Continuous
 62
     7
370
     9
100
AcDbLine
 10
362.4613978912217
 20
261.6569721242804
 30
0.0
 11
362.4613978912217
 21
260.9068309804816
 31
0.0
  0
LINE
  5
292
330
1F
100
AcDbEntity
  8
D-0
  6
Continuous
 62
     7
370
     9
100
AcDbLine
 10
362.4613978912217
 20
260.9068309804816
 30
0.0
 11
361.7115047027452
 21
260.9068309804816
 31
0.0
  0
LINE
  5
293
330
1F
100
AcDbEntity
  8
D-0
  6
Continuous
 62
     7
370
     9
100
AcDbLine
 10
413.8694882639884
 20
295.2087643260417
 30
0.0
 11
413.8694882639884
 21
295.9589054698405
 31
0.0
  0
LINE
  5
294
330
1F
100
AcDbEntity
  8
D-0
  6
Continuous
 62
     7
370
     9
100
AcDbLine
 10
413.8694882639884
 20
295.9589054698405
 30
0.0
 11
414.619381452465
 21
295.9589054698405
 31
0.0
  0
LINE
  5
295
330
1F
100
AcDbEntity
  8
D-0
  6
Continuous
 62
     7
370
     9
100
AcDbLine
 10
414.619381452465
 20
295.9589054698405
 30
0.0
 11
414.619381452465
 21
295.2087643260417
 31
0.0
  0
LINE
  5
296
330
1F
100
AcDbEntity
  8
D-0
  6
Continuous
 62
     7
370
     9
100
AcDbLine
 10
414.619381452465
 20
295.2087643260417
 30
0.0
 11
413.8694882639884
 21
295.2087643260417
 31
0.0
  0
LINE
  5
297
330
1F
100
AcDbEntity
  8
D-0
  6
Continuous
 62
     7
370
     9
100
AcDbLine
 10
396.2691924606977
 20
301.4206334330855
 30
0.0
 11
396.2691924606977
 21
302.1707745768844
 31
0.0
  0
LINE
  5
298
330
1F
100
AcDbEntity
  8
D-0
  6
Continuous
 62
     7
370
     9
100
AcDbLine
 10
396.2691924606977
 20
302.1707745768844
 30
0.0
 11
397.0190856491743
 21
302.1707745768844
 31
0.0
  0
LINE
  5
299
330
1F
100
AcDbEntity
  8
D-0
  6
Continuous
 62
     7
370
     9
100
AcDbLine
 10
397.0190856491743
 20
302.1707745768844
 30
0.0
 11
397.0190856491743
 21
301.4206334330855
 31
0.0
  0
LINE
  5
29A
330
1F
100
AcDbEntity
  8
D-0
  6
Continuous
 62
     7
370
     9
100
AcDbLine
 10
397.0190856491743
 20
301.4206334330855
 30
0.0
 11
396.2691924606977
 21
301.4206334330855
 31
0.0
  0
LINE
  5
29B
330
1F
100
AcDbEntity
  8
D-0
  6
Continuous
 62
     7
370
     9
100
AcDbLine
 10
353.4187990834046
 20
234.9306270650979
 30
0.0
 11
353.4187990834046
 21
235.6807682088968
 31
0.0
  0
LINE
  5
29C
330
1F
100
AcDbEntity
  8
D-0
  6
Continuous
 62
     7
370
     9
100
AcDbLine
 10
353.4187990834046
 20
235.6807682088968
 30
0.0
 11
354.1686922718811
 21
235.6807682088968
 31
0.0
  0
LINE
  5
29D
330
1F
100
AcDbEntity
  8
D-0
  6
Continuous
 62
     7
370
     9
100
AcDbLine
 10
354.1686922718811
 20
235.6807682088968
 30
0.0
 11
354.1686922718811
 21
234.9306270650979
 31
0.0
  0
LINE
  5
29E
330
1F
100
AcDbEntity
  8
D-0
  6
Continuous
 62
     7
370
     9
100
AcDbLine
 10
354.1686922718811
 20
234.9306270650979
 30
0.0
 11
353.4187990834046
 21
234.9306270650979
 31
0.0
  0
LINE
  5
29F
330
1F
100
AcDbEntity
  8
D-0
  6
Continuous
 62
     7
370
     9
100
AcDbLine
 10
357.9051489940474
 20
201.1104508156371
 30
0.0
 11
357.9051489940474
 21
201.860591959436
 31
0.0
  0
LINE
  5
2A0
330
1F
100
AcDbEntity
  8
D-0
  6
Continuous
 62
     7
370
     9
100
AcDbLine
 10
357.9051489940474
 20
201.860591959436
 30
0.0
 11
358.655042182524
 21
201.860591959436
 31
0.0
  0
LINE
  5
2A1
330
1F
100
AcDbEntity
  8
D-0
  6
Continuous
 62
     7
370
     9
100
AcDbLine
 10
358.655042182524
 20
201.860591959436
 30
0.0
 11
358.655042182524
 21
201.1104508156371
 31
0.0
  0
LINE
  5
2A2
330
1F
100
AcDbEntity
  8
D-0
  6
Continuous
 62
     7
370
     9
100
AcDbLine
 10
358.655042182524
 20
201.1104508156371
 30
0.0
 11
357.9051489940474
 21
201.1104508156371
 31
0.0
  0
LINE
  5
2A3
330
1F
100
AcDbEntity
  8
D-0
  6
Continuous
 62
     7
370
     9
100
AcDbLine
 10
392.7606367613488
 20
192.1377509943516
 30
0.0
 11
392.7606367613488
 21
192.8878921381504
 31
0.0
  0
LINE
  5
2A4
330
1F
100
AcDbEntity
  8
D-0
  6
Continuous
 62
     7
370
     9
100
AcDbLine
 10
392.7606367613488
 20
192.8878921381504
 30
0.0
 11
393.5105299498254
 21
192.8878921381504
 31
0.0
  0
LINE
  5
2A5
330
1F
100
AcDbEntity
  8
D-0
  6
Continuous
 62
     7
370
     9
100
AcDbLine
 10
393.5105299498254
 20
192.8878921381504
 30
0.0
 11
393.5105299498254
 21
192.1377509943516
 31
0.0
  0
LINE
  5
2A6
330
1F
100
AcDbEntity
  8
D-0
  6
Continuous
 62
     7
370
     9
100
AcDbLine
 10
393.5105299498254
 20
192.1377509943516
 30
0.0
 11
392.7606367613488
 21
192.1377509943516
 31
0.0
  0
LINE
  5
2A7
330
1F
100
AcDbEntity
  8
D-0
  6
Continuous
 62
     7
370
     9
100
AcDbLine
 10
398.6274020291124
 20
242.1778076899824
 30
0.0
 11
398.6274020291124
 21
242.9279488337812
 31
0.0
  0
LINE
  5
2A8
330
1F
100
AcDbEntity
  8
D-0
  6
Continuous
 62
     7
370
     9
100
AcDbLine
 10
398.6274020291124
 20
242.9279488337812
 30
0.0
 11
399.377295217589
 21
242.9279488337812
 31
0.0
  0
LINE
  5
2A9
330
1F
100
AcDbEntity
  8
D-0
  6
Continuous
 62
     7
370
     9
100
AcDbLine
 10
399.377295217589
 20
242.9279488337812
 30
0.0
 11
399.377295217589
 21
242.1778076899824
 31
0.0
  0
LINE
  5
2AA
330
1F
100
AcDbEntity
  8
D-0
  6
Continuous
 62
     7
370
     9
100
AcDbLine
 10
399.377295217589
 20
242.1778076899824
 30
0.0
 11
398.6274020291124
 21
242.1778076899824
 31
0.0
  0
LINE
  5
2AB
330
1F
100
AcDbEntity
  8
D-0
  6
Continuous
 62
     7
370
     9
100
AcDbLine
 10
381.0271062258216
 20
203.5261776905986
 30
0.0
 11
381.0271062258216
 21
204.2763188343974
 31
0.0
  0
LINE
  5
2AC
330
1F
100
AcDbEntity
  8
D-0
  6
Continuous
 62
     7
370
     9
100
AcDbLine
 10
381.0271062258216
 20
204.2763188343974
 30
0.0
 11
381.7769994142981
 21
204.2763188343974
 31
0.0
  0
LINE
  5
2AD
330
1F
100
AcDbEntity
  8
D-0
  6
Continuous
 62
     7
370
     9
100
AcDbLine
 10
381.7769994142981
 20
204.2763188343974
 30
0.0
 11
381.7769994142981
 21
203.5261776905986
 31
0.0
  0
LINE
  5
2AE
330
1F
100
AcDbEntity
  8
D-0
  6
Continuous
 62
     7
370
     9
100
AcDbLine
 10
381.7769994142981
 20
203.5261776905986
 30
0.0
 11
381.0271062258216
 21
203.5261776905986
 31
0.0
  0
LINE
  5
2AF
330
1F
100
AcDbEntity
  8
D-0
  6
Continuous
 62
     7
370
     9
100
AcDbLine
 10
403.4588557790354
 20
272.546945546641
 30
0.0
 11
403.4588557790354
 21
273.2970866904399
 31
0.0
  0
LINE
  5
2B0
330
1F
100
AcDbEntity
  8
D-0
  6
Continuous
 62
     7
370
     9
100
AcDbLine
 10
403.4588557790354
 20
273.2970866904399
 30
0.0
 11
404.208748967512
 21
273.2970866904399
 31
0.0
  0
LINE
  5
2B1
330
1F
100
AcDbEntity
  8
D-0
  6
Continuous
 62
     7
370
     9
100
AcDbLine
 10
404.208748967512
 20
273.2970866904399
 30
0.0
 11
404.208748967512
 21
272.546945546641
 31
0.0
  0
LINE
  5
2B2
330
1F
100
AcDbEntity
  8
D-0
  6
Continuous
 62
     7
370
     9
100
AcDbLine
 10
404.208748967512
 20
272.546945546641
 30
0.0
 11
403.4588557790354
 21
272.546945546641
 31
0.0
  0
LINE
  5
2B3
330
1F
100
AcDbEntity
  8
D-0
  6
Continuous
 62
     7
370
     9
100
AcDbLine
 10
381.0271062258216
 20
303.6062910818601
 30
0.0
 11
381.0271062258216
 21
304.3564322256589
 31
0.0
  0
LINE
  5
2B4
330
1F
100
AcDbEntity
  8
D-0
  6
Continuous
 62
     7
370
     9
100
AcDbLine
 10
381.0271062258216
 20
304.3564322256589
 30
0.0
 11
381.7769994142981
 21
304.3564322256589
 31
0.0
  0
LINE
  5
2B5
330
1F
100
AcDbEntity
  8
D-0
  6
Continuous
 62
     7
370
     9
100
AcDbLine
 10
381.7769994142981
 20
304.3564322256589
 30
0.0
 11
381.7769994142981
 21
303.6062910818601
 31
0.0
  0
LINE
  5
2B6
330
1F
100
AcDbEntity
  8
D-0
  6
Continuous
 62
     7
370
     9
100
AcDbLine
 10
381.7769994142981
 20
303.6062910818601
 30
0.0
 11
381.0271062258216
 21
303.6062910818601
 31
0.0
  0
LINE
  5
2B7
330
1F
100
AcDbEntity
  8
D-0
  6
Continuous
 62
     7
370
     9
100
AcDbLine
 10
455.2244316710671
 20
283.2451645643276
 30
0.0
 11
455.2244316710671
 21
283.9953057081264
 31
0.0
  0
LINE
  5
2B8
330
1F
100
AcDbEntity
  8
D-0
  6
Continuous
 62
     7
370
     9
100
AcDbLine
 10
455.2244316710671
 20
283.9953057081264
 30
0.0
 11
455.9743248595437
 21
283.9953057081264
 31
0.0
  0
LINE
  5
2B9
330
1F
100
AcDbEntity
  8
D-0
  6
Continuous
 62
     7
370
     9
100
AcDbLine
 10
455.9743248595437
 20
283.9953057081264
 30
0.0
 11
455.9743248595437
 21
283.2451645643276
 31
0.0
  0
LINE
  5
2BA
330
1F
100
AcDbEntity
  8
D-0
  6
Continuous
 62
     7
370
     9
100
AcDbLine
 10
455.9743248595437
 20
283.2451645643276
 30
0.0
 11
455.2244316710671
 21
283.2451645643276
 31
0.0
  0
LINE
  5
2BB
330
1F
100
AcDbEntity
  8
D-0
  6
Continuous
 62
     7
370
     9
100
AcDbLine
 10
452.1184971175452
 20
297.0493181355361
 30
0.0
 11
452.1184971175452
 21
297.7994592793349
 31
0.0
  0
LINE
  5
2BC
330
1F
100
AcDbEntity
  8
D-0
  6
Continuous
 62
     7
370
     9
100
AcDbLine
 10
452.1184971175452
 20
297.7994592793349
 30
0.0
 11
452.8683903060218
 21
297.7994592793349
 31
0.0
  0
LINE
  5
2BD
330
1F
100
AcDbEntity
  8
D-0
  6
Continuous
 62
     7
370
     9
100
AcDbLine
 10
452.8683903060218
 20
297.7994592793349
 30
0.0
 11
452.8683903060218
 21
297.0493181355361
 31
0.0
  0
LINE
  5
2BE
330
1F
100
AcDbEntity
  8
D-0
  6
Continuous
 62
     7
370
     9
100
AcDbLine
 10
452.8683903060218
 20
297.0493181355361
 30
0.0
 11
452.1184971175452
 21
297.0493181355361
 31
0.0
  0
LINE
  5
2BF
330
1F
100
AcDbEntity
  8
D-0
  6
Continuous
 62
     7
370
     9
100
AcDbLine
 10
437.9692397070565
 20
284.6255799214484
 30
0.0
 11
437.9692397070565
 21
285.3757210652473
 31
0.0
  0
LINE
  5
2C0
330
1F
100
AcDbEntity
  8
D-0
  6
Continuous
 62
     7
370
     9
100
AcDbLine
 10
437.9692397070565
 20
285.3757210652473
 30
0.0
 11
438.7191328955331
 21
285.3757210652473
 31
0.0
  0
LINE
  5
2C1
330
1F
100
AcDbEntity
  8
D-0
  6
Continuous
 62
     7
370
     9
100
AcDbLine
 10
438.7191328955331
 20
285.3757210652473
 30
0.0
 11
438.7191328955331
 21
284.6255799214484
 31
0.0
  0
LINE
  5
2C2
330
1F
100
AcDbEntity
  8
D-0
  6
Continuous
 62
     7
370
     9
100
AcDbLine
 10
438.7191328955331
 20
284.6255799214484
 30
0.0
 11
437.9692397070565
 21
284.6255799214484
 31
0.0
  0
LINE
  5
2C3
330
1F
100
AcDbEntity
  8
D-0
  6
Continuous
 62
     7
370
     9
100
AcDbLine
 10
436.5888243499357
 20
296.7042142962558
 30
0.0
 11
436.5888243499357
 21
297.4543554400547
 31
0.0
  0
LINE
  5
2C4
330
1F
100
AcDbEntity
  8
D-0
  6
Continuous
 62
     7
370
     9
100
AcDbLine
 10
436.5888243499357
 20
297.4543554400547
 30
0.0
 11
437.3387175384123
 21
297.4543554400547
 31
0.0
  0
LINE
  5
2C5
330
1F
100
AcDbEntity
  8
D-0
  6
Continuous
 62
     7
370
     9
100
AcDbLine
 10
437.3387175384123
 20
297.4543554400547
 30
0.0
 11
437.3387175384123
 21
296.7042142962558
 31
0.0
  0
LINE
  5
2C6
330
1F
100
AcDbEntity
  8
D-0
  6
Continuous
 62
     7
370
     9
100
AcDbLine
 10
437.3387175384123
 20
296.7042142962558
 30
0.0
 11
436.5888243499357
 21
296.7042142962558
 31
0.0
  0
LINE
  5
2C7
330
1F
100
AcDbEntity
  8
D-0
  6
Continuous
 62
     7
370
     9
100
AcDbLine
 10
502.9350374515565
 20
287.21385871605
 30
0.0
 11
502.9350374515565
 21
287.9639998598488
 31
0.0
  0
LINE
  5
2C8
330
1F
100
AcDbEntity
  8
D-0
  6
Continuous
 62
     7
370
     9
100
AcDbLine
 10
502.9350374515565
 20
287.9639998598488
 30
0.0
 11
503.684930640033
 21
287.9639998598488
 31
0.0
  0
LINE
  5
2C9
330
1F
100
AcDbEntity
  8
D-0
  6
Continuous
 62
     7
370
     9
100
AcDbLine
 10
503.684930640033
 20
287.9639998598488
 30
0.0
 11
503.684930640033
 21
287.21385871605
 31
0.0
  0
LINE
  5
2CA
330
1F
100
AcDbEntity
  8
D-0
  6
Continuous
 62
     7
370
     9
100
AcDbLine
 10
503.684930640033
 20
287.21385871605
 30
0.0
 11
502.9350374515565
 21
287.21385871605
 31
0.0
  0
LINE
  5
2CB
330
1F
100
AcDbEntity
  8
D-0
  6
Continuous
 62
     7
370
     9
100
AcDbLine
 10
513.2881526299628
 20
294.4610393409345
 30
0.0
 11
513.2881526299628
 21
295.2111804847333
 31
0.0
  0
LINE
  5
2CC
330
1F
100
AcDbEntity
  8
D-0
  6
Continuous
 62
     7
370
     9
100
AcDbLine
 10
513.2881526299628
 20
295.2111804847333
 30
0.0
 11
514.0380458184394
 21
295.2111804847333
 31
0.0
  0
LINE
  5
2CD
330
1F
100
AcDbEntity
  8
D-0
  6
Continuous
 62
     7
370
     9
100
AcDbLine
 10
514.0380458184394
 20
295.2111804847333
 30
0.0
 11
514.0380458184394
 21
294.4610393409345
 31
0.0
  0
LINE
  5
2CE
330
1F
100
AcDbEntity
  8
D-0
  6
Continuous
 62
     7
370
     9
100
AcDbLine
 10
514.0380458184394
 20
294.4610393409345
 30
0.0
 11
513.2881526299628
 21
294.4610393409345
 31
0.0
  0
LINE
  5
2CF
330
1F
100
AcDbEntity
  8
D-0
  6
Continuous
 62
     7
370
     9
100
AcDbLine
 10
502.9350374515564
 20
310.5083678674643
 30
0.0
 11
502.9350374515564
 21
311.2585090112631
 31
0.0
  0
LINE
  5
2D0
330
1F
100
AcDbEntity
  8
D-0
  6
Continuous
 62
     7
370
     9
100
AcDbLine
 10
502.9350374515564
 20
311.2585090112631
 30
0.0
 11
503.684930640033
 21
311.2585090112631
 31
0.0
  0
LINE
  5
2D1
330
1F
100
AcDbEntity
  8
D-0
  6
Continuous
 62
     7
370
     9
100
AcDbLine
 10
503.684930640033
 20
311.2585090112631
 30
0.0
 11
503.684930640033
 21
310.5083678674643
 31
0.0
  0
LINE
  5
2D2
330
1F
100
AcDbEntity
  8
D-0
  6
Continuous
 62
     7
370
     9
100
AcDbLine
 10
503.684930640033
 20
310.5083678674643
 30
0.0
 11
502.9350374515564
 21
310.5083678674643
 31
0.0
  0
LINE
  5
2D3
330
1F
100
AcDbEntity
  8
D-0
  6
Continuous
 62
     7
370
     9
100
AcDbLine
 10
510.5273219157211
 20
319.1359638494696
 30
0.0
 11
510.5273219157211
 21
319.8861049932684
 31
0.0
  0
LINE
  5
2D4
330
1F
100
AcDbEntity
  8
D-0
  6
Continuous
 62
     7
370
     9
100
AcDbLine
 10
510.5273219157211
 20
319.8861049932684
 30
0.0
 11
511.2772151041977
 21
319.8861049932684
 31
0.0
  0
LINE
  5
2D5
330
1F
100
AcDbEntity
  8
D-0
  6
Continuous
 62
     7
370
     9
100
AcDbLine
 10
511.2772151041977
 20
319.8861049932684
 30
0.0
 11
511.2772151041977
 21
319.1359638494696
 31
0.0
  0
LINE
  5
2D6
330
1F
100
AcDbEntity
  8
D-0
  6
Continuous
 62
     7
370
     9
100
AcDbLine
 10
511.2772151041977
 20
319.1359638494696
 30
0.0
 11
510.5273219157211
 21
319.1359638494696
 31
0.0
  0
LINE
  5
2D7
330
1F
100
AcDbEntity
  8
D-0
  6
Continuous
 62
     7
370
     9
100
AcDbLine
 10
437.192756068676
 20
368.4858128665399
 30
0.0
 11
437.192756068676
 21
369.2359540103387
 31
0.0
  0
LINE
  5
2D8
330
1F
100
AcDbEntity
  8
D-0
  6
Continuous
 62
     7
370
     9
100
AcDbLine
 10
437.192756068676
 20
369.2359540103387
 30
0.0
 11
437.9426492571525
 21
369.2359540103387
 31
0.0
  0
LINE
  5
2D9
330
1F
100
AcDbEntity
  8
D-0
  6
Continuous
 62
     7
370
     9
100
AcDbLine
 10
437.9426492571525
 20
369.2359540103387
 30
0.0
 11
437.9426492571525
 21
368.4858128665399
 31
0.0
  0
LINE
  5
2DA
330
1F
100
AcDbEntity
  8
D-0
  6
Continuous
 62
     7
370
     9
100
AcDbLine
 10
437.9426492571525
 20
368.4858128665399
 30
0.0
 11
437.192756068676
 21
368.4858128665399
 31
0.0
  0
LINE
  5
2DB
330
1F
100
AcDbEntity
  8
D-0
  6
Continuous
 62
     7
370
     9
100
AcDbLine
 10
445.4752482114011
 20
352.9561400989303
 30
0.0
 11
445.4752482114011
 21
353.7062812427292
 31
0.0
  0
LINE
  5
2DC
330
1F
100
AcDbEntity
  8
D-0
  6
Continuous
 62
     7
370
     9
100
AcDbLine
 10
445.4752482114011
 20
353.7062812427292
 30
0.0
 11
446.2251413998777
 21
353.7062812427292
 31
0.0
  0
LINE
  5
2DD
330
1F
100
AcDbEntity
  8
D-0
  6
Continuous
 62
     7
370
     9
100
AcDbLine
 10
446.2251413998777
 20
353.7062812427292
 30
0.0
 11
446.2251413998777
 21
352.9561400989303
 31
0.0
  0
LINE
  5
2DE
330
1F
100
AcDbEntity
  8
D-0
  6
Continuous
 62
     7
370
     9
100
AcDbLine
 10
446.2251413998777
 20
352.9561400989303
 30
0.0
 11
445.4752482114011
 21
352.9561400989303
 31
0.0
  0
LINE
  5
2DF
330
1F
100
AcDbEntity
  8
D-0
  6
Continuous
 62
     7
370
     9
100
AcDbLine
 10
456.8636749076481
 20
369.8662282236608
 30
0.0
 11
456.8636749076481
 21
370.6163693674596
 31
0.0
  0
LINE
  5
2E0
330
1F
100
AcDbEntity
  8
D-0
  6
Continuous
 62
     7
370
     9
100
AcDbLine
 10
456.8636749076481
 20
370.6163693674596
 30
0.0
 11
457.6135680961247
 21
370.6163693674596
 31
0.0
  0
LINE
  5
2E1
330
1F
100
AcDbEntity
  8
D-0
  6
Continuous
 62
     7
370
     9
100
AcDbLine
 10
457.6135680961247
 20
370.6163693674596
 30
0.0
 11
457.6135680961247
 21
369.8662282236608
 31
0.0
  0
LINE
  5
2E2
330
1F
100
AcDbEntity
  8
D-0
  6
Continuous
 62
     7
370
     9
100
AcDbLine
 10
457.6135680961247
 20
369.8662282236608
 30
0.0
 11
456.8636749076481
 21
369.8662282236608
 31
0.0
  0
LINE
  5
2E3
330
1F
100
AcDbEntity
  8
D-0
  6
Continuous
 62
     7
370
     9
100
AcDbLine
 10
462.0402324968512
 20
347.0893748311668
 30
0.0
 11
462.0402324968512
 21
347.8395159749656
 31
0.0
  0
LINE
  5
2E4
330
1F
100
AcDbEntity
  8
D-0
  6
Continuous
 62
     7
370
     9
100
AcDbLine
 10
462.0402324968512
 20
347.8395159749656
 30
0.0
 11
462.7901256853278
 21
347.8395159749656
 31
0.0
  0
LINE
  5
2E5
330
1F
100
AcDbEntity
  8
D-0
  6
Continuous
 62
     7
370
     9
100
AcDbLine
 10
462.7901256853278
 20
347.8395159749656
 30
0.0
 11
462.7901256853278
 21
347.0893748311668
 31
0.0
  0
LINE
  5
2E6
330
1F
100
AcDbEntity
  8
D-0
  6
Continuous
 62
     7
370
     9
100
AcDbLine
 10
462.7901256853278
 20
347.0893748311668
 30
0.0
 11
462.0402324968512
 21
347.0893748311668
 31
0.0
  0
LINE
  5
2E7
330
1F
100
AcDbEntity
  8
D-0
  6
Continuous
 62
     7
370
     9
100
AcDbLine
 10
487.2328127643067
 20
348.4697901882876
 30
0.0
 11
487.2328127643067
 21
349.2199313320864
 31
0.0
  0
LINE
  5
2E8
330
1F
100
AcDbEntity
  8
D-0
  6
Continuous
 62
     7
370
     9
100
AcDbLine
 10
487.2328127643067
 20
349.2199313320864
 30
0.0
 11
487.9827059527832
 21
349.2199313320864
 31
0.0
  0
LINE
  5
2E9
330
1F
100
AcDbEntity
  8
D-0
  6
Continuous
 62
     7
370
     9
100
AcDbLine
 10
487.9827059527832
 20
349.2199313320864
 30
0.0
 11
487.9827059527832
 21
348.4697901882876
 31
0.0
  0
LINE
  5
2EA
330
1F
100
AcDbEntity
  8
D-0
  6
Continuous
 62
     7
370
     9
100
AcDbLine
 10
487.9827059527832
 20
348.4697901882876
 30
0.0
 11
487.2328127643067
 21
348.4697901882876
 31
0.0
  0
LINE
  5
2EB
330
1F
100
AcDbEntity
  8
D-0
  6
Continuous
 62
     7
370
     9
100
AcDbLine
 10
477.5699052644608
 20
362.9641514380565
 30
0.0
 11
477.5699052644608
 21
363.7142925818554
 31
0.0
  0
LINE
  5
2EC
330
1F
100
AcDbEntity
  8
D-0
  6
Continuous
 62
     7
370
     9
100
AcDbLine
 10
477.5699052644608
 20
363.7142925818554
 30
0.0
 11
478.3197984529373
 21
363.7142925818554
 31
0.0
  0
LINE
  5
2ED
330
1F
100
AcDbEntity
  8
D-0
  6
Continuous
 62
     7
370
     9
100
AcDbLine
 10
478.3197984529373
 20
363.7142925818554
 30
0.0
 11
478.3197984529373
 21
362.9641514380565
 31
0.0
  0
LINE
  5
2EE
330
1F
100
AcDbEntity
  8
D-0
  6
Continuous
 62
     7
370
     9
100
AcDbLine
 10
478.3197984529373
 20
362.9641514380565
 30
0.0
 11
477.5699052644608
 21
362.9641514380565
 31
0.0
  0
LINE
  5
2EF
330
1F
100
AcDbEntity
  8
D-0
  6
Continuous
 62
     7
370
     9
100
AcDbLine
 10
492.0642665142296
 20
370.211332062941
 30
0.0
 11
492.0642665142296
 21
370.9614732067398
 31
0.0
  0
LINE
  5
2F0
330
1F
100
AcDbEntity
  8
D-0
  6
Continuous
 62
     7
370
     9
100
AcDbLine
 10
492.0642665142296
 20
370.9614732067398
 30
0.0
 11
492.8141597027062
 21
370.9614732067398
 31
0.0
  0
LINE
  5
2F1
330
1F
100
AcDbEntity
  8
D-0
  6
Continuous
 62
     7
370
     9
100
AcDbLine
 10
492.8141597027062
 20
370.9614732067398
 30
0.0
 11
492.8141597027062
 21
370.211332062941
 31
0.0
  0
LINE
  5
2F2
330
1F
100
AcDbEntity
  8
D-0
  6
Continuous
 62
     7
370
     9
100
AcDbLine
 10
492.8141597027062
 20
370.211332062941
 30
0.0
 11
492.0642665142296
 21
370.211332062941
 31
0.0
  0
LINE
  5
2F3
330
1F
100
AcDbEntity
  8
D-0
  6
Continuous
 62
     7
370
     9
100
AcDbLine
 10
504.4880047283173
 20
356.0620746524523
 30
0.0
 11
504.4880047283173
 21
356.8122157962511
 31
0.0
  0
LINE
  5
2F4
330
1F
100
AcDbEntity
  8
D-0
  6
Continuous
 62
     7
370
     9
100
AcDbLine
 10
504.4880047283173
 20
356.8122157962511
 30
0.0
 11
505.2378979167938
 21
356.8122157962511
 31
0.0
  0
LINE
  5
2F5
330
1F
100
AcDbEntity
  8
D-0
  6
Continuous
 62
     7
370
     9
100
AcDbLine
 10
505.2378979167938
 20
356.8122157962511
 30
0.0
 11
505.2378979167938
 21
356.0620746524523
 31
0.0
  0
LINE
  5
2F6
330
1F
100
AcDbEntity
  8
D-0
  6
Continuous
 62
     7
370
     9
100
AcDbLine
 10
505.2378979167938
 20
356.0620746524523
 30
0.0
 11
504.4880047283173
 21
356.0620746524523
 31
0.0
  0
LINE
  5
2F7
330
1F
100
AcDbEntity
  8
D-0
  6
Continuous
 62
     7
370
     9
100
AcDbLine
 10
498.6212394605537
 20
334.3205327777989
 30
0.0
 11
498.6212394605537
 21
335.0706739215977
 31
0.0
  0
LINE
  5
2F8
330
1F
100
AcDbEntity
  8
D-0
  6
Continuous
 62
     7
370
     9
100
AcDbLine
 10
498.6212394605537
 20
335.0706739215977
 30
0.0
 11
499.3711326490302
 21
335.0706739215977
 31
0.0
  0
LINE
  5
2F9
330
1F
100
AcDbEntity
  8
D-0
  6
Continuous
 62
     7
370
     9
100
AcDbLine
 10
499.3711326490302
 20
335.0706739215977
 30
0.0
 11
499.3711326490302
 21
334.3205327777989
 31
0.0
  0
LINE
  5
2FA
330
1F
100
AcDbEntity
  8
D-0
  6
Continuous
 62
     7
370
     9
100
AcDbLine
 10
499.3711326490302
 20
334.3205327777989
 30
0.0
 11
498.6212394605537
 21
334.3205327777989
 31
0.0
  0
LINE
  5
2FB
330
1F
100
AcDbEntity
  8
D-0
  6
Continuous
 62
     7
370
     9
100
AcDbLine
 10
521.743196692328
 20
336.0460519742
 30
0.0
 11
521.743196692328
 21
336.7961931179988
 31
0.0
  0
LINE
  5
2FC
330
1F
100
AcDbEntity
  8
D-0
  6
Continuous
 62
     7
370
     9
100
AcDbLine
 10
521.743196692328
 20
336.7961931179988
 30
0.0
 11
522.4930898808045
 21
336.7961931179988
 31
0.0
  0
LINE
  5
2FD
330
1F
100
AcDbEntity
  8
D-0
  6
Continuous
 62
     7
370
     9
100
AcDbLine
 10
522.4930898808045
 20
336.7961931179988
 30
0.0
 11
522.4930898808045
 21
336.0460519742
 31
0.0
  0
LINE
  5
2FE
330
1F
100
AcDbEntity
  8
D-0
  6
Continuous
 62
     7
370
     9
100
AcDbLine
 10
522.4930898808045
 20
336.0460519742
 30
0.0
 11
521.743196692328
 21
336.0460519742
 31
0.0
  0
LINE
  5
2FF
330
1F
100
AcDbEntity
  8
D-0
  6
Continuous
 62
     7
370
     9
100
AcDbLine
 10
537.9630771384979
 20
341.5677134026834
 30
0.0
 11
537.9630771384979
 21
342.3178545464822
 31
0.0
  0
LINE
  5
300
330
1F
100
AcDbEntity
  8
D-0
  6
Continuous
 62
     7
370
     9
100
AcDbLine
 10
537.9630771384979
 20
342.3178545464822
 30
0.0
 11
538.7129703269744
 21
342.3178545464822
 31
0.0
  0
LINE
  5
301
330
1F
100
AcDbEntity
  8
D-0
  6
Continuous
 62
     7
370
     9
100
AcDbLine
 10
538.7129703269744
 20
342.3178545464822
 30
0.0
 11
538.7129703269744
 21
341.5677134026834
 31
0.0
  0
LINE
  5
302
330
1F
100
AcDbEntity
  8
D-0
  6
Continuous
 62
     7
370
     9
100
AcDbLine
 10
538.7129703269744
 20
341.5677134026834
 30
0.0
 11
537.9630771384979
 21
341.5677134026834
 31
0.0
  0
LINE
  5
303
330
1F
100
AcDbEntity
  8
D-0
  6
Continuous
 62
     7
370
     9
100
AcDbLine
 10
517.2568467816851
 20
367.4505013486993
 30
0.0
 11
517.2568467816851
 21
368.2006424924981
 31
0.0
  0
LINE
  5
304
330
1F
100
AcDbEntity
  8
D-0
  6
Continuous
 62
     7
370
     9
100
AcDbLine
 10
517.2568467816851
 20
368.2006424924981
 30
0.0
 11
518.0067399701617
 21
368.2006424924981
 31
0.0
  0
LINE
  5
305
330
1F
100
AcDbEntity
  8
D-0
  6
Continuous
 62
     7
370
     9
100
AcDbLine
 10
518.0067399701617
 20
368.2006424924981
 30
0.0
 11
518.0067399701617
 21
367.4505013486993
 31
0.0
  0
LINE
  5
306
330
1F
100
AcDbEntity
  8
D-0
  6
Continuous
 62
     7
370
     9
100
AcDbLine
 10
518.0067399701617
 20
367.4505013486993
 30
0.0
 11
517.2568467816851
 21
367.4505013486993
 31
0.0
  0
LINE
  5
307
330
1F
100
AcDbEntity
  8
D-0
  6
Continuous
 62
     7
370
     9
100
AcDbLine
 10
517.4293987013253
 20
345.8815113936861
 30
0.0
 11
517.4293987013253
 21
346.6316525374849
 31
0.0
  0
LINE
  5
308
330
1F
100
AcDbEntity
  8
D-0
  6
Continuous
 62
     7
370
     9
100
AcDbLine
 10
517.4293987013253
 20
346.6316525374849
 30
0.0
 11
518.1792918898019
 21
346.6316525374849
 31
0.0
  0
LINE
  5
309
330
1F
100
AcDbEntity
  8
D-0
  6
Continuous
 62
     7
370
     9
100
AcDbLine
 10
518.1792918898019
 20
346.6316525374849
 30
0.0
 11
518.1792918898019
 21
345.8815113936861
 31
0.0
  0
LINE
  5
30A
330
1F
100
AcDbEntity
  8
D-0
  6
Continuous
 62
     7
370
     9
100
AcDbLine
 10
518.1792918898019
 20
345.8815113936861
 30
0.0
 11
517.4293987013253
 21
345.8815113936861
 31
0.0
  0
LINE
  5
30B
330
1F
100
AcDbEntity
  8
D-0
  6
Continuous
 62
     7
370
     9
100
AcDbLine
 10
557.80654789711
 20
368.65836478618
 30
0.0
 11
557.80654789711
 21
369.4085059299788
 31
0.0
  0
LINE
  5
30C
330
1F
100
AcDbEntity
  8
D-0
  6
Continuous
 62
     7
370
     9
100
AcDbLine
 10
557.80654789711
 20
369.4085059299788
 30
0.0
 11
558.5564410855866
 21
369.4085059299788
 31
0.0
  0
LINE
  5
30D
330
1F
100
AcDbEntity
  8
D-0
  6
Continuous
 62
     7
370
     9
100
AcDbLine
 10
558.5564410855866
 20
369.4085059299788
 30
0.0
 11
558.5564410855866
 21
368.65836478618
 31
0.0
  0
LINE
  5
30E
330
1F
100
AcDbEntity
  8
D-0
  6
Continuous
 62
     7
370
     9
100
AcDbLine
 10
558.5564410855866
 20
368.65836478618
 30
0.0
 11
557.80654789711
 21
368.65836478618
 31
0.0
  0
LINE
  5
30F
330
1F
100
AcDbEntity
  8
D-0
  6
Continuous
 62
     7
370
     9
100
AcDbLine
 10
583.3442320038457
 20
368.65836478618
 30
0.0
 11
583.3442320038457
 21
369.4085059299788
 31
0.0
  0
LINE
  5
310
330
1F
100
AcDbEntity
  8
D-0
  6
Continuous
 62
     7
370
     9
100
AcDbLine
 10
583.3442320038457
 20
369.4085059299788
 30
0.0
 11
584.0941251923223
 21
369.4085059299788
 31
0.0
  0
LINE
  5
311
330
1F
100
AcDbEntity
  8
D-0
  6
Continuous
 62
     7
370
     9
100
AcDbLine
 10
584.0941251923223
 20
369.4085059299788
 30
0.0
 11
584.0941251923223
 21
368.65836478618
 31
0.0
  0
LINE
  5
312
330
1F
100
AcDbEntity
  8
D-0
  6
Continuous
 62
     7
370
     9
100
AcDbLine
 10
584.0941251923223
 20
368.65836478618
 30
0.0
 11
583.3442320038457
 21
368.65836478618
 31
0.0
  0
LINE
  5
313
330
1F
100
AcDbEntity
  8
D-0
  6
Continuous
 62
     7
370
     9
100
AcDbLine
 10
617.5095120925868
 20
369.3485724647405
 30
0.0
 11
617.5095120925868
 21
370.0987136085393
 31
0.0
  0
LINE
  5
314
330
1F
100
AcDbEntity
  8
D-0
  6
Continuous
 62
     7
370
     9
100
AcDbLine
 10
617.5095120925868
 20
370.0987136085393
 30
0.0
 11
618.2594052810633
 21
370.0987136085393
 31
0.0
  0
LINE
  5
315
330
1F
100
AcDbEntity
  8
D-0
  6
Continuous
 62
     7
370
     9
100
AcDbLine
 10
618.2594052810633
 20
370.0987136085393
 30
0.0
 11
618.2594052810633
 21
369.3485724647405
 31
0.0
  0
LINE
  5
316
330
1F
100
AcDbEntity
  8
D-0
  6
Continuous
 62
     7
370
     9
100
AcDbLine
 10
618.2594052810633
 20
369.3485724647405
 30
0.0
 11
617.5095120925868
 21
369.3485724647405
 31
0.0
  0
LINE
  5
317
330
1F
100
AcDbEntity
  8
D-0
  6
Continuous
 62
     7
370
     9
100
AcDbLine
 10
602.6700470035375
 20
365.5524302326581
 30
0.0
 11
602.6700470035375
 21
366.3025713764569
 31
0.0
  0
LINE
  5
318
330
1F
100
AcDbEntity
  8
D-0
  6
Continuous
 62
     7
370
     9
100
AcDbLine
 10
602.6700470035375
 20
366.3025713764569
 30
0.0
 11
603.4199401920141
 21
366.3025713764569
 31
0.0
  0
LINE
  5
319
330
1F
100
AcDbEntity
  8
D-0
  6
Continuous
 62
     7
370
     9
100
AcDbLine
 10
603.4199401920141
 20
366.3025713764569
 30
0.0
 11
603.4199401920141
 21
365.5524302326581
 31
0.0
  0
LINE
  5
31A
330
1F
100
AcDbEntity
  8
D-0
  6
Continuous
 62
     7
370
     9
100
AcDbLine
 10
603.4199401920141
 20
365.5524302326581
 30
0.0
 11
602.6700470035375
 21
365.5524302326581
 31
0.0
  0
LINE
  5
31B
330
1F
100
AcDbEntity
  8
D-0
  6
Continuous
 62
     7
370
     9
100
AcDbLine
 10
570.9204937897581
 20
361.4111841612956
 30
0.0
 11
570.9204937897581
 21
362.1613253050944
 31
0.0
  0
LINE
  5
31C
330
1F
100
AcDbEntity
  8
D-0
  6
Continuous
 62
     7
370
     9
100
AcDbLine
 10
570.9204937897581
 20
362.1613253050944
 30
0.0
 11
571.6703869782347
 21
362.1613253050944
 31
0.0
  0
LINE
  5
31D
330
1F
100
AcDbEntity
  8
D-0
  6
Continuous
 62
     7
370
     9
100
AcDbLine
 10
571.6703869782347
 20
362.1613253050944
 30
0.0
 11
571.6703869782347
 21
361.4111841612956
 31
0.0
  0
LINE
  5
31E
330
1F
100
AcDbEntity
  8
D-0
  6
Continuous
 62
     7
370
     9
100
AcDbLine
 10
571.6703869782347
 20
361.4111841612956
 30
0.0
 11
570.9204937897581
 21
361.4111841612956
 31
0.0
  0
LINE
  5
31F
330
1F
100
AcDbEntity
  8
D-0
  6
Continuous
 62
     7
370
     9
100
AcDbLine
 10
560.5673786113517
 20
348.987445947208
 30
0.0
 11
560.5673786113517
 21
349.7375870910068
 31
0.0
  0
LINE
  5
320
330
1F
100
AcDbEntity
  8
D-0
  6
Continuous
 62
     7
370
     9
100
AcDbLine
 10
560.5673786113517
 20
349.7375870910068
 30
0.0
 11
561.3172717998283
 21
349.7375870910068
 31
0.0
  0
LINE
  5
321
330
1F
100
AcDbEntity
  8
D-0
  6
Continuous
 62
     7
370
     9
100
AcDbLine
 10
561.3172717998283
 20
349.7375870910068
 30
0.0
 11
561.3172717998283
 21
348.987445947208
 31
0.0
  0
LINE
  5
322
330
1F
100
AcDbEntity
  8
D-0
  6
Continuous
 62
     7
370
     9
100
AcDbLine
 10
561.3172717998283
 20
348.987445947208
 30
0.0
 11
560.5673786113517
 21
348.987445947208
 31
0.0
  0
LINE
  5
323
330
1F
100
AcDbEntity
  8
D-0
  6
Continuous
 62
     7
370
     9
100
AcDbLine
 10
559.532067093511
 20
333.1126693403182
 30
0.0
 11
559.532067093511
 21
333.8628104841171
 31
0.0
  0
LINE
  5
324
330
1F
100
AcDbEntity
  8
D-0
  6
Continuous
 62
     7
370
     9
100
AcDbLine
 10
559.532067093511
 20
333.8628104841171
 30
0.0
 11
560.2819602819876
 21
333.8628104841171
 31
0.0
  0
LINE
  5
325
330
1F
100
AcDbEntity
  8
D-0
  6
Continuous
 62
     7
370
     9
100
AcDbLine
 10
560.2819602819876
 20
333.8628104841171
 30
0.0
 11
560.2819602819876
 21
333.1126693403182
 31
0.0
  0
LINE
  5
326
330
1F
100
AcDbEntity
  8
D-0
  6
Continuous
 62
     7
370
     9
100
AcDbLine
 10
560.2819602819876
 20
333.1126693403182
 30
0.0
 11
559.532067093511
 21
333.1126693403182
 31
0.0
  0
LINE
  5
327
330
1F
100
AcDbEntity
  8
D-0
  6
Continuous
 62
     7
370
     9
100
AcDbLine
 10
577.1323628968019
 20
331.7322539831973
 30
0.0
 11
577.1323628968019
 21
332.4823951269962
 31
0.0
  0
LINE
  5
328
330
1F
100
AcDbEntity
  8
D-0
  6
Continuous
 62
     7
370
     9
100
AcDbLine
 10
577.1323628968019
 20
332.4823951269962
 30
0.0
 11
577.8822560852784
 21
332.4823951269962
 31
0.0
  0
LINE
  5
329
330
1F
100
AcDbEntity
  8
D-0
  6
Continuous
 62
     7
370
     9
100
AcDbLine
 10
577.8822560852784
 20
332.4823951269962
 30
0.0
 11
577.8822560852784
 21
331.7322539831973
 31
0.0
  0
LINE
  5
32A
330
1F
100
AcDbEntity
  8
D-0
  6
Continuous
 62
     7
370
     9
100
AcDbLine
 10
577.8822560852784
 20
331.7322539831973
 30
0.0
 11
577.1323628968019
 21
331.7322539831973
 31
0.0
  0
LINE
  5
32B
330
1F
100
AcDbEntity
  8
D-0
  6
Continuous
 62
     7
370
     9
100
AcDbLine
 10
604.3955661999387
 20
330.3518386260765
 30
0.0
 11
604.3955661999387
 21
331.1019797698753
 31
0.0
  0
LINE
  5
32C
330
1F
100
AcDbEntity
  8
D-0
  6
Continuous
 62
     7
370
     9
100
AcDbLine
 10
604.3955661999387
 20
331.1019797698753
 30
0.0
 11
605.1454593884152
 21
331.1019797698753
 31
0.0
  0
LINE
  5
32D
330
1F
100
AcDbEntity
  8
D-0
  6
Continuous
 62
     7
370
     9
100
AcDbLine
 10
605.1454593884152
 20
331.1019797698753
 30
0.0
 11
605.1454593884152
 21
330.3518386260765
 31
0.0
  0
LINE
  5
32E
330
1F
100
AcDbEntity
  8
D-0
  6
Continuous
 62
     7
370
     9
100
AcDbLine
 10
605.1454593884152
 20
330.3518386260765
 30
0.0
 11
604.3955661999387
 21
330.3518386260765
 31
0.0
  0
LINE
  5
32F
330
1F
100
AcDbEntity
  8
D-0
  6
Continuous
 62
     7
370
     9
100
AcDbLine
 10
619.2350312889878
 20
331.0420463046369
 30
0.0
 11
619.2350312889878
 21
331.7921874484358
 31
0.0
  0
LINE
  5
330
330
1F
100
AcDbEntity
  8
D-0
  6
Continuous
 62
     7
370
     9
100
AcDbLine
 10
619.2350312889878
 20
331.7921874484358
 30
0.0
 11
619.9849244774643
 21
331.7921874484358
 31
0.0
  0
LINE
  5
331
330
1F
100
AcDbEntity
  8
D-0
  6
Continuous
 62
     7
370
     9
100
AcDbLine
 10
619.9849244774643
 20
331.7921874484358
 30
0.0
 11
619.9849244774643
 21
331.0420463046369
 31
0.0
  0
LINE
  5
332
330
1F
100
AcDbEntity
  8
D-0
  6
Continuous
 62
     7
370
     9
100
AcDbLine
 10
619.9849244774643
 20
331.0420463046369
 30
0.0
 11
619.2350312889878
 21
331.0420463046369
 31
0.0
  0
LINE
  5
333
330
1F
100
AcDbEntity
  8
D-0
  6
Continuous
 62
     7
370
     9
100
AcDbLine
 10
615.0937852176253
 20
349.3325497864881
 30
0.0
 11
615.0937852176253
 21
350.082690930287
 31
0.0
  0
LINE
  5
334
330
1F
100
AcDbEntity
  8
D-0
  6
Continuous
 62
     7
370
     9
100
AcDbLine
 10
615.0937852176253
 20
350.082690930287
 30
0.0
 11
615.8436784061018
 21
350.082690930287
 31
0.0
  0
LINE
  5
335
330
1F
100
AcDbEntity
  8
D-0
  6
Continuous
 62
     7
370
     9
100
AcDbLine
 10
615.8436784061018
 20
350.082690930287
 30
0.0
 11
615.8436784061018
 21
349.3325497864881
 31
0.0
  0
LINE
  5
336
330
1F
100
AcDbEntity
  8
D-0
  6
Continuous
 62
     7
370
     9
100
AcDbLine
 10
615.8436784061018
 20
349.3325497864881
 30
0.0
 11
615.0937852176253
 21
349.3325497864881
 31
0.0
  0
LINE
  5
337
330
1F
100
AcDbEntity
  8
D-0
  6
Continuous
 62
     7
370
     9
100
AcDbLine
 10
593.0071395036916
 20
331.0420463046369
 30
0.0
 11
593.0071395036916
 21
331.7921874484358
 31
0.0
  0
LINE
  5
338
330
1F
100
AcDbEntity
  8
D-0
  6
Continuous
 62
     7
370
     9
100
AcDbLine
 10
593.0071395036916
 20
331.7921874484358
 30
0.0
 11
593.7570326921682
 21
331.7921874484358
 31
0.0
  0
LINE
  5
339
330
1F
100
AcDbEntity
  8
D-0
  6
Continuous
 62
     7
370
     9
100
AcDbLine
 10
593.7570326921682
 20
331.7921874484358
 30
0.0
 11
593.7570326921682
 21
331.0420463046369
 31
0.0
  0
LINE
  5
33A
330
1F
100
AcDbEntity
  8
D-0
  6
Continuous
 62
     7
370
     9
100
AcDbLine
 10
593.7570326921682
 20
331.0420463046369
 30
0.0
 11
593.0071395036916
 21
331.0420463046369
 31
0.0
  0
LINE
  5
33B
330
1F
100
AcDbEntity
  8
D-0
  6
Continuous
 62
     7
370
     9
100
AcDbLine
 10
598.528800932175
 20
349.6776536257684
 30
0.0
 11
598.528800932175
 21
350.4277947695672
 31
0.0
  0
LINE
  5
33C
330
1F
100
AcDbEntity
  8
D-0
  6
Continuous
 62
     7
370
     9
100
AcDbLine
 10
598.528800932175
 20
350.4277947695672
 30
0.0
 11
599.2786941206516
 21
350.4277947695672
 31
0.0
  0
LINE
  5
33D
330
1F
100
AcDbEntity
  8
D-0
  6
Continuous
 62
     7
370
     9
100
AcDbLine
 10
599.2786941206516
 20
350.4277947695672
 30
0.0
 11
599.2786941206516
 21
349.6776536257684
 31
0.0
  0
LINE
  5
33E
330
1F
100
AcDbEntity
  8
D-0
  6
Continuous
 62
     7
370
     9
100
AcDbLine
 10
599.2786941206516
 20
349.6776536257684
 30
0.0
 11
598.528800932175
 21
349.6776536257684
 31
0.0
  0
LINE
  5
33F
330
1F
100
AcDbEntity
  8
D-0
  6
Continuous
 62
     7
370
     9
100
AcDbLine
 10
578.5127782539228
 20
343.1206806794443
 30
0.0
 11
578.5127782539228
 21
343.8708218232431
 31
0.0
  0
LINE
  5
340
330
1F
100
AcDbEntity
  8
D-0
  6
Continuous
 62
     7
370
     9
100
AcDbLine
 10
578.5127782539228
 20
343.8708218232431
 30
0.0
 11
579.2626714423993
 21
343.8708218232431
 31
0.0
  0
LINE
  5
341
330
1F
100
AcDbEntity
  8
D-0
  6
Continuous
 62
     7
370
     9
100
AcDbLine
 10
579.2626714423993
 20
343.8708218232431
 30
0.0
 11
579.2626714423993
 21
343.1206806794443
 31
0.0
  0
LINE
  5
342
330
1F
100
AcDbEntity
  8
D-0
  6
Continuous
 62
     7
370
     9
100
AcDbLine
 10
579.2626714423993
 20
343.1206806794443
 30
0.0
 11
578.5127782539228
 21
343.1206806794443
 31
0.0
  0
LINE
  5
343
330
1F
100
AcDbEntity
  8
D-0
  6
Continuous
 62
     7
370
     9
100
AcDbLine
 10
585.7599588788072
 20
351.4031728221694
 30
0.0
 11
585.7599588788072
 21
352.1533139659682
 31
0.0
  0
LINE
  5
344
330
1F
100
AcDbEntity
  8
D-0
  6
Continuous
 62
     7
370
     9
100
AcDbLine
 10
585.7599588788072
 20
352.1533139659682
 30
0.0
 11
586.5098520672838
 21
352.1533139659682
 31
0.0
  0
LINE
  5
345
330
1F
100
AcDbEntity
  8
D-0
  6
Continuous
 62
     7
370
     9
100
AcDbLine
 10
586.5098520672838
 20
352.1533139659682
 30
0.0
 11
586.5098520672838
 21
351.4031728221694
 31
0.0
  0
LINE
  5
346
330
1F
100
AcDbEntity
  8
D-0
  6
Continuous
 62
     7
370
     9
100
AcDbLine
 10
586.5098520672838
 20
351.4031728221694
 30
0.0
 11
585.7599588788072
 21
351.4031728221694
 31
0.0
  0
LINE
  5
347
330
1F
100
AcDbEntity
  8
D-5
  6
Continuous
 62
     7
370
     9
100
AcDbLine
 10
529.243716678104
 20
472.5737865551099
 30
0.0
 11
706.7436836861276
 21
472.5737865551099
 31
0.0
  0
LINE
  5
348
330
1F
100
AcDbEntity
  8
D-5
  6
Continuous
 62
     7
370
     9
100
AcDbLine
 10
219.3666612779772
 20
294.1154851140203
 30
0.0
 11
264.6201881202492
 21
372.3814433329815
 31
0.0
  0
LINE
  5
349
330
1F
100
AcDbEntity
  8
D-5
  6
Continuous
 62
     7
370
     9
100
AcDbLine
 10
317.8858164194469
 20
253.7684425147805
 30
0.0
 11
377.3448634792018
 21
338.7635267103042
 31
0.0
  0
LINE
  5
34A
330
1F
100
AcDbEntity
  8
D-5
  6
Continuous
 62
     7
370
     9
100
AcDbLine
 10
264.6201881202492
 20
372.3814433329815
 30
0.0
 11
259.8292582743878
 21
360.835901208826
 31
0.0
  0
LINE
  5
34B
330
1F
100
AcDbEntity
  8
D-5
  6
Continuous
 62
     7
370
     9
100
AcDbLine
 10
264.6201881202492
 20
372.3814433329815
 30
0.0
 11
257.0042378193625
 21
362.4692514780406
 31
0.0
  0
LINE
  5
34C
330
1F
100
AcDbEntity
  8
D-5
  6
Continuous
 62
     7
370
     9
100
AcDbLine
 10
377.3448634792018
 20
338.7635267103042
 30
0.0
 11
371.5780309728675
 21
327.6732738597974
 31
0.0
  0
LINE
  5
34D
330
1F
100
AcDbEntity
  8
D-5
  6
Continuous
 62
     7
370
     9
100
AcDbLine
 10
377.3448634792018
 20
338.7635267103042
 30
0.0
 11
368.9041962494721
 21
329.543918918919
 31
0.0
  0
LINE
  5
34E
330
1F
100
AcDbEntity
  8
D-5
  6
Continuous
 62
     7
370
     9
100
AcDbLine
 10
403.9654293575802
 20
411.6880014780406
 30
0.0
 11
490.1630710911107
 21
554.9628345386404
 31
0.0
  0
LINE
  5
34F
330
1F
100
AcDbEntity
  8
D-5
  6
Continuous
 62
     7
370
     9
100
AcDbLine
 10
776.1287792308912
 20
554.9628345386404
 30
0.0
 11
490.1630710911107
 21
554.9628345386404
 31
0.0
  0
LINE
  5
350
330
1F
100
AcDbEntity
  8
D-5
  6
Continuous
 62
     7
370
     9
100
AcDbLine
 10
443.0455800649284
 20
329.2989534945102
 30
0.0
 11
529.243716678104
 21
472.5737865551099
 31
0.0
  0
LINE
  5
351
330
1F
100
AcDbEntity
  8
D-5
  6
Continuous
 62
     7
370
     9
100
AcDbLine
 10
434.464861895587
 20
417.1136144689612
 30
0.0
 11
496.259493441195
 21
519.8258848448058
 31
0.0
  0
LINE
  5
352
330
1F
100
AcDbEntity
  8
D-5
  6
Continuous
 62
     7
370
     9
100
AcDbLine
 10
496.259493441195
 20
519.8258848448058
 30
0.0
 11
766.9255024678
 21
519.8258848448058
 31
0.0
  0
LINE
  5
353
330
1F
100
AcDbEntity
  8
D-5
  6
Continuous
 62
     7
370
     9
100
AcDbLine
 10
403.9654293575802
 20
411.6880014780406
 30
0.0
 11
408.956290580131
 21
423.1484243032095
 31
0.0
  0
LINE
  5
354
330
1F
100
AcDbEntity
  8
D-5
  6
Continuous
 62
     7
370
     9
100
AcDbLine
 10
403.9654293575802
 20
411.6880014780406
 30
0.0
 11
411.7523605759081
 21
421.4663283889358
 31
0.0
  0
LINE
  5
355
330
1F
100
AcDbEntity
  8
D-5
  6
Continuous
 62
     7
370
     9
100
AcDbLine
 10
434.464861895587
 20
417.1136144689612
 30
0.0
 11
439.4557231181378
 21
428.5740372941301
 31
0.0
  0
LINE
  5
356
330
1F
100
AcDbEntity
  8
D-5
  6
Continuous
 62
     7
370
     9
100
AcDbLine
 10
434.464861895587
 20
417.1136144689612
 30
0.0
 11
442.2517931139149
 21
426.8916939400339
 31
0.0
  0
LINE
  5
357
330
1F
100
AcDbEntity
  8
D-5
  6
Continuous
 62
     7
370
     9
100
AcDbLine
 10
443.0455800649284
 20
329.2989534945102
 30
0.0
 11
448.0364412874789
 21
340.7593763196792
 31
0.0
  0
LINE
  5
358
330
1F
100
AcDbEntity
  8
D-5
  6
Continuous
 62
     7
370
     9
100
AcDbLine
 10
443.0455800649284
 20
329.2989534945102
 30
0.0
 11
450.832511283256
 21
339.0772804054055
 31
0.0
  0
TEXT
  5
359
330
1F
100
AcDbEntity
  8
D-5
  6
Continuous
 62
     7
370
     9
100
AcDbText
 10
531.4637235397405
 20
476.7116071051693
 30
0.0
 40
11.43
  1
アンカー（ＳＰＨＣ）
 50
359.9999589064881
 41
1.15
  7
ＭＳ ゴシック
100
AcDbText
  0
TEXT
  5
35A
330
1F
100
AcDbEntity
  8
D-5
  6
Continuous
 62
     7
370
     9
100
AcDbText
 10
497.6884213009397
 20
558.8801862067146
 30
0.0
 40
11.43
  1
蓋フレーム（Ａ６０６３Ｓ－Ｔ５）
 41
1.15625
  7
ＭＳ ゴシック
100
AcDbText
  0
TEXT
  5
35B
330
1F
100
AcDbEntity
  8
D-5
  6
Continuous
 62
     7
370
     9
100
AcDbText
 10
502.1020054172826
 20
524.5268784311656
 30
0.0
 40
11.43
  1
アルミ受枠（Ａ６０６３Ｓ－Ｔ５）
 41
1.15625
  7
ＭＳ ゴシック
100
AcDbText
  0
LINE
  5
35C
330
1F
100
AcDbEntity
  8
D-5
  6
Continuous
 62
     7
370
     9
100
AcDbLine
 10
33.38124043232696
 20
-261.465788145323
 30
0.0
 11
190.5859457479941
 21
-261.465788145323
 31
0.0
  0
LINE
  5
35D
330
1F
100
AcDbEntity
  8
D-5
  6
Continuous
 62
     7
370
     9
100
AcDbLine
 10
190.5859457479941
 20
-261.465788145323
 30
0.0
 11
213.1952646616344
 21
-284.1359772553315
 31
0.0
  0
LINE
  5
35E
330
1F
100
AcDbEntity
  8
D-5
  6
Continuous
 62
     7
370
     9
100
AcDbLine
 10
213.1952646616344
 20
-284.1359772553315
 30
0.0
 11
203.2887639226141
 21
-276.5132223593222
 31
0.0
  0
LINE
  5
35F
330
1F
100
AcDbEntity
  8
D-5
  6
Continuous
 62
     7
370
     9
100
AcDbLine
 10
213.1952646616344
 20
-284.1359772553315
 30
0.0
 11
205.5988621067357
 21
-274.2089390110325
 31
0.0
  0
LINE
  5
360
330
1F
100
AcDbEntity
  8
D-5
  6
Continuous
 62
     7
370
     9
100
AcDbLine
 10
23.21344324060391
 20
-176.9853787808805
 30
0.0
 11
188.1617778056378
 21
-176.9853787808805
 31
0.0
  0
LINE
  5
361
330
1F
100
AcDbEntity
  8
D-5
  6
Continuous
 62
     7
370
     9
100
AcDbLine
 10
53.27465985272383
 20
-311.1154545964421
 30
0.0
 11
220.4403026683912
 21
-311.1154545964421
 31
0.0
  0
LINE
  5
362
330
1F
100
AcDbEntity
  8
D-5
  6
Continuous
 62
     7
370
     9
100
AcDbLine
 10
188.1617778056378
 20
-176.9853787808805
 30
0.0
 11
235.8538240999789
 21
-261.2606605323585
 31
0.0
  0
LINE
  5
363
330
1F
100
AcDbEntity
  8
D-5
  6
Continuous
 62
     7
370
     9
100
AcDbLine
 10
235.8538240999789
 20
-261.2606605323585
 30
0.0
 11
228.3299214131124
 21
-251.2784432076119
 31
0.0
  0
LINE
  5
364
330
1F
100
AcDbEntity
  8
D-5
  6
Continuous
 62
     7
370
     9
100
AcDbLine
 10
235.8538240999789
 20
-261.2606605323585
 30
0.0
 11
231.1697882574958
 21
-249.6713215595967
 31
0.0
  0
LINE
  5
365
330
1F
100
AcDbEntity
  8
D-5
  6
Continuous
 62
     7
370
     9
100
AcDbLine
 10
220.4403026683912
 20
-311.1154545964421
 30
0.0
 11
262.6456183356208
 21
-286.2608667322107
 31
0.0
  0
LINE
  5
366
330
1F
100
AcDbEntity
  8
D-5
  6
Continuous
 62
     7
370
     9
100
AcDbLine
 10
262.6456183356208
 20
-286.2608667322107
 30
0.0
 11
252.7945441168708
 21
-293.9555028966955
 31
0.0
  0
LINE
  5
367
330
1F
100
AcDbEntity
  8
D-5
  6
Continuous
 62
     7
370
     9
100
AcDbLine
 10
262.6456183356208
 20
-286.2608667322107
 30
0.0
 11
251.1386768237966
 21
-291.1435967522698
 31
0.0
  0
LINE
  5
368
330
1F
100
AcDbEntity
  8
D-5
  6
Continuous
 62
     7
370
     9
100
AcDbLine
 10
220.4403026683912
 20
-311.1154545964421
 30
0.0
 11
288.3170050543708
 21
-330.2482440020586
 31
0.0
  0
LINE
  5
369
330
1F
100
AcDbEntity
  8
D-5
  6
Continuous
 62
     7
370
     9
100
AcDbLine
 10
288.3170050543708
 20
-330.2482440020586
 30
0.0
 11
275.9460036819047
 21
-328.456284806535
 31
0.0
  0
LINE
  5
36A
330
1F
100
AcDbEntity
  8
D-5
  6
Continuous
 62
     7
370
     9
100
AcDbLine
 10
288.3170050543708
 20
-330.2482440020586
 30
0.0
 11
276.8313433672932
 21
-325.3155311378273
 31
0.0
  0
TEXT
  5
36B
330
1F
100
AcDbEntity
  8
D-5
  6
Continuous
 62
     7
370
     9
100
AcDbText
 10
34.77529577306804
 20
-256.0776541715055
 30
0.0
 40
11.43
  1
アルミ製ボックス
 41
1.145833333333333
  7
ＭＳ ゴシック
100
AcDbText
  0
TEXT
  5
36C
330
1F
100
AcDbEntity
  8
D-5
  6
Continuous
 62
     7
370
     9
100
AcDbText
 10
34.77533288904141
 20
-240.4681604003906
 30
0.0
 40
11.43
  1
かさ上げ用
 41
1.133333333333333
  7
ＭＳ ゴシック
100
AcDbText
  0
TEXT
  5
36D
330
1F
100
AcDbEntity
  8
D-5
  6
Continuous
 62
     7
370
     9
100
AcDbText
 10
25.62396487674199
 20
-169.9869064413534
 30
0.0
 40
11.43
  1
把手カバー　ｔ＝0.5
 41
1.157894736842105
  7
ＭＳ ゴシック
100
AcDbText
  0
TEXT
  5
36E
330
1F
100
AcDbEntity
  8
D-5
  6
Continuous
 62
     7
370
     9
100
AcDbText
 10
42.49764519768796
 20
-191.8323786225189
 30
0.0
 40
11.43
  1
（SUS304　ＨＬ）
 41
1.145833333333333
  7
ＭＳ ゴシック
100
AcDbText
  0
TEXT
  5
36F
330
1F
100
AcDbEntity
  8
D-5
  6
Continuous
 62
     7
370
     9
100
AcDbText
 10
61.06283651815886
 20
-385.1802476707664
 30
0.0
 40
11.43
  1
ストッパープレート
 41
1.148148148148148
  7
ＭＳ ゴシック
100
AcDbText
  0
TEXT
  5
370
330
1F
100
AcDbEntity
  8
D-5
  6
Continuous
 62
     7
370
     9
100
AcDbText
 10
98.99633046743034
 20
-305.7273206226245
 30
0.0
 40
11.43
  1
把手本体
 41
1.125
  7
ＭＳ ゴシック
100
AcDbText
  0
TEXT
  5
371
330
1F
100
AcDbEntity
  8
D-5
  6
Continuous
 62
     7
370
     9
100
AcDbText
 10
49.29877203864024
 20
-328.3376292955552
 30
0.0
 40
11.43
  1
（強化ナイロン樹脂）
 41
1.15
  7
ＭＳ ゴシック
100
AcDbText
  0
TEXT
  5
372
330
1F
100
AcDbEntity
  8
D-5
  6
Continuous
 62
     7
370
     9
100
AcDbText
 10
53.35902858424838
 20
-408.6231913468645
 30
0.0
 40
11.43
  1
（SUS304　ｔ＝2.5）
 41
1.149122807017544
  7
ＭＳ ゴシック
100
AcDbText
  0
LINE
  5
373
330
1F
100
AcDbEntity
  8
D-5
  6
Continuous
 62
     7
370
     9
100
AcDbLine
 10
245.8169885583825
 20
-366.2608832281989
 30
0.0
 11
239.641385465055
 21
-377.1286876781567
 31
0.0
  0
LINE
  5
374
330
1F
100
AcDbEntity
  8
D-5
  6
Continuous
 62
     7
370
     9
100
AcDbLine
 10
245.8169885583825
 20
-366.2608832281989
 30
0.0
 11
237.0393082902237
 21
-375.1600564492715
 31
0.0
  0
LINE
  5
375
330
1F
100
AcDbEntity
  8
D-5
  6
Continuous
 62
     7
370
     9
100
AcDbLine
 10
52.62612007759714
 20
-392.4323458284945
 30
0.0
 11
226.0187967088944
 21
-392.4323458284945
 31
0.0
  0
LINE
  5
376
330
1F
100
AcDbEntity
  8
D-5
  6
Continuous
 62
     7
370
     9
100
AcDbLine
 10
226.0187967088944
 20
-392.4323458284945
 30
0.0
 11
245.8169885583825
 21
-366.2608832281989
 31
0.0
  0
LINE
  5
377
330
1F
100
AcDbEntity
  8
D-4
  6
Continuous
 62
     7
370
     9
100
AcDbLine
 10
210.8168730864655
 20
-140.5154707625105
 30
0.0
 11
440.8171370222763
 21
-140.5154707625105
 31
0.0
  0
LINE
  5
378
330
1F
100
AcDbEntity
  8
D-4
  6
Continuous
 62
     7
370
     9
100
AcDbLine
 10
533.3420624604096
 20
-96.26135336386184
 30
0.0
 11
533.3420624604096
 21
-8.761188403980071
 31
0.0
  0
LINE
  5
379
330
1F
100
AcDbEntity
  8
D-4
  6
Continuous
 62
     7
370
     9
100
AcDbLine
 10
448.3170380463471
 20
-96.26135336386184
 30
0.0
 11
534.8417952254013
 21
-96.26135336386184
 31
0.0
  0
LINE
  5
37A
330
1F
100
AcDbEntity
  8
D-4
  6
Continuous
 62
     7
370
     9
100
AcDbLine
 10
448.3170380463471
 20
-8.761188403980071
 30
0.0
 11
534.8417952254013
 21
-8.761188403980071
 31
0.0
  0
LINE
  5
37B
330
1F
100
AcDbEntity
  8
D-4
  6
Continuous
 62
     7
370
     9
100
AcDbLine
 10
533.3420624604096
 20
-386.260701772329
 30
0.0
 11
533.3420624604096
 21
-186.2606605323585
 31
0.0
  0
LINE
  5
37C
330
1F
100
AcDbEntity
  8
D-4
  6
Continuous
 62
     7
370
     9
100
AcDbLine
 10
375.8171700142526
 20
-386.260701772329
 30
0.0
 11
534.8417952254013
 21
-386.260701772329
 31
0.0
  0
LINE
  5
37D
330
1F
100
AcDbEntity
  8
D-4
  6
Continuous
 62
     7
370
     9
100
AcDbLine
 10
453.3170545423354
 20
-261.2606605323585
 30
0.0
 11
534.8417952254013
 21
-261.2606605323585
 31
0.0
  0
LINE
  5
37E
330
1F
100
AcDbEntity
  8
D-4
  6
Continuous
 62
     7
370
     9
100
AcDbLine
 10
418.0670248495568
 20
-186.2606605323585
 30
0.0
 11
534.8417952254013
 21
-186.2606605323585
 31
0.0
  0
TEXT
  5
37F
330
1F
100
AcDbEntity
  8
D-4
  6
Continuous
 62
     2
370
     9
100
AcDbText
 10
315.1919431944152
 20
-132.6954542665223
 30
0.0
 40
15.24
  1
92
 41
1.0625
  7
ＭＳ ゴシック
100
AcDbText
  0
TEXT
  5
380
330
1F
100
AcDbEntity
  8
D-4
  6
Continuous
 62
     2
370
     9
100
AcDbText
 10
525.5215510847762
 20
-63.13633274387662
 30
0.0
 40
15.24
  1
35
 50
90.0
 41
1.0625
  7
ＭＳ ゴシック
100
AcDbText
  0
TEXT
  5
381
330
1F
100
AcDbEntity
  8
D-4
  6
Continuous
 62
     2
370
     9
100
AcDbText
 10
525.5215510847762
 20
-334.3856811523438
 30
0.0
 40
15.24
  1
50
 50
90.0
 41
1.0625
  7
ＭＳ ゴシック
100
AcDbText
  0
TEXT
  5
382
330
1F
100
AcDbEntity
  8
D-4
  6
Continuous
 62
     2
370
     9
100
AcDbText
 10
525.5215510847762
 20
-234.3857223923142
 30
0.0
 40
15.24
  1
30
 50
90.0
 41
1.0625
  7
ＭＳ ゴシック
100
AcDbText
  0
LWPOLYLINE
  5
383
330
1F
100
AcDbEntity
  8
D-4
  6
Continuous
 62
     7
370
     9
100
AcDbPolyline
 90
        4
 70
     1
 43
0.5
 10
211.0668730864655
 20
-140.5154707625105
 42
0.4142135623731
 10
210.8168730864655
 20
-140.2654707625105
 42
0.4142135623731
 10
210.5668730864655
 20
-140.5154707625105
 42
0.4142135623731
 10
210.8168730864655
 20
-140.7654707625105
 42
0.4142135623731
  0
LWPOLYLINE
  5
384
330
1F
100
AcDbEntity
  8
D-4
  6
Continuous
 62
     7
370
     9
100
AcDbPolyline
 90
        4
 70
     1
 43
0.5
 10
441.0671370222763
 20
-140.5154707625105
 42
0.4142135623731
 10
440.8171370222763
 20
-140.2654707625105
 42
0.4142135623731
 10
440.5671370222763
 20
-140.5154707625105
 42
0.4142135623731
 10
440.8171370222763
 20
-140.7654707625105
 42
0.4142135623731
  0
LWPOLYLINE
  5
385
330
1F
100
AcDbEntity
  8
D-4
  6
Continuous
 62
     7
370
     9
100
AcDbPolyline
 90
        4
 70
     1
 43
0.5
 10
533.5920624604096
 20
-96.26135336386184
 42
0.4142135623731
 10
533.3420624604096
 20
-96.01135336386184
 42
0.4142135623731
 10
533.0920624604097
 20
-96.26135336386184
 42
0.4142135623731
 10
533.3420624604096
 20
-96.51135336386184
 42
0.4142135623731
  0
LWPOLYLINE
  5
386
330
1F
100
AcDbEntity
  8
D-4
  6
Continuous
 62
     7
370
     9
100
AcDbPolyline
 90
        4
 70
     1
 43
0.5
 10
533.5920624604096
 20
-8.761188403980071
 42
0.4142135623731
 10
533.3420624604096
 20
-8.511188403980071
 42
0.4142135623731
 10
533.0920624604097
 20
-8.761188403980071
 42
0.4142135623731
 10
533.3420624604096
 20
-9.011188403980071
 42
0.4142135623731
  0
LWPOLYLINE
  5
387
330
1F
100
AcDbEntity
  8
D-4
  6
Continuous
 62
     7
370
     9
100
AcDbPolyline
 90
        4
 70
     1
 43
0.5
 10
533.5920624604096
 20
-386.260701772329
 42
0.4142135623731
 10
533.3420624604096
 20
-386.010701772329
 42
0.4142135623731
 10
533.0920624604097
 20
-386.260701772329
 42
0.4142135623731
 10
533.3420624604096
 20
-386.510701772329
 42
0.4142135623731
  0
LWPOLYLINE
  5
388
330
1F
100
AcDbEntity
  8
D-4
  6
Continuous
 62
     7
370
     9
100
AcDbPolyline
 90
        4
 70
     1
 43
0.5
 10
533.5920624604096
 20
-261.2606605323585
 42
0.4142135623731
 10
533.3420624604096
 20
-261.0106605323585
 42
0.4142135623731
 10
533.0920624604097
 20
-261.2606605323585
 42
0.4142135623731
 10
533.3420624604096
 20
-261.5106605323585
 42
0.4142135623731
  0
LWPOLYLINE
  5
389
330
1F
100
AcDbEntity
  8
D-4
  6
Continuous
 62
     7
370
     9
100
AcDbPolyline
 90
        4
 70
     1
 43
0.5
 10
533.5920624604096
 20
-186.2606605323585
 42
0.4142135623731
 10
533.3420624604096
 20
-186.0106605323585
 42
0.4142135623731
 10
533.0920624604097
 20
-186.2606605323585
 42
0.4142135623731
 10
533.3420624604096
 20
-186.5106605323585
 42
0.4142135623731
  0
LINE
  5
38A
330
1F
100
AcDbEntity
  8
D-4
  6
Continuous
 62
     7
370
     9
100
AcDbLine
 10
440.8171370222763
 20
-103.7612543879328
 30
0.0
 11
440.8171370222763
 21
-142.0154509673247
 31
0.0
  0
LINE
  5
38B
330
1F
100
AcDbEntity
  8
D-4
  6
Continuous
 62
     7
370
     9
100
AcDbLine
 10
210.8168730864655
 20
-103.7612543879328
 30
0.0
 11
210.8168730864655
 21
-142.0154509673247
 31
0.0
  0
TEXT
  5
38C
330
1F
100
AcDbEntity
  8
D-5
  6
Continuous
 62
     7
370
     9
100
AcDbText
 10
163.1917296372242
 20
235.9983191211264
 30
0.0
 40
11.43
  1
軟質ポリ塩化ビニル
 50
0.000138314752
 41
1.148148148148148
  7
ＭＳ ゴシック
100
AcDbText
  0
TEXT
  5
38D
330
1F
100
AcDbEntity
  8
D-5
  6
Continuous
 62
     7
370
     9
100
AcDbText
 10
191.564845024122
 20
258.2888336747101
 30
0.0
 40
11.43
  1
クッション
 50
0.000138314752
 41
1.133333333333333
  7
ＭＳ ゴシック
100
AcDbText
  0
LINE
  5
38E
330
1F
100
AcDbEntity
  8
D-5
  6
Continuous
 62
     7
370
     9
100
AcDbLine
 10
317.8858164194469
 20
253.7684425147805
 30
0.0
 11
161.1691012813485
 21
253.7684425147805
 31
0.0
  0
LINE
  5
38F
330
1F
100
AcDbEntity
  8
0-4
  6
Continuous
 62
     7
370
     9
100
AcDbLine
 10
-465.2972247149493
 20
-64.64226289517471
 30
0.0
 11
-205.2973566828547
 21
-64.64226289517471
 31
0.0
  0
LWPOLYLINE
  5
390
330
1F
100
AcDbEntity
  8
0-4
  6
Continuous
 62
     7
370
     9
100
AcDbPolyline
 90
        4
 70
     1
 43
0.5
 10
-465.0472247149493
 20
-64.64226289517471
 42
0.4142135623731
 10
-465.2972247149493
 20
-64.39226289517471
 42
0.4142135623731
 10
-465.5472247149493
 20
-64.64226289517471
 42
0.4142135623731
 10
-465.2972247149493
 20
-64.89226289517472
 42
0.4142135623731
  0
LWPOLYLINE
  5
391
330
1F
100
AcDbEntity
  8
0-4
  6
Continuous
 62
     7
370
     9
100
AcDbPolyline
 90
        4
 70
     1
 43
0.5
 10
-205.0473566828547
 20
-64.64226289517471
 42
0.4142135623731
 10
-205.2973566828547
 20
-64.39226289517471
 42
0.4142135623731
 10
-205.5473566828547
 20
-64.64226289517471
 42
0.4142135623731
 10
-205.2973566828547
 20
-64.89226289517472
 42
0.4142135623731
  0
LINE
  5
392
330
1F
100
AcDbEntity
  8
0-4
  6
Continuous
 62
     7
370
     9
100
AcDbLine
 10
-465.2972247149493
 20
-66.14226289517472
 30
0.0
 11
-465.2972247149493
 21
-22.53619219805742
 31
0.0
  0
LINE
  5
393
330
1F
100
AcDbEntity
  8
0-4
  6
Continuous
 62
     7
370
     9
100
AcDbLine
 10
-205.2973566828547
 20
-66.14226289517472
 30
0.0
 11
-205.2973566828547
 21
-22.53619219805742
 31
0.0
  0
TEXT
  5
394
330
1F
100
AcDbEntity
  8
0-4
  6
Continuous
 62
     2
370
   211
100
AcDbText
 10
-351.547290698902
 20
-59.32226289517471
 30
0.0
 40
15.24
  1
260
 41
1.083333333333333
  7
ＭＳ ゴシック
100
AcDbText
  0
TEXT
  5
395
330
1F
100
AcDbEntity
  8
D-5
  6
Continuous
 62
     7
370
     9
100
AcDbText
 10
63.67536139636076
 20
299.212629856419
 30
0.0
 40
11.43
  1
底板　ｔ＝３．２
 41
1.145833333333333
  7
ＭＳ ゴシック
100
AcDbText
  0
TEXT
  5
396
330
1F
100
AcDbEntity
  8
D-5
  6
Continuous
 62
     7
370
     9
100
AcDbText
 10
63.67536139636076
 20
277.8894774404325
 30
0.0
 40
11.43
  1
溶融亜鉛めっき鋼板
 41
1.148148148148148
  7
ＭＳ ゴシック
100
AcDbText
  0
LINE
  5
397
330
1F
100
AcDbEntity
  8
D-5
  6
Continuous
 62
     7
370
     9
100
AcDbLine
 10
59.30654477039737
 20
294.1154851140203
 30
0.0
 11
219.3666612779772
 21
294.1154851140203
 31
0.0
  0
TEXT
  5
398
330
1F
100
AcDbEntity
  8
F-0
  6
Continuous
 62
     7
370
     9
100
AcDbText
 10
-425.9400765089363
 20
-663.122045203969
 30
0.0
 40
11.43
  1
フロアーハッチ　フローリング床材用（フローリング厚15mm）屋内用　一般形
 41
1.161904761904762
  7
ＭＳ ゴシック
100
AcDbText
  0
TEXT
  5
399
330
1F
100
AcDbEntity
  8
F-0
  6
Continuous
 62
     7
370
     9
100
AcDbText
 10
-425.4123102723946
 20
-680.9706145819221
 30
0.0
 40
11.43
  1
アルミニウム＋スチール製　アルミニウム目地　ＭＯＦＭ－４５０－１５－Ｃ
 41
1.161904761904762
  7
ＭＳ ゴシック
100
AcDbText
  0
ENDSEC
  0
SECTION
  2
OBJECTS
  0
DICTIONARY
  5
C
330
0
100
AcDbDictionary
281
     1
  3
ACAD_GROUP
350
D
  3
ACAD_LAYOUT
350
1A
  3
ACAD_MLEADERSTYLE
350
39B
  3
ACAD_MLINESTYLE
350
17
  3
ACAD_PLOTSETTINGS
350
19
  3
ACAD_PLOTSTYLENAME
350
E
  3
ACAD_TABLESTYLE
350
39A
  3
ACAD_VISUALSTYLE
350
2A
  0
DICTIONARY
  5
D
102
{ACAD_REACTORS
330
C
102
}
330
C
100
AcDbDictionary
281
     1
  0
DICTIONARY
  5
1A
102
{ACAD_REACTORS
330
C
102
}
330
C
100
AcDbDictionary
281
     1
  3
Layout1
350
1E
  3
Layout2
350
26
  3
Model
350
22
  0
DICTIONARY
  5
39B
102
{ACAD_REACTORS
330
C
102
}
330
C
100
AcDbDictionary
281
     1
  0
DICTIONARY
  5
17
102
{ACAD_REACTORS
330
C
102
}
330
C
100
AcDbDictionary
281
     1
  3
Standard
350
18
  0
DICTIONARY
  5
19
102
{ACAD_REACTORS
330
C
102
}
330
C
100
AcDbDictionary
281
     1
  0
ACDBDICTIONARYWDFLT
  5
E
102
{ACAD_REACTORS
330
C
102
}
330
C
100
AcDbDictionary
281
     1
  3
Normal
350
F
100
AcDbDictionaryWithDefault
340
F
  0
DICTIONARY
  5
39A
102
{ACAD_REACTORS
330
C
102
}
330
C
100
AcDbDictionary
281
     1
  0
DICTIONARY
  5
2A
102
{ACAD_REACTORS
330
C
102
}
330
C
100
AcDbDictionary
281
     1
  3
2dWireframe
350
2F
  3
3D Hidden
350
31
  3
3dWireframe
350
30
  3
Basic
350
32
  3
Brighten
350
36
  3
ColorChange
350
3A
  3
Conceptual
350
34
  3
Dim
350
35
  3
Facepattern
350
39
  3
Flat
350
2B
  3
FlatWithEdges
350
2C
  3
Gouraud
350
2D
  3
GouraudWithEdges
350
2E
  3
Linepattern
350
38
  3
Realistic
350
33
  3
Thicken
350
37
  0
LAYOUT
  5
1E
102
{ACAD_REACTORS
330
1A
102
}
330
1A
100
AcDbPlotSettings
  1

  2
none_device
  4

  6

 40
0.0
 41
0.0
 42
0.0
 43
0.0
 44
0.0
 45
0.0
 46
0.0
 47
0.0
 48
0.0
 49
0.0
140
0.0
141
0.0
142
1.0
143
1.0
 70
   688
 72
     0
 73
     0
 74
     5
  7

 75
    16
 76
     0
 77
     5
 78
   300
147
1.0
148
0.0
149
0.0
100
AcDbLayout
  1
Layout1
 70
     1
 71
     1
 10
0.0
 20
0.0
 11
420.0
 21
297.0
 12
0.0
 22
0.0
 32
0.0
 14
1.000000000000000E+20
 24
1.000000000000000E+20
 34
1.000000000000000E+20
 15
-1.000000000000000E+20
 25
-1.000000000000000E+20
 35
-1.000000000000000E+20
146
0.0
 13
0.0
 23
0.0
 33
0.0
 16
1.0
 26
0.0
 36
0.0
 17
0.0
 27
1.0
 37
0.0
 76
     0
330
1B
  0
LAYOUT
  5
26
102
{ACAD_REACTORS
330
1A
102
}
330
1A
100
AcDbPlotSettings
  1

  2
none_device
  4

  6

 40
0.0
 41
0.0
 42
0.0
 43
0.0
 44
0.0
 45
0.0
 46
0.0
 47
0.0
 48
0.0
 49
0.0
140
0.0
141
0.0
142
1.0
143
1.0
 70
   688
 72
     0
 73
     0
 74
     5
  7

 75
    16
 76
     0
 77
     5
 78
   300
147
1.0
148
0.0
149
0.0
100
AcDbLayout
  1
Layout2
 70
     1
 71
     2
 10
0.0
 20
0.0
 11
0.0
 21
0.0
 12
0.0
 22
0.0
 32
0.0
 14
0.0
 24
0.0
 34
0.0
 15
0.0
 25
0.0
 35
0.0
146
0.0
 13
0.0
 23
0.0
 33
0.0
 16
1.0
 26
0.0
 36
0.0
 17
0.0
 27
1.0
 37
0.0
 76
     0
330
23
  0
LAYOUT
  5
22
102
{ACAD_REACTORS
330
1A
102
}
330
1A
100
AcDbPlotSettings
  1

  2
none_device
  4

  6

 40
0.0
 41
0.0
 42
0.0
 43
0.0
 44
0.0
 45
0.0
 46
0.0
 47
0.0
 48
0.0
 49
0.0
140
0.0
141
0.0
142
1.0
143
1.0
 70
  1712
 72
     0
 73
     0
 74
     0
  7

 75
     0
 76
     0
 77
     5
 78
   300
147
1.0
148
0.0
149
0.0
100
AcDbLayout
  1
Model
 70
     1
 71
     0
 10
-1050.0
 20
-742.5
 11
1050.0
 21
742.5
 12
0.0
 22
0.0
 32
0.0
 14
-1050.0
 24
-742.5
 34
0.0
 15
1050.0
 25
742.5
 35
0.0
146
0.0
 13
0.0
 23
0.0
 33
0.0
 16
1.0
 26
0.0
 36
0.0
 17
0.0
 27
1.0
 37
0.0
 76
     0
330
1F
331
29
  0
MLINESTYLE
  5
18
102
{ACAD_REACTORS
330
17
102
}
330
17
100
AcDbMlineStyle
  2
Standard
 70
     0
  3

 62
   256
 51
90.0
 52
90.0
 71
     2
 49
0.5
 62
   256
  6
BYLAYER
 49
-0.5
 62
   256
  6
BYLAYER
  0
ACDBPLACEHOLDER
  5
F
102
{ACAD_REACTORS
330
E
102
}
330
E
  0
VISUALSTYLE
  5
2F
102
{ACAD_REACTORS
330
2A
102
}
330
2A
100
AcDbVisualStyle
  2
2dWireframe
 70
     4
 71
     0
 72
     2
 73
     0
 90
        0
 40
-0.6
 41
-30.0
 62
     5
 63
     7
421
 16777215
 74
     1
 91
        4
 64
     7
 65
   257
 75
     1
175
     1
 42
1.0
 92
        0
 66
   257
 43
1.0
 76
     1
 77
     6
 78
     2
 67
     7
 79
     5
170
     0
171
     0
290
     0
174
     0
 93
        1
 44
0.0
173
     0
291
     0
 45
0.0
1001
ACAD
1000
AcDbSavedByObjectVersion
1070
     0
  0
VISUALSTYLE
  5
31
102
{ACAD_REACTORS
330
2A
102
}
330
2A
100
AcDbVisualStyle
  2
3D Hidden
 70
     6
 71
     1
 72
     2
 73
     2
 90
        0
 40
-0.6
 41
-30.0
 62
     5
 63
     7
421
 16777215
 74
     2
 91
        2
 64
     7
 65
   257
 75
     2
175
     1
 42
40.0
 92
        0
 66
   257
 43
1.0
 76
     1
 77
     6
 78
     2
 67
     7
 79
     3
170
     0
171
     0
290
     0
174
     0
 93
        1
 44
0.0
173
     0
291
     0
 45
0.0
1001
ACAD
1000
AcDbSavedByObjectVersion
1070
     0
  0
VISUALSTYLE
  5
30
102
{ACAD_REACTORS
330
2A
102
}
330
2A
100
AcDbVisualStyle
  2
3dWireframe
 70
     5
 71
     0
 72
     2
 73
     0
 90
        0
 40
-0.6
 41
-30.0
 62
     5
 63
     7
421
 16777215
 74
     1
 91
        4
 64
     7
 65
   257
 75
     1
175
     1
 42
1.0
 92
        0
 66
   257
 43
1.0
 76
     1
 77
     6
 78
     2
 67
     7
 79
     5
170
     0
171
     0
290
     0
174
     0
 93
        1
 44
0.0
173
     0
291
     0
 45
0.0
1001
ACAD
1000
AcDbSavedByObjectVersion
1070
     0
  0
VISUALSTYLE
  5
32
102
{ACAD_REACTORS
330
2A
102
}
330
2A
100
AcDbVisualStyle
  2
Basic
 70
     7
 71
     1
 72
     0
 73
     1
 90
        0
 40
-0.6
 41
-30.0
 62
     5
 63
     7
421
 16777215
 74
     0
 91
        4
 64
     7
 65
   257
 75
     1
175
     1
 42
1.0
 92
        8
 66
     7
 43
1.0
 76
     1
 77
     6
 78
     2
 67
     7
 79
     5
170
     0
171
     0
290
     0
174
     0
 93
        1
 44
0.0
173
     0
291
     1
 45
0.0
1001
ACAD
1000
AcDbSavedByObjectVersion
1070
     0
  0
VISUALSTYLE
  5
36
102
{ACAD_REACTORS
330
2A
102
}
330
2A
100
AcDbVisualStyle
  2
Brighten
 70
    12
 71
     2
 72
     2
 73
     0
 90
        0
 40
-0.6
 41
-30.0
 62
     5
 63
     7
421
 16777215
 74
     1
 91
        4
 64
     7
 65
   257
 75
     1
175
     1
 42
1.0
 92
        8
 66
     7
 43
1.0
 76
     1
 77
     6
 78
     2
 67
     7
 79
     5
170
     0
171
     0
290
     0
174
     0
 93
        1
 44
50.0
173
     0
291
     1
 45
0.0
1001
ACAD
1000
AcDbSavedByObjectVersion
1070
     0
  0
VISUALSTYLE
  5
3A
102
{ACAD_REACTORS
330
2A
102
}
330
2A
100
AcDbVisualStyle
  2
ColorChange
 70
    16
 71
     2
 72
     2
 73
     3
 90
        0
 40
-0.6
 41
-30.0
 62
     5
 63
     8
421
  8421504
 74
     1
 91
        4
 64
     7
 65
   257
 75
     1
175
     1
 42
1.0
 92
        8
 66
     8
424
  8421504
 43
1.0
 76
     1
 77
     6
 78
     2
 67
     7
 79
     5
170
     0
171
     0
290
     0
174
     0
 93
        1
 44
0.0
173
     0
291
     1
 45
0.0
1001
ACAD
1000
AcDbSavedByObjectVersion
1070
     0
  0
VISUALSTYLE
  5
34
102
{ACAD_REACTORS
330
2A
102
}
330
2A
100
AcDbVisualStyle
  2
Conceptual
 70
     9
 71
     3
 72
     2
 73
     0
 90
        0
 40
-0.6
 41
-30.0
 62
     5
 63
     7
421
 16777215
 74
     2
 91
        2
 64
     7
 65
   257
 75
     1
175
     1
 42
40.0
 92
        8
 66
     7
 43
1.0
 76
     1
 77
     6
 78
     2
 67
     7
 79
     3
170
     0
171
     0
290
     0
174
     0
 93
        1
 44
0.0
173
     0
291
     0
 45
0.0
1001
ACAD
1000
AcDbSavedByObjectVersion
1070
     0
  0
VISUALSTYLE
  5
35
102
{ACAD_REACTORS
330
2A
102
}
330
2A
100
AcDbVisualStyle
  2
Dim
 70
    11
 71
     2
 72
     2
 73
     0
 90
        0
 40
-0.6
 41
-30.0
 62
     5
 63
     7
421
 16777215
 74
     1
 91
        4
 64
     7
 65
   257
 75
     1
175
     1
 42
1.0
 92
        8
 66
     7
 43
1.0
 76
     1
 77
     6
 78
     2
 67
     7
 79
     5
170
     0
171
     0
290
     0
174
     0
 93
        1
 44
-50.0
173
     0
291
     1
 45
0.0
1001
ACAD
1000
AcDbSavedByObjectVersion
1070
     0
  0
VISUALSTYLE
  5
39
102
{ACAD_REACTORS
330
2A
102
}
330
2A
100
AcDbVisualStyle
  2
Facepattern
 70
    15
 71
     2
 72
     2
 73
     0
 90
        0
 40
-0.6
 41
-30.0
 62
     5
 63
     7
421
 16777215
 74
     1
 91
        4
 64
     7
 65
   257
 75
     1
175
     1
 42
1.0
 92
        8
 66
     7
 43
1.0
 76
     1
 77
     6
 78
     2
 67
     7
 79
     5
170
     0
171
     0
290
     0
174
     0
 93
        1
 44
0.0
173
     0
291
     1
 45
0.0
1001
ACAD
1000
AcDbSavedByObjectVersion
1070
     0
  0
VISUALSTYLE
  5
2B
102
{ACAD_REACTORS
330
2A
102
}
330
2A
100
AcDbVisualStyle
  2
Flat
 70
     0
 71
     2
 72
     1
 73
     1
 90
        2
 40
-0.6
 41
30.0
 62
     5
 63
     7
421
 16777215
 74
     0
 91
        4
 64
     7
 65
   257
 75
     1
175
     1
 42
1.0
 92
        8
 66
     7
 43
1.0
 76
     1
 77
     6
 78
     2
 67
     7
 79
     5
170
     0
171
     0
290
     0
174
     0
 93
       13
 44
0.0
173
     0
291
     1
 45
0.0
1001
ACAD
1000
AcDbSavedByObjectVersion
1070
     0
  0
VISUALSTYLE
  5
2C
102
{ACAD_REACTORS
330
2A
102
}
330
2A
100
AcDbVisualStyle
  2
FlatWithEdges
 70
     1
 71
     2
 72
     1
 73
     1
 90
        2
 40
-0.6
 41
30.0
 62
     5
 63
     7
421
 16777215
 74
     1
 91
        4
 64
     7
 65
   257
 75
     1
175
     1
 42
1.0
 92
        0
 66
   257
 43
1.0
 76
     1
 77
     6
 78
     2
 67
     7
 79
     5
170
     0
171
     0
290
     0
174
     0
 93
       13
 44
0.0
173
     0
291
     1
 45
0.0
1001
ACAD
1000
AcDbSavedByObjectVersion
1070
     0
  0
VISUALSTYLE
  5
2D
102
{ACAD_REACTORS
330
2A
102
}
330
2A
100
AcDbVisualStyle
  2
Gouraud
 70
     2
 71
     2
 72
     2
 73
     1
 90
        2
 40
-0.6
 41
30.0
 62
     5
 63
     7
421
 16777215
 74
     0
 91
        4
 64
     7
 65
   257
 75
     1
175
     1
 42
1.0
 92
        0
 66
     7
 43
1.0
 76
     1
 77
     6
 78
     2
 67
     7
 79
     5
170
     0
171
     0
290
     0
174
     0
 93
       13
 44
0.0
173
     0
291
     1
 45
0.0
1001
ACAD
1000
AcDbSavedByObjectVersion
1070
     0
  0
VISUALSTYLE
  5
2E
102
{ACAD_REACTORS
330
2A
102
}
330
2A
100
AcDbVisualStyle
  2
GouraudWithEdges
 70
     3
 71
     2
 72
     2
 73
     1
 90
        2
 40
-0.6
 41
30.0
 62
     5
 63
     7
421
 16777215
 74
     1
 91
        4
 64
     7
 65
   257
 75
     1
175
     1
 42
1.0
 92
        0
 66
   257
 43
1.0
 76
     1
 77
     6
 78
     2
 67
     7
 79
     5
170
     0
171
     0
290
     0
174
     0
 93
       13
 44
0.0
173
     0
291
     1
 45
0.0
1001
ACAD
1000
AcDbSavedByObjectVersion
1070
     0
  0
VISUALSTYLE
  5
38
102
{ACAD_REACTORS
330
2A
102
}
330
2A
100
AcDbVisualStyle
  2
Linepattern
 70
    14
 71
     2
 72
     2
 73
     0
 90
        0
 40
-0.6
 41
-30.0
 62
     5
 63
     7
421
 16777215
 74
     1
 91
        4
 64
     7
 65
   257
 75
     7
175
     7
 42
1.0
 92
        8
 66
     7
 43
1.0
 76
     1
 77
     6
 78
     2
 67
     7
 79
     5
170
     0
171
     0
290
     0
174
     0
 93
        1
 44
0.0
173
     0
291
     1
 45
0.0
1001
ACAD
1000
AcDbSavedByObjectVersion
1070
     0
  0
VISUALSTYLE
  5
33
102
{ACAD_REACTORS
330
2A
102
}
330
2A
100
AcDbVisualStyle
  2
Realistic
 70
     8
 71
     2
 72
     2
 73
     0
 90
        0
 40
-0.6
 41
-30.0
 62
     5
 63
     7
421
 16777215
 74
     1
 91
        0
 64
     7
 65
   257
 75
     1
175
     1
 42
1.0
 92
        8
 66
     8
424
  7895160
 43
1.0
 76
     1
 77
     6
 78
     2
 67
     7
 79
     5
170
     0
171
     0
290
     0
174
     0
 93
       13
 44
0.0
173
     0
291
     0
 45
0.0
1001
ACAD
1000
AcDbSavedByObjectVersion
1070
     0
  0
VISUALSTYLE
  5
37
102
{ACAD_REACTORS
330
2A
102
}
330
2A
100
AcDbVisualStyle
  2
Thicken
 70
    13
 71
     2
 72
     2
 73
     0
 90
        0
 40
-0.6
 41
-30.0
 62
     5
 63
     7
421
 16777215
 74
     1
 91
        4
 64
     7
 65
   257
 75
     1
175
     1
 42
1.0
 92
       12
 66
     7
 43
1.0
 76
     1
 77
     6
 78
     2
 67
     7
 79
     5
170
     0
171
     0
290
     0
174
     0
 93
        1
 44
0.0
173
     0
291
     1
 45
0.0
1001
ACAD
1000
AcDbSavedByObjectVersion
1070
     0
  0
ENDSEC
  0
EOF
