  0
SECTION
  2
HEADER
  9
$ACADVER
  1
AC1018
  9
$ACADMAINTVER
 70
     0
  9
$DWGCODEPAGE
  3
ANSI_932
  9
$INSBASE
 10
0.0
 20
0.0
 30
0.0
  9
$EXTMIN
 10
-1050.0
 20
-742.5
 30
0.0
  9
$EXTMAX
 10
1050.0
 20
742.5
 30
0.0
  9
$LIMMIN
 10
-1050.0
 20
-742.5
  9
$LIMMAX
 10
1050.0
 20
742.5
  9
$ORTHOMODE
 70
     0
  9
$REGENMODE
 70
     1
  9
$FILLMODE
 70
     1
  9
$QTEXTMODE
 70
     0
  9
$MIRRTEXT
 70
     1
  9
$LTSCALE
 40
5.0
  9
$ATTMODE
 70
     1
  9
$TEXTSIZE
 40
2.5
  9
$TRACEWID
 40
1.0
  9
$TEXTSTYLE
  7
Standard
  9
$CLAYER
  8
0
  9
$CELTYPE
  6
ByLayer
  9
$CECOLOR
 62
   256
  9
$CELTSCALE
 40
1.0
  9
$DISPSILH
 70
     0
  9
$DIMSCALE
 40
1.0
  9
$DIMASZ
 40
2.5
  9
$DIMEXO
 40
0.625
  9
$DIMDLI
 40
3.75
  9
$DIMRND
 40
0.0
  9
$DIMDLE
 40
0.0
  9
$DIMEXE
 40
1.25
  9
$DIMTP
 40
0.0
  9
$DIMTM
 40
0.0
  9
$DIMTXT
 40
2.5
  9
$DIMCEN
 40
2.5
  9
$DIMTSZ
 40
0.0
  9
$DIMTOL
 70
     0
  9
$DIMLIM
 70
     0
  9
$DIMTIH
 70
     0
  9
$DIMTOH
 70
     0
  9
$DIMSE1
 70
     0
  9
$DIMSE2
 70
     0
  9
$DIMTAD
 70
     1
  9
$DIMZIN
 70
     8
  9
$DIMBLK
  1

  9
$DIMASO
 70
     1
  9
$DIMSHO
 70
     1
  9
$DIMPOST
  1

  9
$DIMAPOST
  1

  9
$DIMALT
 70
     0
  9
$DIMALTD
 70
     3
  9
$DIMALTF
 40
0.03937007874016
  9
$DIMLFAC
 40
1.0
  9
$DIMTOFL
 70
     1
  9
$DIMTVP
 40
0.0
  9
$DIMTIX
 70
     0
  9
$DIMSOXD
 70
     0
  9
$DIMSAH
 70
     0
  9
$DIMBLK1
  1

  9
$DIMBLK2
  1

  9
$DIMSTYLE
  2
ISO-25
  9
$DIMCLRD
 70
     0
  9
$DIMCLRE
 70
     0
  9
$DIMCLRT
 70
     0
  9
$DIMTFAC
 40
1.0
  9
$DIMGAP
 40
0.625
  9
$DIMJUST
 70
     0
  9
$DIMSD1
 70
     0
  9
$DIMSD2
 70
     0
  9
$DIMTOLJ
 70
     0
  9
$DIMTZIN
 70
     8
  9
$DIMALTZ
 70
     0
  9
$DIMALTTZ
 70
     0
  9
$DIMUPT
 70
     0
  9
$DIMDEC
 70
     2
  9
$DIMTDEC
 70
     2
  9
$DIMALTU
 70
     2
  9
$DIMALTTD
 70
     3
  9
$DIMTXSTY
  7
Standard
  9
$DIMAUNIT
 70
     0
  9
$DIMADEC
 70
     0
  9
$DIMALTRND
 40
0.0
  9
$DIMAZIN
 70
     0
  9
$DIMDSEP
 70
    44
  9
$DIMATFIT
 70
     3
  9
$DIMFRAC
 70
     0
  9
$DIMLDRBLK
  1

  9
$DIMLUNIT
 70
     2
  9
$DIMLWD
 70
    -2
  9
$DIMLWE
 70
    -2
  9
$DIMTMOVE
 70
     0
  9
$LUNITS
 70
     2
  9
$LUPREC
 70
     4
  9
$SKETCHINC
 40
1.0
  9
$FILLETRAD
 40
10.0
  9
$AUNITS
 70
     0
  9
$AUPREC
 70
     0
  9
$MENU
  1
.
  9
$ELEVATION
 40
0.0
  9
$PELEVATION
 40
0.0
  9
$THICKNESS
 40
0.0
  9
$LIMCHECK
 70
     0
  9
$CHAMFERA
 40
10.0
  9
$CHAMFERB
 40
10.0
  9
$CHAMFERC
 40
20.0
  9
$CHAMFERD
 40
0.0
  9
$SKPOLY
 70
     0
  9
$TDCREATE
 40
2457904.375146158
  9
$TDUCREATE
 40
2457904.000146158
  9
$TDUPDATE
 40
2457904.375146169
  9
$TDUUPDATE
 40
2457904.000146169
  9
$TDINDWG
 40
0.0000000116
  9
$TDUSRTIMER
 40
0.0000000116
  9
$USRTIMER
 70
     1
  9
$ANGBASE
 50
0.0
  9
$ANGDIR
 70
     0
  9
$PDMODE
 70
     0
  9
$PDSIZE
 40
0.0
  9
$PLINEWID
 40
0.0
  9
$SPLFRAME
 70
     0
  9
$SPLINETYPE
 70
     6
  9
$SPLINESEGS
 70
     8
  9
$HANDSEED
  5
24F
  9
$SURFTAB1
 70
     6
  9
$SURFTAB2
 70
     6
  9
$SURFTYPE
 70
     6
  9
$SURFU
 70
     6
  9
$SURFV
 70
     6
  9
$UCSBASE
  2

  9
$UCSNAME
  2

  9
$UCSORG
 10
0.0
 20
0.0
 30
0.0
  9
$UCSXDIR
 10
1.0
 20
0.0
 30
0.0
  9
$UCSYDIR
 10
0.0
 20
1.0
 30
0.0
  9
$UCSORTHOREF
  2

  9
$UCSORTHOVIEW
 70
     0
  9
$UCSORGTOP
 10
0.0
 20
0.0
 30
0.0
  9
$UCSORGBOTTOM
 10
0.0
 20
0.0
 30
0.0
  9
$UCSORGLEFT
 10
0.0
 20
0.0
 30
0.0
  9
$UCSORGRIGHT
 10
0.0
 20
0.0
 30
0.0
  9
$UCSORGFRONT
 10
0.0
 20
0.0
 30
0.0
  9
$UCSORGBACK
 10
0.0
 20
0.0
 30
0.0
  9
$PUCSBASE
  2

  9
$PUCSNAME
  2

  9
$PUCSORG
 10
0.0
 20
0.0
 30
0.0
  9
$PUCSXDIR
 10
1.0
 20
0.0
 30
0.0
  9
$PUCSYDIR
 10
0.0
 20
1.0
 30
0.0
  9
$PUCSORTHOREF
  2

  9
$PUCSORTHOVIEW
 70
     0
  9
$PUCSORGTOP
 10
0.0
 20
0.0
 30
0.0
  9
$PUCSORGBOTTOM
 10
0.0
 20
0.0
 30
0.0
  9
$PUCSORGLEFT
 10
0.0
 20
0.0
 30
0.0
  9
$PUCSORGRIGHT
 10
0.0
 20
0.0
 30
0.0
  9
$PUCSORGFRONT
 10
0.0
 20
0.0
 30
0.0
  9
$PUCSORGBACK
 10
0.0
 20
0.0
 30
0.0
  9
$USERI1
 70
     0
  9
$USERI2
 70
     0
  9
$USERI3
 70
     0
  9
$USERI4
 70
     0
  9
$USERI5
 70
     0
  9
$USERR1
 40
0.0
  9
$USERR2
 40
0.0
  9
$USERR3
 40
0.0
  9
$USERR4
 40
0.0
  9
$USERR5
 40
0.0
  9
$WORLDVIEW
 70
     1
  9
$SHADEDGE
 70
     3
  9
$SHADEDIF
 70
    70
  9
$TILEMODE
 70
     1
  9
$MAXACTVP
 70
    64
  9
$PINSBASE
 10
0.0
 20
0.0
 30
0.0
  9
$PLIMCHECK
 70
     0
  9
$PEXTMIN
 10
1.000000000000000E+20
 20
1.000000000000000E+20
 30
1.000000000000000E+20
  9
$PEXTMAX
 10
-1.000000000000000E+20
 20
-1.000000000000000E+20
 30
-1.000000000000000E+20
  9
$PLIMMIN
 10
0.0
 20
0.0
  9
$PLIMMAX
 10
420.0
 20
297.0
  9
$UNITMODE
 70
     0
  9
$VISRETAIN
 70
     1
  9
$PLINEGEN
 70
     0
  9
$PSLTSCALE
 70
     1
  9
$TREEDEPTH
 70
  3020
  9
$CMLSTYLE
  2
Standard
  9
$CMLJUST
 70
     0
  9
$CMLSCALE
 40
20.0
  9
$PROXYGRAPHICS
 70
     1
  9
$MEASUREMENT
 70
     1
  9
$CELWEIGHT
370
    -1
  9
$ENDCAPS
280
     0
  9
$JOINSTYLE
280
     0
  9
$LWDISPLAY
290
     0
  9
$INSUNITS
 70
     4
  9
$HYPERLINKBASE
  1

  9
$STYLESHEET
  1

  9
$XEDIT
290
     1
  9
$CEPSNTYPE
380
     0
  9
$PSTYLEMODE
290
     1
  9
$FINGERPRINTGUID
  2
{68DA1BBC-D6BC-4BF2-A0B8-D476F93E049E}
  9
$VERSIONGUID
  2
{FAEB1C32-E019-11D5-929B-00C0DF256EC4}
  9
$EXTNAMES
290
     1
  9
$PSVPSCALE
 40
0.0
  9
$OLESTARTUP
290
     0
  9
$SORTENTS
280
   127
  9
$INDEXCTL
280
     0
  9
$HIDETEXT
280
     1
  9
$XCLIPFRAME
290
     0
  9
$HALOGAP
280
     0
  9
$OBSCOLOR
 70
   257
  9
$OBSLTYPE
280
     0
  9
$INTERSECTIONDISPLAY
280
     0
  9
$INTERSECTIONCOLOR
 70
   257
  9
$DIMASSOC
280
     2
  9
$PROJECTNAME
  1

  0
ENDSEC
  0
SECTION
  2
CLASSES
  0
CLASS
  1
ACDBDICTIONARYWDFLT
  2
AcDbDictionaryWithDefault
  3
ObjectDBX Classes
 90
        0
 91
        4
280
     0
281
     0
  0
CLASS
  1
VISUALSTYLE
  2
AcDbVisualStyle
  3
ObjectDBX Classes
 90
     4095
 91
        4
280
     0
281
     0
  0
ENDSEC
  0
SECTION
  2
TABLES
  0
TABLE
  2
VPORT
  5
8
330
0
100
AcDbSymbolTable
 70
     1
  0
VPORT
  5
29
330
8
100
AcDbSymbolTableRecord
100
AcDbViewportTableRecord
  2
*Active
 70
     0
 10
0.0
 20
0.0
 11
1.0
 21
1.0
 12
0.0
 22
0.0
 13
0.0
 23
0.0
 14
10.0
 24
10.0
 15
10.0
 25
10.0
 16
0.0
 26
0.0
 36
1.0
 17
0.0
 27
0.0
 37
0.0
 40
1633.5
 41
1.414141414141414
 42
50.0
 43
0.0
 44
0.0
 50
0.0
 51
0.0
 71
     0
 72
 10000
 73
     1
 74
     3
 75
     0
 76
     0
 77
     0
 78
     0
281
     0
 65
     1
110
0.0
120
0.0
130
0.0
111
1.0
121
0.0
131
0.0
112
0.0
122
1.0
132
0.0
 79
     0
146
0.0
  0
ENDTAB
  0
TABLE
  2
LTYPE
  5
5
330
0
100
AcDbSymbolTable
 70
     5
  0
LTYPE
  5
14
330
5
100
AcDbSymbolTableRecord
100
AcDbLinetypeTableRecord
  2
ByBlock
 70
     0
  3

 72
    65
 73
     0
 40
0.0
  0
LTYPE
  5
15
330
5
100
AcDbSymbolTableRecord
100
AcDbLinetypeTableRecord
  2
ByLayer
 70
     0
  3

 72
    65
 73
     0
 40
0.0
  0
LTYPE
  5
16
330
5
100
AcDbSymbolTableRecord
100
AcDbLinetypeTableRecord
  2
Continuous
 70
     0
  3
Solid line
 72
    65
 73
     0
 40
0.0
  0
LTYPE
  5
3C
330
5
100
AcDbSymbolTableRecord
100
AcDbLinetypeTableRecord
  2
JWW_DASHED3
 70
     0
  3
---  ------  ------  ------  ---
 72
    65
 73
     2
 40
3.386666666666667
 49
2.54
 74
     0
 49
-0.8466666666666667
 74
     0
  0
LTYPE
  5
3D
330
5
100
AcDbSymbolTableRecord
100
AcDbLinetypeTableRecord
  2
JWW_CENTER1
 70
     0
  3
-----  --  ----------  --  -----
 72
    65
 73
     4
 40
6.773333333333333
 49
4.233333333333333
 74
     0
 49
-0.8466666666666667
 74
     0
 49
0.8466666666666667
 74
     0
 49
-0.8466666666666667
 74
     0
  0
LTYPE
  5
3E
330
5
100
AcDbSymbolTableRecord
100
AcDbLinetypeTableRecord
  2
JWW_CENTER2
 70
     0
  3
-------------  --  -------------
 72
    65
 73
     4
 40
13.54666666666667
 49
11.00666666666667
 74
     0
 49
-0.8466666666666667
 74
     0
 49
0.8466666666666667
 74
     0
 49
-0.8466666666666667
 74
     0
  0
LTYPE
  5
3F
330
5
100
AcDbSymbolTableRecord
100
AcDbLinetypeTableRecord
  2
JWW_PHANTOM1
 70
     0
  3
----  -  -  --------  -  -  ----
 72
    65
 73
     6
 40
6.773333333333333
 49
3.386666666666667
 74
     0
 49
-0.8466666666666667
 74
     0
 49
0.4233333333333333
 74
     0
 49
-0.8466666666666667
 74
     0
 49
0.4233333333333333
 74
     0
 49
-0.8466666666666667
 74
     0
  0
ENDTAB
  0
TABLE
  2
LAYER
  5
2
330
0
100
AcDbSymbolTable
 70
    11
  0
LAYER
  5
10
330
2
100
AcDbSymbolTableRecord
100
AcDbLayerTableRecord
  2
0
 70
     0
 62
     7
  6
Continuous
370
    -3
390
F
  0
LAYER
  5
40
330
2
100
AcDbSymbolTableRecord
100
AcDbLayerTableRecord
  2
0-2
 70
     0
 62
     7
  6
Continuous
370
    -3
390
F
  0
LAYER
  5
41
330
2
100
AcDbSymbolTableRecord
100
AcDbLayerTableRecord
  2
0-1
 70
     0
 62
     7
  6
Continuous
370
    -3
390
F
  0
LAYER
  5
42
330
2
100
AcDbSymbolTableRecord
100
AcDbLayerTableRecord
  2
0-4
 70
     0
 62
     7
  6
Continuous
370
    -3
390
F
  0
LAYER
  5
43
330
2
100
AcDbSymbolTableRecord
100
AcDbLayerTableRecord
  2
1-2
 70
     0
 62
     7
  6
Continuous
370
    -3
390
F
  0
LAYER
  5
44
330
2
100
AcDbSymbolTableRecord
100
AcDbLayerTableRecord
  2
1-6
 70
     0
 62
     7
  6
Continuous
370
    -3
390
F
  0
LAYER
  5
45
330
2
100
AcDbSymbolTableRecord
100
AcDbLayerTableRecord
  2
1-4
 70
     0
 62
     7
  6
Continuous
370
    -3
390
F
  0
LAYER
  5
46
330
2
100
AcDbSymbolTableRecord
100
AcDbLayerTableRecord
  2
1-1
 70
     0
 62
     7
  6
Continuous
370
    -3
390
F
  0
LAYER
  5
47
330
2
100
AcDbSymbolTableRecord
100
AcDbLayerTableRecord
  2
1-0
 70
     0
 62
     7
  6
Continuous
370
    -3
390
F
  0
LAYER
  5
48
330
2
100
AcDbSymbolTableRecord
100
AcDbLayerTableRecord
  2
1-5
 70
     0
 62
     7
  6
Continuous
370
    -3
390
F
  0
LAYER
  5
49
330
2
100
AcDbSymbolTableRecord
100
AcDbLayerTableRecord
  2
F-0
 70
     0
 62
     7
  6
Continuous
370
    -3
390
F
  0
ENDTAB
  0
TABLE
  2
STYLE
  5
3
330
0
100
AcDbSymbolTable
 70
     2
  0
STYLE
  5
11
330
3
100
AcDbSymbolTableRecord
100
AcDbTextStyleTableRecord
  2
Standard
 70
     0
 40
0.0
 41
1.0
 50
0.0
 71
     0
 42
2.5
  3
txt
  4

1001
ACAD
1000

1071
        0
  0
STYLE
  5
3B
330
3
100
AcDbSymbolTableRecord
100
AcDbTextStyleTableRecord
  2
ＭＳ ゴシック
 70
     0
 40
1.0
 41
1.0
 50
0.0
 71
     0
 42
10.0
  3

  4

1001
ACAD
1000
MS Gothic
1071
    32817
  0
ENDTAB
  0
TABLE
  2
VIEW
  5
6
330
0
100
AcDbSymbolTable
 70
     0
  0
ENDTAB
  0
TABLE
  2
UCS
  5
7
330
0
100
AcDbSymbolTable
 70
     0
  0
ENDTAB
  0
TABLE
  2
APPID
  5
9
330
0
100
AcDbSymbolTable
 70
     1
  0
APPID
  5
12
330
9
100
AcDbSymbolTableRecord
100
AcDbRegAppTableRecord
  2
ACAD
 70
     0
  0
ENDTAB
  0
TABLE
  2
DIMSTYLE
  5
A
330
0
100
AcDbSymbolTable
 70
     1
100
AcDbDimStyleTable
  0
DIMSTYLE
105
27
330
A
100
AcDbSymbolTableRecord
100
AcDbDimStyleTableRecord
  2
ISO-25
 70
     0
 41
2.5
 42
0.625
 43
3.75
 44
1.25
 73
     0
 74
     0
 77
     1
 78
     8
140
2.5
141
2.5
143
0.03937007874016
147
0.625
171
     3
172
     1
271
     2
272
     2
274
     3
278
    44
283
     0
284
     8
340
11
  0
ENDTAB
  0
TABLE
  2
BLOCK_RECORD
  5
1
330
0
100
AcDbSymbolTable
 70
     1
  0
BLOCK_RECORD
  5
1F
330
1
100
AcDbSymbolTableRecord
100
AcDbBlockTableRecord
  2
*Model_Space
340
22
  0
BLOCK_RECORD
  5
1B
330
1
100
AcDbSymbolTableRecord
100
AcDbBlockTableRecord
  2
*Paper_Space
340
1E
  0
BLOCK_RECORD
  5
23
330
1
100
AcDbSymbolTableRecord
100
AcDbBlockTableRecord
  2
*Paper_Space0
340
26
  0
ENDTAB
  0
ENDSEC
  0
SECTION
  2
BLOCKS
  0
BLOCK
  5
20
330
1F
100
AcDbEntity
  8
0
100
AcDbBlockBegin
  2
*Model_Space
 70
     0
 10
0.0
 20
0.0
 30
0.0
  3
*Model_Space
  1

  0
ENDBLK
  5
21
330
1F
100
AcDbEntity
  8
0
100
AcDbBlockEnd
  0
BLOCK
  5
1C
330
1B
100
AcDbEntity
 67
     1
  8
0
100
AcDbBlockBegin
  2
*Paper_Space
 70
     0
 10
0.0
 20
0.0
 30
0.0
  3
*Paper_Space
  1

  0
ENDBLK
  5
1D
330
1B
100
AcDbEntity
 67
     1
  8
0
100
AcDbBlockEnd
  0
BLOCK
  5
24
330
23
100
AcDbEntity
  8
0
100
AcDbBlockBegin
  2
*Paper_Space0
 70
     0
 10
0.0
 20
0.0
 30
0.0
  3
*Paper_Space0
  1

  0
ENDBLK
  5
25
330
23
100
AcDbEntity
  8
0
100
AcDbBlockEnd
  0
ENDSEC
  0
SECTION
  2
ENTITIES
  0
LINE
  5
4A
330
1F
100
AcDbEntity
  8
0-2
  6
Continuous
 62
     3
370
     9
100
AcDbLine
 10
-604.8918543635187
 20
-131.1756072173247
 30
0.0
 11
-604.8918543635187
 21
318.8243309227197
 31
0.0
  0
LINE
  5
4B
330
1F
100
AcDbEntity
  8
0-2
  6
Continuous
 62
     3
370
     9
100
AcDbLine
 10
-604.8918543635187
 20
318.8243309227197
 30
0.0
 11
-154.8918234335409
 21
318.8243309227197
 31
0.0
  0
LINE
  5
4C
330
1F
100
AcDbEntity
  8
0-2
  6
Continuous
 62
     3
370
     9
100
AcDbLine
 10
-154.8918234335409
 20
318.8243309227197
 30
0.0
 11
-154.8918234335409
 21
-131.1756072173247
 31
0.0
  0
LINE
  5
4D
330
1F
100
AcDbEntity
  8
0-2
  6
Continuous
 62
     3
370
     9
100
AcDbLine
 10
-154.8918234335409
 20
-131.1756072173247
 30
0.0
 11
-604.8918543635187
 21
-131.1756072173247
 31
0.0
  0
LINE
  5
4E
330
1F
100
AcDbEntity
  8
0-1
  6
Continuous
 62
     2
370
     9
100
AcDbLine
 10
-153.8918572503167
 20
-132.1756352605046
 30
0.0
 11
-605.8918824066986
 21
-132.1756352605046
 31
0.0
  0
LINE
  5
4F
330
1F
100
AcDbEntity
  8
0-1
  6
Continuous
 62
     2
370
     9
100
AcDbLine
 10
-153.8918572503167
 20
319.8243589658996
 30
0.0
 11
-153.8918572503167
 21
-132.1756352605046
 31
0.0
  0
LINE
  5
50
330
1F
100
AcDbEntity
  8
0-1
  6
Continuous
 62
     2
370
     9
100
AcDbLine
 10
-605.8918824066986
 20
319.8243589658996
 30
0.0
 11
-153.8918572503167
 21
319.8243589658996
 31
0.0
  0
LINE
  5
51
330
1F
100
AcDbEntity
  8
0-1
  6
Continuous
 62
     2
370
     9
100
AcDbLine
 10
-605.8918824066986
 20
-132.1756352605046
 30
0.0
 11
-605.8918824066986
 21
319.8243589658996
 31
0.0
  0
LINE
  5
52
330
1F
100
AcDbEntity
  8
0-1
  6
Continuous
 62
     2
370
     9
100
AcDbLine
 10
-617.8918786951012
 20
331.8243243243244
 30
0.0
 11
-141.8918918918918
 21
331.8243243243244
 31
0.0
  0
LINE
  5
53
330
1F
100
AcDbEntity
  8
0-1
  6
Continuous
 62
     2
370
     9
100
AcDbLine
 10
-617.8918786951012
 20
-144.1756624788851
 30
0.0
 11
-617.8918786951012
 21
331.8243243243244
 31
0.0
  0
LINE
  5
54
330
1F
100
AcDbEntity
  8
0-1
  6
Continuous
 62
     2
370
     9
100
AcDbLine
 10
-141.8918918918918
 20
-144.1756624788851
 30
0.0
 11
-617.8918786951012
 21
-144.1756624788851
 31
0.0
  0
LINE
  5
55
330
1F
100
AcDbEntity
  8
0-1
  6
Continuous
 62
     2
370
     9
100
AcDbLine
 10
-141.8918918918918
 20
331.8243243243244
 30
0.0
 11
-141.8918918918918
 21
-144.1756624788851
 31
0.0
  0
LINE
  5
56
330
1F
100
AcDbEntity
  8
0-1
  6
JWW_DASHED3
 62
     2
370
     9
100
AcDbLine
 10
-579.8918646735113
 20
293.8243721626901
 30
0.0
 11
-179.8918440535262
 21
293.8243721626901
 31
0.0
  0
LINE
  5
57
330
1F
100
AcDbEntity
  8
0-1
  6
JWW_DASHED3
 62
     2
370
     9
100
AcDbLine
 10
-579.8918646735113
 20
-106.1755865973395
 30
0.0
 11
-579.8918646735113
 21
293.8243721626901
 31
0.0
  0
LINE
  5
58
330
1F
100
AcDbEntity
  8
0-1
  6
JWW_DASHED3
 62
     2
370
     9
100
AcDbLine
 10
-179.8918440535262
 20
-106.1755865973395
 30
0.0
 11
-579.8918646735113
 21
-106.1755865973395
 31
0.0
  0
LINE
  5
59
330
1F
100
AcDbEntity
  8
0-1
  6
JWW_DASHED3
 62
     2
370
     9
100
AcDbLine
 10
-179.8918440535262
 20
293.8243721626901
 30
0.0
 11
-179.8918440535262
 21
-106.1755865973395
 31
0.0
  0
LINE
  5
5A
330
1F
100
AcDbEntity
  8
0-2
  6
Continuous
 62
     3
370
     9
100
AcDbLine
 10
-599.8918378675306
 20
313.8244381466428
 30
0.0
 11
-159.891839929529
 21
313.8244381466428
 31
0.0
  0
LINE
  5
5B
330
1F
100
AcDbEntity
  8
0-2
  6
Continuous
 62
     3
370
     9
100
AcDbLine
 10
-599.8918378675306
 20
-126.1756525812922
 30
0.0
 11
-599.8918378675306
 21
313.8244381466428
 31
0.0
  0
LINE
  5
5C
330
1F
100
AcDbEntity
  8
0-2
  6
Continuous
 62
     3
370
     9
100
AcDbLine
 10
-159.891839929529
 20
-126.1756525812922
 30
0.0
 11
-599.8918378675306
 21
-126.1756525812922
 31
0.0
  0
LINE
  5
5D
330
1F
100
AcDbEntity
  8
0-2
  6
Continuous
 62
     3
370
     9
100
AcDbLine
 10
-159.891839929529
 20
313.8244381466428
 30
0.0
 11
-159.891839929529
 21
-126.1756525812922
 31
0.0
  0
LINE
  5
5E
330
1F
100
AcDbEntity
  8
0-2
  6
Continuous
 62
     3
370
     9
100
AcDbLine
 10
-494.391817659945
 20
47.82427813555742
 30
0.0
 11
-525.3917590991871
 21
47.82427813555742
 31
0.0
  0
LINE
  5
5F
330
1F
100
AcDbEntity
  8
0-2
  6
Continuous
 62
     3
370
     9
100
AcDbLine
 10
-492.3918852934966
 20
137.8243894834776
 30
0.0
 11
-492.3918852934966
 21
49.82433422191733
 31
0.0
  0
LINE
  5
60
330
1F
100
AcDbEntity
  8
0-2
  6
Continuous
 62
     3
370
     9
100
AcDbLine
 10
-527.3918151855469
 20
137.8243894834776
 30
0.0
 11
-527.3918151855469
 21
49.82433422191733
 31
0.0
  0
LINE
  5
61
330
1F
100
AcDbEntity
  8
0-2
  6
Continuous
 62
     3
370
     9
100
AcDbLine
 10
-525.3917590991871
 20
139.8244455698375
 30
0.0
 11
-494.391817659945
 21
139.8244455698375
 31
0.0
  0
LINE
  5
62
330
1F
100
AcDbEntity
  8
0-2
  6
Continuous
 62
     3
370
     9
100
AcDbLine
 10
-515.9919532569679
 20
124.2243545119827
 30
0.0
 11
-515.9919532569679
 21
63.42430733345651
 31
0.0
  0
LINE
  5
63
330
1F
100
AcDbEntity
  8
0-2
  6
Continuous
 62
     3
370
     9
100
AcDbLine
 10
-505.9917965450802
 20
126.4244038349874
 30
0.0
 11
-513.7919039339632
 21
126.4244038349874
 31
0.0
  0
LINE
  5
64
330
1F
100
AcDbEntity
  8
0-2
  6
Continuous
 62
     3
370
     9
100
AcDbLine
 10
-505.9917965450802
 20
61.22431987040756
 30
0.0
 11
-513.7919039339632
 21
61.22431987040756
 31
0.0
  0
LINE
  5
65
330
1F
100
AcDbEntity
  8
0-2
  6
Continuous
 62
     3
370
     9
100
AcDbLine
 10
-503.7919328019425
 20
63.42430733345651
 30
0.0
 11
-503.7919328019425
 21
124.2243545119827
 31
0.0
  0
LINE
  5
66
330
1F
100
AcDbEntity
  8
0-2
  6
JWW_CENTER1
 62
     3
370
     9
100
AcDbLine
 10
-531.7046603640994
 20
93.82433092271967
 30
0.0
 11
-489.0457565720017
 21
93.82433092271967
 31
0.0
  0
LINE
  5
67
330
1F
100
AcDbEntity
  8
0-2
  6
JWW_CENTER1
 62
     3
370
     9
100
AcDbLine
 10
-509.8918811694995
 20
42.54490207981419
 30
0.0
 11
-509.8918811694995
 21
143.7554601720862
 31
0.0
  0
LINE
  5
68
330
1F
100
AcDbEntity
  8
0-2
  6
Continuous
 62
     3
370
     9
100
AcDbLine
 10
-234.3917640479835
 20
47.82427813555742
 30
0.0
 11
-265.3918292071369
 21
47.82427813555742
 31
0.0
  0
LINE
  5
69
330
1F
100
AcDbEntity
  8
0-2
  6
Continuous
 62
     3
370
     9
100
AcDbLine
 10
-232.391831681535
 20
137.8243894834776
 30
0.0
 11
-232.391831681535
 21
49.82433422191733
 31
0.0
  0
LINE
  5
6A
330
1F
100
AcDbEntity
  8
0-2
  6
Continuous
 62
     3
370
     9
100
AcDbLine
 10
-267.3919471534522
 20
137.8243894834776
 30
0.0
 11
-267.3919471534522
 21
49.82433422191733
 31
0.0
  0
LINE
  5
6B
330
1F
100
AcDbEntity
  8
0-2
  6
Continuous
 62
     3
370
     9
100
AcDbLine
 10
-265.3918292071369
 20
139.8244455698375
 30
0.0
 11
-234.3917640479835
 21
139.8244455698375
 31
0.0
  0
LINE
  5
6C
330
1F
100
AcDbEntity
  8
0-2
  6
Continuous
 62
     3
370
     9
100
AcDbLine
 10
-255.991961504962
 20
124.2243545119827
 30
0.0
 11
-255.991961504962
 21
63.42430733345651
 31
0.0
  0
LINE
  5
6D
330
1F
100
AcDbEntity
  8
0-2
  6
Continuous
 62
     3
370
     9
100
AcDbLine
 10
-245.9918666530299
 20
126.4244038349874
 30
0.0
 11
-253.7919121819573
 21
126.4244038349874
 31
0.0
  0
LINE
  5
6E
330
1F
100
AcDbEntity
  8
0-2
  6
Continuous
 62
     3
370
     9
100
AcDbLine
 10
-245.9918666530299
 20
61.22431987040756
 30
0.0
 11
-253.7919121819573
 21
61.22431987040756
 31
0.0
  0
LINE
  5
6F
330
1F
100
AcDbEntity
  8
0-2
  6
Continuous
 62
     3
370
     9
100
AcDbLine
 10
-243.7920029098923
 20
63.42430733345651
 30
0.0
 11
-243.7920029098923
 21
124.2243545119827
 31
0.0
  0
LINE
  5
70
330
1F
100
AcDbEntity
  8
0-2
  6
JWW_CENTER1
 62
     3
370
     9
100
AcDbLine
 10
-271.7046376821156
 20
93.82433092271967
 30
0.0
 11
-229.0457648199957
 21
93.82433092271967
 31
0.0
  0
LINE
  5
71
330
1F
100
AcDbEntity
  8
0-2
  6
JWW_CENTER1
 62
     3
370
     9
100
AcDbLine
 10
-249.8918894174936
 20
42.54490207981419
 30
0.0
 11
-249.8918894174936
 21
143.7554601720862
 31
0.0
  0
LINE
  5
72
330
1F
100
AcDbEntity
  8
0-4
  6
Continuous
 62
     7
370
     9
100
AcDbLine
 10
-579.8918646735113
 20
368.7091889252534
 30
0.0
 11
-179.8918440535262
 21
368.7091889252534
 31
0.0
  0
LINE
  5
73
330
1F
100
AcDbEntity
  8
0-4
  6
Continuous
 62
     7
370
     9
100
AcDbLine
 10
-579.8918646735113
 20
303.343505859375
 30
0.0
 11
-579.8918646735113
 21
370.2091691300676
 31
0.0
  0
LINE
  5
74
330
1F
100
AcDbEntity
  8
0-4
  6
Continuous
 62
     7
370
     9
100
AcDbLine
 10
-179.8918440535262
 20
303.343505859375
 30
0.0
 11
-179.8918440535262
 21
370.2091691300676
 31
0.0
  0
LINE
  5
75
330
1F
100
AcDbEntity
  8
0-4
  6
Continuous
 62
     7
370
     9
100
AcDbLine
 10
-604.8918543635187
 20
401.3920304581926
 30
0.0
 11
-154.8918234335409
 21
401.3920304581926
 31
0.0
  0
LINE
  5
76
330
1F
100
AcDbEntity
  8
0-4
  6
Continuous
 62
     7
370
     9
100
AcDbLine
 10
-604.8918543635187
 20
326.493851945207
 30
0.0
 11
-604.8918543635187
 21
402.8920106630068
 31
0.0
  0
LINE
  5
77
330
1F
100
AcDbEntity
  8
0-4
  6
Continuous
 62
     7
370
     9
100
AcDbLine
 10
-154.8918234335409
 20
326.493851945207
 30
0.0
 11
-154.8918234335409
 21
402.8920106630068
 31
0.0
  0
LINE
  5
78
330
1F
100
AcDbEntity
  8
0-4
  6
Continuous
 62
     7
370
     9
100
AcDbLine
 10
-617.8918786951012
 20
428.9761270059122
 30
0.0
 11
-141.8918918918918
 21
428.9761270059122
 31
0.0
  0
LINE
  5
79
330
1F
100
AcDbEntity
  8
0-4
  6
Continuous
 62
     7
370
     9
100
AcDbLine
 10
-617.8918786951012
 20
348.0906471046242
 30
0.0
 11
-617.8918786951012
 21
430.4761072107265
 31
0.0
  0
LINE
  5
7A
330
1F
100
AcDbEntity
  8
0-4
  6
Continuous
 62
     7
370
     9
100
AcDbLine
 10
-141.8918918918918
 20
348.0906471046242
 30
0.0
 11
-141.8918918918918
 21
430.4761072107265
 31
0.0
  0
LINE
  5
7B
330
1F
100
AcDbEntity
  8
0-4
  6
Continuous
 62
     7
370
     9
100
AcDbLine
 10
-654.7767123660526
 20
-106.1755865973395
 30
0.0
 11
-654.7767123660526
 21
293.8243721626901
 31
0.0
  0
LINE
  5
7C
330
1F
100
AcDbEntity
  8
0-4
  6
Continuous
 62
     7
370
     9
100
AcDbLine
 10
-589.4109055802628
 20
-106.1755865973395
 30
0.0
 11
-656.2767235008446
 21
-106.1755865973395
 31
0.0
  0
LINE
  5
7D
330
1F
100
AcDbEntity
  8
0-4
  6
Continuous
 62
     7
370
     9
100
AcDbLine
 10
-589.4109055802628
 20
293.8243721626901
 30
0.0
 11
-656.2767235008446
 21
293.8243721626901
 31
0.0
  0
LINE
  5
7E
330
1F
100
AcDbEntity
  8
0-4
  6
Continuous
 62
     7
370
     9
100
AcDbLine
 10
-687.4595848289696
 20
-131.1756072173247
 30
0.0
 11
-687.4595848289696
 21
318.8243309227197
 31
0.0
  0
LINE
  5
7F
330
1F
100
AcDbEntity
  8
0-4
  6
Continuous
 62
     7
370
     9
100
AcDbLine
 10
-612.5612516660948
 20
-131.1756072173247
 30
0.0
 11
-688.9595650337839
 21
-131.1756072173247
 31
0.0
  0
LINE
  5
80
330
1F
100
AcDbEntity
  8
0-4
  6
Continuous
 62
     7
370
     9
100
AcDbLine
 10
-612.5612516660948
 20
318.8243309227197
 30
0.0
 11
-688.9595650337839
 21
318.8243309227197
 31
0.0
  0
LINE
  5
81
330
1F
100
AcDbEntity
  8
0-4
  6
Continuous
 62
     7
370
     9
100
AcDbLine
 10
-715.0435885867557
 20
-144.1756624788851
 30
0.0
 11
-715.0435885867557
 21
331.8243243243244
 31
0.0
  0
LINE
  5
82
330
1F
100
AcDbEntity
  8
0-4
  6
Continuous
 62
     7
370
     9
100
AcDbLine
 10
-634.1581705454233
 20
-144.1756624788851
 30
0.0
 11
-716.5435687915698
 21
-144.1756624788851
 31
0.0
  0
LINE
  5
83
330
1F
100
AcDbEntity
  8
0-4
  6
Continuous
 62
     7
370
     9
100
AcDbLine
 10
-634.1581705454233
 20
331.8243243243244
 30
0.0
 11
-716.5435687915698
 21
331.8243243243244
 31
0.0
  0
LINE
  5
84
330
1F
100
AcDbEntity
  8
0-4
  6
Continuous
 62
     7
370
     9
100
AcDbLine
 10
-494.594532734639
 20
-233.3648516680743
 30
0.0
 11
-273.0772482382284
 21
-233.3648516680743
 31
0.0
  0
LINE
  5
85
330
1F
100
AcDbEntity
  8
1-2
  6
Continuous
 62
     3
370
     9
100
AcDbLine
 10
484.4688621727198
 20
376.4809025944891
 30
0.0
 11
484.4688621727198
 21
386.4809355864654
 31
0.0
  0
LINE
  5
86
330
1F
100
AcDbEntity
  8
1-2
  6
Continuous
 62
     3
370
     9
100
AcDbLine
 10
481.9688539247255
 20
375.2309603304477
 30
0.0
 11
484.4688621727198
 21
376.4809025944891
 31
0.0
  0
LINE
  5
87
330
1F
100
AcDbEntity
  8
1-2
  6
Continuous
 62
     3
370
     9
100
AcDbLine
 10
481.9688539247255
 20
335.231075802365
 30
0.0
 11
481.9688539247255
 21
375.2309603304477
 31
0.0
  0
LINE
  5
88
330
1F
100
AcDbEntity
  8
1-2
  6
Continuous
 62
     3
370
     9
100
AcDbLine
 10
484.4688621727198
 20
333.9811335383235
 30
0.0
 11
481.9688539247255
 21
335.231075802365
 31
0.0
  0
LINE
  5
89
330
1F
100
AcDbEntity
  8
1-2
  6
Continuous
 62
     3
370
     9
100
AcDbLine
 10
476.9689611486487
 20
330.2310593063767
 30
0.0
 11
471.9688209327492
 21
330.2310593063767
 31
0.0
  0
LINE
  5
8A
330
1F
100
AcDbEntity
  8
1-2
  6
Continuous
 62
     3
370
     9
100
AcDbLine
 10
476.9689611486487
 20
342.2311483847129
 30
0.0
 11
476.9689611486487
 21
330.2310593063767
 31
0.0
  0
LINE
  5
8B
330
1F
100
AcDbEntity
  8
1-2
  6
Continuous
 62
     3
370
     9
100
AcDbLine
 10
444.4688539247255
 20
342.2311483847129
 30
0.0
 11
476.9689611486487
 21
342.2311483847129
 31
0.0
  0
LINE
  5
8C
330
1F
100
AcDbEntity
  8
1-2
  6
Continuous
 62
     3
370
     9
100
AcDbLine
 10
444.4688539247255
 20
330.2310593063767
 30
0.0
 11
444.4688539247255
 21
342.2311483847129
 31
0.0
  0
LINE
  5
8D
330
1F
100
AcDbEntity
  8
1-2
  6
Continuous
 62
     3
370
     9
100
AcDbLine
 10
449.4691178605365
 20
330.2310593063767
 30
0.0
 11
444.4688539247255
 21
330.2310593063767
 31
0.0
  0
LINE
  5
8E
330
1F
100
AcDbEntity
  8
1-2
  6
Continuous
 62
     3
370
     9
100
AcDbLine
 10
409.4688621727198
 20
335.9809421848607
 30
0.0
 11
439.4690848685602
 21
335.9809421848607
 31
0.0
  0
LINE
  5
8F
330
1F
100
AcDbEntity
  8
1-2
  6
Continuous
 62
     3
370
     9
100
AcDbLine
 10
409.4688621727198
 20
340.9809586808489
 30
0.0
 11
409.4688621727198
 21
335.9809421848607
 31
0.0
  0
LINE
  5
90
330
1F
100
AcDbEntity
  8
1-2
  6
Continuous
 62
     3
370
     9
100
AcDbLine
 10
439.4690848685602
 20
340.9809586808489
 30
0.0
 11
177.7667071368244
 21
340.9809586808489
 31
0.0
  0
LINE
  5
91
330
1F
100
AcDbEntity
  8
1-2
  6
Continuous
 62
     3
370
     9
100
AcDbLine
 10
439.4690848685602
 20
348.9810593063767
 30
0.0
 11
439.4690848685602
 21
340.9809586808489
 31
0.0
  0
LINE
  5
92
330
1F
100
AcDbEntity
  8
1-2
  6
Continuous
 62
     3
370
     9
100
AcDbLine
 10
476.9689611486487
 20
347.2310411607897
 30
0.0
 11
439.4690848685602
 21
347.2310411607897
 31
0.0
  0
LINE
  5
93
330
1F
100
AcDbEntity
  8
1-2
  6
Continuous
 62
     3
370
     9
100
AcDbLine
 10
476.9689611486487
 20
380.2309768264358
 30
0.0
 11
476.9689611486487
 21
347.2310411607897
 31
0.0
  0
LINE
  5
94
330
1F
100
AcDbEntity
  8
1-2
  6
Continuous
 62
     3
370
     9
100
AcDbLine
 10
471.9688209327492
 20
380.2309768264358
 30
0.0
 11
476.9689611486487
 21
380.2309768264358
 31
0.0
  0
LINE
  5
95
330
1F
100
AcDbEntity
  8
1-2
  6
Continuous
 62
     3
370
     9
100
AcDbLine
 10
471.9688209327492
 20
386.4809355864654
 30
0.0
 11
471.9688209327492
 21
348.9810593063767
 31
0.0
  0
LINE
  5
96
330
1F
100
AcDbEntity
  8
1-2
  6
Continuous
 62
     3
370
     9
100
AcDbLine
 10
484.4688621727198
 20
386.4809355864654
 30
0.0
 11
177.7667071368244
 21
386.4809355864654
 31
0.0
  0
LINE
  5
97
330
1F
100
AcDbEntity
  8
1-2
  6
Continuous
 62
     3
370
     9
100
AcDbLine
 10
471.9688209327492
 20
348.9810593063767
 30
0.0
 11
177.7667071368244
 21
348.9810593063767
 31
0.0
  0
LINE
  5
98
330
1F
100
AcDbEntity
  8
1-2
  6
Continuous
 62
     3
370
     9
100
AcDbLine
 10
471.9688209327492
 20
356.4809603304477
 30
0.0
 11
177.7667071368244
 21
356.4809603304477
 31
0.0
  0
LINE
  5
99
330
1F
100
AcDbEntity
  8
1-2
  6
Continuous
 62
     3
370
     9
100
AcDbLine
 10
471.9688209327492
 20
363.9811087943413
 30
0.0
 11
177.7667071368244
 21
363.9811087943413
 31
0.0
  0
LINE
  5
9A
330
1F
100
AcDbEntity
  8
1-2
  6
Continuous
 62
     3
370
     9
100
AcDbLine
 10
471.9688209327492
 20
371.4808860985009
 30
0.0
 11
177.7667071368244
 21
371.4808860985009
 31
0.0
  0
LINE
  5
9B
330
1F
100
AcDbEntity
  8
1-2
  6
Continuous
 62
     3
370
     9
100
AcDbLine
 10
471.9688209327492
 20
378.9810345623945
 30
0.0
 11
177.7667071368244
 21
378.9810345623945
 31
0.0
  0
LINE
  5
9C
330
1F
100
AcDbEntity
  8
1-2
  6
Continuous
 62
     3
370
     9
100
AcDbLine
 10
439.4690848685602
 20
343.6477413692991
 30
0.0
 11
177.7667071368244
 21
343.6477413692991
 31
0.0
  0
LINE
  5
9D
330
1F
100
AcDbEntity
  8
1-2
  6
Continuous
 62
     3
370
     9
100
AcDbLine
 10
439.4690848685602
 20
346.3142766179266
 30
0.0
 11
177.7667071368244
 21
346.3142766179266
 31
0.0
  0
LINE
  5
9E
330
1F
100
AcDbEntity
  8
1-6
  6
Continuous
 62
     6
370
     5
100
AcDbLine
 10
452.1167239627323
 20
244.1803349675359
 30
0.0
 11
457.6822641733531
 21
247.3935885042758
 31
0.0
  0
LINE
  5
9F
330
1F
100
AcDbEntity
  8
1-6
  6
Continuous
 62
     6
370
     5
100
AcDbLine
 10
451.5366012985643
 20
246.345309695682
 30
0.0
 11
458.4749376451649
 21
250.3511129843223
 31
0.0
  0
LINE
  5
A0
330
1F
100
AcDbEntity
  8
1-6
  6
Continuous
 62
     6
370
     5
100
AcDbLine
 10
450.9563549144849
 20
248.5104081437395
 30
0.0
 11
459.2672399572425
 21
253.3086374643688
 31
0.0
  0
LINE
  5
A1
330
1F
100
AcDbEntity
  8
1-6
  6
Continuous
 62
     6
370
     5
100
AcDbLine
 10
450.3762322503169
 20
250.6755065917969
 30
0.0
 11
460.05954226932
 21
256.2661619444151
 31
0.0
  0
LINE
  5
A2
330
1F
100
AcDbEntity
  8
1-6
  6
Continuous
 62
     6
370
     5
100
AcDbLine
 10
449.7961095861487
 20
252.8404813199431
 30
0.0
 11
460.8523394610432
 21
259.2236864244616
 31
0.0
  0
LINE
  5
A3
330
1F
100
AcDbEntity
  8
1-6
  6
Continuous
 62
     6
370
     5
100
AcDbLine
 10
449.2159869219807
 20
255.0055797680005
 30
0.0
 11
460.8439265070734
 21
261.7189933158256
 31
0.0
  0
LINE
  5
A4
330
1F
100
AcDbEntity
  8
1-6
  6
Continuous
 62
     6
370
     5
100
AcDbLine
 10
448.6358642578125
 20
257.1706782160579
 30
0.0
 11
460.8439265070734
 21
264.2189397038641
 31
0.0
  0
LINE
  5
A5
330
1F
100
AcDbEntity
  8
1-6
  6
Continuous
 62
     6
370
     5
100
AcDbLine
 10
448.0938473263302
 20
271.857716328389
 30
0.0
 11
460.8439265070734
 21
279.2190510517843
 31
0.0
  0
LINE
  5
A6
330
1F
100
AcDbEntity
  8
1-6
  6
Continuous
 62
     6
370
     5
100
AcDbLine
 10
448.0938473263302
 20
269.3578318003063
 30
0.0
 11
460.8439265070734
 21
276.7189190838789
 31
0.0
  0
LINE
  5
A7
330
1F
100
AcDbEntity
  8
1-6
  6
Continuous
 62
     6
370
     5
100
AcDbLine
 10
448.0938473263302
 20
266.8577616923565
 30
0.0
 11
460.8439265070734
 21
274.2189726958404
 31
0.0
  0
LINE
  5
A8
330
1F
100
AcDbEntity
  8
1-6
  6
Continuous
 62
     6
370
     5
100
AcDbLine
 10
448.0938473263302
 20
264.3578153043181
 30
0.0
 11
460.8439265070734
 21
271.719026307802
 31
0.0
  0
LINE
  5
A9
330
1F
100
AcDbEntity
  8
1-6
  6
Continuous
 62
     6
370
     5
100
AcDbLine
 10
448.0938473263302
 20
261.8577451963683
 30
0.0
 11
460.8439265070734
 21
269.2189561998522
 31
0.0
  0
LINE
  5
AA
330
1F
100
AcDbEntity
  8
1-6
  6
Continuous
 62
     6
370
     5
100
AcDbLine
 10
448.0938473263302
 20
259.3577988083298
 30
0.0
 11
460.8439265070734
 21
266.7190098118138
 31
0.0
  0
LINE
  5
AB
330
1F
100
AcDbEntity
  8
1-6
  6
Continuous
 62
     6
370
     5
100
AcDbLine
 10
454.4688869167018
 20
240.2308860985009
 30
0.0
 11
449.3437895903716
 21
259.3577988083298
 31
0.0
  0
LINE
  5
AC
330
1F
100
AcDbEntity
  8
1-6
  6
Continuous
 62
     6
370
     5
100
AcDbLine
 10
454.4688869167018
 20
240.2308860985009
 30
0.0
 11
459.5937368032097
 21
259.3577988083298
 31
0.0
  0
LINE
  5
AD
330
1F
100
AcDbEntity
  8
1-6
  6
JWW_CENTER2
 62
     6
370
     5
100
AcDbLine
 10
454.4688869167018
 20
235.9099063357792
 30
0.0
 11
454.4688869167018
 21
311.7988957585516
 31
0.0
  0
LINE
  5
AE
330
1F
100
AcDbEntity
  8
1-6
  6
Continuous
 62
     6
370
     5
100
AcDbLine
 10
509.4689446526607
 20
348.9810593063767
 30
0.0
 11
621.9689446526606
 21
236.4811211663324
 31
0.0
  0
LINE
  5
AF
330
1F
100
AcDbEntity
  8
1-6
  6
Continuous
 62
     6
370
     5
100
AcDbLine
 10
621.9689446526606
 20
236.4811211663324
 30
0.0
 11
621.9689446526606
 21
348.9810593063767
 31
0.0
  0
LINE
  5
B0
330
1F
100
AcDbEntity
  8
1-6
  6
Continuous
 62
     6
370
     5
100
AcDbLine
 10
509.4689446526607
 20
236.4811211663324
 30
0.0
 11
621.9689446526606
 21
236.4811211663324
 31
0.0
  0
LINE
  5
B1
330
1F
100
AcDbEntity
  8
1-6
  6
Continuous
 62
     6
370
     5
100
AcDbLine
 10
421.9691508525128
 20
286.4809768264358
 30
0.0
 11
421.9691508525128
 21
161.4809974464211
 31
0.0
  0
LINE
  5
B2
330
1F
100
AcDbEntity
  8
1-6
  6
Continuous
 62
     6
370
     5
100
AcDbLine
 10
435.0245707743878
 20
286.4809768264358
 30
0.0
 11
449.3437895903716
 21
272.1614487106735
 31
0.0
  0
LINE
  5
B3
330
1F
100
AcDbEntity
  8
1-6
  6
Continuous
 62
     6
370
     5
100
AcDbLine
 10
421.9691508525128
 20
274.536499848237
 30
0.0
 11
453.8082225902662
 21
242.6972425306167
 31
0.0
  0
LINE
  5
B4
330
1F
100
AcDbEntity
  8
1-6
  6
Continuous
 62
     6
370
     5
100
AcDbLine
 10
421.9691508525128
 20
174.5364173682961
 30
0.0
 11
435.0245707743878
 21
161.4809974464211
 31
0.0
  0
LINE
  5
B5
330
1F
100
AcDbEntity
  8
1-4
  6
Continuous
 62
     7
370
     9
100
AcDbLine
 10
252.5062767235008
 20
105.3866989548142
 30
0.0
 11
513.9359757706927
 21
105.3866989548142
 31
0.0
  0
LINE
  5
B6
330
1F
100
AcDbEntity
  8
1-1
  6
Continuous
 62
     2
370
     9
100
AcDbLine
 10
516.9692168364654
 20
387.7310015704181
 30
0.0
 11
510.7190106366133
 21
391.481075802365
 31
0.0
  0
LINE
  5
B7
330
1F
100
AcDbEntity
  8
1-1
  6
Continuous
 62
     2
370
     9
100
AcDbLine
 10
510.7190106366133
 20
391.481075802365
 30
0.0
 11
493.2189529006547
 21
391.481075802365
 31
0.0
  0
LINE
  5
B8
330
1F
100
AcDbEntity
  8
1-1
  6
Continuous
 62
     2
370
     9
100
AcDbLine
 10
493.2189529006547
 20
391.481075802365
 30
0.0
 11
486.9691178605365
 21
386.4809355864654
 31
0.0
  0
LINE
  5
B9
330
1F
100
AcDbEntity
  8
1-1
  6
Continuous
 62
     2
370
     9
100
AcDbLine
 10
486.9691178605365
 20
386.4809355864654
 30
0.0
 11
486.9691178605365
 21
321.4810922983531
 31
0.0
  0
LINE
  5
BA
330
1F
100
AcDbEntity
  8
1-1
  6
Continuous
 62
     2
370
     9
100
AcDbLine
 10
486.9691178605365
 20
321.4810922983531
 30
0.0
 11
465.7188621727198
 21
321.4810922983531
 31
0.0
  0
LINE
  5
BB
330
1F
100
AcDbEntity
  8
1-1
  6
Continuous
 62
     2
370
     9
100
AcDbLine
 10
465.7188621727198
 20
321.4810922983531
 30
0.0
 11
465.7188621727198
 21
317.7310180664062
 31
0.0
  0
LINE
  5
BC
330
1F
100
AcDbEntity
  8
1-1
  6
Continuous
 62
     2
370
     9
100
AcDbLine
 10
465.7188621727198
 20
317.7310180664062
 30
0.0
 11
470.0942168364654
 21
317.7310180664062
 31
0.0
  0
LINE
  5
BD
330
1F
100
AcDbEntity
  8
1-1
  6
Continuous
 62
     2
370
     9
100
AcDbLine
 10
470.0942168364654
 20
317.7310180664062
 30
0.0
 11
470.0942168364654
 21
305.2309768264358
 31
0.0
  0
LINE
  5
BE
330
1F
100
AcDbEntity
  8
1-1
  6
Continuous
 62
     2
370
     9
100
AcDbLine
 10
467.5940848685602
 20
302.7310922983531
 30
0.0
 11
455.2190007390203
 21
302.7310922983531
 31
0.0
  0
LINE
  5
BF
330
1F
100
AcDbEntity
  8
1-1
  6
Continuous
 62
     2
370
     9
100
AcDbLine
 10
438.8439281566724
 20
305.2309768264358
 30
0.0
 11
438.8439281566724
 21
317.7310180664062
 31
0.0
  0
LINE
  5
C0
330
1F
100
AcDbEntity
  8
1-1
  6
Continuous
 62
     2
370
     9
100
AcDbLine
 10
438.8439281566724
 20
317.7310180664062
 30
0.0
 11
443.2191591005068
 21
317.7310180664062
 31
0.0
  0
LINE
  5
C1
330
1F
100
AcDbEntity
  8
1-1
  6
Continuous
 62
     2
370
     9
100
AcDbLine
 10
443.2191591005068
 20
317.7310180664062
 30
0.0
 11
443.2191591005068
 21
321.4810922983531
 31
0.0
  0
LINE
  5
C2
330
1F
100
AcDbEntity
  8
1-1
  6
Continuous
 62
     2
370
     9
100
AcDbLine
 10
421.9691508525128
 20
286.4809768264358
 30
0.0
 11
448.8440848685602
 21
286.4809768264358
 31
0.0
  0
LINE
  5
C3
330
1F
100
AcDbEntity
  8
1-1
  6
Continuous
 62
     2
370
     9
100
AcDbLine
 10
448.8440848685602
 20
286.4809768264358
 30
0.0
 11
448.8440848685602
 21
290.230989198427
 31
0.0
  0
LINE
  5
C4
330
1F
100
AcDbEntity
  8
1-1
  6
Continuous
 62
     2
370
     9
100
AcDbLine
 10
448.8440848685602
 20
290.230989198427
 30
0.0
 11
445.0940106366133
 21
290.230989198427
 31
0.0
  0
LINE
  5
C5
330
1F
100
AcDbEntity
  8
1-1
  6
Continuous
 62
     2
370
     9
100
AcDbLine
 10
445.0940106366133
 20
290.230989198427
 30
0.0
 11
445.0940106366133
 21
298.9810180664062
 31
0.0
  0
LINE
  5
C6
330
1F
100
AcDbEntity
  8
1-1
  6
Continuous
 62
     2
370
     9
100
AcDbLine
 10
463.8440106366133
 20
298.9810180664062
 30
0.0
 11
463.8440106366133
 21
290.230989198427
 31
0.0
  0
LINE
  5
C7
330
1F
100
AcDbEntity
  8
1-1
  6
Continuous
 62
     2
370
     9
100
AcDbLine
 10
463.8440106366133
 20
290.230989198427
 30
0.0
 11
460.0938126847552
 21
290.230989198427
 31
0.0
  0
LINE
  5
C8
330
1F
100
AcDbEntity
  8
1-1
  6
Continuous
 62
     2
370
     9
100
AcDbLine
 10
460.0938126847552
 20
290.230989198427
 30
0.0
 11
460.0938126847552
 21
286.4809768264358
 31
0.0
  0
LINE
  5
C9
330
1F
100
AcDbEntity
  8
1-1
  6
Continuous
 62
     2
370
     9
100
AcDbLine
 10
460.0938126847552
 20
286.4809768264358
 30
0.0
 11
504.4689281566724
 21
286.4809768264358
 31
0.0
  0
LINE
  5
CA
330
1F
100
AcDbEntity
  8
1-1
  6
Continuous
 62
     2
370
     9
100
AcDbLine
 10
504.4689281566724
 20
286.4809768264358
 30
0.0
 11
504.4689281566724
 21
296.4808860985009
 31
0.0
  0
LINE
  5
CB
330
1F
100
AcDbEntity
  8
1-1
  6
Continuous
 62
     2
370
     9
100
AcDbLine
 10
499.4691591005068
 20
291.4809314624683
 30
0.0
 11
491.9690106366133
 21
291.4809314624683
 31
0.0
  0
LINE
  5
CC
330
1F
100
AcDbEntity
  8
1-1
  6
Continuous
 62
     2
370
     9
100
AcDbLine
 10
491.9690106366133
 20
291.4809314624683
 30
0.0
 11
491.9690106366133
 21
336.4810180664062
 31
0.0
  0
LINE
  5
CD
330
1F
100
AcDbEntity
  8
1-1
  6
Continuous
 62
     2
370
     9
100
AcDbLine
 10
491.9690106366133
 20
336.4810180664062
 30
0.0
 11
499.4691591005068
 21
336.4810180664062
 31
0.0
  0
LINE
  5
CE
330
1F
100
AcDbEntity
  8
1-1
  6
Continuous
 62
     2
370
     9
100
AcDbLine
 10
499.4691591005068
 20
331.4810015704181
 30
0.0
 11
504.4689281566724
 21
331.4810015704181
 31
0.0
  0
LINE
  5
CF
330
1F
100
AcDbEntity
  8
1-1
  6
Continuous
 62
     2
370
     9
100
AcDbLine
 10
504.4689281566724
 20
331.4810015704181
 30
0.0
 11
504.4689281566724
 21
341.4810345623945
 31
0.0
  0
LINE
  5
D0
330
1F
100
AcDbEntity
  8
1-1
  6
Continuous
 62
     2
370
     9
100
AcDbLine
 10
504.4689281566724
 20
341.4810345623945
 30
0.0
 11
491.9690106366133
 21
341.4810345623945
 31
0.0
  0
LINE
  5
D1
330
1F
100
AcDbEntity
  8
1-1
  6
Continuous
 62
     2
370
     9
100
AcDbLine
 10
491.9690106366133
 20
341.4810345623945
 30
0.0
 11
491.9690106366133
 21
384.0778000290329
 31
0.0
  0
LINE
  5
D2
330
1F
100
AcDbEntity
  8
1-1
  6
Continuous
 62
     2
370
     9
100
AcDbLine
 10
486.9691178605365
 20
292.7309974464211
 30
0.0
 11
486.9691178605365
 21
315.2308860985009
 31
0.0
  0
LINE
  5
D3
330
1F
100
AcDbEntity
  8
1-1
  6
Continuous
 62
     2
370
     9
100
AcDbLine
 10
484.4688621727198
 20
317.7310180664062
 30
0.0
 11
476.3439281566724
 21
317.7310180664062
 31
0.0
  0
LINE
  5
D4
330
1F
100
AcDbEntity
  8
1-1
  6
Continuous
 62
     2
370
     9
100
AcDbLine
 10
473.8439199086784
 20
315.2308860985009
 30
0.0
 11
473.8439199086784
 21
305.2309768264358
 31
0.0
  0
LINE
  5
D5
330
1F
100
AcDbEntity
  8
1-1
  6
Continuous
 62
     2
370
     9
100
AcDbLine
 10
463.8440106366133
 20
298.9810180664062
 30
0.0
 11
445.0940106366133
 21
298.9810180664062
 31
0.0
  0
LINE
  5
D6
330
1F
100
AcDbEntity
  8
1-1
  6
Continuous
 62
     2
370
     9
100
AcDbLine
 10
470.0942168364654
 20
290.230989198427
 30
0.0
 11
484.4688621727198
 21
290.230989198427
 31
0.0
  0
LINE
  5
D7
330
1F
100
AcDbEntity
  8
1-1
  6
Continuous
 62
     2
370
     9
100
AcDbLine
 10
467.5940848685602
 20
298.9810180664062
 30
0.0
 11
467.5940848685602
 21
292.7309974464211
 31
0.0
  0
LINE
  5
D8
330
1F
100
AcDbEntity
  8
1-1
  6
Continuous
 62
     2
370
     9
100
AcDbLine
 10
432.5942168364654
 20
317.7310180664062
 30
0.0
 11
428.2188621727198
 21
317.7310180664062
 31
0.0
  0
LINE
  5
D9
330
1F
100
AcDbEntity
  8
1-1
  6
Continuous
 62
     2
370
     9
100
AcDbLine
 10
435.093977644637
 20
305.2309768264358
 30
0.0
 11
435.093977644637
 21
315.2308860985009
 31
0.0
  0
LINE
  5
DA
330
1F
100
AcDbEntity
  8
1-1
  6
Continuous
 62
     2
370
     9
100
AcDbLine
 10
425.718977644637
 20
315.2308860985009
 30
0.0
 11
425.718977644637
 21
292.7309974464211
 31
0.0
  0
LINE
  5
DB
330
1F
100
AcDbEntity
  8
1-1
  6
Continuous
 62
     2
370
     9
100
AcDbLine
 10
441.3438126847552
 20
292.7309974464211
 30
0.0
 11
441.3438126847552
 21
298.9810180664062
 31
0.0
  0
LINE
  5
DC
330
1F
100
AcDbEntity
  8
1-1
  6
Continuous
 62
     2
370
     9
100
AcDbLine
 10
428.2188621727198
 20
290.230989198427
 30
0.0
 11
438.8439281566724
 21
290.230989198427
 31
0.0
  0
LINE
  5
DD
330
1F
100
AcDbEntity
  8
1-1
  6
Continuous
 62
     2
370
     9
100
AcDbLine
 10
455.2190007390203
 20
302.7310922983531
 30
0.0
 11
455.2190007390203
 21
301.9809784760346
 31
0.0
  0
LINE
  5
DE
330
1F
100
AcDbEntity
  8
1-1
  6
Continuous
 62
     2
370
     9
100
AcDbLine
 10
455.2190007390203
 20
301.9809784760346
 30
0.0
 11
453.7191442541175
 21
301.9809784760346
 31
0.0
  0
LINE
  5
DF
330
1F
100
AcDbEntity
  8
1-1
  6
Continuous
 62
     2
370
     9
100
AcDbLine
 10
453.7191442541175
 20
301.9809784760346
 30
0.0
 11
453.7191442541175
 21
302.7310922983531
 31
0.0
  0
LINE
  5
E0
330
1F
100
AcDbEntity
  8
1-1
  6
Continuous
 62
     2
370
     9
100
AcDbLine
 10
453.7191442541175
 20
302.7310922983531
 30
0.0
 11
441.3438126847552
 21
302.7310922983531
 31
0.0
  0
LINE
  5
E1
330
1F
100
AcDbEntity
  8
1-1
  6
Continuous
 62
     2
370
     9
100
AcDbLine
 10
421.9691508525128
 20
321.4810922983531
 30
0.0
 11
421.9691508525128
 21
286.4809768264358
 31
0.0
  0
LINE
  5
E2
330
1F
100
AcDbEntity
  8
1-1
  6
Continuous
 62
     2
370
     9
100
AcDbLine
 10
461.9691591005068
 20
313.9809438344595
 30
0.0
 11
461.9691591005068
 21
321.4810922983531
 31
0.0
  0
LINE
  5
E3
330
1F
100
AcDbEntity
  8
1-1
  6
Continuous
 62
     2
370
     9
100
AcDbLine
 10
446.9688621727198
 20
321.4810922983531
 30
0.0
 11
446.9688621727198
 21
313.9809438344595
 31
0.0
  0
LINE
  5
E4
330
1F
100
AcDbEntity
  8
1-1
  6
Continuous
 62
     2
370
     9
100
AcDbLine
 10
465.0939529006547
 20
321.47985509924
 30
0.0
 11
484.4688621727198
 21
321.4810922983531
 31
0.0
  0
LINE
  5
E5
330
1F
100
AcDbEntity
  8
1-1
  6
Continuous
 62
     2
370
     9
100
AcDbLine
 10
465.0939529006547
 20
315.2308860985009
 30
0.0
 11
465.0939529006547
 21
321.4810922983531
 31
0.0
  0
LINE
  5
E6
330
1F
100
AcDbEntity
  8
1-1
  6
Continuous
 62
     2
370
     9
100
AcDbLine
 10
468.2191178605365
 20
315.2308860985009
 30
0.0
 11
465.0939529006547
 21
315.2308860985009
 31
0.0
  0
LINE
  5
E7
330
1F
100
AcDbEntity
  8
1-1
  6
Continuous
 62
     2
370
     9
100
AcDbLine
 10
468.2191178605365
 20
313.7306584538641
 30
0.0
 11
468.2191178605365
 21
315.2308860985009
 31
0.0
  0
LINE
  5
E8
330
1F
100
AcDbEntity
  8
1-1
  6
Continuous
 62
     2
370
     9
100
AcDbLine
 10
440.7191508525128
 20
315.2308860985009
 30
0.0
 11
440.7191508525128
 21
313.7306584538641
 31
0.0
  0
LINE
  5
E9
330
1F
100
AcDbEntity
  8
1-1
  6
Continuous
 62
     2
370
     9
100
AcDbLine
 10
443.8440683725719
 20
315.2308860985009
 30
0.0
 11
440.7191508525128
 21
315.2308860985009
 31
0.0
  0
LINE
  5
EA
330
1F
100
AcDbEntity
  8
1-1
  6
Continuous
 62
     2
370
     9
100
AcDbLine
 10
424.4691591005068
 20
323.9809768264358
 30
0.0
 11
424.4691591005068
 21
321.4810922983531
 31
0.0
  0
LINE
  5
EB
330
1F
100
AcDbEntity
  8
1-1
  6
Continuous
 62
     2
370
     9
100
AcDbLine
 10
484.4688621727198
 20
321.4810922983531
 30
0.0
 11
484.4688621727198
 21
323.9809768264358
 31
0.0
  0
LINE
  5
EC
330
1F
100
AcDbEntity
  8
1-1
  6
Continuous
 62
     2
370
     9
100
AcDbLine
 10
516.9692168364654
 20
387.7310015704181
 30
0.0
 11
516.9692168364654
 21
386.4809355864654
 31
0.0
  0
LINE
  5
ED
330
1F
100
AcDbEntity
  8
1-1
  6
Continuous
 62
     2
370
     9
100
AcDbLine
 10
494.9730538033151
 20
386.4809355864654
 30
0.0
 11
491.9690106366133
 21
384.0778000290329
 31
0.0
  0
LINE
  5
EE
330
1F
100
AcDbEntity
  8
1-1
  6
Continuous
 62
     2
370
     9
100
AcDbLine
 10
424.4691591005068
 20
321.4810922983531
 30
0.0
 11
426.9690436285896
 21
323.9809768264358
 31
0.0
  0
LINE
  5
EF
330
1F
100
AcDbEntity
  8
1-1
  6
Continuous
 62
     2
370
     9
100
AcDbLine
 10
461.9691591005068
 20
321.4810922983531
 30
0.0
 11
446.9688621727198
 21
321.4810922983531
 31
0.0
  0
LINE
  5
F0
330
1F
100
AcDbEntity
  8
1-1
  6
Continuous
 62
     2
370
     9
100
AcDbLine
 10
429.4689281566724
 20
321.4810922983531
 30
0.0
 11
431.9691838444891
 21
323.9809768264358
 31
0.0
  0
LINE
  5
F1
330
1F
100
AcDbEntity
  8
1-1
  6
Continuous
 62
     2
370
     9
100
AcDbLine
 10
434.4691920924831
 20
321.4810922983531
 30
0.0
 11
436.9690766205659
 21
323.9809768264358
 31
0.0
  0
LINE
  5
F2
330
1F
100
AcDbEntity
  8
1-1
  6
Continuous
 62
     2
370
     9
100
AcDbLine
 10
439.4690848685602
 20
321.4810922983531
 30
0.0
 11
441.9692168364654
 21
323.9809768264358
 31
0.0
  0
LINE
  5
F3
330
1F
100
AcDbEntity
  8
1-1
  6
Continuous
 62
     2
370
     9
100
AcDbLine
 10
479.4692168364654
 20
321.4810922983531
 30
0.0
 11
481.9692250844597
 21
323.9809768264358
 31
0.0
  0
LINE
  5
F4
330
1F
100
AcDbEntity
  8
1-1
  6
Continuous
 62
     2
370
     9
100
AcDbLine
 10
484.4688621727198
 20
323.9809768264358
 30
0.0
 11
424.4691591005068
 21
323.9809768264358
 31
0.0
  0
LINE
  5
F5
330
1F
100
AcDbEntity
  8
1-1
  6
Continuous
 62
     2
370
     9
100
AcDbLine
 10
443.8440683725719
 20
321.4810922983531
 30
0.0
 11
421.9691508525128
 21
321.4810922983531
 31
0.0
  0
LINE
  5
F6
330
1F
100
AcDbEntity
  8
1-1
  6
Continuous
 62
     2
370
     9
100
AcDbLine
 10
443.8440683725719
 20
321.4810922983531
 30
0.0
 11
443.8440683725719
 21
315.2308860985009
 31
0.0
  0
LINE
  5
F7
330
1F
100
AcDbEntity
  8
1-1
  6
Continuous
 62
     2
370
     9
100
AcDbLine
 10
443.8440683725719
 20
320.8560593063767
 30
0.0
 11
446.9688621727198
 21
323.9809768264358
 31
0.0
  0
LINE
  5
F8
330
1F
100
AcDbEntity
  8
1-1
  6
Continuous
 62
     2
370
     9
100
AcDbLine
 10
449.4691178605365
 20
321.4810922983531
 30
0.0
 11
451.9691261085305
 21
323.9809768264358
 31
0.0
  0
LINE
  5
F9
330
1F
100
AcDbEntity
  8
1-1
  6
Continuous
 62
     2
370
     9
100
AcDbLine
 10
443.8440683725719
 20
315.8559190904772
 30
0.0
 11
446.9688621727198
 21
318.9809603304477
 31
0.0
  0
LINE
  5
FA
330
1F
100
AcDbEntity
  8
1-1
  6
Continuous
 62
     2
370
     9
100
AcDbLine
 10
441.4446444124789
 20
313.4566188502957
 30
0.0
 11
443.2191591005068
 21
315.2308860985009
 31
0.0
  0
LINE
  5
FB
330
1F
100
AcDbEntity
  8
1-1
  6
Continuous
 62
     2
370
     9
100
AcDbLine
 10
445.2679608319258
 20
312.2799187737543
 30
0.0
 11
446.9688621727198
 21
313.9809438344595
 31
0.0
  0
LINE
  5
FC
330
1F
100
AcDbEntity
  8
1-1
  6
Continuous
 62
     2
370
     9
100
AcDbLine
 10
454.4690106366133
 20
321.4810922983531
 30
0.0
 11
456.9688951646961
 21
323.9809768264358
 31
0.0
  0
LINE
  5
FD
330
1F
100
AcDbEntity
  8
1-1
  6
Continuous
 62
     2
370
     9
100
AcDbLine
 10
459.4691508525128
 20
321.4810922983531
 30
0.0
 11
461.9691591005068
 21
323.9809768264358
 31
0.0
  0
LINE
  5
FE
330
1F
100
AcDbEntity
  8
1-1
  6
Continuous
 62
     2
370
     9
100
AcDbLine
 10
461.9691591005068
 20
318.9809603304477
 30
0.0
 11
466.9689281566724
 21
323.9809768264358
 31
0.0
  0
LINE
  5
FF
330
1F
100
AcDbEntity
  8
1-1
  6
Continuous
 62
     2
370
     9
100
AcDbLine
 10
449.4645402238177
 20
311.4766053895693
 30
0.0
 11
451.3139054581927
 21
313.3258469040329
 31
0.0
  0
LINE
  5
100
330
1F
100
AcDbEntity
  8
1-1
  6
Continuous
 62
     2
370
     9
100
AcDbLine
 10
454.1338533968539
 20
311.1456546267948
 30
0.0
 11
456.2171729835305
 21
313.2290979333827
 31
0.0
  0
LINE
  5
101
330
1F
100
AcDbEntity
  8
1-1
  6
Continuous
 62
     2
370
     9
100
AcDbLine
 10
469.4680703652872
 20
321.4799788191511
 30
0.0
 11
471.9691920924831
 21
323.9809768264358
 31
0.0
  0
LINE
  5
102
330
1F
100
AcDbEntity
  8
1-1
  6
Continuous
 62
     2
370
     9
100
AcDbLine
 10
459.4633360166807
 20
311.4751207506334
 30
0.0
 11
465.0939529006547
 21
317.1057376346073
 31
0.0
  0
LINE
  5
103
330
1F
100
AcDbEntity
  8
1-1
  6
Continuous
 62
     2
370
     9
100
AcDbLine
 10
474.4683343010982
 20
321.4802262589739
 30
0.0
 11
476.9689611486487
 21
323.9809768264358
 31
0.0
  0
LINE
  5
104
330
1F
100
AcDbEntity
  8
1-1
  6
Continuous
 62
     2
370
     9
100
AcDbLine
 10
465.9004830025339
 20
312.9123749604096
 30
0.0
 11
468.2191178605365
 21
315.2308860985009
 31
0.0
  0
LINE
  5
105
330
1F
100
AcDbEntity
  8
1-1
  6
Continuous
 62
     2
370
     9
100
AcDbLine
 10
494.9730538033151
 20
386.4809355864654
 30
0.0
 11
516.9692168364654
 21
386.4809355864654
 31
0.0
  0
LINE
  5
106
330
1F
100
AcDbEntity
  8
1-1
  6
Continuous
 62
     2
370
     9
100
AcDbLine
 10
499.4691591005068
 20
296.4808860985009
 30
0.0
 11
499.4691591005068
 21
291.4809314624683
 31
0.0
  0
LINE
  5
107
330
1F
100
AcDbEntity
  8
1-1
  6
Continuous
 62
     2
370
     9
100
AcDbLine
 10
504.4689281566724
 20
296.4808860985009
 30
0.0
 11
499.4691591005068
 21
296.4808860985009
 31
0.0
  0
LINE
  5
108
330
1F
100
AcDbEntity
  8
1-6
  6
Continuous
 62
     6
370
     5
100
AcDbLine
 10
449.3437895903716
 20
259.3577988083298
 30
0.0
 11
449.3437895903716
 21
298.9810180664062
 31
0.0
  0
LINE
  5
109
330
1F
100
AcDbEntity
  8
1-6
  6
Continuous
 62
     6
370
     5
100
AcDbLine
 10
459.5937368032097
 20
259.3577988083298
 30
0.0
 11
459.5937368032097
 21
298.9810180664062
 31
0.0
  0
LINE
  5
10A
330
1F
100
AcDbEntity
  8
1-6
  6
Continuous
 62
     6
370
     5
100
AcDbLine
 10
421.9691508525128
 20
199.5364379882812
 30
0.0
 11
460.0242820945948
 21
161.4809974464211
 31
0.0
  0
LINE
  5
10B
330
1F
100
AcDbEntity
  8
1-2
  6
Continuous
 62
     3
370
     9
100
AcDbLine
 10
439.4690848685602
 20
335.9809421848607
 30
0.0
 11
439.4690848685602
 21
323.9809768264358
 31
0.0
  0
LINE
  5
10C
330
1F
100
AcDbEntity
  8
1-2
  6
Continuous
 62
     3
370
     9
100
AcDbLine
 10
449.4691178605365
 20
323.9809768264358
 30
0.0
 11
449.4691178605365
 21
330.2310593063767
 31
0.0
  0
LINE
  5
10D
330
1F
100
AcDbEntity
  8
1-2
  6
Continuous
 62
     3
370
     9
100
AcDbLine
 10
471.9688209327492
 20
330.2310593063767
 30
0.0
 11
471.9688209327492
 21
323.9809768264358
 31
0.0
  0
LINE
  5
10E
330
1F
100
AcDbEntity
  8
1-2
  6
Continuous
 62
     3
370
     9
100
AcDbLine
 10
484.4688621727198
 20
323.9809768264358
 30
0.0
 11
484.4688621727198
 21
333.9811335383235
 31
0.0
  0
LINE
  5
10F
330
1F
100
AcDbEntity
  8
1-0
  6
Continuous
 62
     3
370
     9
100
AcDbLine
 10
464.2882888381547
 20
-282.6238106392526
 30
0.0
 11
238.7879655167865
 21
-282.6238106392526
 31
0.0
  0
LINE
  5
110
330
1F
100
AcDbEntity
  8
1-0
  6
Continuous
 62
     3
370
     9
100
AcDbLine
 10
443.8356554186024
 20
-290.1236807333456
 30
0.0
 11
466.5373931059966
 21
-290.1236807333456
 31
0.0
  0
LINE
  5
111
330
1F
100
AcDbEntity
  8
1-0
  6
Continuous
 62
     3
370
     9
100
AcDbLine
 10
442.6358197186445
 20
-290.1236807333456
 30
0.0
 11
236.5375003299198
 21
-290.1236807333456
 31
0.0
  0
LINE
  5
112
330
1F
100
AcDbEntity
  8
1-0
  6
JWW_DASHED3
 62
     3
370
     9
100
AcDbLine
 10
260.4404346362966
 20
-291.0272072456979
 30
0.0
 11
263.7878005569047
 21
-301.3738106392526
 31
0.0
  0
LINE
  5
113
330
1F
100
AcDbEntity
  8
1-0
  6
Continuous
 62
     3
370
     9
100
AcDbLine
 10
236.5375003299198
 20
-284.8736881565403
 30
0.0
 11
236.5375003299198
 21
-290.1236807333456
 31
0.0
  0
LINE
  5
114
330
1F
100
AcDbEntity
  8
1-0
  6
Continuous
 62
     3
370
     9
100
AcDbLine
 10
466.5373931059966
 20
-284.8736881565403
 30
0.0
 11
466.5373931059966
 21
-290.1236807333456
 31
0.0
  0
LINE
  5
115
330
1F
100
AcDbEntity
  8
1-0
  6
JWW_CENTER1
 62
     3
370
     9
100
AcDbLine
 10
351.5377560177365
 20
-192.7635027911211
 30
0.0
 11
351.5377560177365
 21
-422.1697565027185
 31
0.0
  0
LINE
  5
116
330
1F
100
AcDbEntity
  8
1-0
  6
JWW_DASHED3
 62
     3
370
     9
100
AcDbLine
 10
442.6358197186445
 20
-291.0272072456979
 30
0.0
 11
439.2877114785685
 21
-301.3738106392526
 31
0.0
  0
LINE
  5
117
330
1F
100
AcDbEntity
  8
1-0
  6
JWW_DASHED3
 62
     3
370
     9
100
AcDbLine
 10
270.0375118771115
 20
-307.6238931191933
 30
0.0
 11
433.0378764384503
 21
-307.6238931191933
 31
0.0
  0
LINE
  5
118
330
1F
100
AcDbEntity
  8
1-0
  6
Continuous
 62
     3
370
     9
100
AcDbLine
 10
461.5377477697425
 20
-30.12427665091849
 30
0.0
 11
241.5377642657307
 21
-30.12427665091849
 31
0.0
  0
LINE
  5
119
330
1F
100
AcDbEntity
  8
1-0
  6
Continuous
 62
     3
370
     9
100
AcDbLine
 10
466.5377642657307
 20
-112.624425114812
 30
0.0
 11
466.5377642657307
 21
-35.12435500686223
 31
0.0
  0
LINE
  5
11A
330
1F
100
AcDbEntity
  8
1-0
  6
Continuous
 62
     3
370
     9
100
AcDbLine
 10
236.5376240498313
 20
-112.624425114812
 30
0.0
 11
236.5376240498313
 21
-35.12435500686223
 31
0.0
  0
LINE
  5
11B
330
1F
100
AcDbEntity
  8
1-0
  6
Continuous
 62
     3
370
     9
100
AcDbLine
 10
241.5377642657307
 20
-117.6245034707559
 30
0.0
 11
461.5377477697425
 21
-117.6245034707559
 31
0.0
  0
LINE
  5
11C
330
1F
100
AcDbEntity
  8
1-0
  6
Continuous
 62
     3
370
     9
100
AcDbLine
 10
270.0375118771115
 20
-83.62453976192981
 30
0.0
 11
270.0375118771115
 21
-64.12454965952278
 31
0.0
  0
LINE
  5
11D
330
1F
100
AcDbEntity
  8
1-0
  6
Continuous
 62
     3
370
     9
100
AcDbLine
 10
427.5376603410052
 20
-58.62445728198892
 30
0.0
 11
275.5376042546453
 21
-58.62445728198892
 31
0.0
  0
LINE
  5
11E
330
1F
100
AcDbEntity
  8
1-0
  6
Continuous
 62
     3
370
     9
100
AcDbLine
 10
433.0375052787164
 20
-83.62453976192981
 30
0.0
 11
433.0375052787164
 21
-64.12454965952278
 31
0.0
  0
LINE
  5
11F
330
1F
100
AcDbEntity
  8
1-0
  6
Continuous
 62
     3
370
     9
100
AcDbLine
 10
427.5376603410052
 20
-89.12432283968542
 30
0.0
 11
275.5376042546453
 21
-89.12432283968542
 31
0.0
  0
LINE
  5
120
330
1F
100
AcDbEntity
  8
1-0
  6
JWW_CENTER1
 62
     3
370
     9
100
AcDbLine
 10
351.5377560177365
 20
-133.3765225797086
 30
0.0
 11
351.5377560177365
 21
-11.78799603436445
 31
0.0
  0
LINE
  5
121
330
1F
100
AcDbEntity
  8
1-0
  6
JWW_CENTER1
 62
     3
370
     9
100
AcDbLine
 10
219.1189740155195
 20
-73.87435913085938
 30
0.0
 11
484.742901776288
 21
-73.87435913085938
 31
0.0
  0
LINE
  5
122
330
1F
100
AcDbEntity
  8
1-0
  6
Continuous
 62
     3
370
     9
100
AcDbLine
 10
271.5374920819258
 20
-381.3739817851298
 30
0.0
 11
431.5376487938136
 21
-381.3739817851298
 31
0.0
  0
LINE
  5
123
330
1F
100
AcDbEntity
  8
1-0
  6
Continuous
 62
     3
370
     9
100
AcDbLine
 10
271.5374920819258
 20
-387.6240951950485
 30
0.0
 11
431.5376487938136
 21
-387.6240951950485
 31
0.0
  0
LINE
  5
124
330
1F
100
AcDbEntity
  8
1-0
  6
Continuous
 62
     3
370
     9
100
AcDbLine
 10
314.0377560177365
 20
-377.8738217740445
 30
0.0
 11
321.5377807617188
 21
-380.6239298227671
 31
0.0
  0
LINE
  5
125
330
1F
100
AcDbEntity
  8
1-0
  6
Continuous
 62
     3
370
     9
100
AcDbLine
 10
389.0377560177365
 20
-377.8738217740445
 30
0.0
 11
381.5379787135768
 21
-380.6239298227671
 31
0.0
  0
LINE
  5
126
330
1F
100
AcDbEntity
  8
1-0
  6
Continuous
 62
     3
370
     9
100
AcDbLine
 10
321.5377807617188
 20
-380.6239298227671
 30
0.0
 11
321.5377807617188
 21
-381.3739817851298
 31
0.0
  0
LINE
  5
127
330
1F
100
AcDbEntity
  8
1-0
  6
Continuous
 62
     3
370
     9
100
AcDbLine
 10
381.5379787135768
 20
-380.6239298227671
 30
0.0
 11
381.5379787135768
 21
-381.3739817851298
 31
0.0
  0
LINE
  5
128
330
1F
100
AcDbEntity
  8
1-0
  6
Continuous
 62
     3
370
     9
100
AcDbLine
 10
311.5376240498313
 20
-405.1239673511402
 30
0.0
 11
311.5376240498313
 21
-387.6240951950485
 31
0.0
  0
LINE
  5
129
330
1F
100
AcDbEntity
  8
1-0
  6
Continuous
 62
     3
370
     9
100
AcDbLine
 10
389.0377560177365
 20
-407.6238209492451
 30
0.0
 11
314.0377560177365
 21
-407.6238209492451
 31
0.0
  0
LINE
  5
12A
330
1F
100
AcDbEntity
  8
1-0
  6
Continuous
 62
     3
370
     9
100
AcDbLine
 10
391.5376405458193
 20
-405.1239673511402
 30
0.0
 11
391.5376405458193
 21
-387.6240951950485
 31
0.0
  0
LINE
  5
12B
330
1F
100
AcDbEntity
  8
1-0
  6
Continuous
 62
     3
370
     9
100
AcDbLine
 10
271.5374920819258
 20
-381.3739817851298
 30
0.0
 11
271.5374920819258
 21
-392.6240189011032
 31
0.0
  0
LINE
  5
12C
330
1F
100
AcDbEntity
  8
1-0
  6
Continuous
 62
     3
370
     9
100
AcDbLine
 10
431.5376487938136
 20
-381.3739817851298
 30
0.0
 11
431.5376487938136
 21
-392.6240189011032
 31
0.0
  0
LINE
  5
12D
330
1F
100
AcDbEntity
  8
1-0
  6
Continuous
 62
     3
370
     9
100
AcDbLine
 10
271.5374920819258
 20
-392.6240189011032
 30
0.0
 11
310.9125910578547
 21
-392.6240189011032
 31
0.0
  0
LINE
  5
12E
330
1F
100
AcDbEntity
  8
1-0
  6
Continuous
 62
     3
370
     9
100
AcDbLine
 10
392.1626735377956
 20
-392.6240189011032
 30
0.0
 11
431.5376487938136
 21
-392.6240189011032
 31
0.0
  0
LINE
  5
12F
330
1F
100
AcDbEntity
  8
1-0
  6
Continuous
 62
     3
370
     9
100
AcDbLine
 10
392.1626735377956
 20
-387.6240951950485
 30
0.0
 11
392.1626735377956
 21
-392.6240189011032
 31
0.0
  0
LINE
  5
130
330
1F
100
AcDbEntity
  8
1-0
  6
Continuous
 62
     3
370
     9
100
AcDbLine
 10
310.9125910578547
 20
-387.6240951950485
 30
0.0
 11
310.9125910578547
 21
-392.6240189011032
 31
0.0
  0
LINE
  5
131
330
1F
100
AcDbEntity
  8
1-0
  6
Continuous
 62
     3
370
     9
100
AcDbLine
 10
314.0377560177365
 20
-344.8738551784206
 30
0.0
 11
314.0377560177365
 21
-377.8738217740445
 31
0.0
  0
LINE
  5
132
330
1F
100
AcDbEntity
  8
1-0
  6
Continuous
 62
     3
370
     9
100
AcDbLine
 10
389.0377560177365
 20
-344.9144043793549
 30
0.0
 11
389.0377560177365
 21
-377.8738217740445
 31
0.0
  0
LINE
  5
133
330
1F
100
AcDbEntity
  8
1-0
  6
JWW_PHANTOM1
 62
     3
370
     9
100
AcDbLine
 10
271.7877774625211
 20
-207.6238106392526
 30
0.0
 11
431.2876108530406
 21
-207.6238106392526
 31
0.0
  0
LINE
  5
134
330
1F
100
AcDbEntity
  8
1-0
  6
JWW_PHANTOM1
 62
     3
370
     9
100
AcDbLine
 10
271.7877774625211
 20
-218.8738477552259
 30
0.0
 11
431.2876108530406
 21
-218.8738477552259
 31
0.0
  0
LINE
  5
135
330
1F
100
AcDbEntity
  8
1-0
  6
JWW_PHANTOM1
 62
     3
370
     9
100
AcDbLine
 10
271.7877774625211
 20
-207.6238106392526
 30
0.0
 11
271.7877774625211
 21
-218.8738477552259
 31
0.0
  0
LINE
  5
136
330
1F
100
AcDbEntity
  8
1-0
  6
JWW_PHANTOM1
 62
     3
370
     9
100
AcDbLine
 10
431.2876108530406
 20
-207.6238106392526
 30
0.0
 11
431.2876108530406
 21
-218.8738477552259
 31
0.0
  0
LINE
  5
137
330
1F
100
AcDbEntity
  8
1-0
  6
JWW_PHANTOM1
 62
     3
370
     9
100
AcDbLine
 10
428.2876504434122
 20
-218.8738477552259
 30
0.0
 11
428.2876504434122
 21
-225.1238683752111
 31
0.0
  0
LINE
  5
138
330
1F
100
AcDbEntity
  8
1-0
  6
JWW_PHANTOM1
 62
     3
370
     9
100
AcDbLine
 10
274.7877378721495
 20
-218.8738477552259
 30
0.0
 11
274.7877378721495
 21
-225.1238683752111
 31
0.0
  0
LINE
  5
139
330
1F
100
AcDbEntity
  8
1-0
  6
JWW_PHANTOM1
 62
     3
370
     9
100
AcDbLine
 10
319.0377725137247
 20
-225.1238683752111
 30
0.0
 11
274.7877378721495
 21
-225.1238683752111
 31
0.0
  0
LINE
  5
13A
330
1F
100
AcDbEntity
  8
1-0
  6
JWW_PHANTOM1
 62
     3
370
     9
100
AcDbLine
 10
384.0374920819258
 20
-225.1238683752111
 30
0.0
 11
428.2876504434122
 21
-225.1238683752111
 31
0.0
  0
LINE
  5
13B
330
1F
100
AcDbEntity
  8
1-0
  6
JWW_PHANTOM1
 62
     3
370
     9
100
AcDbLine
 10
314.0377560177365
 20
-268.6238201244457
 30
0.0
 11
314.0377560177365
 21
-282.6238106392526
 31
0.0
  0
LINE
  5
13C
330
1F
100
AcDbEntity
  8
1-0
  6
JWW_PHANTOM1
 62
     3
370
     9
100
AcDbLine
 10
326.537797257707
 20
-250.1237962052628
 30
0.0
 11
326.537797257707
 21
-232.6238621892156
 31
0.0
  0
LINE
  5
13D
330
1F
100
AcDbEntity
  8
1-0
  6
JWW_PHANTOM1
 62
     3
370
     9
100
AcDbLine
 10
376.5379622175888
 20
-250.1237962052628
 30
0.0
 11
376.5379622175888
 21
-232.6238621892156
 31
0.0
  0
LINE
  5
13E
330
1F
100
AcDbEntity
  8
1-0
  6
JWW_PHANTOM1
 62
     3
370
     9
100
AcDbLine
 10
389.0377560177365
 20
-268.6642765354466
 30
0.0
 11
389.0377560177365
 21
-282.6238106392526
 31
0.0
  0
LINE
  5
13F
330
1F
100
AcDbEntity
  8
1-0
  6
JWW_PHANTOM1
 62
     3
370
     9
100
AcDbLine
 10
325.0378170528927
 20
-211.3738848711993
 30
0.0
 11
378.0376949825802
 21
-211.3738848711993
 31
0.0
  0
LINE
  5
140
330
1F
100
AcDbEntity
  8
1-0
  6
JWW_PHANTOM1
 62
     3
370
     9
100
AcDbLine
 10
325.0378170528927
 20
-211.3738848711993
 30
0.0
 11
325.0378170528927
 21
-218.8738477552259
 31
0.0
  0
LINE
  5
141
330
1F
100
AcDbEntity
  8
1-0
  6
JWW_PHANTOM1
 62
     3
370
     9
100
AcDbLine
 10
378.0376949825802
 20
-211.3738848711993
 30
0.0
 11
378.0376949825802
 21
-218.8738477552259
 31
0.0
  0
LINE
  5
142
330
1F
100
AcDbEntity
  8
1-0
  6
Continuous
 62
     3
370
     9
100
AcDbLine
 10
237.7874425939612
 20
-290.1236807333456
 30
0.0
 11
237.7874425939612
 21
-320.1237797092747
 31
0.0
  0
LINE
  5
143
330
1F
100
AcDbEntity
  8
1-0
  6
Continuous
 62
     3
370
     9
100
AcDbLine
 10
465.2879457216005
 20
-290.1236807333456
 30
0.0
 11
465.2879457216005
 21
-320.1237797092747
 31
0.0
  0
LINE
  5
144
330
1F
100
AcDbEntity
  8
1-0
  6
JWW_DASHED3
 62
     3
370
     9
100
AcDbLine
 10
460.2876817857899
 20
-290.1236807333456
 30
0.0
 11
460.2876817857899
 21
-320.1237797092747
 31
0.0
  0
LINE
  5
145
330
1F
100
AcDbEntity
  8
1-0
  6
JWW_DASHED3
 62
     3
370
     9
100
AcDbLine
 10
242.7877065297722
 20
-290.1236807333456
 30
0.0
 11
242.7877065297722
 21
-320.1237797092747
 31
0.0
  0
LINE
  5
146
330
1F
100
AcDbEntity
  8
1-0
  6
Continuous
 62
     3
370
     9
100
AcDbLine
 10
465.2879457216005
 20
-320.1237797092747
 30
0.0
 11
237.7874425939612
 21
-320.1237797092747
 31
0.0
  0
LINE
  5
147
330
1F
100
AcDbEntity
  8
1-0
  6
Continuous
 62
     3
370
     9
100
AcDbLine
 10
326.5375498178844
 20
-326.3739859091269
 30
0.0
 11
326.5375498178844
 21
-320.1237797092747
 31
0.0
  0
LINE
  5
148
330
1F
100
AcDbEntity
  8
1-0
  6
Continuous
 62
     3
370
     9
100
AcDbLine
 10
376.5377147777662
 20
-326.3739859091269
 30
0.0
 11
376.5377147777662
 21
-320.1237797092747
 31
0.0
  0
LINE
  5
149
330
1F
100
AcDbEntity
  8
1-0
  6
JWW_DASHED3
 62
     3
370
     9
100
AcDbLine
 10
376.5377147777662
 20
-320.1237797092747
 30
0.0
 11
376.5377147777662
 21
-307.6238931191933
 31
0.0
  0
LINE
  5
14A
330
1F
100
AcDbEntity
  8
1-0
  6
JWW_DASHED3
 62
     3
370
     9
100
AcDbLine
 10
326.5375498178844
 20
-320.1237797092747
 30
0.0
 11
326.5375498178844
 21
-307.6238931191933
 31
0.0
  0
LINE
  5
14B
330
1F
100
AcDbEntity
  8
1-0
  6
Continuous
 62
     7
370
     9
100
AcDbLine
 10
483.830096270587
 20
-492.4635438661318
 30
0.0
 11
227.39162960568
 21
-492.4635438661318
 31
0.0
  0
LINE
  5
14C
330
1F
100
AcDbEntity
  8
1-4
  6
Continuous
 62
     7
370
     9
100
AcDbLine
 10
452.1167239627323
 20
244.1803349675359
 30
0.0
 11
457.6821404534419
 21
247.3935885042758
 31
0.0
  0
LINE
  5
14D
330
1F
100
AcDbEntity
  8
1-4
  6
Continuous
 62
     7
370
     9
100
AcDbLine
 10
451.536106418919
 20
246.345309695682
 30
0.0
 11
458.4744427655195
 21
250.3511129843223
 31
0.0
  0
LINE
  5
14E
330
1F
100
AcDbEntity
  8
1-4
  6
Continuous
 62
     7
370
     9
100
AcDbLine
 10
450.9562311945734
 20
248.5104081437395
 30
0.0
 11
459.2673636771539
 21
253.3086374643688
 31
0.0
  0
LINE
  5
14F
330
1F
100
AcDbEntity
  8
1-4
  6
Continuous
 62
     7
370
     9
100
AcDbLine
 10
450.3762322503169
 20
250.6755065917969
 30
0.0
 11
460.05954226932
 21
256.2661619444151
 31
0.0
  0
LINE
  5
150
330
1F
100
AcDbEntity
  8
1-4
  6
Continuous
 62
     7
370
     9
100
AcDbLine
 10
449.7961095861487
 20
252.8404813199431
 30
0.0
 11
460.8518445813979
 21
259.2236864244616
 31
0.0
  0
LINE
  5
151
330
1F
100
AcDbEntity
  8
1-4
  6
Continuous
 62
     7
370
     9
100
AcDbLine
 10
449.2157394821581
 20
255.0055797680005
 30
0.0
 11
460.8439265070734
 21
261.7189933158256
 31
0.0
  0
LINE
  5
152
330
1F
100
AcDbEntity
  8
1-4
  6
Continuous
 62
     7
370
     9
100
AcDbLine
 10
448.6357405379013
 20
257.1706782160579
 30
0.0
 11
460.8439265070734
 21
264.2189397038641
 31
0.0
  0
LINE
  5
153
330
1F
100
AcDbEntity
  8
1-4
  6
Continuous
 62
     7
370
     9
100
AcDbLine
 10
448.0938473263302
 20
271.857716328389
 30
0.0
 11
460.8439265070734
 21
279.2190510517843
 31
0.0
  0
LINE
  5
154
330
1F
100
AcDbEntity
  8
1-4
  6
Continuous
 62
     7
370
     9
100
AcDbLine
 10
448.0938473263302
 20
269.3578318003063
 30
0.0
 11
460.8439265070734
 21
276.7189190838789
 31
0.0
  0
LINE
  5
155
330
1F
100
AcDbEntity
  8
1-4
  6
Continuous
 62
     7
370
     9
100
AcDbLine
 10
448.0938473263302
 20
266.8577616923565
 30
0.0
 11
460.8439265070734
 21
274.2189726958404
 31
0.0
  0
LINE
  5
156
330
1F
100
AcDbEntity
  8
1-4
  6
Continuous
 62
     7
370
     9
100
AcDbLine
 10
448.0938473263302
 20
264.3578153043181
 30
0.0
 11
460.8439265070734
 21
271.719026307802
 31
0.0
  0
LINE
  5
157
330
1F
100
AcDbEntity
  8
1-4
  6
Continuous
 62
     7
370
     9
100
AcDbLine
 10
448.0938473263302
 20
261.8577451963683
 30
0.0
 11
460.8439265070734
 21
269.2189561998522
 31
0.0
  0
LINE
  5
158
330
1F
100
AcDbEntity
  8
1-4
  6
Continuous
 62
     7
370
     9
100
AcDbLine
 10
448.0938473263302
 20
259.3577988083298
 30
0.0
 11
460.8439265070734
 21
266.7190098118138
 31
0.0
  0
LINE
  5
159
330
1F
100
AcDbEntity
  8
1-4
  6
Continuous
 62
     7
370
     9
100
AcDbLine
 10
454.4688869167018
 20
240.2308860985009
 30
0.0
 11
449.3437895903716
 21
259.3577988083298
 31
0.0
  0
LINE
  5
15A
330
1F
100
AcDbEntity
  8
1-4
  6
Continuous
 62
     7
370
     9
100
AcDbLine
 10
454.4688869167018
 20
240.2308860985009
 30
0.0
 11
459.5937368032097
 21
259.3577988083298
 31
0.0
  0
LINE
  5
15B
330
1F
100
AcDbEntity
  8
1-4
  6
JWW_CENTER2
 62
     7
370
     9
100
AcDbLine
 10
454.4688869167018
 20
235.9099063357792
 30
0.0
 11
454.4688869167018
 21
311.7988957585516
 31
0.0
  0
LINE
  5
15C
330
1F
100
AcDbEntity
  8
1-4
  6
Continuous
 62
     7
370
     9
100
AcDbLine
 10
449.3437895903716
 20
259.3577988083298
 30
0.0
 11
449.3437895903716
 21
298.9810180664062
 31
0.0
  0
LINE
  5
15D
330
1F
100
AcDbEntity
  8
1-4
  6
Continuous
 62
     7
370
     9
100
AcDbLine
 10
459.5937368032097
 20
259.3577988083298
 30
0.0
 11
459.5937368032097
 21
298.9810180664062
 31
0.0
  0
LINE
  5
15E
330
1F
100
AcDbEntity
  8
1-4
  6
Continuous
 62
     7
370
     9
100
AcDbLine
 10
384.6448331265836
 20
286.4809768264358
 30
0.0
 11
384.6448331265836
 21
391.481075802365
 31
0.0
  0
LINE
  5
15F
330
1F
100
AcDbEntity
  8
1-4
  6
Continuous
 62
     7
370
     9
100
AcDbLine
 10
417.2296884897594
 20
286.4809768264358
 30
0.0
 11
383.1448529217695
 21
286.4809768264358
 31
0.0
  0
LINE
  5
160
330
1F
100
AcDbEntity
  8
1-4
  6
Continuous
 62
     7
370
     9
100
AcDbLine
 10
177.7667071368244
 20
459.5163871146538
 30
0.0
 11
516.9692168364654
 21
459.5163871146538
 31
0.0
  0
LINE
  5
161
330
1F
100
AcDbEntity
  8
1-4
  6
Continuous
 62
     7
370
     9
100
AcDbLine
 10
484.4688621727198
 20
397.7029501425254
 30
0.0
 11
484.4688621727198
 21
461.016367319468
 31
0.0
  0
LINE
  5
162
330
1F
100
AcDbEntity
  8
1-4
  6
Continuous
 62
     7
370
     9
100
AcDbLine
 10
486.9691178605365
 20
397.7029501425254
 30
0.0
 11
486.9691178605365
 21
461.016367319468
 31
0.0
  0
LINE
  5
163
330
1F
100
AcDbEntity
  8
1-4
  6
Continuous
 62
     7
370
     9
100
AcDbLine
 10
516.9692168364654
 20
397.7029501425254
 30
0.0
 11
516.9692168364654
 21
496.4790715398016
 31
0.0
  0
LINE
  5
164
330
1F
100
AcDbEntity
  8
1-4
  6
Continuous
 62
     7
370
     9
100
AcDbLine
 10
177.7667071368244
 20
494.9790913349874
 30
0.0
 11
516.9692168364654
 21
494.9790913349874
 31
0.0
  0
LINE
  5
165
330
1F
100
AcDbEntity
  8
1-4
  6
Continuous
 62
     7
370
     9
100
AcDbLine
 10
177.7667071368244
 20
195.9947080869932
 30
0.0
 11
504.4685569969386
 21
195.9947080869932
 31
0.0
  0
LINE
  5
166
330
1F
100
AcDbEntity
  8
1-4
  6
Continuous
 62
     7
370
     9
100
AcDbLine
 10
421.9687796927789
 20
195.9947080869932
 30
0.0
 11
421.9687796927789
 21
194.4947278821792
 31
0.0
  0
LINE
  5
167
330
1F
100
AcDbEntity
  8
1-4
  6
Continuous
 62
     7
370
     9
100
AcDbLine
 10
595.912417849979
 20
286.4809768264358
 30
0.0
 11
595.912417849979
 21
412.8795479439401
 31
0.0
  0
LINE
  5
168
330
1F
100
AcDbEntity
  8
1-4
  6
Continuous
 62
     7
370
     9
100
AcDbLine
 10
508.4013655379013
 20
286.4809768264358
 30
0.0
 11
597.4128929344386
 21
286.4809768264358
 31
0.0
  0
LINE
  5
169
330
1F
100
AcDbEntity
  8
1-4
  6
Continuous
 62
     7
370
     9
100
AcDbLine
 10
523.9078006228885
 20
391.481075802365
 30
0.0
 11
597.4128929344386
 21
391.481075802365
 31
0.0
  0
LINE
  5
16A
330
1F
100
AcDbEntity
  8
1-4
  6
Continuous
 62
     7
370
     9
100
AcDbLine
 10
478.0459429766682
 20
391.481075802365
 30
0.0
 11
383.1448529217695
 21
391.481075802365
 31
0.0
  0
LINE
  5
16B
330
1F
100
AcDbEntity
  8
1-6
  6
Continuous
 62
     6
370
     5
100
AcDbLine
 10
509.4689446526607
 20
236.4811211663324
 30
0.0
 11
584.1444273252745
 21
311.1562945391681
 31
0.0
  0
LINE
  5
16C
330
1F
100
AcDbEntity
  8
1-6
  6
Continuous
 62
     6
370
     5
100
AcDbLine
 10
606.9093858873523
 20
333.9215005410685
 30
0.0
 11
621.9689446526606
 21
348.9810593063767
 31
0.0
  0
LINE
  5
16D
330
1F
100
AcDbEntity
  8
1-4
  6
Continuous
 62
     7
370
     9
100
AcDbLine
 10
150.9328481313345
 20
304.5031325881546
 30
0.0
 11
150.9328481313345
 21
386.4809355864654
 31
0.0
  0
LINE
  5
16E
330
1F
100
AcDbEntity
  8
1-4
  6
Continuous
 62
     7
370
     9
100
AcDbLine
 10
172.917381492821
 20
340.9809586808489
 30
0.0
 11
149.4328679265203
 21
340.9809586808489
 31
0.0
  0
LINE
  5
16F
330
1F
100
AcDbEntity
  8
1-4
  6
Continuous
 62
     7
370
     9
100
AcDbLine
 10
172.917381492821
 20
348.9810593063767
 30
0.0
 11
149.4328679265203
 21
348.9810593063767
 31
0.0
  0
LINE
  5
170
330
1F
100
AcDbEntity
  8
1-4
  6
Continuous
 62
     7
370
     9
100
AcDbLine
 10
172.917381492821
 20
386.4809355864654
 30
0.0
 11
149.4328679265203
 21
386.4809355864654
 31
0.0
  0
LINE
  5
171
330
1F
100
AcDbEntity
  8
1-4
  6
Continuous
 62
     7
370
     9
100
AcDbLine
 10
526.444553684544
 20
-320.1237797092747
 30
0.0
 11
526.444553684544
 21
-282.6238106392526
 31
0.0
  0
LINE
  5
172
330
1F
100
AcDbEntity
  8
1-4
  6
Continuous
 62
     7
370
     9
100
AcDbLine
 10
478.9541708456505
 20
-320.1237797092747
 30
0.0
 11
527.9446576092696
 21
-320.1237797092747
 31
0.0
  0
LINE
  5
173
330
1F
100
AcDbEntity
  8
1-4
  6
Continuous
 62
     7
370
     9
100
AcDbLine
 10
478.9541708456505
 20
-282.6238106392526
 30
0.0
 11
527.9446576092696
 21
-282.6238106392526
 31
0.0
  0
LINE
  5
174
330
1F
100
AcDbEntity
  8
1-6
  6
Continuous
 62
     6
370
     5
100
AcDbLine
 10
454.850315403294
 20
241.6549641377217
 30
0.0
 11
476.7153353304477
 21
219.7900060705237
 31
0.0
  0
LINE
  5
175
330
1F
100
AcDbEntity
  8
1-6
  6
Continuous
 62
     6
370
     5
100
AcDbLine
 10
421.9691508525128
 20
249.5364173682961
 30
0.0
 11
451.7155002903294
 21
219.7900060705237
 31
0.0
  0
LINE
  5
176
330
1F
100
AcDbEntity
  8
1-6
  6
Continuous
 62
     6
370
     5
100
AcDbLine
 10
421.9691508525128
 20
224.5363967483108
 30
0.0
 11
443.8954121357688
 21
202.610135465055
 31
0.0
  0
LINE
  5
177
330
1F
100
AcDbEntity
  8
1-6
  6
Continuous
 62
     6
370
     5
100
AcDbLine
 10
452.7616758604307
 20
193.7438717403928
 30
0.0
 11
485.0244882944469
 21
161.4809974464211
 31
0.0
  0
LINE
  5
178
330
1F
100
AcDbEntity
  8
1-1
  6
Continuous
 62
     2
370
     9
100
AcDbLine
 10
499.4691591005068
 20
336.4810180664062
 30
0.0
 11
499.4691591005068
 21
331.4810015704181
 31
0.0
  0
LINE
  5
179
330
1F
100
AcDbEntity
  8
1-6
  6
Continuous
 62
     6
370
     5
100
AcDbLine
 10
485.0244882944469
 20
286.4809768264358
 30
0.0
 11
509.4689446526607
 21
262.0363967483108
 31
0.0
  0
LINE
  5
17A
330
1F
100
AcDbEntity
  8
1-6
  6
Continuous
 62
     6
370
     5
100
AcDbLine
 10
460.0242820945948
 20
286.4809768264358
 30
0.0
 11
509.4689446526607
 21
237.0364379882812
 31
0.0
  0
LINE
  5
17B
330
1F
100
AcDbEntity
  8
1-6
  6
Continuous
 62
     6
370
     5
100
AcDbLine
 10
459.5937368032097
 20
261.9115014978358
 30
0.0
 11
509.4689446526607
 21
212.0364173682961
 31
0.0
  0
LINE
  5
17C
330
1F
100
AcDbEntity
  8
1-6
  6
Continuous
 62
     6
370
     5
100
AcDbLine
 10
479.7088623046875
 20
216.7965409562395
 30
0.0
 11
509.4689446526607
 21
187.0365823281779
 31
0.0
  0
LINE
  5
17D
330
1F
100
AcDbEntity
  8
1-6
  6
Continuous
 62
     6
370
     5
100
AcDbLine
 10
477.7616346204604
 20
193.7438717403928
 30
0.0
 11
509.4689446526607
 21
162.036499848237
 31
0.0
  0
LINE
  5
17E
330
1F
100
AcDbEntity
  8
1-6
  6
Continuous
 62
     6
370
     5
100
AcDbLine
 10
509.4689446526607
 20
161.4809974464211
 30
0.0
 11
509.4689446526607
 21
386.4809355864654
 31
0.0
  0
LINE
  5
17F
330
1F
100
AcDbEntity
  8
1-6
  6
Continuous
 62
     6
370
     5
100
AcDbLine
 10
509.4689446526607
 20
348.9810593063767
 30
0.0
 11
707.5145824535474
 21
348.9810593063767
 31
0.0
  0
LINE
  5
180
330
1F
100
AcDbEntity
  8
1-6
  6
Continuous
 62
     6
370
     5
100
AcDbLine
 10
509.4689446526607
 20
355.2310180664062
 30
0.0
 11
707.5145824535474
 21
355.2310180664062
 31
0.0
  0
LINE
  5
181
330
1F
100
AcDbEntity
  8
1-6
  6
Continuous
 62
     6
370
     5
100
AcDbLine
 10
509.4689446526607
 20
361.4809768264358
 30
0.0
 11
707.5145824535474
 21
361.4809768264358
 31
0.0
  0
LINE
  5
182
330
1F
100
AcDbEntity
  8
1-6
  6
Continuous
 62
     6
370
     5
100
AcDbLine
 10
509.4689446526607
 20
367.7309355864654
 30
0.0
 11
707.5145824535474
 21
367.7309355864654
 31
0.0
  0
LINE
  5
183
330
1F
100
AcDbEntity
  8
1-6
  6
Continuous
 62
     6
370
     5
100
AcDbLine
 10
509.4689446526607
 20
373.9810180664062
 30
0.0
 11
707.5145824535474
 21
373.9810180664062
 31
0.0
  0
LINE
  5
184
330
1F
100
AcDbEntity
  8
1-6
  6
Continuous
 62
     6
370
     5
100
AcDbLine
 10
509.4689446526607
 20
380.2309768264358
 30
0.0
 11
707.5145824535474
 21
380.2309768264358
 31
0.0
  0
LINE
  5
185
330
1F
100
AcDbEntity
  8
1-6
  6
Continuous
 62
     6
370
     5
100
AcDbLine
 10
509.4689446526607
 20
386.4809355864654
 30
0.0
 11
707.5145824535474
 21
386.4809355864654
 31
0.0
  0
LINE
  5
186
330
1F
100
AcDbEntity
  8
1-4
  6
Continuous
 62
     7
370
     9
100
AcDbLine
 10
504.4685569969386
 20
281.1894762193834
 30
0.0
 11
504.4685569969386
 21
194.4947278821792
 31
0.0
  0
LINE
  5
187
330
1F
100
AcDbEntity
  8
1-6
  6
Continuous
 62
     6
370
     5
100
AcDbLine
 10
504.4689281566724
 20
286.4809768264358
 30
0.0
 11
509.4689446526607
 21
286.4809768264358
 31
0.0
  0
ARC
  5
188
330
1F
100
AcDbEntity
  8
0-2
  6
Continuous
 62
     3
370
     9
100
AcDbCircle
 10
-525.3917590991871
 20
49.82433422191733
 30
0.0
 40
1.999999904954756
100
AcDbArc
 50
180.0
 51
270.0
  0
ARC
  5
189
330
1F
100
AcDbEntity
  8
0-2
  6
Continuous
 62
     3
370
     9
100
AcDbCircle
 10
-494.391817659945
 20
49.82433422191733
 30
0.0
 40
1.999999904954756
100
AcDbArc
 50
270.0
 51
0.0
  0
ARC
  5
18A
330
1F
100
AcDbEntity
  8
0-2
  6
Continuous
 62
     3
370
     9
100
AcDbCircle
 10
-494.391817659945
 20
137.8243894834776
 30
0.0
 40
1.999999904954756
100
AcDbArc
 50
0.0
 51
90.0
  0
ARC
  5
18B
330
1F
100
AcDbEntity
  8
0-2
  6
Continuous
 62
     3
370
     9
100
AcDbCircle
 10
-525.3917590991871
 20
137.8243894834776
 30
0.0
 40
1.999999904954756
100
AcDbArc
 50
90.0
 51
180.0
  0
ARC
  5
18C
330
1F
100
AcDbEntity
  8
0-2
  6
Continuous
 62
     3
370
     9
100
AcDbCircle
 10
-513.7919039339632
 20
63.42430733345651
 30
0.0
 40
2.20000002835248
100
AcDbArc
 50
180.0
 51
270.0
  0
ARC
  5
18D
330
1F
100
AcDbEntity
  8
0-2
  6
Continuous
 62
     3
370
     9
100
AcDbCircle
 10
-513.7919039339632
 20
124.2243545119827
 30
0.0
 40
2.20000002835248
100
AcDbArc
 50
90.0
 51
180.0
  0
ARC
  5
18E
330
1F
100
AcDbEntity
  8
0-2
  6
Continuous
 62
     3
370
     9
100
AcDbCircle
 10
-505.9917965450802
 20
124.2243545119827
 30
0.0
 40
2.20000002835248
100
AcDbArc
 50
0.0
 51
90.0
  0
ARC
  5
18F
330
1F
100
AcDbEntity
  8
0-2
  6
Continuous
 62
     3
370
     9
100
AcDbCircle
 10
-505.9917965450802
 20
63.42430733345651
 30
0.0
 40
2.20000002835248
100
AcDbArc
 50
270.0
 51
0.0
  0
ARC
  5
190
330
1F
100
AcDbEntity
  8
0-2
  6
Continuous
 62
     3
370
     9
100
AcDbCircle
 10
-509.8918811694995
 20
93.82433092271967
 30
0.0
 40
12.49999967781273
100
AcDbArc
 50
299.2091369628906
 51
60.7908630371094
  0
ARC
  5
191
330
1F
100
AcDbEntity
  8
0-2
  6
Continuous
 62
     3
370
     9
100
AcDbCircle
 10
-509.8918811694995
 20
93.82433092271967
 30
0.0
 40
12.49999967781273
100
AcDbArc
 50
119.2092742919922
 51
240.7907257080078
  0
ARC
  5
192
330
1F
100
AcDbEntity
  8
0-2
  6
Continuous
 62
     3
370
     9
100
AcDbCircle
 10
-265.3918292071369
 20
49.82433422191733
 30
0.0
 40
1.999999904954756
100
AcDbArc
 50
180.0
 51
270.0
  0
ARC
  5
193
330
1F
100
AcDbEntity
  8
0-2
  6
Continuous
 62
     3
370
     9
100
AcDbCircle
 10
-234.3917640479835
 20
49.82433422191733
 30
0.0
 40
1.999999904954756
100
AcDbArc
 50
270.0
 51
0.0
  0
ARC
  5
194
330
1F
100
AcDbEntity
  8
0-2
  6
Continuous
 62
     3
370
     9
100
AcDbCircle
 10
-234.3917640479835
 20
137.8243894834776
 30
0.0
 40
1.999999904954756
100
AcDbArc
 50
0.0
 51
90.0
  0
ARC
  5
195
330
1F
100
AcDbEntity
  8
0-2
  6
Continuous
 62
     3
370
     9
100
AcDbCircle
 10
-265.3918292071369
 20
137.8243894834776
 30
0.0
 40
1.999999904954756
100
AcDbArc
 50
90.0
 51
180.0
  0
ARC
  5
196
330
1F
100
AcDbEntity
  8
0-2
  6
Continuous
 62
     3
370
     9
100
AcDbCircle
 10
-253.7919121819573
 20
63.42430733345651
 30
0.0
 40
2.20000002835248
100
AcDbArc
 50
180.0
 51
270.0
  0
ARC
  5
197
330
1F
100
AcDbEntity
  8
0-2
  6
Continuous
 62
     3
370
     9
100
AcDbCircle
 10
-253.7919121819573
 20
124.2243545119827
 30
0.0
 40
2.20000002835248
100
AcDbArc
 50
90.0
 51
180.0
  0
ARC
  5
198
330
1F
100
AcDbEntity
  8
0-2
  6
Continuous
 62
     3
370
     9
100
AcDbCircle
 10
-245.9918666530299
 20
124.2243545119827
 30
0.0
 40
2.20000002835248
100
AcDbArc
 50
0.0
 51
90.0
  0
ARC
  5
199
330
1F
100
AcDbEntity
  8
0-2
  6
Continuous
 62
     3
370
     9
100
AcDbCircle
 10
-245.9918666530299
 20
63.42430733345651
 30
0.0
 40
2.20000002835248
100
AcDbArc
 50
270.0
 51
0.0
  0
ARC
  5
19A
330
1F
100
AcDbEntity
  8
0-2
  6
Continuous
 62
     3
370
     9
100
AcDbCircle
 10
-249.8918894174936
 20
93.82433092271967
 30
0.0
 40
12.49999967781273
100
AcDbArc
 50
299.2091369628906
 51
60.7908630371094
  0
ARC
  5
19B
330
1F
100
AcDbEntity
  8
0-2
  6
Continuous
 62
     3
370
     9
100
AcDbCircle
 10
-249.8918894174936
 20
93.82433092271967
 30
0.0
 40
12.49999967781273
100
AcDbArc
 50
119.2092742919922
 51
240.7907257080078
  0
ARC
  5
19C
330
1F
100
AcDbEntity
  8
1-6
  6
Continuous
 62
     6
370
     5
100
AcDbCircle
 10
454.4688869167018
 20
300.1319844013937
 30
0.0
 40
9.84913916201205
100
AcDbArc
 50
15.30130004882812
 51
164.6986846923828
  0
ARC
  5
19D
330
1F
100
AcDbEntity
  8
1-1
  6
Continuous
 62
     2
370
     9
100
AcDbCircle
 10
476.3439281566724
 20
315.2308860985009
 30
0.0
 40
2.500000032218727
100
AcDbArc
 50
90.0
 51
180.0
  0
ARC
  5
19E
330
1F
100
AcDbEntity
  8
1-1
  6
Continuous
 62
     2
370
     9
100
AcDbCircle
 10
484.4688621727198
 20
315.2308860985009
 30
0.0
 40
2.500000032218727
100
AcDbArc
 50
7.016464233398438
 51
90.0
  0
ARC
  5
19F
330
1F
100
AcDbEntity
  8
1-1
  6
Continuous
 62
     2
370
     9
100
AcDbCircle
 10
484.4688621727198
 20
292.7309974464211
 30
0.0
 40
2.500000032218727
100
AcDbArc
 50
270.0
 51
0.0
  0
ARC
  5
1A0
330
1F
100
AcDbEntity
  8
1-1
  6
Continuous
 62
     2
370
     9
100
AcDbCircle
 10
470.0942168364654
 20
292.7309974464211
 30
0.0
 40
2.500000032218727
100
AcDbArc
 50
180.0
 51
270.0
  0
ARC
  5
1A1
330
1F
100
AcDbEntity
  8
1-1
  6
Continuous
 62
     2
370
     9
100
AcDbCircle
 10
438.8439281566724
 20
292.7309974464211
 30
0.0
 40
2.500000032218727
100
AcDbArc
 50
270.0
 51
0.0
  0
ARC
  5
1A2
330
1F
100
AcDbEntity
  8
1-1
  6
Continuous
 62
     2
370
     9
100
AcDbCircle
 10
428.2188621727198
 20
292.7309974464211
 30
0.0
 40
2.500000032218727
100
AcDbArc
 50
180.0
 51
270.0
  0
ARC
  5
1A3
330
1F
100
AcDbEntity
  8
1-1
  6
Continuous
 62
     2
370
     9
100
AcDbCircle
 10
428.2188621727198
 20
315.2308860985009
 30
0.0
 40
2.500000032218727
100
AcDbArc
 50
90.0
 51
180.0
  0
ARC
  5
1A4
330
1F
100
AcDbEntity
  8
1-1
  6
Continuous
 62
     2
370
     9
100
AcDbCircle
 10
432.5942168364654
 20
315.2308860985009
 30
0.0
 40
2.500000032218727
100
AcDbArc
 50
7.016464233398438
 51
90.0
  0
ARC
  5
1A5
330
1F
100
AcDbEntity
  8
1-1
  6
Continuous
 62
     2
370
     9
100
AcDbCircle
 10
467.5940848685602
 20
305.2309768264358
 30
0.0
 40
2.500000032218727
100
AcDbArc
 50
270.0
 51
0.0
  0
ARC
  5
1A6
330
1F
100
AcDbEntity
  8
1-1
  6
Continuous
 62
     2
370
     9
100
AcDbCircle
 10
441.3438126847552
 20
305.2309768264358
 30
0.0
 40
2.500000032218727
100
AcDbArc
 50
180.0
 51
270.0
  0
ARC
  5
1A7
330
1F
100
AcDbEntity
  8
1-1
  6
Continuous
 62
     2
370
     9
100
AcDbCircle
 10
467.5940848685602
 20
305.2309768264358
 30
0.0
 40
6.250000322187269
100
AcDbArc
 50
270.0
 51
0.0
  0
ARC
  5
1A8
330
1F
100
AcDbEntity
  8
1-1
  6
Continuous
 62
     2
370
     9
100
AcDbCircle
 10
441.3438126847552
 20
305.2309768264358
 30
0.0
 40
6.250000322187269
100
AcDbArc
 50
180.0
 51
270.0
  0
ARC
  5
1A9
330
1F
100
AcDbEntity
  8
1-1
  6
Continuous
 62
     2
370
     9
100
AcDbCircle
 10
454.4690106366133
 20
348.9810593063767
 30
0.0
 40
35.79455581871239
100
AcDbArc
 50
257.9052581787109
 51
282.0947265625
  0
ARC
  5
1AA
330
1F
100
AcDbEntity
  8
1-1
  6
Continuous
 62
     2
370
     9
100
AcDbCircle
 10
454.4690106366133
 20
348.9810593063767
 30
0.0
 40
37.83683519105654
100
AcDbArc
 50
248.690673828125
 51
291.3093109130859
  0
ARC
  5
1AB
330
1F
100
AcDbEntity
  8
1-0
  6
JWW_DASHED3
 62
     3
370
     9
100
AcDbCircle
 10
270.0375118771115
 20
-301.3738106392526
 30
0.0
 40
6.250000322187269
100
AcDbArc
 50
180.0
 51
270.0
  0
ARC
  5
1AC
330
1F
100
AcDbEntity
  8
1-0
  6
JWW_DASHED3
 62
     3
370
     9
100
AcDbCircle
 10
433.0378764384503
 20
-301.3738106392526
 30
0.0
 40
6.250000322187269
100
AcDbArc
 50
270.0
 51
0.0
  0
ARC
  5
1AD
330
1F
100
AcDbEntity
  8
1-0
  6
Continuous
 62
     3
370
     9
100
AcDbCircle
 10
238.7879655167865
 20
-284.8736881565403
 30
0.0
 40
2.249999787356403
100
AcDbArc
 50
90.0
 51
180.0
  0
ARC
  5
1AE
330
1F
100
AcDbEntity
  8
1-0
  6
Continuous
 62
     3
370
     9
100
AcDbCircle
 10
464.2882888381547
 20
-284.8736881565403
 30
0.0
 40
2.249999787356403
100
AcDbArc
 50
0.0
 51
90.0
  0
ARC
  5
1AF
330
1F
100
AcDbEntity
  8
1-0
  6
JWW_DASHED3
 62
     3
370
     9
100
AcDbCircle
 10
443.8356554186024
 20
-291.3737467172983
 30
0.0
 40
1.250000016109364
100
AcDbArc
 50
90.0
 51
163.8992004394532
  0
ARC
  5
1B0
330
1F
100
AcDbEntity
  8
1-0
  6
JWW_DASHED3
 62
     3
370
     9
100
AcDbCircle
 10
259.2392380173143
 20
-291.3737467172983
 30
0.0
 40
1.250000016109364
100
AcDbArc
 50
16.10079956054688
 51
90.0
  0
ARC
  5
1B1
330
1F
100
AcDbEntity
  8
1-0
  6
Continuous
 62
     3
370
     9
100
AcDbCircle
 10
241.5377642657307
 20
-35.12435500686223
 30
0.0
 40
5.000000064437454
100
AcDbArc
 50
90.0
 51
180.0
  0
ARC
  5
1B2
330
1F
100
AcDbEntity
  8
1-0
  6
Continuous
 62
     3
370
     9
100
AcDbCircle
 10
461.5377477697425
 20
-35.12435500686223
 30
0.0
 40
5.000000064437454
100
AcDbArc
 50
0.0
 51
90.0
  0
ARC
  5
1B3
330
1F
100
AcDbEntity
  8
1-0
  6
Continuous
 62
     3
370
     9
100
AcDbCircle
 10
461.5377477697425
 20
-112.624425114812
 30
0.0
 40
5.000000064437454
100
AcDbArc
 50
270.0
 51
0.0
  0
ARC
  5
1B4
330
1F
100
AcDbEntity
  8
1-0
  6
Continuous
 62
     3
370
     9
100
AcDbCircle
 10
241.5377642657307
 20
-112.624425114812
 30
0.0
 40
5.000000064437454
100
AcDbArc
 50
180.0
 51
270.0
  0
ARC
  5
1B5
330
1F
100
AcDbEntity
  8
1-0
  6
Continuous
 62
     3
370
     9
100
AcDbCircle
 10
275.5376042546453
 20
-64.12454965952278
 30
0.0
 40
5.500000554162103
100
AcDbArc
 50
90.0
 51
180.0
  0
ARC
  5
1B6
330
1F
100
AcDbEntity
  8
1-0
  6
Continuous
 62
     3
370
     9
100
AcDbCircle
 10
275.5376042546453
 20
-83.62453976192981
 30
0.0
 40
5.500000554162103
100
AcDbArc
 50
180.0
 51
270.0
  0
ARC
  5
1B7
330
1F
100
AcDbEntity
  8
1-0
  6
Continuous
 62
     3
370
     9
100
AcDbCircle
 10
427.5376603410052
 20
-64.12454965952278
 30
0.0
 40
5.500000554162103
100
AcDbArc
 50
0.0
 51
90.0
  0
ARC
  5
1B8
330
1F
100
AcDbEntity
  8
1-0
  6
Continuous
 62
     3
370
     9
100
AcDbCircle
 10
427.5376603410052
 20
-83.62453976192981
 30
0.0
 40
5.500000554162103
100
AcDbArc
 50
270.0
 51
0.0
  0
ARC
  5
1B9
330
1F
100
AcDbEntity
  8
1-0
  6
Continuous
 62
     3
370
     9
100
AcDbCircle
 10
314.0377560177365
 20
-405.1239673511402
 30
0.0
 40
2.500000032218727
100
AcDbArc
 50
180.0
 51
270.0
  0
ARC
  5
1BA
330
1F
100
AcDbEntity
  8
1-0
  6
Continuous
 62
     3
370
     9
100
AcDbCircle
 10
389.0377560177365
 20
-405.1239673511402
 30
0.0
 40
2.500000032218727
100
AcDbArc
 50
270.0
 51
0.0
  0
ARC
  5
1BB
330
1F
100
AcDbEntity
  8
1-0
  6
Continuous
 62
     3
370
     9
100
AcDbCircle
 10
319.0377725137247
 20
-326.3739859091269
 30
0.0
 40
7.500000096656181
100
AcDbArc
 50
292.0240478515625
 51
0.0000000000000382
  0
ARC
  5
1BC
330
1F
100
AcDbEntity
  8
1-0
  6
Continuous
 62
     3
370
     9
100
AcDbCircle
 10
326.537797257707
 20
-344.9144043793549
 30
0.0
 40
12.50000064437454
100
AcDbArc
 50
112.0243377685547
 51
180.0
  0
ARC
  5
1BD
330
1F
100
AcDbEntity
  8
1-0
  6
Continuous
 62
     3
370
     9
100
AcDbCircle
 10
376.5377147777662
 20
-344.9144043793549
 30
0.0
 40
12.50000064437454
100
AcDbArc
 50
0.0
 51
67.9756622314453
  0
ARC
  5
1BE
330
1F
100
AcDbEntity
  8
1-0
  6
Continuous
 62
     3
370
     9
100
AcDbCircle
 10
384.0374920819258
 20
-326.3739859091269
 30
0.0
 40
7.500000096656181
100
AcDbArc
 50
180.0
 51
247.9759521484375
  0
ARC
  5
1BF
330
1F
100
AcDbEntity
  8
1-0
  6
Continuous
 62
     3
370
     9
100
AcDbCircle
 10
351.5377560177365
 20
-73.87435913085938
 30
0.0
 40
32.50000283524797
100
AcDbArc
 50
207.9842987060547
 51
332.0157012939453
  0
ARC
  5
1C0
330
1F
100
AcDbEntity
  8
1-0
  6
Continuous
 62
     3
370
     9
100
AcDbCircle
 10
351.5377560177365
 20
-73.87435913085938
 30
0.0
 40
32.50000283524797
100
AcDbArc
 50
27.98429870605469
 51
152.0157012939453
  0
ARC
  5
1C1
330
1F
100
AcDbEntity
  8
1-0
  6
JWW_PHANTOM1
 62
     3
370
     9
100
AcDbCircle
 10
319.0377725137247
 20
-232.6238621892156
 30
0.0
 40
7.500000096656181
100
AcDbArc
 50
0.0
 51
90.0
  0
ARC
  5
1C2
330
1F
100
AcDbEntity
  8
1-0
  6
JWW_PHANTOM1
 62
     3
370
     9
100
AcDbCircle
 10
384.0374920819258
 20
-232.6238621892156
 30
0.0
 40
7.500000096656181
100
AcDbArc
 50
90.0
 51
180.0
  0
ARC
  5
1C3
330
1F
100
AcDbEntity
  8
1-0
  6
JWW_PHANTOM1
 62
     3
370
     9
100
AcDbCircle
 10
384.0374920819258
 20
-250.1237962052628
 30
0.0
 40
7.500000096656181
100
AcDbArc
 50
180.0
 51
247.9759521484375
  0
ARC
  5
1C4
330
1F
100
AcDbEntity
  8
1-0
  6
JWW_PHANTOM1
 62
     3
370
     9
100
AcDbCircle
 10
376.5379622175888
 20
-268.6642765354466
 30
0.0
 40
12.50000064437454
100
AcDbArc
 50
0.0
 51
67.97628784179688
  0
ARC
  5
1C5
330
1F
100
AcDbEntity
  8
1-0
  6
JWW_PHANTOM1
 62
     3
370
     9
100
AcDbCircle
 10
319.0377725137247
 20
-250.1237962052628
 30
0.0
 40
7.500000096656181
100
AcDbArc
 50
292.0240478515625
 51
0.0000000000000382
  0
ARC
  5
1C6
330
1F
100
AcDbEntity
  8
1-0
  6
JWW_PHANTOM1
 62
     3
370
     9
100
AcDbCircle
 10
326.5375498178844
 20
-268.6642765354466
 30
0.0
 40
12.50000064437454
100
AcDbArc
 50
112.0237121582031
 51
180.0
  0
ARC
  5
1C7
330
1F
100
AcDbEntity
  8
1-4
  6
Continuous
 62
     7
370
     9
100
AcDbCircle
 10
454.4688869167018
 20
300.1319844013937
 30
0.0
 40
9.84913916201205
100
AcDbArc
 50
15.30130004882812
 51
164.6986846923828
  0
TEXT
  5
1C8
330
1F
100
AcDbEntity
  8
0-4
  6
Continuous
 62
     2
370
     9
100
AcDbText
 10
-396.1418852934966
 20
374.0293208931589
 30
0.0
 40
15.24
  1
400
 41
1.083333333333333
  7
ＭＳ ゴシック
100
AcDbText
  0
TEXT
  5
1C9
330
1F
100
AcDbEntity
  8
0-4
  6
Continuous
 62
     2
370
     9
100
AcDbText
 10
-396.1418852934966
 20
406.712162426098
 30
0.0
 40
15.24
  1
450
 41
1.083333333333333
  7
ＭＳ ゴシック
100
AcDbText
  0
TEXT
  5
1CA
330
1F
100
AcDbEntity
  8
0-4
  6
Continuous
 62
     2
370
     9
100
AcDbText
 10
-396.1418852934966
 20
434.2960115339951
 30
0.0
 40
15.24
  1
476
 41
1.083333333333333
  7
ＭＳ ゴシック
100
AcDbText
  0
TEXT
  5
1CB
330
1F
100
AcDbEntity
  8
0-4
  6
Continuous
 62
     2
370
     9
100
AcDbText
 10
-660.0967515440245
 20
77.57439278267533
 30
0.0
 40
15.24
  1
400
 50
90.0
 41
1.083333333333333
  7
ＭＳ ゴシック
100
AcDbText
  0
TEXT
  5
1CC
330
1F
100
AcDbEntity
  8
0-4
  6
Continuous
 62
     2
370
     9
100
AcDbText
 10
-692.7795930769637
 20
77.57439278267533
 30
0.0
 40
15.24
  1
450
 50
90.0
 41
1.083333333333333
  7
ＭＳ ゴシック
100
AcDbText
  0
TEXT
  5
1CD
330
1F
100
AcDbEntity
  8
0-4
  6
Continuous
 62
     2
370
     9
100
AcDbText
 10
-720.3635968347497
 20
77.57439278267533
 30
0.0
 40
15.24
  1
476
 50
90.0
 41
1.083333333333333
  7
ＭＳ ゴシック
100
AcDbText
  0
TEXT
  5
1CE
330
1F
100
AcDbEntity
  8
0-4
  6
Continuous
 62
     2
370
     9
100
AcDbText
 10
-484.3523901862067
 20
-226.3143420905036
 30
0.0
 40
15.24
  1
平面図　Ｓ＝１：５
 41
1.111111111111111
  7
ＭＳ ゴシック
100
AcDbText
  0
TEXT
  5
1CF
330
1F
100
AcDbEntity
  8
1-4
  6
Continuous
 62
     2
370
     9
100
AcDbText
 10
261.6612119932433
 20
112.4372394623628
 30
0.0
 40
15.24
  1
断面詳細図　Ｓ＝１：２
 41
1.113636363636364
  7
ＭＳ ゴシック
100
AcDbText
  0
TEXT
  5
1D0
330
1F
100
AcDbEntity
  8
1-0
  6
Continuous
 62
     2
370
     9
100
AcDbText
 10
232.1061335383236
 20
-483.3937088260136
 30
0.0
 40
15.24
  1
把手詳細図　Ｓ＝１：２
 41
1.113636363636364
  7
ＭＳ ゴシック
100
AcDbText
  0
TEXT
  5
1D1
330
1F
100
AcDbEntity
  8
1-4
  6
Continuous
 62
     2
370
     9
100
AcDbText
 10
379.3247011586784
 20
318.5257989007074
 30
0.0
 40
15.24
  1
42
 50
90.0
 41
1.0625
  7
ＭＳ ゴシック
100
AcDbText
  0
TEXT
  5
1D2
330
1F
100
AcDbEntity
  8
1-4
  6
Continuous
 62
     2
370
     9
100
AcDbText
 10
469.9430476008235
 20
464.8362716427366
 30
0.0
 40
15.24
  1
1
 41
0.9999999999999998
  7
ＭＳ ゴシック
100
AcDbText
  0
TEXT
  5
1D3
330
1F
100
AcDbEntity
  8
1-4
  6
Continuous
 62
     2
370
     9
100
AcDbText
 10
491.3437343288114
 20
464.8362716427366
 30
0.0
 40
15.24
  1
12
 41
1.0625
  7
ＭＳ ゴシック
100
AcDbText
  0
TEXT
  5
1D4
330
1F
100
AcDbEntity
  8
1-4
  6
Continuous
 62
     2
370
     9
100
AcDbText
 10
452.5937920647699
 20
201.3147163349874
 30
0.0
 40
15.24
  1
33
 41
1.0625
  7
ＭＳ ゴシック
100
AcDbText
  0
TEXT
  5
1D5
330
1F
100
AcDbEntity
  8
1-4
  6
Continuous
 62
     2
370
     9
100
AcDbText
 10
590.5927807617187
 20
325.8559562064506
 30
0.0
 40
15.24
  1
40
 50
90.0
 41
1.0625
  7
ＭＳ ゴシック
100
AcDbText
  0
TEXT
  5
1D6
330
1F
100
AcDbEntity
  8
1-4
  6
Continuous
 62
     2
370
     9
100
AcDbText
 10
590.5927807617187
 20
398.0936741184544
 30
0.0
 40
15.24
  1
2
 50
90.0
 41
0.9999999999999998
  7
ＭＳ ゴシック
100
AcDbText
  0
TEXT
  5
1D7
330
1F
100
AcDbEntity
  8
1-4
  6
Continuous
 62
     7
370
     9
100
AcDbText
 10
461.6578588565645
 20
73.85829603040223
 30
0.0
 40
11.43
  1
処理：陽極酸化塗装複合皮膜処理（アルミ材のみ）
 50
0.0000088607868638
 41
1.159420289855073
  7
ＭＳ ゴシック
100
AcDbText
  0
TEXT
  5
1D8
330
1F
100
AcDbEntity
  8
1-4
  6
Continuous
 62
     2
370
     9
100
AcDbText
 10
145.6127161634292
 20
307.622721904033
 30
0.0
 40
15.24
  1
3.2
 50
90.0
 41
1.083333333333333
  7
ＭＳ ゴシック
100
AcDbText
  0
TEXT
  5
1D9
330
1F
100
AcDbEntity
  8
1-4
  6
Continuous
 62
     2
370
     9
100
AcDbText
 10
145.6127161634292
 20
357.1061211663324
 30
0.0
 40
15.24
  1
15
 50
90.0
 41
1.0625
  7
ＭＳ ゴシック
100
AcDbText
  0
TEXT
  5
1DA
330
1F
100
AcDbEntity
  8
1-4
  6
Continuous
 62
     2
370
     9
100
AcDbText
 10
521.12454543655
 20
-311.9987797092747
 30
0.0
 40
15.24
  1
15
 50
90.0
 41
1.0625
  7
ＭＳ ゴシック
100
AcDbText
  0
TEXT
  5
1DB
330
1F
100
AcDbEntity
  8
1-4
  6
Continuous
 62
     2
370
     9
100
AcDbText
 10
179.5650915197425
 20
207.4706479624156
 30
0.0
 40
15.24
  1
400
 41
1.083333333333333
  7
ＭＳ ゴシック
100
AcDbText
  0
TEXT
  5
1DC
330
1F
100
AcDbEntity
  8
1-4
  6
Continuous
 62
     2
370
     9
100
AcDbText
 10
178.3784938502956
 20
467.0768392366977
 30
0.0
 40
15.24
  1
450
 41
1.083333333333333
  7
ＭＳ ゴシック
100
AcDbText
  0
TEXT
  5
1DD
330
1F
100
AcDbEntity
  8
1-4
  6
Continuous
 62
     2
370
     9
100
AcDbText
 10
179.5650915197425
 20
501.8036574245145
 30
0.0
 40
15.24
  1
476
 41
1.083333333333333
  7
ＭＳ ゴシック
100
AcDbText
  0
LWPOLYLINE
  5
1DE
330
1F
100
AcDbEntity
  8
0-4
  6
Continuous
 62
     7
370
     9
100
AcDbPolyline
 90
        4
 70
     1
 43
0.5
 10
-579.6418646735115
 20
368.7091889252534
 42
0.4142135623731
 10
-579.8918646735113
 20
368.9591889252534
 42
0.4142135623731
 10
-580.1418646735113
 20
368.7091889252534
 42
0.4142135623731
 10
-579.8918646735113
 20
368.4591889252534
 42
0.4142135623731
  0
LWPOLYLINE
  5
1DF
330
1F
100
AcDbEntity
  8
0-4
  6
Continuous
 62
     7
370
     9
100
AcDbPolyline
 90
        4
 70
     1
 43
0.5
 10
-179.6418440535262
 20
368.7091889252534
 42
0.4142135623731
 10
-179.8918440535262
 20
368.9591889252534
 42
0.4142135623731
 10
-180.1418440535261
 20
368.7091889252534
 42
0.4142135623731
 10
-179.8918440535262
 20
368.4591889252534
 42
0.4142135623731
  0
LWPOLYLINE
  5
1E0
330
1F
100
AcDbEntity
  8
0-4
  6
Continuous
 62
     7
370
     9
100
AcDbPolyline
 90
        4
 70
     1
 43
0.5
 10
-604.6418543635187
 20
401.3920304581926
 42
0.4142135623731
 10
-604.8918543635187
 20
401.6420304581926
 42
0.4142135623731
 10
-605.1418543635187
 20
401.3920304581926
 42
0.4142135623731
 10
-604.8918543635187
 20
401.1420304581926
 42
0.4142135623731
  0
LWPOLYLINE
  5
1E1
330
1F
100
AcDbEntity
  8
0-4
  6
Continuous
 62
     7
370
     9
100
AcDbPolyline
 90
        4
 70
     1
 43
0.5
 10
-154.6418234335409
 20
401.3920304581926
 42
0.4142135623731
 10
-154.8918234335409
 20
401.6420304581926
 42
0.4142135623731
 10
-155.1418234335409
 20
401.3920304581926
 42
0.4142135623731
 10
-154.8918234335409
 20
401.1420304581926
 42
0.4142135623731
  0
LWPOLYLINE
  5
1E2
330
1F
100
AcDbEntity
  8
0-4
  6
Continuous
 62
     7
370
     9
100
AcDbPolyline
 90
        4
 70
     1
 43
0.5
 10
-617.6418786951014
 20
428.9761270059122
 42
0.4142135623731
 10
-617.8918786951012
 20
429.2261270059122
 42
0.4142135623731
 10
-618.1418786951012
 20
428.9761270059122
 42
0.4142135623731
 10
-617.8918786951012
 20
428.7261270059122
 42
0.4142135623731
  0
LWPOLYLINE
  5
1E3
330
1F
100
AcDbEntity
  8
0-4
  6
Continuous
 62
     7
370
     9
100
AcDbPolyline
 90
        4
 70
     1
 43
0.5
 10
-141.6418918918918
 20
428.9761270059122
 42
0.4142135623731
 10
-141.8918918918918
 20
429.2261270059122
 42
0.4142135623731
 10
-142.1418918918918
 20
428.9761270059122
 42
0.4142135623731
 10
-141.8918918918918
 20
428.7261270059122
 42
0.4142135623731
  0
LWPOLYLINE
  5
1E4
330
1F
100
AcDbEntity
  8
0-4
  6
Continuous
 62
     7
370
     9
100
AcDbPolyline
 90
        4
 70
     1
 43
0.5
 10
-654.5267123660526
 20
-106.1755865973395
 42
0.4142135623731
 10
-654.7767123660526
 20
-105.9255865973395
 42
0.4142135623731
 10
-655.0267123660526
 20
-106.1755865973395
 42
0.4142135623731
 10
-654.7767123660526
 20
-106.4255865973395
 42
0.4142135623731
  0
LWPOLYLINE
  5
1E5
330
1F
100
AcDbEntity
  8
0-4
  6
Continuous
 62
     7
370
     9
100
AcDbPolyline
 90
        4
 70
     1
 43
0.5
 10
-654.5267123660526
 20
293.8243721626901
 42
0.4142135623731
 10
-654.7767123660526
 20
294.0743721626901
 42
0.4142135623731
 10
-655.0267123660526
 20
293.8243721626901
 42
0.4142135623731
 10
-654.7767123660526
 20
293.5743721626901
 42
0.4142135623731
  0
LWPOLYLINE
  5
1E6
330
1F
100
AcDbEntity
  8
0-4
  6
Continuous
 62
     7
370
     9
100
AcDbPolyline
 90
        4
 70
     1
 43
0.5
 10
-687.2095848289695
 20
-131.1756072173247
 42
0.4142135623731
 10
-687.4595848289696
 20
-130.9256072173247
 42
0.4142135623731
 10
-687.7095848289696
 20
-131.1756072173247
 42
0.4142135623731
 10
-687.4595848289696
 20
-131.4256072173247
 42
0.4142135623731
  0
LWPOLYLINE
  5
1E7
330
1F
100
AcDbEntity
  8
0-4
  6
Continuous
 62
     7
370
     9
100
AcDbPolyline
 90
        4
 70
     1
 43
0.5
 10
-687.2095848289695
 20
318.8243309227197
 42
0.4142135623731
 10
-687.4595848289696
 20
319.0743309227196
 42
0.4142135623731
 10
-687.7095848289696
 20
318.8243309227197
 42
0.4142135623731
 10
-687.4595848289696
 20
318.5743309227197
 42
0.4142135623731
  0
LWPOLYLINE
  5
1E8
330
1F
100
AcDbEntity
  8
0-4
  6
Continuous
 62
     7
370
     9
100
AcDbPolyline
 90
        4
 70
     1
 43
0.5
 10
-714.7935885867557
 20
-144.1756624788851
 42
0.4142135623731
 10
-715.0435885867557
 20
-143.9256624788851
 42
0.4142135623731
 10
-715.2935885867557
 20
-144.1756624788851
 42
0.4142135623731
 10
-715.0435885867557
 20
-144.4256624788851
 42
0.4142135623731
  0
LWPOLYLINE
  5
1E9
330
1F
100
AcDbEntity
  8
0-4
  6
Continuous
 62
     7
370
     9
100
AcDbPolyline
 90
        4
 70
     1
 43
0.5
 10
-714.7935885867557
 20
331.8243243243244
 42
0.4142135623731
 10
-715.0435885867557
 20
332.0743243243243
 42
0.4142135623731
 10
-715.2935885867557
 20
331.8243243243244
 42
0.4142135623731
 10
-715.0435885867557
 20
331.5743243243244
 42
0.4142135623731
  0
LWPOLYLINE
  5
1EA
330
1F
100
AcDbEntity
  8
1-4
  6
Continuous
 62
     7
370
     9
100
AcDbPolyline
 90
        4
 70
     1
 43
0.5
 10
384.8948331265836
 20
286.4809768264358
 42
0.4142135623731
 10
384.6448331265836
 20
286.7309768264358
 42
0.4142135623731
 10
384.3948331265836
 20
286.4809768264358
 42
0.4142135623731
 10
384.6448331265836
 20
286.2309768264358
 42
0.4142135623731
  0
LWPOLYLINE
  5
1EB
330
1F
100
AcDbEntity
  8
1-4
  6
Continuous
 62
     7
370
     9
100
AcDbPolyline
 90
        4
 70
     1
 43
0.5
 10
384.8948331265836
 20
391.481075802365
 42
0.4142135623731
 10
384.6448331265836
 20
391.731075802365
 42
0.4142135623731
 10
384.3948331265836
 20
391.481075802365
 42
0.4142135623731
 10
384.6448331265836
 20
391.231075802365
 42
0.4142135623731
  0
LWPOLYLINE
  5
1EC
330
1F
100
AcDbEntity
  8
1-4
  6
Continuous
 62
     7
370
     9
100
AcDbPolyline
 90
        4
 70
     1
 43
0.5
 10
484.7188621727198
 20
459.5163871146538
 42
0.4142135623731
 10
484.4688621727198
 20
459.7663871146538
 42
0.4142135623731
 10
484.2188621727198
 20
459.5163871146538
 42
0.4142135623731
 10
484.4688621727198
 20
459.2663871146538
 42
0.4142135623731
  0
LWPOLYLINE
  5
1ED
330
1F
100
AcDbEntity
  8
1-4
  6
Continuous
 62
     7
370
     9
100
AcDbPolyline
 90
        4
 70
     1
 43
0.5
 10
487.2191178605365
 20
459.5163871146538
 42
0.4142135623731
 10
486.9691178605365
 20
459.7663871146538
 42
0.4142135623731
 10
486.7191178605365
 20
459.5163871146538
 42
0.4142135623731
 10
486.9691178605365
 20
459.2663871146538
 42
0.4142135623731
  0
LWPOLYLINE
  5
1EE
330
1F
100
AcDbEntity
  8
1-4
  6
Continuous
 62
     7
370
     9
100
AcDbPolyline
 90
        4
 70
     1
 43
0.5
 10
517.2192168364653
 20
459.5163871146538
 42
0.4142135623731
 10
516.9692168364654
 20
459.7663871146538
 42
0.4142135623731
 10
516.7192168364654
 20
459.5163871146538
 42
0.4142135623731
 10
516.9692168364654
 20
459.2663871146538
 42
0.4142135623731
  0
LWPOLYLINE
  5
1EF
330
1F
100
AcDbEntity
  8
1-4
  6
Continuous
 62
     7
370
     9
100
AcDbPolyline
 90
        4
 70
     1
 43
0.5
 10
517.2192168364653
 20
494.9790913349874
 42
0.4142135623731
 10
516.9692168364654
 20
495.2290913349873
 42
0.4142135623731
 10
516.7192168364654
 20
494.9790913349874
 42
0.4142135623731
 10
516.9692168364654
 20
494.7290913349874
 42
0.4142135623731
  0
LWPOLYLINE
  5
1F0
330
1F
100
AcDbEntity
  8
1-4
  6
Continuous
 62
     7
370
     9
100
AcDbPolyline
 90
        4
 70
     1
 43
0.5
 10
422.2187796927789
 20
195.9947080869932
 42
0.4142135623731
 10
421.9687796927789
 20
196.2447080869932
 42
0.4142135623731
 10
421.7187796927789
 20
195.9947080869932
 42
0.4142135623731
 10
421.9687796927789
 20
195.7447080869932
 42
0.4142135623731
  0
LWPOLYLINE
  5
1F1
330
1F
100
AcDbEntity
  8
1-4
  6
Continuous
 62
     7
370
     9
100
AcDbPolyline
 90
        4
 70
     1
 43
0.5
 10
504.7185569969386
 20
195.9947080869932
 42
0.4142135623731
 10
504.4685569969386
 20
196.2447080869932
 42
0.4142135623731
 10
504.2185569969386
 20
195.9947080869932
 42
0.4142135623731
 10
504.4685569969386
 20
195.7447080869932
 42
0.4142135623731
  0
LWPOLYLINE
  5
1F2
330
1F
100
AcDbEntity
  8
1-4
  6
Continuous
 62
     7
370
     9
100
AcDbPolyline
 90
        4
 70
     1
 43
0.5
 10
596.1624178499789
 20
286.4809768264358
 42
0.4142135623731
 10
595.912417849979
 20
286.7309768264358
 42
0.4142135623731
 10
595.662417849979
 20
286.4809768264358
 42
0.4142135623731
 10
595.912417849979
 20
286.2309768264358
 42
0.4142135623731
  0
LWPOLYLINE
  5
1F3
330
1F
100
AcDbEntity
  8
1-4
  6
Continuous
 62
     7
370
     9
100
AcDbPolyline
 90
        4
 70
     1
 43
0.5
 10
596.1624178499789
 20
386.4809355864654
 42
0.4142135623731
 10
595.912417849979
 20
386.7309355864654
 42
0.4142135623731
 10
595.662417849979
 20
386.4809355864654
 42
0.4142135623731
 10
595.912417849979
 20
386.2309355864654
 42
0.4142135623731
  0
LWPOLYLINE
  5
1F4
330
1F
100
AcDbEntity
  8
1-4
  6
Continuous
 62
     7
370
     9
100
AcDbPolyline
 90
        4
 70
     1
 43
0.5
 10
596.1624178499789
 20
391.481075802365
 42
0.4142135623731
 10
595.912417849979
 20
391.731075802365
 42
0.4142135623731
 10
595.662417849979
 20
391.481075802365
 42
0.4142135623731
 10
595.912417849979
 20
391.231075802365
 42
0.4142135623731
  0
LWPOLYLINE
  5
1F5
330
1F
100
AcDbEntity
  8
1-4
  6
Continuous
 62
     7
370
     9
100
AcDbPolyline
 90
        4
 70
     1
 43
0.5
 10
151.1828481313345
 20
340.9809586808489
 42
0.4142135623731
 10
150.9328481313345
 20
341.2309586808488
 42
0.4142135623731
 10
150.6828481313345
 20
340.9809586808489
 42
0.4142135623731
 10
150.9328481313345
 20
340.7309586808489
 42
0.4142135623731
  0
LWPOLYLINE
  5
1F6
330
1F
100
AcDbEntity
  8
1-4
  6
Continuous
 62
     7
370
     9
100
AcDbPolyline
 90
        4
 70
     1
 43
0.5
 10
151.1828481313345
 20
348.9810593063767
 42
0.4142135623731
 10
150.9328481313345
 20
349.2310593063767
 42
0.4142135623731
 10
150.6828481313345
 20
348.9810593063767
 42
0.4142135623731
 10
150.9328481313345
 20
348.7310593063767
 42
0.4142135623731
  0
LWPOLYLINE
  5
1F7
330
1F
100
AcDbEntity
  8
1-4
  6
Continuous
 62
     7
370
     9
100
AcDbPolyline
 90
        4
 70
     1
 43
0.5
 10
151.1828481313345
 20
386.4809355864654
 42
0.4142135623731
 10
150.9328481313345
 20
386.7309355864654
 42
0.4142135623731
 10
150.6828481313345
 20
386.4809355864654
 42
0.4142135623731
 10
150.9328481313345
 20
386.2309355864654
 42
0.4142135623731
  0
LWPOLYLINE
  5
1F8
330
1F
100
AcDbEntity
  8
1-4
  6
Continuous
 62
     7
370
     9
100
AcDbPolyline
 90
        4
 70
     1
 43
0.5
 10
526.694553684544
 20
-320.1237797092747
 42
0.4142135623731
 10
526.444553684544
 20
-319.8737797092747
 42
0.4142135623731
 10
526.1945536845441
 20
-320.1237797092747
 42
0.4142135623731
 10
526.444553684544
 20
-320.3737797092747
 42
0.4142135623731
  0
LWPOLYLINE
  5
1F9
330
1F
100
AcDbEntity
  8
1-4
  6
Continuous
 62
     7
370
     9
100
AcDbPolyline
 90
        4
 70
     1
 43
0.5
 10
526.694553684544
 20
-282.6238106392526
 42
0.4142135623731
 10
526.444553684544
 20
-282.3738106392526
 42
0.4142135623731
 10
526.1945536845441
 20
-282.6238106392526
 42
0.4142135623731
 10
526.444553684544
 20
-282.8738106392525
 42
0.4142135623731
  0
LINE
  5
1FA
330
1F
100
AcDbEntity
  8
1-5
  6
Continuous
 62
     7
370
     9
100
AcDbLine
 10
481.6001685889992
 20
384.1474543391048
 30
0.0
 11
546.5318422059755
 21
494.9790913349874
 31
0.0
  0
LINE
  5
1FB
330
1F
100
AcDbEntity
  8
1-5
  6
Continuous
 62
     7
370
     9
100
AcDbLine
 10
835.4248871674408
 20
494.9790913349874
 30
0.0
 11
546.5318422059755
 21
494.9790913349874
 31
0.0
  0
LINE
  5
1FC
330
1F
100
AcDbEntity
  8
1-5
  6
Continuous
 62
     7
370
     9
100
AcDbLine
 10
510.9861219251479
 20
388.2115297059755
 30
0.0
 11
547.7022325670398
 21
450.8825931033573
 31
0.0
  0
LINE
  5
1FD
330
1F
100
AcDbEntity
  8
1-5
  6
Continuous
 62
     7
370
     9
100
AcDbLine
 10
547.7022325670398
 20
450.8825931033573
 30
0.0
 11
815.223652607686
 21
450.8825931033573
 31
0.0
  0
LINE
  5
1FE
330
1F
100
AcDbEntity
  8
1-5
  6
Continuous
 62
     7
370
     9
100
AcDbLine
 10
481.6001685889992
 20
384.1474543391048
 30
0.0
 11
486.4571648675044
 21
395.665283203125
 31
0.0
  0
LINE
  5
1FF
330
1F
100
AcDbEntity
  8
1-5
  6
Continuous
 62
     7
370
     9
100
AcDbLine
 10
481.6001685889992
 20
384.1474543391048
 30
0.0
 11
489.272164009713
 21
394.0157256255279
 31
0.0
  0
LINE
  5
200
330
1F
100
AcDbEntity
  8
1-5
  6
Continuous
 62
     7
370
     9
100
AcDbLine
 10
510.9861219251479
 20
388.2115297059755
 30
0.0
 11
515.8428707638302
 21
399.7293585699958
 31
0.0
  0
LINE
  5
201
330
1F
100
AcDbEntity
  8
1-5
  6
Continuous
 62
     7
370
     9
100
AcDbLine
 10
510.9861219251479
 20
388.2115297059755
 30
0.0
 11
518.6582410657729
 21
398.07992471231
 31
0.0
  0
TEXT
  5
202
330
1F
100
AcDbEntity
  8
1-5
  6
Continuous
 62
     7
370
     9
100
AcDbText
 10
548.4514432340056
 20
456.8638403320313
 30
0.0
 40
11.43
  1
アルミ受枠（Ａ６０６３Ｓ－Ｔ５）
 41
1.15625
  7
ＭＳ ゴシック
100
AcDbText
  0
TEXT
  5
203
330
1F
100
AcDbEntity
  8
1-5
  6
Continuous
 62
     7
370
     9
100
AcDbText
 10
555.7269163389465
 20
501.8851449007602
 30
0.0
 40
11.43
  1
蓋フレーム（Ａ６０６３Ｓ－Ｔ５）
 41
1.15625
  7
ＭＳ ゴシック
100
AcDbText
  0
TEXT
  5
204
330
1F
100
AcDbEntity
  8
1-5
  6
Continuous
 62
     7
370
     9
100
AcDbText
 10
60.49583641258451
 20
-261.8312795773068
 30
0.0
 40
11.43
  1
かさ上げ用
 41
1.133333333333333
  7
ＭＳ ゴシック
100
AcDbText
  0
TEXT
  5
205
330
1F
100
AcDbEntity
  8
1-5
  6
Continuous
 62
     7
370
     9
100
AcDbText
 10
124.7168339909734
 20
-327.0904707295185
 30
0.0
 40
11.43
  1
把手本体
 41
1.125
  7
ＭＳ ゴシック
100
AcDbText
  0
TEXT
  5
206
330
1F
100
AcDbEntity
  8
1-5
  6
Continuous
 62
     7
370
     9
100
AcDbText
 10
79.07953210779148
 20
-429.9863723837362
 30
0.0
 40
11.43
  1
（SUS304　ｔ＝2.5）
 41
1.149122807017544
  7
ＭＳ ゴシック
100
AcDbText
  0
TEXT
  5
207
330
1F
100
AcDbEntity
  8
1-5
  6
Continuous
 62
     7
370
     9
100
AcDbText
 10
86.78358748152462
 20
-406.5433977776605
 30
0.0
 40
11.43
  1
ストッパープレート
 41
1.148148148148148
  7
ＭＳ ゴシック
100
AcDbText
  0
TEXT
  5
208
330
1F
100
AcDbEntity
  8
1-5
  6
Continuous
 62
     7
370
     9
100
AcDbText
 10
75.01927556218334
 20
-349.7008103324271
 30
0.0
 40
11.43
  1
（強化ナイロン樹脂）
 41
1.15
  7
ＭＳ ゴシック
100
AcDbText
  0
LINE
  5
209
330
1F
100
AcDbEntity
  8
1-5
  6
Continuous
 62
     7
370
     9
100
AcDbLine
 10
78.99516337626693
 20
-332.4786047033361
 30
0.0
 11
246.1608061919341
 21
-332.4786047033361
 31
0.0
  0
TEXT
  5
20A
330
1F
100
AcDbEntity
  8
1-5
  6
Continuous
 62
     7
370
     9
100
AcDbText
 10
60.49579929661114
 20
-277.4408042783995
 30
0.0
 40
11.43
  1
アルミ製ボックス
 41
1.145833333333333
  7
ＭＳ ゴシック
100
AcDbText
  0
LINE
  5
20B
330
1F
100
AcDbEntity
  8
1-5
  6
Continuous
 62
     7
370
     9
100
AcDbLine
 10
59.10199139569258
 20
-282.8289073222392
 30
0.0
 11
216.3064492715372
 21
-282.8289073222392
 31
0.0
  0
TEXT
  5
20C
330
1F
100
AcDbEntity
  8
1-5
  6
Continuous
 62
     7
370
     9
100
AcDbText
 10
51.34483956001908
 20
-191.3500565482474
 30
0.0
 40
11.43
  1
把手カバー　ｔ＝0.5
 41
1.157894736842105
  7
ＭＳ ゴシック
100
AcDbText
  0
TEXT
  5
20D
330
1F
100
AcDbEntity
  8
1-5
  6
Continuous
 62
     7
370
     9
100
AcDbText
 10
68.21814872123106
 20
-213.195528729413
 30
0.0
 40
11.43
  1
（SUS304　ＨＬ）
 41
1.145833333333333
  7
ＭＳ ゴシック
100
AcDbText
  0
LINE
  5
20E
330
1F
100
AcDbEntity
  8
1-5
  6
Continuous
 62
     7
370
     9
100
AcDbLine
 10
48.934317923881
 20
-198.3485288877745
 30
0.0
 11
213.8826524889147
 21
-198.3485288877745
 31
0.0
  0
LINE
  5
20F
330
1F
100
AcDbEntity
  8
1-5
  6
Continuous
 62
     7
370
     9
100
AcDbLine
 10
213.8826524889147
 20
-198.3485288877745
 30
0.0
 11
261.5744513434333
 21
-282.6238106392526
 31
0.0
  0
LINE
  5
210
330
1F
100
AcDbEntity
  8
1-5
  6
Continuous
 62
     7
370
     9
100
AcDbLine
 10
216.3064492715372
 20
-282.8289073222392
 30
0.0
 11
238.9161393449115
 21
-305.4991273622255
 31
0.0
  0
LINE
  5
211
330
1F
100
AcDbEntity
  8
1-5
  6
Continuous
 62
     7
370
     9
100
AcDbLine
 10
314.0377560177365
 20
-351.6113631789749
 30
0.0
 11
301.6667546452703
 21
-349.8194039834513
 31
0.0
  0
LINE
  5
212
330
1F
100
AcDbEntity
  8
1-5
  6
Continuous
 62
     7
370
     9
100
AcDbLine
 10
314.0377560177365
 20
-351.6113631789749
 30
0.0
 11
302.55221805057
 21
-346.6786812447213
 31
0.0
  0
LINE
  5
213
330
1F
100
AcDbEntity
  8
1-5
  6
Continuous
 62
     7
370
     9
100
AcDbLine
 10
246.1608061919341
 20
-332.4786047033361
 30
0.0
 11
314.0377560177365
 21
-351.6113631789749
 31
0.0
  0
LINE
  5
214
330
1F
100
AcDbEntity
  8
1-5
  6
Continuous
 62
     7
370
     9
100
AcDbLine
 10
238.9161393449115
 20
-305.4991273622255
 30
0.0
 11
229.0093911660685
 21
-297.8763724662162
 31
0.0
  0
LINE
  5
215
330
1F
100
AcDbEntity
  8
1-5
  6
Continuous
 62
     7
370
     9
100
AcDbLine
 10
238.9161393449115
 20
-305.4991273622255
 30
0.0
 11
231.3197367900128
 21
-295.5720581879487
 31
0.0
  0
LINE
  5
216
330
1F
100
AcDbEntity
  8
1-5
  6
Continuous
 62
     7
370
     9
100
AcDbLine
 10
261.5744513434333
 20
-282.6238106392526
 30
0.0
 11
254.0505486565667
 21
-272.6415623845281
 31
0.0
  0
LINE
  5
217
330
1F
100
AcDbEntity
  8
1-5
  6
Continuous
 62
     7
370
     9
100
AcDbLine
 10
261.5744513434333
 20
-282.6238106392526
 30
0.0
 11
256.8905392208615
 21
-271.0344407365128
 31
0.0
  0
LINE
  5
218
330
1F
100
AcDbEntity
  8
1-5
  6
Continuous
 62
     7
370
     9
100
AcDbLine
 10
288.3664930188979
 20
-307.6240168391047
 30
0.0
 11
276.8594277871622
 21
-312.5067468591638
 31
0.0
  0
LINE
  5
219
330
1F
100
AcDbEntity
  8
1-5
  6
Continuous
 62
     7
370
     9
100
AcDbLine
 10
246.1608061919341
 20
-332.4786047033361
 30
0.0
 11
288.3664930188979
 21
-307.6240168391047
 31
0.0
  0
LINE
  5
21A
330
1F
100
AcDbEntity
  8
1-5
  6
Continuous
 62
     7
370
     9
100
AcDbLine
 10
288.3664930188979
 20
-307.6240168391047
 30
0.0
 11
278.5154188001479
 21
-315.3186839335673
 31
0.0
  0
LINE
  5
21B
330
1F
100
AcDbEntity
  8
1-5
  6
Continuous
 62
     7
370
     9
100
AcDbLine
 10
271.5374920819258
 20
-387.6240951950485
 30
0.0
 11
262.7595643739443
 21
-396.5232374861433
 31
0.0
  0
LINE
  5
21C
330
1F
100
AcDbEntity
  8
1-5
  6
Continuous
 62
     7
370
     9
100
AcDbLine
 10
271.5374920819258
 20
-387.6240951950485
 30
0.0
 11
265.3618889885982
 21
-398.491961504962
 31
0.0
  0
LINE
  5
21D
330
1F
100
AcDbEntity
  8
1-5
  6
Continuous
 62
     7
370
     9
100
AcDbLine
 10
78.34662360114024
 20
-413.7954650054107
 30
0.0
 11
251.7392436307175
 21
-413.7954650054107
 31
0.0
  0
LINE
  5
21E
330
1F
100
AcDbEntity
  8
1-5
  6
Continuous
 62
     7
370
     9
100
AcDbLine
 10
251.7392436307175
 20
-413.7954650054107
 30
0.0
 11
271.5374920819258
 21
-387.6240951950485
 31
0.0
  0
LINE
  5
21F
330
1F
100
AcDbEntity
  8
1-5
  6
Continuous
 62
     7
370
     9
100
AcDbLine
 10
387.2334248310813
 20
237.3790802826753
 30
0.0
 11
446.69284305057
 21
322.3742263381546
 31
0.0
  0
LINE
  5
220
330
1F
100
AcDbEntity
  8
1-5
  6
Continuous
 62
     7
370
     9
100
AcDbLine
 10
446.69284305057
 20
322.3742263381546
 30
0.0
 11
440.9260105442357
 21
311.2839734876479
 31
0.0
  0
LINE
  5
221
330
1F
100
AcDbEntity
  8
1-5
  6
Continuous
 62
     7
370
     9
100
AcDbLine
 10
446.69284305057
 20
322.3742263381546
 30
0.0
 11
438.2521758208404
 21
313.1543711069469
 31
0.0
  0
LINE
  5
222
330
1F
100
AcDbEntity
  8
1-5
  6
Continuous
 62
     7
370
     9
100
AcDbLine
 10
518.0147738070102
 20
195.7256791398332
 30
0.0
 11
458.8994206608953
 21
256.7654336465372
 31
0.0
  0
LINE
  5
223
330
1F
100
AcDbEntity
  8
1-5
  6
Continuous
 62
     7
370
     9
100
AcDbLine
 10
458.8994206608953
 20
256.7654336465372
 30
0.0
 11
468.693088840794
 21
248.9982357540647
 31
0.0
  0
LINE
  5
224
330
1F
100
AcDbEntity
  8
1-5
  6
Continuous
 62
     7
370
     9
100
AcDbLine
 10
458.8994206608953
 20
256.7654336465372
 30
0.0
 11
466.3489676810602
 21
246.7279753813872
 31
0.0
  0
LINE
  5
225
330
1F
100
AcDbEntity
  8
1-5
  6
Continuous
 62
     7
370
     9
100
AcDbLine
 10
314.9853268185177
 20
278.9539811417864
 30
0.0
 11
352.8996996105511
 21
344.5278511721182
 31
0.0
  0
LINE
  5
226
330
1F
100
AcDbEntity
  8
1-5
  6
Continuous
 62
     7
370
     9
100
AcDbLine
 10
352.8996996105511
 20
344.5278511721182
 30
0.0
 11
348.1087697646896
 21
332.9824327678741
 31
0.0
  0
LINE
  5
227
330
1F
100
AcDbEntity
  8
1-5
  6
Continuous
 62
     7
370
     9
100
AcDbLine
 10
352.8996996105511
 20
344.5278511721182
 30
0.0
 11
345.2842441893094
 21
334.6156593171773
 31
0.0
  0
TEXT
  5
228
330
1F
100
AcDbEntity
  8
1-5
  6
Continuous
 62
     7
370
     9
100
AcDbText
 10
231.6227275223679
 20
221.4887475191928
 30
0.0
 40
11.43
  1
軟質ポリ塩化ビニル
 50
0.00003457868801
 41
1.148148148148148
  7
ＭＳ ゴシック
100
AcDbText
  0
TEXT
  5
229
330
1F
100
AcDbEntity
  8
1-5
  6
Continuous
 62
     7
370
     9
100
AcDbText
 10
266.6227275223615
 20
243.7740932459217
 30
0.0
 40
11.43
  1
クッション
 50
0.00003457868801
 41
1.133333333333334
  7
ＭＳ ゴシック
100
AcDbText
  0
LINE
  5
22A
330
1F
100
AcDbEntity
  8
1-5
  6
Continuous
 62
     7
370
     9
100
AcDbLine
 10
387.2334248310813
 20
237.3790802826753
 30
0.0
 11
231.1240881591056
 21
237.3790802826753
 31
0.0
  0
TEXT
  5
22B
330
1F
100
AcDbEntity
  8
1-5
  6
Continuous
 62
     7
370
     9
100
AcDbText
 10
520.6590435955977
 20
202.1223778307116
 30
0.0
 40
11.43
  1
木ネジ　φ４．１×２５
 41
1.151515151515152
  7
ＭＳ ゴシック
100
AcDbText
  0
LINE
  5
22C
330
1F
100
AcDbEntity
  8
1-5
  6
Continuous
 62
     7
370
     9
100
AcDbLine
 10
518.0147738070102
 20
195.7256791398332
 30
0.0
 11
710.5151614627323
 21
195.7256791398332
 31
0.0
  0
LINE
  5
22D
330
1F
100
AcDbEntity
  8
1-4
  6
Continuous
 62
     7
370
     9
100
AcDbLine
 10
236.5376240498313
 20
-161.8786208694046
 30
0.0
 11
466.5377642657307
 21
-161.8786208694046
 31
0.0
  0
LINE
  5
22E
330
1F
100
AcDbEntity
  8
1-4
  6
Continuous
 62
     7
370
     9
100
AcDbLine
 10
236.5376240498313
 20
-125.1244044948268
 30
0.0
 11
236.5376240498313
 21
-163.3785392142631
 31
0.0
  0
LINE
  5
22F
330
1F
100
AcDbEntity
  8
1-4
  6
Continuous
 62
     7
370
     9
100
AcDbLine
 10
466.5377642657307
 20
-125.1244044948268
 30
0.0
 11
466.5377642657307
 21
-163.3785392142631
 31
0.0
  0
LINE
  5
230
330
1F
100
AcDbEntity
  8
1-4
  6
Continuous
 62
     7
370
     9
100
AcDbLine
 10
559.0626897038641
 20
-117.6245034707559
 30
0.0
 11
559.0626897038641
 21
-30.12427665091849
 31
0.0
  0
LINE
  5
231
330
1F
100
AcDbEntity
  8
1-4
  6
Continuous
 62
     7
370
     9
100
AcDbLine
 10
474.0379127296242
 20
-117.6245034707559
 30
0.0
 11
560.5626699086783
 21
-117.6245034707559
 31
0.0
  0
LINE
  5
232
330
1F
100
AcDbEntity
  8
1-4
  6
Continuous
 62
     7
370
     9
100
AcDbLine
 10
474.0379127296242
 20
-30.12427665091849
 30
0.0
 11
560.5626699086783
 21
-30.12427665091849
 31
0.0
  0
LINE
  5
233
330
1F
100
AcDbEntity
  8
1-4
  6
Continuous
 62
     7
370
     9
100
AcDbLine
 10
559.0626897038641
 20
-407.6238209492451
 30
0.0
 11
559.0626897038641
 21
-207.6238106392526
 31
0.0
  0
LINE
  5
234
330
1F
100
AcDbEntity
  8
1-4
  6
Continuous
 62
     7
370
     9
100
AcDbLine
 10
401.5376735377956
 20
-407.6238209492451
 30
0.0
 11
560.5626699086783
 21
-407.6238209492451
 31
0.0
  0
LINE
  5
235
330
1F
100
AcDbEntity
  8
1-4
  6
Continuous
 62
     7
370
     9
100
AcDbLine
 10
479.037805505701
 20
-282.6238106392526
 30
0.0
 11
560.5626699086783
 21
-282.6238106392526
 31
0.0
  0
LINE
  5
236
330
1F
100
AcDbEntity
  8
1-4
  6
Continuous
 62
     7
370
     9
100
AcDbLine
 10
443.7878995328336
 20
-207.6238106392526
 30
0.0
 11
560.5626699086783
 21
-207.6238106392526
 31
0.0
  0
TEXT
  5
237
330
1F
100
AcDbEntity
  8
1-4
  6
Continuous
 62
     2
370
     9
100
AcDbText
 10
340.9128178776922
 20
-154.0586043734164
 30
0.0
 40
15.24
  1
92
 41
1.0625
  7
ＭＳ ゴシック
100
AcDbText
  0
TEXT
  5
238
330
1F
100
AcDbEntity
  8
1-4
  6
Continuous
 62
     2
370
     9
100
AcDbText
 10
551.2424257680533
 20
-84.49948285077063
 30
0.0
 40
15.24
  1
35
 50
90.0
 41
1.0625
  7
ＭＳ ゴシック
100
AcDbText
  0
TEXT
  5
239
330
1F
100
AcDbEntity
  8
1-4
  6
Continuous
 62
     2
370
     9
100
AcDbText
 10
551.2424257680533
 20
-355.7488931191933
 30
0.0
 40
15.24
  1
50
 50
90.0
 41
1.0625
  7
ＭＳ ゴシック
100
AcDbText
  0
TEXT
  5
23A
330
1F
100
AcDbEntity
  8
1-4
  6
Continuous
 62
     2
370
     9
100
AcDbText
 10
551.2424257680533
 20
-255.7489343591638
 30
0.0
 40
15.24
  1
30
 50
90.0
 41
1.0625
  7
ＭＳ ゴシック
100
AcDbText
  0
LWPOLYLINE
  5
23B
330
1F
100
AcDbEntity
  8
1-4
  6
Continuous
 62
     7
370
     9
100
AcDbPolyline
 90
        4
 70
     1
 43
0.5
 10
236.7876240498313
 20
-161.8786208694046
 42
0.4142135623731
 10
236.5376240498313
 20
-161.6286208694046
 42
0.4142135623731
 10
236.2876240498313
 20
-161.8786208694046
 42
0.4142135623731
 10
236.5376240498313
 20
-162.1286208694045
 42
0.4142135623731
  0
LWPOLYLINE
  5
23C
330
1F
100
AcDbEntity
  8
1-4
  6
Continuous
 62
     7
370
     9
100
AcDbPolyline
 90
        4
 70
     1
 43
0.5
 10
466.7877642657307
 20
-161.8786208694046
 42
0.4142135623731
 10
466.5377642657307
 20
-161.6286208694046
 42
0.4142135623731
 10
466.2877642657307
 20
-161.8786208694046
 42
0.4142135623731
 10
466.5377642657307
 20
-162.1286208694045
 42
0.4142135623731
  0
LWPOLYLINE
  5
23D
330
1F
100
AcDbEntity
  8
1-4
  6
Continuous
 62
     7
370
     9
100
AcDbPolyline
 90
        4
 70
     1
 43
0.5
 10
559.3126897038641
 20
-117.6245034707559
 42
0.4142135623731
 10
559.0626897038641
 20
-117.3745034707559
 42
0.4142135623731
 10
558.8126897038641
 20
-117.6245034707559
 42
0.4142135623731
 10
559.0626897038641
 20
-117.8745034707559
 42
0.4142135623731
  0
LWPOLYLINE
  5
23E
330
1F
100
AcDbEntity
  8
1-4
  6
Continuous
 62
     7
370
     9
100
AcDbPolyline
 90
        4
 70
     1
 43
0.5
 10
559.3126897038641
 20
-30.12427665091849
 42
0.4142135623731
 10
559.0626897038641
 20
-29.87427665091849
 42
0.4142135623731
 10
558.8126897038641
 20
-30.12427665091849
 42
0.4142135623731
 10
559.0626897038641
 20
-30.37427665091849
 42
0.4142135623731
  0
LWPOLYLINE
  5
23F
330
1F
100
AcDbEntity
  8
1-4
  6
Continuous
 62
     7
370
     9
100
AcDbPolyline
 90
        4
 70
     1
 43
0.5
 10
559.3126897038641
 20
-407.6238209492451
 42
0.4142135623731
 10
559.0626897038641
 20
-407.3738209492451
 42
0.4142135623731
 10
558.8126897038641
 20
-407.6238209492451
 42
0.4142135623731
 10
559.0626897038641
 20
-407.8738209492451
 42
0.4142135623731
  0
LWPOLYLINE
  5
240
330
1F
100
AcDbEntity
  8
1-4
  6
Continuous
 62
     7
370
     9
100
AcDbPolyline
 90
        4
 70
     1
 43
0.5
 10
559.3126897038641
 20
-282.6238106392526
 42
0.4142135623731
 10
559.0626897038641
 20
-282.3738106392526
 42
0.4142135623731
 10
558.8126897038641
 20
-282.6238106392526
 42
0.4142135623731
 10
559.0626897038641
 20
-282.8738106392525
 42
0.4142135623731
  0
LWPOLYLINE
  5
241
330
1F
100
AcDbEntity
  8
1-4
  6
Continuous
 62
     7
370
     9
100
AcDbPolyline
 90
        4
 70
     1
 43
0.5
 10
559.3126897038641
 20
-207.6238106392526
 42
0.4142135623731
 10
559.0626897038641
 20
-207.3738106392526
 42
0.4142135623731
 10
558.8126897038641
 20
-207.6238106392526
 42
0.4142135623731
 10
559.0626897038641
 20
-207.8738106392525
 42
0.4142135623731
  0
LINE
  5
242
330
1F
100
AcDbEntity
  8
0-4
  6
Continuous
 62
     7
370
     9
100
AcDbLine
 10
-509.8918811694995
 20
0.0
 30
0.0
 11
-249.8918894174936
 21
0.0
 31
0.0
  0
LWPOLYLINE
  5
243
330
1F
100
AcDbEntity
  8
0-4
  6
Continuous
 62
     7
370
     9
100
AcDbPolyline
 90
        4
 70
     1
 43
0.5
 10
-509.6418811694996
 20
0.0
 42
0.4142135623731
 10
-509.8918811694995
 20
0.25
 42
0.4142135623731
 10
-510.1418811694995
 20
0.0
 42
0.4142135623731
 10
-509.8918811694995
 20
-0.25
 42
0.4142135623731
  0
LWPOLYLINE
  5
244
330
1F
100
AcDbEntity
  8
0-4
  6
Continuous
 62
     7
370
     9
100
AcDbPolyline
 90
        4
 70
     1
 43
0.5
 10
-249.6418894174936
 20
0.0
 42
0.4142135623731
 10
-249.8918894174936
 20
0.25
 42
0.4142135623731
 10
-250.1418894174936
 20
0.0
 42
0.4142135623731
 10
-249.8918894174936
 20
-0.25
 42
0.4142135623731
  0
LINE
  5
245
330
1F
100
AcDbEntity
  8
0-4
  6
Continuous
 62
     7
370
     9
100
AcDbLine
 10
-509.8918811694995
 20
-1.5
 30
0.0
 11
-509.8918811694995
 21
32.54490207981419
 31
0.0
  0
LINE
  5
246
330
1F
100
AcDbEntity
  8
0-4
  6
Continuous
 62
     7
370
     9
100
AcDbLine
 10
-249.8918894174936
 20
-1.5
 30
0.0
 11
-249.8918894174936
 21
32.54490207981419
 31
0.0
  0
TEXT
  5
247
330
1F
100
AcDbEntity
  8
0-4
  6
Continuous
 62
     2
370
   211
100
AcDbText
 10
-396.1418852934966
 20
5.32
 30
0.0
 40
15.24
  1
260
 41
1.083333333333333
  7
ＭＳ ゴシック
100
AcDbText
  0
TEXT
  5
248
330
1F
100
AcDbEntity
  8
1-5
  6
Continuous
 62
     7
370
     9
100
AcDbText
 10
158.4080180923188
 20
284.051125884185
 30
0.0
 40
11.43
  1
底板　ｔ＝３．２
 41
1.145833333333333
  7
ＭＳ ゴシック
100
AcDbText
  0
TEXT
  5
249
330
1F
100
AcDbEntity
  8
1-5
  6
Continuous
 62
     7
370
     9
100
AcDbText
 10
158.4080180923188
 20
262.7279734681985
 30
0.0
 40
11.43
  1
溶融亜鉛めっき鋼板
 41
1.148148148148148
  7
ＭＳ ゴシック
100
AcDbText
  0
LINE
  5
24A
330
1F
100
AcDbEntity
  8
1-5
  6
Continuous
 62
     7
370
     9
100
AcDbLine
 10
153.8078766406062
 20
278.9539811417864
 30
0.0
 11
314.9853268185177
 21
278.9539811417864
 31
0.0
  0
TEXT
  5
24B
330
1F
100
AcDbEntity
  8
F-0
  6
Continuous
 62
     7
370
     9
100
AcDbText
 10
-425.9400765089363
 20
-663.122045203969
 30
0.0
 40
11.43
  1
フロアーハッチ　フローリング床材用（フローリング厚15mm）屋内用　一般形
 41
1.161904761904762
  7
ＭＳ ゴシック
100
AcDbText
  0
TEXT
  5
24C
330
1F
100
AcDbEntity
  8
F-0
  6
Continuous
 62
     7
370
     9
100
AcDbText
 10
-425.3688620861001
 20
-683.0776497492882
 30
0.0
 40
11.43
  1
アルミニウム＋スチール製　アルミニウム目地　ＭＯＦＭ－４５０－１５－Ｍ
 41
1.161904761904762
  7
ＭＳ ゴシック
100
AcDbText
  0
ENDSEC
  0
SECTION
  2
OBJECTS
  0
DICTIONARY
  5
C
330
0
100
AcDbDictionary
281
     1
  3
ACAD_GROUP
350
D
  3
ACAD_LAYOUT
350
1A
  3
ACAD_MLEADERSTYLE
350
24E
  3
ACAD_MLINESTYLE
350
17
  3
ACAD_PLOTSETTINGS
350
19
  3
ACAD_PLOTSTYLENAME
350
E
  3
ACAD_TABLESTYLE
350
24D
  3
ACAD_VISUALSTYLE
350
2A
  0
DICTIONARY
  5
D
102
{ACAD_REACTORS
330
C
102
}
330
C
100
AcDbDictionary
281
     1
  0
DICTIONARY
  5
1A
102
{ACAD_REACTORS
330
C
102
}
330
C
100
AcDbDictionary
281
     1
  3
Layout1
350
1E
  3
Layout2
350
26
  3
Model
350
22
  0
DICTIONARY
  5
24E
102
{ACAD_REACTORS
330
C
102
}
330
C
100
AcDbDictionary
281
     1
  0
DICTIONARY
  5
17
102
{ACAD_REACTORS
330
C
102
}
330
C
100
AcDbDictionary
281
     1
  3
Standard
350
18
  0
DICTIONARY
  5
19
102
{ACAD_REACTORS
330
C
102
}
330
C
100
AcDbDictionary
281
     1
  0
ACDBDICTIONARYWDFLT
  5
E
102
{ACAD_REACTORS
330
C
102
}
330
C
100
AcDbDictionary
281
     1
  3
Normal
350
F
100
AcDbDictionaryWithDefault
340
F
  0
DICTIONARY
  5
24D
102
{ACAD_REACTORS
330
C
102
}
330
C
100
AcDbDictionary
281
     1
  0
DICTIONARY
  5
2A
102
{ACAD_REACTORS
330
C
102
}
330
C
100
AcDbDictionary
281
     1
  3
2dWireframe
350
2F
  3
3D Hidden
350
31
  3
3dWireframe
350
30
  3
Basic
350
32
  3
Brighten
350
36
  3
ColorChange
350
3A
  3
Conceptual
350
34
  3
Dim
350
35
  3
Facepattern
350
39
  3
Flat
350
2B
  3
FlatWithEdges
350
2C
  3
Gouraud
350
2D
  3
GouraudWithEdges
350
2E
  3
Linepattern
350
38
  3
Realistic
350
33
  3
Thicken
350
37
  0
LAYOUT
  5
1E
102
{ACAD_REACTORS
330
1A
102
}
330
1A
100
AcDbPlotSettings
  1

  2
none_device
  4

  6

 40
0.0
 41
0.0
 42
0.0
 43
0.0
 44
0.0
 45
0.0
 46
0.0
 47
0.0
 48
0.0
 49
0.0
140
0.0
141
0.0
142
1.0
143
1.0
 70
   688
 72
     0
 73
     0
 74
     5
  7

 75
    16
 76
     0
 77
     5
 78
   300
147
1.0
148
0.0
149
0.0
100
AcDbLayout
  1
Layout1
 70
     1
 71
     1
 10
0.0
 20
0.0
 11
420.0
 21
297.0
 12
0.0
 22
0.0
 32
0.0
 14
1.000000000000000E+20
 24
1.000000000000000E+20
 34
1.000000000000000E+20
 15
-1.000000000000000E+20
 25
-1.000000000000000E+20
 35
-1.000000000000000E+20
146
0.0
 13
0.0
 23
0.0
 33
0.0
 16
1.0
 26
0.0
 36
0.0
 17
0.0
 27
1.0
 37
0.0
 76
     0
330
1B
  0
LAYOUT
  5
26
102
{ACAD_REACTORS
330
1A
102
}
330
1A
100
AcDbPlotSettings
  1

  2
none_device
  4

  6

 40
0.0
 41
0.0
 42
0.0
 43
0.0
 44
0.0
 45
0.0
 46
0.0
 47
0.0
 48
0.0
 49
0.0
140
0.0
141
0.0
142
1.0
143
1.0
 70
   688
 72
     0
 73
     0
 74
     5
  7

 75
    16
 76
     0
 77
     5
 78
   300
147
1.0
148
0.0
149
0.0
100
AcDbLayout
  1
Layout2
 70
     1
 71
     2
 10
0.0
 20
0.0
 11
0.0
 21
0.0
 12
0.0
 22
0.0
 32
0.0
 14
0.0
 24
0.0
 34
0.0
 15
0.0
 25
0.0
 35
0.0
146
0.0
 13
0.0
 23
0.0
 33
0.0
 16
1.0
 26
0.0
 36
0.0
 17
0.0
 27
1.0
 37
0.0
 76
     0
330
23
  0
LAYOUT
  5
22
102
{ACAD_REACTORS
330
1A
102
}
330
1A
100
AcDbPlotSettings
  1

  2
none_device
  4

  6

 40
0.0
 41
0.0
 42
0.0
 43
0.0
 44
0.0
 45
0.0
 46
0.0
 47
0.0
 48
0.0
 49
0.0
140
0.0
141
0.0
142
1.0
143
1.0
 70
  1712
 72
     0
 73
     0
 74
     0
  7

 75
     0
 76
     0
 77
     5
 78
   300
147
1.0
148
0.0
149
0.0
100
AcDbLayout
  1
Model
 70
     1
 71
     0
 10
-1050.0
 20
-742.5
 11
1050.0
 21
742.5
 12
0.0
 22
0.0
 32
0.0
 14
-1050.0
 24
-742.5
 34
0.0
 15
1050.0
 25
742.5
 35
0.0
146
0.0
 13
0.0
 23
0.0
 33
0.0
 16
1.0
 26
0.0
 36
0.0
 17
0.0
 27
1.0
 37
0.0
 76
     0
330
1F
331
29
  0
MLINESTYLE
  5
18
102
{ACAD_REACTORS
330
17
102
}
330
17
100
AcDbMlineStyle
  2
Standard
 70
     0
  3

 62
   256
 51
90.0
 52
90.0
 71
     2
 49
0.5
 62
   256
  6
BYLAYER
 49
-0.5
 62
   256
  6
BYLAYER
  0
ACDBPLACEHOLDER
  5
F
102
{ACAD_REACTORS
330
E
102
}
330
E
  0
VISUALSTYLE
  5
2F
102
{ACAD_REACTORS
330
2A
102
}
330
2A
100
AcDbVisualStyle
  2
2dWireframe
 70
     4
 71
     0
 72
     2
 73
     0
 90
        0
 40
-0.6
 41
-30.0
 62
     5
 63
     7
421
 16777215
 74
     1
 91
        4
 64
     7
 65
   257
 75
     1
175
     1
 42
1.0
 92
        0
 66
   257
 43
1.0
 76
     1
 77
     6
 78
     2
 67
     7
 79
     5
170
     0
171
     0
290
     0
174
     0
 93
        1
 44
0.0
173
     0
291
     0
 45
0.0
1001
ACAD
1000
AcDbSavedByObjectVersion
1070
     0
  0
VISUALSTYLE
  5
31
102
{ACAD_REACTORS
330
2A
102
}
330
2A
100
AcDbVisualStyle
  2
3D Hidden
 70
     6
 71
     1
 72
     2
 73
     2
 90
        0
 40
-0.6
 41
-30.0
 62
     5
 63
     7
421
 16777215
 74
     2
 91
        2
 64
     7
 65
   257
 75
     2
175
     1
 42
40.0
 92
        0
 66
   257
 43
1.0
 76
     1
 77
     6
 78
     2
 67
     7
 79
     3
170
     0
171
     0
290
     0
174
     0
 93
        1
 44
0.0
173
     0
291
     0
 45
0.0
1001
ACAD
1000
AcDbSavedByObjectVersion
1070
     0
  0
VISUALSTYLE
  5
30
102
{ACAD_REACTORS
330
2A
102
}
330
2A
100
AcDbVisualStyle
  2
3dWireframe
 70
     5
 71
     0
 72
     2
 73
     0
 90
        0
 40
-0.6
 41
-30.0
 62
     5
 63
     7
421
 16777215
 74
     1
 91
        4
 64
     7
 65
   257
 75
     1
175
     1
 42
1.0
 92
        0
 66
   257
 43
1.0
 76
     1
 77
     6
 78
     2
 67
     7
 79
     5
170
     0
171
     0
290
     0
174
     0
 93
        1
 44
0.0
173
     0
291
     0
 45
0.0
1001
ACAD
1000
AcDbSavedByObjectVersion
1070
     0
  0
VISUALSTYLE
  5
32
102
{ACAD_REACTORS
330
2A
102
}
330
2A
100
AcDbVisualStyle
  2
Basic
 70
     7
 71
     1
 72
     0
 73
     1
 90
        0
 40
-0.6
 41
-30.0
 62
     5
 63
     7
421
 16777215
 74
     0
 91
        4
 64
     7
 65
   257
 75
     1
175
     1
 42
1.0
 92
        8
 66
     7
 43
1.0
 76
     1
 77
     6
 78
     2
 67
     7
 79
     5
170
     0
171
     0
290
     0
174
     0
 93
        1
 44
0.0
173
     0
291
     1
 45
0.0
1001
ACAD
1000
AcDbSavedByObjectVersion
1070
     0
  0
VISUALSTYLE
  5
36
102
{ACAD_REACTORS
330
2A
102
}
330
2A
100
AcDbVisualStyle
  2
Brighten
 70
    12
 71
     2
 72
     2
 73
     0
 90
        0
 40
-0.6
 41
-30.0
 62
     5
 63
     7
421
 16777215
 74
     1
 91
        4
 64
     7
 65
   257
 75
     1
175
     1
 42
1.0
 92
        8
 66
     7
 43
1.0
 76
     1
 77
     6
 78
     2
 67
     7
 79
     5
170
     0
171
     0
290
     0
174
     0
 93
        1
 44
50.0
173
     0
291
     1
 45
0.0
1001
ACAD
1000
AcDbSavedByObjectVersion
1070
     0
  0
VISUALSTYLE
  5
3A
102
{ACAD_REACTORS
330
2A
102
}
330
2A
100
AcDbVisualStyle
  2
ColorChange
 70
    16
 71
     2
 72
     2
 73
     3
 90
        0
 40
-0.6
 41
-30.0
 62
     5
 63
     8
421
  8421504
 74
     1
 91
        4
 64
     7
 65
   257
 75
     1
175
     1
 42
1.0
 92
        8
 66
     8
424
  8421504
 43
1.0
 76
     1
 77
     6
 78
     2
 67
     7
 79
     5
170
     0
171
     0
290
     0
174
     0
 93
        1
 44
0.0
173
     0
291
     1
 45
0.0
1001
ACAD
1000
AcDbSavedByObjectVersion
1070
     0
  0
VISUALSTYLE
  5
34
102
{ACAD_REACTORS
330
2A
102
}
330
2A
100
AcDbVisualStyle
  2
Conceptual
 70
     9
 71
     3
 72
     2
 73
     0
 90
        0
 40
-0.6
 41
-30.0
 62
     5
 63
     7
421
 16777215
 74
     2
 91
        2
 64
     7
 65
   257
 75
     1
175
     1
 42
40.0
 92
        8
 66
     7
 43
1.0
 76
     1
 77
     6
 78
     2
 67
     7
 79
     3
170
     0
171
     0
290
     0
174
     0
 93
        1
 44
0.0
173
     0
291
     0
 45
0.0
1001
ACAD
1000
AcDbSavedByObjectVersion
1070
     0
  0
VISUALSTYLE
  5
35
102
{ACAD_REACTORS
330
2A
102
}
330
2A
100
AcDbVisualStyle
  2
Dim
 70
    11
 71
     2
 72
     2
 73
     0
 90
        0
 40
-0.6
 41
-30.0
 62
     5
 63
     7
421
 16777215
 74
     1
 91
        4
 64
     7
 65
   257
 75
     1
175
     1
 42
1.0
 92
        8
 66
     7
 43
1.0
 76
     1
 77
     6
 78
     2
 67
     7
 79
     5
170
     0
171
     0
290
     0
174
     0
 93
        1
 44
-50.0
173
     0
291
     1
 45
0.0
1001
ACAD
1000
AcDbSavedByObjectVersion
1070
     0
  0
VISUALSTYLE
  5
39
102
{ACAD_REACTORS
330
2A
102
}
330
2A
100
AcDbVisualStyle
  2
Facepattern
 70
    15
 71
     2
 72
     2
 73
     0
 90
        0
 40
-0.6
 41
-30.0
 62
     5
 63
     7
421
 16777215
 74
     1
 91
        4
 64
     7
 65
   257
 75
     1
175
     1
 42
1.0
 92
        8
 66
     7
 43
1.0
 76
     1
 77
     6
 78
     2
 67
     7
 79
     5
170
     0
171
     0
290
     0
174
     0
 93
        1
 44
0.0
173
     0
291
     1
 45
0.0
1001
ACAD
1000
AcDbSavedByObjectVersion
1070
     0
  0
VISUALSTYLE
  5
2B
102
{ACAD_REACTORS
330
2A
102
}
330
2A
100
AcDbVisualStyle
  2
Flat
 70
     0
 71
     2
 72
     1
 73
     1
 90
        2
 40
-0.6
 41
30.0
 62
     5
 63
     7
421
 16777215
 74
     0
 91
        4
 64
     7
 65
   257
 75
     1
175
     1
 42
1.0
 92
        8
 66
     7
 43
1.0
 76
     1
 77
     6
 78
     2
 67
     7
 79
     5
170
     0
171
     0
290
     0
174
     0
 93
       13
 44
0.0
173
     0
291
     1
 45
0.0
1001
ACAD
1000
AcDbSavedByObjectVersion
1070
     0
  0
VISUALSTYLE
  5
2C
102
{ACAD_REACTORS
330
2A
102
}
330
2A
100
AcDbVisualStyle
  2
FlatWithEdges
 70
     1
 71
     2
 72
     1
 73
     1
 90
        2
 40
-0.6
 41
30.0
 62
     5
 63
     7
421
 16777215
 74
     1
 91
        4
 64
     7
 65
   257
 75
     1
175
     1
 42
1.0
 92
        0
 66
   257
 43
1.0
 76
     1
 77
     6
 78
     2
 67
     7
 79
     5
170
     0
171
     0
290
     0
174
     0
 93
       13
 44
0.0
173
     0
291
     1
 45
0.0
1001
ACAD
1000
AcDbSavedByObjectVersion
1070
     0
  0
VISUALSTYLE
  5
2D
102
{ACAD_REACTORS
330
2A
102
}
330
2A
100
AcDbVisualStyle
  2
Gouraud
 70
     2
 71
     2
 72
     2
 73
     1
 90
        2
 40
-0.6
 41
30.0
 62
     5
 63
     7
421
 16777215
 74
     0
 91
        4
 64
     7
 65
   257
 75
     1
175
     1
 42
1.0
 92
        0
 66
     7
 43
1.0
 76
     1
 77
     6
 78
     2
 67
     7
 79
     5
170
     0
171
     0
290
     0
174
     0
 93
       13
 44
0.0
173
     0
291
     1
 45
0.0
1001
ACAD
1000
AcDbSavedByObjectVersion
1070
     0
  0
VISUALSTYLE
  5
2E
102
{ACAD_REACTORS
330
2A
102
}
330
2A
100
AcDbVisualStyle
  2
GouraudWithEdges
 70
     3
 71
     2
 72
     2
 73
     1
 90
        2
 40
-0.6
 41
30.0
 62
     5
 63
     7
421
 16777215
 74
     1
 91
        4
 64
     7
 65
   257
 75
     1
175
     1
 42
1.0
 92
        0
 66
   257
 43
1.0
 76
     1
 77
     6
 78
     2
 67
     7
 79
     5
170
     0
171
     0
290
     0
174
     0
 93
       13
 44
0.0
173
     0
291
     1
 45
0.0
1001
ACAD
1000
AcDbSavedByObjectVersion
1070
     0
  0
VISUALSTYLE
  5
38
102
{ACAD_REACTORS
330
2A
102
}
330
2A
100
AcDbVisualStyle
  2
Linepattern
 70
    14
 71
     2
 72
     2
 73
     0
 90
        0
 40
-0.6
 41
-30.0
 62
     5
 63
     7
421
 16777215
 74
     1
 91
        4
 64
     7
 65
   257
 75
     7
175
     7
 42
1.0
 92
        8
 66
     7
 43
1.0
 76
     1
 77
     6
 78
     2
 67
     7
 79
     5
170
     0
171
     0
290
     0
174
     0
 93
        1
 44
0.0
173
     0
291
     1
 45
0.0
1001
ACAD
1000
AcDbSavedByObjectVersion
1070
     0
  0
VISUALSTYLE
  5
33
102
{ACAD_REACTORS
330
2A
102
}
330
2A
100
AcDbVisualStyle
  2
Realistic
 70
     8
 71
     2
 72
     2
 73
     0
 90
        0
 40
-0.6
 41
-30.0
 62
     5
 63
     7
421
 16777215
 74
     1
 91
        0
 64
     7
 65
   257
 75
     1
175
     1
 42
1.0
 92
        8
 66
     8
424
  7895160
 43
1.0
 76
     1
 77
     6
 78
     2
 67
     7
 79
     5
170
     0
171
     0
290
     0
174
     0
 93
       13
 44
0.0
173
     0
291
     0
 45
0.0
1001
ACAD
1000
AcDbSavedByObjectVersion
1070
     0
  0
VISUALSTYLE
  5
37
102
{ACAD_REACTORS
330
2A
102
}
330
2A
100
AcDbVisualStyle
  2
Thicken
 70
    13
 71
     2
 72
     2
 73
     0
 90
        0
 40
-0.6
 41
-30.0
 62
     5
 63
     7
421
 16777215
 74
     1
 91
        4
 64
     7
 65
   257
 75
     1
175
     1
 42
1.0
 92
       12
 66
     7
 43
1.0
 76
     1
 77
     6
 78
     2
 67
     7
 79
     5
170
     0
171
     0
290
     0
174
     0
 93
        1
 44
0.0
173
     0
291
     1
 45
0.0
1001
ACAD
1000
AcDbSavedByObjectVersion
1070
     0
  0
ENDSEC
  0
EOF
