  0
SECTION
  2
HEADER
  9
$ACADVER
  1
AC1018
  9
$ACADMAINTVER
 70
     0
  9
$DWGCODEPAGE
  3
ANSI_932
  9
$INSBASE
 10
0.0
 20
0.0
 30
0.0
  9
$EXTMIN
 10
-1050.0
 20
-742.5
 30
0.0
  9
$EXTMAX
 10
1050.0
 20
742.5
 30
0.0
  9
$LIMMIN
 10
-1050.0
 20
-742.5
  9
$LIMMAX
 10
1050.0
 20
742.5
  9
$ORTHOMODE
 70
     0
  9
$REGENMODE
 70
     1
  9
$FILLMODE
 70
     1
  9
$QTEXTMODE
 70
     0
  9
$MIRRTEXT
 70
     1
  9
$LTSCALE
 40
5.0
  9
$ATTMODE
 70
     1
  9
$TEXTSIZE
 40
2.5
  9
$TRACEWID
 40
1.0
  9
$TEXTSTYLE
  7
Standard
  9
$CLAYER
  8
0
  9
$CELTYPE
  6
ByLayer
  9
$CECOLOR
 62
   256
  9
$CELTSCALE
 40
1.0
  9
$DISPSILH
 70
     0
  9
$DIMSCALE
 40
1.0
  9
$DIMASZ
 40
2.5
  9
$DIMEXO
 40
0.625
  9
$DIMDLI
 40
3.75
  9
$DIMRND
 40
0.0
  9
$DIMDLE
 40
0.0
  9
$DIMEXE
 40
1.25
  9
$DIMTP
 40
0.0
  9
$DIMTM
 40
0.0
  9
$DIMTXT
 40
2.5
  9
$DIMCEN
 40
2.5
  9
$DIMTSZ
 40
0.0
  9
$DIMTOL
 70
     0
  9
$DIMLIM
 70
     0
  9
$DIMTIH
 70
     0
  9
$DIMTOH
 70
     0
  9
$DIMSE1
 70
     0
  9
$DIMSE2
 70
     0
  9
$DIMTAD
 70
     1
  9
$DIMZIN
 70
     8
  9
$DIMBLK
  1

  9
$DIMASO
 70
     1
  9
$DIMSHO
 70
     1
  9
$DIMPOST
  1

  9
$DIMAPOST
  1

  9
$DIMALT
 70
     0
  9
$DIMALTD
 70
     3
  9
$DIMALTF
 40
0.03937007874016
  9
$DIMLFAC
 40
1.0
  9
$DIMTOFL
 70
     1
  9
$DIMTVP
 40
0.0
  9
$DIMTIX
 70
     0
  9
$DIMSOXD
 70
     0
  9
$DIMSAH
 70
     0
  9
$DIMBLK1
  1

  9
$DIMBLK2
  1

  9
$DIMSTYLE
  2
ISO-25
  9
$DIMCLRD
 70
     0
  9
$DIMCLRE
 70
     0
  9
$DIMCLRT
 70
     0
  9
$DIMTFAC
 40
1.0
  9
$DIMGAP
 40
0.625
  9
$DIMJUST
 70
     0
  9
$DIMSD1
 70
     0
  9
$DIMSD2
 70
     0
  9
$DIMTOLJ
 70
     0
  9
$DIMTZIN
 70
     8
  9
$DIMALTZ
 70
     0
  9
$DIMALTTZ
 70
     0
  9
$DIMUPT
 70
     0
  9
$DIMDEC
 70
     2
  9
$DIMTDEC
 70
     2
  9
$DIMALTU
 70
     2
  9
$DIMALTTD
 70
     3
  9
$DIMTXSTY
  7
Standard
  9
$DIMAUNIT
 70
     0
  9
$DIMADEC
 70
     0
  9
$DIMALTRND
 40
0.0
  9
$DIMAZIN
 70
     0
  9
$DIMDSEP
 70
    44
  9
$DIMATFIT
 70
     3
  9
$DIMFRAC
 70
     0
  9
$DIMLDRBLK
  1

  9
$DIMLUNIT
 70
     2
  9
$DIMLWD
 70
    -2
  9
$DIMLWE
 70
    -2
  9
$DIMTMOVE
 70
     0
  9
$LUNITS
 70
     2
  9
$LUPREC
 70
     4
  9
$SKETCHINC
 40
1.0
  9
$FILLETRAD
 40
10.0
  9
$AUNITS
 70
     0
  9
$AUPREC
 70
     0
  9
$MENU
  1
.
  9
$ELEVATION
 40
0.0
  9
$PELEVATION
 40
0.0
  9
$THICKNESS
 40
0.0
  9
$LIMCHECK
 70
     0
  9
$CHAMFERA
 40
10.0
  9
$CHAMFERB
 40
10.0
  9
$CHAMFERC
 40
20.0
  9
$CHAMFERD
 40
0.0
  9
$SKPOLY
 70
     0
  9
$TDCREATE
 40
2457904.375150671
  9
$TDUCREATE
 40
2457904.000150671
  9
$TDUPDATE
 40
2457904.375150683
  9
$TDUUPDATE
 40
2457904.000150683
  9
$TDINDWG
 40
0.0000000116
  9
$TDUSRTIMER
 40
0.0000000116
  9
$USRTIMER
 70
     1
  9
$ANGBASE
 50
0.0
  9
$ANGDIR
 70
     0
  9
$PDMODE
 70
     0
  9
$PDSIZE
 40
0.0
  9
$PLINEWID
 40
0.0
  9
$SPLFRAME
 70
     0
  9
$SPLINETYPE
 70
     6
  9
$SPLINESEGS
 70
     8
  9
$HANDSEED
  5
36C
  9
$SURFTAB1
 70
     6
  9
$SURFTAB2
 70
     6
  9
$SURFTYPE
 70
     6
  9
$SURFU
 70
     6
  9
$SURFV
 70
     6
  9
$UCSBASE
  2

  9
$UCSNAME
  2

  9
$UCSORG
 10
0.0
 20
0.0
 30
0.0
  9
$UCSXDIR
 10
1.0
 20
0.0
 30
0.0
  9
$UCSYDIR
 10
0.0
 20
1.0
 30
0.0
  9
$UCSORTHOREF
  2

  9
$UCSORTHOVIEW
 70
     0
  9
$UCSORGTOP
 10
0.0
 20
0.0
 30
0.0
  9
$UCSORGBOTTOM
 10
0.0
 20
0.0
 30
0.0
  9
$UCSORGLEFT
 10
0.0
 20
0.0
 30
0.0
  9
$UCSORGRIGHT
 10
0.0
 20
0.0
 30
0.0
  9
$UCSORGFRONT
 10
0.0
 20
0.0
 30
0.0
  9
$UCSORGBACK
 10
0.0
 20
0.0
 30
0.0
  9
$PUCSBASE
  2

  9
$PUCSNAME
  2

  9
$PUCSORG
 10
0.0
 20
0.0
 30
0.0
  9
$PUCSXDIR
 10
1.0
 20
0.0
 30
0.0
  9
$PUCSYDIR
 10
0.0
 20
1.0
 30
0.0
  9
$PUCSORTHOREF
  2

  9
$PUCSORTHOVIEW
 70
     0
  9
$PUCSORGTOP
 10
0.0
 20
0.0
 30
0.0
  9
$PUCSORGBOTTOM
 10
0.0
 20
0.0
 30
0.0
  9
$PUCSORGLEFT
 10
0.0
 20
0.0
 30
0.0
  9
$PUCSORGRIGHT
 10
0.0
 20
0.0
 30
0.0
  9
$PUCSORGFRONT
 10
0.0
 20
0.0
 30
0.0
  9
$PUCSORGBACK
 10
0.0
 20
0.0
 30
0.0
  9
$USERI1
 70
     0
  9
$USERI2
 70
     0
  9
$USERI3
 70
     0
  9
$USERI4
 70
     0
  9
$USERI5
 70
     0
  9
$USERR1
 40
0.0
  9
$USERR2
 40
0.0
  9
$USERR3
 40
0.0
  9
$USERR4
 40
0.0
  9
$USERR5
 40
0.0
  9
$WORLDVIEW
 70
     1
  9
$SHADEDGE
 70
     3
  9
$SHADEDIF
 70
    70
  9
$TILEMODE
 70
     1
  9
$MAXACTVP
 70
    64
  9
$PINSBASE
 10
0.0
 20
0.0
 30
0.0
  9
$PLIMCHECK
 70
     0
  9
$PEXTMIN
 10
1.000000000000000E+20
 20
1.000000000000000E+20
 30
1.000000000000000E+20
  9
$PEXTMAX
 10
-1.000000000000000E+20
 20
-1.000000000000000E+20
 30
-1.000000000000000E+20
  9
$PLIMMIN
 10
0.0
 20
0.0
  9
$PLIMMAX
 10
420.0
 20
297.0
  9
$UNITMODE
 70
     0
  9
$VISRETAIN
 70
     1
  9
$PLINEGEN
 70
     0
  9
$PSLTSCALE
 70
     1
  9
$TREEDEPTH
 70
  3020
  9
$CMLSTYLE
  2
Standard
  9
$CMLJUST
 70
     0
  9
$CMLSCALE
 40
20.0
  9
$PROXYGRAPHICS
 70
     1
  9
$MEASUREMENT
 70
     1
  9
$CELWEIGHT
370
    -1
  9
$ENDCAPS
280
     0
  9
$JOINSTYLE
280
     0
  9
$LWDISPLAY
290
     0
  9
$INSUNITS
 70
     4
  9
$HYPERLINKBASE
  1

  9
$STYLESHEET
  1

  9
$XEDIT
290
     1
  9
$CEPSNTYPE
380
     0
  9
$PSTYLEMODE
290
     1
  9
$FINGERPRINTGUID
  2
{BCDB433B-F73D-45B0-981F-8F1FFB3BD68A}
  9
$VERSIONGUID
  2
{FAEB1C32-E019-11D5-929B-00C0DF256EC4}
  9
$EXTNAMES
290
     1
  9
$PSVPSCALE
 40
0.0
  9
$OLESTARTUP
290
     0
  9
$SORTENTS
280
   127
  9
$INDEXCTL
280
     0
  9
$HIDETEXT
280
     1
  9
$XCLIPFRAME
290
     0
  9
$HALOGAP
280
     0
  9
$OBSCOLOR
 70
   257
  9
$OBSLTYPE
280
     0
  9
$INTERSECTIONDISPLAY
280
     0
  9
$INTERSECTIONCOLOR
 70
   257
  9
$DIMASSOC
280
     2
  9
$PROJECTNAME
  1

  0
ENDSEC
  0
SECTION
  2
CLASSES
  0
CLASS
  1
ACDBDICTIONARYWDFLT
  2
AcDbDictionaryWithDefault
  3
ObjectDBX Classes
 90
        0
 91
        4
280
     0
281
     0
  0
CLASS
  1
VISUALSTYLE
  2
AcDbVisualStyle
  3
ObjectDBX Classes
 90
     4095
 91
        4
280
     0
281
     0
  0
ENDSEC
  0
SECTION
  2
TABLES
  0
TABLE
  2
VPORT
  5
8
330
0
100
AcDbSymbolTable
 70
     1
  0
VPORT
  5
29
330
8
100
AcDbSymbolTableRecord
100
AcDbViewportTableRecord
  2
*Active
 70
     0
 10
0.0
 20
0.0
 11
1.0
 21
1.0
 12
0.0
 22
0.0
 13
0.0
 23
0.0
 14
10.0
 24
10.0
 15
10.0
 25
10.0
 16
0.0
 26
0.0
 36
1.0
 17
0.0
 27
0.0
 37
0.0
 40
1633.5
 41
1.414141414141414
 42
50.0
 43
0.0
 44
0.0
 50
0.0
 51
0.0
 71
     0
 72
 10000
 73
     1
 74
     3
 75
     0
 76
     0
 77
     0
 78
     0
281
     0
 65
     1
110
0.0
120
0.0
130
0.0
111
1.0
121
0.0
131
0.0
112
0.0
122
1.0
132
0.0
 79
     0
146
0.0
  0
ENDTAB
  0
TABLE
  2
LTYPE
  5
5
330
0
100
AcDbSymbolTable
 70
     5
  0
LTYPE
  5
14
330
5
100
AcDbSymbolTableRecord
100
AcDbLinetypeTableRecord
  2
ByBlock
 70
     0
  3

 72
    65
 73
     0
 40
0.0
  0
LTYPE
  5
15
330
5
100
AcDbSymbolTableRecord
100
AcDbLinetypeTableRecord
  2
ByLayer
 70
     0
  3

 72
    65
 73
     0
 40
0.0
  0
LTYPE
  5
16
330
5
100
AcDbSymbolTableRecord
100
AcDbLinetypeTableRecord
  2
Continuous
 70
     0
  3
Solid line
 72
    65
 73
     0
 40
0.0
  0
LTYPE
  5
3C
330
5
100
AcDbSymbolTableRecord
100
AcDbLinetypeTableRecord
  2
JWW_DASHED3
 70
     0
  3
---  ------  ------  ------  ---
 72
    65
 73
     2
 40
3.386666666666667
 49
2.54
 74
     0
 49
-0.8466666666666667
 74
     0
  0
LTYPE
  5
3D
330
5
100
AcDbSymbolTableRecord
100
AcDbLinetypeTableRecord
  2
JWW_CENTER1
 70
     0
  3
-----  --  ----------  --  -----
 72
    65
 73
     4
 40
6.773333333333333
 49
4.233333333333333
 74
     0
 49
-0.8466666666666667
 74
     0
 49
0.8466666666666667
 74
     0
 49
-0.8466666666666667
 74
     0
  0
LTYPE
  5
3E
330
5
100
AcDbSymbolTableRecord
100
AcDbLinetypeTableRecord
  2
JWW_CENTER2
 70
     0
  3
-------------  --  -------------
 72
    65
 73
     4
 40
13.54666666666667
 49
11.00666666666667
 74
     0
 49
-0.8466666666666667
 74
     0
 49
0.8466666666666667
 74
     0
 49
-0.8466666666666667
 74
     0
  0
LTYPE
  5
3F
330
5
100
AcDbSymbolTableRecord
100
AcDbLinetypeTableRecord
  2
JWW_PHANTOM1
 70
     0
  3
----  -  -  --------  -  -  ----
 72
    65
 73
     6
 40
6.773333333333333
 49
3.386666666666667
 74
     0
 49
-0.8466666666666667
 74
     0
 49
0.4233333333333333
 74
     0
 49
-0.8466666666666667
 74
     0
 49
0.4233333333333333
 74
     0
 49
-0.8466666666666667
 74
     0
  0
ENDTAB
  0
TABLE
  2
LAYER
  5
2
330
0
100
AcDbSymbolTable
 70
    11
  0
LAYER
  5
10
330
2
100
AcDbSymbolTableRecord
100
AcDbLayerTableRecord
  2
0
 70
     0
 62
     7
  6
Continuous
370
    -3
390
F
  0
LAYER
  5
40
330
2
100
AcDbSymbolTableRecord
100
AcDbLayerTableRecord
  2
0-1
 70
     0
 62
     7
  6
Continuous
370
    -3
390
F
  0
LAYER
  5
41
330
2
100
AcDbSymbolTableRecord
100
AcDbLayerTableRecord
  2
0-2
 70
     0
 62
     7
  6
Continuous
370
    -3
390
F
  0
LAYER
  5
42
330
2
100
AcDbSymbolTableRecord
100
AcDbLayerTableRecord
  2
0-4
 70
     0
 62
     7
  6
Continuous
370
    -3
390
F
  0
LAYER
  5
43
330
2
100
AcDbSymbolTableRecord
100
AcDbLayerTableRecord
  2
D-2
 70
     0
 62
     7
  6
Continuous
370
    -3
390
F
  0
LAYER
  5
44
330
2
100
AcDbSymbolTableRecord
100
AcDbLayerTableRecord
  2
D-1
 70
     0
 62
     7
  6
Continuous
370
    -3
390
F
  0
LAYER
  5
45
330
2
100
AcDbSymbolTableRecord
100
AcDbLayerTableRecord
  2
D-6
 70
     0
 62
     7
  6
Continuous
370
    -3
390
F
  0
LAYER
  5
46
330
2
100
AcDbSymbolTableRecord
100
AcDbLayerTableRecord
  2
D-4
 70
     0
 62
     7
  6
Continuous
370
    -3
390
F
  0
LAYER
  5
47
330
2
100
AcDbSymbolTableRecord
100
AcDbLayerTableRecord
  2
D-0
 70
     0
 62
     7
  6
Continuous
370
    -3
390
F
  0
LAYER
  5
48
330
2
100
AcDbSymbolTableRecord
100
AcDbLayerTableRecord
  2
D-5
 70
     0
 62
     7
  6
Continuous
370
    -3
390
F
  0
LAYER
  5
49
330
2
100
AcDbSymbolTableRecord
100
AcDbLayerTableRecord
  2
F-0
 70
     0
 62
     7
  6
Continuous
370
    -3
390
F
  0
ENDTAB
  0
TABLE
  2
STYLE
  5
3
330
0
100
AcDbSymbolTable
 70
     2
  0
STYLE
  5
11
330
3
100
AcDbSymbolTableRecord
100
AcDbTextStyleTableRecord
  2
Standard
 70
     0
 40
0.0
 41
1.0
 50
0.0
 71
     0
 42
2.5
  3
txt
  4

1001
ACAD
1000

1071
        0
  0
STYLE
  5
3B
330
3
100
AcDbSymbolTableRecord
100
AcDbTextStyleTableRecord
  2
ＭＳ ゴシック
 70
     0
 40
1.0
 41
1.0
 50
0.0
 71
     0
 42
10.0
  3

  4

1001
ACAD
1000
MS Gothic
1071
    32817
  0
ENDTAB
  0
TABLE
  2
VIEW
  5
6
330
0
100
AcDbSymbolTable
 70
     0
  0
ENDTAB
  0
TABLE
  2
UCS
  5
7
330
0
100
AcDbSymbolTable
 70
     0
  0
ENDTAB
  0
TABLE
  2
APPID
  5
9
330
0
100
AcDbSymbolTable
 70
     1
  0
APPID
  5
12
330
9
100
AcDbSymbolTableRecord
100
AcDbRegAppTableRecord
  2
ACAD
 70
     0
  0
ENDTAB
  0
TABLE
  2
DIMSTYLE
  5
A
330
0
100
AcDbSymbolTable
 70
     1
100
AcDbDimStyleTable
  0
DIMSTYLE
105
27
330
A
100
AcDbSymbolTableRecord
100
AcDbDimStyleTableRecord
  2
ISO-25
 70
     0
 41
2.5
 42
0.625
 43
3.75
 44
1.25
 73
     0
 74
     0
 77
     1
 78
     8
140
2.5
141
2.5
143
0.03937007874016
147
0.625
171
     3
172
     1
271
     2
272
     2
274
     3
278
    44
283
     0
284
     8
340
11
  0
ENDTAB
  0
TABLE
  2
BLOCK_RECORD
  5
1
330
0
100
AcDbSymbolTable
 70
     1
  0
BLOCK_RECORD
  5
1F
330
1
100
AcDbSymbolTableRecord
100
AcDbBlockTableRecord
  2
*Model_Space
340
22
  0
BLOCK_RECORD
  5
1B
330
1
100
AcDbSymbolTableRecord
100
AcDbBlockTableRecord
  2
*Paper_Space
340
1E
  0
BLOCK_RECORD
  5
23
330
1
100
AcDbSymbolTableRecord
100
AcDbBlockTableRecord
  2
*Paper_Space0
340
26
  0
ENDTAB
  0
ENDSEC
  0
SECTION
  2
BLOCKS
  0
BLOCK
  5
20
330
1F
100
AcDbEntity
  8
0
100
AcDbBlockBegin
  2
*Model_Space
 70
     0
 10
0.0
 20
0.0
 30
0.0
  3
*Model_Space
  1

  0
ENDBLK
  5
21
330
1F
100
AcDbEntity
  8
0
100
AcDbBlockEnd
  0
BLOCK
  5
1C
330
1B
100
AcDbEntity
 67
     1
  8
0
100
AcDbBlockBegin
  2
*Paper_Space
 70
     0
 10
0.0
 20
0.0
 30
0.0
  3
*Paper_Space
  1

  0
ENDBLK
  5
1D
330
1B
100
AcDbEntity
 67
     1
  8
0
100
AcDbBlockEnd
  0
BLOCK
  5
24
330
23
100
AcDbEntity
  8
0
100
AcDbBlockBegin
  2
*Paper_Space0
 70
     0
 10
0.0
 20
0.0
 30
0.0
  3
*Paper_Space0
  1

  0
ENDBLK
  5
25
330
23
100
AcDbEntity
  8
0
100
AcDbBlockEnd
  0
ENDSEC
  0
SECTION
  2
ENTITIES
  0
LINE
  5
4A
330
1F
100
AcDbEntity
  8
0-1
  6
JWW_DASHED3
 62
     2
370
     9
100
AcDbLine
 10
-148.6486692686339
 20
341.0058263830237
 30
0.0
 11
-148.6486692686339
 21
323.5991771801099
 31
0.0
  0
LINE
  5
4B
330
1F
100
AcDbEntity
  8
0-1
  6
JWW_DASHED3
 62
     2
370
     9
100
AcDbLine
 10
-158.8486954972551
 20
333.6237067145271
 30
0.0
 11
-158.8486954972551
 21
331.3237535631334
 31
0.0
  0
LINE
  5
4C
330
1F
100
AcDbEntity
  8
0-1
  6
JWW_DASHED3
 62
     2
370
     9
100
AcDbLine
 10
-142.6486865894213
 20
338.6237232105152
 30
0.0
 11
-129.6486931878167
 21
338.6237232105152
 31
0.0
  0
LINE
  5
4D
330
1F
100
AcDbEntity
  8
0-1
  6
Continuous
 62
     2
370
     9
100
AcDbLine
 10
-127.6486371014569
 20
361.6237496040964
 30
0.0
 11
-127.6486371014569
 21
340.623779296875
 31
0.0
  0
LINE
  5
4E
330
1F
100
AcDbEntity
  8
0-1
  6
Continuous
 62
     2
370
     9
100
AcDbLine
 10
-142.6486865894213
 20
363.6238056904562
 30
0.0
 11
-129.6486931878167
 21
363.6238056904562
 31
0.0
  0
LINE
  5
4F
330
1F
100
AcDbEntity
  8
0-1
  6
JWW_DASHED3
 62
     2
370
     9
100
AcDbLine
 10
-158.8486954972551
 20
333.6237067145271
 30
0.0
 11
-142.6486865894213
 21
333.6237067145271
 31
0.0
  0
LINE
  5
50
330
1F
100
AcDbEntity
  8
0-1
  6
JWW_DASHED3
 62
     2
370
     9
100
AcDbLine
 10
-158.8486954972551
 20
331.3237535631334
 30
0.0
 11
-142.3486658044763
 21
331.3237535631334
 31
0.0
  0
LINE
  5
51
330
1F
100
AcDbEntity
  8
0-1
  6
JWW_DASHED3
 62
     2
370
     9
100
AcDbLine
 10
-584.8486410604941
 20
331.3237535631334
 30
0.0
 11
-568.3486113677154
 21
331.3237535631334
 31
0.0
  0
LINE
  5
52
330
1F
100
AcDbEntity
  8
0-1
  6
JWW_DASHED3
 62
     2
370
     9
100
AcDbLine
 10
-584.8486410604941
 20
333.6237067145271
 30
0.0
 11
-568.6486321526604
 21
333.6237067145271
 31
0.0
  0
LINE
  5
53
330
1F
100
AcDbEntity
  8
0-2
  6
Continuous
 62
     3
370
     9
100
AcDbLine
 10
-661.6486420502533
 20
-272.3762141047297
 30
0.0
 11
-661.6486420502533
 21
327.6237858952703
 31
0.0
  0
LINE
  5
54
330
1F
100
AcDbEntity
  8
0-2
  6
Continuous
 62
     3
370
     9
100
AcDbLine
 10
-661.6486420502533
 20
327.6237858952703
 30
0.0
 11
-61.64864205025339
 21
327.6237858952703
 31
0.0
  0
LINE
  5
55
330
1F
100
AcDbEntity
  8
0-2
  6
Continuous
 62
     3
370
     9
100
AcDbLine
 10
-61.64864205025339
 20
327.6237858952703
 30
0.0
 11
-61.64864205025339
 21
-272.3762141047297
 31
0.0
  0
LINE
  5
56
330
1F
100
AcDbEntity
  8
0-2
  6
Continuous
 62
     3
370
     9
100
AcDbLine
 10
-61.64864205025339
 20
-272.3762141047297
 30
0.0
 11
-661.6486420502533
 21
-272.3762141047297
 31
0.0
  0
LINE
  5
57
330
1F
100
AcDbEntity
  8
0-1
  6
Continuous
 62
     2
370
     9
100
AcDbLine
 10
-60.64867586702903
 20
-273.3762421479096
 30
0.0
 11
-662.6486700934333
 21
-273.3762421479096
 31
0.0
  0
LINE
  5
58
330
1F
100
AcDbEntity
  8
0-1
  6
Continuous
 62
     2
370
     9
100
AcDbLine
 10
-60.64867586702903
 20
328.623690218539
 30
0.0
 11
-60.64867586702903
 21
-273.3762421479096
 31
0.0
  0
LINE
  5
59
330
1F
100
AcDbEntity
  8
0-1
  6
Continuous
 62
     2
370
     9
100
AcDbLine
 10
-662.6486700934333
 20
328.623690218539
 30
0.0
 11
-60.64867586702903
 21
328.623690218539
 31
0.0
  0
LINE
  5
5A
330
1F
100
AcDbEntity
  8
0-1
  6
Continuous
 62
     2
370
     9
100
AcDbLine
 10
-662.6486700934333
 20
-273.3762421479096
 30
0.0
 11
-662.6486700934333
 21
328.623690218539
 31
0.0
  0
LINE
  5
5B
330
1F
100
AcDbEntity
  8
0-1
  6
Continuous
 62
     2
370
     9
100
AcDbLine
 10
-674.6486354518581
 20
340.623779296875
 30
0.0
 11
-48.64864864864856
 21
340.623779296875
 31
0.0
  0
LINE
  5
5C
330
1F
100
AcDbEntity
  8
0-1
  6
Continuous
 62
     2
370
     9
100
AcDbLine
 10
-674.6486354518581
 20
-285.3762693662901
 30
0.0
 11
-674.6486354518581
 21
340.623779296875
 31
0.0
  0
LINE
  5
5D
330
1F
100
AcDbEntity
  8
0-1
  6
Continuous
 62
     2
370
     9
100
AcDbLine
 10
-48.64864864864856
 20
-285.3762693662901
 30
0.0
 11
-674.6486354518581
 21
-285.3762693662901
 31
0.0
  0
LINE
  5
5E
330
1F
100
AcDbEntity
  8
0-1
  6
Continuous
 62
     2
370
     9
100
AcDbLine
 10
-48.64864864864856
 20
340.623779296875
 30
0.0
 11
-48.64864864864856
 21
-285.3762693662901
 31
0.0
  0
LINE
  5
5F
330
1F
100
AcDbEntity
  8
0-1
  6
JWW_DASHED3
 62
     2
370
     9
100
AcDbLine
 10
-636.6486832902239
 20
302.6237034153294
 30
0.0
 11
-86.64866267023854
 21
302.6237034153294
 31
0.0
  0
LINE
  5
60
330
1F
100
AcDbEntity
  8
0-1
  6
JWW_DASHED3
 62
     2
370
     9
100
AcDbLine
 10
-636.6486832902239
 20
-247.3762553447001
 30
0.0
 11
-636.6486832902239
 21
302.6237034153294
 31
0.0
  0
LINE
  5
61
330
1F
100
AcDbEntity
  8
0-1
  6
JWW_DASHED3
 62
     2
370
     9
100
AcDbLine
 10
-86.64866267023854
 20
-247.3762553447001
 30
0.0
 11
-636.6486832902239
 21
-247.3762553447001
 31
0.0
  0
LINE
  5
62
330
1F
100
AcDbEntity
  8
0-1
  6
JWW_DASHED3
 62
     2
370
     9
100
AcDbLine
 10
-86.64866267023854
 20
302.6237034153294
 30
0.0
 11
-86.64866267023854
 21
-247.3762553447001
 31
0.0
  0
LINE
  5
63
330
1F
100
AcDbEntity
  8
0-2
  6
Continuous
 62
     3
370
     9
100
AcDbLine
 10
-656.6486255542651
 20
322.6237693992822
 30
0.0
 11
-66.64865854624153
 21
322.6237693992822
 31
0.0
  0
LINE
  5
64
330
1F
100
AcDbEntity
  8
0-2
  6
Continuous
 62
     3
370
     9
100
AcDbLine
 10
-656.6486255542651
 20
-267.3762594686972
 30
0.0
 11
-656.6486255542651
 21
322.6237693992822
 31
0.0
  0
LINE
  5
65
330
1F
100
AcDbEntity
  8
0-2
  6
Continuous
 62
     3
370
     9
100
AcDbLine
 10
-66.64865854624153
 20
-267.3762594686972
 30
0.0
 11
-656.6486255542651
 21
-267.3762594686972
 31
0.0
  0
LINE
  5
66
330
1F
100
AcDbEntity
  8
0-2
  6
Continuous
 62
     3
370
     9
100
AcDbLine
 10
-66.64865854624153
 20
322.6237693992822
 30
0.0
 11
-66.64865854624153
 21
-267.3762594686972
 31
0.0
  0
LINE
  5
67
330
1F
100
AcDbEntity
  8
0-1
  6
Continuous
 62
     2
370
     9
100
AcDbLine
 10
-568.6486321526604
 20
363.6238056904562
 30
0.0
 11
-555.6486696810335
 21
363.6238056904562
 31
0.0
  0
LINE
  5
68
330
1F
100
AcDbEntity
  8
0-1
  6
Continuous
 62
     2
370
     9
100
AcDbLine
 10
-553.6486445246516
 20
361.6237496040964
 30
0.0
 11
-553.6486445246516
 21
340.623779296875
 31
0.0
  0
LINE
  5
69
330
1F
100
AcDbEntity
  8
0-1
  6
JWW_DASHED3
 62
     2
370
     9
100
AcDbLine
 10
-568.6486321526604
 20
338.6237232105152
 30
0.0
 11
-555.6486696810335
 21
338.6237232105152
 31
0.0
  0
LINE
  5
6A
330
1F
100
AcDbEntity
  8
0-1
  6
JWW_DASHED3
 62
     2
370
     9
100
AcDbLine
 10
-584.8486410604941
 20
333.6237067145271
 30
0.0
 11
-584.8486410604941
 21
331.3237535631334
 31
0.0
  0
LINE
  5
6B
330
1F
100
AcDbEntity
  8
0-1
  6
JWW_DASHED3
 62
     2
370
     9
100
AcDbLine
 10
-574.6486766918285
 20
341.0058263830237
 30
0.0
 11
-574.6486766918285
 21
323.5991771801099
 31
0.0
  0
LINE
  5
6C
330
1F
100
AcDbEntity
  8
0-1
  6
JWW_DASHED3
 62
     2
370
     9
100
AcDbLine
 10
-568.6486321526604
 20
340.623779296875
 30
0.0
 11
-568.6486321526604
 21
333.6237067145271
 31
0.0
  0
LINE
  5
6D
330
1F
100
AcDbEntity
  8
0-1
  6
JWW_DASHED3
 62
     2
370
     9
100
AcDbLine
 10
-566.3486480712891
 20
340.623779296875
 30
0.0
 11
-566.3486480712891
 21
333.3238096494933
 31
0.0
  0
LINE
  5
6E
330
1F
100
AcDbEntity
  8
0-1
  6
Continuous
 62
     2
370
     9
100
AcDbLine
 10
-568.6486321526604
 20
363.6238056904562
 30
0.0
 11
-568.6486321526604
 21
340.623779296875
 31
0.0
  0
LINE
  5
6F
330
1F
100
AcDbEntity
  8
0-1
  6
Continuous
 62
     2
370
     9
100
AcDbLine
 10
-566.3486480712891
 20
363.6238056904562
 30
0.0
 11
-566.3486480712891
 21
340.623779296875
 31
0.0
  0
LINE
  5
70
330
1F
100
AcDbEntity
  8
0-1
  6
JWW_DASHED3
 62
     2
370
     9
100
AcDbLine
 10
-142.6486865894213
 20
340.623779296875
 30
0.0
 11
-142.6486865894213
 21
333.6237067145271
 31
0.0
  0
LINE
  5
71
330
1F
100
AcDbEntity
  8
0-1
  6
JWW_DASHED3
 62
     2
370
     9
100
AcDbLine
 10
-140.3486715780721
 20
340.623779296875
 30
0.0
 11
-140.3486715780721
 21
333.3238096494933
 31
0.0
  0
LINE
  5
72
330
1F
100
AcDbEntity
  8
0-1
  6
Continuous
 62
     2
370
     9
100
AcDbLine
 10
-142.6486865894213
 20
363.6238056904562
 30
0.0
 11
-142.6486865894213
 21
340.623779296875
 31
0.0
  0
LINE
  5
73
330
1F
100
AcDbEntity
  8
0-1
  6
Continuous
 62
     2
370
     9
100
AcDbLine
 10
-140.3486715780721
 20
363.6238056904562
 30
0.0
 11
-140.3486715780721
 21
340.623779296875
 31
0.0
  0
LINE
  5
74
330
1F
100
AcDbEntity
  8
0-1
  6
JWW_DASHED3
 62
     2
370
     9
100
AcDbLine
 10
-675.0307443979624
 20
240.6237586768898
 30
0.0
 11
-657.6241570550042
 21
240.6237586768898
 31
0.0
  0
LINE
  5
75
330
1F
100
AcDbEntity
  8
0-1
  6
JWW_DASHED3
 62
     2
370
     9
100
AcDbLine
 10
-667.6486247294657
 20
230.4237324482686
 30
0.0
 11
-665.3486097181166
 21
230.4237324482686
 31
0.0
  0
LINE
  5
76
330
1F
100
AcDbEntity
  8
0-1
  6
JWW_DASHED3
 62
     2
370
     9
100
AcDbLine
 10
-672.6485793654983
 20
246.6236794961466
 30
0.0
 11
-672.6485793654983
 21
259.623734757707
 31
0.0
  0
LINE
  5
77
330
1F
100
AcDbEntity
  8
0-1
  6
Continuous
 62
     2
370
     9
100
AcDbLine
 10
-695.6486057590794
 20
261.623728984111
 30
0.0
 11
-674.6485735919023
 21
261.623728984111
 31
0.0
  0
LINE
  5
78
330
1F
100
AcDbEntity
  8
0-1
  6
Continuous
 62
     2
370
     9
100
AcDbLine
 10
-697.6485999854835
 20
246.6236794961466
 30
0.0
 11
-697.6485999854835
 21
259.623734757707
 31
0.0
  0
LINE
  5
79
330
1F
100
AcDbEntity
  8
0-1
  6
JWW_DASHED3
 62
     2
370
     9
100
AcDbLine
 10
-667.6486247294657
 20
230.4237324482686
 30
0.0
 11
-667.6486247294657
 21
246.6236794961466
 31
0.0
  0
LINE
  5
7A
330
1F
100
AcDbEntity
  8
0-1
  6
JWW_DASHED3
 62
     2
370
     9
100
AcDbLine
 10
-665.3486097181166
 20
230.4237324482686
 30
0.0
 11
-665.3486097181166
 21
246.9237002810917
 31
0.0
  0
LINE
  5
7B
330
1F
100
AcDbEntity
  8
0-1
  6
JWW_DASHED3
 62
     2
370
     9
100
AcDbLine
 10
-665.3486097181166
 20
-195.5762131149704
 30
0.0
 11
-665.3486097181166
 21
-179.0762452821473
 31
0.0
  0
LINE
  5
7C
330
1F
100
AcDbEntity
  8
0-1
  6
JWW_DASHED3
 62
     2
370
     9
100
AcDbLine
 10
-667.6486247294657
 20
-195.5762131149704
 30
0.0
 11
-667.6486247294657
 21
-179.3762042071368
 31
0.0
  0
LINE
  5
7D
330
1F
100
AcDbEntity
  8
0-1
  6
Continuous
 62
     2
370
     9
100
AcDbLine
 10
-697.6485999854835
 20
-179.3762042071368
 30
0.0
 11
-697.6485999854835
 21
-166.3762108055321
 31
0.0
  0
LINE
  5
7E
330
1F
100
AcDbEntity
  8
0-1
  6
Continuous
 62
     2
370
     9
100
AcDbLine
 10
-695.6486057590794
 20
-164.3762784390836
 30
0.0
 11
-674.6485735919023
 21
-164.3762784390836
 31
0.0
  0
LINE
  5
7F
330
1F
100
AcDbEntity
  8
0-1
  6
JWW_DASHED3
 62
     2
370
     9
100
AcDbLine
 10
-672.6485793654983
 20
-179.3762042071368
 30
0.0
 11
-672.6485793654983
 21
-166.3762108055321
 31
0.0
  0
LINE
  5
80
330
1F
100
AcDbEntity
  8
0-1
  6
JWW_DASHED3
 62
     2
370
     9
100
AcDbLine
 10
-667.6486247294657
 20
-195.5762131149704
 30
0.0
 11
-665.3486097181166
 21
-195.5762131149704
 31
0.0
  0
LINE
  5
81
330
1F
100
AcDbEntity
  8
0-1
  6
JWW_DASHED3
 62
     2
370
     9
100
AcDbLine
 10
-675.0307443979624
 20
-185.3762487463049
 30
0.0
 11
-657.6241570550042
 21
-185.3762487463049
 31
0.0
  0
LINE
  5
82
330
1F
100
AcDbEntity
  8
0-1
  6
JWW_DASHED3
 62
     2
370
     9
100
AcDbLine
 10
-674.6485735919023
 20
-179.3762042071368
 30
0.0
 11
-667.6486247294657
 21
-179.3762042071368
 31
0.0
  0
LINE
  5
83
330
1F
100
AcDbEntity
  8
0-1
  6
JWW_DASHED3
 62
     2
370
     9
100
AcDbLine
 10
-674.6485735919023
 20
-177.0762510557432
 30
0.0
 11
-667.3486039445207
 21
-177.0762510557432
 31
0.0
  0
LINE
  5
84
330
1F
100
AcDbEntity
  8
0-1
  6
Continuous
 62
     2
370
     9
100
AcDbLine
 10
-697.6485999854835
 20
-179.3762042071368
 30
0.0
 11
-674.6485735919023
 21
-179.3762042071368
 31
0.0
  0
LINE
  5
85
330
1F
100
AcDbEntity
  8
0-1
  6
Continuous
 62
     2
370
     9
100
AcDbLine
 10
-697.6485999854835
 20
-177.0762510557432
 30
0.0
 11
-674.6485735919023
 21
-177.0762510557432
 31
0.0
  0
LINE
  5
86
330
1F
100
AcDbEntity
  8
0-1
  6
JWW_DASHED3
 62
     2
370
     9
100
AcDbLine
 10
-674.6485735919023
 20
246.6236794961466
 30
0.0
 11
-667.6486247294657
 21
246.6236794961466
 31
0.0
  0
LINE
  5
87
330
1F
100
AcDbEntity
  8
0-1
  6
JWW_DASHED3
 62
     2
370
     9
100
AcDbLine
 10
-674.6485735919023
 20
248.9237563674514
 30
0.0
 11
-667.3486039445207
 21
248.9237563674514
 31
0.0
  0
LINE
  5
88
330
1F
100
AcDbEntity
  8
0-1
  6
Continuous
 62
     2
370
     9
100
AcDbLine
 10
-697.6485999854835
 20
246.6236794961466
 30
0.0
 11
-674.6485735919023
 21
246.6236794961466
 31
0.0
  0
LINE
  5
89
330
1F
100
AcDbEntity
  8
0-1
  6
Continuous
 62
     2
370
     9
100
AcDbLine
 10
-697.6485999854835
 20
248.9237563674514
 30
0.0
 11
-674.6485735919023
 21
248.9237563674514
 31
0.0
  0
LINE
  5
8A
330
1F
100
AcDbEntity
  8
0-1
  6
JWW_DASHED3
 62
     2
370
     9
100
AcDbLine
 10
-574.6486148318728
 20
-285.7583783123944
 30
0.0
 11
-574.6486148318728
 21
-268.3517291094805
 31
0.0
  0
LINE
  5
8B
330
1F
100
AcDbEntity
  8
0-1
  6
JWW_DASHED3
 62
     2
370
     9
100
AcDbLine
 10
-564.4486195332295
 20
-278.3762586438978
 30
0.0
 11
-564.4486195332295
 21
-276.0761817725929
 31
0.0
  0
LINE
  5
8C
330
1F
100
AcDbEntity
  8
0-1
  6
JWW_DASHED3
 62
     2
370
     9
100
AcDbLine
 10
-580.6485975110853
 20
-283.3761514199746
 30
0.0
 11
-593.6486527726456
 21
-283.3761514199746
 31
0.0
  0
LINE
  5
8D
330
1F
100
AcDbEntity
  8
0-1
  6
Continuous
 62
     2
370
     9
100
AcDbLine
 10
-595.6486469990498
 20
-306.3761778135557
 30
0.0
 11
-595.6486469990498
 21
-285.3762075063344
 31
0.0
  0
LINE
  5
8E
330
1F
100
AcDbEntity
  8
0-1
  6
Continuous
 62
     2
370
     9
100
AcDbLine
 10
-580.6485975110853
 20
-308.3762338999155
 30
0.0
 11
-593.6486527726456
 21
-308.3762338999155
 31
0.0
  0
LINE
  5
8F
330
1F
100
AcDbEntity
  8
0-1
  6
JWW_DASHED3
 62
     2
370
     9
100
AcDbLine
 10
-564.4486195332295
 20
-278.3762586438978
 30
0.0
 11
-580.6485975110853
 21
-278.3762586438978
 31
0.0
  0
LINE
  5
90
330
1F
100
AcDbEntity
  8
0-1
  6
JWW_DASHED3
 62
     2
370
     9
100
AcDbLine
 10
-564.4486195332295
 20
-276.0761817725929
 30
0.0
 11
-580.9486182960304
 21
-276.0761817725929
 31
0.0
  0
LINE
  5
91
330
1F
100
AcDbEntity
  8
0-1
  6
JWW_DASHED3
 62
     2
370
     9
100
AcDbLine
 10
-138.4486430400126
 20
-276.0761817725929
 30
0.0
 11
-154.9486108728357
 21
-276.0761817725929
 31
0.0
  0
LINE
  5
92
330
1F
100
AcDbEntity
  8
0-1
  6
JWW_DASHED3
 62
     2
370
     9
100
AcDbLine
 10
-138.4486430400126
 20
-278.3762586438978
 30
0.0
 11
-154.6486519478462
 21
-278.3762586438978
 31
0.0
  0
LINE
  5
93
330
1F
100
AcDbEntity
  8
0-1
  6
Continuous
 62
     2
370
     9
100
AcDbLine
 10
-154.6486519478462
 20
-308.3762338999155
 30
0.0
 11
-167.6486453494509
 21
-308.3762338999155
 31
0.0
  0
LINE
  5
94
330
1F
100
AcDbEntity
  8
0-1
  6
Continuous
 62
     2
370
     9
100
AcDbLine
 10
-169.6486395758551
 20
-306.3761778135557
 30
0.0
 11
-169.6486395758551
 21
-285.3762075063344
 31
0.0
  0
LINE
  5
95
330
1F
100
AcDbEntity
  8
0-1
  6
JWW_DASHED3
 62
     2
370
     9
100
AcDbLine
 10
-154.6486519478462
 20
-283.3761514199746
 30
0.0
 11
-167.6486453494509
 21
-283.3761514199746
 31
0.0
  0
LINE
  5
96
330
1F
100
AcDbEntity
  8
0-1
  6
JWW_DASHED3
 62
     2
370
     9
100
AcDbLine
 10
-138.4486430400126
 20
-278.3762586438978
 30
0.0
 11
-138.4486430400126
 21
-276.0761817725929
 31
0.0
  0
LINE
  5
97
330
1F
100
AcDbEntity
  8
0-1
  6
JWW_DASHED3
 62
     2
370
     9
100
AcDbLine
 10
-148.6486692686339
 20
-285.7583783123944
 30
0.0
 11
-148.6486692686339
 21
-268.3517291094805
 31
0.0
  0
LINE
  5
98
330
1F
100
AcDbEntity
  8
0-1
  6
JWW_DASHED3
 62
     2
370
     9
100
AcDbLine
 10
-154.6486519478462
 20
-285.3762075063344
 30
0.0
 11
-154.6486519478462
 21
-278.3762586438978
 31
0.0
  0
LINE
  5
99
330
1F
100
AcDbEntity
  8
0-1
  6
JWW_DASHED3
 62
     2
370
     9
100
AcDbLine
 10
-156.9486669591954
 20
-285.3762075063344
 30
0.0
 11
-156.9486669591954
 21
-278.0762378589527
 31
0.0
  0
LINE
  5
9A
330
1F
100
AcDbEntity
  8
0-1
  6
Continuous
 62
     2
370
     9
100
AcDbLine
 10
-154.6486519478462
 20
-308.3762338999155
 30
0.0
 11
-154.6486519478462
 21
-285.3762075063344
 31
0.0
  0
LINE
  5
9B
330
1F
100
AcDbEntity
  8
0-1
  6
Continuous
 62
     2
370
     9
100
AcDbLine
 10
-156.9486669591954
 20
-308.3762338999155
 30
0.0
 11
-156.9486669591954
 21
-285.3762075063344
 31
0.0
  0
LINE
  5
9C
330
1F
100
AcDbEntity
  8
0-1
  6
JWW_DASHED3
 62
     2
370
     9
100
AcDbLine
 10
-580.6485975110853
 20
-285.3762075063344
 30
0.0
 11
-580.6485975110853
 21
-278.3762586438978
 31
0.0
  0
LINE
  5
9D
330
1F
100
AcDbEntity
  8
0-1
  6
JWW_DASHED3
 62
     2
370
     9
100
AcDbLine
 10
-582.9486125224345
 20
-285.3762075063344
 30
0.0
 11
-582.9486125224345
 21
-278.0762378589527
 31
0.0
  0
LINE
  5
9E
330
1F
100
AcDbEntity
  8
0-1
  6
Continuous
 62
     2
370
     9
100
AcDbLine
 10
-580.6485975110853
 20
-308.3762338999155
 30
0.0
 11
-580.6485975110853
 21
-285.3762075063344
 31
0.0
  0
LINE
  5
9F
330
1F
100
AcDbEntity
  8
0-1
  6
Continuous
 62
     2
370
     9
100
AcDbLine
 10
-582.9486125224345
 20
-308.3762338999155
 30
0.0
 11
-582.9486125224345
 21
-285.3762075063344
 31
0.0
  0
LINE
  5
A0
330
1F
100
AcDbEntity
  8
0-1
  6
JWW_DASHED3
 62
     2
370
     9
100
AcDbLine
 10
-48.26653970254426
 20
-185.3762487463049
 30
0.0
 11
-65.67312704550247
 21
-185.3762487463049
 31
0.0
  0
LINE
  5
A1
330
1F
100
AcDbEntity
  8
0-1
  6
JWW_DASHED3
 62
     2
370
     9
100
AcDbLine
 10
-55.64865937104088
 20
-175.176160657728
 30
0.0
 11
-57.9486743823901
 21
-175.176160657728
 31
0.0
  0
LINE
  5
A2
330
1F
100
AcDbEntity
  8
0-1
  6
JWW_DASHED3
 62
     2
370
     9
100
AcDbLine
 10
-50.64870473500832
 20
-191.3761695655617
 30
0.0
 11
-50.64870473500832
 21
-204.3761629671664
 31
0.0
  0
LINE
  5
A3
330
1F
100
AcDbEntity
  8
0-1
  6
Continuous
 62
     2
370
     9
100
AcDbLine
 10
-27.64867834142734
 20
-206.3762190535262
 30
0.0
 11
-48.6487105086043
 21
-206.3762190535262
 31
0.0
  0
LINE
  5
A4
330
1F
100
AcDbEntity
  8
0-1
  6
Continuous
 62
     2
370
     9
100
AcDbLine
 10
-25.64868411502317
 20
-191.3761695655617
 30
0.0
 11
-25.64868411502317
 21
-204.3761629671664
 31
0.0
  0
LINE
  5
A5
330
1F
100
AcDbEntity
  8
0-1
  6
JWW_DASHED3
 62
     2
370
     9
100
AcDbLine
 10
-55.64865937104088
 20
-175.176160657728
 30
0.0
 11
-55.64865937104088
 21
-191.3761695655617
 31
0.0
  0
LINE
  5
A6
330
1F
100
AcDbEntity
  8
0-1
  6
JWW_DASHED3
 62
     2
370
     9
100
AcDbLine
 10
-57.9486743823901
 20
-175.176160657728
 30
0.0
 11
-57.9486743823901
 21
-191.6761903505067
 31
0.0
  0
LINE
  5
A7
330
1F
100
AcDbEntity
  8
0-1
  6
JWW_DASHED3
 62
     2
370
     9
100
AcDbLine
 10
-57.9486743823901
 20
250.8237230455553
 30
0.0
 11
-57.9486743823901
 21
234.323817072688
 31
0.0
  0
LINE
  5
A8
330
1F
100
AcDbEntity
  8
0-1
  6
JWW_DASHED3
 62
     2
370
     9
100
AcDbLine
 10
-55.64865937104088
 20
250.8237230455553
 30
0.0
 11
-55.64865937104088
 21
234.6237141377217
 31
0.0
  0
LINE
  5
A9
330
1F
100
AcDbEntity
  8
0-1
  6
Continuous
 62
     2
370
     9
100
AcDbLine
 10
-25.64868411502317
 20
234.6237141377217
 30
0.0
 11
-25.64868411502317
 21
221.6237825960727
 31
0.0
  0
LINE
  5
AA
330
1F
100
AcDbEntity
  8
0-1
  6
Continuous
 62
     2
370
     9
100
AcDbLine
 10
-27.64867834142734
 20
219.6237265097129
 30
0.0
 11
-48.6487105086043
 21
219.6237265097129
 31
0.0
  0
LINE
  5
AB
330
1F
100
AcDbEntity
  8
0-1
  6
JWW_DASHED3
 62
     2
370
     9
100
AcDbLine
 10
-50.64870473500832
 20
234.6237141377217
 30
0.0
 11
-50.64870473500832
 21
221.6237825960727
 31
0.0
  0
LINE
  5
AC
330
1F
100
AcDbEntity
  8
0-1
  6
JWW_DASHED3
 62
     2
370
     9
100
AcDbLine
 10
-55.64865937104088
 20
250.8237230455553
 30
0.0
 11
-57.9486743823901
 21
250.8237230455553
 31
0.0
  0
LINE
  5
AD
330
1F
100
AcDbEntity
  8
0-1
  6
JWW_DASHED3
 62
     2
370
     9
100
AcDbLine
 10
-48.26653970254426
 20
240.6237586768898
 30
0.0
 11
-65.67312704550247
 21
240.6237586768898
 31
0.0
  0
LINE
  5
AE
330
1F
100
AcDbEntity
  8
0-1
  6
JWW_DASHED3
 62
     2
370
     9
100
AcDbLine
 10
-48.6487105086043
 20
234.6237141377217
 30
0.0
 11
-55.64865937104088
 21
234.6237141377217
 31
0.0
  0
LINE
  5
AF
330
1F
100
AcDbEntity
  8
0-1
  6
JWW_DASHED3
 62
     2
370
     9
100
AcDbLine
 10
-48.6487105086043
 20
232.3236991263725
 30
0.0
 11
-55.94868015598607
 21
232.3236991263725
 31
0.0
  0
LINE
  5
B0
330
1F
100
AcDbEntity
  8
0-1
  6
Continuous
 62
     2
370
     9
100
AcDbLine
 10
-25.64868411502317
 20
234.6237141377217
 30
0.0
 11
-48.6487105086043
 21
234.6237141377217
 31
0.0
  0
LINE
  5
B1
330
1F
100
AcDbEntity
  8
0-1
  6
Continuous
 62
     2
370
     9
100
AcDbLine
 10
-25.64868411502317
 20
232.3236991263725
 30
0.0
 11
-48.6487105086043
 21
232.3236991263725
 31
0.0
  0
LINE
  5
B2
330
1F
100
AcDbEntity
  8
0-1
  6
JWW_DASHED3
 62
     2
370
     9
100
AcDbLine
 10
-48.6487105086043
 20
-191.3761695655617
 30
0.0
 11
-55.64865937104088
 21
-191.3761695655617
 31
0.0
  0
LINE
  5
B3
330
1F
100
AcDbEntity
  8
0-1
  6
JWW_DASHED3
 62
     2
370
     9
100
AcDbLine
 10
-48.6487105086043
 20
-193.6762464368665
 30
0.0
 11
-55.94868015598607
 21
-193.6762464368665
 31
0.0
  0
LINE
  5
B4
330
1F
100
AcDbEntity
  8
0-1
  6
Continuous
 62
     2
370
     9
100
AcDbLine
 10
-25.64868411502317
 20
-191.3761695655617
 30
0.0
 11
-48.6487105086043
 21
-191.3761695655617
 31
0.0
  0
LINE
  5
B5
330
1F
100
AcDbEntity
  8
0-1
  6
Continuous
 62
     2
370
     9
100
AcDbLine
 10
-25.64868411502317
 20
-193.6762464368665
 30
0.0
 11
-48.6487105086043
 21
-193.6762464368665
 31
0.0
  0
LINE
  5
B6
330
1F
100
AcDbEntity
  8
0-2
  6
Continuous
 62
     3
370
     9
100
AcDbLine
 10
-551.1485744167019
 20
-18.37626689189179
 30
0.0
 11
-582.1485777158995
 21
-18.37626689189179
 31
0.0
  0
LINE
  5
B7
330
1F
100
AcDbEntity
  8
0-2
  6
Continuous
 62
     3
370
     9
100
AcDbLine
 10
-549.1486111202755
 20
71.62378259607266
 30
0.0
 11
-549.1486111202755
 21
-16.37633452544335
 31
0.0
  0
LINE
  5
B8
330
1F
100
AcDbEntity
  8
0-2
  6
Continuous
 62
     3
370
     9
100
AcDbLine
 10
-584.1486338022593
 20
71.62378259607266
 30
0.0
 11
-584.1486338022593
 21
-16.37633452544335
 31
0.0
  0
LINE
  5
B9
330
1F
100
AcDbEntity
  8
0-2
  6
Continuous
 62
     3
370
     9
100
AcDbLine
 10
-582.1485777158995
 20
73.62383868243242
 30
0.0
 11
-551.1485744167019
 21
73.62383868243242
 31
0.0
  0
LINE
  5
BA
330
1F
100
AcDbEntity
  8
0-2
  6
Continuous
 62
     3
370
     9
100
AcDbLine
 10
-572.7487100137246
 20
58.02374762457774
 30
0.0
 11
-572.7487100137246
 21
-2.776299553948434
 31
0.0
  0
LINE
  5
BB
330
1F
100
AcDbEntity
  8
0-2
  6
Continuous
 62
     3
370
     9
100
AcDbLine
 10
-562.7486151617926
 20
60.22373508762669
 30
0.0
 11
-570.5487225506756
 21
60.22373508762669
 31
0.0
  0
LINE
  5
BC
330
1F
100
AcDbEntity
  8
0-2
  6
Continuous
 62
     3
370
     9
100
AcDbLine
 10
-562.7486151617926
 20
-4.976287016997389
 30
0.0
 11
-570.5487225506756
 21
-4.976287016997389
 31
0.0
  0
LINE
  5
BD
330
1F
100
AcDbEntity
  8
0-2
  6
Continuous
 62
     3
370
     9
100
AcDbLine
 10
-560.548751418655
 20
-2.776299553948434
 30
0.0
 11
-560.548751418655
 21
58.02374762457774
 31
0.0
  0
LINE
  5
BE
330
1F
100
AcDbEntity
  8
0-2
  6
JWW_CENTER1
 62
     3
370
     9
100
AcDbLine
 10
-588.461448050834
 20
27.62378589527032
 30
0.0
 11
-545.8025133287584
 21
27.62378589527032
 31
0.0
  0
LINE
  5
BF
330
1F
100
AcDbEntity
  8
0-2
  6
JWW_CENTER1
 62
     3
370
     9
100
AcDbLine
 10
-566.6486379262564
 20
-23.65564294763516
 30
0.0
 11
-566.6486379262564
 21
77.55479142472552
 31
0.0
  0
LINE
  5
C0
330
1F
100
AcDbEntity
  8
0-2
  6
Continuous
 62
     3
370
     9
100
AcDbLine
 10
-141.148582664696
 20
-18.37626689189179
 30
0.0
 11
-172.1485859638935
 21
-18.37626689189179
 31
0.0
  0
LINE
  5
C1
330
1F
100
AcDbEntity
  8
0-2
  6
Continuous
 62
     3
370
     9
100
AcDbLine
 10
-139.1485884382918
 20
71.62378259607266
 30
0.0
 11
-139.1485884382918
 21
-16.37633452544335
 31
0.0
  0
LINE
  5
C2
330
1F
100
AcDbEntity
  8
0-2
  6
Continuous
 62
     3
370
     9
100
AcDbLine
 10
-174.148703910209
 20
71.62378259607266
 30
0.0
 11
-174.148703910209
 21
-16.37633452544335
 31
0.0
  0
LINE
  5
C3
330
1F
100
AcDbEntity
  8
0-2
  6
Continuous
 62
     3
370
     9
100
AcDbLine
 10
-172.1485859638935
 20
73.62383868243242
 30
0.0
 11
-141.148582664696
 21
73.62383868243242
 31
0.0
  0
LINE
  5
C4
330
1F
100
AcDbEntity
  8
0-2
  6
Continuous
 62
     3
370
     9
100
AcDbLine
 10
-162.7487182617188
 20
58.02374762457774
 30
0.0
 11
-162.7487182617188
 21
-2.776299553948434
 31
0.0
  0
LINE
  5
C5
330
1F
100
AcDbEntity
  8
0-2
  6
Continuous
 62
     3
370
     9
100
AcDbLine
 10
-152.7486234097867
 20
60.22373508762669
 30
0.0
 11
-160.5486689387141
 21
60.22373508762669
 31
0.0
  0
LINE
  5
C6
330
1F
100
AcDbEntity
  8
0-2
  6
Continuous
 62
     3
370
     9
100
AcDbLine
 10
-152.7486234097867
 20
-4.976287016997389
 30
0.0
 11
-160.5486689387141
 21
-4.976287016997389
 31
0.0
  0
LINE
  5
C7
330
1F
100
AcDbEntity
  8
0-2
  6
Continuous
 62
     3
370
     9
100
AcDbLine
 10
-150.5487596666491
 20
-2.776299553948434
 30
0.0
 11
-150.5487596666491
 21
58.02374762457774
 31
0.0
  0
LINE
  5
C8
330
1F
100
AcDbEntity
  8
0-2
  6
JWW_CENTER1
 62
     3
370
     9
100
AcDbLine
 10
-178.4614562988281
 20
27.62378589527032
 30
0.0
 11
-135.8025215767525
 21
27.62378589527032
 31
0.0
  0
LINE
  5
C9
330
1F
100
AcDbEntity
  8
0-2
  6
JWW_CENTER1
 62
     3
370
     9
100
AcDbLine
 10
-156.6486461742504
 20
-23.65564294763516
 30
0.0
 11
-156.6486461742504
 21
77.55479142472552
 31
0.0
  0
LINE
  5
CA
330
1F
100
AcDbEntity
  8
0-4
  6
Continuous
 62
     7
370
     9
100
AcDbLine
 10
-490.5405405405405
 20
-377.6351351351351
 30
0.0
 11
-269.0232560441301
 21
-377.6351351351351
 31
0.0
  0
LINE
  5
CB
330
1F
100
AcDbEntity
  8
0-4
  6
Continuous
 62
     7
370
     9
100
AcDbLine
 10
-636.6486832902239
 20
394.3491507865288
 30
0.0
 11
-86.64866267023854
 21
394.3491507865288
 31
0.0
  0
LINE
  5
CC
330
1F
100
AcDbEntity
  8
0-4
  6
Continuous
 62
     7
370
     9
100
AcDbLine
 10
-636.6486832902239
 20
309.3236314928209
 30
0.0
 11
-636.6486832902239
 21
395.849130991343
 31
0.0
  0
LINE
  5
CD
330
1F
100
AcDbEntity
  8
0-4
  6
Continuous
 62
     7
370
     9
100
AcDbLine
 10
-86.64866267023854
 20
309.3236314928209
 30
0.0
 11
-86.64866267023854
 21
395.849130991343
 31
0.0
  0
LINE
  5
CE
330
1F
100
AcDbEntity
  8
0-4
  6
Continuous
 62
     7
370
     9
100
AcDbLine
 10
-661.6486420502533
 20
436.8619104333827
 30
0.0
 11
-61.64864205025339
 21
436.8619104333827
 31
0.0
  0
LINE
  5
CF
330
1F
100
AcDbEntity
  8
0-4
  6
Continuous
 62
     7
370
     9
100
AcDbLine
 10
-661.6486420502533
 20
336.6532361829604
 30
0.0
 11
-661.6486420502533
 21
438.3618906381969
 31
0.0
  0
LINE
  5
D0
330
1F
100
AcDbEntity
  8
0-4
  6
Continuous
 62
     7
370
     9
100
AcDbLine
 10
-61.64864205025339
 20
336.6532361829604
 30
0.0
 11
-61.64864205025339
 21
438.3618906381969
 31
0.0
  0
LINE
  5
D1
330
1F
100
AcDbEntity
  8
0-4
  6
Continuous
 62
     7
370
     9
100
AcDbLine
 10
-674.6486354518581
 20
474.4167183540964
 30
0.0
 11
-48.64864864864856
 21
474.4167183540964
 31
0.0
  0
LINE
  5
D2
330
1F
100
AcDbEntity
  8
0-4
  6
Continuous
 62
     7
370
     9
100
AcDbLine
 10
-674.6486354518581
 20
356.1526076858108
 30
0.0
 11
-674.6486354518581
 21
475.9166985589105
 31
0.0
  0
LINE
  5
D3
330
1F
100
AcDbEntity
  8
0-4
  6
Continuous
 62
     7
370
     9
100
AcDbLine
 10
-48.64864864864856
 20
356.1526076858108
 30
0.0
 11
-48.64864864864856
 21
475.9166985589105
 31
0.0
  0
LINE
  5
D4
330
1F
100
AcDbEntity
  8
0-4
  6
Continuous
 62
     7
370
     9
100
AcDbLine
 10
-728.3740688014675
 20
-247.3763172046558
 30
0.0
 11
-728.3740688014675
 21
302.6237034153294
 31
0.0
  0
LINE
  5
D5
330
1F
100
AcDbEntity
  8
0-4
  6
Continuous
 62
     7
370
     9
100
AcDbLine
 10
-643.3485495077596
 20
-247.3763172046558
 30
0.0
 11
-729.8740490062817
 21
-247.3763172046558
 31
0.0
  0
LINE
  5
D6
330
1F
100
AcDbEntity
  8
0-4
  6
Continuous
 62
     7
370
     9
100
AcDbLine
 10
-643.3485495077596
 20
302.6237034153294
 30
0.0
 11
-729.8740490062817
 21
302.6237034153294
 31
0.0
  0
LINE
  5
D7
330
1F
100
AcDbEntity
  8
0-4
  6
Continuous
 62
     7
370
     9
100
AcDbLine
 10
-770.8868284483214
 20
-272.3762759646854
 30
0.0
 11
-770.8868284483214
 21
327.6237858952703
 31
0.0
  0
LINE
  5
D8
330
1F
100
AcDbEntity
  8
0-4
  6
Continuous
 62
     7
370
     9
100
AcDbLine
 10
-670.678154197899
 20
-272.3762759646854
 30
0.0
 11
-772.3868086531355
 21
-272.3762759646854
 31
0.0
  0
LINE
  5
D9
330
1F
100
AcDbEntity
  8
0-4
  6
Continuous
 62
     7
370
     9
100
AcDbLine
 10
-670.678154197899
 20
327.6237858952703
 30
0.0
 11
-772.3868086531355
 21
327.6237858952703
 31
0.0
  0
LINE
  5
DA
330
1F
100
AcDbEntity
  8
0-4
  6
Continuous
 62
     7
370
     9
100
AcDbLine
 10
-808.441636369035
 20
-285.3762693662901
 30
0.0
 11
-808.441636369035
 21
340.623779296875
 31
0.0
  0
LINE
  5
DB
330
1F
100
AcDbEntity
  8
0-4
  6
Continuous
 62
     7
370
     9
100
AcDbLine
 10
-690.1775257007495
 20
-285.3762693662901
 30
0.0
 11
-809.9416165738492
 21
-285.3762693662901
 31
0.0
  0
LINE
  5
DC
330
1F
100
AcDbEntity
  8
0-4
  6
Continuous
 62
     7
370
     9
100
AcDbLine
 10
-690.1775257007495
 20
340.623779296875
 30
0.0
 11
-809.9416165738492
 21
340.623779296875
 31
0.0
  0
ARC
  5
DD
330
1F
100
AcDbEntity
  8
0-1
  6
JWW_DASHED3
 62
     2
370
     9
100
AcDbCircle
 10
-142.3486658044763
 20
333.3238096494933
 30
0.0
 40
1.999999904954756
100
AcDbArc
 50
270.0
 51
0.0
  0
ARC
  5
DE
330
1F
100
AcDbEntity
  8
0-1
  6
JWW_DASHED3
 62
     2
370
     9
100
AcDbCircle
 10
-129.6486931878167
 20
340.623779296875
 30
0.0
 40
1.999999904954756
100
AcDbArc
 50
270.0
 51
0.0
  0
ARC
  5
DF
330
1F
100
AcDbEntity
  8
0-1
  6
Continuous
 62
     2
370
     9
100
AcDbCircle
 10
-129.6486931878167
 20
361.6237496040964
 30
0.0
 40
1.999999904954756
100
AcDbArc
 50
0.0
 51
90.0
  0
ARC
  5
E0
330
1F
100
AcDbEntity
  8
0-1
  6
Continuous
 62
     2
370
     9
100
AcDbCircle
 10
-555.6486696810335
 20
361.6237496040964
 30
0.0
 40
1.999999904954756
100
AcDbArc
 50
0.0
 51
90.0
  0
ARC
  5
E1
330
1F
100
AcDbEntity
  8
0-1
  6
JWW_DASHED3
 62
     2
370
     9
100
AcDbCircle
 10
-555.6486696810335
 20
340.623779296875
 30
0.0
 40
1.999999904954756
100
AcDbArc
 50
270.0
 51
0.0
  0
ARC
  5
E2
330
1F
100
AcDbEntity
  8
0-1
  6
JWW_DASHED3
 62
     2
370
     9
100
AcDbCircle
 10
-568.3486113677154
 20
333.3238096494933
 30
0.0
 40
1.999999904954756
100
AcDbArc
 50
270.0
 51
0.0
  0
ARC
  5
E3
330
1F
100
AcDbEntity
  8
0-1
  6
JWW_DASHED3
 62
     2
370
     9
100
AcDbCircle
 10
-667.3486039445207
 20
246.9237002810917
 30
0.0
 40
1.999999904954756
100
AcDbArc
 50
0.0
 51
90.0
  0
ARC
  5
E4
330
1F
100
AcDbEntity
  8
0-1
  6
JWW_DASHED3
 62
     2
370
     9
100
AcDbCircle
 10
-674.6485735919023
 20
259.623734757707
 30
0.0
 40
1.999999904954756
100
AcDbArc
 50
0.0
 51
90.0
  0
ARC
  5
E5
330
1F
100
AcDbEntity
  8
0-1
  6
Continuous
 62
     2
370
     9
100
AcDbCircle
 10
-695.6486057590794
 20
259.623734757707
 30
0.0
 40
1.999999904954756
100
AcDbArc
 50
90.0
 51
180.0
  0
ARC
  5
E6
330
1F
100
AcDbEntity
  8
0-1
  6
Continuous
 62
     2
370
     9
100
AcDbCircle
 10
-695.6486057590794
 20
-166.3762108055321
 30
0.0
 40
1.999999904954756
100
AcDbArc
 50
90.0
 51
180.0
  0
ARC
  5
E7
330
1F
100
AcDbEntity
  8
0-1
  6
JWW_DASHED3
 62
     2
370
     9
100
AcDbCircle
 10
-674.6485735919023
 20
-166.3762108055321
 30
0.0
 40
1.999999904954756
100
AcDbArc
 50
0.0
 51
90.0
  0
ARC
  5
E8
330
1F
100
AcDbEntity
  8
0-1
  6
JWW_DASHED3
 62
     2
370
     9
100
AcDbCircle
 10
-667.3486039445207
 20
-179.0762452821473
 30
0.0
 40
1.999999904954756
100
AcDbArc
 50
0.0
 51
90.0
  0
ARC
  5
E9
330
1F
100
AcDbEntity
  8
0-1
  6
JWW_DASHED3
 62
     2
370
     9
100
AcDbCircle
 10
-580.9486182960304
 20
-278.0762378589527
 30
0.0
 40
1.999999904954756
100
AcDbArc
 50
90.0
 51
180.0
  0
ARC
  5
EA
330
1F
100
AcDbEntity
  8
0-1
  6
JWW_DASHED3
 62
     2
370
     9
100
AcDbCircle
 10
-593.6486527726456
 20
-285.3762075063344
 30
0.0
 40
1.999999904954756
100
AcDbArc
 50
90.0
 51
180.0
  0
ARC
  5
EB
330
1F
100
AcDbEntity
  8
0-1
  6
Continuous
 62
     2
370
     9
100
AcDbCircle
 10
-593.6486527726456
 20
-306.3761778135557
 30
0.0
 40
1.999999904954756
100
AcDbArc
 50
180.0
 51
270.0
  0
ARC
  5
EC
330
1F
100
AcDbEntity
  8
0-1
  6
Continuous
 62
     2
370
     9
100
AcDbCircle
 10
-167.6486453494509
 20
-306.3761778135557
 30
0.0
 40
1.999999904954756
100
AcDbArc
 50
180.0
 51
270.0
  0
ARC
  5
ED
330
1F
100
AcDbEntity
  8
0-1
  6
JWW_DASHED3
 62
     2
370
     9
100
AcDbCircle
 10
-167.6486453494509
 20
-285.3762075063344
 30
0.0
 40
1.999999904954756
100
AcDbArc
 50
90.0
 51
180.0
  0
ARC
  5
EE
330
1F
100
AcDbEntity
  8
0-1
  6
JWW_DASHED3
 62
     2
370
     9
100
AcDbCircle
 10
-154.9486108728357
 20
-278.0762378589527
 30
0.0
 40
1.999999904954756
100
AcDbArc
 50
90.0
 51
180.0
  0
ARC
  5
EF
330
1F
100
AcDbEntity
  8
0-1
  6
JWW_DASHED3
 62
     2
370
     9
100
AcDbCircle
 10
-55.94868015598607
 20
-191.6761903505067
 30
0.0
 40
1.999999904954756
100
AcDbArc
 50
180.0
 51
270.0
  0
ARC
  5
F0
330
1F
100
AcDbEntity
  8
0-1
  6
JWW_DASHED3
 62
     2
370
     9
100
AcDbCircle
 10
-48.6487105086043
 20
-204.3761629671664
 30
0.0
 40
1.999999904954756
100
AcDbArc
 50
180.0
 51
270.0
  0
ARC
  5
F1
330
1F
100
AcDbEntity
  8
0-1
  6
Continuous
 62
     2
370
     9
100
AcDbCircle
 10
-27.64867834142734
 20
-204.3761629671664
 30
0.0
 40
1.999999904954756
100
AcDbArc
 50
270.0
 51
0.0
  0
ARC
  5
F2
330
1F
100
AcDbEntity
  8
0-1
  6
Continuous
 62
     2
370
     9
100
AcDbCircle
 10
-27.64867834142734
 20
221.6237825960727
 30
0.0
 40
1.999999904954756
100
AcDbArc
 50
270.0
 51
0.0
  0
ARC
  5
F3
330
1F
100
AcDbEntity
  8
0-1
  6
JWW_DASHED3
 62
     2
370
     9
100
AcDbCircle
 10
-48.6487105086043
 20
221.6237825960727
 30
0.0
 40
1.999999904954756
100
AcDbArc
 50
180.0
 51
270.0
  0
ARC
  5
F4
330
1F
100
AcDbEntity
  8
0-1
  6
JWW_DASHED3
 62
     2
370
     9
100
AcDbCircle
 10
-55.94868015598607
 20
234.323817072688
 30
0.0
 40
1.999999904954756
100
AcDbArc
 50
180.0
 51
270.0
  0
ARC
  5
F5
330
1F
100
AcDbEntity
  8
0-2
  6
Continuous
 62
     3
370
     9
100
AcDbCircle
 10
-582.1485777158995
 20
-16.37633452544335
 30
0.0
 40
1.999999904954756
100
AcDbArc
 50
180.0
 51
270.0
  0
ARC
  5
F6
330
1F
100
AcDbEntity
  8
0-2
  6
Continuous
 62
     3
370
     9
100
AcDbCircle
 10
-551.1485744167019
 20
-16.37633452544335
 30
0.0
 40
1.999999904954756
100
AcDbArc
 50
270.0
 51
0.0
  0
ARC
  5
F7
330
1F
100
AcDbEntity
  8
0-2
  6
Continuous
 62
     3
370
     9
100
AcDbCircle
 10
-551.1485744167019
 20
71.62378259607266
 30
0.0
 40
1.999999904954756
100
AcDbArc
 50
0.0
 51
90.0
  0
ARC
  5
F8
330
1F
100
AcDbEntity
  8
0-2
  6
Continuous
 62
     3
370
     9
100
AcDbCircle
 10
-582.1485777158995
 20
71.62378259607266
 30
0.0
 40
1.999999904954756
100
AcDbArc
 50
90.0
 51
180.0
  0
ARC
  5
F9
330
1F
100
AcDbEntity
  8
0-2
  6
Continuous
 62
     3
370
     9
100
AcDbCircle
 10
-570.5487225506756
 20
-2.776299553948434
 30
0.0
 40
2.20000002835248
100
AcDbArc
 50
180.0
 51
270.0
  0
ARC
  5
FA
330
1F
100
AcDbEntity
  8
0-2
  6
Continuous
 62
     3
370
     9
100
AcDbCircle
 10
-570.5487225506756
 20
58.02374762457774
 30
0.0
 40
2.20000002835248
100
AcDbArc
 50
90.0
 51
180.0
  0
ARC
  5
FB
330
1F
100
AcDbEntity
  8
0-2
  6
Continuous
 62
     3
370
     9
100
AcDbCircle
 10
-562.7486151617926
 20
58.02374762457774
 30
0.0
 40
2.20000002835248
100
AcDbArc
 50
0.0
 51
90.0
  0
ARC
  5
FC
330
1F
100
AcDbEntity
  8
0-2
  6
Continuous
 62
     3
370
     9
100
AcDbCircle
 10
-562.7486151617926
 20
-2.776299553948434
 30
0.0
 40
2.20000002835248
100
AcDbArc
 50
270.0
 51
0.0
  0
ARC
  5
FD
330
1F
100
AcDbEntity
  8
0-2
  6
Continuous
 62
     3
370
     9
100
AcDbCircle
 10
-566.6486379262564
 20
27.62378589527032
 30
0.0
 40
12.49999871125092
100
AcDbArc
 50
299.2091369628906
 51
60.7908630371094
  0
ARC
  5
FE
330
1F
100
AcDbEntity
  8
0-2
  6
Continuous
 62
     3
370
     9
100
AcDbCircle
 10
-566.6486379262564
 20
27.62378589527032
 30
0.0
 40
12.49999871125092
100
AcDbArc
 50
119.2092742919922
 51
240.7907257080078
  0
ARC
  5
FF
330
1F
100
AcDbEntity
  8
0-2
  6
Continuous
 62
     3
370
     9
100
AcDbCircle
 10
-172.1485859638935
 20
-16.37633452544335
 30
0.0
 40
1.999999904954756
100
AcDbArc
 50
180.0
 51
270.0
  0
ARC
  5
100
330
1F
100
AcDbEntity
  8
0-2
  6
Continuous
 62
     3
370
     9
100
AcDbCircle
 10
-141.148582664696
 20
-16.37633452544335
 30
0.0
 40
1.999999904954756
100
AcDbArc
 50
270.0
 51
0.0
  0
ARC
  5
101
330
1F
100
AcDbEntity
  8
0-2
  6
Continuous
 62
     3
370
     9
100
AcDbCircle
 10
-141.148582664696
 20
71.62378259607266
 30
0.0
 40
1.999999904954756
100
AcDbArc
 50
0.0
 51
90.0
  0
ARC
  5
102
330
1F
100
AcDbEntity
  8
0-2
  6
Continuous
 62
     3
370
     9
100
AcDbCircle
 10
-172.1485859638935
 20
71.62378259607266
 30
0.0
 40
1.999999904954756
100
AcDbArc
 50
90.0
 51
180.0
  0
ARC
  5
103
330
1F
100
AcDbEntity
  8
0-2
  6
Continuous
 62
     3
370
     9
100
AcDbCircle
 10
-160.5486689387141
 20
-2.776299553948434
 30
0.0
 40
2.20000002835248
100
AcDbArc
 50
180.0
 51
270.0
  0
ARC
  5
104
330
1F
100
AcDbEntity
  8
0-2
  6
Continuous
 62
     3
370
     9
100
AcDbCircle
 10
-160.5486689387141
 20
58.02374762457774
 30
0.0
 40
2.20000002835248
100
AcDbArc
 50
90.0
 51
180.0
  0
ARC
  5
105
330
1F
100
AcDbEntity
  8
0-2
  6
Continuous
 62
     3
370
     9
100
AcDbCircle
 10
-152.7486234097867
 20
58.02374762457774
 30
0.0
 40
2.20000002835248
100
AcDbArc
 50
0.0
 51
90.0
  0
ARC
  5
106
330
1F
100
AcDbEntity
  8
0-2
  6
Continuous
 62
     3
370
     9
100
AcDbCircle
 10
-152.7486234097867
 20
-2.776299553948434
 30
0.0
 40
2.20000002835248
100
AcDbArc
 50
270.0
 51
0.0
  0
ARC
  5
107
330
1F
100
AcDbEntity
  8
0-2
  6
Continuous
 62
     3
370
     9
100
AcDbCircle
 10
-156.6486461742504
 20
27.62378589527032
 30
0.0
 40
12.49999871125092
100
AcDbArc
 50
299.2091369628906
 51
60.7908630371094
  0
ARC
  5
108
330
1F
100
AcDbEntity
  8
0-2
  6
Continuous
 62
     3
370
     9
100
AcDbCircle
 10
-156.6486461742504
 20
27.62378589527032
 30
0.0
 40
12.49999871125092
100
AcDbArc
 50
119.2092742919922
 51
240.7907257080078
  0
TEXT
  5
109
330
1F
100
AcDbEntity
  8
0-4
  6
Continuous
 62
     2
370
     9
100
AcDbText
 10
-480.2983361321526
 20
-370.5846564875422
 30
0.0
 40
15.24
  1
平面図　Ｓ＝１：５
 41
1.111111111111111
  7
ＭＳ ゴシック
100
AcDbText
  0
TEXT
  5
10A
330
1F
100
AcDbEntity
  8
0-4
  6
Continuous
 62
     2
370
     9
100
AcDbText
 10
-377.8987039102091
 20
399.6691590345229
 30
0.0
 40
15.24
  1
550
 41
1.083333333333333
  7
ＭＳ ゴシック
100
AcDbText
  0
TEXT
  5
10B
330
1F
100
AcDbEntity
  8
0-4
  6
Continuous
 62
     2
370
     9
100
AcDbText
 10
-377.8986420502533
 20
442.1819186813767
 30
0.0
 40
15.24
  1
600
 41
1.083333333333333
  7
ＭＳ ゴシック
100
AcDbText
  0
TEXT
  5
10C
330
1F
100
AcDbEntity
  8
0-4
  6
Continuous
 62
     2
370
     9
100
AcDbText
 10
-377.8986420502533
 20
479.7367266020905
 30
0.0
 40
15.24
  1
626
 41
1.083333333333333
  7
ＭＳ ゴシック
100
AcDbText
  0
TEXT
  5
10D
330
1F
100
AcDbEntity
  8
0-4
  6
Continuous
 62
     2
370
     9
100
AcDbText
 10
-733.6940770494616
 20
11.37366217535899
 30
0.0
 40
15.24
  1
550
 50
90.0
 41
1.083333333333333
  7
ＭＳ ゴシック
100
AcDbText
  0
TEXT
  5
10E
330
1F
100
AcDbEntity
  8
0-4
  6
Continuous
 62
     2
370
     9
100
AcDbText
 10
-776.2068366963155
 20
11.37372403531465
 30
0.0
 40
15.24
  1
600
 50
90.0
 41
1.083333333333333
  7
ＭＳ ゴシック
100
AcDbText
  0
TEXT
  5
10F
330
1F
100
AcDbEntity
  8
0-4
  6
Continuous
 62
     2
370
     9
100
AcDbText
 10
-813.7616446170292
 20
11.37372403531465
 30
0.0
 40
15.24
  1
626
 50
90.0
 41
1.083333333333333
  7
ＭＳ ゴシック
100
AcDbText
  0
LWPOLYLINE
  5
110
330
1F
100
AcDbEntity
  8
0-4
  6
Continuous
 62
     7
370
     9
100
AcDbPolyline
 90
        4
 70
     1
 43
0.5
 10
-636.3986832902239
 20
394.3491507865288
 42
0.4142135623731
 10
-636.6486832902239
 20
394.5991507865288
 42
0.4142135623731
 10
-636.8986832902239
 20
394.3491507865288
 42
0.4142135623731
 10
-636.6486832902239
 20
394.0991507865288
 42
0.4142135623731
  0
LWPOLYLINE
  5
111
330
1F
100
AcDbEntity
  8
0-4
  6
Continuous
 62
     7
370
     9
100
AcDbPolyline
 90
        4
 70
     1
 43
0.5
 10
-86.39866267023854
 20
394.3491507865288
 42
0.4142135623731
 10
-86.64866267023854
 20
394.5991507865288
 42
0.4142135623731
 10
-86.89866267023854
 20
394.3491507865288
 42
0.4142135623731
 10
-86.64866267023854
 20
394.0991507865288
 42
0.4142135623731
  0
LWPOLYLINE
  5
112
330
1F
100
AcDbEntity
  8
0-4
  6
Continuous
 62
     7
370
     9
100
AcDbPolyline
 90
        4
 70
     1
 43
0.5
 10
-661.3986420502533
 20
436.8619104333827
 42
0.4142135623731
 10
-661.6486420502533
 20
437.1119104333827
 42
0.4142135623731
 10
-661.8986420502534
 20
436.8619104333827
 42
0.4142135623731
 10
-661.6486420502533
 20
436.6119104333827
 42
0.4142135623731
  0
LWPOLYLINE
  5
113
330
1F
100
AcDbEntity
  8
0-4
  6
Continuous
 62
     7
370
     9
100
AcDbPolyline
 90
        4
 70
     1
 43
0.5
 10
-61.39864205025339
 20
436.8619104333827
 42
0.4142135623731
 10
-61.64864205025339
 20
437.1119104333827
 42
0.4142135623731
 10
-61.89864205025339
 20
436.8619104333827
 42
0.4142135623731
 10
-61.64864205025339
 20
436.6119104333827
 42
0.4142135623731
  0
LWPOLYLINE
  5
114
330
1F
100
AcDbEntity
  8
0-4
  6
Continuous
 62
     7
370
     9
100
AcDbPolyline
 90
        4
 70
     1
 43
0.5
 10
-674.398635451858
 20
474.4167183540964
 42
0.4142135623731
 10
-674.6486354518581
 20
474.6667183540964
 42
0.4142135623731
 10
-674.8986354518581
 20
474.4167183540964
 42
0.4142135623731
 10
-674.6486354518581
 20
474.1667183540964
 42
0.4142135623731
  0
LWPOLYLINE
  5
115
330
1F
100
AcDbEntity
  8
0-4
  6
Continuous
 62
     7
370
     9
100
AcDbPolyline
 90
        4
 70
     1
 43
0.5
 10
-48.39864864864856
 20
474.4167183540964
 42
0.4142135623731
 10
-48.64864864864856
 20
474.6667183540964
 42
0.4142135623731
 10
-48.89864864864856
 20
474.4167183540964
 42
0.4142135623731
 10
-48.64864864864856
 20
474.1667183540964
 42
0.4142135623731
  0
LWPOLYLINE
  5
116
330
1F
100
AcDbEntity
  8
0-4
  6
Continuous
 62
     7
370
     9
100
AcDbPolyline
 90
        4
 70
     1
 43
0.5
 10
-728.1240688014674
 20
-247.3763172046558
 42
0.4142135623731
 10
-728.3740688014675
 20
-247.1263172046558
 42
0.4142135623731
 10
-728.6240688014675
 20
-247.3763172046558
 42
0.4142135623731
 10
-728.3740688014675
 20
-247.6263172046558
 42
0.4142135623731
  0
LWPOLYLINE
  5
117
330
1F
100
AcDbEntity
  8
0-4
  6
Continuous
 62
     7
370
     9
100
AcDbPolyline
 90
        4
 70
     1
 43
0.5
 10
-728.1240688014674
 20
302.6237034153294
 42
0.4142135623731
 10
-728.3740688014675
 20
302.8737034153294
 42
0.4142135623731
 10
-728.6240688014675
 20
302.6237034153294
 42
0.4142135623731
 10
-728.3740688014675
 20
302.3737034153294
 42
0.4142135623731
  0
LWPOLYLINE
  5
118
330
1F
100
AcDbEntity
  8
0-4
  6
Continuous
 62
     7
370
     9
100
AcDbPolyline
 90
        4
 70
     1
 43
0.5
 10
-770.6368284483212
 20
-272.3762759646854
 42
0.4142135623731
 10
-770.8868284483214
 20
-272.1262759646854
 42
0.4142135623731
 10
-771.1368284483215
 20
-272.3762759646854
 42
0.4142135623731
 10
-770.8868284483214
 20
-272.6262759646853
 42
0.4142135623731
  0
LWPOLYLINE
  5
119
330
1F
100
AcDbEntity
  8
0-4
  6
Continuous
 62
     7
370
     9
100
AcDbPolyline
 90
        4
 70
     1
 43
0.5
 10
-770.6368284483212
 20
327.6237858952703
 42
0.4142135623731
 10
-770.8868284483214
 20
327.8737858952703
 42
0.4142135623731
 10
-771.1368284483215
 20
327.6237858952703
 42
0.4142135623731
 10
-770.8868284483214
 20
327.3737858952703
 42
0.4142135623731
  0
LWPOLYLINE
  5
11A
330
1F
100
AcDbEntity
  8
0-4
  6
Continuous
 62
     7
370
     9
100
AcDbPolyline
 90
        4
 70
     1
 43
0.5
 10
-808.191636369035
 20
-285.3762693662901
 42
0.4142135623731
 10
-808.441636369035
 20
-285.1262693662901
 42
0.4142135623731
 10
-808.6916363690351
 20
-285.3762693662901
 42
0.4142135623731
 10
-808.441636369035
 20
-285.6262693662901
 42
0.4142135623731
  0
LWPOLYLINE
  5
11B
330
1F
100
AcDbEntity
  8
0-4
  6
Continuous
 62
     7
370
     9
100
AcDbPolyline
 90
        4
 70
     1
 43
0.5
 10
-808.191636369035
 20
340.623779296875
 42
0.4142135623731
 10
-808.441636369035
 20
340.873779296875
 42
0.4142135623731
 10
-808.6916363690351
 20
340.623779296875
 42
0.4142135623731
 10
-808.441636369035
 20
340.373779296875
 42
0.4142135623731
  0
LINE
  5
11C
330
1F
100
AcDbEntity
  8
D-2
  6
Continuous
 62
     3
370
     9
100
AcDbLine
 10
497.9772961538911
 20
387.8787231445312
 30
0.0
 11
497.9772961538911
 21
397.8786324165964
 31
0.0
  0
LINE
  5
11D
330
1F
100
AcDbEntity
  8
D-2
  6
Continuous
 62
     3
370
     9
100
AcDbLine
 10
495.4771641859856
 20
386.62878088049
 30
0.0
 11
497.9772961538911
 21
387.8787231445312
 31
0.0
  0
LINE
  5
11E
330
1F
100
AcDbEntity
  8
D-2
  6
Continuous
 62
     3
370
     9
100
AcDbLine
 10
495.4771641859856
 20
346.6286489125845
 30
0.0
 11
495.4771641859856
 21
386.62878088049
 31
0.0
  0
LINE
  5
11F
330
1F
100
AcDbEntity
  8
D-2
  6
Continuous
 62
     3
370
     9
100
AcDbLine
 10
497.9772961538911
 20
345.3785829286318
 30
0.0
 11
495.4771641859856
 21
346.6286489125845
 31
0.0
  0
LINE
  5
120
330
1F
100
AcDbEntity
  8
D-2
  6
Continuous
 62
     3
370
     9
100
AcDbLine
 10
490.4769002501747
 20
341.6286324165964
 30
0.0
 11
485.4771311940093
 21
341.6286324165964
 31
0.0
  0
LINE
  5
121
330
1F
100
AcDbEntity
  8
D-2
  6
Continuous
 62
     3
370
     9
100
AcDbLine
 10
490.4769002501747
 20
353.6287214949326
 30
0.0
 11
490.4769002501747
 21
341.6286324165964
 31
0.0
  0
LINE
  5
122
330
1F
100
AcDbEntity
  8
D-2
  6
Continuous
 62
     3
370
     9
100
AcDbLine
 10
457.9771641859856
 20
353.6287214949326
 30
0.0
 11
490.4769002501747
 21
353.6287214949326
 31
0.0
  0
LINE
  5
123
330
1F
100
AcDbEntity
  8
D-2
  6
Continuous
 62
     3
370
     9
100
AcDbLine
 10
457.9771641859856
 20
341.6286324165964
 30
0.0
 11
457.9771641859856
 21
353.6287214949326
 31
0.0
  0
LINE
  5
124
330
1F
100
AcDbEntity
  8
D-2
  6
Continuous
 62
     3
370
     9
100
AcDbLine
 10
462.9769332421512
 20
341.6286324165964
 30
0.0
 11
457.9771641859856
 21
341.6286324165964
 31
0.0
  0
LINE
  5
125
330
1F
100
AcDbEntity
  8
D-2
  6
Continuous
 62
     3
370
     9
100
AcDbLine
 10
422.9772961538911
 20
347.3786390149917
 30
0.0
 11
452.9769002501747
 21
347.3786390149917
 31
0.0
  0
LINE
  5
126
330
1F
100
AcDbEntity
  8
D-2
  6
Continuous
 62
     3
370
     9
100
AcDbLine
 10
422.9772961538911
 20
352.3786555109798
 30
0.0
 11
422.9772961538911
 21
347.3786390149917
 31
0.0
  0
LINE
  5
127
330
1F
100
AcDbEntity
  8
D-2
  6
Continuous
 62
     3
370
     9
100
AcDbLine
 10
452.9769002501747
 20
352.3786555109798
 30
0.0
 11
191.2746462383504
 21
352.3786555109798
 31
0.0
  0
LINE
  5
128
330
1F
100
AcDbEntity
  8
D-2
  6
Continuous
 62
     3
370
     9
100
AcDbLine
 10
452.9769002501747
 20
360.3786324165964
 30
0.0
 11
452.9769002501747
 21
352.3786555109798
 31
0.0
  0
LINE
  5
129
330
1F
100
AcDbEntity
  8
D-2
  6
Continuous
 62
     3
370
     9
100
AcDbLine
 10
490.4769002501747
 20
358.6287379909207
 30
0.0
 11
452.9769002501747
 21
358.6287379909207
 31
0.0
  0
LINE
  5
12A
330
1F
100
AcDbEntity
  8
D-2
  6
Continuous
 62
     3
370
     9
100
AcDbLine
 10
490.4769002501747
 20
391.6286736565668
 30
0.0
 11
490.4769002501747
 21
358.6287379909207
 31
0.0
  0
LINE
  5
12B
330
1F
100
AcDbEntity
  8
D-2
  6
Continuous
 62
     3
370
     9
100
AcDbLine
 10
485.4771311940093
 20
391.6286736565668
 30
0.0
 11
490.4769002501747
 21
391.6286736565668
 31
0.0
  0
LINE
  5
12C
330
1F
100
AcDbEntity
  8
D-2
  6
Continuous
 62
     3
370
     9
100
AcDbLine
 10
485.4771311940093
 20
397.8786324165964
 30
0.0
 11
485.4771311940093
 21
360.3786324165964
 31
0.0
  0
LINE
  5
12D
330
1F
100
AcDbEntity
  8
D-2
  6
Continuous
 62
     3
370
     9
100
AcDbLine
 10
497.9772961538911
 20
397.8786324165964
 30
0.0
 11
191.2746462383504
 21
397.8786324165964
 31
0.0
  0
LINE
  5
12E
330
1F
100
AcDbEntity
  8
D-2
  6
Continuous
 62
     3
370
     9
100
AcDbLine
 10
485.4771311940093
 20
360.3786324165964
 30
0.0
 11
191.2746462383504
 21
360.3786324165964
 31
0.0
  0
LINE
  5
12F
330
1F
100
AcDbEntity
  8
D-2
  6
Continuous
 62
     3
370
     9
100
AcDbLine
 10
485.4771311940093
 20
367.87878088049
 30
0.0
 11
191.2746462383504
 21
367.87878088049
 31
0.0
  0
LINE
  5
130
330
1F
100
AcDbEntity
  8
D-2
  6
Continuous
 62
     3
370
     9
100
AcDbLine
 10
485.4771311940093
 20
375.3786819045608
 30
0.0
 11
191.2746462383504
 21
375.3786819045608
 31
0.0
  0
LINE
  5
131
330
1F
100
AcDbEntity
  8
D-2
  6
Continuous
 62
     3
370
     9
100
AcDbLine
 10
485.4771311940093
 20
382.8788303684544
 30
0.0
 11
191.2746462383504
 21
382.8788303684544
 31
0.0
  0
LINE
  5
132
330
1F
100
AcDbEntity
  8
D-2
  6
Continuous
 62
     3
370
     9
100
AcDbLine
 10
485.4771311940093
 20
390.3787313925254
 30
0.0
 11
191.2746462383504
 21
390.3787313925254
 31
0.0
  0
LINE
  5
133
330
1F
100
AcDbEntity
  8
D-2
  6
Continuous
 62
     3
370
     9
100
AcDbLine
 10
452.9769002501747
 20
355.0453144795187
 30
0.0
 11
191.2746462383504
 21
355.0453144795187
 31
0.0
  0
LINE
  5
134
330
1F
100
AcDbEntity
  8
D-2
  6
Continuous
 62
     3
370
     9
100
AcDbLine
 10
452.9769002501747
 20
357.7120971679688
 30
0.0
 11
191.2746462383504
 21
357.7120971679688
 31
0.0
  0
LINE
  5
135
330
1F
100
AcDbEntity
  8
D-1
  6
JWW_DASHED3
 62
     2
370
     9
100
AcDbLine
 10
512.9770982020331
 20
314.1286654085727
 30
0.0
 11
512.9770982020331
 21
339.1287478885135
 31
0.0
  0
LINE
  5
136
330
1F
100
AcDbEntity
  8
D-1
  6
Continuous
 62
     2
370
     9
100
AcDbLine
 10
530.4770322180801
 20
399.1286984005491
 30
0.0
 11
524.2271971779619
 21
402.8786489125845
 31
0.0
  0
LINE
  5
137
330
1F
100
AcDbEntity
  8
D-1
  6
Continuous
 62
     2
370
     9
100
AcDbLine
 10
524.2271971779619
 20
402.8786489125845
 30
0.0
 11
506.7272631619145
 21
402.8786489125845
 31
0.0
  0
LINE
  5
138
330
1F
100
AcDbEntity
  8
D-1
  6
Continuous
 62
     2
370
     9
100
AcDbLine
 10
506.7272631619145
 20
402.8786489125845
 30
0.0
 11
500.4769332421512
 21
397.8786324165964
 31
0.0
  0
LINE
  5
139
330
1F
100
AcDbEntity
  8
D-1
  6
Continuous
 62
     2
370
     9
100
AcDbLine
 10
500.4769332421512
 20
397.8786324165964
 30
0.0
 11
500.4769332421512
 21
332.8786654085727
 31
0.0
  0
LINE
  5
13A
330
1F
100
AcDbEntity
  8
D-1
  6
Continuous
 62
     2
370
     9
100
AcDbLine
 10
500.4769332421512
 20
332.8786654085727
 30
0.0
 11
479.2272961538911
 21
332.8786654085727
 31
0.0
  0
LINE
  5
13B
330
1F
100
AcDbEntity
  8
D-1
  6
Continuous
 62
     2
370
     9
100
AcDbLine
 10
479.2272961538911
 20
332.8786654085727
 30
0.0
 11
479.2272961538911
 21
329.1287148965372
 31
0.0
  0
LINE
  5
13C
330
1F
100
AcDbEntity
  8
D-1
  6
Continuous
 62
     2
370
     9
100
AcDbLine
 10
479.2272961538911
 20
329.1287148965372
 30
0.0
 11
483.6020322180801
 21
329.1287148965372
 31
0.0
  0
LINE
  5
13D
330
1F
100
AcDbEntity
  8
D-1
  6
Continuous
 62
     2
370
     9
100
AcDbLine
 10
483.6020322180801
 20
329.1287148965372
 30
0.0
 11
483.6020322180801
 21
316.6286736565668
 31
0.0
  0
LINE
  5
13E
330
1F
100
AcDbEntity
  8
D-1
  6
Continuous
 62
     2
370
     9
100
AcDbLine
 10
481.1019002501747
 20
314.1286654085727
 30
0.0
 11
468.7269398405463
 21
314.1286654085727
 31
0.0
  0
LINE
  5
13F
330
1F
100
AcDbEntity
  8
D-1
  6
Continuous
 62
     2
370
     9
100
AcDbLine
 10
452.3518672581984
 20
316.6286736565668
 30
0.0
 11
452.3518672581984
 21
329.1287148965372
 31
0.0
  0
LINE
  5
140
330
1F
100
AcDbEntity
  8
D-1
  6
Continuous
 62
     2
370
     9
100
AcDbLine
 10
452.3518672581984
 20
329.1287148965372
 30
0.0
 11
456.7270982020327
 21
329.1287148965372
 31
0.0
  0
LINE
  5
141
330
1F
100
AcDbEntity
  8
D-1
  6
Continuous
 62
     2
370
     9
100
AcDbLine
 10
456.7270982020327
 20
329.1287148965372
 30
0.0
 11
456.7270982020327
 21
332.8786654085727
 31
0.0
  0
LINE
  5
142
330
1F
100
AcDbEntity
  8
D-1
  6
Continuous
 62
     2
370
     9
100
AcDbLine
 10
435.4769662341275
 20
297.8786736565668
 30
0.0
 11
462.3519002501747
 21
297.8786736565668
 31
0.0
  0
LINE
  5
143
330
1F
100
AcDbEntity
  8
D-1
  6
Continuous
 62
     2
370
     9
100
AcDbLine
 10
462.3519002501747
 20
297.8786736565668
 30
0.0
 11
462.3519002501747
 21
301.6287478885135
 31
0.0
  0
LINE
  5
144
330
1F
100
AcDbEntity
  8
D-1
  6
Continuous
 62
     2
370
     9
100
AcDbLine
 10
462.3519002501747
 20
301.6287478885135
 30
0.0
 11
458.6021971779619
 21
301.6287478885135
 31
0.0
  0
LINE
  5
145
330
1F
100
AcDbEntity
  8
D-1
  6
Continuous
 62
     2
370
     9
100
AcDbLine
 10
458.6021971779619
 20
301.6287478885135
 30
0.0
 11
458.6021971779619
 21
310.3787148965372
 31
0.0
  0
LINE
  5
146
330
1F
100
AcDbEntity
  8
D-1
  6
Continuous
 62
     2
370
     9
100
AcDbLine
 10
477.3521971779619
 20
310.3787148965372
 30
0.0
 11
477.3521971779619
 21
301.6287478885135
 31
0.0
  0
LINE
  5
147
330
1F
100
AcDbEntity
  8
D-1
  6
Continuous
 62
     2
370
     9
100
AcDbLine
 10
477.3521971779619
 20
301.6287478885135
 30
0.0
 11
473.6019992261038
 21
301.6287478885135
 31
0.0
  0
LINE
  5
148
330
1F
100
AcDbEntity
  8
D-1
  6
Continuous
 62
     2
370
     9
100
AcDbLine
 10
473.6019992261038
 20
301.6287478885135
 30
0.0
 11
473.6019992261038
 21
297.8786736565668
 31
0.0
  0
LINE
  5
149
330
1F
100
AcDbEntity
  8
D-1
  6
Continuous
 62
     2
370
     9
100
AcDbLine
 10
473.6019992261038
 20
297.8786736565668
 30
0.0
 11
517.9768672581984
 21
297.8786736565668
 31
0.0
  0
LINE
  5
14A
330
1F
100
AcDbEntity
  8
D-1
  6
Continuous
 62
     2
370
     9
100
AcDbLine
 10
517.9768672581984
 20
297.8786736565668
 30
0.0
 11
517.9768672581984
 21
307.8788303684544
 31
0.0
  0
LINE
  5
14B
330
1F
100
AcDbEntity
  8
D-1
  6
Continuous
 62
     2
370
     9
100
AcDbLine
 10
517.9768672581984
 20
307.8788303684544
 30
0.0
 11
512.9770982020331
 21
307.8788303684544
 31
0.0
  0
LINE
  5
14C
330
1F
100
AcDbEntity
  8
D-1
  6
Continuous
 62
     2
370
     9
100
AcDbLine
 10
512.9770982020331
 20
314.1286654085727
 30
0.0
 11
512.9770982020331
 21
302.8785664326437
 31
0.0
  0
LINE
  5
14D
330
1F
100
AcDbEntity
  8
D-1
  6
Continuous
 62
     2
370
     9
100
AcDbLine
 10
512.9770982020331
 20
302.8785664326437
 30
0.0
 11
505.4771971779619
 21
302.8785664326437
 31
0.0
  0
LINE
  5
14E
330
1F
100
AcDbEntity
  8
D-1
  6
Continuous
 62
     2
370
     9
100
AcDbLine
 10
505.4771971779619
 20
302.8785664326437
 30
0.0
 11
505.4771971779619
 21
347.8787148965372
 31
0.0
  0
LINE
  5
14F
330
1F
100
AcDbEntity
  8
D-1
  6
Continuous
 62
     2
370
     9
100
AcDbLine
 10
505.4771971779619
 20
347.8787148965372
 30
0.0
 11
512.9770982020331
 21
347.8787148965372
 31
0.0
  0
LINE
  5
150
330
1F
100
AcDbEntity
  8
D-1
  6
Continuous
 62
     2
370
     9
100
AcDbLine
 10
512.9770982020331
 20
347.8787148965372
 30
0.0
 11
512.9770982020331
 21
339.1287478885135
 31
0.0
  0
LINE
  5
151
330
1F
100
AcDbEntity
  8
D-1
  6
Continuous
 62
     2
370
     9
100
AcDbLine
 10
512.9770982020331
 20
342.8786984005491
 30
0.0
 11
517.9768672581984
 21
342.8786984005491
 31
0.0
  0
LINE
  5
152
330
1F
100
AcDbEntity
  8
D-1
  6
Continuous
 62
     2
370
     9
100
AcDbLine
 10
517.9768672581984
 20
342.8786984005491
 30
0.0
 11
517.9768672581984
 21
352.8787313925254
 31
0.0
  0
LINE
  5
153
330
1F
100
AcDbEntity
  8
D-1
  6
Continuous
 62
     2
370
     9
100
AcDbLine
 10
517.9768672581984
 20
352.8787313925254
 30
0.0
 11
505.4771971779619
 21
352.8787313925254
 31
0.0
  0
LINE
  5
154
330
1F
100
AcDbEntity
  8
D-1
  6
Continuous
 62
     2
370
     9
100
AcDbLine
 10
505.4771971779619
 20
352.8787313925254
 30
0.0
 11
505.4771971779619
 21
395.4756205790753
 31
0.0
  0
LINE
  5
155
330
1F
100
AcDbEntity
  8
D-1
  6
Continuous
 62
     2
370
     9
100
AcDbLine
 10
500.4769332421512
 20
304.1286324165964
 30
0.0
 11
500.4769332421512
 21
326.6288303684544
 31
0.0
  0
LINE
  5
156
330
1F
100
AcDbEntity
  8
D-1
  6
Continuous
 62
     2
370
     9
100
AcDbLine
 10
497.9772961538911
 20
329.1287148965372
 30
0.0
 11
489.8518672581984
 21
329.1287148965372
 31
0.0
  0
LINE
  5
157
330
1F
100
AcDbEntity
  8
D-1
  6
Continuous
 62
     2
370
     9
100
AcDbLine
 10
487.3522301699382
 20
326.6288303684544
 30
0.0
 11
487.3522301699382
 21
316.6286736565668
 31
0.0
  0
LINE
  5
158
330
1F
100
AcDbEntity
  8
D-1
  6
Continuous
 62
     2
370
     9
100
AcDbLine
 10
477.3521971779619
 20
310.3787148965372
 30
0.0
 11
458.6021971779619
 21
310.3787148965372
 31
0.0
  0
LINE
  5
159
330
1F
100
AcDbEntity
  8
D-1
  6
Continuous
 62
     2
370
     9
100
AcDbLine
 10
483.6020322180801
 20
301.6287478885135
 30
0.0
 11
497.9772961538911
 21
301.6287478885135
 31
0.0
  0
LINE
  5
15A
330
1F
100
AcDbEntity
  8
D-1
  6
Continuous
 62
     2
370
     9
100
AcDbLine
 10
481.1019002501747
 20
310.3787148965372
 30
0.0
 11
481.1019002501747
 21
304.1286324165964
 31
0.0
  0
LINE
  5
15B
330
1F
100
AcDbEntity
  8
D-1
  6
Continuous
 62
     2
370
     9
100
AcDbLine
 10
446.1020322180801
 20
329.1287148965372
 30
0.0
 11
441.7272961538911
 21
329.1287148965372
 31
0.0
  0
LINE
  5
15C
330
1F
100
AcDbEntity
  8
D-1
  6
Continuous
 62
     2
370
     9
100
AcDbLine
 10
448.6021641859856
 20
316.6286736565668
 30
0.0
 11
448.6021641859856
 21
326.6288303684544
 31
0.0
  0
LINE
  5
15D
330
1F
100
AcDbEntity
  8
D-1
  6
Continuous
 62
     2
370
     9
100
AcDbLine
 10
439.2271641859856
 20
326.6288303684544
 30
0.0
 11
439.2271641859856
 21
304.1286324165964
 31
0.0
  0
LINE
  5
15E
330
1F
100
AcDbEntity
  8
D-1
  6
Continuous
 62
     2
370
     9
100
AcDbLine
 10
454.8519992261038
 20
304.1286324165964
 30
0.0
 11
454.8519992261038
 21
310.3787148965372
 31
0.0
  0
LINE
  5
15F
330
1F
100
AcDbEntity
  8
D-1
  6
Continuous
 62
     2
370
     9
100
AcDbLine
 10
441.7272961538911
 20
301.6287478885135
 30
0.0
 11
452.3518672581984
 21
301.6287478885135
 31
0.0
  0
LINE
  5
160
330
1F
100
AcDbEntity
  8
D-1
  6
Continuous
 62
     2
370
     9
100
AcDbLine
 10
468.7269398405463
 20
314.1286654085727
 30
0.0
 11
468.7269398405463
 21
313.3786753061656
 31
0.0
  0
LINE
  5
161
330
1F
100
AcDbEntity
  8
D-1
  6
Continuous
 62
     2
370
     9
100
AcDbLine
 10
468.7269398405463
 20
313.3786753061656
 30
0.0
 11
467.2269596357322
 21
313.3786753061656
 31
0.0
  0
LINE
  5
162
330
1F
100
AcDbEntity
  8
D-1
  6
Continuous
 62
     2
370
     9
100
AcDbLine
 10
467.2269596357322
 20
313.3786753061656
 30
0.0
 11
467.2269596357322
 21
314.1286654085727
 31
0.0
  0
LINE
  5
163
330
1F
100
AcDbEntity
  8
D-1
  6
Continuous
 62
     2
370
     9
100
AcDbLine
 10
467.2269596357322
 20
314.1286654085727
 30
0.0
 11
454.8519992261038
 21
314.1286654085727
 31
0.0
  0
LINE
  5
164
330
1F
100
AcDbEntity
  8
D-1
  6
Continuous
 62
     2
370
     9
100
AcDbLine
 10
525.4772631619145
 20
326.6288303684544
 30
0.0
 11
525.4772631619145
 21
334.3786456133869
 31
0.0
  0
LINE
  5
165
330
1F
100
AcDbEntity
  8
D-1
  6
Continuous
 62
     2
370
     9
100
AcDbLine
 10
435.4769662341275
 20
332.8786654085727
 30
0.0
 11
435.4769662341275
 21
297.8786736565668
 31
0.0
  0
LINE
  5
166
330
1F
100
AcDbEntity
  8
D-1
  6
Continuous
 62
     2
370
     9
100
AcDbLine
 10
475.477098202033
 20
325.3787643845017
 30
0.0
 11
475.477098202033
 21
332.8786654085727
 31
0.0
  0
LINE
  5
167
330
1F
100
AcDbEntity
  8
D-1
  6
Continuous
 62
     2
370
     9
100
AcDbLine
 10
460.4772961538911
 20
332.8786654085727
 30
0.0
 11
460.4772961538911
 21
325.3787643845017
 31
0.0
  0
LINE
  5
168
330
1F
100
AcDbEntity
  8
D-1
  6
Continuous
 62
     2
370
     9
100
AcDbLine
 10
478.6022631619145
 20
332.8774282094595
 30
0.0
 11
497.9772961538911
 21
332.8786654085727
 31
0.0
  0
LINE
  5
169
330
1F
100
AcDbEntity
  8
D-1
  6
Continuous
 62
     2
370
     9
100
AcDbLine
 10
478.6022631619145
 20
326.6288303684544
 30
0.0
 11
478.6022631619145
 21
332.8786654085727
 31
0.0
  0
LINE
  5
16A
330
1F
100
AcDbEntity
  8
D-1
  6
Continuous
 62
     2
370
     9
100
AcDbLine
 10
481.7274281217963
 20
326.6288303684544
 30
0.0
 11
478.6022631619145
 21
326.6288303684544
 31
0.0
  0
LINE
  5
16B
330
1F
100
AcDbEntity
  8
D-1
  6
Continuous
 62
     2
370
     9
100
AcDbLine
 10
481.7274281217963
 20
325.1284790039062
 30
0.0
 11
481.7274281217963
 21
326.6288303684544
 31
0.0
  0
LINE
  5
16C
330
1F
100
AcDbEntity
  8
D-1
  6
Continuous
 62
     2
370
     9
100
AcDbLine
 10
454.2269662341275
 20
326.6288303684544
 30
0.0
 11
454.2269662341275
 21
325.1284790039062
 31
0.0
  0
LINE
  5
16D
330
1F
100
AcDbEntity
  8
D-1
  6
Continuous
 62
     2
370
     9
100
AcDbLine
 10
457.3521311940093
 20
326.6288303684544
 30
0.0
 11
454.2269662341275
 21
326.6288303684544
 31
0.0
  0
LINE
  5
16E
330
1F
100
AcDbEntity
  8
D-1
  6
Continuous
 62
     2
370
     9
100
AcDbLine
 10
437.9770982020327
 20
335.3785499366555
 30
0.0
 11
437.9770982020327
 21
332.8786654085727
 31
0.0
  0
LINE
  5
16F
330
1F
100
AcDbEntity
  8
D-1
  6
Continuous
 62
     2
370
     9
100
AcDbLine
 10
497.9772961538911
 20
332.8786654085727
 30
0.0
 11
497.9772961538911
 21
335.3785499366555
 31
0.0
  0
LINE
  5
170
330
1F
100
AcDbEntity
  8
D-1
  6
Continuous
 62
     2
370
     9
100
AcDbLine
 10
587.9770982020331
 20
294.8785895270271
 30
0.0
 11
525.4772631619145
 21
294.8785895270271
 31
0.0
  0
LINE
  5
171
330
1F
100
AcDbEntity
  8
D-1
  6
Continuous
 62
     2
370
     9
100
AcDbLine
 10
524.0124194119145
 20
303.0930967588683
 30
0.0
 11
512.9770982020331
 21
314.1286654085727
 31
0.0
  0
LINE
  5
172
330
1F
100
AcDbEntity
  8
D-1
  6
Continuous
 62
     2
370
     9
100
AcDbLine
 10
525.4772631619145
 20
289.1288303684544
 30
0.0
 11
525.4772631619145
 21
299.5576765730574
 31
0.0
  0
LINE
  5
173
330
1F
100
AcDbEntity
  8
D-1
  6
Continuous
 62
     2
370
     9
100
AcDbLine
 10
587.9770982020331
 20
289.1288303684544
 30
0.0
 11
525.4772631619145
 21
289.1288303684544
 31
0.0
  0
LINE
  5
174
330
1F
100
AcDbEntity
  8
D-6
  6
Continuous
 62
     6
370
     5
100
AcDbLine
 10
511.9269635947695
 20
391.6286736565668
 30
0.0
 11
716.022752498908
 21
391.6286736565668
 31
0.0
  0
LINE
  5
175
330
1F
100
AcDbEntity
  8
D-6
  6
Continuous
 62
     6
370
     5
100
AcDbLine
 10
511.9269635947695
 20
385.3787148965372
 30
0.0
 11
716.022752498908
 21
385.3787148965372
 31
0.0
  0
LINE
  5
176
330
1F
100
AcDbEntity
  8
D-6
  6
Continuous
 62
     6
370
     5
100
AcDbLine
 10
645.0995710166444
 20
310.3787148965372
 30
0.0
 11
716.022752498908
 21
239.4555334142737
 31
0.0
  0
LINE
  5
177
330
1F
100
AcDbEntity
  8
D-6
  6
Continuous
 62
     6
370
     5
100
AcDbLine
 10
559.4933104592119
 20
260.3786736565668
 30
0.0
 11
646.9929805394484
 21
172.878694276552
 31
0.0
  0
LINE
  5
178
330
1F
100
AcDbEntity
  8
D-6
  6
Continuous
 62
     6
370
     5
100
AcDbLine
 10
564.796440737928
 20
260.3786736565668
 30
0.0
 11
652.2966056978098
 21
172.878694276552
 31
0.0
  0
LINE
  5
179
330
1F
100
AcDbEntity
  8
D-6
  6
Continuous
 62
     6
370
     5
100
AcDbLine
 10
570.0995710166445
 20
260.3786736565668
 30
0.0
 11
657.5997359765262
 21
172.878694276552
 31
0.0
  0
LINE
  5
17A
330
1F
100
AcDbEntity
  8
D-6
  6
Continuous
 62
     6
370
     5
100
AcDbLine
 10
497.9772961538911
 20
207.501216579128
 30
0.0
 11
532.5995710166445
 21
172.878694276552
 31
0.0
  0
LINE
  5
17B
330
1F
100
AcDbEntity
  8
D-6
  6
Continuous
 62
     6
370
     5
100
AcDbLine
 10
497.9772961538911
 20
202.1979625805005
 30
0.0
 11
527.296440737928
 21
172.878694276552
 31
0.0
  0
LINE
  5
17C
330
1F
100
AcDbEntity
  8
D-6
  6
Continuous
 62
     6
370
     5
100
AcDbLine
 10
497.9772961538911
 20
196.8947085818729
 30
0.0
 11
521.9933104592119
 21
172.878694276552
 31
0.0
  0
LINE
  5
17D
330
1F
100
AcDbEntity
  8
D-6
  6
Continuous
 62
     6
370
     5
100
AcDbLine
 10
610.4772961538911
 20
310.3787148965372
 30
0.0
 11
610.4772961538911
 21
260.3786736565668
 31
0.0
  0
LINE
  5
17E
330
1F
100
AcDbEntity
  8
D-6
  6
Continuous
 62
     6
370
     5
100
AcDbLine
 10
497.9772961538911
 20
260.3786736565668
 30
0.0
 11
610.4772961538911
 21
260.3786736565668
 31
0.0
  0
LINE
  5
17F
330
1F
100
AcDbEntity
  8
D-6
  6
Continuous
 62
     6
370
     5
100
AcDbLine
 10
497.9772961538911
 20
260.3786736565668
 30
0.0
 11
497.9772961538911
 21
172.878694276552
 31
0.0
  0
LINE
  5
180
330
1F
100
AcDbEntity
  8
D-6
  6
JWW_DASHED3
 62
     6
370
     5
100
AcDbLine
 10
552.6778279845497
 20
216.1007401749895
 30
0.0
 11
552.6778279845497
 21
260.3786736565668
 31
0.0
  0
LINE
  5
181
330
1F
100
AcDbEntity
  8
D-6
  6
JWW_DASHED3
 62
     6
370
     5
100
AcDbLine
 10
575.1780259364081
 20
216.1007401749895
 30
0.0
 11
575.1780259364081
 21
260.3786736565668
 31
0.0
  0
LINE
  5
182
330
1F
100
AcDbEntity
  8
D-6
  6
Continuous
 62
     6
370
     5
100
AcDbLine
 10
552.6778279845497
 20
322.2944269953548
 30
0.0
 11
575.1780259364081
 21
322.2944269953548
 31
0.0
  0
LINE
  5
183
330
1F
100
AcDbEntity
  8
D-1
  6
Continuous
 62
     2
370
     9
100
AcDbLine
 10
512.9770982020331
 20
339.1287478885135
 30
0.0
 11
534.3158136264416
 21
317.7897850242822
 31
0.0
  0
LINE
  5
184
330
1F
100
AcDbEntity
  8
D-1
  6
Continuous
 62
     2
370
     9
100
AcDbLine
 10
507.2270916036377
 20
304.1286324165964
 30
0.0
 11
512.9770982020331
 21
304.1286324165964
 31
0.0
  0
LINE
  5
185
330
1F
100
AcDbEntity
  8
D-1
  6
Continuous
 62
     2
370
     9
100
AcDbLine
 10
507.2270916036377
 20
347.8787148965372
 30
0.0
 11
507.2270916036377
 21
304.1286324165964
 31
0.0
  0
LINE
  5
186
330
1F
100
AcDbEntity
  8
D-1
  6
JWW_CENTER2
 62
     2
370
     9
100
AcDbLine
 10
534.4746699925734
 20
325.3787643845017
 30
0.0
 11
504.265236926695
 21
325.3787643845017
 31
0.0
  0
LINE
  5
187
330
1F
100
AcDbEntity
  8
D-1
  6
JWW_DASHED3
 62
     2
370
     9
100
AcDbLine
 10
525.4772631619145
 20
320.3787478885135
 30
0.0
 11
507.2270916036377
 21
320.3787478885135
 31
0.0
  0
LINE
  5
188
330
1F
100
AcDbEntity
  8
D-1
  6
JWW_DASHED3
 62
     2
370
     9
100
AcDbLine
 10
525.4772631619145
 20
316.378635715794
 30
0.0
 11
525.4772631619145
 21
326.6288303684544
 31
0.0
  0
LINE
  5
189
330
1F
100
AcDbEntity
  8
D-1
  6
JWW_DASHED3
 62
     2
370
     9
100
AcDbLine
 10
525.4772631619145
 20
321.00378088049
 30
0.0
 11
507.2270916036377
 21
321.00378088049
 31
0.0
  0
LINE
  5
18A
330
1F
100
AcDbEntity
  8
D-1
  6
Continuous
 62
     2
370
     9
100
AcDbLine
 10
506.1022301699382
 20
330.37878088049
 30
0.0
 11
505.4771971779619
 21
329.7537478885135
 31
0.0
  0
LINE
  5
18B
330
1F
100
AcDbEntity
  8
D-1
  6
Continuous
 62
     2
370
     9
100
AcDbLine
 10
506.1022301699382
 20
320.3787478885135
 30
0.0
 11
505.4771971779619
 21
321.00378088049
 31
0.0
  0
LINE
  5
18C
330
1F
100
AcDbEntity
  8
D-1
  6
JWW_DASHED3
 62
     2
370
     9
100
AcDbLine
 10
506.1022301699382
 20
330.37878088049
 30
0.0
 11
506.1022301699382
 21
320.3787478885135
 31
0.0
  0
LINE
  5
18D
330
1F
100
AcDbEntity
  8
D-1
  6
JWW_DASHED3
 62
     2
370
     9
100
AcDbLine
 10
522.3520982020331
 20
329.7537478885135
 30
0.0
 11
507.2270916036377
 21
329.7537478885135
 31
0.0
  0
LINE
  5
18E
330
1F
100
AcDbEntity
  8
D-1
  6
JWW_DASHED3
 62
     2
370
     9
100
AcDbLine
 10
521.7273126498791
 20
330.37878088049
 30
0.0
 11
507.2270916036377
 21
330.37878088049
 31
0.0
  0
LINE
  5
18F
330
1F
100
AcDbEntity
  8
D-1
  6
Continuous
 62
     2
370
     9
100
AcDbLine
 10
507.2270916036377
 20
329.7537478885135
 30
0.0
 11
505.4771971779619
 21
329.7537478885135
 31
0.0
  0
LINE
  5
190
330
1F
100
AcDbEntity
  8
D-1
  6
Continuous
 62
     2
370
     9
100
AcDbLine
 10
507.2270916036377
 20
330.37878088049
 30
0.0
 11
506.1022301699382
 21
330.37878088049
 31
0.0
  0
LINE
  5
191
330
1F
100
AcDbEntity
  8
D-1
  6
Continuous
 62
     2
370
     9
100
AcDbLine
 10
507.2270916036377
 20
321.00378088049
 30
0.0
 11
505.4771971779619
 21
321.00378088049
 31
0.0
  0
LINE
  5
192
330
1F
100
AcDbEntity
  8
D-1
  6
Continuous
 62
     2
370
     9
100
AcDbLine
 10
507.2270916036377
 20
320.3787478885135
 30
0.0
 11
506.1022301699382
 21
320.3787478885135
 31
0.0
  0
LINE
  5
193
330
1F
100
AcDbEntity
  8
D-1
  6
Continuous
 62
     2
370
     9
100
AcDbLine
 10
530.4770322180801
 20
399.1286984005491
 30
0.0
 11
530.4770322180801
 21
397.8786324165964
 31
0.0
  0
LINE
  5
194
330
1F
100
AcDbEntity
  8
D-1
  6
Continuous
 62
     2
370
     9
100
AcDbLine
 10
508.4811166247525
 20
397.8786324165964
 30
0.0
 11
505.4771971779619
 21
395.4756205790753
 31
0.0
  0
LINE
  5
195
330
1F
100
AcDbEntity
  8
D-1
  6
Continuous
 62
     2
370
     9
100
AcDbLine
 10
437.9770982020327
 20
332.8786654085727
 30
0.0
 11
440.4772301699382
 21
335.3785499366555
 31
0.0
  0
LINE
  5
196
330
1F
100
AcDbEntity
  8
D-1
  6
Continuous
 62
     2
370
     9
100
AcDbLine
 10
475.477098202033
 20
332.8786654085727
 30
0.0
 11
460.4772961538911
 21
332.8786654085727
 31
0.0
  0
LINE
  5
197
330
1F
100
AcDbEntity
  8
D-1
  6
Continuous
 62
     2
370
     9
100
AcDbLine
 10
442.9773621378437
 20
332.8786654085727
 30
0.0
 11
445.4769992261038
 21
335.3785499366555
 31
0.0
  0
LINE
  5
198
330
1F
100
AcDbEntity
  8
D-1
  6
Continuous
 62
     2
370
     9
100
AcDbLine
 10
447.9771311940093
 20
332.8786654085727
 30
0.0
 11
450.4772631619145
 21
335.3785499366555
 31
0.0
  0
LINE
  5
199
330
1F
100
AcDbEntity
  8
D-1
  6
Continuous
 62
     2
370
     9
100
AcDbLine
 10
452.97739512982
 20
332.8786654085727
 30
0.0
 11
455.4770322180801
 21
335.3785499366555
 31
0.0
  0
LINE
  5
19A
330
1F
100
AcDbEntity
  8
D-1
  6
Continuous
 62
     2
370
     9
100
AcDbLine
 10
492.9770322180801
 20
332.8786654085727
 30
0.0
 11
495.4771641859856
 21
335.3785499366555
 31
0.0
  0
LINE
  5
19B
330
1F
100
AcDbEntity
  8
D-1
  6
Continuous
 62
     2
370
     9
100
AcDbLine
 10
497.9772961538911
 20
335.3785499366555
 30
0.0
 11
437.9770982020327
 21
335.3785499366555
 31
0.0
  0
LINE
  5
19C
330
1F
100
AcDbEntity
  8
D-1
  6
Continuous
 62
     2
370
     9
100
AcDbLine
 10
457.3521311940093
 20
332.8786654085727
 30
0.0
 11
435.4769662341275
 21
332.8786654085727
 31
0.0
  0
LINE
  5
19D
330
1F
100
AcDbEntity
  8
D-1
  6
Continuous
 62
     2
370
     9
100
AcDbLine
 10
457.3521311940093
 20
332.8786654085727
 30
0.0
 11
457.3521311940093
 21
326.6288303684544
 31
0.0
  0
LINE
  5
19E
330
1F
100
AcDbEntity
  8
D-1
  6
Continuous
 62
     2
370
     9
100
AcDbLine
 10
457.3521311940093
 20
332.2536324165964
 30
0.0
 11
460.4772961538911
 21
335.3785499366555
 31
0.0
  0
LINE
  5
19F
330
1F
100
AcDbEntity
  8
D-1
  6
Continuous
 62
     2
370
     9
100
AcDbLine
 10
462.9774281217963
 20
332.8786654085727
 30
0.0
 11
465.4773126498791
 21
335.3785499366555
 31
0.0
  0
LINE
  5
1A0
330
1F
100
AcDbEntity
  8
D-1
  6
Continuous
 62
     2
370
     9
100
AcDbLine
 10
457.3521311940093
 20
327.2536159206082
 30
0.0
 11
460.4772961538911
 21
330.37878088049
 31
0.0
  0
LINE
  5
1A1
330
1F
100
AcDbEntity
  8
D-1
  6
Continuous
 62
     2
370
     9
100
AcDbLine
 10
454.9524597940937
 20
324.8541919605152
 30
0.0
 11
456.7270982020327
 21
326.6288303684544
 31
0.0
  0
LINE
  5
1A2
330
1F
100
AcDbEntity
  8
D-1
  6
Continuous
 62
     2
370
     9
100
AcDbLine
 10
458.7761473732744
 20
323.6776156038852
 30
0.0
 11
460.4772961538911
 21
325.3787643845017
 31
0.0
  0
LINE
  5
1A3
330
1F
100
AcDbEntity
  8
D-1
  6
Continuous
 62
     2
370
     9
100
AcDbLine
 10
467.9771971779619
 20
332.8786654085727
 30
0.0
 11
470.4773291458674
 21
335.3785499366555
 31
0.0
  0
LINE
  5
1A4
330
1F
100
AcDbEntity
  8
D-1
  6
Continuous
 62
     2
370
     9
100
AcDbLine
 10
472.9769662341275
 20
332.8786654085727
 30
0.0
 11
475.477098202033
 21
335.3785499366555
 31
0.0
  0
LINE
  5
1A5
330
1F
100
AcDbEntity
  8
D-1
  6
Continuous
 62
     2
370
     9
100
AcDbLine
 10
475.477098202033
 20
330.37878088049
 30
0.0
 11
480.4773621378437
 21
335.3785499366555
 31
0.0
  0
LINE
  5
1A6
330
1F
100
AcDbEntity
  8
D-1
  6
Continuous
 62
     2
370
     9
100
AcDbLine
 10
462.9724793253437
 20
322.8743022197003
 30
0.0
 11
464.8218445597187
 21
324.723543734164
 31
0.0
  0
LINE
  5
1A7
330
1F
100
AcDbEntity
  8
D-1
  6
Continuous
 62
     2
370
     9
100
AcDbLine
 10
467.6416687784687
 20
322.5433514569258
 30
0.0
 11
469.7253595248791
 21
324.6267947635135
 31
0.0
  0
LINE
  5
1A8
330
1F
100
AcDbEntity
  8
D-1
  6
Continuous
 62
     2
370
     9
100
AcDbLine
 10
482.9760094668132
 20
332.8776756492822
 30
0.0
 11
485.4771311940093
 21
335.3785499366555
 31
0.0
  0
LINE
  5
1A9
330
1F
100
AcDbEntity
  8
D-1
  6
Continuous
 62
     2
370
     9
100
AcDbLine
 10
472.9715225580296
 20
322.8729413006758
 30
0.0
 11
478.6022631619145
 21
328.5034344647383
 31
0.0
  0
LINE
  5
1AA
330
1F
100
AcDbEntity
  8
D-1
  6
Continuous
 62
     2
370
     9
100
AcDbLine
 10
487.9767682822695
 20
332.8779230891048
 30
0.0
 11
490.47739512982
 21
335.3785499366555
 31
0.0
  0
LINE
  5
1AB
330
1F
100
AcDbEntity
  8
D-1
  6
Continuous
 62
     2
370
     9
100
AcDbLine
 10
479.4084221040598
 20
324.3099480706293
 30
0.0
 11
481.7274281217963
 21
326.6285829286318
 31
0.0
  0
LINE
  5
1AC
330
1F
100
AcDbEntity
  8
D-1
  6
Continuous
 62
     2
370
     9
100
AcDbLine
 10
525.4772631619145
 20
329.7537478885135
 30
0.0
 11
522.3520982020331
 21
329.7537478885135
 31
0.0
  0
LINE
  5
1AD
330
1F
100
AcDbEntity
  8
D-1
  6
Continuous
 62
     2
370
     9
100
AcDbLine
 10
525.4772631619145
 20
330.37878088049
 30
0.0
 11
521.7273126498791
 21
330.37878088049
 31
0.0
  0
LINE
  5
1AE
330
1F
100
AcDbEntity
  8
D-4
  6
Continuous
 62
     7
370
     9
100
AcDbLine
 10
293.976029261999
 20
74.17000023094388
 30
0.0
 11
559.2404269604789
 21
74.17000023094388
 31
0.0
  0
LINE
  5
1AF
330
1F
100
AcDbEntity
  8
D-1
  6
Continuous
 62
     2
370
     9
100
AcDbLine
 10
508.4811166247525
 20
397.8786324165964
 30
0.0
 11
530.4770322180801
 21
397.8786324165964
 31
0.0
  0
LINE
  5
1B0
330
1F
100
AcDbEntity
  8
D-6
  6
Continuous
 62
     6
370
     5
100
AcDbLine
 10
530.4770322180801
 20
397.8786324165964
 30
0.0
 11
775.2415354908842
 21
397.8786324165964
 31
0.0
  0
LINE
  5
1B1
330
1F
100
AcDbEntity
  8
D-6
  6
Continuous
 62
     6
370
     5
100
AcDbLine
 10
435.4769662341275
 20
297.8786736565668
 30
0.0
 11
435.4769662341275
 21
114.509372195682
 31
0.0
  0
LINE
  5
1B2
330
1F
100
AcDbEntity
  8
D-6
  6
JWW_CENTER2
 62
     6
370
     5
100
AcDbLine
 10
563.9279269604789
 20
216.1007401749895
 30
0.0
 11
563.9279269604789
 21
332.2006802945525
 31
0.0
  0
LINE
  5
1B3
330
1F
100
AcDbEntity
  8
D-6
  6
Continuous
 62
     6
370
     5
100
AcDbLine
 10
552.6778279845497
 20
260.3786736565668
 30
0.0
 11
552.6778279845497
 21
289.1288303684544
 31
0.0
  0
LINE
  5
1B4
330
1F
100
AcDbEntity
  8
D-6
  6
Continuous
 62
     6
370
     5
100
AcDbLine
 10
575.1780259364081
 20
260.3786736565668
 30
0.0
 11
575.1780259364081
 21
289.1288303684544
 31
0.0
  0
LINE
  5
1B5
330
1F
100
AcDbEntity
  8
D-6
  6
Continuous
 62
     6
370
     5
100
AcDbLine
 10
575.1780259364081
 20
314.1286654085727
 30
0.0
 11
575.1780259364081
 21
322.2944269953548
 31
0.0
  0
LINE
  5
1B6
330
1F
100
AcDbEntity
  8
D-6
  6
JWW_DASHED3
 62
     6
370
     5
100
AcDbLine
 10
575.1780259364081
 20
289.1288303684544
 30
0.0
 11
575.1780259364081
 21
314.1286654085727
 31
0.0
  0
LINE
  5
1B7
330
1F
100
AcDbEntity
  8
D-6
  6
Continuous
 62
     6
370
     5
100
AcDbLine
 10
552.6778279845497
 20
314.1286654085727
 30
0.0
 11
552.6778279845497
 21
322.2944269953548
 31
0.0
  0
LINE
  5
1B8
330
1F
100
AcDbEntity
  8
D-6
  6
JWW_DASHED3
 62
     6
370
     5
100
AcDbLine
 10
552.6778279845497
 20
289.1288303684544
 30
0.0
 11
552.6778279845497
 21
314.1286654085727
 31
0.0
  0
LINE
  5
1B9
330
1F
100
AcDbEntity
  8
D-1
  6
Continuous
 62
     2
370
     9
100
AcDbLine
 10
543.154858970614
 20
314.1286654085727
 30
0.0
 11
582.9773291458674
 21
314.1286654085727
 31
0.0
  0
LINE
  5
1BA
330
1F
100
AcDbEntity
  8
D-1
  6
Continuous
 62
     2
370
     9
100
AcDbLine
 10
587.9770982020331
 20
309.1286489125845
 30
0.0
 11
587.9770982020331
 21
289.1288303684544
 31
0.0
  0
LINE
  5
1BB
330
1F
100
AcDbEntity
  8
D-6
  6
Continuous
 62
     6
370
     5
100
AcDbLine
 10
644.8511414347186
 20
366.6287148965372
 30
0.0
 11
716.022752498908
 21
366.6287148965372
 31
0.0
  0
LINE
  5
1BC
330
1F
100
AcDbEntity
  8
D-6
  6
Continuous
 62
     6
370
     5
100
AcDbLine
 10
644.8511414347186
 20
372.8786736565668
 30
0.0
 11
716.022752498908
 21
372.8786736565668
 31
0.0
  0
LINE
  5
1BD
330
1F
100
AcDbEntity
  8
D-6
  6
Continuous
 62
     6
370
     5
100
AcDbLine
 10
644.8511414347186
 20
379.1286324165964
 30
0.0
 11
716.022752498908
 21
379.1286324165964
 31
0.0
  0
LINE
  5
1BE
330
1F
100
AcDbEntity
  8
D-2
  6
Continuous
 62
     3
370
     9
100
AcDbLine
 10
462.9769332421512
 20
341.6286324165964
 30
0.0
 11
462.9769332421512
 21
335.3785499366555
 31
0.0
  0
LINE
  5
1BF
330
1F
100
AcDbEntity
  8
D-2
  6
Continuous
 62
     3
370
     9
100
AcDbLine
 10
452.9769002501747
 20
347.3786390149917
 30
0.0
 11
452.9769002501747
 21
335.3785499366555
 31
0.0
  0
LINE
  5
1C0
330
1F
100
AcDbEntity
  8
D-2
  6
Continuous
 62
     3
370
     9
100
AcDbLine
 10
452.9769002501747
 20
335.3785499366555
 30
0.0
 11
462.9769332421512
 21
335.3785499366555
 31
0.0
  0
LINE
  5
1C1
330
1F
100
AcDbEntity
  8
D-2
  6
Continuous
 62
     3
370
     9
100
AcDbLine
 10
485.4771311940093
 20
341.6286324165964
 30
0.0
 11
485.4771311940093
 21
335.3785499366555
 31
0.0
  0
LINE
  5
1C2
330
1F
100
AcDbEntity
  8
D-2
  6
Continuous
 62
     3
370
     9
100
AcDbLine
 10
497.9772961538911
 20
345.3785829286318
 30
0.0
 11
497.9772961538911
 21
335.3785499366555
 31
0.0
  0
LINE
  5
1C3
330
1F
100
AcDbEntity
  8
D-2
  6
Continuous
 62
     3
370
     9
100
AcDbLine
 10
485.4771311940093
 20
335.3785499366555
 30
0.0
 11
497.9772961538911
 21
335.3785499366555
 31
0.0
  0
LINE
  5
1C4
330
1F
100
AcDbEntity
  8
D-4
  6
Continuous
 62
     7
370
     9
100
AcDbLine
 10
191.2746462383504
 20
475.0674850876267
 30
0.0
 11
530.4770322180801
 21
475.0674850876267
 31
0.0
  0
LINE
  5
1C5
330
1F
100
AcDbEntity
  8
D-4
  6
Continuous
 62
     7
370
     9
100
AcDbLine
 10
497.9772961538911
 20
411.5331041490709
 30
0.0
 11
497.9772961538911
 21
476.5674652924409
 31
0.0
  0
LINE
  5
1C6
330
1F
100
AcDbEntity
  8
D-4
  6
Continuous
 62
     7
370
     9
100
AcDbLine
 10
500.4769332421512
 20
411.5331041490709
 30
0.0
 11
500.4769332421512
 21
476.5674652924409
 31
0.0
  0
LINE
  5
1C7
330
1F
100
AcDbEntity
  8
D-4
  6
Continuous
 62
     7
370
     9
100
AcDbLine
 10
530.4770322180801
 20
411.5331041490709
 30
0.0
 11
530.4770322180801
 21
519.5888374947214
 31
0.0
  0
LINE
  5
1C8
330
1F
100
AcDbEntity
  8
D-4
  6
Continuous
 62
     7
370
     9
100
AcDbLine
 10
191.2746462383504
 20
518.0888572899072
 30
0.0
 11
530.4770322180801
 21
518.0888572899072
 31
0.0
  0
LINE
  5
1C9
330
1F
100
AcDbEntity
  8
D-4
  6
Continuous
 62
     7
370
     9
100
AcDbLine
 10
151.3596335694314
 20
308.4251774968328
 30
0.0
 11
151.3596335694314
 21
397.8786324165964
 31
0.0
  0
LINE
  5
1CA
330
1F
100
AcDbEntity
  8
D-4
  6
Continuous
 62
     7
370
     9
100
AcDbLine
 10
183.817799743418
 20
352.3786555109798
 30
0.0
 11
149.8596533646174
 21
352.3786555109798
 31
0.0
  0
LINE
  5
1CB
330
1F
100
AcDbEntity
  8
D-4
  6
Continuous
 62
     7
370
     9
100
AcDbLine
 10
183.817799743418
 20
360.3786324165964
 30
0.0
 11
149.8596533646174
 21
360.3786324165964
 31
0.0
  0
LINE
  5
1CC
330
1F
100
AcDbEntity
  8
D-4
  6
Continuous
 62
     7
370
     9
100
AcDbLine
 10
183.817799743418
 20
397.8786324165964
 30
0.0
 11
149.8596533646174
 21
397.8786324165964
 31
0.0
  0
LINE
  5
1CD
330
1F
100
AcDbEntity
  8
D-4
  6
Continuous
 62
     7
370
     9
100
AcDbLine
 10
191.2746462383504
 20
194.5863424765098
 30
0.0
 11
587.9770982020331
 21
194.5863424765098
 31
0.0
  0
LINE
  5
1CE
330
1F
100
AcDbEntity
  8
D-4
  6
Continuous
 62
     7
370
     9
100
AcDbLine
 10
435.4774611137728
 20
138.6787991910369
 30
0.0
 11
610.4772961538911
 21
138.6787991910369
 31
0.0
  0
LINE
  5
1CF
330
1F
100
AcDbEntity
  8
D-4
  6
Continuous
 62
     7
370
     9
100
AcDbLine
 10
610.4772961538911
 20
249.1207803262247
 30
0.0
 11
610.4772961538911
 21
137.1788189862227
 31
0.0
  0
LINE
  5
1D0
330
1F
100
AcDbEntity
  8
D-4
  6
Continuous
 62
     7
370
     9
100
AcDbLine
 10
639.9909284385195
 20
289.1288303684544
 30
0.0
 11
639.9909284385195
 21
420.6005364495355
 31
0.0
  0
LINE
  5
1D1
330
1F
100
AcDbEntity
  8
D-4
  6
Continuous
 62
     7
370
     9
100
AcDbLine
 10
591.401665347303
 20
289.1288303684544
 30
0.0
 11
641.4909086433335
 21
289.1288303684544
 31
0.0
  0
LINE
  5
1D2
330
1F
100
AcDbEntity
  8
D-4
  6
Continuous
 62
     7
370
     9
100
AcDbLine
 10
591.401665347303
 20
314.1286654085727
 30
0.0
 11
641.4909086433335
 21
314.1286654085727
 31
0.0
  0
LINE
  5
1D3
330
1F
100
AcDbEntity
  8
D-6
  6
Continuous
 62
     6
370
     5
100
AcDbLine
 10
511.9269635947695
 20
379.1286324165964
 30
0.0
 11
615.3130126076494
 21
379.1286324165964
 31
0.0
  0
LINE
  5
1D4
330
1F
100
AcDbEntity
  8
D-6
  6
Continuous
 62
     6
370
     5
100
AcDbLine
 10
511.9269635947695
 20
372.8786736565668
 30
0.0
 11
615.3130126076494
 21
372.8786736565668
 31
0.0
  0
LINE
  5
1D5
330
1F
100
AcDbEntity
  8
D-4
  6
Continuous
 62
     7
370
     9
100
AcDbLine
 10
737.2743691057491
 20
260.3786736565668
 30
0.0
 11
737.2743691057491
 21
397.8786324165964
 31
0.0
  0
LINE
  5
1D6
330
1F
100
AcDbEntity
  8
D-4
  6
Continuous
 62
     7
370
     9
100
AcDbLine
 10
626.2491104486546
 20
260.3786736565668
 30
0.0
 11
738.7743493105631
 21
260.3786736565668
 31
0.0
  0
LINE
  5
1D7
330
1F
100
AcDbEntity
  8
D-4
  6
Continuous
 62
     7
370
     9
100
AcDbLine
 10
380.8976799165598
 20
297.8786736565668
 30
0.0
 11
380.8976799165598
 21
402.8786489125845
 31
0.0
  0
LINE
  5
1D8
330
1F
100
AcDbEntity
  8
D-4
  6
Continuous
 62
     7
370
     9
100
AcDbLine
 10
434.0724978008504
 20
297.8786736565668
 30
0.0
 11
379.3976997117458
 21
297.8786736565668
 31
0.0
  0
LINE
  5
1D9
330
1F
100
AcDbEntity
  8
D-4
  6
Continuous
 62
     7
370
     9
100
AcDbLine
 10
495.5815837911377
 20
402.8786489125845
 30
0.0
 11
379.3976997117458
 21
402.8786489125845
 31
0.0
  0
LINE
  5
1DA
330
1F
100
AcDbEntity
  8
D-6
  6
Continuous
 62
     6
370
     5
100
AcDbLine
 10
610.4772961538911
 20
310.3787148965372
 30
0.0
 11
614.7203942324383
 21
310.3787148965372
 31
0.0
  0
LINE
  5
1DB
330
1F
100
AcDbEntity
  8
D-6
  6
Continuous
 62
     6
370
     5
100
AcDbLine
 10
644.4923536918977
 20
310.3787148965372
 30
0.0
 11
716.022752498908
 21
310.3787148965372
 31
0.0
  0
LINE
  5
1DC
330
1F
100
AcDbEntity
  8
D-6
  6
Continuous
 62
     6
370
     5
100
AcDbLine
 10
644.4923536918977
 20
300.3794242240288
 30
0.0
 11
716.022752498908
 21
228.8489016971073
 31
0.0
  0
LINE
  5
1DD
330
1F
100
AcDbEntity
  8
D-6
  6
Continuous
 62
     6
370
     5
100
AcDbLine
 10
644.4923536918977
 20
305.6828019425676
 30
0.0
 11
716.022752498908
 21
234.1522175556905
 31
0.0
  0
LINE
  5
1DE
330
1F
100
AcDbEntity
  8
D-4
  6
Continuous
 62
     7
370
     9
100
AcDbLine
 10
517.9768672581984
 20
292.1953520903716
 30
0.0
 11
517.9768672581984
 21
193.0863622716956
 31
0.0
  0
LINE
  5
1DF
330
1F
100
AcDbEntity
  8
D-4
  6
Continuous
 62
     7
370
     9
100
AcDbLine
 10
587.9770982020331
 20
284.8745974978885
 30
0.0
 11
587.9770982020331
 21
193.0863622716956
 31
0.0
  0
LINE
  5
1E0
330
1F
100
AcDbEntity
  8
D-6
  6
Continuous
 62
     6
370
     5
100
AcDbLine
 10
511.9269635947695
 20
360.3786324165964
 30
0.0
 11
511.9269635947695
 21
397.8786324165964
 31
0.0
  0
LINE
  5
1E1
330
1F
100
AcDbEntity
  8
D-6
  6
Continuous
 62
     6
370
     5
100
AcDbLine
 10
511.9269635947695
 20
366.6287148965372
 30
0.0
 11
615.3130126076494
 21
366.6287148965372
 31
0.0
  0
LINE
  5
1E2
330
1F
100
AcDbEntity
  8
D-6
  6
Continuous
 62
     6
370
     5
100
AcDbLine
 10
505.4771971779619
 20
360.3786324165964
 30
0.0
 11
615.9632844615346
 21
360.3786324165964
 31
0.0
  0
LINE
  5
1E3
330
1F
100
AcDbEntity
  8
D-6
  6
Continuous
 62
     6
370
     5
100
AcDbLine
 10
644.8511414347186
 20
360.3786324165964
 30
0.0
 11
716.022752498908
 21
360.3786324165964
 31
0.0
  0
ARC
  5
1E4
330
1F
100
AcDbEntity
  8
D-1
  6
Continuous
 62
     2
370
     9
100
AcDbCircle
 10
489.8518672581984
 20
326.6288303684544
 30
0.0
 40
2.499999790578275
100
AcDbArc
 50
90.0
 51
180.0
  0
ARC
  5
1E5
330
1F
100
AcDbEntity
  8
D-1
  6
Continuous
 62
     2
370
     9
100
AcDbCircle
 10
497.9772961538911
 20
326.6288303684544
 30
0.0
 40
2.499999790578275
100
AcDbArc
 50
7.016464233398438
 51
90.0
  0
ARC
  5
1E6
330
1F
100
AcDbEntity
  8
D-1
  6
Continuous
 62
     2
370
     9
100
AcDbCircle
 10
497.9772961538911
 20
304.1286324165964
 30
0.0
 40
2.499999790578275
100
AcDbArc
 50
270.0
 51
0.0
  0
ARC
  5
1E7
330
1F
100
AcDbEntity
  8
D-1
  6
Continuous
 62
     2
370
     9
100
AcDbCircle
 10
483.6020322180801
 20
304.1286324165964
 30
0.0
 40
2.499999790578275
100
AcDbArc
 50
180.0
 51
270.0
  0
ARC
  5
1E8
330
1F
100
AcDbEntity
  8
D-1
  6
Continuous
 62
     2
370
     9
100
AcDbCircle
 10
452.3518672581984
 20
304.1286324165964
 30
0.0
 40
2.499999790578275
100
AcDbArc
 50
270.0
 51
0.0
  0
ARC
  5
1E9
330
1F
100
AcDbEntity
  8
D-1
  6
Continuous
 62
     2
370
     9
100
AcDbCircle
 10
441.7272961538911
 20
304.1286324165964
 30
0.0
 40
2.499999790578275
100
AcDbArc
 50
180.0
 51
270.0
  0
ARC
  5
1EA
330
1F
100
AcDbEntity
  8
D-1
  6
Continuous
 62
     2
370
     9
100
AcDbCircle
 10
441.7272961538911
 20
326.6288303684544
 30
0.0
 40
2.499999790578275
100
AcDbArc
 50
90.0
 51
180.0
  0
ARC
  5
1EB
330
1F
100
AcDbEntity
  8
D-1
  6
Continuous
 62
     2
370
     9
100
AcDbCircle
 10
446.1020322180801
 20
326.6288303684544
 30
0.0
 40
2.499999790578275
100
AcDbArc
 50
7.016464233398438
 51
90.0
  0
ARC
  5
1EC
330
1F
100
AcDbEntity
  8
D-1
  6
Continuous
 62
     2
370
     9
100
AcDbCircle
 10
481.1019002501747
 20
316.6286736565668
 30
0.0
 40
2.499999790578275
100
AcDbArc
 50
270.0
 51
0.0
  0
ARC
  5
1ED
330
1F
100
AcDbEntity
  8
D-1
  6
Continuous
 62
     2
370
     9
100
AcDbCircle
 10
454.8519992261038
 20
316.6286736565668
 30
0.0
 40
2.499999790578275
100
AcDbArc
 50
180.0
 51
270.0
  0
ARC
  5
1EE
330
1F
100
AcDbEntity
  8
D-1
  6
Continuous
 62
     2
370
     9
100
AcDbCircle
 10
481.1019002501747
 20
316.6286736565668
 30
0.0
 40
6.250000322187269
100
AcDbArc
 50
270.0
 51
0.0
  0
ARC
  5
1EF
330
1F
100
AcDbEntity
  8
D-1
  6
Continuous
 62
     2
370
     9
100
AcDbCircle
 10
454.8519992261038
 20
316.6286736565668
 30
0.0
 40
6.250000322187269
100
AcDbArc
 50
180.0
 51
270.0
  0
ARC
  5
1F0
330
1F
100
AcDbEntity
  8
D-1
  6
Continuous
 62
     2
370
     9
100
AcDbCircle
 10
467.9771971779619
 20
360.3786324165964
 30
0.0
 40
35.79455195246516
100
AcDbArc
 50
257.9052581787109
 51
282.0947265625
  0
ARC
  5
1F1
330
1F
100
AcDbEntity
  8
D-1
  6
Continuous
 62
     2
370
     9
100
AcDbCircle
 10
467.9771971779619
 20
360.3786324165964
 30
0.0
 40
37.83683519105654
100
AcDbArc
 50
248.690673828125
 51
291.3093109130859
  0
ARC
  5
1F2
330
1F
100
AcDbEntity
  8
D-1
  6
Continuous
 62
     2
370
     9
100
AcDbCircle
 10
520.4769992261039
 20
299.5576765730574
 30
0.0
 40
4.99999958115655
100
AcDbArc
 50
7.016464233398438
 51
45.0
  0
ARC
  5
1F3
330
1F
100
AcDbEntity
  8
D-1
  6
Continuous
 62
     2
370
     9
100
AcDbCircle
 10
543.154858970614
 20
326.6288303684544
 30
0.0
 40
12.50000064437454
100
AcDbArc
 50
225.0
 51
270.0
  0
ARC
  5
1F4
330
1F
100
AcDbEntity
  8
D-1
  6
Continuous
 62
     2
370
     9
100
AcDbCircle
 10
525.4772631619145
 20
325.3787643845017
 30
0.0
 40
9.000004948796454
100
AcDbArc
 50
320.6364898681641
 51
90.00000000000003
  0
ARC
  5
1F5
330
1F
100
AcDbEntity
  8
D-1
  6
JWW_DASHED3
 62
     2
370
     9
100
AcDbCircle
 10
525.4772631619145
 20
325.3787643845017
 30
0.0
 40
9.000004948796454
100
AcDbArc
 50
270.0
 51
320.6364898681641
  0
ARC
  5
1F6
330
1F
100
AcDbEntity
  8
D-1
  6
Continuous
 62
     2
370
     9
100
AcDbCircle
 10
582.9773291458674
 20
309.1286489125845
 30
0.0
 40
4.99999958115655
100
AcDbArc
 50
0.0
 51
90.0
  0
TEXT
  5
1F7
330
1F
100
AcDbEntity
  8
D-4
  6
Continuous
 62
     2
370
     9
100
AcDbText
 10
305.6997610504282
 20
80.34998558250638
 30
0.0
 40
15.24
  1
断面詳細図　Ｓ＝１：２
 41
1.113636363636364
  7
ＭＳ ゴシック
100
AcDbText
  0
TEXT
  5
1F8
330
1F
100
AcDbEntity
  8
D-4
  6
Continuous
 62
     2
370
     9
100
AcDbText
 10
482.9428690265683
 20
480.3873696157095
 30
0.0
 40
15.24
  1
1
 41
0.9999999999999998
  7
ＭＳ ゴシック
100
AcDbText
  0
TEXT
  5
1F9
330
1F
100
AcDbEntity
  8
D-4
  6
Continuous
 62
     2
370
     9
100
AcDbText
 10
504.8521518918091
 20
480.3873696156857
 30
0.0
 40
15.24
  1
12
 50
0.0003335824004124
 41
1.062499999999999
  7
ＭＳ ゴシック
100
AcDbText
  0
TEXT
  5
1FA
330
1F
100
AcDbEntity
  8
D-4
  6
Continuous
 62
     2
370
     9
100
AcDbText
 10
146.0395016015261
 20
313.5048613677154
 30
0.0
 40
15.24
  1
3.2
 50
90.0
 41
1.083333333333333
  7
ＭＳ ゴシック
100
AcDbText
  0
TEXT
  5
1FB
330
1F
100
AcDbEntity
  8
D-4
  6
Continuous
 62
     2
370
     9
100
AcDbText
 10
146.0395016015261
 20
368.5038179964633
 30
0.0
 40
15.24
  1
15
 50
90.0
 41
1.0625
  7
ＭＳ ゴシック
100
AcDbText
  0
TEXT
  5
1FC
330
1F
100
AcDbEntity
  8
D-4
  6
Continuous
 62
     2
370
     9
100
AcDbText
 10
466.1021023260299
 20
199.9064744444151
 30
0.0
 40
15.24
  1
33
 41
1.0625
  7
ＭＳ ゴシック
100
AcDbText
  0
TEXT
  5
1FD
330
1F
100
AcDbEntity
  8
D-4
  6
Continuous
 62
     2
370
     9
100
AcDbText
 10
542.3521683099826
 20
199.9064744444151
 30
0.0
 40
15.24
  1
28
 41
1.0625
  7
ＭＳ ゴシック
100
AcDbText
  0
TEXT
  5
1FE
330
1F
100
AcDbEntity
  8
D-4
  6
Continuous
 62
     2
370
     9
100
AcDbText
 10
489.8523786338318
 20
143.9986837191195
 30
0.0
 40
15.24
  1
70～80
 41
1.104166666666667
  7
ＭＳ ゴシック
100
AcDbText
  0
TEXT
  5
1FF
330
1F
100
AcDbEntity
  8
D-4
  6
Continuous
 62
     2
370
     9
100
AcDbText
 10
634.6707964706139
 20
291.0038097484692
 30
0.0
 40
15.24
  1
10
 50
90.0
 41
1.0625
  7
ＭＳ ゴシック
100
AcDbText
  0
TEXT
  5
200
330
1F
100
AcDbEntity
  8
D-4
  6
Continuous
 62
     2
370
     9
100
AcDbText
 10
634.6707964706139
 20
334.1287107725402
 30
0.0
 40
15.24
  1
33.5
 50
90.0
 41
1.09375
  7
ＭＳ ゴシック
100
AcDbText
  0
TEXT
  5
201
330
1F
100
AcDbEntity
  8
D-4
  6
Continuous
 62
     2
370
     9
100
AcDbText
 10
634.6707964706139
 20
407.7886138091217
 30
0.0
 40
15.24
  1
2
 50
90.0
 41
0.9999999999999998
  7
ＭＳ ゴシック
100
AcDbText
  0
TEXT
  5
202
330
1F
100
AcDbEntity
  8
D-4
  6
Continuous
 62
     2
370
     9
100
AcDbText
 10
731.9542371378435
 20
296.0037148965372
 30
0.0
 40
15.24
  1
55～65
 50
90.0
 41
1.104166666666667
  7
ＭＳ ゴシック
100
AcDbText
  0
TEXT
  5
203
330
1F
100
AcDbEntity
  8
D-4
  6
Continuous
 62
     2
370
     9
100
AcDbText
 10
375.577795388477
 20
327.449097504487
 30
0.0
 40
15.24
  1
42
 50
90.0
 41
1.0625
  7
ＭＳ ゴシック
100
AcDbText
  0
TEXT
  5
204
330
1F
100
AcDbEntity
  8
D-4
  6
Continuous
 62
     2
370
     9
100
AcDbText
 10
192.6291235794611
 20
524.034022249789
 30
0.0
 40
15.24
  1
626
 41
1.083333333333333
  7
ＭＳ ゴシック
100
AcDbText
  0
TEXT
  5
205
330
1F
100
AcDbEntity
  8
D-4
  6
Continuous
 62
     2
370
     9
100
AcDbText
 10
192.6291235794611
 20
481.4525980521537
 30
0.0
 40
15.24
  1
600
 41
1.083333333333333
  7
ＭＳ ゴシック
100
AcDbText
  0
TEXT
  5
206
330
1F
100
AcDbEntity
  8
D-4
  6
Continuous
 62
     2
370
     9
100
AcDbText
 10
191.2746379903564
 20
199.9615298049514
 30
0.0
 40
15.24
  1
550
 41
1.083333333333333
  7
ＭＳ ゴシック
100
AcDbText
  0
LWPOLYLINE
  5
207
330
1F
100
AcDbEntity
  8
D-4
  6
Continuous
 62
     7
370
     9
100
AcDbPolyline
 90
        4
 70
     1
 43
0.5
 10
498.2272961538911
 20
475.0674850876267
 42
0.4142135623731
 10
497.9772961538911
 20
475.3174850876267
 42
0.4142135623731
 10
497.7272961538911
 20
475.0674850876267
 42
0.4142135623731
 10
497.9772961538911
 20
474.8174850876267
 42
0.4142135623731
  0
LWPOLYLINE
  5
208
330
1F
100
AcDbEntity
  8
D-4
  6
Continuous
 62
     7
370
     9
100
AcDbPolyline
 90
        4
 70
     1
 43
0.5
 10
500.7269332421512
 20
475.0674850876267
 42
0.4142135623731
 10
500.4769332421512
 20
475.3174850876267
 42
0.4142135623731
 10
500.2269332421513
 20
475.0674850876267
 42
0.4142135623731
 10
500.4769332421512
 20
474.8174850876267
 42
0.4142135623731
  0
LWPOLYLINE
  5
209
330
1F
100
AcDbEntity
  8
D-4
  6
Continuous
 62
     7
370
     9
100
AcDbPolyline
 90
        4
 70
     1
 43
0.5
 10
530.7270322180801
 20
475.0674850876267
 42
0.4142135623731
 10
530.4770322180801
 20
475.3174850876267
 42
0.4142135623731
 10
530.2270322180801
 20
475.0674850876267
 42
0.4142135623731
 10
530.4770322180801
 20
474.8174850876267
 42
0.4142135623731
  0
LWPOLYLINE
  5
20A
330
1F
100
AcDbEntity
  8
D-4
  6
Continuous
 62
     7
370
     9
100
AcDbPolyline
 90
        4
 70
     1
 43
0.5
 10
530.7270322180801
 20
518.0888572899072
 42
0.4142135623731
 10
530.4770322180801
 20
518.3388572899072
 42
0.4142135623731
 10
530.2270322180801
 20
518.0888572899072
 42
0.4142135623731
 10
530.4770322180801
 20
517.8388572899072
 42
0.4142135623731
  0
LWPOLYLINE
  5
20B
330
1F
100
AcDbEntity
  8
D-4
  6
Continuous
 62
     7
370
     9
100
AcDbPolyline
 90
        4
 70
     1
 43
0.5
 10
151.6096335694315
 20
352.3786555109798
 42
0.4142135623731
 10
151.3596335694314
 20
352.6286555109798
 42
0.4142135623731
 10
151.1096335694314
 20
352.3786555109798
 42
0.4142135623731
 10
151.3596335694314
 20
352.1286555109799
 42
0.4142135623731
  0
LWPOLYLINE
  5
20C
330
1F
100
AcDbEntity
  8
D-4
  6
Continuous
 62
     7
370
     9
100
AcDbPolyline
 90
        4
 70
     1
 43
0.5
 10
151.6096335694315
 20
360.3786324165964
 42
0.4142135623731
 10
151.3596335694314
 20
360.6286324165964
 42
0.4142135623731
 10
151.1096335694314
 20
360.3786324165964
 42
0.4142135623731
 10
151.3596335694314
 20
360.1286324165964
 42
0.4142135623731
  0
LWPOLYLINE
  5
20D
330
1F
100
AcDbEntity
  8
D-4
  6
Continuous
 62
     7
370
     9
100
AcDbPolyline
 90
        4
 70
     1
 43
0.5
 10
151.6096335694315
 20
397.8786324165964
 42
0.4142135623731
 10
151.3596335694314
 20
398.1286324165964
 42
0.4142135623731
 10
151.1096335694314
 20
397.8786324165964
 42
0.4142135623731
 10
151.3596335694314
 20
397.6286324165964
 42
0.4142135623731
  0
LWPOLYLINE
  5
20E
330
1F
100
AcDbEntity
  8
D-4
  6
Continuous
 62
     7
370
     9
100
AcDbPolyline
 90
        4
 70
     1
 43
0.5
 10
435.7274611137728
 20
194.5863424765098
 42
0.4142135623731
 10
435.4774611137728
 20
194.8363424765097
 42
0.4142135623731
 10
435.2274611137728
 20
194.5863424765098
 42
0.4142135623731
 10
435.4774611137728
 20
194.3363424765098
 42
0.4142135623731
  0
LWPOLYLINE
  5
20F
330
1F
100
AcDbEntity
  8
D-4
  6
Continuous
 62
     7
370
     9
100
AcDbPolyline
 90
        4
 70
     1
 43
0.5
 10
518.2268672581984
 20
194.5863424765098
 42
0.4142135623731
 10
517.9768672581984
 20
194.8363424765097
 42
0.4142135623731
 10
517.7268672581984
 20
194.5863424765098
 42
0.4142135623731
 10
517.9768672581984
 20
194.3363424765098
 42
0.4142135623731
  0
LWPOLYLINE
  5
210
330
1F
100
AcDbEntity
  8
D-4
  6
Continuous
 62
     7
370
     9
100
AcDbPolyline
 90
        4
 70
     1
 43
0.5
 10
588.227098202033
 20
194.5863424765098
 42
0.4142135623731
 10
587.9770982020331
 20
194.8363424765097
 42
0.4142135623731
 10
587.7270982020331
 20
194.5863424765098
 42
0.4142135623731
 10
587.9770982020331
 20
194.3363424765098
 42
0.4142135623731
  0
LWPOLYLINE
  5
211
330
1F
100
AcDbEntity
  8
D-4
  6
Continuous
 62
     7
370
     9
100
AcDbPolyline
 90
        4
 70
     1
 43
0.5
 10
435.7274611137728
 20
138.6787991910369
 42
0.4142135623731
 10
435.4774611137728
 20
138.9287991910369
 42
0.4142135623731
 10
435.2274611137728
 20
138.6787991910369
 42
0.4142135623731
 10
435.4774611137728
 20
138.4287991910369
 42
0.4142135623731
  0
LWPOLYLINE
  5
212
330
1F
100
AcDbEntity
  8
D-4
  6
Continuous
 62
     7
370
     9
100
AcDbPolyline
 90
        4
 70
     1
 43
0.5
 10
610.7272961538911
 20
138.6787991910369
 42
0.4142135623731
 10
610.4772961538911
 20
138.9287991910369
 42
0.4142135623731
 10
610.2272961538911
 20
138.6787991910369
 42
0.4142135623731
 10
610.4772961538911
 20
138.4287991910369
 42
0.4142135623731
  0
LWPOLYLINE
  5
213
330
1F
100
AcDbEntity
  8
D-4
  6
Continuous
 62
     7
370
     9
100
AcDbPolyline
 90
        4
 70
     1
 43
0.5
 10
640.2409284385194
 20
289.1288303684544
 42
0.4142135623731
 10
639.9909284385195
 20
289.3788303684544
 42
0.4142135623731
 10
639.7409284385195
 20
289.1288303684544
 42
0.4142135623731
 10
639.9909284385195
 20
288.8788303684544
 42
0.4142135623731
  0
LWPOLYLINE
  5
214
330
1F
100
AcDbEntity
  8
D-4
  6
Continuous
 62
     7
370
     9
100
AcDbPolyline
 90
        4
 70
     1
 43
0.5
 10
640.2409284385194
 20
314.1286654085727
 42
0.4142135623731
 10
639.9909284385195
 20
314.3786654085727
 42
0.4142135623731
 10
639.7409284385195
 20
314.1286654085727
 42
0.4142135623731
 10
639.9909284385195
 20
313.8786654085727
 42
0.4142135623731
  0
LWPOLYLINE
  5
215
330
1F
100
AcDbEntity
  8
D-4
  6
Continuous
 62
     7
370
     9
100
AcDbPolyline
 90
        4
 70
     1
 43
0.5
 10
640.2409284385194
 20
397.8786324165964
 42
0.4142135623731
 10
639.9909284385195
 20
398.1286324165964
 42
0.4142135623731
 10
639.7409284385195
 20
397.8786324165964
 42
0.4142135623731
 10
639.9909284385195
 20
397.6286324165964
 42
0.4142135623731
  0
LWPOLYLINE
  5
216
330
1F
100
AcDbEntity
  8
D-4
  6
Continuous
 62
     7
370
     9
100
AcDbPolyline
 90
        4
 70
     1
 43
0.5
 10
640.2409284385194
 20
402.8786489125845
 42
0.4142135623731
 10
639.9909284385195
 20
403.1286489125845
 42
0.4142135623731
 10
639.7409284385195
 20
402.8786489125845
 42
0.4142135623731
 10
639.9909284385195
 20
402.6286489125845
 42
0.4142135623731
  0
LWPOLYLINE
  5
217
330
1F
100
AcDbEntity
  8
D-4
  6
Continuous
 62
     7
370
     9
100
AcDbPolyline
 90
        4
 70
     1
 43
0.5
 10
737.5243691057492
 20
260.3786736565668
 42
0.4142135623731
 10
737.2743691057491
 20
260.6286736565668
 42
0.4142135623731
 10
737.024369105749
 20
260.3786736565668
 42
0.4142135623731
 10
737.2743691057491
 20
260.1286736565668
 42
0.4142135623731
  0
LWPOLYLINE
  5
218
330
1F
100
AcDbEntity
  8
D-4
  6
Continuous
 62
     7
370
     9
100
AcDbPolyline
 90
        4
 70
     1
 43
0.5
 10
737.5243691057492
 20
397.8786324165964
 42
0.4142135623731
 10
737.2743691057491
 20
398.1286324165964
 42
0.4142135623731
 10
737.024369105749
 20
397.8786324165964
 42
0.4142135623731
 10
737.2743691057491
 20
397.6286324165964
 42
0.4142135623731
  0
LWPOLYLINE
  5
219
330
1F
100
AcDbEntity
  8
D-4
  6
Continuous
 62
     7
370
     9
100
AcDbPolyline
 90
        4
 70
     1
 43
0.5
 10
381.1476799165598
 20
297.8786736565668
 42
0.4142135623731
 10
380.8976799165598
 20
298.1286736565668
 42
0.4142135623731
 10
380.6476799165598
 20
297.8786736565668
 42
0.4142135623731
 10
380.8976799165598
 20
297.6286736565668
 42
0.4142135623731
  0
LWPOLYLINE
  5
21A
330
1F
100
AcDbEntity
  8
D-4
  6
Continuous
 62
     7
370
     9
100
AcDbPolyline
 90
        4
 70
     1
 43
0.5
 10
381.1476799165598
 20
402.8786489125845
 42
0.4142135623731
 10
380.8976799165598
 20
403.1286489125845
 42
0.4142135623731
 10
380.6476799165598
 20
402.8786489125845
 42
0.4142135623731
 10
380.8976799165598
 20
402.6286489125845
 42
0.4142135623731
  0
LINE
  5
21B
330
1F
100
AcDbEntity
  8
D-0
  6
Continuous
 62
     7
370
     9
100
AcDbLine
 10
440.963671984019
 20
259.1858809443205
 30
0.0
 11
440.963671984019
 21
259.9360220881193
 31
0.0
  0
LINE
  5
21C
330
1F
100
AcDbEntity
  8
D-0
  6
Continuous
 62
     7
370
     9
100
AcDbLine
 10
440.963671984019
 20
259.9360220881193
 30
0.0
 11
441.7135651724956
 21
259.9360220881193
 31
0.0
  0
LINE
  5
21D
330
1F
100
AcDbEntity
  8
D-0
  6
Continuous
 62
     7
370
     9
100
AcDbLine
 10
441.7135651724956
 20
259.9360220881193
 30
0.0
 11
441.7135651724956
 21
259.1858809443205
 31
0.0
  0
LINE
  5
21E
330
1F
100
AcDbEntity
  8
D-0
  6
Continuous
 62
     7
370
     9
100
AcDbLine
 10
441.7135651724956
 20
259.1858809443205
 30
0.0
 11
440.963671984019
 21
259.1858809443205
 31
0.0
  0
LINE
  5
21F
330
1F
100
AcDbEntity
  8
D-0
  6
Continuous
 62
     7
370
     9
100
AcDbLine
 10
468.5887600742233
 20
289.0034363432713
 30
0.0
 11
468.5887600742233
 21
289.7535774870701
 31
0.0
  0
LINE
  5
220
330
1F
100
AcDbEntity
  8
D-0
  6
Continuous
 62
     7
370
     9
100
AcDbLine
 10
468.5887600742233
 20
289.7535774870701
 30
0.0
 11
469.3386532626999
 21
289.7535774870701
 31
0.0
  0
LINE
  5
221
330
1F
100
AcDbEntity
  8
D-0
  6
Continuous
 62
     7
370
     9
100
AcDbLine
 10
469.3386532626999
 20
289.7535774870701
 30
0.0
 11
469.3386532626999
 21
289.0034363432713
 31
0.0
  0
LINE
  5
222
330
1F
100
AcDbEntity
  8
D-0
  6
Continuous
 62
     7
370
     9
100
AcDbLine
 10
469.3386532626999
 20
289.0034363432713
 30
0.0
 11
468.5887600742233
 21
289.0034363432713
 31
0.0
  0
LINE
  5
223
330
1F
100
AcDbEntity
  8
D-0
  6
Continuous
 62
     7
370
     9
100
AcDbLine
 10
442.7176458310161
 20
281.1105540317843
 30
0.0
 11
442.7176458310161
 21
281.8606951755831
 31
0.0
  0
LINE
  5
224
330
1F
100
AcDbEntity
  8
D-0
  6
Continuous
 62
     7
370
     9
100
AcDbLine
 10
442.7176458310161
 20
281.8606951755831
 30
0.0
 11
443.4675390194926
 21
281.8606951755831
 31
0.0
  0
LINE
  5
225
330
1F
100
AcDbEntity
  8
D-0
  6
Continuous
 62
     7
370
     9
100
AcDbLine
 10
443.4675390194926
 20
281.8606951755831
 30
0.0
 11
443.4675390194926
 21
281.1105540317843
 31
0.0
  0
LINE
  5
226
330
1F
100
AcDbEntity
  8
D-0
  6
Continuous
 62
     7
370
     9
100
AcDbLine
 10
443.4675390194926
 20
281.1105540317843
 30
0.0
 11
442.7176458310161
 21
281.1105540317843
 31
0.0
  0
LINE
  5
227
330
1F
100
AcDbEntity
  8
D-0
  6
Continuous
 62
     7
370
     9
100
AcDbLine
 10
465.9577993037277
 20
258.7473874825712
 30
0.0
 11
465.9577993037277
 21
259.4975286263701
 31
0.0
  0
LINE
  5
228
330
1F
100
AcDbEntity
  8
D-0
  6
Continuous
 62
     7
370
     9
100
AcDbLine
 10
465.9577993037277
 20
259.4975286263701
 30
0.0
 11
466.7076924922042
 21
259.4975286263701
 31
0.0
  0
LINE
  5
229
330
1F
100
AcDbEntity
  8
D-0
  6
Continuous
 62
     7
370
     9
100
AcDbLine
 10
466.7076924922042
 20
259.4975286263701
 30
0.0
 11
466.7076924922042
 21
258.7473874825712
 31
0.0
  0
LINE
  5
22A
330
1F
100
AcDbEntity
  8
D-0
  6
Continuous
 62
     7
370
     9
100
AcDbLine
 10
466.7076924922042
 20
258.7473874825712
 30
0.0
 11
465.9577993037277
 21
258.7473874825712
 31
0.0
  0
LINE
  5
22B
330
1F
100
AcDbEntity
  8
D-0
  6
Continuous
 62
     7
370
     9
100
AcDbLine
 10
486.5669920059437
 20
273.2176717202974
 30
0.0
 11
486.5669920059437
 21
273.9678128640962
 31
0.0
  0
LINE
  5
22C
330
1F
100
AcDbEntity
  8
D-0
  6
Continuous
 62
     7
370
     9
100
AcDbLine
 10
486.5669920059437
 20
273.9678128640962
 30
0.0
 11
487.3168851944203
 21
273.9678128640962
 31
0.0
  0
LINE
  5
22D
330
1F
100
AcDbEntity
  8
D-0
  6
Continuous
 62
     7
370
     9
100
AcDbLine
 10
487.3168851944203
 20
273.9678128640962
 30
0.0
 11
487.3168851944203
 21
273.2176717202974
 31
0.0
  0
LINE
  5
22E
330
1F
100
AcDbEntity
  8
D-0
  6
Continuous
 62
     7
370
     9
100
AcDbLine
 10
487.3168851944203
 20
273.2176717202974
 30
0.0
 11
486.5669920059437
 21
273.2176717202974
 31
0.0
  0
LINE
  5
22F
330
1F
100
AcDbEntity
  8
D-0
  6
Continuous
 62
     7
370
     9
100
AcDbLine
 10
489.5268228727512
 20
291.4151503828923
 30
0.0
 11
489.5268228727512
 21
292.1652915266911
 31
0.0
  0
LINE
  5
230
330
1F
100
AcDbEntity
  8
D-0
  6
Continuous
 62
     7
370
     9
100
AcDbLine
 10
489.5268228727512
 20
292.1652915266911
 30
0.0
 11
490.2767160612277
 21
292.1652915266911
 31
0.0
  0
LINE
  5
231
330
1F
100
AcDbEntity
  8
D-0
  6
Continuous
 62
     7
370
     9
100
AcDbLine
 10
490.2767160612277
 20
292.1652915266911
 30
0.0
 11
490.2767160612277
 21
291.4151503828923
 31
0.0
  0
LINE
  5
232
330
1F
100
AcDbEntity
  8
D-0
  6
Continuous
 62
     7
370
     9
100
AcDbLine
 10
490.2767160612277
 20
291.4151503828923
 30
0.0
 11
489.5268228727512
 21
291.4151503828923
 31
0.0
  0
LINE
  5
233
330
1F
100
AcDbEntity
  8
D-0
  6
Continuous
 62
     7
370
     9
100
AcDbLine
 10
513.2054698072121
 20
276.9448661451662
 30
0.0
 11
513.2054698072121
 21
277.695007288965
 31
0.0
  0
LINE
  5
234
330
1F
100
AcDbEntity
  8
D-0
  6
Continuous
 62
     7
370
     9
100
AcDbLine
 10
513.2054698072121
 20
277.695007288965
 30
0.0
 11
513.9553629956887
 21
277.695007288965
 31
0.0
  0
LINE
  5
235
330
1F
100
AcDbEntity
  8
D-0
  6
Continuous
 62
     7
370
     9
100
AcDbLine
 10
513.9553629956887
 20
277.695007288965
 30
0.0
 11
513.9553629956887
 21
276.9448661451662
 31
0.0
  0
LINE
  5
236
330
1F
100
AcDbEntity
  8
D-0
  6
Continuous
 62
     7
370
     9
100
AcDbLine
 10
513.9553629956887
 20
276.9448661451662
 30
0.0
 11
513.2054698072121
 21
276.9448661451662
 31
0.0
  0
LINE
  5
237
330
1F
100
AcDbEntity
  8
D-0
  6
Continuous
 62
     7
370
     9
100
AcDbLine
 10
532.651350664307
 20
271.3223062280842
 30
0.0
 11
532.651350664307
 21
272.072447371883
 31
0.0
  0
LINE
  5
238
330
1F
100
AcDbEntity
  8
D-0
  6
Continuous
 62
     7
370
     9
100
AcDbLine
 10
532.651350664307
 20
272.072447371883
 30
0.0
 11
533.4012438527835
 21
272.072447371883
 31
0.0
  0
LINE
  5
239
330
1F
100
AcDbEntity
  8
D-0
  6
Continuous
 62
     7
370
     9
100
AcDbLine
 10
533.4012438527835
 20
272.072447371883
 30
0.0
 11
533.4012438527835
 21
271.3223062280842
 31
0.0
  0
LINE
  5
23A
330
1F
100
AcDbEntity
  8
D-0
  6
Continuous
 62
     7
370
     9
100
AcDbLine
 10
533.4012438527835
 20
271.3223062280842
 30
0.0
 11
532.651350664307
 21
271.3223062280842
 31
0.0
  0
LINE
  5
23B
330
1F
100
AcDbEntity
  8
D-0
  6
Continuous
 62
     7
370
     9
100
AcDbLine
 10
443.9157295023677
 20
183.8089460704232
 30
0.0
 11
443.9157295023677
 21
184.5590872142221
 31
0.0
  0
LINE
  5
23C
330
1F
100
AcDbEntity
  8
D-0
  6
Continuous
 62
     7
370
     9
100
AcDbLine
 10
443.9157295023677
 20
184.5590872142221
 30
0.0
 11
444.6656226908443
 21
184.5590872142221
 31
0.0
  0
LINE
  5
23D
330
1F
100
AcDbEntity
  8
D-0
  6
Continuous
 62
     7
370
     9
100
AcDbLine
 10
444.6656226908443
 20
184.5590872142221
 30
0.0
 11
444.6656226908443
 21
183.8089460704232
 31
0.0
  0
LINE
  5
23E
330
1F
100
AcDbEntity
  8
D-0
  6
Continuous
 62
     7
370
     9
100
AcDbLine
 10
444.6656226908443
 20
183.8089460704232
 30
0.0
 11
443.9157295023677
 21
183.8089460704232
 31
0.0
  0
LINE
  5
23F
330
1F
100
AcDbEntity
  8
D-0
  6
Continuous
 62
     7
370
     9
100
AcDbLine
 10
470.2253372073243
 20
171.3118824105689
 30
0.0
 11
470.2253372073243
 21
172.0620235543677
 31
0.0
  0
LINE
  5
240
330
1F
100
AcDbEntity
  8
D-0
  6
Continuous
 62
     7
370
     9
100
AcDbLine
 10
470.2253372073243
 20
172.0620235543677
 30
0.0
 11
470.9752303958009
 21
172.0620235543677
 31
0.0
  0
LINE
  5
241
330
1F
100
AcDbEntity
  8
D-0
  6
Continuous
 62
     7
370
     9
100
AcDbLine
 10
470.9752303958009
 20
172.0620235543677
 30
0.0
 11
470.9752303958009
 21
171.3118824105689
 31
0.0
  0
LINE
  5
242
330
1F
100
AcDbEntity
  8
D-0
  6
Continuous
 62
     7
370
     9
100
AcDbLine
 10
470.9752303958009
 20
171.3118824105689
 30
0.0
 11
470.2253372073243
 21
171.3118824105689
 31
0.0
  0
LINE
  5
243
330
1F
100
AcDbEntity
  8
D-0
  6
Continuous
 62
     7
370
     9
100
AcDbLine
 10
489.4366810122182
 20
186.5034515072142
 30
0.0
 11
489.4366810122182
 21
187.2535926510131
 31
0.0
  0
LINE
  5
244
330
1F
100
AcDbEntity
  8
D-0
  6
Continuous
 62
     7
370
     9
100
AcDbLine
 10
489.4366810122182
 20
187.2535926510131
 30
0.0
 11
490.1865742006948
 21
187.2535926510131
 31
0.0
  0
LINE
  5
245
330
1F
100
AcDbEntity
  8
D-0
  6
Continuous
 62
     7
370
     9
100
AcDbLine
 10
490.1865742006948
 20
187.2535926510131
 30
0.0
 11
490.1865742006948
 21
186.5034515072142
 31
0.0
  0
LINE
  5
246
330
1F
100
AcDbEntity
  8
D-0
  6
Continuous
 62
     7
370
     9
100
AcDbLine
 10
490.1865742006948
 20
186.5034515072142
 30
0.0
 11
489.4366810122182
 21
186.5034515072142
 31
0.0
  0
LINE
  5
247
330
1F
100
AcDbEntity
  8
D-0
  6
Continuous
 62
     7
370
     9
100
AcDbLine
 10
463.6689276792957
 20
184.432828471533
 30
0.0
 11
463.6689276792957
 21
185.1829696153318
 31
0.0
  0
LINE
  5
248
330
1F
100
AcDbEntity
  8
D-0
  6
Continuous
 62
     7
370
     9
100
AcDbLine
 10
463.6689276792957
 20
185.1829696153318
 30
0.0
 11
464.4188208677723
 21
185.1829696153318
 31
0.0
  0
LINE
  5
249
330
1F
100
AcDbEntity
  8
D-0
  6
Continuous
 62
     7
370
     9
100
AcDbLine
 10
464.4188208677723
 20
185.1829696153318
 30
0.0
 11
464.4188208677723
 21
184.432828471533
 31
0.0
  0
LINE
  5
24A
330
1F
100
AcDbEntity
  8
D-0
  6
Continuous
 62
     7
370
     9
100
AcDbLine
 10
464.4188208677723
 20
184.432828471533
 30
0.0
 11
463.6689276792957
 21
184.432828471533
 31
0.0
  0
LINE
  5
24B
330
1F
100
AcDbEntity
  8
D-0
  6
Continuous
 62
     7
370
     9
100
AcDbLine
 10
450.6124990931943
 20
168.7306037842834
 30
0.0
 11
450.6124990931943
 21
169.4807449280822
 31
0.0
  0
LINE
  5
24C
330
1F
100
AcDbEntity
  8
D-0
  6
Continuous
 62
     7
370
     9
100
AcDbLine
 10
450.6124990931943
 20
169.4807449280822
 30
0.0
 11
451.3623922816709
 21
169.4807449280822
 31
0.0
  0
LINE
  5
24D
330
1F
100
AcDbEntity
  8
D-0
  6
Continuous
 62
     7
370
     9
100
AcDbLine
 10
451.3623922816709
 20
169.4807449280822
 30
0.0
 11
451.3623922816709
 21
168.7306037842834
 31
0.0
  0
LINE
  5
24E
330
1F
100
AcDbEntity
  8
D-0
  6
Continuous
 62
     7
370
     9
100
AcDbLine
 10
451.3623922816709
 20
168.7306037842834
 30
0.0
 11
450.6124990931943
 21
168.7306037842834
 31
0.0
  0
LINE
  5
24F
330
1F
100
AcDbEntity
  8
D-0
  6
Continuous
 62
     7
370
     9
100
AcDbLine
 10
655.4767721035802
 20
343.1458166341466
 30
0.0
 11
655.4767721035802
 21
343.8959577779454
 31
0.0
  0
LINE
  5
250
330
1F
100
AcDbEntity
  8
D-0
  6
Continuous
 62
     7
370
     9
100
AcDbLine
 10
655.4767721035802
 20
343.8959577779454
 30
0.0
 11
656.2266652920567
 21
343.8959577779454
 31
0.0
  0
LINE
  5
251
330
1F
100
AcDbEntity
  8
D-0
  6
Continuous
 62
     7
370
     9
100
AcDbLine
 10
656.2266652920567
 20
343.8959577779454
 30
0.0
 11
656.2266652920567
 21
343.1458166341466
 31
0.0
  0
LINE
  5
252
330
1F
100
AcDbEntity
  8
D-0
  6
Continuous
 62
     7
370
     9
100
AcDbLine
 10
656.2266652920567
 20
343.1458166341466
 30
0.0
 11
655.4767721035802
 21
343.1458166341466
 31
0.0
  0
LINE
  5
253
330
1F
100
AcDbEntity
  8
D-0
  6
Continuous
 62
     7
370
     9
100
AcDbLine
 10
702.8340659725019
 20
347.09225778989
 30
0.0
 11
702.8340659725019
 21
347.8423989336889
 31
0.0
  0
LINE
  5
254
330
1F
100
AcDbEntity
  8
D-0
  6
Continuous
 62
     7
370
     9
100
AcDbLine
 10
702.8340659725019
 20
347.8423989336889
 30
0.0
 11
703.5839591609785
 21
347.8423989336889
 31
0.0
  0
LINE
  5
255
330
1F
100
AcDbEntity
  8
D-0
  6
Continuous
 62
     7
370
     9
100
AcDbLine
 10
703.5839591609785
 20
347.8423989336889
 30
0.0
 11
703.5839591609785
 21
347.09225778989
 31
0.0
  0
LINE
  5
256
330
1F
100
AcDbEntity
  8
D-0
  6
Continuous
 62
     7
370
     9
100
AcDbLine
 10
703.5839591609785
 20
347.09225778989
 30
0.0
 11
702.8340659725019
 21
347.09225778989
 31
0.0
  0
LINE
  5
257
330
1F
100
AcDbEntity
  8
D-0
  6
Continuous
 62
     7
370
     9
100
AcDbLine
 10
675.2089778822976
 20
340.5148558636509
 30
0.0
 11
675.2089778822976
 21
341.2649970074497
 31
0.0
  0
LINE
  5
258
330
1F
100
AcDbEntity
  8
D-0
  6
Continuous
 62
     7
370
     9
100
AcDbLine
 10
675.2089778822976
 20
341.2649970074497
 30
0.0
 11
675.9588710707742
 21
341.2649970074497
 31
0.0
  0
LINE
  5
259
330
1F
100
AcDbEntity
  8
D-0
  6
Continuous
 62
     7
370
     9
100
AcDbLine
 10
675.9588710707742
 20
341.2649970074497
 30
0.0
 11
675.9588710707742
 21
340.5148558636509
 31
0.0
  0
LINE
  5
25A
330
1F
100
AcDbEntity
  8
D-0
  6
Continuous
 62
     7
370
     9
100
AcDbLine
 10
675.9588710707742
 20
340.5148558636509
 30
0.0
 11
675.2089778822976
 21
340.5148558636509
 31
0.0
  0
LINE
  5
25B
330
1F
100
AcDbEntity
  8
D-0
  6
Continuous
 62
     7
370
     9
100
AcDbLine
 10
696.9144042388868
 20
327.3600520111726
 30
0.0
 11
696.9144042388868
 21
328.1101931549714
 31
0.0
  0
LINE
  5
25C
330
1F
100
AcDbEntity
  8
D-0
  6
Continuous
 62
     7
370
     9
100
AcDbLine
 10
696.9144042388868
 20
328.1101931549714
 30
0.0
 11
697.6642974273634
 21
328.1101931549714
 31
0.0
  0
LINE
  5
25D
330
1F
100
AcDbEntity
  8
D-0
  6
Continuous
 62
     7
370
     9
100
AcDbLine
 10
697.6642974273634
 20
328.1101931549714
 30
0.0
 11
697.6642974273634
 21
327.3600520111726
 31
0.0
  0
LINE
  5
25E
330
1F
100
AcDbEntity
  8
D-0
  6
Continuous
 62
     7
370
     9
100
AcDbLine
 10
697.6642974273634
 20
327.3600520111726
 30
0.0
 11
696.9144042388868
 21
327.3600520111726
 31
0.0
  0
LINE
  5
25F
330
1F
100
AcDbEntity
  8
D-0
  6
Continuous
 62
     7
370
     9
100
AcDbLine
 10
602.0556280311963
 20
350.5310752750643
 30
0.0
 11
602.0556280311963
 21
351.2812164188632
 31
0.0
  0
LINE
  5
260
330
1F
100
AcDbEntity
  8
D-0
  6
Continuous
 62
     7
370
     9
100
AcDbLine
 10
602.0556280311963
 20
351.2812164188632
 30
0.0
 11
602.8055212196729
 21
351.2812164188632
 31
0.0
  0
LINE
  5
261
330
1F
100
AcDbEntity
  8
D-0
  6
Continuous
 62
     7
370
     9
100
AcDbLine
 10
602.8055212196729
 20
351.2812164188632
 30
0.0
 11
602.8055212196729
 21
350.5310752750643
 31
0.0
  0
LINE
  5
262
330
1F
100
AcDbEntity
  8
D-0
  6
Continuous
 62
     7
370
     9
100
AcDbLine
 10
602.8055212196729
 20
350.5310752750643
 30
0.0
 11
602.0556280311963
 21
350.5310752750643
 31
0.0
  0
LINE
  5
263
330
1F
100
AcDbEntity
  8
D-0
  6
Continuous
 62
     7
370
     9
100
AcDbLine
 10
561.2757360885136
 20
341.9804527709534
 30
0.0
 11
561.2757360885136
 21
342.7305939147522
 31
0.0
  0
LINE
  5
264
330
1F
100
AcDbEntity
  8
D-0
  6
Continuous
 62
     7
370
     9
100
AcDbLine
 10
561.2757360885136
 20
342.7305939147522
 30
0.0
 11
562.0256292769901
 21
342.7305939147522
 31
0.0
  0
LINE
  5
265
330
1F
100
AcDbEntity
  8
D-0
  6
Continuous
 62
     7
370
     9
100
AcDbLine
 10
562.0256292769901
 20
342.7305939147522
 30
0.0
 11
562.0256292769901
 21
341.9804527709534
 31
0.0
  0
LINE
  5
266
330
1F
100
AcDbEntity
  8
D-0
  6
Continuous
 62
     7
370
     9
100
AcDbLine
 10
562.0256292769901
 20
341.9804527709534
 30
0.0
 11
561.2757360885136
 21
341.9804527709534
 31
0.0
  0
LINE
  5
267
330
1F
100
AcDbEntity
  8
D-0
  6
Continuous
 62
     7
370
     9
100
AcDbLine
 10
581.6656820598549
 20
342.6381929635773
 30
0.0
 11
581.6656820598549
 21
343.3883341073761
 31
0.0
  0
LINE
  5
268
330
1F
100
AcDbEntity
  8
D-0
  6
Continuous
 62
     7
370
     9
100
AcDbLine
 10
581.6656820598549
 20
343.3883341073761
 30
0.0
 11
582.4155752483315
 21
343.3883341073761
 31
0.0
  0
LINE
  5
269
330
1F
100
AcDbEntity
  8
D-0
  6
Continuous
 62
     7
370
     9
100
AcDbLine
 10
582.4155752483315
 20
343.3883341073761
 30
0.0
 11
582.4155752483315
 21
342.6381929635773
 31
0.0
  0
LINE
  5
26A
330
1F
100
AcDbEntity
  8
D-0
  6
Continuous
 62
     7
370
     9
100
AcDbLine
 10
582.4155752483315
 20
342.6381929635773
 30
0.0
 11
581.6656820598549
 21
342.6381929635773
 31
0.0
  0
LINE
  5
26B
330
1F
100
AcDbEntity
  8
D-0
  6
Continuous
 62
     7
370
     9
100
AcDbLine
 10
529.5550023285429
 20
349.363704994201
 30
0.0
 11
529.5550023285429
 21
350.1138461379999
 31
0.0
  0
LINE
  5
26C
330
1F
100
AcDbEntity
  8
D-0
  6
Continuous
 62
     7
370
     9
100
AcDbLine
 10
529.5550023285429
 20
350.1138461379999
 30
0.0
 11
530.3048955170194
 21
350.1138461379999
 31
0.0
  0
LINE
  5
26D
330
1F
100
AcDbEntity
  8
D-0
  6
Continuous
 62
     7
370
     9
100
AcDbLine
 10
530.3048955170194
 20
350.1138461379999
 30
0.0
 11
530.3048955170194
 21
349.363704994201
 31
0.0
  0
LINE
  5
26E
330
1F
100
AcDbEntity
  8
D-0
  6
Continuous
 62
     7
370
     9
100
AcDbLine
 10
530.3048955170194
 20
349.363704994201
 30
0.0
 11
529.5550023285429
 21
349.363704994201
 31
0.0
  0
LINE
  5
26F
330
1F
100
AcDbEntity
  8
D-0
  6
Continuous
 62
     7
370
     9
100
AcDbLine
 10
598.0581144256648
 20
323.9985728071055
 30
0.0
 11
598.0581144256648
 21
324.7487139509043
 31
0.0
  0
LINE
  5
270
330
1F
100
AcDbEntity
  8
D-0
  6
Continuous
 62
     7
370
     9
100
AcDbLine
 10
598.0581144256648
 20
324.7487139509043
 30
0.0
 11
598.8080076141414
 21
324.7487139509043
 31
0.0
  0
LINE
  5
271
330
1F
100
AcDbEntity
  8
D-0
  6
Continuous
 62
     7
370
     9
100
AcDbLine
 10
598.8080076141414
 20
324.7487139509043
 30
0.0
 11
598.8080076141414
 21
323.9985728071055
 31
0.0
  0
LINE
  5
272
330
1F
100
AcDbEntity
  8
D-0
  6
Continuous
 62
     7
370
     9
100
AcDbLine
 10
598.8080076141414
 20
323.9985728071055
 30
0.0
 11
598.0581144256648
 21
323.9985728071055
 31
0.0
  0
LINE
  5
273
330
1F
100
AcDbEntity
  8
D-0
  6
Continuous
 62
     7
370
     9
100
AcDbLine
 10
661.9023246925041
 20
319.9723613488363
 30
0.0
 11
661.9023246925041
 21
320.7225024926352
 31
0.0
  0
LINE
  5
274
330
1F
100
AcDbEntity
  8
D-0
  6
Continuous
 62
     7
370
     9
100
AcDbLine
 10
661.9023246925041
 20
320.7225024926352
 30
0.0
 11
662.6522178809806
 21
320.7225024926352
 31
0.0
  0
LINE
  5
275
330
1F
100
AcDbEntity
  8
D-0
  6
Continuous
 62
     7
370
     9
100
AcDbLine
 10
662.6522178809806
 20
320.7225024926352
 30
0.0
 11
662.6522178809806
 21
319.9723613488363
 31
0.0
  0
LINE
  5
276
330
1F
100
AcDbEntity
  8
D-0
  6
Continuous
 62
     7
370
     9
100
AcDbLine
 10
662.6522178809806
 20
319.9723613488363
 30
0.0
 11
661.9023246925041
 21
319.9723613488363
 31
0.0
  0
LINE
  5
277
330
1F
100
AcDbEntity
  8
D-0
  6
Continuous
 62
     7
370
     9
100
AcDbLine
 10
680.8830358529157
 20
315.8311152774738
 30
0.0
 11
680.8830358529157
 21
316.5812564212727
 31
0.0
  0
LINE
  5
278
330
1F
100
AcDbEntity
  8
D-0
  6
Continuous
 62
     7
370
     9
100
AcDbLine
 10
680.8830358529157
 20
316.5812564212727
 30
0.0
 11
681.6329290413922
 21
316.5812564212727
 31
0.0
  0
LINE
  5
279
330
1F
100
AcDbEntity
  8
D-0
  6
Continuous
 62
     7
370
     9
100
AcDbLine
 10
681.6329290413922
 20
316.5812564212727
 30
0.0
 11
681.6329290413922
 21
315.8311152774738
 31
0.0
  0
LINE
  5
27A
330
1F
100
AcDbEntity
  8
D-0
  6
Continuous
 62
     7
370
     9
100
AcDbLine
 10
681.6329290413922
 20
315.8311152774738
 30
0.0
 11
680.8830358529157
 21
315.8311152774738
 31
0.0
  0
LINE
  5
27B
330
1F
100
AcDbEntity
  8
D-0
  6
Continuous
 62
     7
370
     9
100
AcDbLine
 10
691.9263587098826
 20
349.3061876876544
 30
0.0
 11
691.9263587098826
 21
350.0563288314532
 31
0.0
  0
LINE
  5
27C
330
1F
100
AcDbEntity
  8
D-0
  6
Continuous
 62
     7
370
     9
100
AcDbLine
 10
691.9263587098826
 20
350.0563288314532
 30
0.0
 11
692.6762518983592
 21
350.0563288314532
 31
0.0
  0
LINE
  5
27D
330
1F
100
AcDbEntity
  8
D-0
  6
Continuous
 62
     7
370
     9
100
AcDbLine
 10
692.6762518983592
 20
350.0563288314532
 30
0.0
 11
692.6762518983592
 21
349.3061876876544
 31
0.0
  0
LINE
  5
27E
330
1F
100
AcDbEntity
  8
D-0
  6
Continuous
 62
     7
370
     9
100
AcDbLine
 10
692.6762518983592
 20
349.3061876876544
 30
0.0
 11
691.9263587098826
 21
349.3061876876544
 31
0.0
  0
LINE
  5
27F
330
1F
100
AcDbEntity
  8
D-0
  6
Continuous
 62
     7
370
     9
100
AcDbLine
 10
622.9055908538401
 20
323.4233997416385
 30
0.0
 11
622.9055908538401
 21
324.1735408854373
 31
0.0
  0
LINE
  5
280
330
1F
100
AcDbEntity
  8
D-0
  6
Continuous
 62
     7
370
     9
100
AcDbLine
 10
622.9055908538401
 20
324.1735408854373
 30
0.0
 11
623.6554840423166
 21
324.1735408854373
 31
0.0
  0
LINE
  5
281
330
1F
100
AcDbEntity
  8
D-0
  6
Continuous
 62
     7
370
     9
100
AcDbLine
 10
623.6554840423166
 20
324.1735408854373
 30
0.0
 11
623.6554840423166
 21
323.4233997416385
 31
0.0
  0
LINE
  5
282
330
1F
100
AcDbEntity
  8
D-0
  6
Continuous
 62
     7
370
     9
100
AcDbLine
 10
623.6554840423166
 20
323.4233997416385
 30
0.0
 11
622.9055908538401
 21
323.4233997416385
 31
0.0
  0
LINE
  5
283
330
1F
100
AcDbEntity
  8
D-0
  6
Continuous
 62
     7
370
     9
100
AcDbLine
 10
600.9914970595466
 20
334.7255504780654
 30
0.0
 11
600.9914970595466
 21
335.4756916218642
 31
0.0
  0
LINE
  5
284
330
1F
100
AcDbEntity
  8
D-0
  6
Continuous
 62
     7
370
     9
100
AcDbLine
 10
600.9914970595466
 20
335.4756916218642
 30
0.0
 11
601.7413902480232
 21
335.4756916218642
 31
0.0
  0
LINE
  5
285
330
1F
100
AcDbEntity
  8
D-0
  6
Continuous
 62
     7
370
     9
100
AcDbLine
 10
601.7413902480232
 20
335.4756916218642
 30
0.0
 11
601.7413902480232
 21
334.7255504780654
 31
0.0
  0
LINE
  5
286
330
1F
100
AcDbEntity
  8
D-0
  6
Continuous
 62
     7
370
     9
100
AcDbLine
 10
601.7413902480232
 20
334.7255504780654
 30
0.0
 11
600.9914970595466
 21
334.7255504780654
 31
0.0
  0
LINE
  5
287
330
1F
100
AcDbEntity
  8
D-0
  6
Continuous
 62
     7
370
     9
100
AcDbLine
 10
540.5983251855096
 20
336.2785177548263
 30
0.0
 11
540.5983251855096
 21
337.0286588986252
 31
0.0
  0
LINE
  5
288
330
1F
100
AcDbEntity
  8
D-0
  6
Continuous
 62
     7
370
     9
100
AcDbLine
 10
540.5983251855096
 20
337.0286588986252
 30
0.0
 11
541.3482183739861
 21
337.0286588986252
 31
0.0
  0
LINE
  5
289
330
1F
100
AcDbEntity
  8
D-0
  6
Continuous
 62
     7
370
     9
100
AcDbLine
 10
541.3482183739861
 20
337.0286588986252
 30
0.0
 11
541.3482183739861
 21
336.2785177548263
 31
0.0
  0
LINE
  5
28A
330
1F
100
AcDbEntity
  8
D-0
  6
Continuous
 62
     7
370
     9
100
AcDbLine
 10
541.3482183739861
 20
336.2785177548263
 30
0.0
 11
540.5983251855096
 21
336.2785177548263
 31
0.0
  0
LINE
  5
28B
330
1F
100
AcDbEntity
  8
D-0
  6
Continuous
 62
     7
370
     9
100
AcDbLine
 10
579.3362311447135
 20
329.0313371299419
 30
0.0
 11
579.3362311447135
 21
329.7814782737407
 31
0.0
  0
LINE
  5
28C
330
1F
100
AcDbEntity
  8
D-0
  6
Continuous
 62
     7
370
     9
100
AcDbLine
 10
579.3362311447135
 20
329.7814782737407
 30
0.0
 11
580.08612433319
 21
329.7814782737407
 31
0.0
  0
LINE
  5
28D
330
1F
100
AcDbEntity
  8
D-0
  6
Continuous
 62
     7
370
     9
100
AcDbLine
 10
580.08612433319
 20
329.7814782737407
 30
0.0
 11
580.08612433319
 21
329.0313371299419
 31
0.0
  0
LINE
  5
28E
330
1F
100
AcDbEntity
  8
D-0
  6
Continuous
 62
     7
370
     9
100
AcDbLine
 10
580.08612433319
 20
329.0313371299419
 30
0.0
 11
579.3362311447135
 21
329.0313371299419
 31
0.0
  0
LINE
  5
28F
330
1F
100
AcDbEntity
  8
D-0
  6
Continuous
 62
     7
370
     9
100
AcDbLine
 10
459.2400950751996
 20
235.8533005242846
 30
0.0
 11
459.2400950751996
 21
236.6034416680835
 31
0.0
  0
LINE
  5
290
330
1F
100
AcDbEntity
  8
D-0
  6
Continuous
 62
     7
370
     9
100
AcDbLine
 10
459.2400950751996
 20
236.6034416680835
 30
0.0
 11
459.9899882636762
 21
236.6034416680835
 31
0.0
  0
LINE
  5
291
330
1F
100
AcDbEntity
  8
D-0
  6
Continuous
 62
     7
370
     9
100
AcDbLine
 10
459.9899882636762
 20
236.6034416680835
 30
0.0
 11
459.9899882636762
 21
235.8533005242846
 31
0.0
  0
LINE
  5
292
330
1F
100
AcDbEntity
  8
D-0
  6
Continuous
 62
     7
370
     9
100
AcDbLine
 10
459.9899882636762
 20
235.8533005242846
 30
0.0
 11
459.2400950751996
 21
235.8533005242846
 31
0.0
  0
LINE
  5
293
330
1F
100
AcDbEntity
  8
D-0
  6
Continuous
 62
     7
370
     9
100
AcDbLine
 10
447.8516683789527
 20
216.1823816853126
 30
0.0
 11
447.8516683789527
 21
216.9325228291114
 31
0.0
  0
LINE
  5
294
330
1F
100
AcDbEntity
  8
D-0
  6
Continuous
 62
     7
370
     9
100
AcDbLine
 10
447.8516683789527
 20
216.9325228291114
 30
0.0
 11
448.6015615674293
 21
216.9325228291114
 31
0.0
  0
LINE
  5
295
330
1F
100
AcDbEntity
  8
D-0
  6
Continuous
 62
     7
370
     9
100
AcDbLine
 10
448.6015615674293
 20
216.9325228291114
 30
0.0
 11
448.6015615674293
 21
216.1823816853126
 31
0.0
  0
LINE
  5
296
330
1F
100
AcDbEntity
  8
D-0
  6
Continuous
 62
     7
370
     9
100
AcDbLine
 10
448.6015615674293
 20
216.1823816853126
 30
0.0
 11
447.8516683789527
 21
216.1823816853126
 31
0.0
  0
LINE
  5
297
330
1F
100
AcDbEntity
  8
D-0
  6
Continuous
 62
     7
370
     9
100
AcDbLine
 10
490.2994406104187
 20
226.0178411047986
 30
0.0
 11
490.2994406104187
 21
226.7679822485974
 31
0.0
  0
LINE
  5
298
330
1F
100
AcDbEntity
  8
D-0
  6
Continuous
 62
     7
370
     9
100
AcDbLine
 10
490.2994406104187
 20
226.7679822485974
 30
0.0
 11
491.0493337988953
 21
226.7679822485974
 31
0.0
  0
LINE
  5
299
330
1F
100
AcDbEntity
  8
D-0
  6
Continuous
 62
     7
370
     9
100
AcDbLine
 10
491.0493337988953
 20
226.7679822485974
 30
0.0
 11
491.0493337988953
 21
226.0178411047986
 31
0.0
  0
LINE
  5
29A
330
1F
100
AcDbEntity
  8
D-0
  6
Continuous
 62
     7
370
     9
100
AcDbLine
 10
491.0493337988953
 20
226.0178411047986
 30
0.0
 11
490.2994406104187
 21
226.0178411047986
 31
0.0
  0
LINE
  5
29B
330
1F
100
AcDbEntity
  8
D-0
  6
Continuous
 62
     7
370
     9
100
AcDbLine
 10
484.6052272622952
 20
253.4535963275755
 30
0.0
 11
484.6052272622952
 21
254.2037374713743
 31
0.0
  0
LINE
  5
29C
330
1F
100
AcDbEntity
  8
D-0
  6
Continuous
 62
     7
370
     9
100
AcDbLine
 10
484.6052272622952
 20
254.2037374713743
 30
0.0
 11
485.3551204507718
 21
254.2037374713743
 31
0.0
  0
LINE
  5
29D
330
1F
100
AcDbEntity
  8
D-0
  6
Continuous
 62
     7
370
     9
100
AcDbLine
 10
485.3551204507718
 20
254.2037374713743
 30
0.0
 11
485.3551204507718
 21
253.4535963275755
 31
0.0
  0
LINE
  5
29E
330
1F
100
AcDbEntity
  8
D-0
  6
Continuous
 62
     7
370
     9
100
AcDbLine
 10
485.3551204507718
 20
253.4535963275755
 30
0.0
 11
484.6052272622952
 21
253.4535963275755
 31
0.0
  0
LINE
  5
29F
330
1F
100
AcDbEntity
  8
D-0
  6
Continuous
 62
     7
370
     9
100
AcDbLine
 10
441.6397992719089
 20
242.0651696313284
 30
0.0
 11
441.6397992719089
 21
242.8153107751273
 31
0.0
  0
LINE
  5
2A0
330
1F
100
AcDbEntity
  8
D-0
  6
Continuous
 62
     7
370
     9
100
AcDbLine
 10
441.6397992719089
 20
242.8153107751273
 30
0.0
 11
442.3896924603854
 21
242.8153107751273
 31
0.0
  0
LINE
  5
2A1
330
1F
100
AcDbEntity
  8
D-0
  6
Continuous
 62
     7
370
     9
100
AcDbLine
 10
442.3896924603854
 20
242.8153107751273
 30
0.0
 11
442.3896924603854
 21
242.0651696313284
 31
0.0
  0
LINE
  5
2A2
330
1F
100
AcDbEntity
  8
D-0
  6
Continuous
 62
     7
370
     9
100
AcDbLine
 10
442.3896924603854
 20
242.0651696313284
 30
0.0
 11
441.6397992719089
 21
242.0651696313284
 31
0.0
  0
LINE
  5
2A3
330
1F
100
AcDbEntity
  8
D-0
  6
Continuous
 62
     7
370
     9
100
AcDbLine
 10
546.9827462121935
 20
280.1128679119718
 30
0.0
 11
546.9827462121935
 21
280.8630090557706
 31
0.0
  0
LINE
  5
2A4
330
1F
100
AcDbEntity
  8
D-0
  6
Continuous
 62
     7
370
     9
100
AcDbLine
 10
546.9827462121935
 20
280.8630090557706
 30
0.0
 11
547.7326394006701
 21
280.8630090557706
 31
0.0
  0
LINE
  5
2A5
330
1F
100
AcDbEntity
  8
D-0
  6
Continuous
 62
     7
370
     9
100
AcDbLine
 10
547.7326394006701
 20
280.8630090557706
 30
0.0
 11
547.7326394006701
 21
280.1128679119718
 31
0.0
  0
LINE
  5
2A6
330
1F
100
AcDbEntity
  8
D-0
  6
Continuous
 62
     7
370
     9
100
AcDbLine
 10
547.7326394006701
 20
280.1128679119718
 30
0.0
 11
546.9827462121935
 21
280.1128679119718
 31
0.0
  0
LINE
  5
2A7
330
1F
100
AcDbEntity
  8
D-0
  6
Continuous
 62
     7
370
     9
100
AcDbLine
 10
597.3679067471045
 20
271.9166517290669
 30
0.0
 11
597.3679067471045
 21
272.6667928728657
 31
0.0
  0
LINE
  5
2A8
330
1F
100
AcDbEntity
  8
D-0
  6
Continuous
 62
     7
370
     9
100
AcDbLine
 10
597.3679067471045
 20
272.6667928728657
 30
0.0
 11
598.117799935581
 21
272.6667928728657
 31
0.0
  0
LINE
  5
2A9
330
1F
100
AcDbEntity
  8
D-0
  6
Continuous
 62
     7
370
     9
100
AcDbLine
 10
598.117799935581
 20
272.6667928728657
 30
0.0
 11
598.117799935581
 21
271.9166517290669
 31
0.0
  0
LINE
  5
2AA
330
1F
100
AcDbEntity
  8
D-0
  6
Continuous
 62
     7
370
     9
100
AcDbLine
 10
598.117799935581
 20
271.9166517290669
 30
0.0
 11
597.3679067471045
 21
271.9166517290669
 31
0.0
  0
LINE
  5
2AB
330
1F
100
AcDbEntity
  8
D-0
  6
Continuous
 62
     7
370
     9
100
AcDbLine
 10
599.4385297827857
 20
297.7994396750827
 30
0.0
 11
599.4385297827857
 21
298.5495808188816
 31
0.0
  0
LINE
  5
2AC
330
1F
100
AcDbEntity
  8
D-0
  6
Continuous
 62
     7
370
     9
100
AcDbLine
 10
599.4385297827857
 20
298.5495808188816
 30
0.0
 11
600.1884229712623
 21
298.5495808188816
 31
0.0
  0
LINE
  5
2AD
330
1F
100
AcDbEntity
  8
D-0
  6
Continuous
 62
     7
370
     9
100
AcDbLine
 10
600.1884229712623
 20
298.5495808188816
 30
0.0
 11
600.1884229712623
 21
297.7994396750827
 31
0.0
  0
LINE
  5
2AE
330
1F
100
AcDbEntity
  8
D-0
  6
Continuous
 62
     7
370
     9
100
AcDbLine
 10
600.1884229712623
 20
297.7994396750827
 30
0.0
 11
599.4385297827857
 21
297.7994396750827
 31
0.0
  0
LINE
  5
2AF
330
1F
100
AcDbEntity
  8
D-0
  6
Continuous
 62
     7
370
     9
100
AcDbLine
 10
708.2325151158725
 20
320.2311892282966
 30
0.0
 11
708.2325151158725
 21
320.9813303720954
 31
0.0
  0
LINE
  5
2B0
330
1F
100
AcDbEntity
  8
D-0
  6
Continuous
 62
     7
370
     9
100
AcDbLine
 10
708.2325151158725
 20
320.9813303720954
 30
0.0
 11
708.9824083043491
 21
320.9813303720954
 31
0.0
  0
LINE
  5
2B1
330
1F
100
AcDbEntity
  8
D-0
  6
Continuous
 62
     7
370
     9
100
AcDbLine
 10
708.9824083043491
 20
320.9813303720954
 30
0.0
 11
708.9824083043491
 21
320.2311892282966
 31
0.0
  0
LINE
  5
2B2
330
1F
100
AcDbEntity
  8
D-0
  6
Continuous
 62
     7
370
     9
100
AcDbLine
 10
708.9824083043491
 20
320.2311892282966
 30
0.0
 11
708.2325151158725
 21
320.2311892282966
 31
0.0
  0
TEXT
  5
2B3
330
1F
100
AcDbEntity
  8
D-4
  6
Continuous
 62
     7
370
     9
100
AcDbText
 10
227.9853322361741
 20
53.67550095915941
 30
0.0
 40
11.43
  1
処理：陽極酸化塗装複合皮膜処理（アルミ材のみ）
 41
1.159420289855073
  7
ＭＳ ゴシック
100
AcDbText
  0
LINE
  5
2B4
330
1F
100
AcDbEntity
  8
D-0
  6
Continuous
 62
     7
370
     9
100
AcDbLine
 10
349.6726991085649
 20
-487.3166718354096
 30
0.0
 11
349.6726991085649
 21
-454.8168739112648
 31
0.0
  0
LINE
  5
2B5
330
1F
100
AcDbEntity
  8
D-0
  6
Continuous
 62
     7
370
     9
100
AcDbLine
 10
349.6726991085649
 20
-454.8168739112648
 30
0.0
 11
637.1730290283285
 21
-454.8168739112648
 31
0.0
  0
LINE
  5
2B6
330
1F
100
AcDbEntity
  8
D-0
  6
Continuous
 62
     7
370
     9
100
AcDbLine
 10
637.1730290283285
 20
-454.8168739112648
 30
0.0
 11
637.1730290283285
 21
-487.3166718354096
 31
0.0
  0
LINE
  5
2B7
330
1F
100
AcDbEntity
  8
D-0
  6
Continuous
 62
     7
370
     9
100
AcDbLine
 10
637.1730290283285
 20
-487.3166718354096
 30
0.0
 11
349.6726991085649
 21
-487.3166718354096
 31
0.0
  0
LINE
  5
2B8
330
1F
100
AcDbEntity
  8
D-0
  6
Continuous
 62
     3
370
     9
100
AcDbLine
 10
603.1050193682777
 20
-277.4768148886191
 30
0.0
 11
377.6046960469095
 21
-277.4768148886191
 31
0.0
  0
LINE
  5
2B9
330
1F
100
AcDbEntity
  8
D-0
  6
Continuous
 62
     3
370
     9
100
AcDbLine
 10
582.652633388548
 20
-284.9767777726456
 30
0.0
 11
605.3544947958537
 21
-284.9767777726456
 31
0.0
  0
LINE
  5
2BA
330
1F
100
AcDbEntity
  8
D-0
  6
Continuous
 62
     3
370
     9
100
AcDbLine
 10
581.4525502487676
 20
-284.9767777726456
 30
0.0
 11
375.3544782998656
 21
-284.9767777726456
 31
0.0
  0
LINE
  5
2BB
330
1F
100
AcDbEntity
  8
D-0
  6
JWW_DASHED3
 62
     3
370
     9
100
AcDbLine
 10
399.2576600460649
 20
-285.8803042849979
 30
0.0
 11
402.6045310870277
 21
-296.2268148886191
 31
0.0
  0
LINE
  5
2BC
330
1F
100
AcDbEntity
  8
D-0
  6
Continuous
 62
     3
370
     9
100
AcDbLine
 10
375.3544782998656
 20
-279.726847055796
 30
0.0
 11
375.3544782998656
 21
-284.9767777726456
 31
0.0
  0
LINE
  5
2BD
330
1F
100
AcDbEntity
  8
D-0
  6
Continuous
 62
     3
370
     9
100
AcDbLine
 10
605.3544947958537
 20
-279.726847055796
 30
0.0
 11
605.3544947958537
 21
-284.9767777726456
 31
0.0
  0
LINE
  5
2BE
330
1F
100
AcDbEntity
  8
D-0
  6
JWW_CENTER1
 62
     3
370
     9
100
AcDbLine
 10
490.3546102677709
 20
-187.616630760399
 30
0.0
 11
490.3546102677709
 21
-417.0229154019742
 31
0.0
  0
LINE
  5
2BF
330
1F
100
AcDbEntity
  8
D-0
  6
JWW_DASHED3
 62
     3
370
     9
100
AcDbLine
 10
581.4525502487676
 20
-285.8803042849979
 30
0.0
 11
578.1046894485141
 21
-296.2268148886191
 31
0.0
  0
LINE
  5
2C0
330
1F
100
AcDbEntity
  8
D-0
  6
JWW_DASHED3
 62
     3
370
     9
100
AcDbLine
 10
408.8543661271459
 20
-302.4770210884713
 30
0.0
 11
571.8548544083959
 21
-302.4770210884713
 31
0.0
  0
LINE
  5
2C1
330
1F
100
AcDbEntity
  8
D-0
  6
Continuous
 62
     3
370
     9
100
AcDbLine
 10
600.3547257396881
 20
-24.97740462019635
 30
0.0
 11
380.3547422356764
 21
-24.97740462019635
 31
0.0
  0
LINE
  5
2C2
330
1F
100
AcDbEntity
  8
D-0
  6
Continuous
 62
     3
370
     9
100
AcDbLine
 10
605.354989675499
 20
-107.4775530840899
 30
0.0
 11
605.354989675499
 21
-29.97735925622891
 31
0.0
  0
LINE
  5
2C3
330
1F
100
AcDbEntity
  8
D-0
  6
Continuous
 62
     3
370
     9
100
AcDbLine
 10
375.3544782998656
 20
-107.4775530840899
 30
0.0
 11
375.3544782998656
 21
-29.97735925622891
 31
0.0
  0
LINE
  5
2C4
330
1F
100
AcDbEntity
  8
D-0
  6
Continuous
 62
     3
370
     9
100
AcDbLine
 10
380.3547422356764
 20
-112.4775695800781
 30
0.0
 11
600.3547257396881
 21
-112.4775695800781
 31
0.0
  0
LINE
  5
2C5
330
1F
100
AcDbEntity
  8
D-0
  6
Continuous
 62
     3
370
     9
100
AcDbLine
 10
408.8548610067912
 20
-78.47760587125208
 30
0.0
 11
408.8548610067912
 21
-58.97761576884491
 31
0.0
  0
LINE
  5
2C6
330
1F
100
AcDbEntity
  8
D-0
  6
Continuous
 62
     3
370
     9
100
AcDbLine
 10
566.3547620308624
 20
-53.4774615313556
 30
0.0
 11
414.3544585046798
 21
-53.4774615313556
 31
0.0
  0
LINE
  5
2C7
330
1F
100
AcDbEntity
  8
D-0
  6
Continuous
 62
     3
370
     9
100
AcDbLine
 10
571.8548544083959
 20
-78.47760587125208
 30
0.0
 11
571.8548544083959
 21
-58.97761576884491
 31
0.0
  0
LINE
  5
2C8
330
1F
100
AcDbEntity
  8
D-0
  6
Continuous
 62
     3
370
     9
100
AcDbLine
 10
566.3547620308624
 20
-83.97745080896328
 30
0.0
 11
414.3544585046798
 21
-83.97745080896328
 31
0.0
  0
LINE
  5
2C9
330
1F
100
AcDbEntity
  8
D-0
  6
JWW_CENTER1
 62
     3
370
     9
100
AcDbLine
 10
490.3546102677709
 20
-128.2295886890308
 30
0.0
 11
490.3546102677709
 21
-6.641062143686582
 31
0.0
  0
LINE
  5
2CA
330
1F
100
AcDbEntity
  8
D-0
  6
JWW_CENTER1
 62
     3
370
     9
100
AcDbLine
 10
357.9357045456425
 20
-68.72748710013724
 30
0.0
 11
623.559879746234
 21
-68.72748710013724
 31
0.0
  0
LINE
  5
2CB
330
1F
100
AcDbEntity
  8
D-0
  6
Continuous
 62
     3
370
     9
100
AcDbLine
 10
410.3548412116056
 20
-376.2270169644742
 30
0.0
 11
570.3546267637593
 21
-376.2270169644742
 31
0.0
  0
LINE
  5
2CC
330
1F
100
AcDbEntity
  8
D-0
  6
Continuous
 62
     3
370
     9
100
AcDbLine
 10
410.3548412116056
 20
-382.4770994444151
 30
0.0
 11
570.3546267637593
 21
-382.4770994444151
 31
0.0
  0
LINE
  5
2CD
330
1F
100
AcDbEntity
  8
D-0
  6
Continuous
 62
     3
370
     9
100
AcDbLine
 10
452.8546102677709
 20
-372.7269806733003
 30
0.0
 11
460.354511291842
 21
-375.4770268620671
 31
0.0
  0
LINE
  5
2CE
330
1F
100
AcDbEntity
  8
D-0
  6
Continuous
 62
     3
370
     9
100
AcDbLine
 10
527.8546102677709
 20
-372.7269806733003
 30
0.0
 11
520.3547092437001
 21
-375.4770268620671
 31
0.0
  0
LINE
  5
2CF
330
1F
100
AcDbEntity
  8
D-0
  6
Continuous
 62
     3
370
     9
100
AcDbLine
 10
460.354511291842
 20
-375.4770268620671
 30
0.0
 11
460.354511291842
 21
-376.2270169644742
 31
0.0
  0
LINE
  5
2D0
330
1F
100
AcDbEntity
  8
D-0
  6
Continuous
 62
     3
370
     9
100
AcDbLine
 10
520.3547092437001
 20
-375.4770268620671
 30
0.0
 11
520.3547092437001
 21
-376.2270169644742
 31
0.0
  0
LINE
  5
2D1
330
1F
100
AcDbEntity
  8
D-0
  6
Continuous
 62
     3
370
     9
100
AcDbLine
 10
450.3544782998654
 20
-399.9770334604624
 30
0.0
 11
450.3544782998654
 21
-382.4770994444151
 31
0.0
  0
LINE
  5
2D2
330
1F
100
AcDbEntity
  8
D-0
  6
Continuous
 62
     3
370
     9
100
AcDbLine
 10
527.8546102677709
 20
-402.4769179885452
 30
0.0
 11
452.8546102677709
 21
-402.4769179885452
 31
0.0
  0
LINE
  5
2D3
330
1F
100
AcDbEntity
  8
D-0
  6
Continuous
 62
     3
370
     9
100
AcDbLine
 10
530.354989675499
 20
-399.9770334604624
 30
0.0
 11
530.354989675499
 21
-382.4770994444151
 31
0.0
  0
LINE
  5
2D4
330
1F
100
AcDbEntity
  8
D-0
  6
Continuous
 62
     3
370
     9
100
AcDbLine
 10
410.3548412116056
 20
-376.2270169644742
 30
0.0
 11
410.3548412116056
 21
-387.4771159404032
 31
0.0
  0
LINE
  5
2D5
330
1F
100
AcDbEntity
  8
D-0
  6
Continuous
 62
     3
370
     9
100
AcDbLine
 10
570.3546267637593
 20
-376.2270169644742
 30
0.0
 11
570.3546267637593
 21
-387.4771159404032
 31
0.0
  0
LINE
  5
2D6
330
1F
100
AcDbEntity
  8
D-0
  6
Continuous
 62
     3
370
     9
100
AcDbLine
 10
410.3548412116056
 20
-387.4771159404032
 30
0.0
 11
449.7296927477118
 21
-387.4771159404032
 31
0.0
  0
LINE
  5
2D7
330
1F
100
AcDbEntity
  8
D-0
  6
Continuous
 62
     3
370
     9
100
AcDbLine
 10
530.9797752276527
 20
-387.4771159404032
 30
0.0
 11
570.3546267637593
 21
-387.4771159404032
 31
0.0
  0
LINE
  5
2D8
330
1F
100
AcDbEntity
  8
D-0
  6
Continuous
 62
     3
370
     9
100
AcDbLine
 10
530.9797752276527
 20
-382.4770994444151
 30
0.0
 11
530.9797752276527
 21
-387.4771159404032
 31
0.0
  0
LINE
  5
2D9
330
1F
100
AcDbEntity
  8
D-0
  6
Continuous
 62
     3
370
     9
100
AcDbLine
 10
449.7296927477118
 20
-382.4770994444151
 30
0.0
 11
449.7296927477118
 21
-387.4771159404032
 31
0.0
  0
LINE
  5
2DA
330
1F
100
AcDbEntity
  8
D-0
  6
Continuous
 62
     3
370
     9
100
AcDbLine
 10
452.8546102677709
 20
-339.7269212877428
 30
0.0
 11
452.8546102677709
 21
-372.7269806733003
 31
0.0
  0
LINE
  5
2DB
330
1F
100
AcDbEntity
  8
D-0
  6
Continuous
 62
     3
370
     9
100
AcDbLine
 10
527.8546102677709
 20
-339.7675014186549
 30
0.0
 11
527.8546102677709
 21
-372.7269806733003
 31
0.0
  0
LINE
  5
2DC
330
1F
100
AcDbEntity
  8
D-0
  6
JWW_PHANTOM1
 62
     3
370
     9
100
AcDbLine
 10
410.604755432467
 20
-202.4769386085304
 30
0.0
 11
570.1044651030751
 21
-202.4769386085304
 31
0.0
  0
LINE
  5
2DD
330
1F
100
AcDbEntity
  8
D-0
  6
JWW_PHANTOM1
 62
     3
370
     9
100
AcDbLine
 10
410.604755432467
 20
-213.7269757245038
 30
0.0
 11
570.1044651030751
 21
-213.7269757245038
 31
0.0
  0
LINE
  5
2DE
330
1F
100
AcDbEntity
  8
D-0
  6
JWW_PHANTOM1
 62
     3
370
     9
100
AcDbLine
 10
410.604755432467
 20
-202.4769386085304
 30
0.0
 11
410.604755432467
 21
-213.7269757245038
 31
0.0
  0
LINE
  5
2DF
330
1F
100
AcDbEntity
  8
D-0
  6
JWW_PHANTOM1
 62
     3
370
     9
100
AcDbLine
 10
570.1044651030751
 20
-202.4769386085304
 30
0.0
 11
570.1044651030751
 21
-213.7269757245038
 31
0.0
  0
LINE
  5
2E0
330
1F
100
AcDbEntity
  8
D-0
  6
JWW_PHANTOM1
 62
     3
370
     9
100
AcDbLine
 10
567.1045046934468
 20
-213.7269757245038
 30
0.0
 11
567.1045046934468
 21
-219.9769344845333
 31
0.0
  0
LINE
  5
2E1
330
1F
100
AcDbEntity
  8
D-0
  6
JWW_PHANTOM1
 62
     3
370
     9
100
AcDbLine
 10
413.6047158420954
 20
-213.7269757245038
 30
0.0
 11
413.6047158420954
 21
-219.9769344845333
 31
0.0
  0
LINE
  5
2E2
330
1F
100
AcDbEntity
  8
D-0
  6
JWW_PHANTOM1
 62
     3
370
     9
100
AcDbLine
 10
457.8548742035819
 20
-219.9769344845333
 30
0.0
 11
413.6047158420954
 21
-219.9769344845333
 31
0.0
  0
LINE
  5
2E3
330
1F
100
AcDbEntity
  8
D-0
  6
JWW_PHANTOM1
 62
     3
370
     9
100
AcDbLine
 10
522.8548412116056
 20
-219.9769344845333
 30
0.0
 11
567.1045046934468
 21
-219.9769344845333
 31
0.0
  0
LINE
  5
2E4
330
1F
100
AcDbEntity
  8
D-0
  6
JWW_PHANTOM1
 62
     3
370
     9
100
AcDbLine
 10
452.8546102677709
 20
-263.4768553037901
 30
0.0
 11
452.8546102677709
 21
-277.4768148886191
 31
0.0
  0
LINE
  5
2E5
330
1F
100
AcDbEntity
  8
D-0
  6
JWW_PHANTOM1
 62
     3
370
     9
100
AcDbLine
 10
465.3547752276527
 20
-244.9768932445629
 30
0.0
 11
465.3547752276527
 21
-227.4769592285156
 31
0.0
  0
LINE
  5
2E6
330
1F
100
AcDbEntity
  8
D-0
  6
JWW_PHANTOM1
 62
     3
370
     9
100
AcDbLine
 10
515.3549401875345
 20
-244.9768932445629
 30
0.0
 11
515.3549401875345
 21
-227.4769592285156
 31
0.0
  0
LINE
  5
2E7
330
1F
100
AcDbEntity
  8
D-0
  6
JWW_PHANTOM1
 62
     3
370
     9
100
AcDbLine
 10
527.8546102677709
 20
-263.5174354347023
 30
0.0
 11
527.8546102677709
 21
-277.4768148886191
 31
0.0
  0
LINE
  5
2E8
330
1F
100
AcDbEntity
  8
D-0
  6
JWW_PHANTOM1
 62
     3
370
     9
100
AcDbLine
 10
463.8547950228386
 20
-206.2268891205658
 30
0.0
 11
516.8544255127035
 21
-206.2268891205658
 31
0.0
  0
LINE
  5
2E9
330
1F
100
AcDbEntity
  8
D-0
  6
JWW_PHANTOM1
 62
     3
370
     9
100
AcDbLine
 10
463.8547950228386
 20
-206.2268891205658
 30
0.0
 11
463.8547950228386
 21
-213.7269757245038
 31
0.0
  0
LINE
  5
2EA
330
1F
100
AcDbEntity
  8
D-0
  6
JWW_PHANTOM1
 62
     3
370
     9
100
AcDbLine
 10
516.8544255127035
 20
-206.2268891205658
 30
0.0
 11
516.8544255127035
 21
-213.7269757245038
 31
0.0
  0
LINE
  5
2EB
330
1F
100
AcDbEntity
  8
D-0
  6
Continuous
 62
     3
370
     9
100
AcDbLine
 10
376.6045442838183
 20
-284.9767777726456
 30
0.0
 11
376.6045442838183
 21
-314.9768148886191
 31
0.0
  0
LINE
  5
2EC
330
1F
100
AcDbEntity
  8
D-0
  6
Continuous
 62
     3
370
     9
100
AcDbLine
 10
604.1046762517238
 20
-284.9767777726456
 30
0.0
 11
604.1046762517238
 21
-314.9768148886191
 31
0.0
  0
LINE
  5
2ED
330
1F
100
AcDbEntity
  8
D-0
  6
JWW_DASHED3
 62
     3
370
     9
100
AcDbLine
 10
599.1044123159129
 20
-284.9767777726456
 30
0.0
 11
599.1044123159129
 21
-314.9768148886191
 31
0.0
  0
LINE
  5
2EE
330
1F
100
AcDbEntity
  8
D-0
  6
JWW_DASHED3
 62
     3
370
     9
100
AcDbLine
 10
381.6050556594516
 20
-284.9767777726456
 30
0.0
 11
381.6050556594516
 21
-314.9768148886191
 31
0.0
  0
LINE
  5
2EF
330
1F
100
AcDbEntity
  8
D-0
  6
Continuous
 62
     3
370
     9
100
AcDbLine
 10
604.1046762517238
 20
-314.9768148886191
 30
0.0
 11
376.6045442838183
 21
-314.9768148886191
 31
0.0
  0
LINE
  5
2F0
330
1F
100
AcDbEntity
  8
D-0
  6
Continuous
 62
     3
370
     9
100
AcDbLine
 10
465.3547752276527
 20
-321.227082948427
 30
0.0
 11
465.3547752276527
 21
-314.9768148886191
 31
0.0
  0
LINE
  5
2F1
330
1F
100
AcDbEntity
  8
D-0
  6
Continuous
 62
     3
370
     9
100
AcDbLine
 10
515.3544453078891
 20
-321.227082948427
 30
0.0
 11
515.3544453078891
 21
-314.9768148886191
 31
0.0
  0
LINE
  5
2F2
330
1F
100
AcDbEntity
  8
D-0
  6
JWW_DASHED3
 62
     3
370
     9
100
AcDbLine
 10
515.3544453078891
 20
-314.9768148886191
 30
0.0
 11
515.3544453078891
 21
-302.4770210884713
 31
0.0
  0
LINE
  5
2F3
330
1F
100
AcDbEntity
  8
D-0
  6
JWW_DASHED3
 62
     3
370
     9
100
AcDbLine
 10
465.3547752276527
 20
-314.9768148886191
 30
0.0
 11
465.3547752276527
 21
-302.4770210884713
 31
0.0
  0
LINE
  5
2F4
330
1F
100
AcDbEntity
  8
D-4
  6
Continuous
 62
     7
370
     9
100
AcDbLine
 10
658.5404474721628
 20
-314.9768148886191
 30
0.0
 11
658.5404474721628
 21
-277.4768148886191
 31
0.0
  0
LINE
  5
2F5
330
1F
100
AcDbEntity
  8
D-4
  6
Continuous
 62
     7
370
     9
100
AcDbLine
 10
616.1634085680244
 20
-314.9768148886191
 30
0.0
 11
660.0404276769771
 21
-314.9768148886191
 31
0.0
  0
LINE
  5
2F6
330
1F
100
AcDbEntity
  8
D-4
  6
Continuous
 62
     7
370
     9
100
AcDbLine
 10
616.1634085680244
 20
-277.4768148886191
 30
0.0
 11
660.0404276769771
 21
-277.4768148886191
 31
0.0
  0
ARC
  5
2F7
330
1F
100
AcDbEntity
  8
D-0
  6
JWW_DASHED3
 62
     3
370
     9
100
AcDbCircle
 10
408.8543661271459
 20
-296.2268148886191
 30
0.0
 40
6.250000322187269
100
AcDbArc
 50
180.0
 51
270.0
  0
ARC
  5
2F8
330
1F
100
AcDbEntity
  8
D-0
  6
JWW_DASHED3
 62
     3
370
     9
100
AcDbCircle
 10
571.8548544083959
 20
-296.2268148886191
 30
0.0
 40
6.250000322187269
100
AcDbArc
 50
270.0
 51
0.0
  0
ARC
  5
2F9
330
1F
100
AcDbEntity
  8
D-0
  6
Continuous
 62
     3
370
     9
100
AcDbCircle
 10
377.6046960469095
 20
-279.726847055796
 30
0.0
 40
2.249999787356403
100
AcDbArc
 50
90.0
 51
180.0
  0
ARC
  5
2FA
330
1F
100
AcDbEntity
  8
D-0
  6
Continuous
 62
     3
370
     9
100
AcDbCircle
 10
603.1050193682777
 20
-279.726847055796
 30
0.0
 40
2.249999787356403
100
AcDbArc
 50
0.0
 51
90.0
  0
ARC
  5
2FB
330
1F
100
AcDbEntity
  8
D-0
  6
JWW_DASHED3
 62
     3
370
     9
100
AcDbCircle
 10
582.652633388548
 20
-286.2269056165541
 30
0.0
 40
1.249999895289138
100
AcDbArc
 50
90.0
 51
163.8992004394532
  0
ARC
  5
2FC
330
1F
100
AcDbEntity
  8
D-0
  6
JWW_DASHED3
 62
     3
370
     9
100
AcDbCircle
 10
398.0563397071712
 20
-286.2269056165541
 30
0.0
 40
1.249999895289138
100
AcDbArc
 50
16.10079956054688
 51
90.0
  0
ARC
  5
2FD
330
1F
100
AcDbEntity
  8
D-0
  6
Continuous
 62
     3
370
     9
100
AcDbCircle
 10
380.3547422356764
 20
-29.97735925622891
 30
0.0
 40
5.000000064437454
100
AcDbArc
 50
90.0
 51
180.0
  0
ARC
  5
2FE
330
1F
100
AcDbEntity
  8
D-0
  6
Continuous
 62
     3
370
     9
100
AcDbCircle
 10
600.3547257396881
 20
-29.97735925622891
 30
0.0
 40
5.000000064437454
100
AcDbArc
 50
0.0
 51
90.0
  0
ARC
  5
2FF
330
1F
100
AcDbEntity
  8
D-0
  6
Continuous
 62
     3
370
     9
100
AcDbCircle
 10
600.3547257396881
 20
-107.4775530840899
 30
0.0
 40
5.000000064437454
100
AcDbArc
 50
270.0
 51
0.0
  0
ARC
  5
300
330
1F
100
AcDbEntity
  8
D-0
  6
Continuous
 62
     3
370
     9
100
AcDbCircle
 10
380.3547422356764
 20
-107.4775530840899
 30
0.0
 40
5.000000064437454
100
AcDbArc
 50
180.0
 51
270.0
  0
ARC
  5
301
330
1F
100
AcDbEntity
  8
D-0
  6
Continuous
 62
     3
370
     9
100
AcDbCircle
 10
414.3544585046798
 20
-58.97761576884491
 30
0.0
 40
5.5000000708812
100
AcDbArc
 50
90.0
 51
180.0
  0
ARC
  5
302
330
1F
100
AcDbEntity
  8
D-0
  6
Continuous
 62
     3
370
     9
100
AcDbCircle
 10
414.3544585046798
 20
-78.47760587125208
 30
0.0
 40
5.5000000708812
100
AcDbArc
 50
180.0
 51
270.0
  0
ARC
  5
303
330
1F
100
AcDbEntity
  8
D-0
  6
Continuous
 62
     3
370
     9
100
AcDbCircle
 10
566.3547620308624
 20
-58.97761576884491
 30
0.0
 40
5.5000000708812
100
AcDbArc
 50
0.0
 51
90.0
  0
ARC
  5
304
330
1F
100
AcDbEntity
  8
D-0
  6
Continuous
 62
     3
370
     9
100
AcDbCircle
 10
566.3547620308624
 20
-78.47760587125208
 30
0.0
 40
5.5000000708812
100
AcDbArc
 50
270.0
 51
0.0
  0
ARC
  5
305
330
1F
100
AcDbEntity
  8
D-0
  6
Continuous
 62
     3
370
     9
100
AcDbCircle
 10
452.8546102677709
 20
-399.9770334604624
 30
0.0
 40
2.500000032218727
100
AcDbArc
 50
180.0
 51
270.0
  0
ARC
  5
306
330
1F
100
AcDbEntity
  8
D-0
  6
Continuous
 62
     3
370
     9
100
AcDbCircle
 10
527.8546102677709
 20
-399.9770334604624
 30
0.0
 40
2.500000032218727
100
AcDbArc
 50
270.0
 51
0.0
  0
ARC
  5
307
330
1F
100
AcDbEntity
  8
D-0
  6
Continuous
 62
     3
370
     9
100
AcDbCircle
 10
457.8548742035819
 20
-321.227082948427
 30
0.0
 40
7.500000096656181
100
AcDbArc
 50
292.0240478515625
 51
0.0000000000000382
  0
ARC
  5
308
330
1F
100
AcDbEntity
  8
D-0
  6
Continuous
 62
     3
370
     9
100
AcDbCircle
 10
465.3547752276527
 20
-339.7675014186549
 30
0.0
 40
12.50000064437454
100
AcDbArc
 50
112.0243377685547
 51
180.0
  0
ARC
  5
309
330
1F
100
AcDbEntity
  8
D-0
  6
Continuous
 62
     3
370
     9
100
AcDbCircle
 10
515.3544453078891
 20
-339.7675014186549
 30
0.0
 40
12.50000064437454
100
AcDbArc
 50
0.0
 51
67.9756622314453
  0
ARC
  5
30A
330
1F
100
AcDbEntity
  8
D-0
  6
Continuous
 62
     3
370
     9
100
AcDbCircle
 10
522.8548412116056
 20
-321.227082948427
 30
0.0
 40
7.500000096656181
100
AcDbArc
 50
180.0
 51
247.9759521484375
  0
ARC
  5
30B
330
1F
100
AcDbEntity
  8
D-0
  6
Continuous
 62
     3
370
     9
100
AcDbCircle
 10
490.3546102677709
 20
-68.72748710013724
 30
0.0
 40
32.49999896900074
100
AcDbArc
 50
207.9842987060547
 51
332.0157012939453
  0
ARC
  5
30C
330
1F
100
AcDbEntity
  8
D-0
  6
Continuous
 62
     3
370
     9
100
AcDbCircle
 10
490.3546102677709
 20
-68.72748710013724
 30
0.0
 40
32.49999896900074
100
AcDbArc
 50
27.98429870605469
 51
152.0157012939453
  0
ARC
  5
30D
330
1F
100
AcDbEntity
  8
D-0
  6
JWW_PHANTOM1
 62
     3
370
     9
100
AcDbCircle
 10
457.8548742035819
 20
-227.4769592285156
 30
0.0
 40
7.500000096656181
100
AcDbArc
 50
0.0
 51
90.0
  0
ARC
  5
30E
330
1F
100
AcDbEntity
  8
D-0
  6
JWW_PHANTOM1
 62
     3
370
     9
100
AcDbCircle
 10
522.8548412116056
 20
-227.4769592285156
 30
0.0
 40
7.500000096656181
100
AcDbArc
 50
90.0
 51
180.0
  0
ARC
  5
30F
330
1F
100
AcDbEntity
  8
D-0
  6
JWW_PHANTOM1
 62
     3
370
     9
100
AcDbCircle
 10
522.8548412116056
 20
-244.9768932445629
 30
0.0
 40
7.500000096656181
100
AcDbArc
 50
180.0
 51
247.9759521484375
  0
ARC
  5
310
330
1F
100
AcDbEntity
  8
D-0
  6
JWW_PHANTOM1
 62
     3
370
     9
100
AcDbCircle
 10
515.3549401875345
 20
-263.5174354347023
 30
0.0
 40
12.50000064437454
100
AcDbArc
 50
0.0
 51
67.97628784179688
  0
ARC
  5
311
330
1F
100
AcDbEntity
  8
D-0
  6
JWW_PHANTOM1
 62
     3
370
     9
100
AcDbCircle
 10
457.8548742035819
 20
-244.9768932445629
 30
0.0
 40
7.500000096656181
100
AcDbArc
 50
292.0240478515625
 51
0.0000000000000382
  0
ARC
  5
312
330
1F
100
AcDbEntity
  8
D-0
  6
JWW_PHANTOM1
 62
     3
370
     9
100
AcDbCircle
 10
465.3547752276527
 20
-263.5174354347023
 30
0.0
 40
12.50000064437454
100
AcDbArc
 50
112.0237121582031
 51
180.0
  0
TEXT
  5
313
330
1F
100
AcDbEntity
  8
D-0
  6
Continuous
 62
     2
370
     9
100
AcDbText
 10
370.9228640684466
 20
-478.2467749353357
 30
0.0
 40
15.24
  1
把手詳細図　Ｓ＝１：２
 41
1.113636363636364
  7
ＭＳ ゴシック
100
AcDbText
  0
TEXT
  5
314
330
1F
100
AcDbEntity
  8
D-4
  6
Continuous
 62
     2
370
     9
100
AcDbText
 10
653.2203155042572
 20
-306.8518767485747
 30
0.0
 40
15.24
  1
15
 50
90.0
 41
1.0625
  7
ＭＳ ゴシック
100
AcDbText
  0
LWPOLYLINE
  5
315
330
1F
100
AcDbEntity
  8
D-4
  6
Continuous
 62
     7
370
     9
100
AcDbPolyline
 90
        4
 70
     1
 43
0.5
 10
658.7904474721629
 20
-314.9768148886191
 42
0.4142135623731
 10
658.5404474721628
 20
-314.7268148886191
 42
0.4142135623731
 10
658.2904474721627
 20
-314.9768148886191
 42
0.4142135623731
 10
658.5404474721628
 20
-315.2268148886191
 42
0.4142135623731
  0
LWPOLYLINE
  5
316
330
1F
100
AcDbEntity
  8
D-4
  6
Continuous
 62
     7
370
     9
100
AcDbPolyline
 90
        4
 70
     1
 43
0.5
 10
658.7904474721629
 20
-277.4768148886191
 42
0.4142135623731
 10
658.5404474721628
 20
-277.2268148886191
 42
0.4142135623731
 10
658.2904474721627
 20
-277.4768148886191
 42
0.4142135623731
 10
658.5404474721628
 20
-277.7268148886191
 42
0.4142135623731
  0
LINE
  5
317
330
1F
100
AcDbEntity
  8
D-5
  6
Continuous
 62
     7
370
     9
100
AcDbLine
 10
620.5184041564247
 20
456.3575703388937
 30
0.0
 11
798.0183711644484
 21
456.3575703388937
 31
0.0
  0
LINE
  5
318
330
1F
100
AcDbEntity
  8
D-5
  6
Continuous
 62
     7
370
     9
100
AcDbLine
 10
310.6415961961208
 20
277.8992688978042
 30
0.0
 11
355.89487559857
 21
356.1652271167652
 31
0.0
  0
LINE
  5
319
330
1F
100
AcDbEntity
  8
D-5
  6
Continuous
 62
     7
370
     9
100
AcDbLine
 10
409.1607513375903
 20
237.5522262985642
 30
0.0
 11
468.6195509575228
 21
322.5473104940879
 31
0.0
  0
LINE
  5
31A
330
1F
100
AcDbEntity
  8
D-5
  6
Continuous
 62
     7
370
     9
100
AcDbLine
 10
355.89487559857
 20
356.1652271167652
 30
0.0
 11
351.1039457527085
 21
344.6196849926099
 31
0.0
  0
LINE
  5
31B
330
1F
100
AcDbEntity
  8
D-5
  6
Continuous
 62
     7
370
     9
100
AcDbLine
 10
355.89487559857
 20
356.1652271167652
 30
0.0
 11
348.2791727375059
 21
346.2530352618244
 31
0.0
  0
LINE
  5
31C
330
1F
100
AcDbEntity
  8
D-5
  6
Continuous
 62
     7
370
     9
100
AcDbLine
 10
468.6195509575228
 20
322.5473104940879
 30
0.0
 11
462.8527184511882
 21
311.4570576435812
 31
0.0
  0
LINE
  5
31D
330
1F
100
AcDbEntity
  8
D-5
  6
Continuous
 62
     7
370
     9
100
AcDbLine
 10
468.6195509575228
 20
322.5473104940879
 30
0.0
 11
460.1788837277929
 21
313.3277027027027
 31
0.0
  0
LINE
  5
31E
330
1F
100
AcDbEntity
  8
D-5
  6
Continuous
 62
     7
370
     9
100
AcDbLine
 10
495.2401168359012
 20
395.4717852618244
 30
0.0
 11
581.4380060092541
 21
538.746618322424
 31
0.0
  0
LINE
  5
31F
330
1F
100
AcDbEntity
  8
D-5
  6
Continuous
 62
     7
370
     9
100
AcDbLine
 10
867.4034667092119
 20
538.746618322424
 30
0.0
 11
581.4380060092541
 21
538.746618322424
 31
0.0
  0
LINE
  5
320
330
1F
100
AcDbEntity
  8
D-5
  6
Continuous
 62
     7
370
     9
100
AcDbLine
 10
534.3202675432492
 20
313.082737278294
 30
0.0
 11
620.5184041564247
 21
456.3575703388937
 31
0.0
  0
LINE
  5
321
330
1F
100
AcDbEntity
  8
D-5
  6
Continuous
 62
     7
370
     9
100
AcDbLine
 10
525.7395493739081
 20
400.8973982527451
 30
0.0
 11
587.5344283593388
 21
503.6096686285896
 31
0.0
  0
LINE
  5
322
330
1F
100
AcDbEntity
  8
D-5
  6
Continuous
 62
     7
370
     9
100
AcDbLine
 10
587.5344283593388
 20
503.6096686285896
 30
0.0
 11
858.2001899461206
 21
503.6096686285896
 31
0.0
  0
LINE
  5
323
330
1F
100
AcDbEntity
  8
D-5
  6
Continuous
 62
     7
370
     9
100
AcDbLine
 10
495.2401168359012
 20
395.4717852618244
 30
0.0
 11
500.2312254982744
 21
406.9322080869933
 31
0.0
  0
LINE
  5
324
330
1F
100
AcDbEntity
  8
D-5
  6
Continuous
 62
     7
370
     9
100
AcDbLine
 10
495.2401168359012
 20
395.4717852618244
 30
0.0
 11
503.0270480542288
 21
405.2501121727197
 31
0.0
  0
LINE
  5
325
330
1F
100
AcDbEntity
  8
D-5
  6
Continuous
 62
     7
370
     9
100
AcDbLine
 10
525.7395493739081
 20
400.8973982527451
 30
0.0
 11
530.7304105964586
 21
412.357821077914
 31
0.0
  0
LINE
  5
326
330
1F
100
AcDbEntity
  8
D-5
  6
Continuous
 62
     7
370
     9
100
AcDbLine
 10
525.7395493739081
 20
400.8973982527451
 30
0.0
 11
533.5264805922357
 21
410.6754777238176
 31
0.0
  0
LINE
  5
327
330
1F
100
AcDbEntity
  8
D-5
  6
Continuous
 62
     7
370
     9
100
AcDbLine
 10
534.3202675432492
 20
313.082737278294
 30
0.0
 11
539.3111287657997
 21
324.5431601034629
 31
0.0
  0
LINE
  5
328
330
1F
100
AcDbEntity
  8
D-5
  6
Continuous
 62
     7
370
     9
100
AcDbLine
 10
534.3202675432492
 20
313.082737278294
 30
0.0
 11
542.1074462013994
 21
322.8610641891892
 31
0.0
  0
TEXT
  5
329
330
1F
100
AcDbEntity
  8
D-5
  6
Continuous
 62
     7
370
     9
100
AcDbText
 10
622.7384110180612
 20
460.4953908889531
 30
0.0
 40
11.43
  1
アンカー（ＳＰＨＣ）
 50
359.9999589064881
 41
1.15
  7
ＭＳ ゴシック
100
AcDbText
  0
TEXT
  5
32A
330
1F
100
AcDbEntity
  8
D-5
  6
Continuous
 62
     7
370
     9
100
AcDbText
 10
588.9634180790388
 20
542.6639699904985
 30
0.0
 40
11.43
  1
蓋フレーム（Ａ６０６３Ｓ－Ｔ５）
 41
1.15625
  7
ＭＳ ゴシック
100
AcDbText
  0
TEXT
  5
32B
330
1F
100
AcDbEntity
  8
D-5
  6
Continuous
 62
     7
370
     9
100
AcDbText
 10
593.3770021953817
 20
508.3106622149494
 30
0.0
 40
11.43
  1
アルミ受枠（Ａ６０６３Ｓ－Ｔ５）
 41
1.15625
  7
ＭＳ ゴシック
100
AcDbText
  0
LINE
  5
32C
330
1F
100
AcDbEntity
  8
D-5
  6
Continuous
 62
     7
370
     9
100
AcDbLine
 10
197.9188456457271
 20
-277.6820043615393
 30
0.0
 11
355.1237984012169
 21
-277.6820043615393
 31
0.0
  0
LINE
  5
32D
330
1F
100
AcDbEntity
  8
D-5
  6
Continuous
 62
     7
370
     9
100
AcDbLine
 10
355.1237984012169
 20
-277.6820043615393
 30
0.0
 11
377.7328698750345
 21
-300.3521934715477
 31
0.0
  0
LINE
  5
32E
330
1F
100
AcDbEntity
  8
D-5
  6
Continuous
 62
     7
370
     9
100
AcDbLine
 10
377.7328698750345
 20
-300.3521934715477
 30
0.0
 11
367.8266165758368
 21
-292.7294385755384
 31
0.0
  0
LINE
  5
32F
330
1F
100
AcDbEntity
  8
D-5
  6
Continuous
 62
     7
370
     9
100
AcDbLine
 10
377.7328698750345
 20
-300.3521934715477
 30
0.0
 11
370.1364673201359
 21
-290.4251552272487
 31
0.0
  0
LINE
  5
330
330
1F
100
AcDbEntity
  8
D-5
  6
Continuous
 62
     7
370
     9
100
AcDbLine
 10
187.7510484540041
 20
-193.2016568570523
 30
0.0
 11
352.6993830190378
 21
-193.2016568570523
 31
0.0
  0
LINE
  5
331
330
1F
100
AcDbEntity
  8
D-5
  6
Continuous
 62
     7
370
     9
100
AcDbLine
 10
217.8125125059467
 20
-327.3316708126583
 30
0.0
 11
384.9779078817912
 21
-327.3316708126583
 31
0.0
  0
LINE
  5
332
330
1F
100
AcDbEntity
  8
D-5
  6
Continuous
 62
     7
370
     9
100
AcDbLine
 10
352.6993830190378
 20
-193.2016568570523
 30
0.0
 11
400.3916767532016
 21
-277.4768148886191
 31
0.0
  0
LINE
  5
333
330
1F
100
AcDbEntity
  8
D-5
  6
Continuous
 62
     7
370
     9
100
AcDbLine
 10
400.3916767532016
 20
-277.4768148886191
 30
0.0
 11
392.8677740663352
 21
-267.4946594238281
 31
0.0
  0
LINE
  5
334
330
1F
100
AcDbEntity
  8
D-5
  6
Continuous
 62
     7
370
     9
100
AcDbLine
 10
400.3916767532016
 20
-277.4768148886191
 30
0.0
 11
395.7073934708959
 21
-265.8875377758129
 31
0.0
  0
LINE
  5
335
330
1F
100
AcDbEntity
  8
D-5
  6
Continuous
 62
     7
370
     9
100
AcDbLine
 10
384.9779078817912
 20
-327.3316708126583
 30
0.0
 11
427.1832235490209
 21
-302.4770829484269
 31
0.0
  0
LINE
  5
336
330
1F
100
AcDbEntity
  8
D-5
  6
Continuous
 62
     7
370
     9
100
AcDbLine
 10
427.1832235490209
 20
-302.4770829484269
 30
0.0
 11
417.3321493302709
 21
-310.1717191129117
 31
0.0
  0
LINE
  5
337
330
1F
100
AcDbEntity
  8
D-5
  6
Continuous
 62
     7
370
     9
100
AcDbLine
 10
427.1832235490209
 20
-302.4770829484269
 30
0.0
 11
415.6762820371967
 21
-307.359812968486
 31
0.0
  0
LINE
  5
338
330
1F
100
AcDbEntity
  8
D-5
  6
Continuous
 62
     7
370
     9
100
AcDbLine
 10
384.9779078817912
 20
-327.3316708126583
 30
0.0
 11
452.8546102677709
 21
-346.4644602182749
 31
0.0
  0
LINE
  5
339
330
1F
100
AcDbEntity
  8
D-5
  6
Continuous
 62
     7
370
     9
100
AcDbLine
 10
452.8546102677709
 20
-346.4644602182749
 30
0.0
 11
440.4836088953048
 21
-344.6725010227512
 31
0.0
  0
LINE
  5
33A
330
1F
100
AcDbEntity
  8
D-5
  6
Continuous
 62
     7
370
     9
100
AcDbLine
 10
452.8546102677709
 20
-346.4644602182749
 30
0.0
 11
441.3689485806933
 21
-341.5317473540435
 31
0.0
  0
TEXT
  5
33B
330
1F
100
AcDbEntity
  8
D-5
  6
Continuous
 62
     7
370
     9
100
AcDbText
 10
199.3129009864681
 20
-272.2939322476773
 30
0.0
 40
11.43
  1
アルミ製ボックス
 41
1.145833333333333
  7
ＭＳ ゴシック
100
AcDbText
  0
TEXT
  5
33C
330
1F
100
AcDbEntity
  8
D-5
  6
Continuous
 62
     7
370
     9
100
AcDbText
 10
199.3129381024416
 20
-256.6843766166068
 30
0.0
 40
11.43
  1
かさ上げ用
 41
1.133333333333333
  7
ＭＳ ゴシック
100
AcDbText
  0
TEXT
  5
33D
330
1F
100
AcDbEntity
  8
D-5
  6
Continuous
 62
     7
370
     9
100
AcDbText
 10
190.1616319500978
 20
-186.2031226575697
 30
0.0
 40
11.43
  1
把手カバー　ｔ＝0.5
 41
1.157894736842105
  7
ＭＳ ゴシック
100
AcDbText
  0
TEXT
  5
33E
330
1F
100
AcDbEntity
  8
D-5
  6
Continuous
 62
     7
370
     9
100
AcDbText
 10
207.0354978509107
 20
-208.0485948387352
 30
0.0
 40
11.43
  1
（SUS304　ＨＬ）
 41
1.145833333333333
  7
ＭＳ ゴシック
100
AcDbText
  0
TEXT
  5
33F
330
1F
100
AcDbEntity
  8
D-5
  6
Continuous
 62
     7
370
     9
100
AcDbText
 10
225.6004417315589
 20
-401.3964638869827
 30
0.0
 40
11.43
  1
ストッパープレート
 41
1.148148148148148
  7
ＭＳ ゴシック
100
AcDbText
  0
TEXT
  5
340
330
1F
100
AcDbEntity
  8
D-5
  6
Continuous
 62
     7
370
     9
100
AcDbText
 10
263.5339356808306
 20
-321.9435368388407
 30
0.0
 40
11.43
  1
把手本体
 41
1.125
  7
ＭＳ ゴシック
100
AcDbText
  0
TEXT
  5
341
330
1F
100
AcDbEntity
  8
D-5
  6
Continuous
 62
     7
370
     9
100
AcDbText
 10
213.8366246918631
 20
-344.5538455117716
 30
0.0
 40
11.43
  1
（強化ナイロン樹脂）
 41
1.15
  7
ＭＳ ゴシック
100
AcDbText
  0
TEXT
  5
342
330
1F
100
AcDbEntity
  8
D-5
  6
Continuous
 62
     7
370
     9
100
AcDbText
 10
217.8966337976485
 20
-424.8394075630806
 30
0.0
 40
11.43
  1
（SUS304　ｔ＝2.5）
 41
1.149122807017544
  7
ＭＳ ゴシック
100
AcDbText
  0
LINE
  5
343
330
1F
100
AcDbEntity
  8
D-5
  6
Continuous
 62
     7
370
     9
100
AcDbLine
 10
410.3548412116056
 20
-382.4770994444151
 30
0.0
 11
404.179238118278
 21
-393.3449038943729
 31
0.0
  0
LINE
  5
344
330
1F
100
AcDbEntity
  8
D-5
  6
Continuous
 62
     7
370
     9
100
AcDbLine
 10
410.3548412116056
 20
-382.4770994444151
 30
0.0
 11
401.577160943447
 21
-391.3762726654878
 31
0.0
  0
LINE
  5
345
330
1F
100
AcDbEntity
  8
D-5
  6
Continuous
 62
     7
370
     9
100
AcDbLine
 10
217.1637252909974
 20
-408.6485620447107
 30
0.0
 11
390.5566493621176
 21
-408.6485620447107
 31
0.0
  0
LINE
  5
346
330
1F
100
AcDbEntity
  8
D-5
  6
Continuous
 62
     7
370
     9
100
AcDbLine
 10
390.5566493621176
 20
-408.6485620447107
 30
0.0
 11
410.3548412116056
 21
-382.4770994444151
 31
0.0
  0
LINE
  5
347
330
1F
100
AcDbEntity
  8
D-4
  6
Continuous
 62
     7
370
     9
100
AcDbLine
 10
375.3544782998656
 20
-156.7316869787268
 30
0.0
 11
605.354989675499
 21
-156.7316869787268
 31
0.0
  0
LINE
  5
348
330
1F
100
AcDbEntity
  8
D-4
  6
Continuous
 62
     7
370
     9
100
AcDbLine
 10
375.3544782998656
 20
-119.977470604149
 30
0.0
 11
375.3544782998656
 21
-158.2316671835409
 31
0.0
  0
LINE
  5
349
330
1F
100
AcDbEntity
  8
D-4
  6
Continuous
 62
     7
370
     9
100
AcDbLine
 10
605.354989675499
 20
-119.977470604149
 30
0.0
 11
605.354989675499
 21
-158.2316671835409
 31
0.0
  0
LINE
  5
34A
330
1F
100
AcDbEntity
  8
D-4
  6
Continuous
 62
     7
370
     9
100
AcDbLine
 10
697.8799151136323
 20
-112.4775695800781
 30
0.0
 11
697.8799151136323
 21
-24.97740462019635
 31
0.0
  0
LINE
  5
34B
330
1F
100
AcDbEntity
  8
D-4
  6
Continuous
 62
     7
370
     9
100
AcDbLine
 10
612.8546432597473
 20
-112.4775695800781
 30
0.0
 11
699.3794004388013
 21
-112.4775695800781
 31
0.0
  0
LINE
  5
34C
330
1F
100
AcDbEntity
  8
D-4
  6
Continuous
 62
     7
370
     9
100
AcDbLine
 10
612.8546432597473
 20
-24.97740462019635
 30
0.0
 11
699.3794004388013
 21
-24.97740462019635
 31
0.0
  0
LINE
  5
34D
330
1F
100
AcDbEntity
  8
D-4
  6
Continuous
 62
     7
370
     9
100
AcDbLine
 10
697.8799151136323
 20
-402.4769179885452
 30
0.0
 11
697.8799151136323
 21
-202.4769386085304
 31
0.0
  0
LINE
  5
34E
330
1F
100
AcDbEntity
  8
D-4
  6
Continuous
 62
     7
370
     9
100
AcDbLine
 10
540.3547752276527
 20
-402.4769179885452
 30
0.0
 11
699.3794004388013
 21
-402.4769179885452
 31
0.0
  0
LINE
  5
34F
330
1F
100
AcDbEntity
  8
D-4
  6
Continuous
 62
     7
370
     9
100
AcDbLine
 10
617.8549071955582
 20
-277.4768148886191
 30
0.0
 11
699.3794004388013
 21
-277.4768148886191
 31
0.0
  0
LINE
  5
350
330
1F
100
AcDbEntity
  8
D-4
  6
Continuous
 62
     7
370
     9
100
AcDbLine
 10
582.6046300629569
 20
-202.4769386085304
 30
0.0
 11
699.3794004388013
 21
-202.4769386085304
 31
0.0
  0
TEXT
  5
351
330
1F
100
AcDbEntity
  8
D-4
  6
Continuous
 62
     2
370
     9
100
AcDbText
 10
479.7295484078153
 20
-148.9116704827385
 30
0.0
 40
15.24
  1
92
 41
1.0625
  7
ＭＳ ゴシック
100
AcDbText
  0
TEXT
  5
352
330
1F
100
AcDbEntity
  8
D-4
  6
Continuous
 62
     2
370
     9
100
AcDbText
 10
690.0591562981763
 20
-79.3525489600929
 30
0.0
 40
15.24
  1
35
 50
90.0
 41
1.0625
  7
ＭＳ ゴシック
100
AcDbText
  0
TEXT
  5
353
330
1F
100
AcDbEntity
  8
D-4
  6
Continuous
 62
     2
370
     9
100
AcDbText
 10
690.0591562981763
 20
-350.6018973685599
 30
0.0
 40
15.24
  1
50
 50
90.0
 41
1.0625
  7
ＭＳ ゴシック
100
AcDbText
  0
TEXT
  5
354
330
1F
100
AcDbEntity
  8
D-4
  6
Continuous
 62
     2
370
     9
100
AcDbText
 10
690.0591562981763
 20
-250.6019386085304
 30
0.0
 40
15.24
  1
30
 50
90.0
 41
1.0625
  7
ＭＳ ゴシック
100
AcDbText
  0
LWPOLYLINE
  5
355
330
1F
100
AcDbEntity
  8
D-4
  6
Continuous
 62
     7
370
     9
100
AcDbPolyline
 90
        4
 70
     1
 43
0.5
 10
375.6044782998656
 20
-156.7316869787268
 42
0.4142135623731
 10
375.3544782998656
 20
-156.4816869787267
 42
0.4142135623731
 10
375.1044782998656
 20
-156.7316869787268
 42
0.4142135623731
 10
375.3544782998656
 20
-156.9816869787268
 42
0.4142135623731
  0
LWPOLYLINE
  5
356
330
1F
100
AcDbEntity
  8
D-4
  6
Continuous
 62
     7
370
     9
100
AcDbPolyline
 90
        4
 70
     1
 43
0.5
 10
605.604989675499
 20
-156.7316869787268
 42
0.4142135623731
 10
605.354989675499
 20
-156.4816869787267
 42
0.4142135623731
 10
605.104989675499
 20
-156.7316869787268
 42
0.4142135623731
 10
605.354989675499
 20
-156.9816869787268
 42
0.4142135623731
  0
LWPOLYLINE
  5
357
330
1F
100
AcDbEntity
  8
D-4
  6
Continuous
 62
     7
370
     9
100
AcDbPolyline
 90
        4
 70
     1
 43
0.5
 10
698.1299151136324
 20
-112.4775695800781
 42
0.4142135623731
 10
697.8799151136323
 20
-112.2275695800781
 42
0.4142135623731
 10
697.6299151136323
 20
-112.4775695800781
 42
0.4142135623731
 10
697.8799151136323
 20
-112.7275695800781
 42
0.4142135623731
  0
LWPOLYLINE
  5
358
330
1F
100
AcDbEntity
  8
D-4
  6
Continuous
 62
     7
370
     9
100
AcDbPolyline
 90
        4
 70
     1
 43
0.5
 10
698.1299151136324
 20
-24.97740462019635
 42
0.4142135623731
 10
697.8799151136323
 20
-24.72740462019635
 42
0.4142135623731
 10
697.6299151136323
 20
-24.97740462019635
 42
0.4142135623731
 10
697.8799151136323
 20
-25.22740462019635
 42
0.4142135623731
  0
LWPOLYLINE
  5
359
330
1F
100
AcDbEntity
  8
D-4
  6
Continuous
 62
     7
370
     9
100
AcDbPolyline
 90
        4
 70
     1
 43
0.5
 10
698.1299151136324
 20
-402.4769179885452
 42
0.4142135623731
 10
697.8799151136323
 20
-402.2269179885452
 42
0.4142135623731
 10
697.6299151136323
 20
-402.4769179885452
 42
0.4142135623731
 10
697.8799151136323
 20
-402.7269179885452
 42
0.4142135623731
  0
LWPOLYLINE
  5
35A
330
1F
100
AcDbEntity
  8
D-4
  6
Continuous
 62
     7
370
     9
100
AcDbPolyline
 90
        4
 70
     1
 43
0.5
 10
698.1299151136324
 20
-277.4768148886191
 42
0.4142135623731
 10
697.8799151136323
 20
-277.2268148886191
 42
0.4142135623731
 10
697.6299151136323
 20
-277.4768148886191
 42
0.4142135623731
 10
697.8799151136323
 20
-277.7268148886191
 42
0.4142135623731
  0
LWPOLYLINE
  5
35B
330
1F
100
AcDbEntity
  8
D-4
  6
Continuous
 62
     7
370
     9
100
AcDbPolyline
 90
        4
 70
     1
 43
0.5
 10
698.1299151136324
 20
-202.4769386085304
 42
0.4142135623731
 10
697.8799151136323
 20
-202.2269386085304
 42
0.4142135623731
 10
697.6299151136323
 20
-202.4769386085304
 42
0.4142135623731
 10
697.8799151136323
 20
-202.7269386085304
 42
0.4142135623731
  0
TEXT
  5
35C
330
1F
100
AcDbEntity
  8
D-5
  6
Continuous
 62
     7
370
     9
100
AcDbText
 10
291.7868000370859
 20
242.1481023909735
 30
0.0
 40
11.43
  1
クッション
 50
0.000138314752
 41
1.133333333333333
  7
ＭＳ ゴシック
100
AcDbText
  0
LINE
  5
35D
330
1F
100
AcDbEntity
  8
D-5
  6
Continuous
 62
     7
370
     9
100
AcDbLine
 10
409.1607513375903
 20
237.5522262985642
 30
0.0
 11
253.9100572489327
 21
237.5522262985642
 31
0.0
  0
TEXT
  5
35E
330
1F
100
AcDbEntity
  8
D-5
  6
Continuous
 62
     7
370
     9
100
AcDbText
 10
253.2315886779571
 20
218.9282199658366
 30
0.0
 40
11.43
  1
軟質ポリ塩化ビニル
 50
0.000138314752
 41
1.148148148148148
  7
ＭＳ ゴシック
100
AcDbText
  0
LINE
  5
35F
330
1F
100
AcDbEntity
  8
0-4
  6
Continuous
 62
     7
370
     9
100
AcDbLine
 10
-566.6486379262564
 20
-78.6189683860233
 30
0.0
 11
-156.6486461742504
 21
-78.6189683860233
 31
0.0
  0
LWPOLYLINE
  5
360
330
1F
100
AcDbEntity
  8
0-4
  6
Continuous
 62
     7
370
     9
100
AcDbPolyline
 90
        4
 70
     1
 43
0.5
 10
-566.3986379262564
 20
-78.6189683860233
 42
0.4142135623731
 10
-566.6486379262564
 20
-78.3689683860233
 42
0.4142135623731
 10
-566.8986379262562
 20
-78.6189683860233
 42
0.4142135623731
 10
-566.6486379262564
 20
-78.8689683860233
 42
0.4142135623731
  0
LWPOLYLINE
  5
361
330
1F
100
AcDbEntity
  8
0-4
  6
Continuous
 62
     7
370
     9
100
AcDbPolyline
 90
        4
 70
     1
 43
0.5
 10
-156.3986461742504
 20
-78.6189683860233
 42
0.4142135623731
 10
-156.6486461742504
 20
-78.3689683860233
 42
0.4142135623731
 10
-156.8986461742504
 20
-78.6189683860233
 42
0.4142135623731
 10
-156.6486461742504
 20
-78.8689683860233
 42
0.4142135623731
  0
LINE
  5
362
330
1F
100
AcDbEntity
  8
0-4
  6
Continuous
 62
     7
370
     9
100
AcDbLine
 10
-566.6486379262564
 20
-80.11896838602328
 30
0.0
 11
-566.6486379262564
 21
-33.65564294763516
 31
0.0
  0
LINE
  5
363
330
1F
100
AcDbEntity
  8
0-4
  6
Continuous
 62
     7
370
     9
100
AcDbLine
 10
-156.6486461742504
 20
-80.11896838602328
 30
0.0
 11
-156.6486461742504
 21
-33.65564294763516
 31
0.0
  0
TEXT
  5
364
330
1F
100
AcDbEntity
  8
0-4
  6
Continuous
 62
     2
370
   211
100
AcDbText
 10
-377.8986420502534
 20
-73.29896838602329
 30
0.0
 40
15.24
  1
410
 41
1.083333333333333
  7
ＭＳ ゴシック
100
AcDbText
  0
TEXT
  5
365
330
1F
100
AcDbEntity
  8
D-5
  6
Continuous
 62
     7
370
     9
100
AcDbText
 10
152.1965006567777
 20
282.9964136402029
 30
0.0
 40
11.43
  1
底板　ｔ＝３．２
 41
1.145833333333333
  7
ＭＳ ゴシック
100
AcDbText
  0
TEXT
  5
366
330
1F
100
AcDbEntity
  8
D-5
  6
Continuous
 62
     7
370
     9
100
AcDbText
 10
152.1965006567777
 20
261.6732612242163
 30
0.0
 40
11.43
  1
溶融亜鉛めっき鋼板
 41
1.148148148148148
  7
ＭＳ ゴシック
100
AcDbText
  0
LINE
  5
367
330
1F
100
AcDbEntity
  8
D-5
  6
Continuous
 62
     7
370
     9
100
AcDbLine
 10
148.7236087527633
 20
277.8992688978042
 30
0.0
 11
310.6415961961208
 21
277.8992688978042
 31
0.0
  0
TEXT
  5
368
330
1F
100
AcDbEntity
  8
F-0
  6
Continuous
 62
     7
370
     9
100
AcDbText
 10
-425.9400765089363
 20
-663.122045203969
 30
0.0
 40
11.43
  1
フロアーハッチ　フローリング床材用（フローリング厚15mm）屋内用　一般形
 41
1.161904761904762
  7
ＭＳ ゴシック
100
AcDbText
  0
TEXT
  5
369
330
1F
100
AcDbEntity
  8
F-0
  6
Continuous
 62
     7
370
     9
100
AcDbText
 10
-424.7155864615803
 20
-682.4557827016608
 30
0.0
 40
11.43
  1
アルミニウム＋スチール製　アルミニウム目地　ＭＯＦＭ－６００－１５－Ｃ
 41
1.161904761904762
  7
ＭＳ ゴシック
100
AcDbText
  0
ENDSEC
  0
SECTION
  2
OBJECTS
  0
DICTIONARY
  5
C
330
0
100
AcDbDictionary
281
     1
  3
ACAD_GROUP
350
D
  3
ACAD_LAYOUT
350
1A
  3
ACAD_MLEADERSTYLE
350
36B
  3
ACAD_MLINESTYLE
350
17
  3
ACAD_PLOTSETTINGS
350
19
  3
ACAD_PLOTSTYLENAME
350
E
  3
ACAD_TABLESTYLE
350
36A
  3
ACAD_VISUALSTYLE
350
2A
  0
DICTIONARY
  5
D
102
{ACAD_REACTORS
330
C
102
}
330
C
100
AcDbDictionary
281
     1
  0
DICTIONARY
  5
1A
102
{ACAD_REACTORS
330
C
102
}
330
C
100
AcDbDictionary
281
     1
  3
Layout1
350
1E
  3
Layout2
350
26
  3
Model
350
22
  0
DICTIONARY
  5
36B
102
{ACAD_REACTORS
330
C
102
}
330
C
100
AcDbDictionary
281
     1
  0
DICTIONARY
  5
17
102
{ACAD_REACTORS
330
C
102
}
330
C
100
AcDbDictionary
281
     1
  3
Standard
350
18
  0
DICTIONARY
  5
19
102
{ACAD_REACTORS
330
C
102
}
330
C
100
AcDbDictionary
281
     1
  0
ACDBDICTIONARYWDFLT
  5
E
102
{ACAD_REACTORS
330
C
102
}
330
C
100
AcDbDictionary
281
     1
  3
Normal
350
F
100
AcDbDictionaryWithDefault
340
F
  0
DICTIONARY
  5
36A
102
{ACAD_REACTORS
330
C
102
}
330
C
100
AcDbDictionary
281
     1
  0
DICTIONARY
  5
2A
102
{ACAD_REACTORS
330
C
102
}
330
C
100
AcDbDictionary
281
     1
  3
2dWireframe
350
2F
  3
3D Hidden
350
31
  3
3dWireframe
350
30
  3
Basic
350
32
  3
Brighten
350
36
  3
ColorChange
350
3A
  3
Conceptual
350
34
  3
Dim
350
35
  3
Facepattern
350
39
  3
Flat
350
2B
  3
FlatWithEdges
350
2C
  3
Gouraud
350
2D
  3
GouraudWithEdges
350
2E
  3
Linepattern
350
38
  3
Realistic
350
33
  3
Thicken
350
37
  0
LAYOUT
  5
1E
102
{ACAD_REACTORS
330
1A
102
}
330
1A
100
AcDbPlotSettings
  1

  2
none_device
  4

  6

 40
0.0
 41
0.0
 42
0.0
 43
0.0
 44
0.0
 45
0.0
 46
0.0
 47
0.0
 48
0.0
 49
0.0
140
0.0
141
0.0
142
1.0
143
1.0
 70
   688
 72
     0
 73
     0
 74
     5
  7

 75
    16
 76
     0
 77
     5
 78
   300
147
1.0
148
0.0
149
0.0
100
AcDbLayout
  1
Layout1
 70
     1
 71
     1
 10
0.0
 20
0.0
 11
420.0
 21
297.0
 12
0.0
 22
0.0
 32
0.0
 14
1.000000000000000E+20
 24
1.000000000000000E+20
 34
1.000000000000000E+20
 15
-1.000000000000000E+20
 25
-1.000000000000000E+20
 35
-1.000000000000000E+20
146
0.0
 13
0.0
 23
0.0
 33
0.0
 16
1.0
 26
0.0
 36
0.0
 17
0.0
 27
1.0
 37
0.0
 76
     0
330
1B
  0
LAYOUT
  5
26
102
{ACAD_REACTORS
330
1A
102
}
330
1A
100
AcDbPlotSettings
  1

  2
none_device
  4

  6

 40
0.0
 41
0.0
 42
0.0
 43
0.0
 44
0.0
 45
0.0
 46
0.0
 47
0.0
 48
0.0
 49
0.0
140
0.0
141
0.0
142
1.0
143
1.0
 70
   688
 72
     0
 73
     0
 74
     5
  7

 75
    16
 76
     0
 77
     5
 78
   300
147
1.0
148
0.0
149
0.0
100
AcDbLayout
  1
Layout2
 70
     1
 71
     2
 10
0.0
 20
0.0
 11
0.0
 21
0.0
 12
0.0
 22
0.0
 32
0.0
 14
0.0
 24
0.0
 34
0.0
 15
0.0
 25
0.0
 35
0.0
146
0.0
 13
0.0
 23
0.0
 33
0.0
 16
1.0
 26
0.0
 36
0.0
 17
0.0
 27
1.0
 37
0.0
 76
     0
330
23
  0
LAYOUT
  5
22
102
{ACAD_REACTORS
330
1A
102
}
330
1A
100
AcDbPlotSettings
  1

  2
none_device
  4

  6

 40
0.0
 41
0.0
 42
0.0
 43
0.0
 44
0.0
 45
0.0
 46
0.0
 47
0.0
 48
0.0
 49
0.0
140
0.0
141
0.0
142
1.0
143
1.0
 70
  1712
 72
     0
 73
     0
 74
     0
  7

 75
     0
 76
     0
 77
     5
 78
   300
147
1.0
148
0.0
149
0.0
100
AcDbLayout
  1
Model
 70
     1
 71
     0
 10
-1050.0
 20
-742.5
 11
1050.0
 21
742.5
 12
0.0
 22
0.0
 32
0.0
 14
-1050.0
 24
-742.5
 34
0.0
 15
1050.0
 25
742.5
 35
0.0
146
0.0
 13
0.0
 23
0.0
 33
0.0
 16
1.0
 26
0.0
 36
0.0
 17
0.0
 27
1.0
 37
0.0
 76
     0
330
1F
331
29
  0
MLINESTYLE
  5
18
102
{ACAD_REACTORS
330
17
102
}
330
17
100
AcDbMlineStyle
  2
Standard
 70
     0
  3

 62
   256
 51
90.0
 52
90.0
 71
     2
 49
0.5
 62
   256
  6
BYLAYER
 49
-0.5
 62
   256
  6
BYLAYER
  0
ACDBPLACEHOLDER
  5
F
102
{ACAD_REACTORS
330
E
102
}
330
E
  0
VISUALSTYLE
  5
2F
102
{ACAD_REACTORS
330
2A
102
}
330
2A
100
AcDbVisualStyle
  2
2dWireframe
 70
     4
 71
     0
 72
     2
 73
     0
 90
        0
 40
-0.6
 41
-30.0
 62
     5
 63
     7
421
 16777215
 74
     1
 91
        4
 64
     7
 65
   257
 75
     1
175
     1
 42
1.0
 92
        0
 66
   257
 43
1.0
 76
     1
 77
     6
 78
     2
 67
     7
 79
     5
170
     0
171
     0
290
     0
174
     0
 93
        1
 44
0.0
173
     0
291
     0
 45
0.0
1001
ACAD
1000
AcDbSavedByObjectVersion
1070
     0
  0
VISUALSTYLE
  5
31
102
{ACAD_REACTORS
330
2A
102
}
330
2A
100
AcDbVisualStyle
  2
3D Hidden
 70
     6
 71
     1
 72
     2
 73
     2
 90
        0
 40
-0.6
 41
-30.0
 62
     5
 63
     7
421
 16777215
 74
     2
 91
        2
 64
     7
 65
   257
 75
     2
175
     1
 42
40.0
 92
        0
 66
   257
 43
1.0
 76
     1
 77
     6
 78
     2
 67
     7
 79
     3
170
     0
171
     0
290
     0
174
     0
 93
        1
 44
0.0
173
     0
291
     0
 45
0.0
1001
ACAD
1000
AcDbSavedByObjectVersion
1070
     0
  0
VISUALSTYLE
  5
30
102
{ACAD_REACTORS
330
2A
102
}
330
2A
100
AcDbVisualStyle
  2
3dWireframe
 70
     5
 71
     0
 72
     2
 73
     0
 90
        0
 40
-0.6
 41
-30.0
 62
     5
 63
     7
421
 16777215
 74
     1
 91
        4
 64
     7
 65
   257
 75
     1
175
     1
 42
1.0
 92
        0
 66
   257
 43
1.0
 76
     1
 77
     6
 78
     2
 67
     7
 79
     5
170
     0
171
     0
290
     0
174
     0
 93
        1
 44
0.0
173
     0
291
     0
 45
0.0
1001
ACAD
1000
AcDbSavedByObjectVersion
1070
     0
  0
VISUALSTYLE
  5
32
102
{ACAD_REACTORS
330
2A
102
}
330
2A
100
AcDbVisualStyle
  2
Basic
 70
     7
 71
     1
 72
     0
 73
     1
 90
        0
 40
-0.6
 41
-30.0
 62
     5
 63
     7
421
 16777215
 74
     0
 91
        4
 64
     7
 65
   257
 75
     1
175
     1
 42
1.0
 92
        8
 66
     7
 43
1.0
 76
     1
 77
     6
 78
     2
 67
     7
 79
     5
170
     0
171
     0
290
     0
174
     0
 93
        1
 44
0.0
173
     0
291
     1
 45
0.0
1001
ACAD
1000
AcDbSavedByObjectVersion
1070
     0
  0
VISUALSTYLE
  5
36
102
{ACAD_REACTORS
330
2A
102
}
330
2A
100
AcDbVisualStyle
  2
Brighten
 70
    12
 71
     2
 72
     2
 73
     0
 90
        0
 40
-0.6
 41
-30.0
 62
     5
 63
     7
421
 16777215
 74
     1
 91
        4
 64
     7
 65
   257
 75
     1
175
     1
 42
1.0
 92
        8
 66
     7
 43
1.0
 76
     1
 77
     6
 78
     2
 67
     7
 79
     5
170
     0
171
     0
290
     0
174
     0
 93
        1
 44
50.0
173
     0
291
     1
 45
0.0
1001
ACAD
1000
AcDbSavedByObjectVersion
1070
     0
  0
VISUALSTYLE
  5
3A
102
{ACAD_REACTORS
330
2A
102
}
330
2A
100
AcDbVisualStyle
  2
ColorChange
 70
    16
 71
     2
 72
     2
 73
     3
 90
        0
 40
-0.6
 41
-30.0
 62
     5
 63
     8
421
  8421504
 74
     1
 91
        4
 64
     7
 65
   257
 75
     1
175
     1
 42
1.0
 92
        8
 66
     8
424
  8421504
 43
1.0
 76
     1
 77
     6
 78
     2
 67
     7
 79
     5
170
     0
171
     0
290
     0
174
     0
 93
        1
 44
0.0
173
     0
291
     1
 45
0.0
1001
ACAD
1000
AcDbSavedByObjectVersion
1070
     0
  0
VISUALSTYLE
  5
34
102
{ACAD_REACTORS
330
2A
102
}
330
2A
100
AcDbVisualStyle
  2
Conceptual
 70
     9
 71
     3
 72
     2
 73
     0
 90
        0
 40
-0.6
 41
-30.0
 62
     5
 63
     7
421
 16777215
 74
     2
 91
        2
 64
     7
 65
   257
 75
     1
175
     1
 42
40.0
 92
        8
 66
     7
 43
1.0
 76
     1
 77
     6
 78
     2
 67
     7
 79
     3
170
     0
171
     0
290
     0
174
     0
 93
        1
 44
0.0
173
     0
291
     0
 45
0.0
1001
ACAD
1000
AcDbSavedByObjectVersion
1070
     0
  0
VISUALSTYLE
  5
35
102
{ACAD_REACTORS
330
2A
102
}
330
2A
100
AcDbVisualStyle
  2
Dim
 70
    11
 71
     2
 72
     2
 73
     0
 90
        0
 40
-0.6
 41
-30.0
 62
     5
 63
     7
421
 16777215
 74
     1
 91
        4
 64
     7
 65
   257
 75
     1
175
     1
 42
1.0
 92
        8
 66
     7
 43
1.0
 76
     1
 77
     6
 78
     2
 67
     7
 79
     5
170
     0
171
     0
290
     0
174
     0
 93
        1
 44
-50.0
173
     0
291
     1
 45
0.0
1001
ACAD
1000
AcDbSavedByObjectVersion
1070
     0
  0
VISUALSTYLE
  5
39
102
{ACAD_REACTORS
330
2A
102
}
330
2A
100
AcDbVisualStyle
  2
Facepattern
 70
    15
 71
     2
 72
     2
 73
     0
 90
        0
 40
-0.6
 41
-30.0
 62
     5
 63
     7
421
 16777215
 74
     1
 91
        4
 64
     7
 65
   257
 75
     1
175
     1
 42
1.0
 92
        8
 66
     7
 43
1.0
 76
     1
 77
     6
 78
     2
 67
     7
 79
     5
170
     0
171
     0
290
     0
174
     0
 93
        1
 44
0.0
173
     0
291
     1
 45
0.0
1001
ACAD
1000
AcDbSavedByObjectVersion
1070
     0
  0
VISUALSTYLE
  5
2B
102
{ACAD_REACTORS
330
2A
102
}
330
2A
100
AcDbVisualStyle
  2
Flat
 70
     0
 71
     2
 72
     1
 73
     1
 90
        2
 40
-0.6
 41
30.0
 62
     5
 63
     7
421
 16777215
 74
     0
 91
        4
 64
     7
 65
   257
 75
     1
175
     1
 42
1.0
 92
        8
 66
     7
 43
1.0
 76
     1
 77
     6
 78
     2
 67
     7
 79
     5
170
     0
171
     0
290
     0
174
     0
 93
       13
 44
0.0
173
     0
291
     1
 45
0.0
1001
ACAD
1000
AcDbSavedByObjectVersion
1070
     0
  0
VISUALSTYLE
  5
2C
102
{ACAD_REACTORS
330
2A
102
}
330
2A
100
AcDbVisualStyle
  2
FlatWithEdges
 70
     1
 71
     2
 72
     1
 73
     1
 90
        2
 40
-0.6
 41
30.0
 62
     5
 63
     7
421
 16777215
 74
     1
 91
        4
 64
     7
 65
   257
 75
     1
175
     1
 42
1.0
 92
        0
 66
   257
 43
1.0
 76
     1
 77
     6
 78
     2
 67
     7
 79
     5
170
     0
171
     0
290
     0
174
     0
 93
       13
 44
0.0
173
     0
291
     1
 45
0.0
1001
ACAD
1000
AcDbSavedByObjectVersion
1070
     0
  0
VISUALSTYLE
  5
2D
102
{ACAD_REACTORS
330
2A
102
}
330
2A
100
AcDbVisualStyle
  2
Gouraud
 70
     2
 71
     2
 72
     2
 73
     1
 90
        2
 40
-0.6
 41
30.0
 62
     5
 63
     7
421
 16777215
 74
     0
 91
        4
 64
     7
 65
   257
 75
     1
175
     1
 42
1.0
 92
        0
 66
     7
 43
1.0
 76
     1
 77
     6
 78
     2
 67
     7
 79
     5
170
     0
171
     0
290
     0
174
     0
 93
       13
 44
0.0
173
     0
291
     1
 45
0.0
1001
ACAD
1000
AcDbSavedByObjectVersion
1070
     0
  0
VISUALSTYLE
  5
2E
102
{ACAD_REACTORS
330
2A
102
}
330
2A
100
AcDbVisualStyle
  2
GouraudWithEdges
 70
     3
 71
     2
 72
     2
 73
     1
 90
        2
 40
-0.6
 41
30.0
 62
     5
 63
     7
421
 16777215
 74
     1
 91
        4
 64
     7
 65
   257
 75
     1
175
     1
 42
1.0
 92
        0
 66
   257
 43
1.0
 76
     1
 77
     6
 78
     2
 67
     7
 79
     5
170
     0
171
     0
290
     0
174
     0
 93
       13
 44
0.0
173
     0
291
     1
 45
0.0
1001
ACAD
1000
AcDbSavedByObjectVersion
1070
     0
  0
VISUALSTYLE
  5
38
102
{ACAD_REACTORS
330
2A
102
}
330
2A
100
AcDbVisualStyle
  2
Linepattern
 70
    14
 71
     2
 72
     2
 73
     0
 90
        0
 40
-0.6
 41
-30.0
 62
     5
 63
     7
421
 16777215
 74
     1
 91
        4
 64
     7
 65
   257
 75
     7
175
     7
 42
1.0
 92
        8
 66
     7
 43
1.0
 76
     1
 77
     6
 78
     2
 67
     7
 79
     5
170
     0
171
     0
290
     0
174
     0
 93
        1
 44
0.0
173
     0
291
     1
 45
0.0
1001
ACAD
1000
AcDbSavedByObjectVersion
1070
     0
  0
VISUALSTYLE
  5
33
102
{ACAD_REACTORS
330
2A
102
}
330
2A
100
AcDbVisualStyle
  2
Realistic
 70
     8
 71
     2
 72
     2
 73
     0
 90
        0
 40
-0.6
 41
-30.0
 62
     5
 63
     7
421
 16777215
 74
     1
 91
        0
 64
     7
 65
   257
 75
     1
175
     1
 42
1.0
 92
        8
 66
     8
424
  7895160
 43
1.0
 76
     1
 77
     6
 78
     2
 67
     7
 79
     5
170
     0
171
     0
290
     0
174
     0
 93
       13
 44
0.0
173
     0
291
     0
 45
0.0
1001
ACAD
1000
AcDbSavedByObjectVersion
1070
     0
  0
VISUALSTYLE
  5
37
102
{ACAD_REACTORS
330
2A
102
}
330
2A
100
AcDbVisualStyle
  2
Thicken
 70
    13
 71
     2
 72
     2
 73
     0
 90
        0
 40
-0.6
 41
-30.0
 62
     5
 63
     7
421
 16777215
 74
     1
 91
        4
 64
     7
 65
   257
 75
     1
175
     1
 42
1.0
 92
       12
 66
     7
 43
1.0
 76
     1
 77
     6
 78
     2
 67
     7
 79
     5
170
     0
171
     0
290
     0
174
     0
 93
        1
 44
0.0
173
     0
291
     1
 45
0.0
1001
ACAD
1000
AcDbSavedByObjectVersion
1070
     0
  0
ENDSEC
  0
EOF
