  0
SECTION
  2
HEADER
  9
$ACADVER
  1
AC1018
  9
$ACADMAINTVER
 70
     0
  9
$DWGCODEPAGE
  3
ANSI_932
  9
$INSBASE
 10
0.0
 20
0.0
 30
0.0
  9
$EXTMIN
 10
-1050.0
 20
-742.5
 30
0.0
  9
$EXTMAX
 10
1050.0
 20
742.5
 30
0.0
  9
$LIMMIN
 10
-1050.0
 20
-742.5
  9
$LIMMAX
 10
1050.0
 20
742.5
  9
$ORTHOMODE
 70
     0
  9
$REGENMODE
 70
     1
  9
$FILLMODE
 70
     1
  9
$QTEXTMODE
 70
     0
  9
$MIRRTEXT
 70
     1
  9
$LTSCALE
 40
5.0
  9
$ATTMODE
 70
     1
  9
$TEXTSIZE
 40
2.5
  9
$TRACEWID
 40
1.0
  9
$TEXTSTYLE
  7
Standard
  9
$CLAYER
  8
0
  9
$CELTYPE
  6
ByLayer
  9
$CECOLOR
 62
   256
  9
$CELTSCALE
 40
1.0
  9
$DISPSILH
 70
     0
  9
$DIMSCALE
 40
1.0
  9
$DIMASZ
 40
2.5
  9
$DIMEXO
 40
0.625
  9
$DIMDLI
 40
3.75
  9
$DIMRND
 40
0.0
  9
$DIMDLE
 40
0.0
  9
$DIMEXE
 40
1.25
  9
$DIMTP
 40
0.0
  9
$DIMTM
 40
0.0
  9
$DIMTXT
 40
2.5
  9
$DIMCEN
 40
2.5
  9
$DIMTSZ
 40
0.0
  9
$DIMTOL
 70
     0
  9
$DIMLIM
 70
     0
  9
$DIMTIH
 70
     0
  9
$DIMTOH
 70
     0
  9
$DIMSE1
 70
     0
  9
$DIMSE2
 70
     0
  9
$DIMTAD
 70
     1
  9
$DIMZIN
 70
     8
  9
$DIMBLK
  1

  9
$DIMASO
 70
     1
  9
$DIMSHO
 70
     1
  9
$DIMPOST
  1

  9
$DIMAPOST
  1

  9
$DIMALT
 70
     0
  9
$DIMALTD
 70
     3
  9
$DIMALTF
 40
0.03937007874016
  9
$DIMLFAC
 40
1.0
  9
$DIMTOFL
 70
     1
  9
$DIMTVP
 40
0.0
  9
$DIMTIX
 70
     0
  9
$DIMSOXD
 70
     0
  9
$DIMSAH
 70
     0
  9
$DIMBLK1
  1

  9
$DIMBLK2
  1

  9
$DIMSTYLE
  2
ISO-25
  9
$DIMCLRD
 70
     0
  9
$DIMCLRE
 70
     0
  9
$DIMCLRT
 70
     0
  9
$DIMTFAC
 40
1.0
  9
$DIMGAP
 40
0.625
  9
$DIMJUST
 70
     0
  9
$DIMSD1
 70
     0
  9
$DIMSD2
 70
     0
  9
$DIMTOLJ
 70
     0
  9
$DIMTZIN
 70
     8
  9
$DIMALTZ
 70
     0
  9
$DIMALTTZ
 70
     0
  9
$DIMUPT
 70
     0
  9
$DIMDEC
 70
     2
  9
$DIMTDEC
 70
     2
  9
$DIMALTU
 70
     2
  9
$DIMALTTD
 70
     3
  9
$DIMTXSTY
  7
Standard
  9
$DIMAUNIT
 70
     0
  9
$DIMADEC
 70
     0
  9
$DIMALTRND
 40
0.0
  9
$DIMAZIN
 70
     0
  9
$DIMDSEP
 70
    44
  9
$DIMATFIT
 70
     3
  9
$DIMFRAC
 70
     0
  9
$DIMLDRBLK
  1

  9
$DIMLUNIT
 70
     2
  9
$DIMLWD
 70
    -2
  9
$DIMLWE
 70
    -2
  9
$DIMTMOVE
 70
     0
  9
$LUNITS
 70
     2
  9
$LUPREC
 70
     4
  9
$SKETCHINC
 40
1.0
  9
$FILLETRAD
 40
10.0
  9
$AUNITS
 70
     0
  9
$AUPREC
 70
     0
  9
$MENU
  1
.
  9
$ELEVATION
 40
0.0
  9
$PELEVATION
 40
0.0
  9
$THICKNESS
 40
0.0
  9
$LIMCHECK
 70
     0
  9
$CHAMFERA
 40
10.0
  9
$CHAMFERB
 40
10.0
  9
$CHAMFERC
 40
20.0
  9
$CHAMFERD
 40
0.0
  9
$SKPOLY
 70
     0
  9
$TDCREATE
 40
2457904.478036701
  9
$TDUCREATE
 40
2457904.103036701
  9
$TDUPDATE
 40
2457904.478036713
  9
$TDUUPDATE
 40
2457904.103036713
  9
$TDINDWG
 40
0.0000000116
  9
$TDUSRTIMER
 40
0.0000000116
  9
$USRTIMER
 70
     1
  9
$ANGBASE
 50
0.0
  9
$ANGDIR
 70
     0
  9
$PDMODE
 70
     0
  9
$PDSIZE
 40
0.0
  9
$PLINEWID
 40
0.0
  9
$SPLFRAME
 70
     0
  9
$SPLINETYPE
 70
     6
  9
$SPLINESEGS
 70
     8
  9
$HANDSEED
  5
246
  9
$SURFTAB1
 70
     6
  9
$SURFTAB2
 70
     6
  9
$SURFTYPE
 70
     6
  9
$SURFU
 70
     6
  9
$SURFV
 70
     6
  9
$UCSBASE
  2

  9
$UCSNAME
  2

  9
$UCSORG
 10
0.0
 20
0.0
 30
0.0
  9
$UCSXDIR
 10
1.0
 20
0.0
 30
0.0
  9
$UCSYDIR
 10
0.0
 20
1.0
 30
0.0
  9
$UCSORTHOREF
  2

  9
$UCSORTHOVIEW
 70
     0
  9
$UCSORGTOP
 10
0.0
 20
0.0
 30
0.0
  9
$UCSORGBOTTOM
 10
0.0
 20
0.0
 30
0.0
  9
$UCSORGLEFT
 10
0.0
 20
0.0
 30
0.0
  9
$UCSORGRIGHT
 10
0.0
 20
0.0
 30
0.0
  9
$UCSORGFRONT
 10
0.0
 20
0.0
 30
0.0
  9
$UCSORGBACK
 10
0.0
 20
0.0
 30
0.0
  9
$PUCSBASE
  2

  9
$PUCSNAME
  2

  9
$PUCSORG
 10
0.0
 20
0.0
 30
0.0
  9
$PUCSXDIR
 10
1.0
 20
0.0
 30
0.0
  9
$PUCSYDIR
 10
0.0
 20
1.0
 30
0.0
  9
$PUCSORTHOREF
  2

  9
$PUCSORTHOVIEW
 70
     0
  9
$PUCSORGTOP
 10
0.0
 20
0.0
 30
0.0
  9
$PUCSORGBOTTOM
 10
0.0
 20
0.0
 30
0.0
  9
$PUCSORGLEFT
 10
0.0
 20
0.0
 30
0.0
  9
$PUCSORGRIGHT
 10
0.0
 20
0.0
 30
0.0
  9
$PUCSORGFRONT
 10
0.0
 20
0.0
 30
0.0
  9
$PUCSORGBACK
 10
0.0
 20
0.0
 30
0.0
  9
$USERI1
 70
     0
  9
$USERI2
 70
     0
  9
$USERI3
 70
     0
  9
$USERI4
 70
     0
  9
$USERI5
 70
     0
  9
$USERR1
 40
0.0
  9
$USERR2
 40
0.0
  9
$USERR3
 40
0.0
  9
$USERR4
 40
0.0
  9
$USERR5
 40
0.0
  9
$WORLDVIEW
 70
     1
  9
$SHADEDGE
 70
     3
  9
$SHADEDIF
 70
    70
  9
$TILEMODE
 70
     1
  9
$MAXACTVP
 70
    64
  9
$PINSBASE
 10
0.0
 20
0.0
 30
0.0
  9
$PLIMCHECK
 70
     0
  9
$PEXTMIN
 10
1.000000000000000E+20
 20
1.000000000000000E+20
 30
1.000000000000000E+20
  9
$PEXTMAX
 10
-1.000000000000000E+20
 20
-1.000000000000000E+20
 30
-1.000000000000000E+20
  9
$PLIMMIN
 10
0.0
 20
0.0
  9
$PLIMMAX
 10
420.0
 20
297.0
  9
$UNITMODE
 70
     0
  9
$VISRETAIN
 70
     1
  9
$PLINEGEN
 70
     0
  9
$PSLTSCALE
 70
     1
  9
$TREEDEPTH
 70
  3020
  9
$CMLSTYLE
  2
Standard
  9
$CMLJUST
 70
     0
  9
$CMLSCALE
 40
20.0
  9
$PROXYGRAPHICS
 70
     1
  9
$MEASUREMENT
 70
     1
  9
$CELWEIGHT
370
    -1
  9
$ENDCAPS
280
     0
  9
$JOINSTYLE
280
     0
  9
$LWDISPLAY
290
     0
  9
$INSUNITS
 70
     4
  9
$HYPERLINKBASE
  1

  9
$STYLESHEET
  1

  9
$XEDIT
290
     1
  9
$CEPSNTYPE
380
     0
  9
$PSTYLEMODE
290
     1
  9
$FINGERPRINTGUID
  2
{4EA31AD8-41A3-4DE4-BF4C-31E14CCF5F49}
  9
$VERSIONGUID
  2
{FAEB1C32-E019-11D5-929B-00C0DF256EC4}
  9
$EXTNAMES
290
     1
  9
$PSVPSCALE
 40
0.0
  9
$OLESTARTUP
290
     0
  9
$SORTENTS
280
   127
  9
$INDEXCTL
280
     0
  9
$HIDETEXT
280
     1
  9
$XCLIPFRAME
290
     0
  9
$HALOGAP
280
     0
  9
$OBSCOLOR
 70
   257
  9
$OBSLTYPE
280
     0
  9
$INTERSECTIONDISPLAY
280
     0
  9
$INTERSECTIONCOLOR
 70
   257
  9
$DIMASSOC
280
     2
  9
$PROJECTNAME
  1

  0
ENDSEC
  0
SECTION
  2
CLASSES
  0
CLASS
  1
ACDBDICTIONARYWDFLT
  2
AcDbDictionaryWithDefault
  3
ObjectDBX Classes
 90
        0
 91
        4
280
     0
281
     0
  0
CLASS
  1
VISUALSTYLE
  2
AcDbVisualStyle
  3
ObjectDBX Classes
 90
     4095
 91
        4
280
     0
281
     0
  0
ENDSEC
  0
SECTION
  2
TABLES
  0
TABLE
  2
VPORT
  5
8
330
0
100
AcDbSymbolTable
 70
     1
  0
VPORT
  5
29
330
8
100
AcDbSymbolTableRecord
100
AcDbViewportTableRecord
  2
*Active
 70
     0
 10
0.0
 20
0.0
 11
1.0
 21
1.0
 12
0.0
 22
0.0
 13
0.0
 23
0.0
 14
10.0
 24
10.0
 15
10.0
 25
10.0
 16
0.0
 26
0.0
 36
1.0
 17
0.0
 27
0.0
 37
0.0
 40
1633.5
 41
1.414141414141414
 42
50.0
 43
0.0
 44
0.0
 50
0.0
 51
0.0
 71
     0
 72
 10000
 73
     1
 74
     3
 75
     0
 76
     0
 77
     0
 78
     0
281
     0
 65
     1
110
0.0
120
0.0
130
0.0
111
1.0
121
0.0
131
0.0
112
0.0
122
1.0
132
0.0
 79
     0
146
0.0
  0
ENDTAB
  0
TABLE
  2
LTYPE
  5
5
330
0
100
AcDbSymbolTable
 70
     4
  0
LTYPE
  5
14
330
5
100
AcDbSymbolTableRecord
100
AcDbLinetypeTableRecord
  2
ByBlock
 70
     0
  3

 72
    65
 73
     0
 40
0.0
  0
LTYPE
  5
15
330
5
100
AcDbSymbolTableRecord
100
AcDbLinetypeTableRecord
  2
ByLayer
 70
     0
  3

 72
    65
 73
     0
 40
0.0
  0
LTYPE
  5
16
330
5
100
AcDbSymbolTableRecord
100
AcDbLinetypeTableRecord
  2
Continuous
 70
     0
  3
Solid line
 72
    65
 73
     0
 40
0.0
  0
LTYPE
  5
3C
330
5
100
AcDbSymbolTableRecord
100
AcDbLinetypeTableRecord
  2
JWW_CENTER2
 70
     0
  3
-------------  --  -------------
 72
    65
 73
     4
 40
13.54666666666667
 49
11.00666666666667
 74
     0
 49
-0.8466666666666667
 74
     0
 49
0.8466666666666667
 74
     0
 49
-0.8466666666666667
 74
     0
  0
LTYPE
  5
3D
330
5
100
AcDbSymbolTableRecord
100
AcDbLinetypeTableRecord
  2
JWW_CENTER1
 70
     0
  3
-----  --  ----------  --  -----
 72
    65
 73
     4
 40
6.773333333333333
 49
4.233333333333333
 74
     0
 49
-0.8466666666666667
 74
     0
 49
0.8466666666666667
 74
     0
 49
-0.8466666666666667
 74
     0
  0
LTYPE
  5
3E
330
5
100
AcDbSymbolTableRecord
100
AcDbLinetypeTableRecord
  2
JWW_DASHED3
 70
     0
  3
---  ------  ------  ------  ---
 72
    65
 73
     2
 40
3.386666666666667
 49
2.54
 74
     0
 49
-0.8466666666666667
 74
     0
  0
ENDTAB
  0
TABLE
  2
LAYER
  5
2
330
0
100
AcDbSymbolTable
 70
    10
  0
LAYER
  5
10
330
2
100
AcDbSymbolTableRecord
100
AcDbLayerTableRecord
  2
0
 70
     0
 62
     7
  6
Continuous
370
    -3
390
F
  0
LAYER
  5
3F
330
2
100
AcDbSymbolTableRecord
100
AcDbLayerTableRecord
  2
0-2
 70
     0
 62
     7
  6
Continuous
370
    -3
390
F
  0
LAYER
  5
40
330
2
100
AcDbSymbolTableRecord
100
AcDbLayerTableRecord
  2
0-1
 70
     0
 62
     7
  6
Continuous
370
    -3
390
F
  0
LAYER
  5
41
330
2
100
AcDbSymbolTableRecord
100
AcDbLayerTableRecord
  2
D-2
 70
     0
 62
     7
  6
Continuous
370
    -3
390
F
  0
LAYER
  5
42
330
2
100
AcDbSymbolTableRecord
100
AcDbLayerTableRecord
  2
D-1
 70
     0
 62
     7
  6
Continuous
370
    -3
390
F
  0
LAYER
  5
43
330
2
100
AcDbSymbolTableRecord
100
AcDbLayerTableRecord
  2
D-6
 70
     0
 62
     7
  6
Continuous
370
    -3
390
F
  0
LAYER
  5
44
330
2
100
AcDbSymbolTableRecord
100
AcDbLayerTableRecord
  2
D-4
 70
     0
 62
     7
  6
Continuous
370
    -3
390
F
  0
LAYER
  5
45
330
2
100
AcDbSymbolTableRecord
100
AcDbLayerTableRecord
  2
0-4
 70
     0
 62
     7
  6
Continuous
370
    -3
390
F
  0
LAYER
  5
46
330
2
100
AcDbSymbolTableRecord
100
AcDbLayerTableRecord
  2
D-5
 70
     0
 62
     7
  6
Continuous
370
    -3
390
F
  0
LAYER
  5
47
330
2
100
AcDbSymbolTableRecord
100
AcDbLayerTableRecord
  2
F-5
 70
     0
 62
     7
  6
Continuous
370
    -3
390
F
  0
ENDTAB
  0
TABLE
  2
STYLE
  5
3
330
0
100
AcDbSymbolTable
 70
     2
  0
STYLE
  5
11
330
3
100
AcDbSymbolTableRecord
100
AcDbTextStyleTableRecord
  2
Standard
 70
     0
 40
0.0
 41
1.0
 50
0.0
 71
     0
 42
2.5
  3
txt
  4

1001
ACAD
1000

1071
        0
  0
STYLE
  5
3B
330
3
100
AcDbSymbolTableRecord
100
AcDbTextStyleTableRecord
  2
ＭＳ ゴシック
 70
     0
 40
1.0
 41
1.0
 50
0.0
 71
     0
 42
10.0
  3

  4

1001
ACAD
1000
MS Gothic
1071
    32817
  0
ENDTAB
  0
TABLE
  2
VIEW
  5
6
330
0
100
AcDbSymbolTable
 70
     0
  0
ENDTAB
  0
TABLE
  2
UCS
  5
7
330
0
100
AcDbSymbolTable
 70
     0
  0
ENDTAB
  0
TABLE
  2
APPID
  5
9
330
0
100
AcDbSymbolTable
 70
     1
  0
APPID
  5
12
330
9
100
AcDbSymbolTableRecord
100
AcDbRegAppTableRecord
  2
ACAD
 70
     0
  0
ENDTAB
  0
TABLE
  2
DIMSTYLE
  5
A
330
0
100
AcDbSymbolTable
 70
     1
100
AcDbDimStyleTable
  0
DIMSTYLE
105
27
330
A
100
AcDbSymbolTableRecord
100
AcDbDimStyleTableRecord
  2
ISO-25
 70
     0
 41
2.5
 42
0.625
 43
3.75
 44
1.25
 73
     0
 74
     0
 77
     1
 78
     8
140
2.5
141
2.5
143
0.03937007874016
147
0.625
171
     3
172
     1
271
     2
272
     2
274
     3
278
    44
283
     0
284
     8
340
11
  0
ENDTAB
  0
TABLE
  2
BLOCK_RECORD
  5
1
330
0
100
AcDbSymbolTable
 70
     1
  0
BLOCK_RECORD
  5
1F
330
1
100
AcDbSymbolTableRecord
100
AcDbBlockTableRecord
  2
*Model_Space
340
22
  0
BLOCK_RECORD
  5
1B
330
1
100
AcDbSymbolTableRecord
100
AcDbBlockTableRecord
  2
*Paper_Space
340
1E
  0
BLOCK_RECORD
  5
23
330
1
100
AcDbSymbolTableRecord
100
AcDbBlockTableRecord
  2
*Paper_Space0
340
26
  0
ENDTAB
  0
ENDSEC
  0
SECTION
  2
BLOCKS
  0
BLOCK
  5
20
330
1F
100
AcDbEntity
  8
0
100
AcDbBlockBegin
  2
*Model_Space
 70
     0
 10
0.0
 20
0.0
 30
0.0
  3
*Model_Space
  1

  0
ENDBLK
  5
21
330
1F
100
AcDbEntity
  8
0
100
AcDbBlockEnd
  0
BLOCK
  5
1C
330
1B
100
AcDbEntity
 67
     1
  8
0
100
AcDbBlockBegin
  2
*Paper_Space
 70
     0
 10
0.0
 20
0.0
 30
0.0
  3
*Paper_Space
  1

  0
ENDBLK
  5
1D
330
1B
100
AcDbEntity
 67
     1
  8
0
100
AcDbBlockEnd
  0
BLOCK
  5
24
330
23
100
AcDbEntity
  8
0
100
AcDbBlockBegin
  2
*Paper_Space0
 70
     0
 10
0.0
 20
0.0
 30
0.0
  3
*Paper_Space0
  1

  0
ENDBLK
  5
25
330
23
100
AcDbEntity
  8
0
100
AcDbBlockEnd
  0
ENDSEC
  0
SECTION
  2
ENTITIES
  0
LINE
  5
48
330
1F
100
AcDbEntity
  8
0-2
  6
Continuous
 62
     3
370
     9
100
AcDbLine
 10
-573.7838745117188
 20
167.7702991382496
 30
0.0
 11
-273.783812651763
 21
167.7702991382496
 31
0.0
  0
LINE
  5
49
330
1F
100
AcDbEntity
  8
0-2
  6
Continuous
 62
     3
370
     9
100
AcDbLine
 10
-273.783812651763
 20
167.7702991382496
 30
0.0
 11
-273.783812651763
 21
-132.229762721706
 31
0.0
  0
LINE
  5
4A
330
1F
100
AcDbEntity
  8
0-2
  6
Continuous
 62
     3
370
     9
100
AcDbLine
 10
-273.783812651763
 20
-132.229762721706
 30
0.0
 11
-573.7838745117188
 21
-132.229762721706
 31
0.0
  0
LINE
  5
4B
330
1F
100
AcDbEntity
  8
0-2
  6
Continuous
 62
     3
370
     9
100
AcDbLine
 10
-573.7838745117188
 20
-132.229762721706
 30
0.0
 11
-573.7838745117188
 21
167.7702991382496
 31
0.0
  0
LINE
  5
4C
330
1F
100
AcDbEntity
  8
0-1
  6
Continuous
 62
     2
370
     9
100
AcDbLine
 10
-574.2838576033308
 20
-132.7298386032516
 30
0.0
 11
-574.2838576033308
 21
168.2703131598396
 31
0.0
  0
LINE
  5
4D
330
1F
100
AcDbEntity
  8
0-2
  6
Continuous
 62
     3
370
     9
100
AcDbLine
 10
-406.78383079735
 20
63.77029006545612
 30
0.0
 11
-440.783980086043
 21
63.77029006545612
 31
0.0
  0
LINE
  5
4E
330
1F
100
AcDbEntity
  8
0-2
  6
Continuous
 62
     3
370
     9
100
AcDbLine
 10
-441.2838703877217
 20
-27.72961590741133
 30
0.0
 11
-441.2838703877217
 21
63.27039976377748
 31
0.0
  0
LINE
  5
4F
330
1F
100
AcDbEntity
  8
0-2
  6
Continuous
 62
     3
370
     9
100
AcDbLine
 10
-406.2839404956715
 20
-27.72961590741133
 30
0.0
 11
-406.2839404956715
 21
63.27039976377748
 31
0.0
  0
LINE
  5
50
330
1F
100
AcDbEntity
  8
0-2
  6
Continuous
 62
     3
370
     9
100
AcDbLine
 10
-406.78383079735
 20
-28.2296917889569
 30
0.0
 11
-440.783980086043
 21
-28.2296917889569
 31
0.0
  0
LINE
  5
51
330
1F
100
AcDbEntity
  8
0-2
  6
Continuous
 62
     3
370
     9
100
AcDbLine
 10
-418.7838580157305
 20
-14.7296225058065
 30
0.0
 11
-428.7838291477512
 21
-14.7296225058065
 31
0.0
  0
LINE
  5
52
330
1F
100
AcDbEntity
  8
0-2
  6
Continuous
 62
     3
370
     9
100
AcDbLine
 10
-429.7837953309755
 20
49.27019273912592
 30
0.0
 11
-429.7837953309755
 21
-13.72965632258229
 31
0.0
  0
LINE
  5
53
330
1F
100
AcDbEntity
  8
0-2
  6
Continuous
 62
     3
370
     9
100
AcDbLine
 10
-417.7838918325063
 20
49.27019273912592
 30
0.0
 11
-417.7838918325063
 21
-13.72965632258229
 31
0.0
  0
LINE
  5
54
330
1F
100
AcDbEntity
  8
0-2
  6
Continuous
 62
     3
370
     9
100
AcDbLine
 10
-418.7838580157305
 20
50.27022078230573
 30
0.0
 11
-428.7838291477512
 21
50.27022078230573
 31
0.0
  0
LINE
  5
55
330
1F
100
AcDbEntity
  8
0-2
  6
Continuous
 62
     3
370
     9
100
AcDbLine
 10
-573.7838745117188
 20
167.7702991382496
 30
0.0
 11
-563.783903379698
 21
157.7703280062289
 31
0.0
  0
LINE
  5
56
330
1F
100
AcDbEntity
  8
0-2
  6
Continuous
 62
     3
370
     9
100
AcDbLine
 10
-563.783903379698
 20
-122.2297297297297
 30
0.0
 11
-563.783903379698
 21
157.7703280062289
 31
0.0
  0
LINE
  5
57
330
1F
100
AcDbEntity
  8
0-2
  6
Continuous
 62
     3
370
     9
100
AcDbLine
 10
-563.783903379698
 20
-122.2297297297297
 30
0.0
 11
-573.7838745117188
 21
-132.229762721706
 31
0.0
  0
LINE
  5
58
330
1F
100
AcDbEntity
  8
0-2
  6
Continuous
 62
     3
370
     9
100
AcDbLine
 10
-568.7839508056641
 20
-127.2298080856735
 30
0.0
 11
-568.7839508056641
 21
162.7704063621728
 31
0.0
  0
LINE
  5
59
330
1F
100
AcDbEntity
  8
0-2
  6
Continuous
 62
     3
370
     9
100
AcDbLine
 10
-283.7837837837837
 20
-122.2297297297297
 30
0.0
 11
-563.783903379698
 21
-122.2297297297297
 31
0.0
  0
LINE
  5
5A
330
1F
100
AcDbEntity
  8
0-2
  6
Continuous
 62
     3
370
     9
100
AcDbLine
 10
-283.7837837837837
 20
-122.2297297297297
 30
0.0
 11
-273.783812651763
 21
-132.229762721706
 31
0.0
  0
LINE
  5
5B
330
1F
100
AcDbEntity
  8
0-2
  6
Continuous
 62
     3
370
     9
100
AcDbLine
 10
-278.7838291477511
 20
-127.2298080856735
 30
0.0
 11
-568.7838889457084
 21
-127.2298080856735
 31
0.0
  0
LINE
  5
5C
330
1F
100
AcDbEntity
  8
0-2
  6
Continuous
 62
     3
370
     9
100
AcDbLine
 10
-283.7837837837837
 20
157.7703280062289
 30
0.0
 11
-283.7837837837837
 21
-122.2297297297297
 31
0.0
  0
LINE
  5
5D
330
1F
100
AcDbEntity
  8
0-2
  6
Continuous
 62
     3
370
     9
100
AcDbLine
 10
-283.7837837837837
 20
157.7703280062289
 30
0.0
 11
-273.783812651763
 21
167.7702991382496
 31
0.0
  0
LINE
  5
5E
330
1F
100
AcDbEntity
  8
0-2
  6
Continuous
 62
     3
370
     9
100
AcDbLine
 10
-278.7837672877956
 20
162.7704063621728
 30
0.0
 11
-278.7837672877956
 21
-127.2298080856735
 31
0.0
  0
LINE
  5
5F
330
1F
100
AcDbEntity
  8
0-2
  6
Continuous
 62
     3
370
     9
100
AcDbLine
 10
-563.783903379698
 20
157.7703280062289
 30
0.0
 11
-283.7837837837837
 21
157.7703280062289
 31
0.0
  0
LINE
  5
60
330
1F
100
AcDbEntity
  8
0-2
  6
Continuous
 62
     3
370
     9
100
AcDbLine
 10
-568.7839198756863
 20
162.7704063621728
 30
0.0
 11
-278.7838291477511
 21
162.7704063621728
 31
0.0
  0
LINE
  5
61
330
1F
100
AcDbEntity
  8
0-1
  6
Continuous
 62
     2
370
     9
100
AcDbLine
 10
-584.2838905953072
 20
178.2704080117716
 30
0.0
 11
-574.2838576033308
 21
168.2703131598396
 31
0.0
  0
LINE
  5
62
330
1F
100
AcDbEntity
  8
0-1
  6
Continuous
 62
     2
370
     9
100
AcDbLine
 10
-574.2838576033308
 20
-132.7298386032516
 30
0.0
 11
-584.2838905953072
 21
-142.7298097352723
 31
0.0
  0
LINE
  5
63
330
1F
100
AcDbEntity
  8
0-1
  6
Continuous
 62
     2
370
     9
100
AcDbLine
 10
-579.2839050292969
 20
-137.7297313793285
 30
0.0
 11
-579.2839050292969
 21
173.2703296558277
 31
0.0
  0
LINE
  5
64
330
1F
100
AcDbEntity
  8
0-1
  6
Continuous
 62
     2
370
     9
100
AcDbLine
 10
-273.2838604901287
 20
-132.7298386032516
 30
0.0
 11
-574.283826673353
 21
-132.7298386032516
 31
0.0
  0
LINE
  5
65
330
1F
100
AcDbEntity
  8
0-1
  6
Continuous
 62
     2
370
     9
100
AcDbLine
 10
-263.2838893581081
 20
-142.7298097352723
 30
0.0
 11
-584.2838905953072
 21
-142.7298097352723
 31
0.0
  0
LINE
  5
66
330
1F
100
AcDbEntity
  8
0-1
  6
Continuous
 62
     2
370
     9
100
AcDbLine
 10
-273.2838604901287
 20
-132.7298386032516
 30
0.0
 11
-263.2838893581081
 21
-142.7298097352723
 31
0.0
  0
LINE
  5
67
330
1F
100
AcDbEntity
  8
0-1
  6
Continuous
 62
     2
370
     9
100
AcDbLine
 10
-268.2839058540962
 20
-137.7297313793285
 30
0.0
 11
-579.2839050292969
 21
-137.7297313793285
 31
0.0
  0
LINE
  5
68
330
1F
100
AcDbEntity
  8
0-1
  6
Continuous
 62
     2
370
     9
100
AcDbLine
 10
-273.2838604901287
 20
168.2703131598396
 30
0.0
 11
-273.2838604901287
 21
-132.7296530233847
 31
0.0
  0
LINE
  5
69
330
1F
100
AcDbEntity
  8
0-1
  6
Continuous
 62
     2
370
     9
100
AcDbLine
 10
-263.2838893581081
 20
178.2704080117716
 30
0.0
 11
-263.2838893581081
 21
-142.7298097352723
 31
0.0
  0
LINE
  5
6A
330
1F
100
AcDbEntity
  8
0-1
  6
Continuous
 62
     2
370
     9
100
AcDbLine
 10
-273.2838604901287
 20
168.2703131598396
 30
0.0
 11
-263.2838893581081
 21
178.2704080117716
 31
0.0
  0
LINE
  5
6B
330
1F
100
AcDbEntity
  8
0-1
  6
Continuous
 62
     2
370
     9
100
AcDbLine
 10
-268.2839058540962
 20
173.2703296558277
 30
0.0
 11
-268.2839058540962
 21
-137.7297313793285
 31
0.0
  0
LINE
  5
6C
330
1F
100
AcDbEntity
  8
0-1
  6
Continuous
 62
     2
370
     9
100
AcDbLine
 10
-574.2838576033308
 20
168.2703131598396
 30
0.0
 11
-273.2838604901287
 21
168.2703131598396
 31
0.0
  0
LINE
  5
6D
330
1F
100
AcDbEntity
  8
0-1
  6
Continuous
 62
     2
370
     9
100
AcDbLine
 10
-584.2838905953072
 20
178.2704080117716
 30
0.0
 11
-263.2838893581081
 21
178.2704080117716
 31
0.0
  0
LINE
  5
6E
330
1F
100
AcDbEntity
  8
0-1
  6
Continuous
 62
     2
370
     9
100
AcDbLine
 10
-579.2839050292969
 20
173.2703296558277
 30
0.0
 11
-268.2839058540962
 21
173.2703296558277
 31
0.0
  0
LINE
  5
6F
330
1F
100
AcDbEntity
  8
0-1
  6
Continuous
 62
     2
370
     9
100
AcDbLine
 10
-584.2838905953072
 20
-142.7298097352723
 30
0.0
 11
-584.2838905953072
 21
178.2704080117716
 31
0.0
  0
LINE
  5
70
330
1F
100
AcDbEntity
  8
D-2
  6
Continuous
 62
     3
370
     9
100
AcDbLine
 10
500.5101384343328
 20
400.5304449957771
 30
0.0
 11
500.5101384343328
 21
390.2802503431167
 31
0.0
  0
LINE
  5
71
330
1F
100
AcDbEntity
  8
D-2
  6
Continuous
 62
     3
370
     9
100
AcDbLine
 10
473.0516175966005
 20
390.2802503431167
 30
0.0
 11
444.1156335779138
 21
395.4054713893582
 31
0.0
  0
LINE
  5
72
330
1F
100
AcDbEntity
  8
D-2
  6
Continuous
 62
     3
370
     9
100
AcDbLine
 10
500.5101384343328
 20
390.2802503431167
 30
0.0
 11
473.0516175966005
 21
390.2802503431167
 31
0.0
  0
LINE
  5
73
330
1F
100
AcDbEntity
  8
D-2
  6
Continuous
 62
     3
370
     9
100
AcDbLine
 10
500.5101384343328
 20
400.5304449957771
 30
0.0
 11
473.0516175966005
 21
400.5304449957771
 31
0.0
  0
LINE
  5
74
330
1F
100
AcDbEntity
  8
D-2
  6
Continuous
 62
     3
370
     9
100
AcDbLine
 10
497.6353825749578
 20
412.9054054054055
 30
0.0
 11
497.6353825749578
 21
400.5304449957771
 31
0.0
  0
LINE
  5
75
330
1F
100
AcDbEntity
  8
D-2
  6
Continuous
 62
     3
370
     9
100
AcDbLine
 10
508.8852341110643
 20
416.6553559174409
 30
0.0
 11
508.8852341110643
 21
410.4052734375
 31
0.0
  0
LINE
  5
76
330
1F
100
AcDbEntity
  8
D-2
  6
Continuous
 62
     3
370
     9
100
AcDbLine
 10
508.8852341110643
 20
410.4052734375
 30
0.0
 11
506.3853495829815
 21
407.9051414695947
 31
0.0
  0
LINE
  5
77
330
1F
100
AcDbEntity
  8
D-2
  6
Continuous
 62
     3
370
     9
100
AcDbLine
 10
502.6351516311234
 20
412.9054054054055
 30
0.0
 11
497.6353825749578
 21
412.9054054054055
 31
0.0
  0
LINE
  5
78
330
1F
100
AcDbEntity
  8
D-2
  6
Continuous
 62
     3
370
     9
100
AcDbLine
 10
508.8852341110643
 20
371.6552074535474
 30
0.0
 11
508.8852341110643
 21
367.9052569415119
 31
0.0
  0
LINE
  5
79
330
1F
100
AcDbEntity
  8
D-1
  6
Continuous
 62
     2
370
     9
100
AcDbLine
 10
521.385027911212
 20
412.9054054054055
 30
0.0
 11
521.385027911212
 21
407.9051414695947
 31
0.0
  0
LINE
  5
7A
330
1F
100
AcDbEntity
  8
D-1
  6
Continuous
 62
     2
370
     9
100
AcDbLine
 10
521.385027911212
 20
407.9051414695947
 30
0.0
 11
518.8852671030406
 21
407.9051414695947
 31
0.0
  0
LINE
  5
7B
330
1F
100
AcDbEntity
  8
D-1
  6
Continuous
 62
     2
370
     9
100
AcDbLine
 10
518.8852671030406
 20
412.9054054054055
 30
0.0
 11
518.8852671030406
 21
407.9051414695947
 31
0.0
  0
LINE
  5
7C
330
1F
100
AcDbEntity
  8
D-1
  6
Continuous
 62
     2
370
     9
100
AcDbLine
 10
518.8852671030406
 20
412.9054054054055
 30
0.0
 11
513.8850031672297
 21
412.9054054054055
 31
0.0
  0
LINE
  5
7D
330
1F
100
AcDbEntity
  8
D-1
  6
Continuous
 62
     2
370
     9
100
AcDbLine
 10
521.385027911212
 20
366.6551909575591
 30
0.0
 11
518.8852671030406
 21
366.6551909575591
 31
0.0
  0
LINE
  5
7E
330
1F
100
AcDbEntity
  8
D-1
  6
Continuous
 62
     2
370
     9
100
AcDbLine
 10
521.385027911212
 20
356.6551579655828
 30
0.0
 11
521.385027911212
 21
366.6551909575591
 31
0.0
  0
LINE
  5
7F
330
1F
100
AcDbEntity
  8
D-1
  6
Continuous
 62
     2
370
     9
100
AcDbLine
 10
518.8852671030406
 20
361.6551744615709
 30
0.0
 11
518.8852671030406
 21
366.6551909575591
 31
0.0
  0
LINE
  5
80
330
1F
100
AcDbEntity
  8
D-1
  6
Continuous
 62
     2
370
     9
100
AcDbLine
 10
513.8850031672297
 20
361.6551744615709
 30
0.0
 11
518.8852671030406
 21
361.6551744615709
 31
0.0
  0
LINE
  5
81
330
1F
100
AcDbEntity
  8
D-1
  6
Continuous
 62
     2
370
     9
100
AcDbLine
 10
479.3852110166807
 20
361.6551744615709
 30
0.0
 11
510.1350526551943
 21
361.6551744615709
 31
0.0
  0
LINE
  5
82
330
1F
100
AcDbEntity
  8
D-1
  6
Continuous
 62
     2
370
     9
100
AcDbLine
 10
509.7601813239021
 20
365.4051249736065
 30
0.0
 11
509.7601813239021
 21
361.6551744615709
 31
0.0
  0
LINE
  5
83
330
1F
100
AcDbEntity
  8
D-2
  6
Continuous
 62
     3
370
     9
100
AcDbLine
 10
508.8852341110643
 20
416.6553559174409
 30
0.0
 11
496.3853165910052
 21
416.6553559174409
 31
0.0
  0
LINE
  5
84
330
1F
100
AcDbEntity
  8
D-2
  6
Continuous
 62
     3
370
     9
100
AcDbLine
 10
496.3853165910052
 20
416.6553559174409
 30
0.0
 11
483.8851516311234
 21
414.1554713893582
 31
0.0
  0
LINE
  5
85
330
1F
100
AcDbEntity
  8
D-2
  6
Continuous
 62
     3
370
     9
100
AcDbLine
 10
483.8851516311234
 20
414.1554713893582
 30
0.0
 11
483.8851516311234
 21
412.9054054054055
 31
0.0
  0
LINE
  5
86
330
1F
100
AcDbEntity
  8
D-1
  6
Continuous
 62
     2
370
     9
100
AcDbLine
 10
522.635217615076
 20
416.6553559174409
 30
0.0
 11
510.1350526551943
 21
416.6553559174409
 31
0.0
  0
LINE
  5
87
330
1F
100
AcDbEntity
  8
D-1
  6
Continuous
 62
     2
370
     9
100
AcDbLine
 10
535.1351351351352
 20
414.1554713893582
 30
0.0
 11
522.635217615076
 21
416.6553559174409
 31
0.0
  0
LINE
  5
88
330
1F
100
AcDbEntity
  8
D-1
  6
Continuous
 62
     2
370
     9
100
AcDbLine
 10
535.1351351351352
 20
414.1554713893582
 30
0.0
 11
535.1351351351352
 21
412.9054054054055
 31
0.0
  0
LINE
  5
89
330
1F
100
AcDbEntity
  8
D-1
  6
Continuous
 62
     2
370
     9
100
AcDbLine
 10
535.1351351351352
 20
412.9054054054055
 30
0.0
 11
521.385027911212
 21
412.9054054054055
 31
0.0
  0
LINE
  5
8A
330
1F
100
AcDbEntity
  8
D-2
  6
Continuous
 62
     3
370
     9
100
AcDbLine
 10
491.3850526551943
 20
381.1551645639781
 30
0.0
 11
491.3850526551943
 21
377.1552998310812
 31
0.0
  0
LINE
  5
8B
330
1F
100
AcDbEntity
  8
D-2
  6
Continuous
 62
     3
370
     9
100
AcDbLine
 10
508.8852341110643
 20
371.6552074535474
 30
0.0
 11
506.3853495829815
 21
374.1553394214527
 31
0.0
  0
LINE
  5
8C
330
1F
100
AcDbEntity
  8
D-1
  6
Continuous
 62
     2
370
     9
100
AcDbLine
 10
479.7600823479732
 20
365.4051249736065
 30
0.0
 11
509.7601813239021
 21
365.4051249736065
 31
0.0
  0
LINE
  5
8D
330
1F
100
AcDbEntity
  8
D-2
  6
Continuous
 62
     3
370
     9
100
AcDbLine
 10
493.8851846230997
 20
366.6551909575591
 30
0.0
 11
493.8851846230997
 21
373.405101879223
 31
0.0
  0
LINE
  5
8E
330
1F
100
AcDbEntity
  8
D-2
  6
Continuous
 62
     3
370
     9
100
AcDbLine
 10
493.8851846230997
 20
373.405101879223
 30
0.0
 11
472.7602572054477
 21
373.405101879223
 31
0.0
  0
LINE
  5
8F
330
1F
100
AcDbEntity
  8
D-1
  6
Continuous
 62
     2
370
     9
100
AcDbLine
 10
479.3852110166807
 20
365.9052008551521
 30
0.0
 11
479.3852110166807
 21
361.6551744615709
 31
0.0
  0
LINE
  5
90
330
1F
100
AcDbEntity
  8
D-1
  6
Continuous
 62
     2
370
     9
100
AcDbLine
 10
479.3852110166807
 20
365.9052008551521
 30
0.0
 11
475.6351367847341
 21
365.9052008551521
 31
0.0
  0
LINE
  5
91
330
1F
100
AcDbEntity
  8
D-1
  6
Continuous
 62
     2
370
     9
100
AcDbLine
 10
475.6351367847341
 20
365.9052008551521
 30
0.0
 11
475.6351367847341
 21
356.6551579655828
 31
0.0
  0
LINE
  5
92
330
1F
100
AcDbEntity
  8
D-2
  6
Continuous
 62
     3
370
     9
100
AcDbLine
 10
467.6587903821792
 20
399.4691755964951
 30
0.0
 11
462.1408823374156
 21
392.2842654666385
 31
0.0
  0
LINE
  5
93
330
1F
100
AcDbEntity
  8
D-2
  6
Continuous
 62
     3
370
     9
100
AcDbLine
 10
480.9740221178211
 20
400.5306924355997
 30
0.0
 11
473.1019716005068
 21
390.2804977829392
 31
0.0
  0
LINE
  5
94
330
1F
100
AcDbEntity
  8
D-2
  6
Continuous
 62
     3
370
     9
100
AcDbLine
 10
493.4739396378802
 20
400.5306924355997
 30
0.0
 11
485.6021365603885
 21
390.2804977829392
 31
0.0
  0
LINE
  5
95
330
1F
100
AcDbEntity
  8
D-2
  6
Continuous
 62
     3
370
     9
100
AcDbLine
 10
500.5101384343328
 20
393.4163026551943
 30
0.0
 11
498.1019303605365
 21
390.2804977829392
 31
0.0
  0
LINE
  5
96
330
1F
100
AcDbEntity
  8
D-1
  6
Continuous
 62
     2
370
     9
100
AcDbLine
 10
516.0101400839318
 20
390.2802503431167
 30
0.0
 11
543.4684134818415
 21
390.2802503431167
 31
0.0
  0
LINE
  5
97
330
1F
100
AcDbEntity
  8
D-1
  6
Continuous
 62
     2
370
     9
100
AcDbLine
 10
516.0101400839318
 20
400.5304449957771
 30
0.0
 11
543.4684134818415
 21
400.5304449957771
 31
0.0
  0
LINE
  5
98
330
1F
100
AcDbEntity
  8
D-1
  6
Continuous
 62
     2
370
     9
100
AcDbLine
 10
548.861364416174
 20
391.3417671822214
 30
0.0
 11
554.3795199007602
 21
398.5266773120777
 31
0.0
  0
LINE
  5
99
330
1F
100
AcDbEntity
  8
D-1
  6
Continuous
 62
     2
370
     9
100
AcDbLine
 10
535.5465038402662
 20
390.2802503431167
 30
0.0
 11
543.4181831978464
 21
400.5304449957771
 31
0.0
  0
LINE
  5
9A
330
1F
100
AcDbEntity
  8
D-1
  6
Continuous
 62
     2
370
     9
100
AcDbLine
 10
523.0465863202071
 20
390.2802503431167
 30
0.0
 11
530.9182656777873
 21
400.5304449957771
 31
0.0
  0
LINE
  5
9B
330
1F
100
AcDbEntity
  8
D-1
  6
Continuous
 62
     2
370
     9
100
AcDbLine
 10
516.0101400839318
 20
397.394640123522
 30
0.0
 11
518.4183481577281
 21
400.5304449957771
 31
0.0
  0
LINE
  5
9C
330
1F
100
AcDbEntity
  8
D-2
  6
JWW_CENTER2
 62
     3
370
     9
100
AcDbLine
 10
581.7129599081505
 20
395.4054713893582
 30
0.0
 11
433.7574314426732
 21
395.4054713893582
 31
0.0
  0
LINE
  5
9D
330
1F
100
AcDbEntity
  8
D-1
  6
Continuous
 62
     2
370
     9
100
AcDbLine
 10
479.7600823479732
 20
365.4051249736065
 30
0.0
 11
479.7600823479732
 21
361.6551744615709
 31
0.0
  0
LINE
  5
9E
330
1F
100
AcDbEntity
  8
D-2
  6
Continuous
 62
     3
370
     9
100
AcDbLine
 10
495.135498046875
 20
412.9054054054055
 30
0.0
 11
483.8851516311234
 21
412.9054054054055
 31
0.0
  0
LINE
  5
9F
330
1F
100
AcDbEntity
  8
D-2
  6
Continuous
 62
     3
370
     9
100
AcDbLine
 10
497.6353825749578
 20
407.9051414695947
 30
0.0
 11
495.135498046875
 21
407.9051414695947
 31
0.0
  0
LINE
  5
A0
330
1F
100
AcDbEntity
  8
D-2
  6
Continuous
 62
     3
370
     9
100
AcDbLine
 10
495.135498046875
 20
412.9054054054055
 30
0.0
 11
495.135498046875
 21
407.9051414695947
 31
0.0
  0
LINE
  5
A1
330
1F
100
AcDbEntity
  8
D-2
  6
Continuous
 62
     3
370
     9
100
AcDbLine
 10
497.6353825749578
 20
382.1550688872466
 30
0.0
 11
495.135498046875
 21
382.1550688872466
 31
0.0
  0
LINE
  5
A2
330
1F
100
AcDbEntity
  8
D-2
  6
Continuous
 62
     3
370
     9
100
AcDbLine
 10
495.135498046875
 20
377.1552998310812
 30
0.0
 11
495.135498046875
 21
382.1550688872466
 31
0.0
  0
LINE
  5
A3
330
1F
100
AcDbEntity
  8
D-2
  6
Continuous
 62
     3
370
     9
100
AcDbLine
 10
495.135498046875
 20
377.1552998310812
 30
0.0
 11
182.0810678842906
 21
377.1552998310812
 31
0.0
  0
LINE
  5
A4
330
1F
100
AcDbEntity
  8
D-1
  6
Continuous
 62
     2
370
     9
100
AcDbLine
 10
508.3851582295188
 20
356.6551579655828
 30
0.0
 11
507.1350922455659
 21
357.9052239495355
 31
0.0
  0
LINE
  5
A5
330
1F
100
AcDbEntity
  8
D-1
  6
Continuous
 62
     2
370
     9
100
AcDbLine
 10
484.3851037927575
 20
357.9052239495355
 30
0.0
 11
507.1350922455659
 21
357.9052239495355
 31
0.0
  0
LINE
  5
A6
330
1F
100
AcDbEntity
  8
D-1
  6
Continuous
 62
     2
370
     9
100
AcDbLine
 10
483.1352852486276
 20
356.6551579655828
 30
0.0
 11
484.3851037927575
 21
357.9052239495355
 31
0.0
  0
LINE
  5
A7
330
1F
100
AcDbEntity
  8
D-2
  6
Continuous
 62
     3
370
     9
100
AcDbLine
 10
444.1156335779138
 20
395.4054713893582
 30
0.0
 11
473.0516175966005
 21
400.5304449957771
 31
0.0
  0
LINE
  5
A8
330
1F
100
AcDbEntity
  8
D-2
  6
Continuous
 62
     3
370
     9
100
AcDbLine
 10
453.2852585251268
 20
397.0296663851352
 30
0.0
 11
451.089601258974
 21
394.1704992345862
 31
0.0
  0
LINE
  5
A9
330
1F
100
AcDbEntity
  8
D-1
  6
Continuous
 62
     2
370
     9
100
AcDbLine
 10
543.4684134818415
 20
390.2802503431167
 30
0.0
 11
572.4045212204394
 21
395.4054713893582
 31
0.0
  0
LINE
  5
AA
330
1F
100
AcDbEntity
  8
D-1
  6
Continuous
 62
     2
370
     9
100
AcDbLine
 10
543.4684134818415
 20
400.5304449957771
 30
0.0
 11
572.4045212204394
 21
395.4054713893582
 31
0.0
  0
LINE
  5
AB
330
1F
100
AcDbEntity
  8
D-1
  6
Continuous
 62
     2
370
     9
100
AcDbLine
 10
563.2350199931377
 20
393.7812763935812
 30
0.0
 11
565.4309246991133
 21
396.6404435441301
 31
0.0
  0
LINE
  5
AC
330
1F
100
AcDbEntity
  8
D-1
  6
Continuous
 62
     2
370
     9
100
AcDbLine
 10
523.8849124392948
 20
412.4053295238599
 30
0.0
 11
523.8849124392948
 21
400.5304449957771
 31
0.0
  0
LINE
  5
AD
330
1F
100
AcDbEntity
  8
D-2
  6
Continuous
 62
     3
370
     9
100
AcDbLine
 10
493.8851846230997
 20
412.4053295238599
 30
0.0
 11
493.8851846230997
 21
400.5304449957771
 31
0.0
  0
LINE
  5
AE
330
1F
100
AcDbEntity
  8
D-6
  6
Continuous
 62
     6
370
     5
100
AcDbLine
 10
475.6351367847341
 20
356.6551579655828
 30
0.0
 11
475.6351367847341
 21
258.6710914405617
 31
0.0
  0
LINE
  5
AF
330
1F
100
AcDbEntity
  8
D-2
  6
JWW_CENTER1
 62
     3
370
     9
100
AcDbLine
 10
305.1351186391472
 20
366.8496786581504
 30
0.0
 11
305.1351186391472
 21
404.795565218539
 31
0.0
  0
LINE
  5
B0
330
1F
100
AcDbEntity
  8
D-6
  6
Continuous
 62
     6
370
     5
100
AcDbLine
 10
475.8851747255068
 20
315.1547983530406
 30
0.0
 11
517.385534338049
 21
356.6551579655828
 31
0.0
  0
LINE
  5
B1
330
1F
100
AcDbEntity
  8
D-6
  6
Continuous
 62
     6
370
     5
100
AcDbLine
 10
475.6351367847341
 20
350.2600757495777
 30
0.0
 11
482.0300952808279
 21
356.6551579655828
 31
0.0
  0
LINE
  5
B2
330
1F
100
AcDbEntity
  8
D-2
  6
Continuous
 62
     3
370
     9
100
AcDbLine
 10
497.6353825749578
 20
369.1553229254646
 30
0.0
 11
497.6353825749578
 21
390.2802503431167
 31
0.0
  0
LINE
  5
B3
330
1F
100
AcDbEntity
  8
D-2
  6
Continuous
 62
     3
370
     9
100
AcDbLine
 10
502.6351516311234
 20
369.1553229254646
 30
0.0
 11
497.6353825749578
 21
369.1553229254646
 31
0.0
  0
LINE
  5
B4
330
1F
100
AcDbEntity
  8
D-2
  6
Continuous
 62
     3
370
     9
100
AcDbLine
 10
493.8851846230997
 20
390.2802503431167
 30
0.0
 11
493.8851846230997
 21
381.1554120038008
 31
0.0
  0
LINE
  5
B5
330
1F
100
AcDbEntity
  8
D-1
  6
Continuous
 62
     2
370
     9
100
AcDbLine
 10
523.8849124392948
 20
390.2802503431167
 30
0.0
 11
523.8849124392948
 21
381.1554120038008
 31
0.0
  0
LINE
  5
B6
330
1F
100
AcDbEntity
  8
D-2
  6
Continuous
 62
     2
370
     9
100
AcDbLine
 10
310.1351351351352
 20
381.1551645639781
 30
0.0
 11
491.3850526551943
 21
381.1551645639781
 31
0.0
  0
LINE
  5
B7
330
1F
100
AcDbEntity
  8
D-2
  6
Continuous
 62
     3
370
     9
100
AcDbLine
 10
306.3851846230997
 20
370.9829134554477
 30
0.0
 11
303.8850526551943
 21
370.9829134554477
 31
0.0
  0
LINE
  5
B8
330
1F
100
AcDbEntity
  8
D-2
  6
Continuous
 62
     3
370
     9
100
AcDbLine
 10
303.8850526551943
 20
369.9797924144849
 30
0.0
 11
303.8850526551943
 21
370.9829134554477
 31
0.0
  0
LINE
  5
B9
330
1F
100
AcDbEntity
  8
D-2
  6
Continuous
 62
     3
370
     9
100
AcDbLine
 10
306.3851846230997
 20
369.9797924144849
 30
0.0
 11
306.3851846230997
 21
370.9829134554477
 31
0.0
  0
LINE
  5
BA
330
1F
100
AcDbEntity
  8
D-2
  6
Continuous
 62
     3
370
     9
100
AcDbLine
 10
295.6351615287164
 20
375.9052338471284
 30
0.0
 11
295.6351615287164
 21
377.1552998310812
 31
0.0
  0
LINE
  5
BB
330
1F
100
AcDbEntity
  8
D-2
  6
Continuous
 62
     3
370
     9
100
AcDbLine
 10
314.6350757495779
 20
375.9052338471284
 30
0.0
 11
314.6350757495779
 21
377.1552998310812
 31
0.0
  0
LINE
  5
BC
330
1F
100
AcDbEntity
  8
D-2
  6
Continuous
 62
     3
370
     9
100
AcDbLine
 10
300.1351021431589
 20
377.1552998310812
 30
0.0
 11
300.1351021431589
 21
390.9948565508869
 31
0.0
  0
LINE
  5
BD
330
1F
100
AcDbEntity
  8
D-2
  6
Continuous
 62
     3
370
     9
100
AcDbLine
 10
305.1351186391472
 20
402.1551348711994
 30
0.0
 11
300.1351021431589
 21
390.9948565508869
 31
0.0
  0
LINE
  5
BE
330
1F
100
AcDbEntity
  8
D-2
  6
Continuous
 62
     3
370
     9
100
AcDbLine
 10
305.1351186391472
 20
402.1551348711994
 30
0.0
 11
310.1351351351352
 21
390.9948565508869
 31
0.0
  0
LINE
  5
BF
330
1F
100
AcDbEntity
  8
D-2
  6
Continuous
 62
     3
370
     9
100
AcDbLine
 10
310.1351351351352
 20
377.1552998310812
 30
0.0
 11
310.1351351351352
 21
390.9948565508869
 31
0.0
  0
LINE
  5
C0
330
1F
100
AcDbEntity
  8
D-2
  6
Continuous
 62
     3
370
     9
100
AcDbLine
 10
300.1351021431589
 20
380.713731920397
 30
0.0
 11
306.298828125
 21
377.1552998310812
 31
0.0
  0
LINE
  5
C1
330
1F
100
AcDbEntity
  8
D-2
  6
Continuous
 62
     3
370
     9
100
AcDbLine
 10
300.1351021431589
 20
386.5124841638515
 30
0.0
 11
310.1351351351352
 21
380.7387233424832
 31
0.0
  0
LINE
  5
C2
330
1F
100
AcDbEntity
  8
D-2
  6
Continuous
 62
     3
370
     9
100
AcDbLine
 10
300.6037531672297
 20
392.040537241343
 30
0.0
 11
310.1351351351352
 21
386.5374755859375
 31
0.0
  0
LINE
  5
C3
330
1F
100
AcDbEntity
  8
D-2
  6
Continuous
 62
     3
370
     9
100
AcDbLine
 10
302.6676487278294
 20
396.6476192989866
 30
0.0
 11
309.3247697160052
 21
392.8038890941724
 31
0.0
  0
LINE
  5
C4
330
1F
100
AcDbEntity
  8
D-2
  6
Continuous
 62
     3
370
     9
100
AcDbLine
 10
310.1351351351352
 20
381.1554120038008
 30
0.0
 11
493.8851846230997
 21
381.1554120038008
 31
0.0
  0
LINE
  5
C5
330
1F
100
AcDbEntity
  8
D-2
  6
Continuous
 62
     3
370
     9
100
AcDbLine
 10
310.1351351351352
 20
387.405247043919
 30
0.0
 11
493.8851846230997
 21
387.405247043919
 31
0.0
  0
LINE
  5
C6
330
1F
100
AcDbEntity
  8
D-2
  6
Continuous
 62
     3
370
     9
100
AcDbLine
 10
308.9434649493245
 20
393.6553295238599
 30
0.0
 11
453.9968954550255
 21
393.6553295238599
 31
0.0
  0
LINE
  5
C7
330
1F
100
AcDbEntity
  8
D-2
  6
Continuous
 62
     3
370
     9
100
AcDbLine
 10
469.5226308461784
 20
399.9054120038008
 30
0.0
 11
306.1431884765625
 21
399.9054120038008
 31
0.0
  0
LINE
  5
C8
330
1F
100
AcDbEntity
  8
D-1
  6
Continuous
 62
     2
370
     9
100
AcDbLine
 10
182.0810678842906
 20
356.6551579655828
 30
0.0
 11
521.385027911212
 21
356.6551579655828
 31
0.0
  0
LINE
  5
C9
330
1F
100
AcDbEntity
  8
D-6
  6
Continuous
 62
     6
370
     5
100
AcDbLine
 10
523.8849124392948
 20
258.6710914405617
 30
0.0
 11
523.8849124392948
 21
381.1554120038008
 31
0.0
  0
LINE
  5
CA
330
1F
100
AcDbEntity
  8
D-6
  6
Continuous
 62
     6
370
     5
100
AcDbLine
 10
598.8849124392948
 20
381.1554120038008
 30
0.0
 11
598.8849124392948
 21
306.1554120038008
 31
0.0
  0
LINE
  5
CB
330
1F
100
AcDbEntity
  8
D-6
  6
Continuous
 62
     6
370
     5
100
AcDbLine
 10
598.8849124392948
 20
306.1554120038008
 30
0.0
 11
523.8849124392948
 21
306.1554120038008
 31
0.0
  0
LINE
  5
CC
330
1F
100
AcDbEntity
  8
D-6
  6
Continuous
 62
     6
370
     5
100
AcDbLine
 10
523.8849124392948
 20
381.1554120038008
 30
0.0
 11
598.8849124392948
 21
306.1554120038008
 31
0.0
  0
LINE
  5
CD
330
1F
100
AcDbEntity
  8
D-6
  6
Continuous
 62
     6
370
     5
100
AcDbLine
 10
598.8849124392948
 20
381.1554120038008
 30
0.0
 11
523.8849124392948
 21
306.1554120038008
 31
0.0
  0
LINE
  5
CE
330
1F
100
AcDbEntity
  8
D-6
  6
Continuous
 62
     6
370
     5
100
AcDbLine
 10
566.9380806587839
 20
340.1459729993667
 30
0.0
 11
561.5998139252533
 21
337.4770870724241
 31
0.0
  0
LINE
  5
CF
330
1F
100
AcDbEntity
  8
D-6
  6
Continuous
 62
     6
370
     5
100
AcDbLine
 10
561.5998139252533
 20
337.4770870724241
 30
0.0
 11
554.1856507997255
 21
339.5531071843328
 31
0.0
  0
LINE
  5
D0
330
1F
100
AcDbEntity
  8
D-6
  6
Continuous
 62
     6
370
     5
100
AcDbLine
 10
554.1856507997255
 20
339.5531071843328
 30
0.0
 11
552.999548009924
 21
345.1878068253801
 31
0.0
  0
LINE
  5
D1
330
1F
100
AcDbEntity
  8
D-6
  6
Continuous
 62
     6
370
     5
100
AcDbLine
 10
552.999548009924
 20
345.1878068253801
 30
0.0
 11
554.7787640545821
 21
351.1191868137669
 31
0.0
  0
LINE
  5
D2
330
1F
100
AcDbEntity
  8
D-6
  6
Continuous
 62
     6
370
     5
100
AcDbLine
 10
554.7787640545821
 20
351.1191868137669
 30
0.0
 11
558.9308042783995
 21
352.6020936708193
 31
0.0
  0
LINE
  5
D3
330
1F
100
AcDbEntity
  8
D-6
  6
Continuous
 62
     6
370
     5
100
AcDbLine
 10
558.9308042783995
 20
352.6020936708193
 30
0.0
 11
566.6415240313557
 21
351.1191868137669
 31
0.0
  0
LINE
  5
D4
330
1F
100
AcDbEntity
  8
D-6
  6
Continuous
 62
     6
370
     5
100
AcDbLine
 10
566.6415240313557
 20
351.1191868137669
 30
0.0
 11
569.9037706529773
 21
346.077600427576
 31
0.0
  0
LINE
  5
D5
330
1F
100
AcDbEntity
  8
D-6
  6
Continuous
 62
     6
370
     5
100
AcDbLine
 10
569.9037706529773
 20
346.077600427576
 30
0.0
 11
566.9380806587839
 21
340.1459729993667
 31
0.0
  0
LINE
  5
D6
330
1F
100
AcDbEntity
  8
D-6
  6
Continuous
 62
     6
370
     5
100
AcDbLine
 10
538.0058082374367
 20
352.9306937552788
 30
0.0
 11
548.3857850770693
 21
358.5656408361487
 31
0.0
  0
LINE
  5
D7
330
1F
100
AcDbEntity
  8
D-6
  6
Continuous
 62
     6
370
     5
100
AcDbLine
 10
548.3857850770693
 20
358.5656408361487
 30
0.0
 11
559.0623185441302
 21
360.6414135082349
 31
0.0
  0
LINE
  5
D8
330
1F
100
AcDbEntity
  8
D-6
  6
Continuous
 62
     6
370
     5
100
AcDbLine
 10
559.0623185441302
 20
360.6414135082349
 30
0.0
 11
579.5252207163219
 21
356.4893732844173
 31
0.0
  0
LINE
  5
D9
330
1F
100
AcDbEntity
  8
D-6
  6
Continuous
 62
     6
370
     5
100
AcDbLine
 10
579.5252207163219
 20
356.4893732844173
 30
0.0
 11
586.6428272144217
 21
346.4062005120355
 31
0.0
  0
LINE
  5
DA
330
1F
100
AcDbEntity
  8
D-6
  6
Continuous
 62
     6
370
     5
100
AcDbLine
 10
586.6428272144217
 20
346.4062005120355
 30
0.0
 11
587.8288062843117
 21
334.5434405352619
 31
0.0
  0
LINE
  5
DB
330
1F
100
AcDbEntity
  8
D-6
  6
Continuous
 62
     6
370
     5
100
AcDbLine
 10
587.8288062843117
 20
334.5434405352619
 30
0.0
 11
572.1109338708828
 21
328.9087408942146
 31
0.0
  0
LINE
  5
DC
330
1F
100
AcDbEntity
  8
D-6
  6
Continuous
 62
     6
370
     5
100
AcDbLine
 10
572.1109338708828
 20
328.9087408942146
 30
0.0
 11
557.5792879671665
 21
328.9087408942146
 31
0.0
  0
LINE
  5
DD
330
1F
100
AcDbEntity
  8
D-6
  6
Continuous
 62
     6
370
     5
100
AcDbLine
 10
557.5792879671665
 20
328.9087408942146
 30
0.0
 11
543.3440749709672
 21
335.7299144847974
 31
0.0
  0
LINE
  5
DE
330
1F
100
AcDbEntity
  8
D-6
  6
Continuous
 62
     6
370
     5
100
AcDbLine
 10
543.3440749709672
 20
335.7299144847974
 30
0.0
 11
538.0058082374367
 21
352.9306937552788
 31
0.0
  0
LINE
  5
DF
330
1F
100
AcDbEntity
  8
D-6
  6
Continuous
 62
     6
370
     5
100
AcDbLine
 10
548.0892284496412
 20
368.6485661687078
 30
0.0
 11
559.3586277317356
 21
369.5383597709038
 31
0.0
  0
LINE
  5
E0
330
1F
100
AcDbEntity
  8
D-6
  6
Continuous
 62
     6
370
     5
100
AcDbLine
 10
592.2775268554688
 20
360.0483002533784
 30
0.0
 11
596.7259999868033
 21
334.5434405352619
 31
0.0
  0
LINE
  5
E1
330
1F
100
AcDbEntity
  8
D-6
  6
Continuous
 62
     6
370
     5
100
AcDbLine
 10
596.7259999868033
 20
334.5434405352619
 30
0.0
 11
575.0767475849875
 21
313.7839817356419
 31
0.0
  0
LINE
  5
E2
330
1F
100
AcDbEntity
  8
D-6
  6
Continuous
 62
     6
370
     5
100
AcDbLine
 10
575.0767475849875
 20
313.7839817356419
 30
0.0
 11
554.6134742530617
 21
314.9702082453548
 31
0.0
  0
LINE
  5
E3
330
1F
100
AcDbEntity
  8
D-6
  6
Continuous
 62
     6
370
     5
100
AcDbLine
 10
554.6134742530617
 20
314.9702082453548
 30
0.0
 11
538.3024885847763
 21
324.756700670397
 31
0.0
  0
LINE
  5
E4
330
1F
100
AcDbEntity
  8
D-6
  6
Continuous
 62
     6
370
     5
100
AcDbLine
 10
538.3024885847763
 20
324.756700670397
 30
0.0
 11
526.8819035710516
 21
364.3208436708193
 31
0.0
  0
LINE
  5
E5
330
1F
100
AcDbEntity
  8
D-6
  6
Continuous
 62
     6
370
     5
100
AcDbLine
 10
526.8819035710516
 20
364.3208436708193
 30
0.0
 11
548.0892284496412
 21
368.6485661687078
 31
0.0
  0
LINE
  5
E6
330
1F
100
AcDbEntity
  8
D-6
  6
Continuous
 62
     6
370
     5
100
AcDbLine
 10
536.4527521906672
 20
378.6545377164275
 30
0.0
 11
558.1946708060602
 21
380.5105838260135
 31
0.0
  0
LINE
  5
E7
330
1F
100
AcDbEntity
  8
D-6
  6
Continuous
 62
     6
370
     5
100
AcDbLine
 10
586.5651311101141
 20
377.8592661264781
 30
0.0
 11
597.7011603278083
 21
370.4350816881334
 31
0.0
  0
LINE
  5
E8
330
1F
100
AcDbEntity
  8
D-6
  6
Continuous
 62
     6
370
     5
100
AcDbLine
 10
523.8849124392948
 20
343.7397889833193
 30
0.0
 11
529.5589550121412
 21
322.1786251583616
 31
0.0
  0
LINE
  5
E9
330
1F
100
AcDbEntity
  8
D-6
  6
Continuous
 62
     6
370
     5
100
AcDbLine
 10
523.8849124392948
 20
373.1561774176521
 30
0.0
 11
536.4527521906672
 21
378.6545377164275
 31
0.0
  0
LINE
  5
EA
330
1F
100
AcDbEntity
  8
D-6
  6
Continuous
 62
     6
370
     5
100
AcDbLine
 10
529.5589550121412
 20
322.1786251583616
 30
0.0
 11
545.0892680400127
 21
306.1554120038008
 31
0.0
  0
LINE
  5
EB
330
1F
100
AcDbEntity
  8
D-6
  6
Continuous
 62
     6
370
     5
100
AcDbLine
 10
587.6256581899283
 20
308.6562862911741
 30
0.0
 11
573.8704784496412
 21
306.1554120038008
 31
0.0
  0
LINE
  5
EC
330
1F
100
AcDbEntity
  8
D-6
  6
Continuous
 62
     6
370
     5
100
AcDbLine
 10
598.8849124392948
 20
318.4284272065034
 30
0.0
 11
587.6256581899283
 21
308.6562862911741
 31
0.0
  0
LINE
  5
ED
330
1F
100
AcDbEntity
  8
D-6
  6
Continuous
 62
     6
370
     5
100
AcDbLine
 10
597.7011603278083
 20
370.4350816881334
 30
0.0
 11
598.8849124392948
 21
366.7445167335305
 31
0.0
  0
LINE
  5
EE
330
1F
100
AcDbEntity
  8
D-6
  6
Continuous
 62
     6
370
     5
100
AcDbLine
 10
559.3586277317356
 20
369.5383597709038
 30
0.0
 11
582.194354083087
 21
367.7590200063345
 31
0.0
  0
LINE
  5
EF
330
1F
100
AcDbEntity
  8
D-6
  6
Continuous
 62
     6
370
     5
100
AcDbLine
 10
592.2775268554688
 20
360.0483002533784
 30
0.0
 11
582.194354083087
 21
367.7590200063345
 31
0.0
  0
LINE
  5
F0
330
1F
100
AcDbEntity
  8
D-6
  6
Continuous
 62
     6
370
     5
100
AcDbLine
 10
558.1946708060602
 20
380.5105838260135
 30
0.0
 11
586.5651311101141
 21
377.8592661264781
 31
0.0
  0
LINE
  5
F1
330
1F
100
AcDbEntity
  8
D-1
  6
Continuous
 62
     2
370
     9
100
AcDbLine
 10
516.0101400839318
 20
400.5304449957771
 30
0.0
 11
516.0101400839318
 21
390.2802503431167
 31
0.0
  0
LINE
  5
F2
330
1F
100
AcDbEntity
  8
D-2
  6
Continuous
 62
     3
370
     9
100
AcDbLine
 10
502.6351516311234
 20
369.5301942567568
 30
0.0
 11
497.6353825749578
 21
369.5301942567568
 31
0.0
  0
LINE
  5
F3
330
1F
100
AcDbEntity
  8
D-2
  6
Continuous
 62
     3
370
     9
100
AcDbLine
 10
502.6351516311234
 20
412.5302866342906
 30
0.0
 11
497.6353825749578
 21
412.5302866342906
 31
0.0
  0
LINE
  5
F4
330
1F
100
AcDbEntity
  8
D-2
  6
Continuous
 62
     3
370
     9
100
AcDbLine
 10
311.385201119088
 20
377.1552998310812
 30
0.0
 11
311.385201119088
 21
381.1554120038008
 31
0.0
  0
LINE
  5
F5
330
1F
100
AcDbEntity
  8
D-2
  6
Continuous
 62
     3
370
     9
100
AcDbLine
 10
298.8850361592063
 20
377.1552998310812
 30
0.0
 11
298.8850361592063
 21
381.1554120038008
 31
0.0
  0
LINE
  5
F6
330
1F
100
AcDbEntity
  8
D-2
  6
Continuous
 62
     3
370
     9
100
AcDbLine
 10
304.1270488017315
 20
399.9054120038008
 30
0.0
 11
182.0810678842906
 21
399.9054120038008
 31
0.0
  0
LINE
  5
F7
330
1F
100
AcDbEntity
  8
D-2
  6
Continuous
 62
     3
370
     9
100
AcDbLine
 10
300.1351021431589
 20
387.405247043919
 30
0.0
 11
182.0810678842906
 21
387.405247043919
 31
0.0
  0
LINE
  5
F8
330
1F
100
AcDbEntity
  8
D-2
  6
Continuous
 62
     3
370
     9
100
AcDbLine
 10
301.3272672086148
 20
393.6553295238599
 30
0.0
 11
182.0810678842906
 21
393.6553295238599
 31
0.0
  0
LINE
  5
F9
330
1F
100
AcDbEntity
  8
D-2
  6
Continuous
 62
     3
370
     9
100
AcDbLine
 10
300.1351021431589
 20
381.1551645639781
 30
0.0
 11
182.0810678842906
 21
381.1551645639781
 31
0.0
  0
LINE
  5
FA
330
1F
100
AcDbEntity
  8
D-2
  6
Continuous
 62
     3
370
     9
100
AcDbLine
 10
493.8851846230997
 20
406.155247043919
 30
0.0
 11
182.0810678842906
 21
406.155247043919
 31
0.0
  0
LINE
  5
FB
330
1F
100
AcDbEntity
  8
D-2
  6
Continuous
 62
     3
370
     9
100
AcDbLine
 10
493.8851846230997
 20
412.4053295238599
 30
0.0
 11
182.0810678842906
 21
412.4053295238599
 31
0.0
  0
LINE
  5
FC
330
1F
100
AcDbEntity
  8
D-6
  6
Continuous
 62
     6
370
     5
100
AcDbLine
 10
636.0199387009081
 20
393.6553295238599
 30
0.0
 11
563.2350199931377
 21
393.6553295238599
 31
0.0
  0
LINE
  5
FD
330
1F
100
AcDbEntity
  8
D-6
  6
Continuous
 62
     6
370
     5
100
AcDbLine
 10
636.0199387009081
 20
399.9054120038008
 30
0.0
 11
546.9977713919977
 21
399.9054120038008
 31
0.0
  0
LINE
  5
FE
330
1F
100
AcDbEntity
  8
D-2
  6
Continuous
 62
     3
370
     9
100
AcDbLine
 10
500.5098909945102
 20
390.2802503431167
 30
0.0
 11
506.3853495829815
 21
385.155029296875
 31
0.0
  0
LINE
  5
FF
330
1F
100
AcDbEntity
  8
D-1
  6
Continuous
 62
     2
370
     9
100
AcDbLine
 10
510.1350526551943
 20
416.6553559174409
 30
0.0
 11
510.1350526551943
 21
361.6551744615709
 31
0.0
  0
LINE
  5
100
330
1F
100
AcDbEntity
  8
D-2
  6
Continuous
 62
     3
370
     9
100
AcDbLine
 10
506.3853495829815
 20
407.9051414695947
 30
0.0
 11
506.3853495829815
 21
374.1553394214527
 31
0.0
  0
LINE
  5
101
330
1F
100
AcDbEntity
  8
D-1
  6
Continuous
 62
     2
370
     9
100
AcDbLine
 10
510.1350526551943
 20
405.6554186021959
 30
0.0
 11
516.0101400839318
 21
400.5304449957771
 31
0.0
  0
LINE
  5
102
330
1F
100
AcDbEntity
  8
D-1
  6
Continuous
 62
     2
370
     9
100
AcDbLine
 10
516.0101400839318
 20
390.2802503431167
 30
0.0
 11
510.1350526551943
 21
385.1552767366977
 31
0.0
  0
LINE
  5
103
330
1F
100
AcDbEntity
  8
D-1
  6
Continuous
 62
     2
370
     9
100
AcDbLine
 10
513.8850031672297
 20
388.4266786317568
 30
0.0
 11
513.8850031672297
 21
361.6551744615709
 31
0.0
  0
LINE
  5
104
330
1F
100
AcDbEntity
  8
D-2
  6
Continuous
 62
     3
370
     9
100
AcDbLine
 10
502.6351516311234
 20
388.4261837521116
 30
0.0
 11
502.6351516311234
 21
369.1553229254646
 31
0.0
  0
LINE
  5
105
330
1F
100
AcDbEntity
  8
D-2
  6
Continuous
 62
     3
370
     9
100
AcDbLine
 10
502.6351516311234
 20
402.3845115867822
 30
0.0
 11
502.6351516311234
 21
412.9054054054055
 31
0.0
  0
LINE
  5
106
330
1F
100
AcDbEntity
  8
D-1
  6
Continuous
 62
     2
370
     9
100
AcDbLine
 10
513.8850031672297
 20
412.9054054054055
 30
0.0
 11
513.8850031672297
 21
402.3840167071369
 31
0.0
  0
LINE
  5
107
330
1F
100
AcDbEntity
  8
D-2
  6
Continuous
 62
     3
370
     9
100
AcDbLine
 10
506.3853495829815
 20
405.6556660420187
 30
0.0
 11
500.5098909945102
 21
400.5304449957771
 31
0.0
  0
LINE
  5
108
330
1F
100
AcDbEntity
  8
D-2
  6
Continuous
 62
     3
370
     9
100
AcDbLine
 10
493.3575192013302
 20
-2.580636514199739
 30
0.0
 11
273.3574119774073
 21
-2.580636514199739
 31
0.0
  0
LINE
  5
109
330
1F
100
AcDbEntity
  8
D-2
  6
Continuous
 62
     3
370
     9
100
AcDbLine
 10
498.3574119774073
 20
-85.08078497809322
 30
0.0
 11
498.3574119774073
 21
-7.580714870143481
 31
0.0
  0
LINE
  5
10A
330
1F
100
AcDbEntity
  8
D-2
  6
Continuous
 62
     3
370
     9
100
AcDbLine
 10
268.3572717615075
 20
-85.08078497809322
 30
0.0
 11
268.3572717615075
 21
-7.580714870143481
 31
0.0
  0
LINE
  5
10B
330
1F
100
AcDbEntity
  8
D-2
  6
Continuous
 62
     3
370
     9
100
AcDbLine
 10
273.3574119774073
 20
-90.0808633340371
 30
0.0
 11
493.3575192013302
 21
-90.0808633340371
 31
0.0
  0
LINE
  5
10C
330
1F
100
AcDbEntity
  8
D-2
  6
Continuous
 62
     3
370
     9
100
AcDbLine
 10
301.8574070286107
 20
-56.08089962521106
 30
0.0
 11
301.8574070286107
 21
-36.5808476628483
 31
0.0
  0
LINE
  5
10D
330
1F
100
AcDbEntity
  8
D-2
  6
Continuous
 62
     3
370
     9
100
AcDbLine
 10
459.357431772593
 20
-31.08075528531458
 30
0.0
 11
307.3573756862331
 21
-31.08075528531458
 31
0.0
  0
LINE
  5
10E
330
1F
100
AcDbEntity
  8
D-2
  6
Continuous
 62
     3
370
     9
100
AcDbLine
 10
464.8574004302154
 20
-56.08089962521106
 30
0.0
 11
464.8574004302154
 21
-36.5808476628483
 31
0.0
  0
LINE
  5
10F
330
1F
100
AcDbEntity
  8
D-2
  6
Continuous
 62
     3
370
     9
100
AcDbLine
 10
459.357431772593
 20
-61.58074456292226
 30
0.0
 11
307.3573756862331
 21
-61.58074456292226
 31
0.0
  0
LINE
  5
110
330
1F
100
AcDbEntity
  8
D-4
  6
Continuous
 62
     7
370
     9
100
AcDbLine
 10
268.3572717615075
 20
-134.3349188727302
 30
0.0
 11
498.3574119774073
 21
-134.3349188727302
 31
0.0
  0
LINE
  5
111
330
1F
100
AcDbEntity
  8
D-4
  6
Continuous
 62
     7
370
     9
100
AcDbLine
 10
268.3572717615075
 20
-97.58076435810807
 30
0.0
 11
268.3572717615075
 21
-135.8348990775443
 31
0.0
  0
LINE
  5
112
330
1F
100
AcDbEntity
  8
D-4
  6
Continuous
 62
     7
370
     9
100
AcDbLine
 10
498.3574119774073
 20
-97.58076435810807
 30
0.0
 11
498.3574119774073
 21
-135.8348990775443
 31
0.0
  0
LINE
  5
113
330
1F
100
AcDbEntity
  8
D-4
  6
Continuous
 62
     7
370
     9
100
AcDbLine
 10
590.8825848553633
 20
-90.0808633340371
 30
0.0
 11
590.8825848553633
 21
-2.580636514199739
 31
0.0
  0
LINE
  5
114
330
1F
100
AcDbEntity
  8
D-4
  6
Continuous
 62
     7
370
     9
100
AcDbLine
 10
505.8574367213893
 20
-90.0808633340371
 30
0.0
 11
592.3823176203547
 21
-90.0808633340371
 31
0.0
  0
LINE
  5
115
330
1F
100
AcDbEntity
  8
D-4
  6
Continuous
 62
     7
370
     9
100
AcDbLine
 10
505.8574367213893
 20
-2.580636514199739
 30
0.0
 11
592.3823176203547
 21
-2.580636514199739
 31
0.0
  0
LINE
  5
116
330
1F
100
AcDbEntity
  8
D-2
  6
JWW_CENTER1
 62
     3
370
     9
100
AcDbLine
 10
383.357403729413
 20
-105.8328824429898
 30
0.0
 11
383.357403729413
 21
15.75570596231003
 31
0.0
  0
LINE
  5
117
330
1F
100
AcDbEntity
  8
D-2
  6
Continuous
 62
     3
370
     9
100
AcDbLine
 10
188.1309715477197
 20
377.1552998310812
 30
0.0
 11
192.1310837204392
 21
381.1554120038008
 31
0.0
  0
LINE
  5
118
330
1F
100
AcDbEntity
  8
D-2
  6
Continuous
 62
     3
370
     9
100
AcDbLine
 10
200.6311365076014
 20
377.1552998310812
 30
0.0
 11
204.6310012404984
 21
381.1554120038008
 31
0.0
  0
LINE
  5
119
330
1F
100
AcDbEntity
  8
D-2
  6
Continuous
 62
     3
370
     9
100
AcDbLine
 10
213.1308065878379
 20
377.1552998310812
 30
0.0
 11
217.1309187605576
 21
381.1554120038008
 31
0.0
  0
LINE
  5
11A
330
1F
100
AcDbEntity
  8
D-2
  6
Continuous
 62
     3
370
     9
100
AcDbLine
 10
225.6309715477197
 20
377.1552998310812
 30
0.0
 11
229.6310837204392
 21
381.1554120038008
 31
0.0
  0
LINE
  5
11B
330
1F
100
AcDbEntity
  8
D-2
  6
Continuous
 62
     3
370
     9
100
AcDbLine
 10
238.1311365076013
 20
377.1552998310812
 30
0.0
 11
242.1312486803211
 21
381.1554120038008
 31
0.0
  0
LINE
  5
11C
330
1F
100
AcDbEntity
  8
D-2
  6
Continuous
 62
     3
370
     9
100
AcDbLine
 10
250.630806587838
 20
377.1552998310812
 30
0.0
 11
254.6309187605576
 21
381.1554120038008
 31
0.0
  0
LINE
  5
11D
330
1F
100
AcDbEntity
  8
D-2
  6
Continuous
 62
     3
370
     9
100
AcDbLine
 10
263.1309715477195
 20
377.1552998310812
 30
0.0
 11
267.1310837204393
 21
381.1554120038008
 31
0.0
  0
LINE
  5
11E
330
1F
100
AcDbEntity
  8
D-2
  6
Continuous
 62
     3
370
     9
100
AcDbLine
 10
275.6311365076013
 20
377.1552998310812
 30
0.0
 11
279.6312486803211
 21
381.1554120038008
 31
0.0
  0
LINE
  5
11F
330
1F
100
AcDbEntity
  8
D-2
  6
Continuous
 62
     3
370
     9
100
AcDbLine
 10
288.130806587838
 20
377.1552998310812
 30
0.0
 11
292.1309187605576
 21
381.1554120038008
 31
0.0
  0
LINE
  5
120
330
1F
100
AcDbEntity
  8
D-2
  6
Continuous
 62
     3
370
     9
100
AcDbLine
 10
313.1311365076013
 20
377.1552998310812
 30
0.0
 11
317.1307538006758
 21
381.1554120038008
 31
0.0
  0
LINE
  5
121
330
1F
100
AcDbEntity
  8
D-2
  6
Continuous
 62
     3
370
     9
100
AcDbLine
 10
325.630806587838
 20
377.1552998310812
 30
0.0
 11
329.6309187605576
 21
381.1554120038008
 31
0.0
  0
LINE
  5
122
330
1F
100
AcDbEntity
  8
D-2
  6
Continuous
 62
     3
370
     9
100
AcDbLine
 10
338.1309715477198
 20
377.1552998310812
 30
0.0
 11
342.1310837204393
 21
381.1554120038008
 31
0.0
  0
LINE
  5
123
330
1F
100
AcDbEntity
  8
D-2
  6
Continuous
 62
     3
370
     9
100
AcDbLine
 10
350.6306416279563
 20
377.1552998310812
 30
0.0
 11
354.6307538006758
 21
381.1554120038008
 31
0.0
  0
LINE
  5
124
330
1F
100
AcDbEntity
  8
D-2
  6
Continuous
 62
     3
370
     9
100
AcDbLine
 10
363.130806587838
 20
377.1552998310812
 30
0.0
 11
367.1309187605576
 21
381.1554120038008
 31
0.0
  0
LINE
  5
125
330
1F
100
AcDbEntity
  8
D-2
  6
Continuous
 62
     3
370
     9
100
AcDbLine
 10
375.6309715477198
 20
377.1552998310812
 30
0.0
 11
379.6310837204393
 21
381.1554120038008
 31
0.0
  0
LINE
  5
126
330
1F
100
AcDbEntity
  8
D-2
  6
Continuous
 62
     3
370
     9
100
AcDbLine
 10
388.1308890677789
 20
377.1552998310812
 30
0.0
 11
392.1310012404984
 21
381.1554120038008
 31
0.0
  0
LINE
  5
127
330
1F
100
AcDbEntity
  8
D-2
  6
Continuous
 62
     3
370
     9
100
AcDbLine
 10
400.630806587838
 20
377.1552998310812
 30
0.0
 11
404.6309187605576
 21
381.1554120038008
 31
0.0
  0
LINE
  5
128
330
1F
100
AcDbEntity
  8
D-2
  6
Continuous
 62
     3
370
     9
100
AcDbLine
 10
413.1307241078972
 20
377.1552998310812
 30
0.0
 11
417.1310837204393
 21
381.1554120038008
 31
0.0
  0
LINE
  5
129
330
1F
100
AcDbEntity
  8
D-2
  6
Continuous
 62
     3
370
     9
100
AcDbLine
 10
425.6308890677789
 20
377.1552998310812
 30
0.0
 11
429.6311249604096
 21
381.1554120038008
 31
0.0
  0
LINE
  5
12A
330
1F
100
AcDbEntity
  8
D-2
  6
Continuous
 62
     3
370
     9
100
AcDbLine
 10
438.130806587838
 20
377.1552998310812
 30
0.0
 11
442.1309187605576
 21
381.1554120038008
 31
0.0
  0
LINE
  5
12B
330
1F
100
AcDbEntity
  8
D-2
  6
Continuous
 62
     3
370
     9
100
AcDbLine
 10
450.6307241078972
 20
377.1552998310812
 30
0.0
 11
454.6308362806167
 21
381.1554120038008
 31
0.0
  0
LINE
  5
12C
330
1F
100
AcDbEntity
  8
D-2
  6
Continuous
 62
     3
370
     9
100
AcDbLine
 10
463.1310127876901
 20
377.1552998310812
 30
0.0
 11
467.1310012404984
 21
381.1554120038008
 31
0.0
  0
LINE
  5
12D
330
1F
100
AcDbEntity
  8
D-2
  6
Continuous
 62
     3
370
     9
100
AcDbLine
 10
475.6309303077492
 20
377.1552998310812
 30
0.0
 11
479.6307950406461
 21
381.1554120038008
 31
0.0
  0
LINE
  5
12E
330
1F
100
AcDbEntity
  8
D-2
  6
Continuous
 62
     3
370
     9
100
AcDbLine
 10
488.1307241078972
 20
377.1552998310812
 30
0.0
 11
491.3850526551943
 21
380.4096283783784
 31
0.0
  0
LINE
  5
12F
330
1F
100
AcDbEntity
  8
0-1
  6
JWW_DASHED3
 62
     2
370
     9
100
AcDbLine
 10
-560.2838980185019
 20
-118.7296934385557
 30
0.0
 11
-560.2838980185019
 21
154.270291715055
 31
0.0
  0
LINE
  5
130
330
1F
100
AcDbEntity
  8
0-1
  6
JWW_DASHED3
 62
     2
370
     9
100
AcDbLine
 10
-560.2838980185019
 20
154.270291715055
 30
0.0
 11
-287.283943794869
 21
154.270291715055
 31
0.0
  0
LINE
  5
131
330
1F
100
AcDbEntity
  8
0-1
  6
JWW_DASHED3
 62
     2
370
     9
100
AcDbLine
 10
-287.283943794869
 20
154.270291715055
 30
0.0
 11
-287.283943794869
 21
-118.7296934385557
 31
0.0
  0
LINE
  5
132
330
1F
100
AcDbEntity
  8
0-1
  6
JWW_DASHED3
 62
     2
370
     9
100
AcDbLine
 10
-287.283943794869
 20
-118.7296934385557
 30
0.0
 11
-560.2838980185019
 21
-118.7296934385557
 31
0.0
  0
LINE
  5
133
330
1F
100
AcDbEntity
  8
D-2
  6
Continuous
 62
     3
370
     9
100
AcDbLine
 10
496.1078128299198
 20
-255.0801705025338
 30
0.0
 11
270.607613228463
 21
-255.0801705025338
 31
0.0
  0
LINE
  5
134
330
1F
100
AcDbEntity
  8
D-2
  6
Continuous
 62
     3
370
     9
100
AcDbLine
 10
475.6554268501901
 20
-262.5801024565826
 30
0.0
 11
498.3572882574958
 21
-262.5801024565826
 31
0.0
  0
LINE
  5
135
330
1F
100
AcDbEntity
  8
D-2
  6
Continuous
 62
     3
370
     9
100
AcDbLine
 10
474.4553437104096
 20
-262.5801024565826
 30
0.0
 11
268.3571480415964
 21
-262.5801024565826
 31
0.0
  0
LINE
  5
136
330
1F
100
AcDbEntity
  8
D-2
  6
Continuous
 62
     3
370
     9
100
AcDbLine
 10
292.2600823479729
 20
-263.4835980389569
 30
0.0
 11
295.6074482685813
 21
-273.8301705025338
 31
0.0
  0
LINE
  5
137
330
1F
100
AcDbEntity
  8
D-2
  6
Continuous
 62
     3
370
     9
100
AcDbLine
 10
268.3571480415964
 20
-257.330140809755
 30
0.0
 11
268.3571480415964
 21
-262.5801024565826
 31
0.0
  0
LINE
  5
138
330
1F
100
AcDbEntity
  8
D-2
  6
Continuous
 62
     3
370
     9
100
AcDbLine
 10
498.3572882574958
 20
-257.330140809755
 30
0.0
 11
498.3572882574958
 21
-262.5801024565826
 31
0.0
  0
LINE
  5
139
330
1F
100
AcDbEntity
  8
D-2
  6
JWW_CENTER1
 62
     3
370
     9
100
AcDbLine
 10
383.357403729413
 20
-165.2199245143581
 30
0.0
 11
383.357403729413
 21
-394.6262091559333
 31
0.0
  0
LINE
  5
13A
330
1F
100
AcDbEntity
  8
D-2
  6
Continuous
 62
     3
370
     9
100
AcDbLine
 10
474.4553437104096
 20
-263.4835980389569
 30
0.0
 11
471.1074829101562
 21
-273.8301705025338
 31
0.0
  0
LINE
  5
13B
330
1F
100
AcDbEntity
  8
D-2
  6
Continuous
 62
     3
370
     9
100
AcDbLine
 10
301.8572833086995
 20
-280.0802529824746
 30
0.0
 11
464.8575241501268
 21
-280.0802529824746
 31
0.0
  0
LINE
  5
13C
330
1F
100
AcDbEntity
  8
D-2
  6
Continuous
 62
     3
370
     9
100
AcDbLine
 10
274.6074779613599
 20
-262.5801024565826
 30
0.0
 11
274.6074779613599
 21
-286.3300880225929
 31
0.0
  0
LINE
  5
13D
330
1F
100
AcDbEntity
  8
D-2
  6
Continuous
 62
     3
370
     9
100
AcDbLine
 10
492.1073294974664
 20
-262.5801024565826
 30
0.0
 11
492.1073294974664
 21
-286.3300880225929
 31
0.0
  0
LINE
  5
13E
330
1F
100
AcDbEntity
  8
D-2
  6
Continuous
 62
     3
370
     9
100
AcDbLine
 10
269.607214025549
 20
-262.5801024565826
 30
0.0
 11
269.607214025549
 21
-286.3300880225929
 31
0.0
  0
LINE
  5
13F
330
1F
100
AcDbEntity
  8
D-2
  6
Continuous
 62
     3
370
     9
100
AcDbLine
 10
497.1075934332771
 20
-262.5801024565826
 30
0.0
 11
497.1075934332771
 21
-286.3300880225929
 31
0.0
  0
LINE
  5
140
330
1F
100
AcDbEntity
  8
D-4
  6
Continuous
 62
     7
370
     9
100
AcDbLine
 10
590.8825848553633
 20
-380.0802117425042
 30
0.0
 11
590.8825848553633
 21
-180.0801705025337
 31
0.0
  0
LINE
  5
141
330
1F
100
AcDbEntity
  8
D-4
  6
Continuous
 62
     7
370
     9
100
AcDbLine
 10
433.3575686892948
 20
-380.0802117425042
 30
0.0
 11
592.3823176203547
 21
-380.0802117425042
 31
0.0
  0
LINE
  5
142
330
1F
100
AcDbEntity
  8
D-4
  6
Continuous
 62
     7
370
     9
100
AcDbLine
 10
510.8574532173776
 20
-255.0801705025338
 30
0.0
 11
592.3823176203547
 21
-255.0801705025338
 31
0.0
  0
LINE
  5
143
330
1F
100
AcDbEntity
  8
D-4
  6
Continuous
 62
     7
370
     9
100
AcDbLine
 10
475.607423524599
 20
-180.0801705025337
 30
0.0
 11
592.3823176203547
 21
-180.0801705025337
 31
0.0
  0
LINE
  5
144
330
1F
100
AcDbEntity
  8
D-2
  6
Continuous
 62
     3
370
     9
100
AcDbLine
 10
303.357387233425
 20
-353.8303107184333
 30
0.0
 11
463.3574202254013
 21
-353.8303107184333
 31
0.0
  0
LINE
  5
145
330
1F
100
AcDbEntity
  8
D-2
  6
Continuous
 62
     3
370
     9
100
AcDbLine
 10
303.357387233425
 20
-360.0803622683963
 30
0.0
 11
463.3574202254013
 21
-360.0803622683963
 31
0.0
  0
LINE
  5
146
330
1F
100
AcDbEntity
  8
D-2
  6
Continuous
 62
     3
370
     9
100
AcDbLine
 10
345.857403729413
 20
-350.3302434972815
 30
0.0
 11
353.3574284733953
 21
-353.0803206160261
 31
0.0
  0
LINE
  5
147
330
1F
100
AcDbEntity
  8
D-2
  6
Continuous
 62
     3
370
     9
100
AcDbLine
 10
420.857403729413
 20
-350.3302434972815
 30
0.0
 11
413.3575027053422
 21
-353.0803206160261
 31
0.0
  0
LINE
  5
148
330
1F
100
AcDbEntity
  8
D-2
  6
Continuous
 62
     3
370
     9
100
AcDbLine
 10
353.3574284733953
 20
-353.0803206160261
 30
0.0
 11
353.3574284733953
 21
-353.8303107184333
 31
0.0
  0
LINE
  5
149
330
1F
100
AcDbEntity
  8
D-2
  6
Continuous
 62
     3
370
     9
100
AcDbLine
 10
413.3575027053422
 20
-353.0803206160261
 30
0.0
 11
413.3575027053422
 21
-353.8303107184333
 31
0.0
  0
LINE
  5
14A
330
1F
100
AcDbEntity
  8
D-2
  6
Continuous
 62
     3
370
     9
100
AcDbLine
 10
343.357395481419
 20
-377.5803272144214
 30
0.0
 11
343.357395481419
 21
-360.0803622683963
 31
0.0
  0
LINE
  5
14B
330
1F
100
AcDbEntity
  8
D-2
  6
Continuous
 62
     3
370
     9
100
AcDbLine
 10
420.857403729413
 20
-380.0802117425042
 30
0.0
 11
345.857403729413
 21
-380.0802117425042
 31
0.0
  0
LINE
  5
14C
330
1F
100
AcDbEntity
  8
D-2
  6
Continuous
 62
     3
370
     9
100
AcDbLine
 10
423.3575356973185
 20
-377.5803272144214
 30
0.0
 11
423.3575356973185
 21
-360.0803622683963
 31
0.0
  0
LINE
  5
14D
330
1F
100
AcDbEntity
  8
D-2
  6
Continuous
 62
     3
370
     9
100
AcDbLine
 10
303.357387233425
 20
-353.8303107184333
 30
0.0
 11
303.357387233425
 21
-365.0803787643845
 31
0.0
  0
LINE
  5
14E
330
1F
100
AcDbEntity
  8
D-2
  6
Continuous
 62
     3
370
     9
100
AcDbLine
 10
463.3574202254013
 20
-353.8303107184333
 30
0.0
 11
463.3574202254013
 21
-365.0803787643845
 31
0.0
  0
LINE
  5
14F
330
1F
100
AcDbEntity
  8
D-2
  6
Continuous
 62
     3
370
     9
100
AcDbLine
 10
303.357387233425
 20
-365.0803787643845
 30
0.0
 11
342.7324862093539
 21
-365.0803787643845
 31
0.0
  0
LINE
  5
150
330
1F
100
AcDbEntity
  8
D-2
  6
Continuous
 62
     3
370
     9
100
AcDbLine
 10
423.9824449693836
 20
-365.0803787643845
 30
0.0
 11
463.3574202254013
 21
-365.0803787643845
 31
0.0
  0
LINE
  5
151
330
1F
100
AcDbEntity
  8
D-2
  6
Continuous
 62
     3
370
     9
100
AcDbLine
 10
423.9824449693836
 20
-360.0803622683963
 30
0.0
 11
423.9824449693836
 21
-365.0803787643845
 31
0.0
  0
LINE
  5
152
330
1F
100
AcDbEntity
  8
D-2
  6
Continuous
 62
     3
370
     9
100
AcDbLine
 10
342.7324862093539
 20
-360.0803622683963
 30
0.0
 11
342.7324862093539
 21
-365.0803787643845
 31
0.0
  0
LINE
  5
153
330
1F
100
AcDbEntity
  8
D-2
  6
Continuous
 62
     3
370
     9
100
AcDbLine
 10
345.857403729413
 20
-317.330184111724
 30
0.0
 11
345.857403729413
 21
-350.3302434972815
 31
0.0
  0
LINE
  5
154
330
1F
100
AcDbEntity
  8
D-2
  6
Continuous
 62
     3
370
     9
100
AcDbLine
 10
420.857403729413
 20
-317.370795172614
 30
0.0
 11
420.857403729413
 21
-350.3302434972815
 31
0.0
  0
LINE
  5
155
330
1F
100
AcDbEntity
  8
D-2
  6
JWW_CENTER2
 62
     3
370
     9
100
AcDbLine
 10
303.6074251741977
 20
-180.0801705025337
 30
0.0
 11
463.1073822846284
 21
-180.0801705025337
 31
0.0
  0
LINE
  5
156
330
1F
100
AcDbEntity
  8
D-2
  6
JWW_CENTER2
 62
     3
370
     9
100
AcDbLine
 10
303.6074251741977
 20
-191.3302694784628
 30
0.0
 11
463.1073822846284
 21
-191.3302694784628
 31
0.0
  0
LINE
  5
157
330
1F
100
AcDbEntity
  8
D-2
  6
JWW_CENTER2
 62
     3
370
     9
100
AcDbLine
 10
303.6074251741977
 20
-180.0801705025337
 30
0.0
 11
303.6074251741977
 21
-191.3302694784628
 31
0.0
  0
LINE
  5
158
330
1F
100
AcDbEntity
  8
D-2
  6
JWW_CENTER2
 62
     3
370
     9
100
AcDbLine
 10
463.1073822846284
 20
-180.0801705025337
 30
0.0
 11
463.1073822846284
 21
-191.3302694784628
 31
0.0
  0
LINE
  5
159
330
1F
100
AcDbEntity
  8
D-2
  6
JWW_CENTER2
 62
     3
370
     9
100
AcDbLine
 10
460.1075455949115
 20
-191.3302694784628
 30
0.0
 11
460.1075455949115
 21
-197.5802282384924
 31
0.0
  0
LINE
  5
15A
330
1F
100
AcDbEntity
  8
D-2
  6
JWW_CENTER2
 62
     3
370
     9
100
AcDbLine
 10
306.607385583826
 20
-191.3302694784628
 30
0.0
 11
306.607385583826
 21
-197.5802282384924
 31
0.0
  0
LINE
  5
15B
330
1F
100
AcDbEntity
  8
D-2
  6
JWW_CENTER2
 62
     3
370
     9
100
AcDbLine
 10
350.8574202254013
 20
-197.5802282384924
 30
0.0
 11
306.607385583826
 21
-197.5802282384924
 31
0.0
  0
LINE
  5
15C
330
1F
100
AcDbEntity
  8
D-2
  6
JWW_CENTER2
 62
     3
370
     9
100
AcDbLine
 10
415.857387233425
 20
-197.5802282384924
 30
0.0
 11
460.1075455949115
 21
-197.5802282384924
 31
0.0
  0
LINE
  5
15D
330
1F
100
AcDbEntity
  8
D-2
  6
JWW_CENTER2
 62
     3
370
     9
100
AcDbLine
 10
345.8575274493245
 20
-241.0801490577492
 30
0.0
 11
345.8575274493245
 21
-255.0801705025338
 31
0.0
  0
LINE
  5
15E
330
1F
100
AcDbEntity
  8
D-2
  6
JWW_CENTER2
 62
     3
370
     9
100
AcDbLine
 10
358.3574449693836
 20
-222.5801869985219
 30
0.0
 11
358.3574449693836
 21
-205.0802529824746
 31
0.0
  0
LINE
  5
15F
330
1F
100
AcDbEntity
  8
D-2
  6
JWW_CENTER2
 62
     3
370
     9
100
AcDbLine
 10
408.3576099292654
 20
-222.5801869985219
 30
0.0
 11
408.3576099292654
 21
-205.0802529824746
 31
0.0
  0
LINE
  5
160
330
1F
100
AcDbEntity
  8
D-2
  6
JWW_CENTER2
 62
     3
370
     9
100
AcDbLine
 10
420.8576511692357
 20
-241.1207291886612
 30
0.0
 11
420.8576511692357
 21
-255.0801705025338
 31
0.0
  0
LINE
  5
161
330
1F
100
AcDbEntity
  8
D-2
  6
JWW_CENTER2
 62
     3
370
     9
100
AcDbLine
 10
356.8574647645693
 20
-183.8302447344805
 30
0.0
 11
409.8573426942568
 21
-183.8302447344805
 31
0.0
  0
LINE
  5
162
330
1F
100
AcDbEntity
  8
D-2
  6
JWW_CENTER2
 62
     3
370
     9
100
AcDbLine
 10
356.8574647645693
 20
-183.8302447344805
 30
0.0
 11
356.8574647645693
 21
-191.3302694784628
 31
0.0
  0
LINE
  5
163
330
1F
100
AcDbEntity
  8
D-2
  6
JWW_CENTER2
 62
     3
370
     9
100
AcDbLine
 10
409.8573426942568
 20
-183.8302447344805
 30
0.0
 11
409.8573426942568
 21
-191.3302694784628
 31
0.0
  0
LINE
  5
164
330
1F
100
AcDbEntity
  8
D-2
  6
Continuous
 62
     3
370
     9
100
AcDbLine
 10
358.3573212494721
 20
-298.8303767023859
 30
0.0
 11
358.3573212494721
 21
-280.0802529824746
 31
0.0
  0
LINE
  5
165
330
1F
100
AcDbEntity
  8
D-2
  6
Continuous
 62
     3
370
     9
100
AcDbLine
 10
408.3573624894427
 20
-298.8303767023859
 30
0.0
 11
408.3573624894427
 21
-280.0802529824746
 31
0.0
  0
LINE
  5
166
330
1F
100
AcDbEntity
  8
D-2
  6
Continuous
 62
     3
370
     9
100
AcDbLine
 10
497.1075934332771
 20
-286.3300880225929
 30
0.0
 11
269.607214025549
 21
-286.3300880225929
 31
0.0
  0
LINE
  5
167
330
1F
100
AcDbEntity
  8
D-4
  6
Continuous
 62
     7
370
     9
100
AcDbLine
 10
510.8574532173776
 20
-286.3300880225929
 30
0.0
 11
555.0779188001479
 21
-286.3300880225929
 31
0.0
  0
LINE
  5
168
330
1F
100
AcDbEntity
  8
D-4
  6
Continuous
 62
     7
370
     9
100
AcDbLine
 10
553.5778148754224
 20
-333.834698651288
 30
0.0
 11
553.5778148754224
 21
-255.0801705025338
 31
0.0
  0
LINE
  5
169
330
1F
100
AcDbEntity
  8
0-4
  6
Continuous
 62
     7
370
     9
100
AcDbLine
 10
-554.4987858952702
 20
-218.7296521985853
 30
0.0
 11
-293.0689631281672
 21
-218.7296521985853
 31
0.0
  0
LINE
  5
16A
330
1F
100
AcDbEntity
  8
D-4
  6
Continuous
 62
     7
370
     9
100
AcDbLine
 10
229.780166213577
 20
161.3155839249895
 30
0.0
 11
491.20998898068
 21
161.3155839249895
 31
0.0
  0
LINE
  5
16B
330
1F
100
AcDbEntity
  8
0-2
  6
JWW_CENTER1
 62
     3
370
     9
100
AcDbLine
 10
-453.376934979413
 20
17.77029913824961
 30
0.0
 11
-399.3931744549725
 21
17.77029913824961
 31
0.0
  0
LINE
  5
16C
330
1F
100
AcDbEntity
  8
0-2
  6
JWW_CENTER1
 62
     3
370
     9
100
AcDbLine
 10
-423.7838745117188
 20
-42.57254110800247
 30
0.0
 11
-423.7838745117188
 21
79.74741755305118
 31
0.0
  0
LINE
  5
16D
330
1F
100
AcDbEntity
  8
0-4
  6
Continuous
 62
     7
370
     9
100
AcDbLine
 10
-560.2838980185019
 20
229.8653226285369
 30
0.0
 11
-287.283943794869
 21
229.8653226285369
 31
0.0
  0
LINE
  5
16E
330
1F
100
AcDbEntity
  8
0-4
  6
Continuous
 62
     7
370
     9
100
AcDbLine
 10
-560.2838980185019
 20
185.9418466928844
 30
0.0
 11
-560.2838980185019
 21
231.3653028333511
 31
0.0
  0
LINE
  5
16F
330
1F
100
AcDbEntity
  8
0-4
  6
Continuous
 62
     7
370
     9
100
AcDbLine
 10
-287.283943794869
 20
185.9418466928844
 30
0.0
 11
-287.283943794869
 21
231.3653028333511
 31
0.0
  0
LINE
  5
170
330
1F
100
AcDbEntity
  8
0-4
  6
Continuous
 62
     7
370
     9
100
AcDbLine
 10
-573.7838745117188
 20
266.2157790725296
 30
0.0
 11
-273.783812651763
 21
266.2157790725296
 31
0.0
  0
LINE
  5
171
330
1F
100
AcDbEntity
  8
0-4
  6
Continuous
 62
     7
370
     9
100
AcDbLine
 10
-573.7838745117188
 20
185.9418466928844
 30
0.0
 11
-573.7838745117188
 21
267.7157592773438
 31
0.0
  0
LINE
  5
172
330
1F
100
AcDbEntity
  8
0-4
  6
Continuous
 62
     7
370
     9
100
AcDbLine
 10
-273.783812651763
 20
185.9418466928844
 30
0.0
 11
-273.783812651763
 21
267.7157592773438
 31
0.0
  0
LINE
  5
173
330
1F
100
AcDbEntity
  8
0-4
  6
Continuous
 62
     7
370
     9
100
AcDbLine
 10
-584.2838905953072
 20
302.7338141364021
 30
0.0
 11
-263.2838893581081
 21
302.7338141364021
 31
0.0
  0
LINE
  5
174
330
1F
100
AcDbEntity
  8
0-4
  6
Continuous
 62
     7
370
     9
100
AcDbLine
 10
-584.2838905953072
 20
185.9418466928844
 30
0.0
 11
-584.2838905953072
 21
304.2337943412163
 31
0.0
  0
LINE
  5
175
330
1F
100
AcDbEntity
  8
0-4
  6
Continuous
 62
     7
370
     9
100
AcDbLine
 10
-263.2838893581081
 20
185.9418466928844
 30
0.0
 11
-263.2838893581081
 21
304.2337943412163
 31
0.0
  0
LINE
  5
176
330
1F
100
AcDbEntity
  8
0-4
  6
Continuous
 62
     7
370
     9
100
AcDbLine
 10
-635.8788980020058
 20
-118.7296934385557
 30
0.0
 11
-635.8788980020058
 21
154.2702298550994
 31
0.0
  0
LINE
  5
177
330
1F
100
AcDbEntity
  8
0-4
  6
Continuous
 62
     7
370
     9
100
AcDbLine
 10
-591.9554529963312
 20
-118.7296934385557
 30
0.0
 11
-637.37887820682
 21
-118.7296934385557
 31
0.0
  0
LINE
  5
178
330
1F
100
AcDbEntity
  8
0-4
  6
Continuous
 62
     7
370
     9
100
AcDbLine
 10
-591.9554529963312
 20
154.2702298550994
 30
0.0
 11
-637.37887820682
 21
154.2702298550994
 31
0.0
  0
LINE
  5
179
330
1F
100
AcDbEntity
  8
0-4
  6
Continuous
 62
     7
370
     9
100
AcDbLine
 10
-672.2293544459988
 20
-132.2297008617504
 30
0.0
 11
-672.2293544459988
 21
167.7702991382496
 31
0.0
  0
LINE
  5
17A
330
1F
100
AcDbEntity
  8
0-4
  6
Continuous
 62
     7
370
     9
100
AcDbLine
 10
-591.9554529963312
 20
-132.2297008617504
 30
0.0
 11
-673.7293346508129
 21
-132.2297008617504
 31
0.0
  0
LINE
  5
17B
330
1F
100
AcDbEntity
  8
0-4
  6
Continuous
 62
     7
370
     9
100
AcDbLine
 10
-591.9554529963312
 20
167.7702991382496
 30
0.0
 11
-673.7293346508129
 21
167.7702991382496
 31
0.0
  0
LINE
  5
17C
330
1F
100
AcDbEntity
  8
0-4
  6
Continuous
 62
     7
370
     9
100
AcDbLine
 10
-708.747389509871
 20
-142.7297478753167
 30
0.0
 11
-708.747389509871
 21
178.2703461518159
 31
0.0
  0
LINE
  5
17D
330
1F
100
AcDbEntity
  8
0-4
  6
Continuous
 62
     7
370
     9
100
AcDbLine
 10
-591.9554529963312
 20
-142.7297478753167
 30
0.0
 11
-710.2473697146854
 21
-142.7297478753167
 31
0.0
  0
LINE
  5
17E
330
1F
100
AcDbEntity
  8
0-4
  6
Continuous
 62
     7
370
     9
100
AcDbLine
 10
-591.9554529963312
 20
178.2703461518159
 30
0.0
 11
-710.2473697146854
 21
178.2703461518159
 31
0.0
  0
LINE
  5
17F
330
1F
100
AcDbEntity
  8
D-4
  6
Continuous
 62
     7
370
     9
100
AcDbLine
 10
509.4412313925255
 20
-464.919903729413
 30
0.0
 11
252.5576204866977
 21
-464.919903729413
 31
0.0
  0
LINE
  5
180
330
1F
100
AcDbEntity
  8
D-4
  6
Continuous
 62
     7
370
     9
100
AcDbLine
 10
142.1747156091639
 20
337.4120103990709
 30
0.0
 11
142.1747156091639
 21
412.4053295238599
 31
0.0
  0
LINE
  5
181
330
1F
100
AcDbEntity
  8
D-4
  6
Continuous
 62
     7
370
     9
100
AcDbLine
 10
177.0486367715372
 20
377.1552998310812
 30
0.0
 11
140.6747354043497
 21
377.1552998310812
 31
0.0
  0
LINE
  5
182
330
1F
100
AcDbEntity
  8
D-4
  6
Continuous
 62
     7
370
     9
100
AcDbLine
 10
177.0486367715372
 20
381.1551645639781
 30
0.0
 11
140.6747354043497
 21
381.1551645639781
 31
0.0
  0
LINE
  5
183
330
1F
100
AcDbEntity
  8
D-4
  6
Continuous
 62
     7
370
     9
100
AcDbLine
 10
177.0486367715372
 20
412.4053295238599
 30
0.0
 11
140.6747354043497
 21
412.4053295238599
 31
0.0
  0
LINE
  5
184
330
1F
100
AcDbEntity
  8
D-4
  6
Continuous
 62
     7
370
     9
100
AcDbLine
 10
680.3931983741554
 20
356.6551579655828
 30
0.0
 11
680.3931983741554
 21
453.6172980231208
 31
0.0
  0
LINE
  5
185
330
1F
100
AcDbEntity
  8
D-4
  6
Continuous
 62
     7
370
     9
100
AcDbLine
 10
527.012180637669
 20
356.6551579655828
 30
0.0
 11
681.893302298881
 21
356.6551579655828
 31
0.0
  0
LINE
  5
186
330
1F
100
AcDbEntity
  8
D-4
  6
Continuous
 62
     7
370
     9
100
AcDbLine
 10
639.6840275944891
 20
412.9054054054055
 30
0.0
 11
681.893302298881
 21
412.9054054054055
 31
0.0
  0
LINE
  5
187
330
1F
100
AcDbEntity
  8
D-4
  6
Continuous
 62
     7
370
     9
100
AcDbLine
 10
531.4075779270481
 20
416.6553559174409
 30
0.0
 11
681.893302298881
 21
416.6553559174409
 31
0.0
  0
LINE
  5
188
330
1F
100
AcDbEntity
  8
D-6
  6
Continuous
 62
     6
370
     5
100
AcDbLine
 10
490.1123459274706
 20
258.6710914405617
 30
0.0
 11
523.8849124392948
 21
292.4441528320312
 31
0.0
  0
LINE
  5
189
330
1F
100
AcDbEntity
  8
D-6
  6
Continuous
 62
     6
370
     5
100
AcDbLine
 10
475.6351367847341
 20
279.5495069349136
 30
0.0
 11
523.8849124392948
 21
327.79934444943
 31
0.0
  0
LINE
  5
18A
330
1F
100
AcDbEntity
  8
D-6
  6
Continuous
 62
     6
370
     5
100
AcDbLine
 10
521.385027911212
 20
356.6551579655828
 30
0.0
 11
523.8849124392948
 21
356.6551579655828
 31
0.0
  0
LINE
  5
18B
330
1F
100
AcDbEntity
  8
D-6
  6
Continuous
 62
     6
370
     5
100
AcDbLine
 10
636.0199387009081
 20
406.155247043919
 30
0.0
 11
523.8849124392948
 21
406.155247043919
 31
0.0
  0
LINE
  5
18C
330
1F
100
AcDbEntity
  8
D-6
  6
Continuous
 62
     6
370
     5
100
AcDbLine
 10
636.0199387009081
 20
412.4053295238599
 30
0.0
 11
523.8849124392948
 21
412.4053295238599
 31
0.0
  0
LINE
  5
18D
330
1F
100
AcDbEntity
  8
D-6
  6
Continuous
 62
     6
370
     5
100
AcDbLine
 10
636.0199387009081
 20
387.405247043919
 30
0.0
 11
523.8849124392948
 21
387.405247043919
 31
0.0
  0
LINE
  5
18E
330
1F
100
AcDbEntity
  8
D-6
  6
Continuous
 62
     6
370
     5
100
AcDbLine
 10
523.8849124392948
 20
381.1554120038008
 30
0.0
 11
636.0199387009081
 21
381.1554120038008
 31
0.0
  0
LINE
  5
18F
330
1F
100
AcDbEntity
  8
D-1
  6
Continuous
 62
     2
370
     9
100
AcDbLine
 10
504.6937272355365
 20
361.6551744615709
 30
0.0
 11
508.4435540276607
 21
365.4051249736065
 31
0.0
  0
LINE
  5
190
330
1F
100
AcDbEntity
  8
D-1
  6
Continuous
 62
     2
370
     9
100
AcDbLine
 10
492.1936859955659
 20
361.6551744615709
 30
0.0
 11
495.9437602275128
 21
365.4051249736065
 31
0.0
  0
LINE
  5
191
330
1F
100
AcDbEntity
  8
D-1
  6
Continuous
 62
     2
370
     9
100
AcDbLine
 10
479.7600823479732
 20
361.7214883340372
 30
0.0
 11
483.4438427074537
 21
365.4051249736065
 31
0.0
  0
LINE
  5
192
330
1F
100
AcDbEntity
  8
D-4
  6
Continuous
 62
     7
370
     9
100
AcDbLine
 10
483.8851516311234
 20
471.4462032833616
 30
0.0
 11
508.8852341110643
 21
471.4462032833616
 31
0.0
  0
LINE
  5
193
330
1F
100
AcDbEntity
  8
D-4
  6
Continuous
 62
     7
370
     9
100
AcDbLine
 10
483.8851516311234
 20
422.543557656778
 30
0.0
 11
483.8851516311234
 21
472.9461834881758
 31
0.0
  0
LINE
  5
194
330
1F
100
AcDbEntity
  8
D-4
  6
Continuous
 62
     7
370
     9
100
AcDbLine
 10
508.8852341110643
 20
422.543557656778
 30
0.0
 11
508.8852341110643
 21
512.4217430320947
 31
0.0
  0
LINE
  5
195
330
1F
100
AcDbEntity
  8
D-4
  6
Continuous
 62
     7
370
     9
100
AcDbLine
 10
182.0810678842906
 20
510.9217628272805
 30
0.0
 11
535.1351351351352
 21
510.9217628272805
 31
0.0
  0
LINE
  5
196
330
1F
100
AcDbEntity
  8
D-4
  6
Continuous
 62
     7
370
     9
100
AcDbLine
 10
510.1350526551943
 20
422.543557656778
 30
0.0
 11
510.1350526551943
 21
512.4217430320947
 31
0.0
  0
LINE
  5
197
330
1F
100
AcDbEntity
  8
D-4
  6
Continuous
 62
     7
370
     9
100
AcDbLine
 10
535.1351351351352
 20
422.543557656778
 30
0.0
 11
535.1351351351352
 21
570.9749129011825
 31
0.0
  0
LINE
  5
198
330
1F
100
AcDbEntity
  8
D-4
  6
Continuous
 62
     7
370
     9
100
AcDbLine
 10
182.0810678842906
 20
569.4749326963682
 30
0.0
 11
535.1351351351352
 21
569.4749326963682
 31
0.0
  0
LINE
  5
199
330
1F
100
AcDbEntity
  8
D-4
  6
Continuous
 62
     7
370
     9
100
AcDbLine
 10
182.0810678842906
 20
219.1186399717589
 30
0.0
 11
521.385027911212
 21
219.1186399717589
 31
0.0
  0
LINE
  5
19A
330
1F
100
AcDbEntity
  8
D-4
  6
Continuous
 62
     7
370
     9
100
AcDbLine
 10
475.6351367847341
 20
254.0545448097023
 30
0.0
 11
475.6351367847341
 21
217.6187216269004
 31
0.0
  0
LINE
  5
19B
330
1F
100
AcDbEntity
  8
D-2
  6
JWW_CENTER1
 62
     3
370
     9
100
AcDbLine
 10
250.9384980072846
 20
-46.33078085409622
 30
0.0
 11
516.5626732078761
 21
-46.33078085409622
 31
0.0
  0
LINE
  5
19C
330
1F
100
AcDbEntity
  8
D-4
  6
Continuous
 62
     7
370
     9
100
AcDbLine
 10
521.385027911212
 20
341.3925748258025
 30
0.0
 11
521.385027911212
 21
217.6187216269004
 31
0.0
  0
ARC
  5
19D
330
1F
100
AcDbEntity
  8
0-2
  6
Continuous
 62
     3
370
     9
100
AcDbCircle
 10
-440.783980086043
 20
63.27039976377748
 30
0.0
 40
0.5000000366488019
100
AcDbArc
 50
90.0
 51
180.0
  0
ARC
  5
19E
330
1F
100
AcDbEntity
  8
0-2
  6
Continuous
 62
     3
370
     9
100
AcDbCircle
 10
-406.78383079735
 20
63.27039976377748
 30
0.0
 40
0.5000000366488019
100
AcDbArc
 50
0.0
 51
90.0
  0
ARC
  5
19F
330
1F
100
AcDbEntity
  8
0-2
  6
Continuous
 62
     3
370
     9
100
AcDbCircle
 10
-440.783980086043
 20
-27.72961590741133
 30
0.0
 40
0.5000000366488019
100
AcDbArc
 50
180.0
 51
270.0
  0
ARC
  5
1A0
330
1F
100
AcDbEntity
  8
0-2
  6
Continuous
 62
     3
370
     9
100
AcDbCircle
 10
-406.78383079735
 20
-27.72961590741133
 30
0.0
 40
0.5000000366488019
100
AcDbArc
 50
270.0
 51
0.0
  0
ARC
  5
1A1
330
1F
100
AcDbEntity
  8
0-2
  6
Continuous
 62
     3
370
     9
100
AcDbCircle
 10
-428.7838291477512
 20
-13.72965632258229
 30
0.0
 40
1.000000073297604
100
AcDbArc
 50
180.0
 51
270.0
  0
ARC
  5
1A2
330
1F
100
AcDbEntity
  8
0-2
  6
Continuous
 62
     3
370
     9
100
AcDbCircle
 10
-418.7838580157305
 20
-13.72965632258229
 30
0.0
 40
1.000000073297604
100
AcDbArc
 50
270.0
 51
0.0
  0
ARC
  5
1A3
330
1F
100
AcDbEntity
  8
0-2
  6
Continuous
 62
     3
370
     9
100
AcDbCircle
 10
-428.7838291477512
 20
49.27019273912592
 30
0.0
 40
1.000000073297604
100
AcDbArc
 50
90.0
 51
180.0
  0
ARC
  5
1A4
330
1F
100
AcDbEntity
  8
0-2
  6
Continuous
 62
     3
370
     9
100
AcDbCircle
 10
-418.7838580157305
 20
49.27019273912592
 30
0.0
 40
1.000000073297604
100
AcDbArc
 50
0.0
 51
90.0
  0
ARC
  5
1A5
330
1F
100
AcDbEntity
  8
0-2
  6
Continuous
 62
     3
370
     9
100
AcDbCircle
 10
-423.7838745117188
 20
17.77029913824961
 30
0.0
 40
12.49999967781273
100
AcDbArc
 50
118.6856079101563
 51
241.3143920898438
  0
ARC
  5
1A6
330
1F
100
AcDbEntity
  8
0-2
  6
Continuous
 62
     3
370
     9
100
AcDbCircle
 10
-423.7838745117188
 20
17.77029913824961
 30
0.0
 40
12.49999967781273
100
AcDbArc
 50
298.6849822998047
 51
61.31501770019531
  0
ARC
  5
1A7
330
1F
100
AcDbEntity
  8
D-2
  6
Continuous
 62
     3
370
     9
100
AcDbCircle
 10
472.7602572054477
 20
375.2802008551521
 30
0.0
 40
1.875000144984271
100
AcDbArc
 50
90.0
 51
270.0
  0
ARC
  5
1A8
330
1F
100
AcDbEntity
  8
D-2
  6
Continuous
 62
     3
370
     9
100
AcDbCircle
 10
506.3853495829815
 20
367.9052569415119
 30
0.0
 40
2.500000032218727
100
AcDbArc
 50
270.0
 51
0.0
  0
ARC
  5
1A9
330
1F
100
AcDbEntity
  8
D-2
  6
Continuous
 62
     3
370
     9
100
AcDbCircle
 10
495.1350031672297
 20
366.6551909575591
 30
0.0
 40
1.250000016109364
100
AcDbArc
 50
180.0
 51
270.0
  0
ARC
  5
1AA
330
1F
100
AcDbEntity
  8
D-2
  6
Continuous
 62
     3
370
     9
100
AcDbCircle
 10
305.1351186391472
 20
380.4262068464951
 30
0.0
 40
10.52080586149886
100
AcDbArc
 50
205.4487762451172
 51
263.1763153076172
  0
ARC
  5
1AB
330
1F
100
AcDbEntity
  8
D-2
  6
Continuous
 62
     3
370
     9
100
AcDbCircle
 10
305.1351186391472
 20
380.4262068464951
 30
0.0
 40
10.52080586149886
100
AcDbArc
 50
276.8236846923828
 51
334.5512237548828
  0
ARC
  5
1AC
330
1F
100
AcDbEntity
  8
D-2
  6
Continuous
 62
     3
370
     9
100
AcDbCircle
 10
273.3574119774073
 20
-7.580714870143481
 30
0.0
 40
5.000001030999261
100
AcDbArc
 50
90.0
 51
180.0
  0
ARC
  5
1AD
330
1F
100
AcDbEntity
  8
D-2
  6
Continuous
 62
     3
370
     9
100
AcDbCircle
 10
493.3575192013302
 20
-7.580714870143481
 30
0.0
 40
5.000001030999261
100
AcDbArc
 50
0.0
 51
90.0
  0
ARC
  5
1AE
330
1F
100
AcDbEntity
  8
D-2
  6
Continuous
 62
     3
370
     9
100
AcDbCircle
 10
493.3575192013302
 20
-85.08078497809322
 30
0.0
 40
5.000001030999261
100
AcDbArc
 50
270.0
 51
0.0
  0
ARC
  5
1AF
330
1F
100
AcDbEntity
  8
D-2
  6
Continuous
 62
     3
370
     9
100
AcDbCircle
 10
273.3574119774073
 20
-85.08078497809322
 30
0.0
 40
5.000001030999261
100
AcDbArc
 50
180.0
 51
270.0
  0
ARC
  5
1B0
330
1F
100
AcDbEntity
  8
D-2
  6
Continuous
 62
     3
370
     9
100
AcDbCircle
 10
307.3573756862331
 20
-36.5808476628483
 30
0.0
 40
5.500000554162103
100
AcDbArc
 50
90.0
 51
180.0
  0
ARC
  5
1B1
330
1F
100
AcDbEntity
  8
D-2
  6
Continuous
 62
     3
370
     9
100
AcDbCircle
 10
307.3573756862331
 20
-56.08089962521106
 30
0.0
 40
5.500000554162103
100
AcDbArc
 50
180.0
 51
270.0
  0
ARC
  5
1B2
330
1F
100
AcDbEntity
  8
D-2
  6
Continuous
 62
     3
370
     9
100
AcDbCircle
 10
459.357431772593
 20
-36.5808476628483
 30
0.0
 40
5.500000554162103
100
AcDbArc
 50
0.0
 51
90.0
  0
ARC
  5
1B3
330
1F
100
AcDbEntity
  8
D-2
  6
Continuous
 62
     3
370
     9
100
AcDbCircle
 10
459.357431772593
 20
-56.08089962521106
 30
0.0
 40
5.500000554162103
100
AcDbArc
 50
270.0
 51
0.0
  0
ARC
  5
1B4
330
1F
100
AcDbEntity
  8
D-2
  6
Continuous
 62
     3
370
     9
100
AcDbCircle
 10
383.357403729413
 20
-46.33078085409622
 30
0.0
 40
32.50000283524797
100
AcDbArc
 50
207.9842987060547
 51
332.0157012939453
  0
ARC
  5
1B5
330
1F
100
AcDbEntity
  8
D-2
  6
Continuous
 62
     3
370
     9
100
AcDbCircle
 10
383.357403729413
 20
-46.33078085409622
 30
0.0
 40
32.50000283524797
100
AcDbArc
 50
27.98429870605469
 51
152.0157012939453
  0
ARC
  5
1B6
330
1F
100
AcDbEntity
  8
D-2
  6
Continuous
 62
     3
370
     9
100
AcDbCircle
 10
301.8572833086995
 20
-273.8301705025338
 30
0.0
 40
6.249999838906366
100
AcDbArc
 50
180.0
 51
270.0
  0
ARC
  5
1B7
330
1F
100
AcDbEntity
  8
D-2
  6
Continuous
 62
     3
370
     9
100
AcDbCircle
 10
464.8575241501268
 20
-273.8301705025338
 30
0.0
 40
6.249999838906366
100
AcDbArc
 50
270.0
 51
0.0
  0
ARC
  5
1B8
330
1F
100
AcDbEntity
  8
D-2
  6
Continuous
 62
     3
370
     9
100
AcDbCircle
 10
270.607613228463
 20
-257.330140809755
 30
0.0
 40
2.249999787356403
100
AcDbArc
 50
90.0
 51
180.0
  0
ARC
  5
1B9
330
1F
100
AcDbEntity
  8
D-2
  6
Continuous
 62
     3
370
     9
100
AcDbCircle
 10
496.1078128299198
 20
-257.330140809755
 30
0.0
 40
2.249999787356403
100
AcDbArc
 50
0.0
 51
90.0
  0
ARC
  5
1BA
330
1F
100
AcDbEntity
  8
D-2
  6
Continuous
 62
     3
370
     9
100
AcDbCircle
 10
475.6554268501901
 20
-263.8301065805796
 30
0.0
 40
1.249999895289138
100
AcDbArc
 50
90.0
 51
163.8992004394532
  0
ARC
  5
1BB
330
1F
100
AcDbEntity
  8
D-2
  6
Continuous
 62
     3
370
     9
100
AcDbCircle
 10
291.0590094489021
 20
-263.8301065805796
 30
0.0
 40
1.249999895289138
100
AcDbArc
 50
16.10079956054688
 51
90.0
  0
ARC
  5
1BC
330
1F
100
AcDbEntity
  8
D-2
  6
Continuous
 62
     3
370
     9
100
AcDbCircle
 10
345.857403729413
 20
-377.5803272144214
 30
0.0
 40
2.500000032218727
100
AcDbArc
 50
180.0
 51
270.0
  0
ARC
  5
1BD
330
1F
100
AcDbEntity
  8
D-2
  6
Continuous
 62
     3
370
     9
100
AcDbCircle
 10
420.857403729413
 20
-377.5803272144214
 30
0.0
 40
2.500000032218727
100
AcDbArc
 50
270.0
 51
0.0
  0
ARC
  5
1BE
330
1F
100
AcDbEntity
  8
D-2
  6
Continuous
 62
     3
370
     9
100
AcDbCircle
 10
350.8574202254013
 20
-298.8303767023859
 30
0.0
 40
7.500000579937085
100
AcDbArc
 50
292.0240478515625
 51
0.0000000000000382
  0
ARC
  5
1BF
330
1F
100
AcDbEntity
  8
D-2
  6
Continuous
 62
     3
370
     9
100
AcDbCircle
 10
358.3574449693836
 20
-317.370795172614
 30
0.0
 40
12.49999967781273
100
AcDbArc
 50
112.0243377685547
 51
180.0
  0
ARC
  5
1C0
330
1F
100
AcDbEntity
  8
D-2
  6
Continuous
 62
     3
370
     9
100
AcDbCircle
 10
408.3573624894427
 20
-317.370795172614
 30
0.0
 40
12.49999967781273
100
AcDbArc
 50
0.0
 51
67.9756622314453
  0
ARC
  5
1C1
330
1F
100
AcDbEntity
  8
D-2
  6
Continuous
 62
     3
370
     9
100
AcDbCircle
 10
415.857387233425
 20
-298.8303767023859
 30
0.0
 40
7.500000579937085
100
AcDbArc
 50
180.0
 51
247.9759521484375
  0
ARC
  5
1C2
330
1F
100
AcDbEntity
  8
D-2
  6
JWW_CENTER2
 62
     3
370
     9
100
AcDbCircle
 10
350.8574202254013
 20
-205.0802529824746
 30
0.0
 40
7.500000579937085
100
AcDbArc
 50
0.0
 51
90.0
  0
ARC
  5
1C3
330
1F
100
AcDbEntity
  8
D-2
  6
JWW_CENTER2
 62
     3
370
     9
100
AcDbCircle
 10
415.857387233425
 20
-205.0802529824746
 30
0.0
 40
7.500000579937085
100
AcDbArc
 50
90.0
 51
180.0
  0
ARC
  5
1C4
330
1F
100
AcDbEntity
  8
D-2
  6
JWW_CENTER2
 62
     3
370
     9
100
AcDbCircle
 10
415.857387233425
 20
-222.5801869985219
 30
0.0
 40
7.500000579937085
100
AcDbArc
 50
180.0
 51
247.9759521484375
  0
ARC
  5
1C5
330
1F
100
AcDbEntity
  8
D-2
  6
JWW_CENTER2
 62
     3
370
     9
100
AcDbCircle
 10
408.3576099292654
 20
-241.1207291886612
 30
0.0
 40
12.49999967781273
100
AcDbArc
 50
0.0
 51
67.97628784179688
  0
ARC
  5
1C6
330
1F
100
AcDbEntity
  8
D-2
  6
JWW_CENTER2
 62
     3
370
     9
100
AcDbCircle
 10
350.8574202254013
 20
-222.5801869985219
 30
0.0
 40
7.500000579937085
100
AcDbArc
 50
292.0240478515625
 51
0.0000000000000382
  0
ARC
  5
1C7
330
1F
100
AcDbEntity
  8
D-2
  6
JWW_CENTER2
 62
     3
370
     9
100
AcDbCircle
 10
358.3573212494721
 20
-241.1207291886612
 30
0.0
 40
12.49999967781273
100
AcDbArc
 50
112.0237121582031
 51
180.0
  0
TEXT
  5
1C8
330
1F
100
AcDbEntity
  8
D-4
  6
Continuous
 62
     2
370
     9
100
AcDbText
 10
372.7322181495461
 20
-126.5149642366976
 30
0.0
 40
15.24
  1
92
 41
1.0625
  7
ＭＳ ゴシック
100
AcDbText
  0
TEXT
  5
1C9
330
1F
100
AcDbEntity
  8
D-4
  6
Continuous
 62
     2
370
     9
100
AcDbText
 10
583.0620734797296
 20
-56.95578085409622
 30
0.0
 40
15.24
  1
35
 50
90.0
 41
1.0625
  7
ＭＳ ゴシック
100
AcDbText
  0
TEXT
  5
1CA
330
1F
100
AcDbEntity
  8
D-4
  6
Continuous
 62
     2
370
     9
100
AcDbText
 10
263.9256575300888
 20
-455.8500686892948
 30
0.0
 40
15.24
  1
把手詳細図　Ｓ＝１：２
 41
1.113636363636364
  7
ＭＳ ゴシック
100
AcDbText
  0
TEXT
  5
1CB
330
1F
100
AcDbEntity
  8
D-4
  6
Continuous
 62
     2
370
     9
100
AcDbText
 10
583.0620734797296
 20
-328.2051601925411
 30
0.0
 40
15.24
  1
50
 50
90.0
 41
1.0625
  7
ＭＳ ゴシック
100
AcDbText
  0
TEXT
  5
1CC
330
1F
100
AcDbEntity
  8
D-4
  6
Continuous
 62
     2
370
     9
100
AcDbText
 10
583.0620734797296
 20
-228.2052323624894
 30
0.0
 40
15.24
  1
30
 50
90.0
 41
1.0625
  7
ＭＳ ゴシック
100
AcDbText
  0
TEXT
  5
1CD
330
1F
100
AcDbEntity
  8
D-4
  6
Continuous
 62
     2
370
     9
100
AcDbText
 10
548.2579303473395
 20
-333.0853323034338
 30
0.0
 40
15.24
  1
12.5
 50
90.0
 41
1.09375
  7
ＭＳ ゴシック
100
AcDbText
  0
TEXT
  5
1CE
330
1F
100
AcDbEntity
  8
0-4
  6
Continuous
 62
     2
370
     9
100
AcDbText
 10
-545.3437578355944
 20
-211.6791735509924
 30
0.0
 40
15.24
  1
平面詳細図　Ｓ＝１：５
 41
1.113636363636364
  7
ＭＳ ゴシック
100
AcDbText
  0
TEXT
  5
1CF
330
1F
100
AcDbEntity
  8
D-4
  6
Continuous
 62
     2
370
     9
100
AcDbText
 10
238.9352252032306
 20
168.3660625725824
 30
0.0
 40
15.24
  1
断面詳細図　Ｓ＝１：２
 41
1.113636363636364
  7
ＭＳ ゴシック
100
AcDbText
  0
TEXT
  5
1D0
330
1F
100
AcDbEntity
  8
D-4
  6
Continuous
 62
     7
370
     9
100
AcDbText
 10
360.4950611011402
 20
130.0943156804266
 30
0.0
 40
11.43
  1
処理：陽極酸化塗装複合皮膜（アルミ材のみ）
 41
1.158730158730159
  7
ＭＳ ゴシック
100
AcDbText
  0
TEXT
  5
1D1
330
1F
100
AcDbEntity
  8
0-4
  6
Continuous
 62
     2
370
     9
100
AcDbText
 10
-440.0339363716744
 20
235.1853308765309
 30
0.0
 40
15.24
  1
273
 41
1.083333333333333
  7
ＭＳ ゴシック
100
AcDbText
  0
TEXT
  5
1D2
330
1F
100
AcDbEntity
  8
0-4
  6
Continuous
 62
     2
370
     9
100
AcDbText
 10
-440.0338745117187
 20
271.5357873205237
 30
0.0
 40
15.24
  1
300
 41
1.083333333333333
  7
ＭＳ ゴシック
100
AcDbText
  0
TEXT
  5
1D3
330
1F
100
AcDbEntity
  8
0-4
  6
Continuous
 62
     2
370
     9
100
AcDbText
 10
-440.0338745117187
 20
308.0538223843963
 30
0.0
 40
15.24
  1
321
 41
1.083333333333333
  7
ＭＳ ゴシック
100
AcDbText
  0
TEXT
  5
1D4
330
1F
100
AcDbEntity
  8
0-4
  6
Continuous
 62
     2
370
     9
100
AcDbText
 10
-641.19890625
 20
1.520237278293948
 30
0.0
 40
15.24
  1
273
 50
90.0
 41
1.083333333333333
  7
ＭＳ ゴシック
100
AcDbText
  0
TEXT
  5
1D5
330
1F
100
AcDbEntity
  8
0-4
  6
Continuous
 62
     2
370
     9
100
AcDbText
 10
-677.5493626939927
 20
1.520299138249612
 30
0.0
 40
15.24
  1
300
 50
90.0
 41
1.083333333333333
  7
ＭＳ ゴシック
100
AcDbText
  0
TEXT
  5
1D6
330
1F
100
AcDbEntity
  8
0-4
  6
Continuous
 62
     2
370
     9
100
AcDbText
 10
-714.0673977578655
 20
1.520299138249612
 30
0.0
 40
15.24
  1
321
 50
90.0
 41
1.083333333333333
  7
ＭＳ ゴシック
100
AcDbText
  0
TEXT
  5
1D7
330
1F
100
AcDbEntity
  8
D-4
  6
Continuous
 62
     2
370
     9
100
AcDbText
 10
136.8547073611698
 20
338.2144494958826
 30
0.0
 40
15.24
  1
1.6
 50
90.0
 41
1.083333333333333
  7
ＭＳ ゴシック
100
AcDbText
  0
TEXT
  5
1D8
330
1F
100
AcDbEntity
  8
D-4
  6
Continuous
 62
     2
370
     9
100
AcDbText
 10
136.8547073611698
 20
382.7435838853992
 30
0.0
 40
15.24
  1
12.5
 50
90.0
 41
1.09375
  7
ＭＳ ゴシック
100
AcDbText
  0
TEXT
  5
1D9
330
1F
100
AcDbEntity
  8
D-4
  6
Continuous
 62
     2
370
     9
100
AcDbText
 10
675.0733138460727
 20
362.9052198255385
 30
0.0
 40
15.24
  1
22.5
 50
90.0
 41
1.09375
  7
ＭＳ ゴシック
100
AcDbText
  0
TEXT
  5
1DA
330
1F
100
AcDbEntity
  8
D-4
  6
Continuous
 62
     2
370
     9
100
AcDbText
 10
675.0733138460727
 20
421.8160763302365
 30
0.0
 40
15.24
  1
1.5
 50
90.0
 41
1.083333333333333
  7
ＭＳ ゴシック
100
AcDbText
  0
TEXT
  5
1DB
330
1F
100
AcDbEntity
  8
D-4
  6
Continuous
 62
     2
370
     9
100
AcDbText
 10
485.7603784509608
 20
476.7662115313556
 30
0.0
 40
15.24
  1
10
 41
1.0625
  7
ＭＳ ゴシック
100
AcDbText
  0
TEXT
  5
1DC
330
1F
100
AcDbEntity
  8
D-4
  6
Continuous
 62
     2
370
     9
100
AcDbText
 10
468.1082565720017
 20
517.2803997307856
 30
0.0
 40
15.24
  1
0.5
 41
1.083333333333333
  7
ＭＳ ゴシック
100
AcDbText
  0
TEXT
  5
1DD
330
1F
100
AcDbEntity
  8
D-4
  6
Continuous
 62
     2
370
     9
100
AcDbText
 10
512.0101557551204
 20
516.2417710752746
 30
0.0
 40
15.24
  1
10
 41
1.0625
  7
ＭＳ ゴシック
100
AcDbText
  0
TEXT
  5
1DE
330
1F
100
AcDbEntity
  8
D-4
  6
Continuous
 62
     2
370
     9
100
AcDbText
 10
181.08041299356
 20
516.2417710752746
 30
0.0
 40
15.24
  1
300
 41
1.083333333333333
  7
ＭＳ ゴシック
100
AcDbText
  0
TEXT
  5
1DF
330
1F
100
AcDbEntity
  8
D-4
  6
Continuous
 62
     2
370
     9
100
AcDbText
 10
182.0810596362966
 20
574.7949409443626
 30
0.0
 40
15.24
  1
321
 41
1.083333333333333
  7
ＭＳ ゴシック
100
AcDbText
  0
TEXT
  5
1E0
330
1F
100
AcDbEntity
  8
D-4
  6
Continuous
 62
     2
370
     9
100
AcDbText
 10
476.6348967681062
 20
224.4387100797087
 30
0.0
 40
15.24
  1
18.3
 41
1.09375
  7
ＭＳ ゴシック
100
AcDbText
  0
TEXT
  5
1E1
330
1F
100
AcDbEntity
  8
D-4
  6
Continuous
 62
     2
370
     9
100
AcDbText
 10
182.7251454946158
 20
224.4387100797087
 30
0.0
 40
15.24
  1
273
 41
1.083333333333333
  7
ＭＳ ゴシック
100
AcDbText
  0
LWPOLYLINE
  5
1E2
330
1F
100
AcDbEntity
  8
D-4
  6
Continuous
 62
     7
370
     9
100
AcDbPolyline
 90
        4
 70
     1
 43
0.5
 10
268.6072717615075
 20
-134.3349188727302
 42
0.4142135623731
 10
268.3572717615075
 20
-134.0849188727301
 42
0.4142135623731
 10
268.1072717615075
 20
-134.3349188727302
 42
0.4142135623731
 10
268.3572717615075
 20
-134.5849188727302
 42
0.4142135623731
  0
LWPOLYLINE
  5
1E3
330
1F
100
AcDbEntity
  8
D-4
  6
Continuous
 62
     7
370
     9
100
AcDbPolyline
 90
        4
 70
     1
 43
0.5
 10
498.6074119774073
 20
-134.3349188727302
 42
0.4142135623731
 10
498.3574119774073
 20
-134.0849188727301
 42
0.4142135623731
 10
498.1074119774073
 20
-134.3349188727302
 42
0.4142135623731
 10
498.3574119774073
 20
-134.5849188727302
 42
0.4142135623731
  0
LWPOLYLINE
  5
1E4
330
1F
100
AcDbEntity
  8
D-4
  6
Continuous
 62
     7
370
     9
100
AcDbPolyline
 90
        4
 70
     1
 43
0.5
 10
591.1325848553632
 20
-90.0808633340371
 42
0.4142135623731
 10
590.8825848553633
 20
-89.8308633340371
 42
0.4142135623731
 10
590.6325848553633
 20
-90.0808633340371
 42
0.4142135623731
 10
590.8825848553633
 20
-90.3308633340371
 42
0.4142135623731
  0
LWPOLYLINE
  5
1E5
330
1F
100
AcDbEntity
  8
D-4
  6
Continuous
 62
     7
370
     9
100
AcDbPolyline
 90
        4
 70
     1
 43
0.5
 10
591.1325848553632
 20
-2.580636514199739
 42
0.4142135623731
 10
590.8825848553633
 20
-2.330636514199739
 42
0.4142135623731
 10
590.6325848553633
 20
-2.580636514199739
 42
0.4142135623731
 10
590.8825848553633
 20
-2.830636514199739
 42
0.4142135623731
  0
LWPOLYLINE
  5
1E6
330
1F
100
AcDbEntity
  8
D-4
  6
Continuous
 62
     7
370
     9
100
AcDbPolyline
 90
        4
 70
     1
 43
0.5
 10
591.1325848553632
 20
-380.0802117425042
 42
0.4142135623731
 10
590.8825848553633
 20
-379.8302117425043
 42
0.4142135623731
 10
590.6325848553633
 20
-380.0802117425042
 42
0.4142135623731
 10
590.8825848553633
 20
-380.3302117425042
 42
0.4142135623731
  0
LWPOLYLINE
  5
1E7
330
1F
100
AcDbEntity
  8
D-4
  6
Continuous
 62
     7
370
     9
100
AcDbPolyline
 90
        4
 70
     1
 43
0.5
 10
591.1325848553632
 20
-255.0801705025338
 42
0.4142135623731
 10
590.8825848553633
 20
-254.8301705025338
 42
0.4142135623731
 10
590.6325848553633
 20
-255.0801705025338
 42
0.4142135623731
 10
590.8825848553633
 20
-255.3301705025338
 42
0.4142135623731
  0
LWPOLYLINE
  5
1E8
330
1F
100
AcDbEntity
  8
D-4
  6
Continuous
 62
     7
370
     9
100
AcDbPolyline
 90
        4
 70
     1
 43
0.5
 10
591.1325848553632
 20
-180.0801705025337
 42
0.4142135623731
 10
590.8825848553633
 20
-179.8301705025337
 42
0.4142135623731
 10
590.6325848553633
 20
-180.0801705025337
 42
0.4142135623731
 10
590.8825848553633
 20
-180.3301705025337
 42
0.4142135623731
  0
LWPOLYLINE
  5
1E9
330
1F
100
AcDbEntity
  8
D-4
  6
Continuous
 62
     7
370
     9
100
AcDbPolyline
 90
        4
 70
     1
 43
0.5
 10
553.8278148754224
 20
-286.3300880225929
 42
0.4142135623731
 10
553.5778148754224
 20
-286.0800880225929
 42
0.4142135623731
 10
553.3278148754224
 20
-286.3300880225929
 42
0.4142135623731
 10
553.5778148754224
 20
-286.5800880225929
 42
0.4142135623731
  0
LWPOLYLINE
  5
1EA
330
1F
100
AcDbEntity
  8
D-4
  6
Continuous
 62
     7
370
     9
100
AcDbPolyline
 90
        4
 70
     1
 43
0.5
 10
553.8278148754224
 20
-255.0801705025338
 42
0.4142135623731
 10
553.5778148754224
 20
-254.8301705025338
 42
0.4142135623731
 10
553.3278148754224
 20
-255.0801705025338
 42
0.4142135623731
 10
553.5778148754224
 20
-255.3301705025338
 42
0.4142135623731
  0
LWPOLYLINE
  5
1EB
330
1F
100
AcDbEntity
  8
0-4
  6
Continuous
 62
     7
370
     9
100
AcDbPolyline
 90
        4
 70
     1
 43
0.5
 10
-560.0338980185019
 20
229.8653226285369
 42
0.4142135623731
 10
-560.2838980185019
 20
230.1153226285368
 42
0.4142135623731
 10
-560.5338980185019
 20
229.8653226285369
 42
0.4142135623731
 10
-560.2838980185019
 20
229.6153226285369
 42
0.4142135623731
  0
LWPOLYLINE
  5
1EC
330
1F
100
AcDbEntity
  8
0-4
  6
Continuous
 62
     7
370
     9
100
AcDbPolyline
 90
        4
 70
     1
 43
0.5
 10
-287.033943794869
 20
229.8653226285369
 42
0.4142135623731
 10
-287.283943794869
 20
230.1153226285368
 42
0.4142135623731
 10
-287.533943794869
 20
229.8653226285369
 42
0.4142135623731
 10
-287.283943794869
 20
229.6153226285369
 42
0.4142135623731
  0
LWPOLYLINE
  5
1ED
330
1F
100
AcDbEntity
  8
0-4
  6
Continuous
 62
     7
370
     9
100
AcDbPolyline
 90
        4
 70
     1
 43
0.5
 10
-573.5338745117188
 20
266.2157790725296
 42
0.4142135623731
 10
-573.7838745117188
 20
266.4657790725295
 42
0.4142135623731
 10
-574.0338745117188
 20
266.2157790725296
 42
0.4142135623731
 10
-573.7838745117188
 20
265.9657790725296
 42
0.4142135623731
  0
LWPOLYLINE
  5
1EE
330
1F
100
AcDbEntity
  8
0-4
  6
Continuous
 62
     7
370
     9
100
AcDbPolyline
 90
        4
 70
     1
 43
0.5
 10
-273.533812651763
 20
266.2157790725296
 42
0.4142135623731
 10
-273.783812651763
 20
266.4657790725295
 42
0.4142135623731
 10
-274.033812651763
 20
266.2157790725296
 42
0.4142135623731
 10
-273.783812651763
 20
265.9657790725296
 42
0.4142135623731
  0
LWPOLYLINE
  5
1EF
330
1F
100
AcDbEntity
  8
0-4
  6
Continuous
 62
     7
370
     9
100
AcDbPolyline
 90
        4
 70
     1
 43
0.5
 10
-584.0338905953072
 20
302.7338141364021
 42
0.4142135623731
 10
-584.2838905953072
 20
302.9838141364021
 42
0.4142135623731
 10
-584.5338905953072
 20
302.7338141364021
 42
0.4142135623731
 10
-584.2838905953072
 20
302.4838141364021
 42
0.4142135623731
  0
LWPOLYLINE
  5
1F0
330
1F
100
AcDbEntity
  8
0-4
  6
Continuous
 62
     7
370
     9
100
AcDbPolyline
 90
        4
 70
     1
 43
0.5
 10
-263.0338893581081
 20
302.7338141364021
 42
0.4142135623731
 10
-263.2838893581081
 20
302.9838141364021
 42
0.4142135623731
 10
-263.5338893581081
 20
302.7338141364021
 42
0.4142135623731
 10
-263.2838893581081
 20
302.4838141364021
 42
0.4142135623731
  0
LWPOLYLINE
  5
1F1
330
1F
100
AcDbEntity
  8
0-4
  6
Continuous
 62
     7
370
     9
100
AcDbPolyline
 90
        4
 70
     1
 43
0.5
 10
-635.6288980020058
 20
-118.7296934385557
 42
0.4142135623731
 10
-635.8788980020058
 20
-118.4796934385557
 42
0.4142135623731
 10
-636.1288980020058
 20
-118.7296934385557
 42
0.4142135623731
 10
-635.8788980020058
 20
-118.9796934385557
 42
0.4142135623731
  0
LWPOLYLINE
  5
1F2
330
1F
100
AcDbEntity
  8
0-4
  6
Continuous
 62
     7
370
     9
100
AcDbPolyline
 90
        4
 70
     1
 43
0.5
 10
-635.6288980020058
 20
154.2702298550994
 42
0.4142135623731
 10
-635.8788980020058
 20
154.5202298550994
 42
0.4142135623731
 10
-636.1288980020058
 20
154.2702298550994
 42
0.4142135623731
 10
-635.8788980020058
 20
154.0202298550994
 42
0.4142135623731
  0
LWPOLYLINE
  5
1F3
330
1F
100
AcDbEntity
  8
0-4
  6
Continuous
 62
     7
370
     9
100
AcDbPolyline
 90
        4
 70
     1
 43
0.5
 10
-671.9793544459986
 20
-132.2297008617504
 42
0.4142135623731
 10
-672.2293544459988
 20
-131.9797008617504
 42
0.4142135623731
 10
-672.4793544459988
 20
-132.2297008617504
 42
0.4142135623731
 10
-672.2293544459988
 20
-132.4797008617504
 42
0.4142135623731
  0
LWPOLYLINE
  5
1F4
330
1F
100
AcDbEntity
  8
0-4
  6
Continuous
 62
     7
370
     9
100
AcDbPolyline
 90
        4
 70
     1
 43
0.5
 10
-671.9793544459986
 20
167.7702991382496
 42
0.4142135623731
 10
-672.2293544459988
 20
168.0202991382496
 42
0.4142135623731
 10
-672.4793544459988
 20
167.7702991382496
 42
0.4142135623731
 10
-672.2293544459988
 20
167.5202991382496
 42
0.4142135623731
  0
LWPOLYLINE
  5
1F5
330
1F
100
AcDbEntity
  8
0-4
  6
Continuous
 62
     7
370
     9
100
AcDbPolyline
 90
        4
 70
     1
 43
0.5
 10
-708.497389509871
 20
-142.7297478753167
 42
0.4142135623731
 10
-708.747389509871
 20
-142.4797478753167
 42
0.4142135623731
 10
-708.9973895098711
 20
-142.7297478753167
 42
0.4142135623731
 10
-708.747389509871
 20
-142.9797478753167
 42
0.4142135623731
  0
LWPOLYLINE
  5
1F6
330
1F
100
AcDbEntity
  8
0-4
  6
Continuous
 62
     7
370
     9
100
AcDbPolyline
 90
        4
 70
     1
 43
0.5
 10
-708.497389509871
 20
178.2703461518159
 42
0.4142135623731
 10
-708.747389509871
 20
178.5203461518159
 42
0.4142135623731
 10
-708.9973895098711
 20
178.2703461518159
 42
0.4142135623731
 10
-708.747389509871
 20
178.0203461518159
 42
0.4142135623731
  0
LWPOLYLINE
  5
1F7
330
1F
100
AcDbEntity
  8
D-4
  6
Continuous
 62
     7
370
     9
100
AcDbPolyline
 90
        4
 70
     1
 43
0.5
 10
142.4247156091639
 20
377.1552998310812
 42
0.4142135623731
 10
142.1747156091639
 20
377.4052998310811
 42
0.4142135623731
 10
141.9247156091639
 20
377.1552998310812
 42
0.4142135623731
 10
142.1747156091639
 20
376.9052998310812
 42
0.4142135623731
  0
LWPOLYLINE
  5
1F8
330
1F
100
AcDbEntity
  8
D-4
  6
Continuous
 62
     7
370
     9
100
AcDbPolyline
 90
        4
 70
     1
 43
0.5
 10
142.4247156091639
 20
381.1551645639781
 42
0.4142135623731
 10
142.1747156091639
 20
381.4051645639781
 42
0.4142135623731
 10
141.9247156091639
 20
381.1551645639781
 42
0.4142135623731
 10
142.1747156091639
 20
380.9051645639781
 42
0.4142135623731
  0
LWPOLYLINE
  5
1F9
330
1F
100
AcDbEntity
  8
D-4
  6
Continuous
 62
     7
370
     9
100
AcDbPolyline
 90
        4
 70
     1
 43
0.5
 10
142.4247156091639
 20
412.4053295238599
 42
0.4142135623731
 10
142.1747156091639
 20
412.6553295238599
 42
0.4142135623731
 10
141.9247156091639
 20
412.4053295238599
 42
0.4142135623731
 10
142.1747156091639
 20
412.1553295238599
 42
0.4142135623731
  0
LWPOLYLINE
  5
1FA
330
1F
100
AcDbEntity
  8
D-4
  6
Continuous
 62
     7
370
     9
100
AcDbPolyline
 90
        4
 70
     1
 43
0.5
 10
680.6431983741555
 20
356.6551579655828
 42
0.4142135623731
 10
680.3931983741554
 20
356.9051579655828
 42
0.4142135623731
 10
680.1431983741554
 20
356.6551579655828
 42
0.4142135623731
 10
680.3931983741554
 20
356.4051579655828
 42
0.4142135623731
  0
LWPOLYLINE
  5
1FB
330
1F
100
AcDbEntity
  8
D-4
  6
Continuous
 62
     7
370
     9
100
AcDbPolyline
 90
        4
 70
     1
 43
0.5
 10
680.6431983741555
 20
412.9054054054055
 42
0.4142135623731
 10
680.3931983741554
 20
413.1554054054055
 42
0.4142135623731
 10
680.1431983741554
 20
412.9054054054055
 42
0.4142135623731
 10
680.3931983741554
 20
412.6554054054055
 42
0.4142135623731
  0
LWPOLYLINE
  5
1FC
330
1F
100
AcDbEntity
  8
D-4
  6
Continuous
 62
     7
370
     9
100
AcDbPolyline
 90
        4
 70
     1
 43
0.5
 10
680.6431983741555
 20
416.6553559174409
 42
0.4142135623731
 10
680.3931983741554
 20
416.9053559174409
 42
0.4142135623731
 10
680.1431983741554
 20
416.6553559174409
 42
0.4142135623731
 10
680.3931983741554
 20
416.4053559174409
 42
0.4142135623731
  0
LWPOLYLINE
  5
1FD
330
1F
100
AcDbEntity
  8
D-4
  6
Continuous
 62
     7
370
     9
100
AcDbPolyline
 90
        4
 70
     1
 43
0.5
 10
484.1351516311234
 20
471.4462032833616
 42
0.4142135623731
 10
483.8851516311234
 20
471.6962032833616
 42
0.4142135623731
 10
483.6351516311234
 20
471.4462032833616
 42
0.4142135623731
 10
483.8851516311234
 20
471.1962032833616
 42
0.4142135623731
  0
LWPOLYLINE
  5
1FE
330
1F
100
AcDbEntity
  8
D-4
  6
Continuous
 62
     7
370
     9
100
AcDbPolyline
 90
        4
 70
     1
 43
0.5
 10
509.1352341110643
 20
471.4462032833616
 42
0.4142135623731
 10
508.8852341110643
 20
471.6962032833616
 42
0.4142135623731
 10
508.6352341110643
 20
471.4462032833616
 42
0.4142135623731
 10
508.8852341110643
 20
471.1962032833616
 42
0.4142135623731
  0
LWPOLYLINE
  5
1FF
330
1F
100
AcDbEntity
  8
D-4
  6
Continuous
 62
     7
370
     9
100
AcDbPolyline
 90
        4
 70
     1
 43
0.5
 10
509.1352341110643
 20
510.9217628272805
 42
0.4142135623731
 10
508.8852341110643
 20
511.1717628272805
 42
0.4142135623731
 10
508.6352341110643
 20
510.9217628272805
 42
0.4142135623731
 10
508.8852341110643
 20
510.6717628272805
 42
0.4142135623731
  0
LWPOLYLINE
  5
200
330
1F
100
AcDbEntity
  8
D-4
  6
Continuous
 62
     7
370
     9
100
AcDbPolyline
 90
        4
 70
     1
 43
0.5
 10
510.3850526551943
 20
510.9217628272805
 42
0.4142135623731
 10
510.1350526551943
 20
511.1717628272805
 42
0.4142135623731
 10
509.8850526551943
 20
510.9217628272805
 42
0.4142135623731
 10
510.1350526551943
 20
510.6717628272805
 42
0.4142135623731
  0
LWPOLYLINE
  5
201
330
1F
100
AcDbEntity
  8
D-4
  6
Continuous
 62
     7
370
     9
100
AcDbPolyline
 90
        4
 70
     1
 43
0.5
 10
535.3851351351351
 20
510.9217628272805
 42
0.4142135623731
 10
535.1351351351352
 20
511.1717628272805
 42
0.4142135623731
 10
534.8851351351352
 20
510.9217628272805
 42
0.4142135623731
 10
535.1351351351352
 20
510.6717628272805
 42
0.4142135623731
  0
LWPOLYLINE
  5
202
330
1F
100
AcDbEntity
  8
D-4
  6
Continuous
 62
     7
370
     9
100
AcDbPolyline
 90
        4
 70
     1
 43
0.5
 10
535.3851351351351
 20
569.4749326963682
 42
0.4142135623731
 10
535.1351351351352
 20
569.7249326963682
 42
0.4142135623731
 10
534.8851351351352
 20
569.4749326963682
 42
0.4142135623731
 10
535.1351351351352
 20
569.2249326963682
 42
0.4142135623731
  0
LWPOLYLINE
  5
203
330
1F
100
AcDbEntity
  8
D-4
  6
Continuous
 62
     7
370
     9
100
AcDbPolyline
 90
        4
 70
     1
 43
0.5
 10
475.8851367847341
 20
219.1186399717589
 42
0.4142135623731
 10
475.6351367847341
 20
219.3686399717589
 42
0.4142135623731
 10
475.3851367847341
 20
219.1186399717589
 42
0.4142135623731
 10
475.6351367847341
 20
218.8686399717589
 42
0.4142135623731
  0
LWPOLYLINE
  5
204
330
1F
100
AcDbEntity
  8
D-4
  6
Continuous
 62
     7
370
     9
100
AcDbPolyline
 90
        4
 70
     1
 43
0.5
 10
521.635027911212
 20
219.1186399717589
 42
0.4142135623731
 10
521.385027911212
 20
219.3686399717589
 42
0.4142135623731
 10
521.135027911212
 20
219.1186399717589
 42
0.4142135623731
 10
521.385027911212
 20
218.8686399717589
 42
0.4142135623731
  0
LINE
  5
205
330
1F
100
AcDbEntity
  8
D-5
  6
Continuous
 62
     7
370
     9
100
AcDbLine
 10
81.57076449007604
 20
299.1837950010558
 30
0.0
 11
260.433630041174
 21
299.1837950010558
 31
0.0
  0
LINE
  5
206
330
1F
100
AcDbEntity
  8
D-5
  6
Continuous
 62
     7
370
     9
100
AcDbLine
 10
438.8512276314401
 20
278.3016679093645
 30
0.0
 11
278.2423689558701
 21
278.3016679093645
 31
0.0
  0
LINE
  5
207
330
1F
100
AcDbEntity
  8
D-5
  6
Continuous
 62
     7
370
     9
100
AcDbLine
 10
591.4149516337627
 20
495.9808514569258
 30
0.0
 11
779.3629414326438
 21
495.9808514569258
 31
0.0
  0
LINE
  5
208
330
1F
100
AcDbEntity
  8
D-5
  6
Continuous
 62
     7
370
     9
100
AcDbLine
 10
591.4149516337627
 20
495.9808514569258
 30
0.0
 11
534.2605590820312
 21
396.9864881360854
 31
0.0
  0
LINE
  5
209
330
1F
100
AcDbEntity
  8
D-5
  6
Continuous
 62
     7
370
     9
100
AcDbLine
 10
438.8512276314401
 20
278.3016679093645
 30
0.0
 11
487.8530966269005
 21
363.1750735721073
 31
0.0
  0
LINE
  5
20A
330
1F
100
AcDbEntity
  8
D-5
  6
Continuous
 62
     7
370
     9
100
AcDbLine
 10
260.433630041174
 20
299.1837950010558
 30
0.0
 11
302.6755668021539
 21
372.3490287162163
 31
0.0
  0
LINE
  5
20B
330
1F
100
AcDbEntity
  8
D-5
  6
Continuous
 62
     7
370
     9
100
AcDbLine
 10
341.6436272698479
 20
460.6350625527872
 30
0.0
 11
388.3071899414062
 21
379.8114426071579
 31
0.0
  0
LINE
  5
20C
330
1F
100
AcDbEntity
  8
D-5
  6
Continuous
 62
     7
370
     9
100
AcDbLine
 10
534.2605590820312
 20
396.9864881360854
 30
0.0
 11
539.0439420133023
 21
408.5349995381124
 31
0.0
  0
LINE
  5
20D
330
1F
100
AcDbEntity
  8
D-5
  6
Continuous
 62
     7
370
     9
100
AcDbLine
 10
534.2605590820312
 20
396.9864881360854
 30
0.0
 11
541.8699522276182
 21
406.9033813476562
 31
0.0
  0
LINE
  5
20E
330
1F
100
AcDbEntity
  8
D-5
  6
Continuous
 62
     7
370
     9
100
AcDbLine
 10
517.5469888223186
 20
413.9424257020693
 30
0.0
 11
522.3304954735011
 21
425.4909371040964
 31
0.0
  0
LINE
  5
20F
330
1F
100
AcDbEntity
  8
D-5
  6
Continuous
 62
     7
370
     9
100
AcDbLine
 10
517.5469888223186
 20
413.9424257020693
 30
0.0
 11
525.1566294077281
 21
423.8593189136402
 31
0.0
  0
LINE
  5
210
330
1F
100
AcDbEntity
  8
D-5
  6
Continuous
 62
     7
370
     9
100
AcDbLine
 10
491.7825647302575
 20
414.7467288455448
 30
0.0
 11
496.5660713814401
 21
426.2952402475719
 31
0.0
  0
LINE
  5
211
330
1F
100
AcDbEntity
  8
D-5
  6
Continuous
 62
     7
370
     9
100
AcDbLine
 10
491.7825647302575
 20
414.7467288455448
 30
0.0
 11
499.392081595756
 21
424.6636220571157
 31
0.0
  0
LINE
  5
212
330
1F
100
AcDbEntity
  8
D-5
  6
Continuous
 62
     7
370
     9
100
AcDbLine
 10
388.3071899414062
 20
379.8114426071579
 30
0.0
 11
380.6976730759081
 21
389.7283358187289
 31
0.0
  0
LINE
  5
213
330
1F
100
AcDbEntity
  8
D-5
  6
Continuous
 62
     7
370
     9
100
AcDbLine
 10
388.3071899414062
 20
379.8114426071579
 30
0.0
 11
383.523683290224
 21
391.359954009185
 31
0.0
  0
LINE
  5
214
330
1F
100
AcDbEntity
  8
D-5
  6
Continuous
 62
     7
370
     9
100
AcDbLine
 10
302.6755668021539
 20
372.3490287162163
 30
0.0
 11
297.8920601509714
 21
360.8005173141892
 31
0.0
  0
LINE
  5
215
330
1F
100
AcDbEntity
  8
D-5
  6
Continuous
 62
     7
370
     9
100
AcDbLine
 10
302.6755668021539
 20
372.3490287162163
 30
0.0
 11
295.0660499366555
 21
362.4321355046453
 31
0.0
  0
LINE
  5
216
330
1F
100
AcDbEntity
  8
D-5
  6
Continuous
 62
     7
370
     9
100
AcDbLine
 10
487.8530966269005
 20
363.1750735721073
 30
0.0
 11
483.069589975718
 21
351.6265621700803
 31
0.0
  0
LINE
  5
217
330
1F
100
AcDbEntity
  8
D-5
  6
Continuous
 62
     7
370
     9
100
AcDbLine
 10
487.8530966269005
 20
363.1750735721073
 30
0.0
 11
480.2435797614021
 21
353.2581803605364
 31
0.0
  0
LINE
  5
218
330
1F
100
AcDbEntity
  8
D-5
  6
Continuous
 62
     7
370
     9
100
AcDbLine
 10
587.5042889569258
 20
535.1116036080026
 30
0.0
 11
517.5469888223186
 21
413.9424257020693
 31
0.0
  0
LINE
  5
219
330
1F
100
AcDbEntity
  8
D-5
  6
Continuous
 62
     7
370
     9
100
AcDbLine
 10
587.5042889569258
 20
535.1116036080026
 30
0.0
 11
742.6359434385557
 21
535.1116036080026
 31
0.0
  0
LINE
  5
21A
330
1F
100
AcDbEntity
  8
D-5
  6
Continuous
 62
     7
370
     9
100
AcDbLine
 10
579.6554977829394
 20
566.9467163085938
 30
0.0
 11
491.7825647302575
 21
414.7467288455448
 31
0.0
  0
LINE
  5
21B
330
1F
100
AcDbEntity
  8
D-5
  6
Continuous
 62
     7
370
     9
100
AcDbLine
 10
805.9484945761193
 20
566.9467163085938
 30
0.0
 11
579.6554977829394
 21
566.9467163085938
 31
0.0
  0
TEXT
  5
21C
330
1F
100
AcDbEntity
  8
D-5
  6
Continuous
 62
     7
370
     9
100
AcDbText
 10
598.7283118995463
 20
504.1787883366766
 30
0.0
 40
11.43
  1
皿木ネジ4.1×25
 41
1.155555555555555
  7
ＭＳ ゴシック
100
AcDbText
  0
TEXT
  5
21D
330
1F
100
AcDbEntity
  8
D-5
  6
Continuous
 62
     7
370
     9
100
AcDbText
 10
98.6087077372784
 20
307.7767695576437
 30
0.0
 40
11.43
  1
タッピンネジM4×10
 41
1.157407407407407
  7
ＭＳ ゴシック
100
AcDbText
  0
TEXT
  5
21E
330
1F
100
AcDbEntity
  8
D-5
  6
Continuous
 62
     7
370
     9
100
AcDbText
 10
83.61350531552227
 20
282.8912517155864
 30
0.0
 40
11.43
  1
S20C（ユニクロメッキ）
 50
0.0000746171416053
 41
1.151515151515151
  7
ＭＳ ゴシック
100
AcDbText
  0
TEXT
  5
21F
330
1F
100
AcDbEntity
  8
D-5
  6
Continuous
 62
     7
370
     9
100
AcDbText
 10
592.8695307551204
 20
476.7967264041386
 30
0.0
 40
11.43
  1
S20C（電気亜鉛めっき）
 41
1.151515151515152
  7
ＭＳ ゴシック
100
AcDbText
  0
TEXT
  5
220
330
1F
100
AcDbEntity
  8
D-5
  6
Continuous
 62
     7
370
     9
100
AcDbText
 10
587.1448826145481
 20
573.8528935942779
 30
0.0
 40
11.43
  1
蓋フレーム（Ａ６０６３Ｓ）
 41
1.153846153846154
  7
ＭＳ ゴシック
100
AcDbText
  0
TEXT
  5
221
330
1F
100
AcDbEntity
  8
D-5
  6
Continuous
 62
     7
370
     9
100
AcDbText
 10
589.8941947318413
 20
541.0928508366766
 30
0.0
 40
11.43
  1
枠（Ａ６０６３Ｓ）
 41
1.148148148148148
  7
ＭＳ ゴシック
100
AcDbText
  0
LINE
  5
222
330
1F
100
AcDbEntity
  8
D-5
  6
Continuous
 62
     7
370
     9
100
AcDbLine
 10
90.92176282728047
 20
-255.2852981154983
 30
0.0
 11
248.126220703125
 21
-255.2852981154983
 31
0.0
  0
LINE
  5
223
330
1F
100
AcDbEntity
  8
D-5
  6
Continuous
 62
     7
370
     9
100
AcDbLine
 10
248.126220703125
 20
-255.2852981154983
 30
0.0
 11
270.735787056588
 21
-277.9554872255067
 31
0.0
  0
LINE
  5
224
330
1F
100
AcDbEntity
  8
D-5
  6
Continuous
 62
     7
370
     9
100
AcDbLine
 10
270.735787056588
 20
-277.9554872255067
 30
0.0
 11
260.8290388777451
 21
-270.3327323294974
 31
0.0
  0
LINE
  5
225
330
1F
100
AcDbEntity
  8
D-5
  6
Continuous
 62
     7
370
     9
100
AcDbLine
 10
270.735787056588
 20
-277.9554872255067
 30
0.0
 11
263.1393845016893
 21
-268.0284489812078
 31
0.0
  0
LINE
  5
226
330
1F
100
AcDbEntity
  8
D-5
  6
Continuous
 62
     7
370
     9
100
AcDbLine
 10
80.75396563555756
 20
-170.8048887510557
 30
0.0
 11
245.70217648068
 21
-170.8048887510557
 31
0.0
  0
LINE
  5
227
330
1F
100
AcDbEntity
  8
D-5
  6
Continuous
 62
     7
370
     9
100
AcDbLine
 10
110.1663950327281
 20
-386.2518557986697
 30
0.0
 11
281.7513130806589
 21
-386.2518557986697
 31
0.0
  0
LINE
  5
228
330
1F
100
AcDbEntity
  8
D-5
  6
Continuous
 62
     7
370
     9
100
AcDbLine
 10
110.8150585277662
 20
-304.9349645666174
 30
0.0
 11
277.9805776235222
 21
-304.9349645666174
 31
0.0
  0
LINE
  5
229
330
1F
100
AcDbEntity
  8
D-5
  6
Continuous
 62
     7
370
     9
100
AcDbLine
 10
245.70217648068
 20
-170.8048887510557
 30
0.0
 11
293.3940990551099
 21
-255.0801705025338
 31
0.0
  0
LINE
  5
22A
330
1F
100
AcDbEntity
  8
D-5
  6
Continuous
 62
     7
370
     9
100
AcDbLine
 10
293.3940990551099
 20
-255.0801705025338
 30
0.0
 11
285.8703200881547
 21
-245.0979531777871
 31
0.0
  0
LINE
  5
22B
330
1F
100
AcDbEntity
  8
D-5
  6
JWW_CENTER2
 62
     7
370
     9
100
AcDbLine
 10
293.3940990551099
 20
-255.0801705025338
 30
0.0
 11
288.7103106524495
 21
-243.4908005997941
 31
0.0
  0
LINE
  5
22C
330
1F
100
AcDbEntity
  8
D-5
  6
Continuous
 62
     7
370
     9
100
AcDbLine
 10
277.9805776235222
 20
-304.9349645666174
 30
0.0
 11
320.186017010663
 21
-280.0803457724081
 31
0.0
  0
LINE
  5
22D
330
1F
100
AcDbEntity
  8
D-5
  6
Continuous
 62
     7
370
     9
100
AcDbLine
 10
320.186017010663
 20
-280.0803457724081
 30
0.0
 11
310.3350665118245
 21
-287.7750128668708
 31
0.0
  0
LINE
  5
22E
330
1F
100
AcDbEntity
  8
D-5
  6
Continuous
 62
     7
370
     9
100
AcDbLine
 10
320.186017010663
 20
-280.0803457724081
 30
0.0
 11
308.67919921875
 21
-284.963106722445
 31
0.0
  0
LINE
  5
22F
330
1F
100
AcDbEntity
  8
D-5
  6
Continuous
 62
     7
370
     9
100
AcDbLine
 10
277.9805776235222
 20
-304.9349645666174
 30
0.0
 11
345.857403729413
 21
-324.0677230422561
 31
0.0
  0
LINE
  5
230
330
1F
100
AcDbEntity
  8
D-5
  6
Continuous
 62
     7
370
     9
100
AcDbLine
 10
345.857403729413
 20
-324.0677230422561
 30
0.0
 11
333.4865260768581
 21
-322.2757947767103
 31
0.0
  0
LINE
  5
231
330
1F
100
AcDbEntity
  8
D-5
  6
Continuous
 62
     7
370
     9
100
AcDbLine
 10
345.857403729413
 20
-324.0677230422561
 30
0.0
 11
334.3718657622466
 21
-319.1350411080026
 31
0.0
  0
LINE
  5
232
330
1F
100
AcDbEntity
  8
D-5
  6
Continuous
 62
     7
370
     9
100
AcDbLine
 10
281.7513130806589
 20
-386.2518557986697
 30
0.0
 11
304.7226364548143
 21
-355.8857933250633
 31
0.0
  0
LINE
  5
233
330
1F
100
AcDbEntity
  8
D-5
  6
Continuous
 62
     7
370
     9
100
AcDbLine
 10
304.7226364548143
 20
-355.8857933250633
 30
0.0
 11
298.5470333614865
 21
-366.7535977750211
 31
0.0
  0
LINE
  5
234
330
1F
100
AcDbEntity
  8
D-5
  6
Continuous
 62
     7
370
     9
100
AcDbLine
 10
304.7226364548143
 20
-355.8857933250633
 30
0.0
 11
295.9447087468328
 21
-364.7849665461359
 31
0.0
  0
TEXT
  5
235
330
1F
100
AcDbEntity
  8
D-5
  6
Continuous
 62
     7
370
     9
100
AcDbText
 10
92.31557072819903
 20
-249.8971332117029
 30
0.0
 40
11.43
  1
アルミ製ボックス
 41
1.145833333333333
  7
ＭＳ ゴシック
100
AcDbText
  0
TEXT
  5
236
330
1F
100
AcDbEntity
  8
D-5
  6
Continuous
 62
     7
370
     9
100
AcDbText
 10
92.3156078441724
 20
-234.2876703705658
 30
0.0
 40
11.43
  1
かさ上げ用
 41
1.133333333333333
  7
ＭＳ ゴシック
100
AcDbText
  0
TEXT
  5
237
330
1F
100
AcDbEntity
  8
D-5
  6
Continuous
 62
     7
370
     9
100
AcDbText
 10
83.16454913165131
 20
-163.8064164115287
 30
0.0
 40
11.43
  1
把手カバー　ｔ＝0.5
 41
1.157894736842105
  7
ＭＳ ゴシック
100
AcDbText
  0
TEXT
  5
238
330
1F
100
AcDbEntity
  8
D-5
  6
Continuous
 62
     7
370
     9
100
AcDbText
 10
100.0380438727303
 20
-185.6518885926942
 30
0.0
 40
11.43
  1
（SUS304　ＨＬ）
 41
1.145833333333333
  7
ＭＳ ゴシック
100
AcDbText
  0
TEXT
  5
239
330
1F
100
AcDbEntity
  8
D-5
  6
Continuous
 62
     7
370
     9
100
AcDbText
 10
118.6033589131124
 20
-378.9997576409417
 30
0.0
 40
11.43
  1
ストッパープレート
 41
1.148148148148148
  7
ＭＳ ゴシック
100
AcDbText
  0
TEXT
  5
23A
330
1F
100
AcDbEntity
  8
D-5
  6
Continuous
 62
     7
370
     9
100
AcDbText
 10
156.5366054225613
 20
-299.5468305927998
 30
0.0
 40
11.43
  1
把手本体
 41
1.125
  7
ＭＳ ゴシック
100
AcDbText
  0
TEXT
  5
23B
330
1F
100
AcDbEntity
  8
D-5
  6
Continuous
 62
     7
370
     9
100
AcDbText
 10
106.8391707136825
 20
-322.1571392657305
 30
0.0
 40
11.43
  1
（強化ナイロン樹脂）
 41
1.15
  7
ＭＳ ゴシック
100
AcDbText
  0
TEXT
  5
23C
330
1F
100
AcDbEntity
  8
D-5
  6
Continuous
 62
     7
370
     9
100
AcDbText
 10
110.8993039388733
 20
-402.442732247016
 30
0.0
 40
11.43
  1
（SUS304　ｔ＝2.5）
 50
359.9999891776649
 41
1.149122807017544
  7
ＭＳ ゴシック
100
AcDbText
  0
TEXT
  5
23D
330
1F
100
AcDbEntity
  8
D-5
  6
Continuous
 62
     7
370
     9
100
AcDbText
 10
319.4744265172631
 20
282.5219931404524
 30
0.0
 40
11.43
  1
クッション
 41
1.133333333333333
  7
ＭＳ ゴシック
100
AcDbText
  0
TEXT
  5
23E
330
1F
100
AcDbEntity
  8
D-5
  6
Continuous
 62
     7
370
     9
100
AcDbText
 10
279.1148500184755
 20
261.4617258762669
 30
0.0
 40
11.43
  1
軟質ポリ塩化ビニル
 41
1.148148148148148
  7
ＭＳ ゴシック
100
AcDbText
  0
TEXT
  5
23F
330
1F
100
AcDbEntity
  8
D-5
  6
Continuous
 62
     7
370
     9
100
AcDbText
 10
179.7618697848065
 20
465.732207295186
 30
0.0
 40
11.43
  1
底板　ｔ＝１．６
 41
1.145833333333333
  7
ＭＳ ゴシック
100
AcDbText
  0
TEXT
  5
240
330
1F
100
AcDbEntity
  8
D-5
  6
Continuous
 62
     7
370
     9
100
AcDbText
 10
179.7618697848065
 20
444.4090548791994
 30
0.0
 40
11.43
  1
溶融亜鉛めっき鋼板
 41
1.148148148148148
  7
ＭＳ ゴシック
100
AcDbText
  0
LINE
  5
241
330
1F
100
AcDbEntity
  8
D-5
  6
Continuous
 62
     7
370
     9
100
AcDbLine
 10
176.1153006703487
 20
460.6350625527872
 30
0.0
 11
341.6436272698479
 21
460.6350625527872
 31
0.0
  0
TEXT
  5
242
330
1F
100
AcDbEntity
  8
F-5
  6
Continuous
 62
     7
370
     9
100
AcDbText
 10
-423.4210472160734
 20
-662.9422163371531
 30
0.0
 40
9.525
  1
フロアーハッチ　フローリング床材用（フローリング厚12.5mm）　屋内用　一般形
 41
1.116756756756757
  7
ＭＳ ゴシック
100
AcDbText
  0
TEXT
  5
243
330
1F
100
AcDbEntity
  8
F-5
  6
Continuous
 62
     7
370
     9
100
AcDbText
 10
-423.5541519783925
 20
-681.2722967789807
 30
0.0
 40
9.525
  1
アルミニウム＋スチール製　アルミニウム目地　一般住宅用　ＭＯＦＯ－３００－１２.５
 41
1.117037037037037
  7
ＭＳ ゴシック
100
AcDbText
  0
ENDSEC
  0
SECTION
  2
OBJECTS
  0
DICTIONARY
  5
C
330
0
100
AcDbDictionary
281
     1
  3
ACAD_GROUP
350
D
  3
ACAD_LAYOUT
350
1A
  3
ACAD_MLEADERSTYLE
350
245
  3
ACAD_MLINESTYLE
350
17
  3
ACAD_PLOTSETTINGS
350
19
  3
ACAD_PLOTSTYLENAME
350
E
  3
ACAD_TABLESTYLE
350
244
  3
ACAD_VISUALSTYLE
350
2A
  0
DICTIONARY
  5
D
102
{ACAD_REACTORS
330
C
102
}
330
C
100
AcDbDictionary
281
     1
  0
DICTIONARY
  5
1A
102
{ACAD_REACTORS
330
C
102
}
330
C
100
AcDbDictionary
281
     1
  3
Layout1
350
1E
  3
Layout2
350
26
  3
Model
350
22
  0
DICTIONARY
  5
245
102
{ACAD_REACTORS
330
C
102
}
330
C
100
AcDbDictionary
281
     1
  0
DICTIONARY
  5
17
102
{ACAD_REACTORS
330
C
102
}
330
C
100
AcDbDictionary
281
     1
  3
Standard
350
18
  0
DICTIONARY
  5
19
102
{ACAD_REACTORS
330
C
102
}
330
C
100
AcDbDictionary
281
     1
  0
ACDBDICTIONARYWDFLT
  5
E
102
{ACAD_REACTORS
330
C
102
}
330
C
100
AcDbDictionary
281
     1
  3
Normal
350
F
100
AcDbDictionaryWithDefault
340
F
  0
DICTIONARY
  5
244
102
{ACAD_REACTORS
330
C
102
}
330
C
100
AcDbDictionary
281
     1
  0
DICTIONARY
  5
2A
102
{ACAD_REACTORS
330
C
102
}
330
C
100
AcDbDictionary
281
     1
  3
2dWireframe
350
2F
  3
3D Hidden
350
31
  3
3dWireframe
350
30
  3
Basic
350
32
  3
Brighten
350
36
  3
ColorChange
350
3A
  3
Conceptual
350
34
  3
Dim
350
35
  3
Facepattern
350
39
  3
Flat
350
2B
  3
FlatWithEdges
350
2C
  3
Gouraud
350
2D
  3
GouraudWithEdges
350
2E
  3
Linepattern
350
38
  3
Realistic
350
33
  3
Thicken
350
37
  0
LAYOUT
  5
1E
102
{ACAD_REACTORS
330
1A
102
}
330
1A
100
AcDbPlotSettings
  1

  2
none_device
  4

  6

 40
0.0
 41
0.0
 42
0.0
 43
0.0
 44
0.0
 45
0.0
 46
0.0
 47
0.0
 48
0.0
 49
0.0
140
0.0
141
0.0
142
1.0
143
1.0
 70
   688
 72
     0
 73
     0
 74
     5
  7

 75
    16
 76
     0
 77
     5
 78
   300
147
1.0
148
0.0
149
0.0
100
AcDbLayout
  1
Layout1
 70
     1
 71
     1
 10
0.0
 20
0.0
 11
420.0
 21
297.0
 12
0.0
 22
0.0
 32
0.0
 14
1.000000000000000E+20
 24
1.000000000000000E+20
 34
1.000000000000000E+20
 15
-1.000000000000000E+20
 25
-1.000000000000000E+20
 35
-1.000000000000000E+20
146
0.0
 13
0.0
 23
0.0
 33
0.0
 16
1.0
 26
0.0
 36
0.0
 17
0.0
 27
1.0
 37
0.0
 76
     0
330
1B
  0
LAYOUT
  5
26
102
{ACAD_REACTORS
330
1A
102
}
330
1A
100
AcDbPlotSettings
  1

  2
none_device
  4

  6

 40
0.0
 41
0.0
 42
0.0
 43
0.0
 44
0.0
 45
0.0
 46
0.0
 47
0.0
 48
0.0
 49
0.0
140
0.0
141
0.0
142
1.0
143
1.0
 70
   688
 72
     0
 73
     0
 74
     5
  7

 75
    16
 76
     0
 77
     5
 78
   300
147
1.0
148
0.0
149
0.0
100
AcDbLayout
  1
Layout2
 70
     1
 71
     2
 10
0.0
 20
0.0
 11
0.0
 21
0.0
 12
0.0
 22
0.0
 32
0.0
 14
0.0
 24
0.0
 34
0.0
 15
0.0
 25
0.0
 35
0.0
146
0.0
 13
0.0
 23
0.0
 33
0.0
 16
1.0
 26
0.0
 36
0.0
 17
0.0
 27
1.0
 37
0.0
 76
     0
330
23
  0
LAYOUT
  5
22
102
{ACAD_REACTORS
330
1A
102
}
330
1A
100
AcDbPlotSettings
  1

  2
none_device
  4

  6

 40
0.0
 41
0.0
 42
0.0
 43
0.0
 44
0.0
 45
0.0
 46
0.0
 47
0.0
 48
0.0
 49
0.0
140
0.0
141
0.0
142
1.0
143
1.0
 70
  1712
 72
     0
 73
     0
 74
     0
  7

 75
     0
 76
     0
 77
     5
 78
   300
147
1.0
148
0.0
149
0.0
100
AcDbLayout
  1
Model
 70
     1
 71
     0
 10
-1050.0
 20
-742.5
 11
1050.0
 21
742.5
 12
0.0
 22
0.0
 32
0.0
 14
-1050.0
 24
-742.5
 34
0.0
 15
1050.0
 25
742.5
 35
0.0
146
0.0
 13
0.0
 23
0.0
 33
0.0
 16
1.0
 26
0.0
 36
0.0
 17
0.0
 27
1.0
 37
0.0
 76
     0
330
1F
331
29
  0
MLINESTYLE
  5
18
102
{ACAD_REACTORS
330
17
102
}
330
17
100
AcDbMlineStyle
  2
Standard
 70
     0
  3

 62
   256
 51
90.0
 52
90.0
 71
     2
 49
0.5
 62
   256
  6
BYLAYER
 49
-0.5
 62
   256
  6
BYLAYER
  0
ACDBPLACEHOLDER
  5
F
102
{ACAD_REACTORS
330
E
102
}
330
E
  0
VISUALSTYLE
  5
2F
102
{ACAD_REACTORS
330
2A
102
}
330
2A
100
AcDbVisualStyle
  2
2dWireframe
 70
     4
 71
     0
 72
     2
 73
     0
 90
        0
 40
-0.6
 41
-30.0
 62
     5
 63
     7
421
 16777215
 74
     1
 91
        4
 64
     7
 65
   257
 75
     1
175
     1
 42
1.0
 92
        0
 66
   257
 43
1.0
 76
     1
 77
     6
 78
     2
 67
     7
 79
     5
170
     0
171
     0
290
     0
174
     0
 93
        1
 44
0.0
173
     0
291
     0
 45
0.0
1001
ACAD
1000
AcDbSavedByObjectVersion
1070
     0
  0
VISUALSTYLE
  5
31
102
{ACAD_REACTORS
330
2A
102
}
330
2A
100
AcDbVisualStyle
  2
3D Hidden
 70
     6
 71
     1
 72
     2
 73
     2
 90
        0
 40
-0.6
 41
-30.0
 62
     5
 63
     7
421
 16777215
 74
     2
 91
        2
 64
     7
 65
   257
 75
     2
175
     1
 42
40.0
 92
        0
 66
   257
 43
1.0
 76
     1
 77
     6
 78
     2
 67
     7
 79
     3
170
     0
171
     0
290
     0
174
     0
 93
        1
 44
0.0
173
     0
291
     0
 45
0.0
1001
ACAD
1000
AcDbSavedByObjectVersion
1070
     0
  0
VISUALSTYLE
  5
30
102
{ACAD_REACTORS
330
2A
102
}
330
2A
100
AcDbVisualStyle
  2
3dWireframe
 70
     5
 71
     0
 72
     2
 73
     0
 90
        0
 40
-0.6
 41
-30.0
 62
     5
 63
     7
421
 16777215
 74
     1
 91
        4
 64
     7
 65
   257
 75
     1
175
     1
 42
1.0
 92
        0
 66
   257
 43
1.0
 76
     1
 77
     6
 78
     2
 67
     7
 79
     5
170
     0
171
     0
290
     0
174
     0
 93
        1
 44
0.0
173
     0
291
     0
 45
0.0
1001
ACAD
1000
AcDbSavedByObjectVersion
1070
     0
  0
VISUALSTYLE
  5
32
102
{ACAD_REACTORS
330
2A
102
}
330
2A
100
AcDbVisualStyle
  2
Basic
 70
     7
 71
     1
 72
     0
 73
     1
 90
        0
 40
-0.6
 41
-30.0
 62
     5
 63
     7
421
 16777215
 74
     0
 91
        4
 64
     7
 65
   257
 75
     1
175
     1
 42
1.0
 92
        8
 66
     7
 43
1.0
 76
     1
 77
     6
 78
     2
 67
     7
 79
     5
170
     0
171
     0
290
     0
174
     0
 93
        1
 44
0.0
173
     0
291
     1
 45
0.0
1001
ACAD
1000
AcDbSavedByObjectVersion
1070
     0
  0
VISUALSTYLE
  5
36
102
{ACAD_REACTORS
330
2A
102
}
330
2A
100
AcDbVisualStyle
  2
Brighten
 70
    12
 71
     2
 72
     2
 73
     0
 90
        0
 40
-0.6
 41
-30.0
 62
     5
 63
     7
421
 16777215
 74
     1
 91
        4
 64
     7
 65
   257
 75
     1
175
     1
 42
1.0
 92
        8
 66
     7
 43
1.0
 76
     1
 77
     6
 78
     2
 67
     7
 79
     5
170
     0
171
     0
290
     0
174
     0
 93
        1
 44
50.0
173
     0
291
     1
 45
0.0
1001
ACAD
1000
AcDbSavedByObjectVersion
1070
     0
  0
VISUALSTYLE
  5
3A
102
{ACAD_REACTORS
330
2A
102
}
330
2A
100
AcDbVisualStyle
  2
ColorChange
 70
    16
 71
     2
 72
     2
 73
     3
 90
        0
 40
-0.6
 41
-30.0
 62
     5
 63
     8
421
  8421504
 74
     1
 91
        4
 64
     7
 65
   257
 75
     1
175
     1
 42
1.0
 92
        8
 66
     8
424
  8421504
 43
1.0
 76
     1
 77
     6
 78
     2
 67
     7
 79
     5
170
     0
171
     0
290
     0
174
     0
 93
        1
 44
0.0
173
     0
291
     1
 45
0.0
1001
ACAD
1000
AcDbSavedByObjectVersion
1070
     0
  0
VISUALSTYLE
  5
34
102
{ACAD_REACTORS
330
2A
102
}
330
2A
100
AcDbVisualStyle
  2
Conceptual
 70
     9
 71
     3
 72
     2
 73
     0
 90
        0
 40
-0.6
 41
-30.0
 62
     5
 63
     7
421
 16777215
 74
     2
 91
        2
 64
     7
 65
   257
 75
     1
175
     1
 42
40.0
 92
        8
 66
     7
 43
1.0
 76
     1
 77
     6
 78
     2
 67
     7
 79
     3
170
     0
171
     0
290
     0
174
     0
 93
        1
 44
0.0
173
     0
291
     0
 45
0.0
1001
ACAD
1000
AcDbSavedByObjectVersion
1070
     0
  0
VISUALSTYLE
  5
35
102
{ACAD_REACTORS
330
2A
102
}
330
2A
100
AcDbVisualStyle
  2
Dim
 70
    11
 71
     2
 72
     2
 73
     0
 90
        0
 40
-0.6
 41
-30.0
 62
     5
 63
     7
421
 16777215
 74
     1
 91
        4
 64
     7
 65
   257
 75
     1
175
     1
 42
1.0
 92
        8
 66
     7
 43
1.0
 76
     1
 77
     6
 78
     2
 67
     7
 79
     5
170
     0
171
     0
290
     0
174
     0
 93
        1
 44
-50.0
173
     0
291
     1
 45
0.0
1001
ACAD
1000
AcDbSavedByObjectVersion
1070
     0
  0
VISUALSTYLE
  5
39
102
{ACAD_REACTORS
330
2A
102
}
330
2A
100
AcDbVisualStyle
  2
Facepattern
 70
    15
 71
     2
 72
     2
 73
     0
 90
        0
 40
-0.6
 41
-30.0
 62
     5
 63
     7
421
 16777215
 74
     1
 91
        4
 64
     7
 65
   257
 75
     1
175
     1
 42
1.0
 92
        8
 66
     7
 43
1.0
 76
     1
 77
     6
 78
     2
 67
     7
 79
     5
170
     0
171
     0
290
     0
174
     0
 93
        1
 44
0.0
173
     0
291
     1
 45
0.0
1001
ACAD
1000
AcDbSavedByObjectVersion
1070
     0
  0
VISUALSTYLE
  5
2B
102
{ACAD_REACTORS
330
2A
102
}
330
2A
100
AcDbVisualStyle
  2
Flat
 70
     0
 71
     2
 72
     1
 73
     1
 90
        2
 40
-0.6
 41
30.0
 62
     5
 63
     7
421
 16777215
 74
     0
 91
        4
 64
     7
 65
   257
 75
     1
175
     1
 42
1.0
 92
        8
 66
     7
 43
1.0
 76
     1
 77
     6
 78
     2
 67
     7
 79
     5
170
     0
171
     0
290
     0
174
     0
 93
       13
 44
0.0
173
     0
291
     1
 45
0.0
1001
ACAD
1000
AcDbSavedByObjectVersion
1070
     0
  0
VISUALSTYLE
  5
2C
102
{ACAD_REACTORS
330
2A
102
}
330
2A
100
AcDbVisualStyle
  2
FlatWithEdges
 70
     1
 71
     2
 72
     1
 73
     1
 90
        2
 40
-0.6
 41
30.0
 62
     5
 63
     7
421
 16777215
 74
     1
 91
        4
 64
     7
 65
   257
 75
     1
175
     1
 42
1.0
 92
        0
 66
   257
 43
1.0
 76
     1
 77
     6
 78
     2
 67
     7
 79
     5
170
     0
171
     0
290
     0
174
     0
 93
       13
 44
0.0
173
     0
291
     1
 45
0.0
1001
ACAD
1000
AcDbSavedByObjectVersion
1070
     0
  0
VISUALSTYLE
  5
2D
102
{ACAD_REACTORS
330
2A
102
}
330
2A
100
AcDbVisualStyle
  2
Gouraud
 70
     2
 71
     2
 72
     2
 73
     1
 90
        2
 40
-0.6
 41
30.0
 62
     5
 63
     7
421
 16777215
 74
     0
 91
        4
 64
     7
 65
   257
 75
     1
175
     1
 42
1.0
 92
        0
 66
     7
 43
1.0
 76
     1
 77
     6
 78
     2
 67
     7
 79
     5
170
     0
171
     0
290
     0
174
     0
 93
       13
 44
0.0
173
     0
291
     1
 45
0.0
1001
ACAD
1000
AcDbSavedByObjectVersion
1070
     0
  0
VISUALSTYLE
  5
2E
102
{ACAD_REACTORS
330
2A
102
}
330
2A
100
AcDbVisualStyle
  2
GouraudWithEdges
 70
     3
 71
     2
 72
     2
 73
     1
 90
        2
 40
-0.6
 41
30.0
 62
     5
 63
     7
421
 16777215
 74
     1
 91
        4
 64
     7
 65
   257
 75
     1
175
     1
 42
1.0
 92
        0
 66
   257
 43
1.0
 76
     1
 77
     6
 78
     2
 67
     7
 79
     5
170
     0
171
     0
290
     0
174
     0
 93
       13
 44
0.0
173
     0
291
     1
 45
0.0
1001
ACAD
1000
AcDbSavedByObjectVersion
1070
     0
  0
VISUALSTYLE
  5
38
102
{ACAD_REACTORS
330
2A
102
}
330
2A
100
AcDbVisualStyle
  2
Linepattern
 70
    14
 71
     2
 72
     2
 73
     0
 90
        0
 40
-0.6
 41
-30.0
 62
     5
 63
     7
421
 16777215
 74
     1
 91
        4
 64
     7
 65
   257
 75
     7
175
     7
 42
1.0
 92
        8
 66
     7
 43
1.0
 76
     1
 77
     6
 78
     2
 67
     7
 79
     5
170
     0
171
     0
290
     0
174
     0
 93
        1
 44
0.0
173
     0
291
     1
 45
0.0
1001
ACAD
1000
AcDbSavedByObjectVersion
1070
     0
  0
VISUALSTYLE
  5
33
102
{ACAD_REACTORS
330
2A
102
}
330
2A
100
AcDbVisualStyle
  2
Realistic
 70
     8
 71
     2
 72
     2
 73
     0
 90
        0
 40
-0.6
 41
-30.0
 62
     5
 63
     7
421
 16777215
 74
     1
 91
        0
 64
     7
 65
   257
 75
     1
175
     1
 42
1.0
 92
        8
 66
     8
424
  7895160
 43
1.0
 76
     1
 77
     6
 78
     2
 67
     7
 79
     5
170
     0
171
     0
290
     0
174
     0
 93
       13
 44
0.0
173
     0
291
     0
 45
0.0
1001
ACAD
1000
AcDbSavedByObjectVersion
1070
     0
  0
VISUALSTYLE
  5
37
102
{ACAD_REACTORS
330
2A
102
}
330
2A
100
AcDbVisualStyle
  2
Thicken
 70
    13
 71
     2
 72
     2
 73
     0
 90
        0
 40
-0.6
 41
-30.0
 62
     5
 63
     7
421
 16777215
 74
     1
 91
        4
 64
     7
 65
   257
 75
     1
175
     1
 42
1.0
 92
       12
 66
     7
 43
1.0
 76
     1
 77
     6
 78
     2
 67
     7
 79
     5
170
     0
171
     0
290
     0
174
     0
 93
        1
 44
0.0
173
     0
291
     1
 45
0.0
1001
ACAD
1000
AcDbSavedByObjectVersion
1070
     0
  0
ENDSEC
  0
EOF
