  0
SECTION
  2
HEADER
  9
$ACADVER
  1
AC1018
  9
$ACADMAINTVER
 70
     0
  9
$DWGCODEPAGE
  3
ANSI_932
  9
$INSBASE
 10
0.0
 20
0.0
 30
0.0
  9
$EXTMIN
 10
-1050.0
 20
-742.5
 30
0.0
  9
$EXTMAX
 10
1050.0
 20
742.5
 30
0.0
  9
$LIMMIN
 10
-1050.0
 20
-742.5
  9
$LIMMAX
 10
1050.0
 20
742.5
  9
$ORTHOMODE
 70
     0
  9
$REGENMODE
 70
     1
  9
$FILLMODE
 70
     1
  9
$QTEXTMODE
 70
     0
  9
$MIRRTEXT
 70
     1
  9
$LTSCALE
 40
5.0
  9
$ATTMODE
 70
     1
  9
$TEXTSIZE
 40
2.5
  9
$TRACEWID
 40
1.0
  9
$TEXTSTYLE
  7
Standard
  9
$CLAYER
  8
0
  9
$CELTYPE
  6
ByLayer
  9
$CECOLOR
 62
   256
  9
$CELTSCALE
 40
1.0
  9
$DISPSILH
 70
     0
  9
$DIMSCALE
 40
1.0
  9
$DIMASZ
 40
2.5
  9
$DIMEXO
 40
0.625
  9
$DIMDLI
 40
3.75
  9
$DIMRND
 40
0.0
  9
$DIMDLE
 40
0.0
  9
$DIMEXE
 40
1.25
  9
$DIMTP
 40
0.0
  9
$DIMTM
 40
0.0
  9
$DIMTXT
 40
2.5
  9
$DIMCEN
 40
2.5
  9
$DIMTSZ
 40
0.0
  9
$DIMTOL
 70
     0
  9
$DIMLIM
 70
     0
  9
$DIMTIH
 70
     0
  9
$DIMTOH
 70
     0
  9
$DIMSE1
 70
     0
  9
$DIMSE2
 70
     0
  9
$DIMTAD
 70
     1
  9
$DIMZIN
 70
     8
  9
$DIMBLK
  1

  9
$DIMASO
 70
     1
  9
$DIMSHO
 70
     1
  9
$DIMPOST
  1

  9
$DIMAPOST
  1

  9
$DIMALT
 70
     0
  9
$DIMALTD
 70
     3
  9
$DIMALTF
 40
0.03937007874016
  9
$DIMLFAC
 40
1.0
  9
$DIMTOFL
 70
     1
  9
$DIMTVP
 40
0.0
  9
$DIMTIX
 70
     0
  9
$DIMSOXD
 70
     0
  9
$DIMSAH
 70
     0
  9
$DIMBLK1
  1

  9
$DIMBLK2
  1

  9
$DIMSTYLE
  2
ISO-25
  9
$DIMCLRD
 70
     0
  9
$DIMCLRE
 70
     0
  9
$DIMCLRT
 70
     0
  9
$DIMTFAC
 40
1.0
  9
$DIMGAP
 40
0.625
  9
$DIMJUST
 70
     0
  9
$DIMSD1
 70
     0
  9
$DIMSD2
 70
     0
  9
$DIMTOLJ
 70
     0
  9
$DIMTZIN
 70
     8
  9
$DIMALTZ
 70
     0
  9
$DIMALTTZ
 70
     0
  9
$DIMUPT
 70
     0
  9
$DIMDEC
 70
     2
  9
$DIMTDEC
 70
     2
  9
$DIMALTU
 70
     2
  9
$DIMALTTD
 70
     3
  9
$DIMTXSTY
  7
Standard
  9
$DIMAUNIT
 70
     0
  9
$DIMADEC
 70
     0
  9
$DIMALTRND
 40
0.0
  9
$DIMAZIN
 70
     0
  9
$DIMDSEP
 70
    44
  9
$DIMATFIT
 70
     3
  9
$DIMFRAC
 70
     0
  9
$DIMLDRBLK
  1

  9
$DIMLUNIT
 70
     2
  9
$DIMLWD
 70
    -2
  9
$DIMLWE
 70
    -2
  9
$DIMTMOVE
 70
     0
  9
$LUNITS
 70
     2
  9
$LUPREC
 70
     4
  9
$SKETCHINC
 40
1.0
  9
$FILLETRAD
 40
10.0
  9
$AUNITS
 70
     0
  9
$AUPREC
 70
     0
  9
$MENU
  1
.
  9
$ELEVATION
 40
0.0
  9
$PELEVATION
 40
0.0
  9
$THICKNESS
 40
0.0
  9
$LIMCHECK
 70
     0
  9
$CHAMFERA
 40
10.0
  9
$CHAMFERB
 40
10.0
  9
$CHAMFERC
 40
20.0
  9
$CHAMFERD
 40
0.0
  9
$SKPOLY
 70
     0
  9
$TDCREATE
 40
2457904.47778434
  9
$TDUCREATE
 40
2457904.10278434
  9
$TDUPDATE
 40
2457904.477784352
  9
$TDUUPDATE
 40
2457904.102784352
  9
$TDINDWG
 40
0.0000000116
  9
$TDUSRTIMER
 40
0.0000000116
  9
$USRTIMER
 70
     1
  9
$ANGBASE
 50
0.0
  9
$ANGDIR
 70
     0
  9
$PDMODE
 70
     0
  9
$PDSIZE
 40
0.0
  9
$PLINEWID
 40
0.0
  9
$SPLFRAME
 70
     0
  9
$SPLINETYPE
 70
     6
  9
$SPLINESEGS
 70
     8
  9
$HANDSEED
  5
26C
  9
$SURFTAB1
 70
     6
  9
$SURFTAB2
 70
     6
  9
$SURFTYPE
 70
     6
  9
$SURFU
 70
     6
  9
$SURFV
 70
     6
  9
$UCSBASE
  2

  9
$UCSNAME
  2

  9
$UCSORG
 10
0.0
 20
0.0
 30
0.0
  9
$UCSXDIR
 10
1.0
 20
0.0
 30
0.0
  9
$UCSYDIR
 10
0.0
 20
1.0
 30
0.0
  9
$UCSORTHOREF
  2

  9
$UCSORTHOVIEW
 70
     0
  9
$UCSORGTOP
 10
0.0
 20
0.0
 30
0.0
  9
$UCSORGBOTTOM
 10
0.0
 20
0.0
 30
0.0
  9
$UCSORGLEFT
 10
0.0
 20
0.0
 30
0.0
  9
$UCSORGRIGHT
 10
0.0
 20
0.0
 30
0.0
  9
$UCSORGFRONT
 10
0.0
 20
0.0
 30
0.0
  9
$UCSORGBACK
 10
0.0
 20
0.0
 30
0.0
  9
$PUCSBASE
  2

  9
$PUCSNAME
  2

  9
$PUCSORG
 10
0.0
 20
0.0
 30
0.0
  9
$PUCSXDIR
 10
1.0
 20
0.0
 30
0.0
  9
$PUCSYDIR
 10
0.0
 20
1.0
 30
0.0
  9
$PUCSORTHOREF
  2

  9
$PUCSORTHOVIEW
 70
     0
  9
$PUCSORGTOP
 10
0.0
 20
0.0
 30
0.0
  9
$PUCSORGBOTTOM
 10
0.0
 20
0.0
 30
0.0
  9
$PUCSORGLEFT
 10
0.0
 20
0.0
 30
0.0
  9
$PUCSORGRIGHT
 10
0.0
 20
0.0
 30
0.0
  9
$PUCSORGFRONT
 10
0.0
 20
0.0
 30
0.0
  9
$PUCSORGBACK
 10
0.0
 20
0.0
 30
0.0
  9
$USERI1
 70
     0
  9
$USERI2
 70
     0
  9
$USERI3
 70
     0
  9
$USERI4
 70
     0
  9
$USERI5
 70
     0
  9
$USERR1
 40
0.0
  9
$USERR2
 40
0.0
  9
$USERR3
 40
0.0
  9
$USERR4
 40
0.0
  9
$USERR5
 40
0.0
  9
$WORLDVIEW
 70
     1
  9
$SHADEDGE
 70
     3
  9
$SHADEDIF
 70
    70
  9
$TILEMODE
 70
     1
  9
$MAXACTVP
 70
    64
  9
$PINSBASE
 10
0.0
 20
0.0
 30
0.0
  9
$PLIMCHECK
 70
     0
  9
$PEXTMIN
 10
1.000000000000000E+20
 20
1.000000000000000E+20
 30
1.000000000000000E+20
  9
$PEXTMAX
 10
-1.000000000000000E+20
 20
-1.000000000000000E+20
 30
-1.000000000000000E+20
  9
$PLIMMIN
 10
0.0
 20
0.0
  9
$PLIMMAX
 10
420.0
 20
297.0
  9
$UNITMODE
 70
     0
  9
$VISRETAIN
 70
     1
  9
$PLINEGEN
 70
     0
  9
$PSLTSCALE
 70
     1
  9
$TREEDEPTH
 70
  3020
  9
$CMLSTYLE
  2
Standard
  9
$CMLJUST
 70
     0
  9
$CMLSCALE
 40
20.0
  9
$PROXYGRAPHICS
 70
     1
  9
$MEASUREMENT
 70
     1
  9
$CELWEIGHT
370
    -1
  9
$ENDCAPS
280
     0
  9
$JOINSTYLE
280
     0
  9
$LWDISPLAY
290
     0
  9
$INSUNITS
 70
     4
  9
$HYPERLINKBASE
  1

  9
$STYLESHEET
  1

  9
$XEDIT
290
     1
  9
$CEPSNTYPE
380
     0
  9
$PSTYLEMODE
290
     1
  9
$FINGERPRINTGUID
  2
{0E71FAC4-A746-40E4-96EE-4EE1A6F046F8}
  9
$VERSIONGUID
  2
{FAEB1C32-E019-11D5-929B-00C0DF256EC4}
  9
$EXTNAMES
290
     1
  9
$PSVPSCALE
 40
0.0
  9
$OLESTARTUP
290
     0
  9
$SORTENTS
280
   127
  9
$INDEXCTL
280
     0
  9
$HIDETEXT
280
     1
  9
$XCLIPFRAME
290
     0
  9
$HALOGAP
280
     0
  9
$OBSCOLOR
 70
   257
  9
$OBSLTYPE
280
     0
  9
$INTERSECTIONDISPLAY
280
     0
  9
$INTERSECTIONCOLOR
 70
   257
  9
$DIMASSOC
280
     2
  9
$PROJECTNAME
  1

  0
ENDSEC
  0
SECTION
  2
CLASSES
  0
CLASS
  1
ACDBDICTIONARYWDFLT
  2
AcDbDictionaryWithDefault
  3
ObjectDBX Classes
 90
        0
 91
        4
280
     0
281
     0
  0
CLASS
  1
VISUALSTYLE
  2
AcDbVisualStyle
  3
ObjectDBX Classes
 90
     4095
 91
        4
280
     0
281
     0
  0
ENDSEC
  0
SECTION
  2
TABLES
  0
TABLE
  2
VPORT
  5
8
330
0
100
AcDbSymbolTable
 70
     1
  0
VPORT
  5
29
330
8
100
AcDbSymbolTableRecord
100
AcDbViewportTableRecord
  2
*Active
 70
     0
 10
0.0
 20
0.0
 11
1.0
 21
1.0
 12
0.0
 22
0.0
 13
0.0
 23
0.0
 14
10.0
 24
10.0
 15
10.0
 25
10.0
 16
0.0
 26
0.0
 36
1.0
 17
0.0
 27
0.0
 37
0.0
 40
1633.5
 41
1.414141414141414
 42
50.0
 43
0.0
 44
0.0
 50
0.0
 51
0.0
 71
     0
 72
 10000
 73
     1
 74
     3
 75
     0
 76
     0
 77
     0
 78
     0
281
     0
 65
     1
110
0.0
120
0.0
130
0.0
111
1.0
121
0.0
131
0.0
112
0.0
122
1.0
132
0.0
 79
     0
146
0.0
  0
ENDTAB
  0
TABLE
  2
LTYPE
  5
5
330
0
100
AcDbSymbolTable
 70
     4
  0
LTYPE
  5
14
330
5
100
AcDbSymbolTableRecord
100
AcDbLinetypeTableRecord
  2
ByBlock
 70
     0
  3

 72
    65
 73
     0
 40
0.0
  0
LTYPE
  5
15
330
5
100
AcDbSymbolTableRecord
100
AcDbLinetypeTableRecord
  2
ByLayer
 70
     0
  3

 72
    65
 73
     0
 40
0.0
  0
LTYPE
  5
16
330
5
100
AcDbSymbolTableRecord
100
AcDbLinetypeTableRecord
  2
Continuous
 70
     0
  3
Solid line
 72
    65
 73
     0
 40
0.0
  0
LTYPE
  5
3C
330
5
100
AcDbSymbolTableRecord
100
AcDbLinetypeTableRecord
  2
JWW_CENTER1
 70
     0
  3
-----  --  ----------  --  -----
 72
    65
 73
     4
 40
6.773333333333333
 49
4.233333333333333
 74
     0
 49
-0.8466666666666667
 74
     0
 49
0.8466666666666667
 74
     0
 49
-0.8466666666666667
 74
     0
  0
LTYPE
  5
3D
330
5
100
AcDbSymbolTableRecord
100
AcDbLinetypeTableRecord
  2
JWW_DASHED3
 70
     0
  3
---  ------  ------  ------  ---
 72
    65
 73
     2
 40
3.386666666666667
 49
2.54
 74
     0
 49
-0.8466666666666667
 74
     0
  0
LTYPE
  5
3E
330
5
100
AcDbSymbolTableRecord
100
AcDbLinetypeTableRecord
  2
JWW_CENTER2
 70
     0
  3
-------------  --  -------------
 72
    65
 73
     4
 40
13.54666666666667
 49
11.00666666666667
 74
     0
 49
-0.8466666666666667
 74
     0
 49
0.8466666666666667
 74
     0
 49
-0.8466666666666667
 74
     0
  0
ENDTAB
  0
TABLE
  2
LAYER
  5
2
330
0
100
AcDbSymbolTable
 70
    10
  0
LAYER
  5
10
330
2
100
AcDbSymbolTableRecord
100
AcDbLayerTableRecord
  2
0
 70
     0
 62
     7
  6
Continuous
370
    -3
390
F
  0
LAYER
  5
3F
330
2
100
AcDbSymbolTableRecord
100
AcDbLayerTableRecord
  2
0-2
 70
     0
 62
     7
  6
Continuous
370
    -3
390
F
  0
LAYER
  5
40
330
2
100
AcDbSymbolTableRecord
100
AcDbLayerTableRecord
  2
0-1
 70
     0
 62
     7
  6
Continuous
370
    -3
390
F
  0
LAYER
  5
41
330
2
100
AcDbSymbolTableRecord
100
AcDbLayerTableRecord
  2
0-4
 70
     0
 62
     7
  6
Continuous
370
    -3
390
F
  0
LAYER
  5
42
330
2
100
AcDbSymbolTableRecord
100
AcDbLayerTableRecord
  2
D-1
 70
     0
 62
     7
  6
Continuous
370
    -3
390
F
  0
LAYER
  5
43
330
2
100
AcDbSymbolTableRecord
100
AcDbLayerTableRecord
  2
D-6
 70
     0
 62
     7
  6
Continuous
370
    -3
390
F
  0
LAYER
  5
44
330
2
100
AcDbSymbolTableRecord
100
AcDbLayerTableRecord
  2
D-4
 70
     0
 62
     7
  6
Continuous
370
    -3
390
F
  0
LAYER
  5
45
330
2
100
AcDbSymbolTableRecord
100
AcDbLayerTableRecord
  2
D-2
 70
     0
 62
     7
  6
Continuous
370
    -3
390
F
  0
LAYER
  5
46
330
2
100
AcDbSymbolTableRecord
100
AcDbLayerTableRecord
  2
D-5
 70
     0
 62
     7
  6
Continuous
370
    -3
390
F
  0
LAYER
  5
47
330
2
100
AcDbSymbolTableRecord
100
AcDbLayerTableRecord
  2
F-5
 70
     0
 62
     7
  6
Continuous
370
    -3
390
F
  0
ENDTAB
  0
TABLE
  2
STYLE
  5
3
330
0
100
AcDbSymbolTable
 70
     2
  0
STYLE
  5
11
330
3
100
AcDbSymbolTableRecord
100
AcDbTextStyleTableRecord
  2
Standard
 70
     0
 40
0.0
 41
1.0
 50
0.0
 71
     0
 42
2.5
  3
txt
  4

1001
ACAD
1000

1071
        0
  0
STYLE
  5
3B
330
3
100
AcDbSymbolTableRecord
100
AcDbTextStyleTableRecord
  2
ＭＳ ゴシック
 70
     0
 40
1.0
 41
1.0
 50
0.0
 71
     0
 42
10.0
  3
msgothic.ttc
  4

1001
ACAD
1000
MS Gothic
1071
    32817
  0
ENDTAB
  0
TABLE
  2
VIEW
  5
6
330
0
100
AcDbSymbolTable
 70
     0
  0
ENDTAB
  0
TABLE
  2
UCS
  5
7
330
0
100
AcDbSymbolTable
 70
     0
  0
ENDTAB
  0
TABLE
  2
APPID
  5
9
330
0
100
AcDbSymbolTable
 70
     1
  0
APPID
  5
12
330
9
100
AcDbSymbolTableRecord
100
AcDbRegAppTableRecord
  2
ACAD
 70
     0
  0
ENDTAB
  0
TABLE
  2
DIMSTYLE
  5
A
330
0
100
AcDbSymbolTable
 70
     1
100
AcDbDimStyleTable
  0
DIMSTYLE
105
27
330
A
100
AcDbSymbolTableRecord
100
AcDbDimStyleTableRecord
  2
ISO-25
 70
     0
 41
2.5
 42
0.625
 43
3.75
 44
1.25
 73
     0
 74
     0
 77
     1
 78
     8
140
2.5
141
2.5
143
0.03937007874016
147
0.625
171
     3
172
     1
271
     2
272
     2
274
     3
278
    44
283
     0
284
     8
340
11
  0
ENDTAB
  0
TABLE
  2
BLOCK_RECORD
  5
1
330
0
100
AcDbSymbolTable
 70
     1
  0
BLOCK_RECORD
  5
1F
330
1
100
AcDbSymbolTableRecord
100
AcDbBlockTableRecord
  2
*Model_Space
340
22
  0
BLOCK_RECORD
  5
1B
330
1
100
AcDbSymbolTableRecord
100
AcDbBlockTableRecord
  2
*Paper_Space
340
1E
  0
BLOCK_RECORD
  5
23
330
1
100
AcDbSymbolTableRecord
100
AcDbBlockTableRecord
  2
*Paper_Space0
340
26
  0
ENDTAB
  0
ENDSEC
  0
SECTION
  2
BLOCKS
  0
BLOCK
  5
20
330
1F
100
AcDbEntity
  8
0
100
AcDbBlockBegin
  2
*Model_Space
 70
     0
 10
0.0
 20
0.0
 30
0.0
  3
*Model_Space
  1

  0
ENDBLK
  5
21
330
1F
100
AcDbEntity
  8
0
100
AcDbBlockEnd
  0
BLOCK
  5
1C
330
1B
100
AcDbEntity
 67
     1
  8
0
100
AcDbBlockBegin
  2
*Paper_Space
 70
     0
 10
0.0
 20
0.0
 30
0.0
  3
*Paper_Space
  1

  0
ENDBLK
  5
1D
330
1B
100
AcDbEntity
 67
     1
  8
0
100
AcDbBlockEnd
  0
BLOCK
  5
24
330
23
100
AcDbEntity
  8
0
100
AcDbBlockBegin
  2
*Paper_Space0
 70
     0
 10
0.0
 20
0.0
 30
0.0
  3
*Paper_Space0
  1

  0
ENDBLK
  5
25
330
23
100
AcDbEntity
  8
0
100
AcDbBlockEnd
  0
ENDSEC
  0
SECTION
  2
ENTITIES
  0
LINE
  5
48
330
1F
100
AcDbEntity
  8
0-2
  6
Continuous
 62
     3
370
     9
100
AcDbLine
 10
-580.6735889331715
 20
276.3267888249578
 30
0.0
 11
-130.6735889331713
 21
276.3267888249578
 31
0.0
  0
LINE
  5
49
330
1F
100
AcDbEntity
  8
0-2
  6
Continuous
 62
     3
370
     9
100
AcDbLine
 10
-130.6735889331713
 20
276.3267888249578
 30
0.0
 11
-130.6735889331713
 21
-173.6732111750422
 31
0.0
  0
LINE
  5
4A
330
1F
100
AcDbEntity
  8
0-2
  6
Continuous
 62
     3
370
     9
100
AcDbLine
 10
-130.6735889331713
 20
-173.6732111750422
 30
0.0
 11
-580.6735889331715
 21
-173.6732111750422
 31
0.0
  0
LINE
  5
4B
330
1F
100
AcDbEntity
  8
0-2
  6
Continuous
 62
     3
370
     9
100
AcDbLine
 10
-580.6735889331715
 20
-173.6732111750422
 30
0.0
 11
-580.6735889331715
 21
276.3267888249578
 31
0.0
  0
LINE
  5
4C
330
1F
100
AcDbEntity
  8
0-1
  6
Continuous
 62
     2
370
     9
100
AcDbLine
 10
-581.1736029547613
 20
-174.1732870565878
 30
0.0
 11
-581.1736029547613
 21
276.8268647065034
 31
0.0
  0
LINE
  5
4D
330
1F
100
AcDbEntity
  8
0-2
  6
Continuous
 62
     3
370
     9
100
AcDbLine
 10
-580.6735889331715
 20
276.3267888249578
 30
0.0
 11
-570.6736796611063
 21
266.3270032728042
 31
0.0
  0
LINE
  5
4E
330
1F
100
AcDbEntity
  8
0-2
  6
Continuous
 62
     3
370
     9
100
AcDbLine
 10
-570.6736796611063
 20
-163.6733019029771
 30
0.0
 11
-570.6736796611063
 21
266.3270032728042
 31
0.0
  0
LINE
  5
4F
330
1F
100
AcDbEntity
  8
0-2
  6
Continuous
 62
     3
370
     9
100
AcDbLine
 10
-570.6736796611063
 20
-163.6733019029771
 30
0.0
 11
-580.6735889331715
 21
-173.6732111750422
 31
0.0
  0
LINE
  5
50
330
1F
100
AcDbEntity
  8
0-2
  6
Continuous
 62
     3
370
     9
100
AcDbLine
 10
-575.673634297139
 20
-168.6733183989654
 30
0.0
 11
-575.673634297139
 21
271.3267723289697
 31
0.0
  0
LINE
  5
51
330
1F
100
AcDbEntity
  8
0-2
  6
Continuous
 62
     3
370
     9
100
AcDbLine
 10
-140.6734982052365
 20
-163.6733019029771
 30
0.0
 11
-570.6736796611063
 21
-163.6733019029771
 31
0.0
  0
LINE
  5
52
330
1F
100
AcDbEntity
  8
0-2
  6
Continuous
 62
     3
370
     9
100
AcDbLine
 10
-140.6734982052365
 20
-163.6733019029771
 30
0.0
 11
-130.6735889331713
 21
-173.6732111750422
 31
0.0
  0
LINE
  5
53
330
1F
100
AcDbEntity
  8
0-2
  6
Continuous
 62
     3
370
     9
100
AcDbLine
 10
-135.6734817092483
 20
-168.6733183989654
 30
0.0
 11
-575.6735724371832
 21
-168.6733183989654
 31
0.0
  0
LINE
  5
54
330
1F
100
AcDbEntity
  8
0-2
  6
Continuous
 62
     3
370
     9
100
AcDbLine
 10
-140.6734982052365
 20
266.3270032728042
 30
0.0
 11
-140.6734982052365
 21
-163.6733019029771
 31
0.0
  0
LINE
  5
55
330
1F
100
AcDbEntity
  8
0-2
  6
Continuous
 62
     3
370
     9
100
AcDbLine
 10
-140.6734982052365
 20
266.3270032728042
 30
0.0
 11
-130.6735889331713
 21
276.3267888249578
 31
0.0
  0
LINE
  5
56
330
1F
100
AcDbEntity
  8
0-2
  6
Continuous
 62
     3
370
     9
100
AcDbLine
 10
-135.6734817092483
 20
271.3267723289697
 30
0.0
 11
-135.6734817092483
 21
-168.673194679054
 31
0.0
  0
LINE
  5
57
330
1F
100
AcDbEntity
  8
0-2
  6
Continuous
 62
     3
370
     9
100
AcDbLine
 10
-570.6736796611063
 20
266.3270032728042
 30
0.0
 11
-140.6734982052365
 21
266.3270032728042
 31
0.0
  0
LINE
  5
58
330
1F
100
AcDbEntity
  8
0-2
  6
Continuous
 62
     3
370
     9
100
AcDbLine
 10
-575.673634297139
 20
271.3270197687923
 30
0.0
 11
-135.6734817092483
 21
271.3270197687923
 31
0.0
  0
LINE
  5
59
330
1F
100
AcDbEntity
  8
0-1
  6
Continuous
 62
     2
370
     9
100
AcDbLine
 10
-591.1735740867821
 20
286.8266502586572
 30
0.0
 11
-581.1736029547613
 21
276.8268647065034
 31
0.0
  0
LINE
  5
5A
330
1F
100
AcDbEntity
  8
0-1
  6
Continuous
 62
     2
370
     9
100
AcDbLine
 10
-581.1736029547613
 20
-174.1732870565878
 30
0.0
 11
-591.1735740867821
 21
-184.1733200485642
 31
0.0
  0
LINE
  5
5B
330
1F
100
AcDbEntity
  8
0-1
  6
Continuous
 62
     2
370
     9
100
AcDbLine
 10
-586.1736813107052
 20
-179.173303552576
 30
0.0
 11
-586.1736813107052
 21
281.8267574825803
 31
0.0
  0
LINE
  5
5C
330
1F
100
AcDbEntity
  8
0-1
  6
Continuous
 62
     2
370
     9
100
AcDbLine
 10
-130.1735130516258
 20
-174.1732870565878
 30
0.0
 11
-581.1735410948057
 21
-174.1732870565878
 31
0.0
  0
LINE
  5
5D
330
1F
100
AcDbEntity
  8
0-1
  6
Continuous
 62
     2
370
     9
100
AcDbLine
 10
-120.1734800596495
 20
-184.1733200485642
 30
0.0
 11
-591.1735740867821
 21
-184.1733200485642
 31
0.0
  0
LINE
  5
5E
330
1F
100
AcDbEntity
  8
0-1
  6
Continuous
 62
     2
370
     9
100
AcDbLine
 10
-130.1735130516258
 20
-174.1732870565878
 30
0.0
 11
-120.1734800596495
 21
-184.1733200485642
 31
0.0
  0
LINE
  5
5F
330
1F
100
AcDbEntity
  8
0-1
  6
Continuous
 62
     2
370
     9
100
AcDbLine
 10
-125.1735584155932
 20
-179.173303552576
 30
0.0
 11
-586.1736813107052
 21
-179.173303552576
 31
0.0
  0
LINE
  5
60
330
1F
100
AcDbEntity
  8
0-1
  6
Continuous
 62
     2
370
     9
100
AcDbLine
 10
-130.1735130516258
 20
276.8268647065034
 30
0.0
 11
-130.1735130516258
 21
-174.1732870565878
 31
0.0
  0
LINE
  5
61
330
1F
100
AcDbEntity
  8
0-1
  6
Continuous
 62
     2
370
     9
100
AcDbLine
 10
-120.1734800596495
 20
286.8266502586572
 30
0.0
 11
-120.1734800596495
 21
-184.1733200485642
 31
0.0
  0
LINE
  5
62
330
1F
100
AcDbEntity
  8
0-1
  6
Continuous
 62
     2
370
     9
100
AcDbLine
 10
-130.1735130516258
 20
276.8268647065034
 30
0.0
 11
-120.1734800596495
 21
286.8266502586572
 31
0.0
  0
LINE
  5
63
330
1F
100
AcDbEntity
  8
0-1
  6
Continuous
 62
     2
370
     9
100
AcDbLine
 10
-125.1735584155932
 20
281.8268812024917
 30
0.0
 11
-125.1735584155932
 21
-179.173303552576
 31
0.0
  0
LINE
  5
64
330
1F
100
AcDbEntity
  8
0-1
  6
Continuous
 62
     2
370
     9
100
AcDbLine
 10
-581.1736029547613
 20
276.8268647065034
 30
0.0
 11
-130.1735130516258
 21
276.8268647065034
 31
0.0
  0
LINE
  5
65
330
1F
100
AcDbEntity
  8
0-1
  6
Continuous
 62
     2
370
     9
100
AcDbLine
 10
-591.1735740867821
 20
286.8266502586572
 30
0.0
 11
-120.1734800596495
 21
286.8266502586572
 31
0.0
  0
LINE
  5
66
330
1F
100
AcDbEntity
  8
0-1
  6
Continuous
 62
     2
370
     9
100
AcDbLine
 10
-586.1736813107052
 20
281.8267574825803
 30
0.0
 11
-125.1735584155932
 21
281.8267574825803
 31
0.0
  0
LINE
  5
67
330
1F
100
AcDbEntity
  8
0-1
  6
Continuous
 62
     2
370
     9
100
AcDbLine
 10
-591.1735740867821
 20
-184.1733200485642
 30
0.0
 11
-591.1735740867821
 21
286.8266502586572
 31
0.0
  0
LINE
  5
68
330
1F
100
AcDbEntity
  8
0-2
  6
Continuous
 62
     3
370
     9
100
AcDbLine
 10
-502.6737522434544
 20
97.32684161211992
 30
0.0
 11
-468.6736029547614
 21
97.32684161211992
 31
0.0
  0
LINE
  5
69
330
1F
100
AcDbEntity
  8
0-2
  6
Continuous
 62
     3
370
     9
100
AcDbLine
 10
-468.1737126530828
 20
5.826935639252611
 30
0.0
 11
-468.1737126530828
 21
96.82676573057435
 31
0.0
  0
LINE
  5
6A
330
1F
100
AcDbEntity
  8
0-2
  6
Continuous
 62
     3
370
     9
100
AcDbLine
 10
-503.1735806851773
 20
5.826935639252611
 30
0.0
 11
-503.1735806851773
 21
96.82676573057435
 31
0.0
  0
LINE
  5
6B
330
1F
100
AcDbEntity
  8
0-2
  6
Continuous
 62
     3
370
     9
100
AcDbLine
 10
-502.6737522434544
 20
5.326859757706899
 30
0.0
 11
-468.6736029547614
 21
5.326859757706899
 31
0.0
  0
LINE
  5
6C
330
1F
100
AcDbEntity
  8
0-2
  6
Continuous
 62
     3
370
     9
100
AcDbLine
 10
-490.6736631651182
 20
18.82680532094597
 30
0.0
 11
-480.6736301731419
 21
18.82680532094597
 31
0.0
  0
LINE
  5
6D
330
1F
100
AcDbEntity
  8
0-2
  6
Continuous
 62
     3
370
     9
100
AcDbLine
 10
-479.6736639899177
 20
82.82686800570104
 30
0.0
 11
-479.6736639899177
 21
19.82695708403725
 31
0.0
  0
LINE
  5
6E
330
1F
100
AcDbEntity
  8
0-2
  6
Continuous
 62
     3
370
     9
100
AcDbLine
 10
-491.6735674883868
 20
82.82686800570104
 30
0.0
 11
-491.6735674883868
 21
19.82695708403725
 31
0.0
  0
LINE
  5
6F
330
1F
100
AcDbEntity
  8
0-2
  6
Continuous
 62
     3
370
     9
100
AcDbLine
 10
-490.6736631651182
 20
83.82677232896967
 30
0.0
 11
-480.6736301731419
 21
83.82677232896967
 31
0.0
  0
LINE
  5
70
330
1F
100
AcDbEntity
  8
0-2
  6
JWW_CENTER1
 62
     3
370
     9
100
AcDbLine
 10
-485.6735229492188
 20
-1.866092166385158
 30
0.0
 11
-485.6735229492188
 21
110.6893343538852
 31
0.0
  0
LINE
  5
71
330
1F
100
AcDbEntity
  8
0-2
  6
Continuous
 62
     3
370
     9
100
AcDbLine
 10
-208.6735493427997
 20
97.32684161211992
 30
0.0
 11
-242.6736367715371
 21
97.32684161211992
 31
0.0
  0
LINE
  5
72
330
1F
100
AcDbEntity
  8
0-2
  6
Continuous
 62
     3
370
     9
100
AcDbLine
 10
-243.1735889331713
 20
5.826935639252611
 30
0.0
 11
-243.1735889331713
 21
96.82676573057435
 31
0.0
  0
LINE
  5
73
330
1F
100
AcDbEntity
  8
0-2
  6
Continuous
 62
     3
370
     9
100
AcDbLine
 10
-208.1736590411211
 20
5.826935639252611
 30
0.0
 11
-208.1736590411211
 21
96.82676573057435
 31
0.0
  0
LINE
  5
74
330
1F
100
AcDbEntity
  8
0-2
  6
Continuous
 62
     3
370
     9
100
AcDbLine
 10
-208.6735493427997
 20
5.326859757706899
 30
0.0
 11
-242.6736367715371
 21
5.326859757706899
 31
0.0
  0
LINE
  5
75
330
1F
100
AcDbEntity
  8
0-2
  6
Continuous
 62
     3
370
     9
100
AcDbLine
 10
-220.6736384211359
 20
18.82680532094597
 30
0.0
 11
-230.6735476932009
 21
18.82680532094597
 31
0.0
  0
LINE
  5
76
330
1F
100
AcDbEntity
  8
0-2
  6
Continuous
 62
     3
370
     9
100
AcDbLine
 10
-231.6735138764253
 20
82.82686800570104
 30
0.0
 11
-231.6735138764253
 21
19.82695708403725
 31
0.0
  0
LINE
  5
77
330
1F
100
AcDbEntity
  8
0-2
  6
Continuous
 62
     3
370
     9
100
AcDbLine
 10
-219.6736722379117
 20
82.82686800570104
 30
0.0
 11
-219.6736722379117
 21
19.82695708403725
 31
0.0
  0
LINE
  5
78
330
1F
100
AcDbEntity
  8
0-2
  6
Continuous
 62
     3
370
     9
100
AcDbLine
 10
-220.6736384211359
 20
83.82677232896967
 30
0.0
 11
-230.6735476932009
 21
83.82677232896967
 31
0.0
  0
LINE
  5
79
330
1F
100
AcDbEntity
  8
0-2
  6
JWW_CENTER1
 62
     3
370
     9
100
AcDbLine
 10
-225.6736549171241
 20
-1.866092166385158
 30
0.0
 11
-225.6736549171241
 21
110.6893343538852
 31
0.0
  0
LINE
  5
7A
330
1F
100
AcDbEntity
  8
0-2
  6
JWW_CENTER1
 62
     3
370
     9
100
AcDbLine
 10
-252.1626446698163
 20
51.32666510504649
 30
0.0
 11
-197.4824647645693
 21
51.32666510504649
 31
0.0
  0
LINE
  5
7B
330
1F
100
AcDbEntity
  8
0-1
  6
JWW_DASHED3
 62
     2
370
     9
100
AcDbLine
 10
-567.1735815099768
 20
-160.1731418918919
 30
0.0
 11
-567.1735815099768
 21
262.8267195418074
 31
0.0
  0
LINE
  5
7C
330
1F
100
AcDbEntity
  8
0-1
  6
JWW_DASHED3
 62
     2
370
     9
100
AcDbLine
 10
-567.1735815099768
 20
262.8267195418074
 30
0.0
 11
-144.1735963563661
 21
262.8267195418074
 31
0.0
  0
LINE
  5
7D
330
1F
100
AcDbEntity
  8
0-1
  6
JWW_DASHED3
 62
     2
370
     9
100
AcDbLine
 10
-144.1735963563661
 20
262.8267195418074
 30
0.0
 11
-144.1735963563661
 21
-160.1731418918919
 31
0.0
  0
LINE
  5
7E
330
1F
100
AcDbEntity
  8
0-1
  6
JWW_DASHED3
 62
     2
370
     9
100
AcDbLine
 10
-144.1735963563661
 20
-160.1731418918919
 30
0.0
 11
-567.1735815099768
 21
-160.1731418918919
 31
0.0
  0
LINE
  5
7F
330
1F
100
AcDbEntity
  8
0-2
  6
JWW_CENTER1
 62
     3
370
     9
100
AcDbLine
 10
-510.6504079457875
 20
51.32666510504649
 30
0.0
 11
-451.4389862885346
 21
51.32666510504649
 31
0.0
  0
LINE
  5
80
330
1F
100
AcDbEntity
  8
0-4
  6
Continuous
 62
     7
370
     9
100
AcDbLine
 10
-567.1735815099768
 20
348.944561932538
 30
0.0
 11
-144.1735963563661
 21
348.944561932538
 31
0.0
  0
LINE
  5
81
330
1F
100
AcDbEntity
  8
0-4
  6
Continuous
 62
     7
370
     9
100
AcDbLine
 10
-567.1735815099768
 20
296.5313638223185
 30
0.0
 11
-567.1735815099768
 21
350.4445421373522
 31
0.0
  0
LINE
  5
82
330
1F
100
AcDbEntity
  8
0-4
  6
Continuous
 62
     7
370
     9
100
AcDbLine
 10
-144.1735963563661
 20
296.5313638223185
 30
0.0
 11
-144.1735963563661
 21
350.4445421373522
 31
0.0
  0
LINE
  5
83
330
1F
100
AcDbEntity
  8
0-4
  6
Continuous
 62
     7
370
     9
100
AcDbLine
 10
-580.6735889331715
 20
387.1919539168076
 30
0.0
 11
-130.6735889331713
 21
387.1919539168076
 31
0.0
  0
LINE
  5
84
330
1F
100
AcDbEntity
  8
0-4
  6
Continuous
 62
     7
370
     9
100
AcDbLine
 10
-580.6735889331715
 20
296.5313638223185
 30
0.0
 11
-580.6735889331715
 21
388.6919341216216
 31
0.0
  0
LINE
  5
85
330
1F
100
AcDbEntity
  8
0-4
  6
Continuous
 62
     7
370
     9
100
AcDbLine
 10
-130.6735889331713
 20
296.5313638223185
 30
0.0
 11
-130.6735889331713
 21
388.6919341216216
 31
0.0
  0
LINE
  5
86
330
1F
100
AcDbEntity
  8
0-4
  6
Continuous
 62
     7
370
     9
100
AcDbLine
 10
-591.1735740867821
 20
417.5072912267737
 30
0.0
 11
-120.1734800596495
 21
417.5072912267737
 31
0.0
  0
LINE
  5
87
330
1F
100
AcDbEntity
  8
0-4
  6
Continuous
 62
     7
370
     9
100
AcDbLine
 10
-591.1735740867821
 20
296.5313638223185
 30
0.0
 11
-591.1735740867821
 21
419.0072714315879
 31
0.0
  0
LINE
  5
88
330
1F
100
AcDbEntity
  8
0-4
  6
Continuous
 62
     7
370
     9
100
AcDbLine
 10
-120.1734800596495
 20
296.5313638223185
 30
0.0
 11
-120.1734800596495
 21
419.0072714315879
 31
0.0
  0
LINE
  5
89
330
1F
100
AcDbEntity
  8
0-4
  6
Continuous
 62
     7
370
     9
100
AcDbLine
 10
-653.2913620407517
 20
-160.1732037518475
 30
0.0
 11
-653.2913620407517
 21
262.8267814017631
 31
0.0
  0
LINE
  5
8A
330
1F
100
AcDbEntity
  8
0-4
  6
Continuous
 62
     7
370
     9
100
AcDbLine
 10
-600.8781639305321
 20
-160.1732037518475
 30
0.0
 11
-654.7913422455658
 21
-160.1732037518475
 31
0.0
  0
LINE
  5
8B
330
1F
100
AcDbEntity
  8
0-4
  6
Continuous
 62
     7
370
     9
100
AcDbLine
 10
-600.8781639305321
 20
262.8267814017631
 30
0.0
 11
-654.7913422455658
 21
262.8267814017631
 31
0.0
  0
LINE
  5
8C
330
1F
100
AcDbEntity
  8
0-4
  6
Continuous
 62
     7
370
     9
100
AcDbLine
 10
-691.538754025021
 20
-173.6732111750422
 30
0.0
 11
-691.538754025021
 21
276.3267888249578
 31
0.0
  0
LINE
  5
8D
330
1F
100
AcDbEntity
  8
0-4
  6
Continuous
 62
     7
370
     9
100
AcDbLine
 10
-600.8781639305321
 20
-173.6732111750422
 30
0.0
 11
-693.0387342298353
 21
-173.6732111750422
 31
0.0
  0
LINE
  5
8E
330
1F
100
AcDbEntity
  8
0-4
  6
Continuous
 62
     7
370
     9
100
AcDbLine
 10
-600.8781639305321
 20
276.3267888249578
 30
0.0
 11
-693.0387342298353
 21
276.3267888249578
 31
0.0
  0
LINE
  5
8F
330
1F
100
AcDbEntity
  8
0-4
  6
Continuous
 62
     7
370
     9
100
AcDbLine
 10
-721.8540913349873
 20
-184.1731963286529
 30
0.0
 11
-721.8540913349873
 21
286.8268976984798
 31
0.0
  0
LINE
  5
90
330
1F
100
AcDbEntity
  8
0-4
  6
Continuous
 62
     7
370
     9
100
AcDbLine
 10
-600.8781639305321
 20
-184.1731963286529
 30
0.0
 11
-723.3540715398016
 21
-184.1731963286529
 31
0.0
  0
LINE
  5
91
330
1F
100
AcDbEntity
  8
0-4
  6
Continuous
 62
     7
370
     9
100
AcDbLine
 10
-600.8781639305321
 20
286.8268976984798
 30
0.0
 11
-723.3540715398016
 21
286.8268976984798
 31
0.0
  0
LINE
  5
92
330
1F
100
AcDbEntity
  8
0-4
  6
Continuous
 62
     7
370
     9
100
AcDbLine
 10
-473.4177048141891
 20
-279.5404630093961
 30
0.0
 11
-211.9878820470861
 21
-279.5404630093961
 31
0.0
  0
LINE
  5
93
330
1F
100
AcDbEntity
  8
D-1
  6
Continuous
 62
     2
370
     9
100
AcDbLine
 10
521.385027911212
 20
412.9054054054055
 30
0.0
 11
521.385027911212
 21
407.9051414695947
 31
0.0
  0
LINE
  5
94
330
1F
100
AcDbEntity
  8
D-1
  6
Continuous
 62
     2
370
     9
100
AcDbLine
 10
521.385027911212
 20
407.9051414695947
 30
0.0
 11
518.8852671030406
 21
407.9051414695947
 31
0.0
  0
LINE
  5
95
330
1F
100
AcDbEntity
  8
D-1
  6
Continuous
 62
     2
370
     9
100
AcDbLine
 10
518.8852671030406
 20
412.9054054054055
 30
0.0
 11
518.8852671030406
 21
407.9051414695947
 31
0.0
  0
LINE
  5
96
330
1F
100
AcDbEntity
  8
D-1
  6
Continuous
 62
     2
370
     9
100
AcDbLine
 10
518.8852671030406
 20
412.9054054054055
 30
0.0
 11
513.8850031672297
 21
412.9054054054055
 31
0.0
  0
LINE
  5
97
330
1F
100
AcDbEntity
  8
D-1
  6
Continuous
 62
     2
370
     9
100
AcDbLine
 10
521.385027911212
 20
366.6551909575591
 30
0.0
 11
518.8852671030406
 21
366.6551909575591
 31
0.0
  0
LINE
  5
98
330
1F
100
AcDbEntity
  8
D-1
  6
Continuous
 62
     2
370
     9
100
AcDbLine
 10
521.385027911212
 20
356.6551579655828
 30
0.0
 11
521.385027911212
 21
366.6551909575591
 31
0.0
  0
LINE
  5
99
330
1F
100
AcDbEntity
  8
D-1
  6
Continuous
 62
     2
370
     9
100
AcDbLine
 10
518.8852671030406
 20
361.6551744615709
 30
0.0
 11
518.8852671030406
 21
366.6551909575591
 31
0.0
  0
LINE
  5
9A
330
1F
100
AcDbEntity
  8
D-1
  6
Continuous
 62
     2
370
     9
100
AcDbLine
 10
513.8850031672297
 20
361.6551744615709
 30
0.0
 11
518.8852671030406
 21
361.6551744615709
 31
0.0
  0
LINE
  5
9B
330
1F
100
AcDbEntity
  8
D-1
  6
Continuous
 62
     2
370
     9
100
AcDbLine
 10
479.3852110166807
 20
361.6551744615709
 30
0.0
 11
510.1350526551943
 21
361.6551744615709
 31
0.0
  0
LINE
  5
9C
330
1F
100
AcDbEntity
  8
D-1
  6
Continuous
 62
     2
370
     9
100
AcDbLine
 10
509.7601813239021
 20
365.4051249736065
 30
0.0
 11
509.7601813239021
 21
361.6551744615709
 31
0.0
  0
LINE
  5
9D
330
1F
100
AcDbEntity
  8
D-1
  6
Continuous
 62
     2
370
     9
100
AcDbLine
 10
522.635217615076
 20
416.6553559174409
 30
0.0
 11
510.1350526551943
 21
416.6553559174409
 31
0.0
  0
LINE
  5
9E
330
1F
100
AcDbEntity
  8
D-1
  6
Continuous
 62
     2
370
     9
100
AcDbLine
 10
535.1351351351352
 20
414.1554713893582
 30
0.0
 11
522.635217615076
 21
416.6553559174409
 31
0.0
  0
LINE
  5
9F
330
1F
100
AcDbEntity
  8
D-1
  6
Continuous
 62
     2
370
     9
100
AcDbLine
 10
535.1351351351352
 20
414.1554713893582
 30
0.0
 11
535.1351351351352
 21
412.9054054054055
 31
0.0
  0
LINE
  5
A0
330
1F
100
AcDbEntity
  8
D-1
  6
Continuous
 62
     2
370
     9
100
AcDbLine
 10
535.1351351351352
 20
412.9054054054055
 30
0.0
 11
521.385027911212
 21
412.9054054054055
 31
0.0
  0
LINE
  5
A1
330
1F
100
AcDbEntity
  8
D-1
  6
Continuous
 62
     2
370
     9
100
AcDbLine
 10
479.7600823479732
 20
365.4051249736065
 30
0.0
 11
509.7601813239021
 21
365.4051249736065
 31
0.0
  0
LINE
  5
A2
330
1F
100
AcDbEntity
  8
D-1
  6
Continuous
 62
     2
370
     9
100
AcDbLine
 10
479.3852110166807
 20
365.9052008551521
 30
0.0
 11
479.3852110166807
 21
361.6551744615709
 31
0.0
  0
LINE
  5
A3
330
1F
100
AcDbEntity
  8
D-1
  6
Continuous
 62
     2
370
     9
100
AcDbLine
 10
479.3852110166807
 20
365.9052008551521
 30
0.0
 11
475.6351367847341
 21
365.9052008551521
 31
0.0
  0
LINE
  5
A4
330
1F
100
AcDbEntity
  8
D-1
  6
Continuous
 62
     2
370
     9
100
AcDbLine
 10
475.6351367847341
 20
365.9052008551521
 30
0.0
 11
475.6351367847341
 21
356.6551579655828
 31
0.0
  0
LINE
  5
A5
330
1F
100
AcDbEntity
  8
D-1
  6
Continuous
 62
     2
370
     9
100
AcDbLine
 10
516.0101400839318
 20
390.2802503431167
 30
0.0
 11
543.4684134818415
 21
390.2802503431167
 31
0.0
  0
LINE
  5
A6
330
1F
100
AcDbEntity
  8
D-1
  6
Continuous
 62
     2
370
     9
100
AcDbLine
 10
516.0101400839318
 20
400.5304449957771
 30
0.0
 11
543.4684134818415
 21
400.5304449957771
 31
0.0
  0
LINE
  5
A7
330
1F
100
AcDbEntity
  8
D-1
  6
Continuous
 62
     2
370
     9
100
AcDbLine
 10
548.861364416174
 20
391.3417671822214
 30
0.0
 11
554.3795199007602
 21
398.5266773120777
 31
0.0
  0
LINE
  5
A8
330
1F
100
AcDbEntity
  8
D-1
  6
Continuous
 62
     2
370
     9
100
AcDbLine
 10
535.5465038402662
 20
390.2802503431167
 30
0.0
 11
543.4181831978464
 21
400.5304449957771
 31
0.0
  0
LINE
  5
A9
330
1F
100
AcDbEntity
  8
D-1
  6
Continuous
 62
     2
370
     9
100
AcDbLine
 10
523.0465863202071
 20
390.2802503431167
 30
0.0
 11
530.9182656777873
 21
400.5304449957771
 31
0.0
  0
LINE
  5
AA
330
1F
100
AcDbEntity
  8
D-1
  6
Continuous
 62
     2
370
     9
100
AcDbLine
 10
516.0101400839318
 20
397.394640123522
 30
0.0
 11
518.4183481577281
 21
400.5304449957771
 31
0.0
  0
LINE
  5
AB
330
1F
100
AcDbEntity
  8
D-1
  6
Continuous
 62
     2
370
     9
100
AcDbLine
 10
479.7600823479732
 20
365.4051249736065
 30
0.0
 11
479.7600823479732
 21
361.6551744615709
 31
0.0
  0
LINE
  5
AC
330
1F
100
AcDbEntity
  8
D-1
  6
Continuous
 62
     2
370
     9
100
AcDbLine
 10
508.3851582295188
 20
356.6551579655828
 30
0.0
 11
507.1350922455659
 21
357.9052239495355
 31
0.0
  0
LINE
  5
AD
330
1F
100
AcDbEntity
  8
D-1
  6
Continuous
 62
     2
370
     9
100
AcDbLine
 10
484.3851037927575
 20
357.9052239495355
 30
0.0
 11
507.1350922455659
 21
357.9052239495355
 31
0.0
  0
LINE
  5
AE
330
1F
100
AcDbEntity
  8
D-1
  6
Continuous
 62
     2
370
     9
100
AcDbLine
 10
483.1352852486276
 20
356.6551579655828
 30
0.0
 11
484.3851037927575
 21
357.9052239495355
 31
0.0
  0
LINE
  5
AF
330
1F
100
AcDbEntity
  8
D-1
  6
Continuous
 62
     2
370
     9
100
AcDbLine
 10
543.4684134818415
 20
390.2802503431167
 30
0.0
 11
572.4045212204394
 21
395.4054713893582
 31
0.0
  0
LINE
  5
B0
330
1F
100
AcDbEntity
  8
D-1
  6
Continuous
 62
     2
370
     9
100
AcDbLine
 10
543.4684134818415
 20
400.5304449957771
 30
0.0
 11
572.4045212204394
 21
395.4054713893582
 31
0.0
  0
LINE
  5
B1
330
1F
100
AcDbEntity
  8
D-1
  6
Continuous
 62
     2
370
     9
100
AcDbLine
 10
563.2350199931377
 20
393.7812763935812
 30
0.0
 11
565.4309246991133
 21
396.6404435441301
 31
0.0
  0
LINE
  5
B2
330
1F
100
AcDbEntity
  8
D-1
  6
Continuous
 62
     2
370
     9
100
AcDbLine
 10
523.8849124392948
 20
412.4053295238599
 30
0.0
 11
523.8849124392948
 21
400.5304449957771
 31
0.0
  0
LINE
  5
B3
330
1F
100
AcDbEntity
  8
D-6
  6
Continuous
 62
     6
370
     5
100
AcDbLine
 10
475.6351367847341
 20
356.6551579655828
 30
0.0
 11
475.6351367847341
 21
258.6710914405617
 31
0.0
  0
LINE
  5
B4
330
1F
100
AcDbEntity
  8
D-6
  6
Continuous
 62
     6
370
     5
100
AcDbLine
 10
475.8851747255068
 20
315.1547983530406
 30
0.0
 11
517.385534338049
 21
356.6551579655828
 31
0.0
  0
LINE
  5
B5
330
1F
100
AcDbEntity
  8
D-6
  6
Continuous
 62
     6
370
     5
100
AcDbLine
 10
475.6351367847341
 20
350.2600757495777
 30
0.0
 11
482.0300952808279
 21
356.6551579655828
 31
0.0
  0
LINE
  5
B6
330
1F
100
AcDbEntity
  8
D-1
  6
Continuous
 62
     2
370
     9
100
AcDbLine
 10
523.8849124392948
 20
390.2802503431167
 30
0.0
 11
523.8849124392948
 21
381.1554120038008
 31
0.0
  0
LINE
  5
B7
330
1F
100
AcDbEntity
  8
D-1
  6
Continuous
 62
     2
370
     9
100
AcDbLine
 10
182.0810678842906
 20
356.6551579655828
 30
0.0
 11
521.385027911212
 21
356.6551579655828
 31
0.0
  0
LINE
  5
B8
330
1F
100
AcDbEntity
  8
D-6
  6
Continuous
 62
     6
370
     5
100
AcDbLine
 10
523.8849124392948
 20
258.6710914405617
 30
0.0
 11
523.8849124392948
 21
381.1554120038008
 31
0.0
  0
LINE
  5
B9
330
1F
100
AcDbEntity
  8
D-6
  6
Continuous
 62
     6
370
     5
100
AcDbLine
 10
598.8849124392948
 20
381.1554120038008
 30
0.0
 11
598.8849124392948
 21
306.1554120038008
 31
0.0
  0
LINE
  5
BA
330
1F
100
AcDbEntity
  8
D-6
  6
Continuous
 62
     6
370
     5
100
AcDbLine
 10
598.8849124392948
 20
306.1554120038008
 30
0.0
 11
523.8849124392948
 21
306.1554120038008
 31
0.0
  0
LINE
  5
BB
330
1F
100
AcDbEntity
  8
D-6
  6
Continuous
 62
     6
370
     5
100
AcDbLine
 10
523.8849124392948
 20
381.1554120038008
 30
0.0
 11
598.8849124392948
 21
306.1554120038008
 31
0.0
  0
LINE
  5
BC
330
1F
100
AcDbEntity
  8
D-6
  6
Continuous
 62
     6
370
     5
100
AcDbLine
 10
598.8849124392948
 20
381.1554120038008
 30
0.0
 11
523.8849124392948
 21
306.1554120038008
 31
0.0
  0
LINE
  5
BD
330
1F
100
AcDbEntity
  8
D-6
  6
Continuous
 62
     6
370
     5
100
AcDbLine
 10
566.9380806587839
 20
340.1459729993667
 30
0.0
 11
561.5998139252533
 21
337.4770870724241
 31
0.0
  0
LINE
  5
BE
330
1F
100
AcDbEntity
  8
D-6
  6
Continuous
 62
     6
370
     5
100
AcDbLine
 10
561.5998139252533
 20
337.4770870724241
 30
0.0
 11
554.1856507997255
 21
339.5531071843328
 31
0.0
  0
LINE
  5
BF
330
1F
100
AcDbEntity
  8
D-6
  6
Continuous
 62
     6
370
     5
100
AcDbLine
 10
554.1856507997255
 20
339.5531071843328
 30
0.0
 11
552.999548009924
 21
345.1878068253801
 31
0.0
  0
LINE
  5
C0
330
1F
100
AcDbEntity
  8
D-6
  6
Continuous
 62
     6
370
     5
100
AcDbLine
 10
552.999548009924
 20
345.1878068253801
 30
0.0
 11
554.7787640545821
 21
351.1191868137669
 31
0.0
  0
LINE
  5
C1
330
1F
100
AcDbEntity
  8
D-6
  6
Continuous
 62
     6
370
     5
100
AcDbLine
 10
554.7787640545821
 20
351.1191868137669
 30
0.0
 11
558.9308042783995
 21
352.6020936708193
 31
0.0
  0
LINE
  5
C2
330
1F
100
AcDbEntity
  8
D-6
  6
Continuous
 62
     6
370
     5
100
AcDbLine
 10
558.9308042783995
 20
352.6020936708193
 30
0.0
 11
566.6415240313557
 21
351.1191868137669
 31
0.0
  0
LINE
  5
C3
330
1F
100
AcDbEntity
  8
D-6
  6
Continuous
 62
     6
370
     5
100
AcDbLine
 10
566.6415240313557
 20
351.1191868137669
 30
0.0
 11
569.9037706529773
 21
346.077600427576
 31
0.0
  0
LINE
  5
C4
330
1F
100
AcDbEntity
  8
D-6
  6
Continuous
 62
     6
370
     5
100
AcDbLine
 10
569.9037706529773
 20
346.077600427576
 30
0.0
 11
566.9380806587839
 21
340.1459729993667
 31
0.0
  0
LINE
  5
C5
330
1F
100
AcDbEntity
  8
D-6
  6
Continuous
 62
     6
370
     5
100
AcDbLine
 10
538.0058082374367
 20
352.9306937552788
 30
0.0
 11
548.3857850770693
 21
358.5656408361487
 31
0.0
  0
LINE
  5
C6
330
1F
100
AcDbEntity
  8
D-6
  6
Continuous
 62
     6
370
     5
100
AcDbLine
 10
548.3857850770693
 20
358.5656408361487
 30
0.0
 11
559.0623185441302
 21
360.6414135082349
 31
0.0
  0
LINE
  5
C7
330
1F
100
AcDbEntity
  8
D-6
  6
Continuous
 62
     6
370
     5
100
AcDbLine
 10
559.0623185441302
 20
360.6414135082349
 30
0.0
 11
579.5252207163219
 21
356.4893732844173
 31
0.0
  0
LINE
  5
C8
330
1F
100
AcDbEntity
  8
D-6
  6
Continuous
 62
     6
370
     5
100
AcDbLine
 10
579.5252207163219
 20
356.4893732844173
 30
0.0
 11
586.6428272144217
 21
346.4062005120355
 31
0.0
  0
LINE
  5
C9
330
1F
100
AcDbEntity
  8
D-6
  6
Continuous
 62
     6
370
     5
100
AcDbLine
 10
586.6428272144217
 20
346.4062005120355
 30
0.0
 11
587.8288062843117
 21
334.5434405352619
 31
0.0
  0
LINE
  5
CA
330
1F
100
AcDbEntity
  8
D-6
  6
Continuous
 62
     6
370
     5
100
AcDbLine
 10
587.8288062843117
 20
334.5434405352619
 30
0.0
 11
572.1109338708828
 21
328.9087408942146
 31
0.0
  0
LINE
  5
CB
330
1F
100
AcDbEntity
  8
D-6
  6
Continuous
 62
     6
370
     5
100
AcDbLine
 10
572.1109338708828
 20
328.9087408942146
 30
0.0
 11
557.5792879671665
 21
328.9087408942146
 31
0.0
  0
LINE
  5
CC
330
1F
100
AcDbEntity
  8
D-6
  6
Continuous
 62
     6
370
     5
100
AcDbLine
 10
557.5792879671665
 20
328.9087408942146
 30
0.0
 11
543.3440749709672
 21
335.7299144847974
 31
0.0
  0
LINE
  5
CD
330
1F
100
AcDbEntity
  8
D-6
  6
Continuous
 62
     6
370
     5
100
AcDbLine
 10
543.3440749709672
 20
335.7299144847974
 30
0.0
 11
538.0058082374367
 21
352.9306937552788
 31
0.0
  0
LINE
  5
CE
330
1F
100
AcDbEntity
  8
D-6
  6
Continuous
 62
     6
370
     5
100
AcDbLine
 10
548.0892284496412
 20
368.6485661687078
 30
0.0
 11
559.3586277317356
 21
369.5383597709038
 31
0.0
  0
LINE
  5
CF
330
1F
100
AcDbEntity
  8
D-6
  6
Continuous
 62
     6
370
     5
100
AcDbLine
 10
592.2775268554688
 20
360.0483002533784
 30
0.0
 11
596.7259999868033
 21
334.5434405352619
 31
0.0
  0
LINE
  5
D0
330
1F
100
AcDbEntity
  8
D-6
  6
Continuous
 62
     6
370
     5
100
AcDbLine
 10
596.7259999868033
 20
334.5434405352619
 30
0.0
 11
575.0767475849875
 21
313.7839817356419
 31
0.0
  0
LINE
  5
D1
330
1F
100
AcDbEntity
  8
D-6
  6
Continuous
 62
     6
370
     5
100
AcDbLine
 10
575.0767475849875
 20
313.7839817356419
 30
0.0
 11
554.6134742530617
 21
314.9702082453548
 31
0.0
  0
LINE
  5
D2
330
1F
100
AcDbEntity
  8
D-6
  6
Continuous
 62
     6
370
     5
100
AcDbLine
 10
554.6134742530617
 20
314.9702082453548
 30
0.0
 11
538.3024885847763
 21
324.756700670397
 31
0.0
  0
LINE
  5
D3
330
1F
100
AcDbEntity
  8
D-6
  6
Continuous
 62
     6
370
     5
100
AcDbLine
 10
538.3024885847763
 20
324.756700670397
 30
0.0
 11
526.8819035710516
 21
364.3208436708193
 31
0.0
  0
LINE
  5
D4
330
1F
100
AcDbEntity
  8
D-6
  6
Continuous
 62
     6
370
     5
100
AcDbLine
 10
526.8819035710516
 20
364.3208436708193
 30
0.0
 11
548.0892284496412
 21
368.6485661687078
 31
0.0
  0
LINE
  5
D5
330
1F
100
AcDbEntity
  8
D-6
  6
Continuous
 62
     6
370
     5
100
AcDbLine
 10
536.4527521906672
 20
378.6545377164275
 30
0.0
 11
558.1946708060602
 21
380.5105838260135
 31
0.0
  0
LINE
  5
D6
330
1F
100
AcDbEntity
  8
D-6
  6
Continuous
 62
     6
370
     5
100
AcDbLine
 10
586.5651311101141
 20
377.8592661264781
 30
0.0
 11
597.7011603278083
 21
370.4350816881334
 31
0.0
  0
LINE
  5
D7
330
1F
100
AcDbEntity
  8
D-6
  6
Continuous
 62
     6
370
     5
100
AcDbLine
 10
523.8849124392948
 20
343.7397889833193
 30
0.0
 11
529.5589550121412
 21
322.1786251583616
 31
0.0
  0
LINE
  5
D8
330
1F
100
AcDbEntity
  8
D-6
  6
Continuous
 62
     6
370
     5
100
AcDbLine
 10
523.8849124392948
 20
373.1561774176521
 30
0.0
 11
536.4527521906672
 21
378.6545377164275
 31
0.0
  0
LINE
  5
D9
330
1F
100
AcDbEntity
  8
D-6
  6
Continuous
 62
     6
370
     5
100
AcDbLine
 10
529.5589550121412
 20
322.1786251583616
 30
0.0
 11
545.0892680400127
 21
306.1554120038008
 31
0.0
  0
LINE
  5
DA
330
1F
100
AcDbEntity
  8
D-6
  6
Continuous
 62
     6
370
     5
100
AcDbLine
 10
587.6256581899283
 20
308.6562862911741
 30
0.0
 11
573.8704784496412
 21
306.1554120038008
 31
0.0
  0
LINE
  5
DB
330
1F
100
AcDbEntity
  8
D-6
  6
Continuous
 62
     6
370
     5
100
AcDbLine
 10
598.8849124392948
 20
318.4284272065034
 30
0.0
 11
587.6256581899283
 21
308.6562862911741
 31
0.0
  0
LINE
  5
DC
330
1F
100
AcDbEntity
  8
D-6
  6
Continuous
 62
     6
370
     5
100
AcDbLine
 10
597.7011603278083
 20
370.4350816881334
 30
0.0
 11
598.8849124392948
 21
366.7445167335305
 31
0.0
  0
LINE
  5
DD
330
1F
100
AcDbEntity
  8
D-6
  6
Continuous
 62
     6
370
     5
100
AcDbLine
 10
559.3586277317356
 20
369.5383597709038
 30
0.0
 11
582.194354083087
 21
367.7590200063345
 31
0.0
  0
LINE
  5
DE
330
1F
100
AcDbEntity
  8
D-6
  6
Continuous
 62
     6
370
     5
100
AcDbLine
 10
592.2775268554688
 20
360.0483002533784
 30
0.0
 11
582.194354083087
 21
367.7590200063345
 31
0.0
  0
LINE
  5
DF
330
1F
100
AcDbEntity
  8
D-6
  6
Continuous
 62
     6
370
     5
100
AcDbLine
 10
558.1946708060602
 20
380.5105838260135
 30
0.0
 11
586.5651311101141
 21
377.8592661264781
 31
0.0
  0
LINE
  5
E0
330
1F
100
AcDbEntity
  8
D-1
  6
Continuous
 62
     2
370
     9
100
AcDbLine
 10
516.0101400839318
 20
400.5304449957771
 30
0.0
 11
516.0101400839318
 21
390.2802503431167
 31
0.0
  0
LINE
  5
E1
330
1F
100
AcDbEntity
  8
D-6
  6
Continuous
 62
     6
370
     5
100
AcDbLine
 10
636.0199387009081
 20
393.6553295238599
 30
0.0
 11
563.2350199931377
 21
393.6553295238599
 31
0.0
  0
LINE
  5
E2
330
1F
100
AcDbEntity
  8
D-6
  6
Continuous
 62
     6
370
     5
100
AcDbLine
 10
636.0199387009081
 20
399.9054120038008
 30
0.0
 11
546.9977713919977
 21
399.9054120038008
 31
0.0
  0
LINE
  5
E3
330
1F
100
AcDbEntity
  8
D-1
  6
Continuous
 62
     2
370
     9
100
AcDbLine
 10
510.1350526551943
 20
416.6553559174409
 30
0.0
 11
510.1350526551943
 21
361.6551744615709
 31
0.0
  0
LINE
  5
E4
330
1F
100
AcDbEntity
  8
D-1
  6
Continuous
 62
     2
370
     9
100
AcDbLine
 10
510.1350526551943
 20
405.6554186021959
 30
0.0
 11
516.0101400839318
 21
400.5304449957771
 31
0.0
  0
LINE
  5
E5
330
1F
100
AcDbEntity
  8
D-1
  6
Continuous
 62
     2
370
     9
100
AcDbLine
 10
516.0101400839318
 20
390.2802503431167
 30
0.0
 11
510.1350526551943
 21
385.1552767366977
 31
0.0
  0
LINE
  5
E6
330
1F
100
AcDbEntity
  8
D-1
  6
Continuous
 62
     2
370
     9
100
AcDbLine
 10
513.8850031672297
 20
388.4266786317568
 30
0.0
 11
513.8850031672297
 21
361.6551744615709
 31
0.0
  0
LINE
  5
E7
330
1F
100
AcDbEntity
  8
D-1
  6
Continuous
 62
     2
370
     9
100
AcDbLine
 10
513.8850031672297
 20
412.9054054054055
 30
0.0
 11
513.8850031672297
 21
402.3840167071369
 31
0.0
  0
LINE
  5
E8
330
1F
100
AcDbEntity
  8
D-4
  6
Continuous
 62
     7
370
     9
100
AcDbLine
 10
229.780166213577
 20
161.3155839249895
 30
0.0
 11
491.20998898068
 21
161.3155839249895
 31
0.0
  0
LINE
  5
E9
330
1F
100
AcDbEntity
  8
D-4
  6
Continuous
 62
     7
370
     9
100
AcDbLine
 10
509.4412313925255
 20
-464.919903729413
 30
0.0
 11
252.5576204866977
 21
-464.919903729413
 31
0.0
  0
LINE
  5
EA
330
1F
100
AcDbEntity
  8
D-4
  6
Continuous
 62
     7
370
     9
100
AcDbLine
 10
142.1747156091639
 20
331.1621753589527
 30
0.0
 11
142.1747156091639
 21
412.4053295238599
 31
0.0
  0
LINE
  5
EB
330
1F
100
AcDbEntity
  8
D-4
  6
Continuous
 62
     7
370
     9
100
AcDbLine
 10
177.0486367715372
 20
370.9054647909629
 30
0.0
 11
140.6747354043497
 21
370.9054647909629
 31
0.0
  0
LINE
  5
EC
330
1F
100
AcDbEntity
  8
D-4
  6
Continuous
 62
     7
370
     9
100
AcDbLine
 10
177.0486367715372
 20
374.9053295238599
 30
0.0
 11
140.6747354043497
 21
374.9053295238599
 31
0.0
  0
LINE
  5
ED
330
1F
100
AcDbEntity
  8
D-4
  6
Continuous
 62
     7
370
     9
100
AcDbLine
 10
177.0486367715372
 20
412.4053295238599
 30
0.0
 11
140.6747354043497
 21
412.4053295238599
 31
0.0
  0
LINE
  5
EE
330
1F
100
AcDbEntity
  8
D-4
  6
Continuous
 62
     7
370
     9
100
AcDbLine
 10
680.3931983741554
 20
356.6551579655828
 30
0.0
 11
680.3931983741554
 21
453.6172980231208
 31
0.0
  0
LINE
  5
EF
330
1F
100
AcDbEntity
  8
D-4
  6
Continuous
 62
     7
370
     9
100
AcDbLine
 10
527.012180637669
 20
356.6551579655828
 30
0.0
 11
681.893302298881
 21
356.6551579655828
 31
0.0
  0
LINE
  5
F0
330
1F
100
AcDbEntity
  8
D-4
  6
Continuous
 62
     7
370
     9
100
AcDbLine
 10
639.6840275944891
 20
412.9054054054055
 30
0.0
 11
681.893302298881
 21
412.9054054054055
 31
0.0
  0
LINE
  5
F1
330
1F
100
AcDbEntity
  8
D-4
  6
Continuous
 62
     7
370
     9
100
AcDbLine
 10
531.4075779270481
 20
416.6553559174409
 30
0.0
 11
681.893302298881
 21
416.6553559174409
 31
0.0
  0
LINE
  5
F2
330
1F
100
AcDbEntity
  8
D-6
  6
Continuous
 62
     6
370
     5
100
AcDbLine
 10
490.1123459274706
 20
258.6710914405617
 30
0.0
 11
523.8849124392948
 21
292.4441528320312
 31
0.0
  0
LINE
  5
F3
330
1F
100
AcDbEntity
  8
D-6
  6
Continuous
 62
     6
370
     5
100
AcDbLine
 10
475.6351367847341
 20
279.5495069349136
 30
0.0
 11
523.8849124392948
 21
327.79934444943
 31
0.0
  0
LINE
  5
F4
330
1F
100
AcDbEntity
  8
D-6
  6
Continuous
 62
     6
370
     5
100
AcDbLine
 10
521.385027911212
 20
356.6551579655828
 30
0.0
 11
523.8849124392948
 21
356.6551579655828
 31
0.0
  0
LINE
  5
F5
330
1F
100
AcDbEntity
  8
D-6
  6
Continuous
 62
     6
370
     5
100
AcDbLine
 10
636.0199387009081
 20
406.155247043919
 30
0.0
 11
523.8849124392948
 21
406.155247043919
 31
0.0
  0
LINE
  5
F6
330
1F
100
AcDbEntity
  8
D-6
  6
Continuous
 62
     6
370
     5
100
AcDbLine
 10
636.0199387009081
 20
412.4053295238599
 30
0.0
 11
523.8849124392948
 21
412.4053295238599
 31
0.0
  0
LINE
  5
F7
330
1F
100
AcDbEntity
  8
D-6
  6
Continuous
 62
     6
370
     5
100
AcDbLine
 10
636.0199387009081
 20
387.405247043919
 30
0.0
 11
523.8849124392948
 21
387.405247043919
 31
0.0
  0
LINE
  5
F8
330
1F
100
AcDbEntity
  8
D-6
  6
Continuous
 62
     6
370
     5
100
AcDbLine
 10
523.8849124392948
 20
381.1554120038008
 30
0.0
 11
636.0199387009081
 21
381.1554120038008
 31
0.0
  0
LINE
  5
F9
330
1F
100
AcDbEntity
  8
D-1
  6
Continuous
 62
     2
370
     9
100
AcDbLine
 10
504.6937272355365
 20
361.6551744615709
 30
0.0
 11
508.4435540276607
 21
365.4051249736065
 31
0.0
  0
LINE
  5
FA
330
1F
100
AcDbEntity
  8
D-1
  6
Continuous
 62
     2
370
     9
100
AcDbLine
 10
492.1936859955659
 20
361.6551744615709
 30
0.0
 11
495.9437602275128
 21
365.4051249736065
 31
0.0
  0
LINE
  5
FB
330
1F
100
AcDbEntity
  8
D-1
  6
Continuous
 62
     2
370
     9
100
AcDbLine
 10
479.7600823479732
 20
361.7214883340372
 30
0.0
 11
483.4438427074537
 21
365.4051249736065
 31
0.0
  0
LINE
  5
FC
330
1F
100
AcDbEntity
  8
D-4
  6
Continuous
 62
     7
370
     9
100
AcDbLine
 10
483.8851516311234
 20
471.4462032833616
 30
0.0
 11
508.8852341110643
 21
471.4462032833616
 31
0.0
  0
LINE
  5
FD
330
1F
100
AcDbEntity
  8
D-4
  6
Continuous
 62
     7
370
     9
100
AcDbLine
 10
483.8851516311234
 20
422.543557656778
 30
0.0
 11
483.8851516311234
 21
472.9461834881758
 31
0.0
  0
LINE
  5
FE
330
1F
100
AcDbEntity
  8
D-4
  6
Continuous
 62
     7
370
     9
100
AcDbLine
 10
508.8852341110643
 20
422.543557656778
 30
0.0
 11
508.8852341110643
 21
512.4217430320947
 31
0.0
  0
LINE
  5
FF
330
1F
100
AcDbEntity
  8
D-4
  6
Continuous
 62
     7
370
     9
100
AcDbLine
 10
182.0810678842906
 20
510.9217628272805
 30
0.0
 11
535.1351351351352
 21
510.9217628272805
 31
0.0
  0
LINE
  5
100
330
1F
100
AcDbEntity
  8
D-4
  6
Continuous
 62
     7
370
     9
100
AcDbLine
 10
510.1350526551943
 20
422.543557656778
 30
0.0
 11
510.1350526551943
 21
512.4217430320947
 31
0.0
  0
LINE
  5
101
330
1F
100
AcDbEntity
  8
D-4
  6
Continuous
 62
     7
370
     9
100
AcDbLine
 10
535.1351351351352
 20
422.543557656778
 30
0.0
 11
535.1351351351352
 21
570.9749129011825
 31
0.0
  0
LINE
  5
102
330
1F
100
AcDbEntity
  8
D-4
  6
Continuous
 62
     7
370
     9
100
AcDbLine
 10
182.0810678842906
 20
569.4749326963682
 30
0.0
 11
535.1351351351352
 21
569.4749326963682
 31
0.0
  0
LINE
  5
103
330
1F
100
AcDbEntity
  8
D-4
  6
Continuous
 62
     7
370
     9
100
AcDbLine
 10
182.0810678842906
 20
219.1186399717589
 30
0.0
 11
521.385027911212
 21
219.1186399717589
 31
0.0
  0
LINE
  5
104
330
1F
100
AcDbEntity
  8
D-4
  6
Continuous
 62
     7
370
     9
100
AcDbLine
 10
475.6351367847341
 20
254.0545448097023
 30
0.0
 11
475.6351367847341
 21
217.6187216269004
 31
0.0
  0
LINE
  5
105
330
1F
100
AcDbEntity
  8
D-4
  6
Continuous
 62
     7
370
     9
100
AcDbLine
 10
521.385027911212
 20
344.6666985589105
 30
0.0
 11
521.385027911212
 21
217.6187216269004
 31
0.0
  0
LINE
  5
106
330
1F
100
AcDbEntity
  8
D-2
  6
Continuous
 62
     3
370
     9
100
AcDbLine
 10
497.5136421822214
 20
-244.801025390625
 30
0.0
 11
272.0133188608531
 21
-244.801025390625
 31
0.0
  0
LINE
  5
107
330
1F
100
AcDbEntity
  8
D-2
  6
Continuous
 62
     3
370
     9
100
AcDbLine
 10
477.061008762669
 20
-252.3009264146959
 30
0.0
 11
499.7628701699747
 21
-252.3009264146959
 31
0.0
  0
LINE
  5
108
330
1F
100
AcDbEntity
  8
D-2
  6
Continuous
 62
     3
370
     9
100
AcDbLine
 10
475.8611730627112
 20
-252.3009264146959
 30
0.0
 11
269.7628536739865
 21
-252.3009264146959
 31
0.0
  0
LINE
  5
109
330
1F
100
AcDbEntity
  8
D-2
  6
JWW_DASHED3
 62
     3
370
     9
100
AcDbLine
 10
293.6657879803633
 20
-253.2045766469594
 30
0.0
 11
297.0131539009714
 21
-263.551025390625
 31
0.0
  0
LINE
  5
10A
330
1F
100
AcDbEntity
  8
D-2
  6
Continuous
 62
     3
370
     9
100
AcDbLine
 10
269.7628536739865
 20
-247.0509956978463
 30
0.0
 11
269.7628536739865
 21
-252.3009264146959
 31
0.0
  0
LINE
  5
10B
330
1F
100
AcDbEntity
  8
D-2
  6
Continuous
 62
     3
370
     9
100
AcDbLine
 10
499.7628701699747
 20
-247.0509956978463
 30
0.0
 11
499.7628701699747
 21
-252.3009264146959
 31
0.0
  0
LINE
  5
10C
330
1F
100
AcDbEntity
  8
D-2
  6
JWW_CENTER1
 62
     3
370
     9
100
AcDbLine
 10
384.7632330817146
 20
-154.9408412624049
 30
0.0
 11
384.7632330817146
 21
-384.3470640440245
 31
0.0
  0
LINE
  5
10D
330
1F
100
AcDbEntity
  8
D-2
  6
JWW_DASHED3
 62
     3
370
     9
100
AcDbLine
 10
475.8611730627112
 20
-253.2045766469594
 30
0.0
 11
472.5130648226352
 21
-263.551025390625
 31
0.0
  0
LINE
  5
10E
330
1F
100
AcDbEntity
  8
D-2
  6
JWW_DASHED3
 62
     3
370
     9
100
AcDbLine
 10
303.2629889410896
 20
-269.8011078705659
 30
0.0
 11
466.2632297825169
 21
-269.8011078705659
 31
0.0
  0
LINE
  5
10F
330
1F
100
AcDbEntity
  8
D-2
  6
Continuous
 62
     3
370
     9
100
AcDbLine
 10
494.7631011138091
 20
7.698508597709122
 30
0.0
 11
274.7631176097974
 21
7.698508597709122
 31
0.0
  0
LINE
  5
110
330
1F
100
AcDbEntity
  8
D-2
  6
Continuous
 62
     3
370
     9
100
AcDbLine
 10
499.7631176097974
 20
-74.8017017261401
 30
0.0
 11
499.7631176097974
 21
2.698430241765237
 31
0.0
  0
LINE
  5
111
330
1F
100
AcDbEntity
  8
D-2
  6
Continuous
 62
     3
370
     9
100
AcDbLine
 10
269.7631011138091
 20
-74.8017017261401
 30
0.0
 11
269.7631011138091
 21
2.698430241765237
 31
0.0
  0
LINE
  5
112
330
1F
100
AcDbEntity
  8
D-2
  6
Continuous
 62
     3
370
     9
100
AcDbLine
 10
274.7631176097974
 20
-79.80178008208398
 30
0.0
 11
494.7631011138091
 21
-79.80178008208398
 31
0.0
  0
LINE
  5
113
330
1F
100
AcDbEntity
  8
D-2
  6
Continuous
 62
     3
370
     9
100
AcDbLine
 10
303.2629889410896
 20
-45.80181637325794
 30
0.0
 11
303.2629889410896
 21
-26.30176441089517
 31
0.0
  0
LINE
  5
114
330
1F
100
AcDbEntity
  8
D-2
  6
Continuous
 62
     3
370
     9
100
AcDbLine
 10
460.7631374049831
 20
-20.80167203336146
 30
0.0
 11
308.7630813186234
 21
-20.80167203336146
 31
0.0
  0
LINE
  5
115
330
1F
100
AcDbEntity
  8
D-2
  6
Continuous
 62
     3
370
     9
100
AcDbLine
 10
466.2629823426943
 20
-45.80181637325794
 30
0.0
 11
466.2629823426943
 21
-26.30176441089517
 31
0.0
  0
LINE
  5
116
330
1F
100
AcDbEntity
  8
D-2
  6
Continuous
 62
     3
370
     9
100
AcDbLine
 10
460.7631374049831
 20
-51.30166131096914
 30
0.0
 11
308.7630813186234
 21
-51.30166131096914
 31
0.0
  0
LINE
  5
117
330
1F
100
AcDbEntity
  8
D-4
  6
Continuous
 62
     7
370
     9
100
AcDbLine
 10
269.7631011138091
 20
-124.055835620777
 30
0.0
 11
499.7631176097974
 21
-124.055835620777
 31
0.0
  0
LINE
  5
118
330
1F
100
AcDbEntity
  8
D-4
  6
Continuous
 62
     7
370
     9
100
AcDbLine
 10
269.7631011138091
 20
-87.30168110615494
 30
0.0
 11
269.7631011138091
 21
-125.5558158255912
 31
0.0
  0
LINE
  5
119
330
1F
100
AcDbEntity
  8
D-4
  6
Continuous
 62
     7
370
     9
100
AcDbLine
 10
499.7631176097974
 20
-87.30168110615494
 30
0.0
 11
499.7631176097974
 21
-125.5558158255912
 31
0.0
  0
LINE
  5
11A
330
1F
100
AcDbEntity
  8
D-4
  6
Continuous
 62
     7
370
     9
100
AcDbLine
 10
592.2880430479307
 20
-79.80178008208398
 30
0.0
 11
592.2880430479307
 21
7.698508597709122
 31
0.0
  0
LINE
  5
11B
330
1F
100
AcDbEntity
  8
D-4
  6
Continuous
 62
     7
370
     9
100
AcDbLine
 10
507.2632660736909
 20
-79.80178008208398
 30
0.0
 11
593.788023252745
 21
-79.80178008208398
 31
0.0
  0
LINE
  5
11C
330
1F
100
AcDbEntity
  8
D-4
  6
Continuous
 62
     7
370
     9
100
AcDbLine
 10
507.2632660736909
 20
7.698508597709122
 30
0.0
 11
593.788023252745
 21
7.698508597709122
 31
0.0
  0
LINE
  5
11D
330
1F
100
AcDbEntity
  8
D-4
  6
Continuous
 62
     7
370
     9
100
AcDbLine
 10
592.2880430479307
 20
-369.8011903505067
 30
0.0
 11
592.2880430479307
 21
-169.8010872505806
 31
0.0
  0
LINE
  5
11E
330
1F
100
AcDbEntity
  8
D-4
  6
Continuous
 62
     7
370
     9
100
AcDbLine
 10
434.7631506017737
 20
-369.8011903505067
 30
0.0
 11
593.788023252745
 21
-369.8011903505067
 31
0.0
  0
LINE
  5
11F
330
1F
100
AcDbEntity
  8
D-4
  6
Continuous
 62
     7
370
     9
100
AcDbLine
 10
512.2630351298565
 20
-244.801025390625
 30
0.0
 11
593.788023252745
 21
-244.801025390625
 31
0.0
  0
LINE
  5
120
330
1F
100
AcDbEntity
  8
D-4
  6
Continuous
 62
     7
370
     9
100
AcDbLine
 10
477.0130054370779
 20
-169.8010872505806
 30
0.0
 11
593.788023252745
 21
-169.8010872505806
 31
0.0
  0
LINE
  5
121
330
1F
100
AcDbEntity
  8
D-2
  6
JWW_CENTER1
 62
     3
370
     9
100
AcDbLine
 10
384.7632330817146
 20
-95.55379919103672
 30
0.0
 11
384.7632330817146
 21
26.03472735430742
 31
0.0
  0
LINE
  5
122
330
1F
100
AcDbEntity
  8
D-2
  6
JWW_CENTER1
 62
     3
370
     9
100
AcDbLine
 10
252.3443273595862
 20
-36.05169760214309
 30
0.0
 11
517.9682551203547
 21
-36.05169760214309
 31
0.0
  0
LINE
  5
123
330
1F
100
AcDbEntity
  8
D-2
  6
Continuous
 62
     3
370
     9
100
AcDbLine
 10
304.7629691459039
 20
-343.5512893264358
 30
0.0
 11
464.7632495777029
 21
-343.5512893264358
 31
0.0
  0
LINE
  5
124
330
1F
100
AcDbEntity
  8
D-2
  6
Continuous
 62
     3
370
     9
100
AcDbLine
 10
304.7629691459039
 20
-349.8013718063767
 30
0.0
 11
464.7632495777029
 21
-349.8013718063767
 31
0.0
  0
LINE
  5
125
330
1F
100
AcDbEntity
  8
D-2
  6
Continuous
 62
     3
370
     9
100
AcDbLine
 10
347.2632330817146
 20
-340.0512530352618
 30
0.0
 11
354.7631341057854
 21
-342.8012992240287
 31
0.0
  0
LINE
  5
126
330
1F
100
AcDbEntity
  8
D-2
  6
Continuous
 62
     3
370
     9
100
AcDbLine
 10
422.2632330817146
 20
-340.0512530352618
 30
0.0
 11
414.7630846178211
 21
-342.8012992240287
 31
0.0
  0
LINE
  5
127
330
1F
100
AcDbEntity
  8
D-2
  6
Continuous
 62
     3
370
     9
100
AcDbLine
 10
354.7631341057854
 20
-342.8012992240287
 30
0.0
 11
354.7631341057854
 21
-343.5512893264358
 31
0.0
  0
LINE
  5
128
330
1F
100
AcDbEntity
  8
D-2
  6
Continuous
 62
     3
370
     9
100
AcDbLine
 10
414.7630846178211
 20
-342.8012992240287
 30
0.0
 11
414.7630846178211
 21
-343.5512893264358
 31
0.0
  0
LINE
  5
129
330
1F
100
AcDbEntity
  8
D-2
  6
Continuous
 62
     3
370
     9
100
AcDbLine
 10
344.7631011138091
 20
-367.301305822424
 30
0.0
 11
344.7631011138091
 21
-349.8013718063767
 31
0.0
  0
LINE
  5
12A
330
1F
100
AcDbEntity
  8
D-2
  6
Continuous
 62
     3
370
     9
100
AcDbLine
 10
422.2632330817146
 20
-369.8011903505067
 30
0.0
 11
347.2632330817146
 21
-369.8011903505067
 31
0.0
  0
LINE
  5
12B
330
1F
100
AcDbEntity
  8
D-2
  6
Continuous
 62
     3
370
     9
100
AcDbLine
 10
424.7631176097974
 20
-367.301305822424
 30
0.0
 11
424.7631176097974
 21
-349.8013718063767
 31
0.0
  0
LINE
  5
12C
330
1F
100
AcDbEntity
  8
D-2
  6
Continuous
 62
     3
370
     9
100
AcDbLine
 10
304.7629691459039
 20
-343.5512893264358
 30
0.0
 11
304.7629691459039
 21
-354.8013883023648
 31
0.0
  0
LINE
  5
12D
330
1F
100
AcDbEntity
  8
D-2
  6
Continuous
 62
     3
370
     9
100
AcDbLine
 10
464.7632495777029
 20
-343.5512893264358
 30
0.0
 11
464.7632495777029
 21
-354.8013883023648
 31
0.0
  0
LINE
  5
12E
330
1F
100
AcDbEntity
  8
D-2
  6
Continuous
 62
     3
370
     9
100
AcDbLine
 10
304.7629691459039
 20
-354.8013883023648
 30
0.0
 11
344.1380681218328
 21
-354.8013883023648
 31
0.0
  0
LINE
  5
12F
330
1F
100
AcDbEntity
  8
D-2
  6
Continuous
 62
     3
370
     9
100
AcDbLine
 10
425.3881506017737
 20
-354.8013883023648
 30
0.0
 11
464.7632495777029
 21
-354.8013883023648
 31
0.0
  0
LINE
  5
130
330
1F
100
AcDbEntity
  8
D-2
  6
Continuous
 62
     3
370
     9
100
AcDbLine
 10
425.3881506017737
 20
-349.8013718063767
 30
0.0
 11
425.3881506017737
 21
-354.8013883023648
 31
0.0
  0
LINE
  5
131
330
1F
100
AcDbEntity
  8
D-2
  6
Continuous
 62
     3
370
     9
100
AcDbLine
 10
344.1380681218328
 20
-349.8013718063767
 30
0.0
 11
344.1380681218328
 21
-354.8013883023648
 31
0.0
  0
LINE
  5
132
330
1F
100
AcDbEntity
  8
D-2
  6
Continuous
 62
     3
370
     9
100
AcDbLine
 10
347.2632330817146
 20
-307.0511936497044
 30
0.0
 11
347.2632330817146
 21
-340.0512530352618
 31
0.0
  0
LINE
  5
133
330
1F
100
AcDbEntity
  8
D-2
  6
Continuous
 62
     3
370
     9
100
AcDbLine
 10
422.2632330817146
 20
-307.0917737806166
 30
0.0
 11
422.2632330817146
 21
-340.0512530352618
 31
0.0
  0
LINE
  5
134
330
1F
100
AcDbEntity
  8
D-2
  6
JWW_CENTER2
 62
     3
370
     9
100
AcDbLine
 10
305.0128833667654
 20
-169.8010872505806
 30
0.0
 11
464.5130879170188
 21
-169.8010872505806
 31
0.0
  0
LINE
  5
135
330
1F
100
AcDbEntity
  8
D-2
  6
JWW_CENTER2
 62
     3
370
     9
100
AcDbLine
 10
305.0128833667654
 20
-181.0512480864654
 30
0.0
 11
464.5130879170188
 21
-181.0512480864654
 31
0.0
  0
LINE
  5
136
330
1F
100
AcDbEntity
  8
D-2
  6
JWW_CENTER2
 62
     3
370
     9
100
AcDbLine
 10
305.0128833667654
 20
-169.8010872505806
 30
0.0
 11
305.0128833667654
 21
-181.0512480864654
 31
0.0
  0
LINE
  5
137
330
1F
100
AcDbEntity
  8
D-2
  6
JWW_CENTER2
 62
     3
370
     9
100
AcDbLine
 10
464.5130879170188
 20
-169.8010872505806
 30
0.0
 11
464.5130879170188
 21
-181.0512480864654
 31
0.0
  0
LINE
  5
138
330
1F
100
AcDbEntity
  8
D-2
  6
JWW_CENTER2
 62
     3
370
     9
100
AcDbLine
 10
461.5131275073904
 20
-181.0512480864654
 30
0.0
 11
461.5131275073904
 21
-187.3011449865393
 31
0.0
  0
LINE
  5
139
330
1F
100
AcDbEntity
  8
D-2
  6
JWW_CENTER2
 62
     3
370
     9
100
AcDbLine
 10
308.0130912162164
 20
-181.0512480864654
 30
0.0
 11
308.0130912162164
 21
-187.3011449865393
 31
0.0
  0
LINE
  5
13A
330
1F
100
AcDbEntity
  8
D-2
  6
JWW_CENTER2
 62
     3
370
     9
100
AcDbLine
 10
352.2630021378802
 20
-187.3011449865393
 30
0.0
 11
308.0130912162164
 21
-187.3011449865393
 31
0.0
  0
LINE
  5
13B
330
1F
100
AcDbEntity
  8
D-2
  6
JWW_CENTER2
 62
     3
370
     9
100
AcDbLine
 10
417.2629691459039
 20
-187.3011449865393
 30
0.0
 11
461.5131275073904
 21
-187.3011449865393
 31
0.0
  0
LINE
  5
13C
330
1F
100
AcDbEntity
  8
D-2
  6
JWW_CENTER2
 62
     3
370
     9
100
AcDbLine
 10
347.2632330817146
 20
-230.8010039458404
 30
0.0
 11
347.2632330817146
 21
-244.801025390625
 31
0.0
  0
LINE
  5
13D
330
1F
100
AcDbEntity
  8
D-2
  6
JWW_CENTER2
 62
     3
370
     9
100
AcDbLine
 10
359.7631506017737
 20
-212.3010418866131
 30
0.0
 11
359.7631506017737
 21
-194.8011697305215
 31
0.0
  0
LINE
  5
13E
330
1F
100
AcDbEntity
  8
D-2
  6
JWW_CENTER2
 62
     3
370
     9
100
AcDbLine
 10
409.7630681218328
 20
-212.3010418866131
 30
0.0
 11
409.7630681218328
 21
-194.8011697305215
 31
0.0
  0
LINE
  5
13F
330
1F
100
AcDbEntity
  8
D-2
  6
JWW_CENTER2
 62
     3
370
     9
100
AcDbLine
 10
422.2632330817146
 20
-230.8416459367081
 30
0.0
 11
422.2632330817146
 21
-244.801025390625
 31
0.0
  0
LINE
  5
140
330
1F
100
AcDbEntity
  8
D-2
  6
JWW_CENTER2
 62
     3
370
     9
100
AcDbLine
 10
358.2631703969597
 20
-173.5510377626161
 30
0.0
 11
411.2630483266472
 21
-173.5510377626161
 31
0.0
  0
LINE
  5
141
330
1F
100
AcDbEntity
  8
D-2
  6
JWW_CENTER2
 62
     3
370
     9
100
AcDbLine
 10
358.2631703969597
 20
-173.5510377626161
 30
0.0
 11
358.2631703969597
 21
-181.0512480864654
 31
0.0
  0
LINE
  5
142
330
1F
100
AcDbEntity
  8
D-2
  6
JWW_CENTER2
 62
     3
370
     9
100
AcDbLine
 10
411.2630483266472
 20
-173.5510377626161
 30
0.0
 11
411.2630483266472
 21
-181.0512480864654
 31
0.0
  0
LINE
  5
143
330
1F
100
AcDbEntity
  8
D-2
  6
Continuous
 62
     3
370
     9
100
AcDbLine
 10
271.0126722181167
 20
-252.3009264146959
 30
0.0
 11
271.0126722181167
 21
-282.301025390625
 31
0.0
  0
LINE
  5
144
330
1F
100
AcDbEntity
  8
D-2
  6
Continuous
 62
     3
370
     9
100
AcDbLine
 10
498.5132990656672
 20
-252.3009264146959
 30
0.0
 11
498.5132990656672
 21
-282.301025390625
 31
0.0
  0
LINE
  5
145
330
1F
100
AcDbEntity
  8
D-2
  6
JWW_DASHED3
 62
     3
370
     9
100
AcDbLine
 10
493.5130351298565
 20
-252.3009264146959
 30
0.0
 11
493.5130351298565
 21
-282.301025390625
 31
0.0
  0
LINE
  5
146
330
1F
100
AcDbEntity
  8
D-2
  6
JWW_DASHED3
 62
     3
370
     9
100
AcDbLine
 10
276.01318359375
 20
-252.3009264146959
 30
0.0
 11
276.01318359375
 21
-282.301025390625
 31
0.0
  0
LINE
  5
147
330
1F
100
AcDbEntity
  8
D-2
  6
Continuous
 62
     3
370
     9
100
AcDbLine
 10
498.5132990656672
 20
-282.301025390625
 30
0.0
 11
271.0126722181167
 21
-282.301025390625
 31
0.0
  0
LINE
  5
148
330
1F
100
AcDbEntity
  8
D-2
  6
Continuous
 62
     3
370
     9
100
AcDbLine
 10
359.762903161951
 20
-288.5513553103885
 30
0.0
 11
359.762903161951
 21
-282.301025390625
 31
0.0
  0
LINE
  5
149
330
1F
100
AcDbEntity
  8
D-2
  6
Continuous
 62
     3
370
     9
100
AcDbLine
 10
409.7630681218328
 20
-288.5513553103885
 30
0.0
 11
409.7630681218328
 21
-282.301025390625
 31
0.0
  0
LINE
  5
14A
330
1F
100
AcDbEntity
  8
D-2
  6
JWW_DASHED3
 62
     3
370
     9
100
AcDbLine
 10
409.7630681218328
 20
-282.301025390625
 30
0.0
 11
409.7630681218328
 21
-269.8011078705659
 31
0.0
  0
LINE
  5
14B
330
1F
100
AcDbEntity
  8
D-2
  6
JWW_DASHED3
 62
     3
370
     9
100
AcDbLine
 10
359.762903161951
 20
-282.301025390625
 30
0.0
 11
359.762903161951
 21
-269.8011078705659
 31
0.0
  0
LINE
  5
14C
330
1F
100
AcDbEntity
  8
D-4
  6
Continuous
 62
     7
370
     9
100
AcDbLine
 10
555.7243553367823
 20
-282.301025390625
 30
0.0
 11
555.7243553367823
 21
-244.801025390625
 31
0.0
  0
LINE
  5
14D
330
1F
100
AcDbEntity
  8
D-4
  6
Continuous
 62
     7
370
     9
100
AcDbLine
 10
512.2630351298565
 20
-282.301025390625
 30
0.0
 11
557.2243355415964
 21
-282.301025390625
 31
0.0
  0
LINE
  5
14E
330
1F
100
AcDbEntity
  8
D-4
  6
Continuous
 62
     7
370
     9
100
AcDbLine
 10
512.2630351298565
 20
-244.801025390625
 30
0.0
 11
557.2243355415964
 21
-244.801025390625
 31
0.0
  0
LINE
  5
14F
330
1F
100
AcDbEntity
  8
D-2
  6
Continuous
 62
     3
370
     9
100
AcDbLine
 10
506.1350642023859
 20
405.6554186021959
 30
0.0
 11
500.2601004935602
 21
400.5304449957771
 31
0.0
  0
LINE
  5
150
330
1F
100
AcDbEntity
  8
D-2
  6
Continuous
 62
     3
370
     9
100
AcDbLine
 10
500.2601004935602
 20
390.2803740630279
 30
0.0
 11
506.1350642023859
 21
385.1552767366977
 31
0.0
  0
LINE
  5
151
330
1F
100
AcDbEntity
  8
D-2
  6
Continuous
 62
     3
370
     9
100
AcDbLine
 10
506.1350642023859
 20
405.6554186021959
 30
0.0
 11
506.1350642023859
 21
385.1552767366977
 31
0.0
  0
LINE
  5
152
330
1F
100
AcDbEntity
  8
D-2
  6
Continuous
 62
     3
370
     9
100
AcDbLine
 10
500.2601004935602
 20
400.5304449957771
 30
0.0
 11
500.2601004935602
 21
390.2803740630279
 31
0.0
  0
LINE
  5
153
330
1F
100
AcDbEntity
  8
D-2
  6
Continuous
 62
     3
370
     9
100
AcDbLine
 10
472.8018270956505
 20
390.2803740630279
 30
0.0
 11
443.8657193570523
 21
395.4054713893582
 31
0.0
  0
LINE
  5
154
330
1F
100
AcDbEntity
  8
D-2
  6
Continuous
 62
     3
370
     9
100
AcDbLine
 10
500.2601004935602
 20
390.2803740630279
 30
0.0
 11
472.8018270956505
 21
390.2803740630279
 31
0.0
  0
LINE
  5
155
330
1F
100
AcDbEntity
  8
D-2
  6
Continuous
 62
     3
370
     9
100
AcDbLine
 10
500.2601004935602
 20
400.5304449957771
 30
0.0
 11
472.8018270956505
 21
400.5304449957771
 31
0.0
  0
LINE
  5
156
330
1F
100
AcDbEntity
  8
D-2
  6
Continuous
 62
     3
370
     9
100
AcDbLine
 10
497.3853446341852
 20
412.9051579655828
 30
0.0
 11
497.3853446341852
 21
407.905265189506
 31
0.0
  0
LINE
  5
157
330
1F
100
AcDbEntity
  8
D-2
  6
Continuous
 62
     3
370
     9
100
AcDbLine
 10
508.6351961702914
 20
416.6553559174409
 30
0.0
 11
508.6351961702914
 21
410.4051497175888
 31
0.0
  0
LINE
  5
158
330
1F
100
AcDbEntity
  8
D-2
  6
Continuous
 62
     3
370
     9
100
AcDbLine
 10
508.6351961702914
 20
410.4051497175888
 30
0.0
 11
506.1350642023859
 21
407.905265189506
 31
0.0
  0
LINE
  5
159
330
1F
100
AcDbEntity
  8
D-2
  6
Continuous
 62
     3
370
     9
100
AcDbLine
 10
502.3853611301732
 20
412.9051579655828
 30
0.0
 11
497.3853446341852
 21
412.9051579655828
 31
0.0
  0
LINE
  5
15A
330
1F
100
AcDbEntity
  8
D-2
  6
Continuous
 62
     3
370
     9
100
AcDbLine
 10
508.6351961702914
 20
371.6552074535474
 30
0.0
 11
508.6351961702914
 21
367.9052569415119
 31
0.0
  0
LINE
  5
15B
330
1F
100
AcDbEntity
  8
D-2
  6
Continuous
 62
     3
370
     9
100
AcDbLine
 10
508.6351961702914
 20
416.6553559174409
 30
0.0
 11
496.1352786502323
 21
416.6553559174409
 31
0.0
  0
LINE
  5
15C
330
1F
100
AcDbEntity
  8
D-2
  6
Continuous
 62
     3
370
     9
100
AcDbLine
 10
496.1352786502323
 20
416.6553559174409
 30
0.0
 11
483.6353611301732
 21
414.1552239495355
 31
0.0
  0
LINE
  5
15D
330
1F
100
AcDbEntity
  8
D-2
  6
Continuous
 62
     3
370
     9
100
AcDbLine
 10
483.6353611301732
 20
414.1552239495355
 30
0.0
 11
483.6353611301732
 21
412.9051579655828
 31
0.0
  0
LINE
  5
15E
330
1F
100
AcDbEntity
  8
D-2
  6
Continuous
 62
     3
370
     9
100
AcDbLine
 10
494.1350988439612
 20
374.9053295238599
 30
0.0
 11
494.1350988439612
 21
370.9052173511402
 31
0.0
  0
LINE
  5
15F
330
1F
100
AcDbEntity
  8
D-2
  6
Continuous
 62
     3
370
     9
100
AcDbLine
 10
493.6352704022383
 20
366.6551909575591
 30
0.0
 11
493.6352704022383
 21
367.1552668391048
 31
0.0
  0
LINE
  5
160
330
1F
100
AcDbEntity
  8
D-2
  6
Continuous
 62
     3
370
     9
100
AcDbLine
 10
493.6352704022383
 20
367.1552668391048
 30
0.0
 11
472.510219264675
 21
367.1552668391048
 31
0.0
  0
LINE
  5
161
330
1F
100
AcDbEntity
  8
D-2
  6
Continuous
 62
     3
370
     9
100
AcDbLine
 10
467.4088761613177
 20
391.3415197423987
 30
0.0
 11
461.8908443966427
 21
398.5266773120777
 31
0.0
  0
LINE
  5
162
330
1F
100
AcDbEntity
  8
D-2
  6
Continuous
 62
     3
370
     9
100
AcDbLine
 10
480.7239841770482
 20
390.2803740630279
 30
0.0
 11
472.8520573796453
 21
400.5304449957771
 31
0.0
  0
LINE
  5
163
330
1F
100
AcDbEntity
  8
D-2
  6
Continuous
 62
     3
370
     9
100
AcDbLine
 10
493.2240254170188
 20
390.2803740630279
 30
0.0
 11
485.3518511797932
 21
400.5304449957771
 31
0.0
  0
LINE
  5
164
330
1F
100
AcDbEntity
  8
D-2
  6
Continuous
 62
     3
370
     9
100
AcDbLine
 10
500.2601004935602
 20
397.394640123522
 30
0.0
 11
497.8518924197635
 21
400.5304449957771
 31
0.0
  0
LINE
  5
165
330
1F
100
AcDbEntity
  8
D-2
  6
JWW_CENTER2
 62
     3
370
     9
100
AcDbLine
 10
581.7130836280617
 20
395.4054713893582
 30
0.0
 11
433.5075172218117
 21
395.4054713893582
 31
0.0
  0
LINE
  5
166
330
1F
100
AcDbEntity
  8
D-2
  6
Continuous
 62
     3
370
     9
100
AcDbLine
 10
497.3853446341852
 20
407.905265189506
 30
0.0
 11
494.8852126662797
 21
407.905265189506
 31
0.0
  0
LINE
  5
167
330
1F
100
AcDbEntity
  8
D-2
  6
Continuous
 62
     3
370
     9
100
AcDbLine
 10
497.3853446341852
 20
382.1553163270693
 30
0.0
 11
494.8852126662797
 21
382.1553163270693
 31
0.0
  0
LINE
  5
168
330
1F
100
AcDbEntity
  8
D-2
  6
Continuous
 62
     3
370
     9
100
AcDbLine
 10
494.8852126662797
 20
370.9052173511402
 30
0.0
 11
494.8852126662797
 21
382.1553163270693
 31
0.0
  0
LINE
  5
169
330
1F
100
AcDbEntity
  8
D-2
  6
Continuous
 62
     3
370
     9
100
AcDbLine
 10
494.8852126662797
 20
370.9052173511402
 30
0.0
 11
472.510219264675
 21
370.9052173511402
 31
0.0
  0
LINE
  5
16A
330
1F
100
AcDbEntity
  8
D-2
  6
Continuous
 62
     3
370
     9
100
AcDbLine
 10
303.6351384343328
 20
364.7328309755068
 30
0.0
 11
306.1351466823268
 21
364.7328309755068
 31
0.0
  0
LINE
  5
16B
330
1F
100
AcDbEntity
  8
D-2
  6
Continuous
 62
     3
370
     9
100
AcDbLine
 10
306.1351466823268
 20
363.729709934544
 30
0.0
 11
306.1351466823268
 21
364.7328309755068
 31
0.0
  0
LINE
  5
16C
330
1F
100
AcDbEntity
  8
D-2
  6
Continuous
 62
     3
370
     9
100
AcDbLine
 10
303.6351384343328
 20
363.729709934544
 30
0.0
 11
303.6351384343328
 21
364.7328309755068
 31
0.0
  0
LINE
  5
16D
330
1F
100
AcDbEntity
  8
D-2
  6
Continuous
 62
     3
370
     9
100
AcDbLine
 10
314.385037808805
 20
369.6551513671875
 30
0.0
 11
314.385037808805
 21
370.9052173511402
 31
0.0
  0
LINE
  5
16E
330
1F
100
AcDbEntity
  8
D-2
  6
Continuous
 62
     3
370
     9
100
AcDbLine
 10
295.3849998680323
 20
369.6551513671875
 30
0.0
 11
295.3849998680323
 21
370.9052173511402
 31
0.0
  0
LINE
  5
16F
330
1F
100
AcDbEntity
  8
D-2
  6
Continuous
 62
     3
370
     9
100
AcDbLine
 10
309.8850971943625
 20
370.9052173511402
 30
0.0
 11
309.8850971943625
 21
384.7447740709459
 31
0.0
  0
LINE
  5
170
330
1F
100
AcDbEntity
  8
D-2
  6
Continuous
 62
     3
370
     9
100
AcDbLine
 10
304.8852044182854
 20
395.9052998310812
 30
0.0
 11
309.8850971943625
 21
384.7447740709459
 31
0.0
  0
LINE
  5
171
330
1F
100
AcDbEntity
  8
D-2
  6
Continuous
 62
     3
370
     9
100
AcDbLine
 10
304.8852044182854
 20
395.9052998310812
 30
0.0
 11
299.8850642023859
 21
384.7447740709459
 31
0.0
  0
LINE
  5
172
330
1F
100
AcDbEntity
  8
D-2
  6
Continuous
 62
     3
370
     9
100
AcDbLine
 10
299.8850642023859
 20
370.9052173511402
 30
0.0
 11
299.8850642023859
 21
384.7447740709459
 31
0.0
  0
LINE
  5
173
330
1F
100
AcDbEntity
  8
D-2
  6
JWW_CENTER1
 62
     3
370
     9
100
AcDbLine
 10
304.8852044182854
 20
360.5995961782095
 30
0.0
 11
304.8852044182854
 21
399.2393040012669
 31
0.0
  0
LINE
  5
174
330
1F
100
AcDbEntity
  8
D-2
  6
Continuous
 62
     3
370
     9
100
AcDbLine
 10
443.8657193570523
 20
395.4054713893582
 30
0.0
 11
472.8018270956505
 21
400.5304449957771
 31
0.0
  0
LINE
  5
175
330
1F
100
AcDbEntity
  8
D-2
  6
Continuous
 62
     3
370
     9
100
AcDbLine
 10
453.0352205843539
 20
393.7812763935812
 30
0.0
 11
450.8394395982899
 21
396.6405672640414
 31
0.0
  0
LINE
  5
176
330
1F
100
AcDbEntity
  8
D-2
  6
Continuous
 62
     3
370
     9
100
AcDbLine
 10
493.6352704022383
 20
412.4053295238599
 30
0.0
 11
493.6352704022383
 21
400.5304449957771
 31
0.0
  0
LINE
  5
177
330
1F
100
AcDbEntity
  8
D-2
  6
Continuous
 62
     3
370
     9
100
AcDbLine
 10
502.3853611301732
 20
412.9051579655828
 30
0.0
 11
502.3853611301732
 21
402.3842641469595
 31
0.0
  0
LINE
  5
178
330
1F
100
AcDbEntity
  8
D-2
  6
Continuous
 62
     3
370
     9
100
AcDbLine
 10
506.1350642023859
 20
407.905265189506
 30
0.0
 11
506.1350642023859
 21
405.6554186021959
 31
0.0
  0
LINE
  5
179
330
1F
100
AcDbEntity
  8
D-2
  6
Continuous
 62
     3
370
     9
100
AcDbLine
 10
309.8850971943625
 20
374.4638968802788
 30
0.0
 11
303.7216186523438
 21
370.9052173511402
 31
0.0
  0
LINE
  5
17A
330
1F
100
AcDbEntity
  8
D-2
  6
Continuous
 62
     3
370
     9
100
AcDbLine
 10
309.8850971943625
 20
380.2625254038219
 30
0.0
 11
299.8850642023859
 21
374.488888302365
 31
0.0
  0
LINE
  5
17B
330
1F
100
AcDbEntity
  8
D-2
  6
Continuous
 62
     3
370
     9
100
AcDbLine
 10
309.4166936101141
 20
385.7904547614021
 30
0.0
 11
299.8850642023859
 21
380.2873931059966
 31
0.0
  0
LINE
  5
17C
330
1F
100
AcDbEntity
  8
D-2
  6
Continuous
 62
     3
370
     9
100
AcDbLine
 10
307.3526743296031
 20
390.3974130991344
 30
0.0
 11
300.6955533414273
 21
386.5539303341428
 31
0.0
  0
LINE
  5
17D
330
1F
100
AcDbEntity
  8
D-2
  6
Continuous
 62
     3
370
     9
100
AcDbLine
 10
494.8852126662797
 20
412.9051579655828
 30
0.0
 11
483.6353611301732
 21
412.9051579655828
 31
0.0
  0
LINE
  5
17E
330
1F
100
AcDbEntity
  8
D-2
  6
Continuous
 62
     3
370
     9
100
AcDbLine
 10
494.8852126662797
 20
412.9051579655828
 30
0.0
 11
494.8852126662797
 21
407.905265189506
 31
0.0
  0
LINE
  5
17F
330
1F
100
AcDbEntity
  8
D-2
  6
Continuous
 62
     3
370
     9
100
AcDbLine
 10
497.3853446341852
 20
369.1553229254646
 30
0.0
 11
497.3853446341852
 21
382.1553163270693
 31
0.0
  0
LINE
  5
180
330
1F
100
AcDbEntity
  8
D-2
  6
Continuous
 62
     3
370
     9
100
AcDbLine
 10
508.6351961702914
 20
371.6552074535474
 30
0.0
 11
506.1350642023859
 21
374.1550919816301
 31
0.0
  0
LINE
  5
181
330
1F
100
AcDbEntity
  8
D-2
  6
Continuous
 62
     3
370
     9
100
AcDbLine
 10
506.1350642023859
 20
385.1552767366977
 30
0.0
 11
506.1350642023859
 21
374.1550919816301
 31
0.0
  0
LINE
  5
182
330
1F
100
AcDbEntity
  8
D-2
  6
Continuous
 62
     3
370
     9
100
AcDbLine
 10
493.6352704022383
 20
390.2803740630279
 30
0.0
 11
493.6352704022383
 21
374.9053295238599
 31
0.0
  0
LINE
  5
183
330
1F
100
AcDbEntity
  8
D-2
  6
Continuous
 62
     3
370
     9
100
AcDbLine
 10
299.8850642023859
 20
381.1551645639781
 30
0.0
 11
178.6352209142737
 21
381.1551645639781
 31
0.0
  0
LINE
  5
184
330
1F
100
AcDbEntity
  8
D-2
  6
Continuous
 62
     3
370
     9
100
AcDbLine
 10
502.3853611301732
 20
369.1553229254646
 30
0.0
 11
497.3853446341852
 21
369.1553229254646
 31
0.0
  0
LINE
  5
185
330
1F
100
AcDbEntity
  8
D-2
  6
Continuous
 62
     3
370
     9
100
AcDbLine
 10
502.3853611301732
 20
388.4264311919341
 30
0.0
 11
502.3853611301732
 21
369.1553229254646
 31
0.0
  0
LINE
  5
186
330
1F
100
AcDbEntity
  8
D-2
  6
Continuous
 62
     3
370
     9
100
AcDbLine
 10
502.3853611301732
 20
369.5301942567568
 30
0.0
 11
497.3853446341852
 21
369.5301942567568
 31
0.0
  0
LINE
  5
187
330
1F
100
AcDbEntity
  8
D-2
  6
Continuous
 62
     3
370
     9
100
AcDbLine
 10
497.3853446341852
 20
390.2803740630279
 30
0.0
 11
497.3853446341852
 21
369.5301942567568
 31
0.0
  0
LINE
  5
188
330
1F
100
AcDbEntity
  8
D-2
  6
Continuous
 62
     3
370
     9
100
AcDbLine
 10
502.3853611301732
 20
369.5301942567568
 30
0.0
 11
502.3853611301732
 21
388.4264311919341
 31
0.0
  0
LINE
  5
189
330
1F
100
AcDbEntity
  8
D-2
  6
Continuous
 62
     3
370
     9
100
AcDbLine
 10
502.3853611301732
 20
402.3842641469595
 30
0.0
 11
502.3853611301732
 21
412.530410354202
 31
0.0
  0
LINE
  5
18A
330
1F
100
AcDbEntity
  8
D-2
  6
Continuous
 62
     3
370
     9
100
AcDbLine
 10
502.3853611301732
 20
412.530410354202
 30
0.0
 11
497.3853446341852
 21
412.530410354202
 31
0.0
  0
LINE
  5
18B
330
1F
100
AcDbEntity
  8
D-2
  6
Continuous
 62
     3
370
     9
100
AcDbLine
 10
497.3853446341852
 20
400.5304449957771
 30
0.0
 11
497.3853446341852
 21
412.530410354202
 31
0.0
  0
LINE
  5
18C
330
1F
100
AcDbEntity
  8
D-2
  6
Continuous
 62
     3
370
     9
100
AcDbLine
 10
303.8771345808701
 20
393.6553295238599
 30
0.0
 11
178.6352209142737
 21
393.6553295238599
 31
0.0
  0
LINE
  5
18D
330
1F
100
AcDbEntity
  8
D-2
  6
Continuous
 62
     3
370
     9
100
AcDbLine
 10
301.0769818280195
 20
387.4053707638303
 30
0.0
 11
178.6352209142737
 21
387.4053707638303
 31
0.0
  0
LINE
  5
18E
330
1F
100
AcDbEntity
  8
D-2
  6
Continuous
 62
     3
370
     9
100
AcDbLine
 10
311.1352868982263
 20
370.9052173511402
 30
0.0
 11
311.1352868982263
 21
374.9053295238599
 31
0.0
  0
LINE
  5
18F
330
1F
100
AcDbEntity
  8
D-2
  6
Continuous
 62
     3
370
     9
100
AcDbLine
 10
298.6349982184333
 20
370.9052173511402
 30
0.0
 11
298.6349982184333
 21
374.9053295238599
 31
0.0
  0
LINE
  5
190
330
1F
100
AcDbEntity
  8
D-2
  6
Continuous
 62
     3
370
     9
100
AcDbLine
 10
493.6352704022383
 20
412.4053295238599
 30
0.0
 11
178.6352209142737
 21
412.4053295238599
 31
0.0
  0
LINE
  5
191
330
1F
100
AcDbEntity
  8
D-2
  6
Continuous
 62
     3
370
     9
100
AcDbLine
 10
299.8850642023859
 20
374.9053295238599
 30
0.0
 11
178.6352209142737
 21
374.9053295238599
 31
0.0
  0
LINE
  5
192
330
1F
100
AcDbEntity
  8
D-2
  6
Continuous
 62
     3
370
     9
100
AcDbLine
 10
494.1350988439612
 20
370.9052173511402
 30
0.0
 11
178.6352209142737
 21
370.9052173511402
 31
0.0
  0
LINE
  5
193
330
1F
100
AcDbEntity
  8
D-2
  6
Continuous
 62
     3
370
     9
100
AcDbLine
 10
493.6352704022383
 20
406.1553707638303
 30
0.0
 11
178.6352209142737
 21
406.1553707638303
 31
0.0
  0
LINE
  5
194
330
1F
100
AcDbEntity
  8
D-2
  6
Continuous
 62
     3
370
     9
100
AcDbLine
 10
469.2723454655828
 20
399.9051645639781
 30
0.0
 11
178.6352209142737
 21
399.9051645639781
 31
0.0
  0
LINE
  5
195
330
1F
100
AcDbEntity
  8
D-2
  6
Continuous
 62
     3
370
     9
100
AcDbLine
 10
453.7468575142526
 20
393.6553295238599
 30
0.0
 11
305.8931505357899
 21
393.6553295238599
 31
0.0
  0
LINE
  5
196
330
1F
100
AcDbEntity
  8
D-2
  6
Continuous
 62
     3
370
     9
100
AcDbLine
 10
493.6352704022383
 20
387.4053707638303
 30
0.0
 11
308.6933032886404
 21
387.4053707638303
 31
0.0
  0
LINE
  5
197
330
1F
100
AcDbEntity
  8
D-2
  6
Continuous
 62
     3
370
     9
100
AcDbLine
 10
493.6352704022383
 20
381.1551645639781
 30
0.0
 11
309.8850971943625
 21
381.1551645639781
 31
0.0
  0
LINE
  5
198
330
1F
100
AcDbEntity
  8
D-2
  6
Continuous
 62
     3
370
     9
100
AcDbLine
 10
187.8808098870356
 20
370.9052173511402
 30
0.0
 11
191.8809220597551
 21
374.9053295238599
 31
0.0
  0
LINE
  5
199
330
1F
100
AcDbEntity
  8
D-2
  6
Continuous
 62
     3
370
     9
100
AcDbLine
 10
200.3807274070947
 20
370.9052173511402
 30
0.0
 11
204.3808395798142
 21
374.9053295238599
 31
0.0
  0
LINE
  5
19A
330
1F
100
AcDbEntity
  8
D-2
  6
Continuous
 62
     3
370
     9
100
AcDbLine
 10
212.8806449271538
 20
370.9052173511402
 30
0.0
 11
216.8807570998734
 21
374.9053295238599
 31
0.0
  0
LINE
  5
19B
330
1F
100
AcDbEntity
  8
D-2
  6
Continuous
 62
     3
370
     9
100
AcDbLine
 10
225.3808098870356
 20
370.9052173511402
 30
0.0
 11
229.3809220597551
 21
374.9053295238599
 31
0.0
  0
LINE
  5
19C
330
1F
100
AcDbEntity
  8
D-2
  6
Continuous
 62
     3
370
     9
100
AcDbLine
 10
237.8807274070945
 20
370.9052173511402
 30
0.0
 11
241.8808395798143
 21
374.9053295238599
 31
0.0
  0
LINE
  5
19D
330
1F
100
AcDbEntity
  8
D-2
  6
Continuous
 62
     3
370
     9
100
AcDbLine
 10
250.3806449271539
 20
370.9052173511402
 30
0.0
 11
254.3807570998734
 21
374.9053295238599
 31
0.0
  0
LINE
  5
19E
330
1F
100
AcDbEntity
  8
D-2
  6
Continuous
 62
     3
370
     9
100
AcDbLine
 10
262.8808098870354
 20
370.9052173511402
 30
0.0
 11
266.8809220597552
 21
374.9053295238599
 31
0.0
  0
LINE
  5
19F
330
1F
100
AcDbEntity
  8
D-2
  6
Continuous
 62
     3
370
     9
100
AcDbLine
 10
275.380851127006
 20
370.9052173511402
 30
0.0
 11
279.3809632997255
 21
374.9053295238599
 31
0.0
  0
LINE
  5
1A0
330
1F
100
AcDbEntity
  8
D-2
  6
Continuous
 62
     3
370
     9
100
AcDbLine
 10
287.8806449271539
 20
370.9052173511402
 30
0.0
 11
291.8807570998734
 21
374.9053295238599
 31
0.0
  0
LINE
  5
1A1
330
1F
100
AcDbEntity
  8
D-2
  6
Continuous
 62
     3
370
     9
100
AcDbLine
 10
300.3808098870354
 20
370.9052173511402
 30
0.0
 11
304.3809220597552
 21
374.9053295238599
 31
0.0
  0
LINE
  5
1A2
330
1F
100
AcDbEntity
  8
D-2
  6
Continuous
 62
     3
370
     9
100
AcDbLine
 10
312.880851127006
 20
370.9052173511402
 30
0.0
 11
316.8807158599029
 21
374.9053295238599
 31
0.0
  0
LINE
  5
1A3
330
1F
100
AcDbEntity
  8
D-2
  6
Continuous
 62
     3
370
     9
100
AcDbLine
 10
325.3807686470651
 20
370.9052173511402
 30
0.0
 11
329.3808808197846
 21
374.9053295238599
 31
0.0
  0
LINE
  5
1A4
330
1F
100
AcDbEntity
  8
D-2
  6
Continuous
 62
     3
370
     9
100
AcDbLine
 10
337.8808098870354
 20
370.9052173511402
 30
0.0
 11
341.8809220597552
 21
374.9053295238599
 31
0.0
  0
LINE
  5
1A5
330
1F
100
AcDbEntity
  8
D-2
  6
Continuous
 62
     3
370
     9
100
AcDbLine
 10
350.3806036871833
 20
370.9052173511402
 30
0.0
 11
354.3807158599029
 21
374.9053295238599
 31
0.0
  0
LINE
  5
1A6
330
1F
100
AcDbEntity
  8
D-2
  6
Continuous
 62
     3
370
     9
100
AcDbLine
 10
362.8807686470651
 20
370.9052173511402
 30
0.0
 11
366.8808808197846
 21
374.9053295238599
 31
0.0
  0
LINE
  5
1A7
330
1F
100
AcDbEntity
  8
D-2
  6
Continuous
 62
     3
370
     9
100
AcDbLine
 10
375.3808098870354
 20
370.9052173511402
 30
0.0
 11
379.3809220597552
 21
374.9053295238599
 31
0.0
  0
LINE
  5
1A8
330
1F
100
AcDbEntity
  8
D-2
  6
Continuous
 62
     3
370
     9
100
AcDbLine
 10
387.8807274070948
 20
370.9052173511402
 30
0.0
 11
391.8807158599029
 21
374.9053295238599
 31
0.0
  0
LINE
  5
1A9
330
1F
100
AcDbEntity
  8
D-2
  6
Continuous
 62
     3
370
     9
100
AcDbLine
 10
400.3807686470651
 20
370.9052173511402
 30
0.0
 11
404.3808808197846
 21
374.9053295238599
 31
0.0
  0
LINE
  5
1AA
330
1F
100
AcDbEntity
  8
D-2
  6
Continuous
 62
     3
370
     9
100
AcDbLine
 10
412.880562447213
 20
370.9052173511402
 30
0.0
 11
416.8809220597552
 21
374.9053295238599
 31
0.0
  0
LINE
  5
1AB
330
1F
100
AcDbEntity
  8
D-2
  6
Continuous
 62
     3
370
     9
100
AcDbLine
 10
425.3807274070948
 20
370.9052173511402
 30
0.0
 11
429.3808395798143
 21
374.9053295238599
 31
0.0
  0
LINE
  5
1AC
330
1F
100
AcDbEntity
  8
D-2
  6
Continuous
 62
     3
370
     9
100
AcDbLine
 10
437.8807686470651
 20
370.9052173511402
 30
0.0
 11
441.8808808197846
 21
374.9053295238599
 31
0.0
  0
LINE
  5
1AD
330
1F
100
AcDbEntity
  8
D-2
  6
Continuous
 62
     3
370
     9
100
AcDbLine
 10
450.380562447213
 20
370.9052173511402
 30
0.0
 11
454.3806746199326
 21
374.9053295238599
 31
0.0
  0
LINE
  5
1AE
330
1F
100
AcDbEntity
  8
D-2
  6
Continuous
 62
     3
370
     9
100
AcDbLine
 10
462.8807274070948
 20
370.9052173511402
 30
0.0
 11
466.8808395798143
 21
374.9053295238599
 31
0.0
  0
LINE
  5
1AF
330
1F
100
AcDbEntity
  8
D-2
  6
Continuous
 62
     3
370
     9
100
AcDbLine
 10
475.3807686470651
 20
370.9052173511402
 30
0.0
 11
479.3808808197846
 21
374.9053295238599
 31
0.0
  0
LINE
  5
1B0
330
1F
100
AcDbEntity
  8
D-2
  6
Continuous
 62
     3
370
     9
100
AcDbLine
 10
487.8806861671242
 20
370.9052173511402
 30
0.0
 11
491.8807983398438
 21
374.9053295238599
 31
0.0
  0
LINE
  5
1B1
330
1F
100
AcDbEntity
  8
D-2
  6
Continuous
 62
     3
370
     9
100
AcDbLine
 10
494.1350988439612
 20
374.9053295238599
 30
0.0
 11
309.8850971943625
 21
374.9053295238599
 31
0.0
  0
ARC
  5
1B2
330
1F
100
AcDbEntity
  8
0-2
  6
Continuous
 62
     3
370
     9
100
AcDbCircle
 10
-468.6736029547614
 20
96.82676573057435
 30
0.0
 40
0.5000000970589148
100
AcDbArc
 50
0.0
 51
90.0
  0
ARC
  5
1B3
330
1F
100
AcDbEntity
  8
0-2
  6
Continuous
 62
     3
370
     9
100
AcDbCircle
 10
-502.6737522434544
 20
96.82676573057435
 30
0.0
 40
0.5000000970589148
100
AcDbArc
 50
90.0
 51
180.0
  0
ARC
  5
1B4
330
1F
100
AcDbEntity
  8
0-2
  6
Continuous
 62
     3
370
     9
100
AcDbCircle
 10
-468.6736029547614
 20
5.826935639252611
 30
0.0
 40
0.5000000970589148
100
AcDbArc
 50
270.0
 51
0.0
  0
ARC
  5
1B5
330
1F
100
AcDbEntity
  8
0-2
  6
Continuous
 62
     3
370
     9
100
AcDbCircle
 10
-502.6737522434544
 20
5.826935639252611
 30
0.0
 40
0.5000000970589148
100
AcDbArc
 50
180.0
 51
270.0
  0
ARC
  5
1B6
330
1F
100
AcDbEntity
  8
0-2
  6
Continuous
 62
     3
370
     9
100
AcDbCircle
 10
-480.6736301731419
 20
19.82695708403725
 30
0.0
 40
1.00000019411783
100
AcDbArc
 50
270.0
 51
0.0
  0
ARC
  5
1B7
330
1F
100
AcDbEntity
  8
0-2
  6
Continuous
 62
     3
370
     9
100
AcDbCircle
 10
-490.6736631651182
 20
19.82695708403725
 30
0.0
 40
1.00000019411783
100
AcDbArc
 50
180.0
 51
270.0
  0
ARC
  5
1B8
330
1F
100
AcDbEntity
  8
0-2
  6
Continuous
 62
     3
370
     9
100
AcDbCircle
 10
-480.6736301731419
 20
82.82686800570104
 30
0.0
 40
1.00000019411783
100
AcDbArc
 50
0.0
 51
90.0
  0
ARC
  5
1B9
330
1F
100
AcDbEntity
  8
0-2
  6
Continuous
 62
     3
370
     9
100
AcDbCircle
 10
-490.6736631651182
 20
82.82686800570104
 30
0.0
 40
1.00000019411783
100
AcDbArc
 50
90.0
 51
180.0
  0
ARC
  5
1BA
330
1F
100
AcDbEntity
  8
0-2
  6
Continuous
 62
     3
370
     9
100
AcDbCircle
 10
-485.6735229492188
 20
51.32666510504649
 30
0.0
 40
12.50000257749815
100
AcDbArc
 50
298.6856079101564
 51
61.31439208984379
  0
ARC
  5
1BB
330
1F
100
AcDbEntity
  8
0-2
  6
Continuous
 62
     3
370
     9
100
AcDbCircle
 10
-485.6735229492188
 20
51.32666510504649
 30
0.0
 40
12.50000257749815
100
AcDbArc
 50
118.6849822998047
 51
241.3150177001953
  0
ARC
  5
1BC
330
1F
100
AcDbEntity
  8
0-2
  6
Continuous
 62
     3
370
     9
100
AcDbCircle
 10
-242.6736367715371
 20
96.82676573057435
 30
0.0
 40
0.5000000970589148
100
AcDbArc
 50
90.0
 51
180.0
  0
ARC
  5
1BD
330
1F
100
AcDbEntity
  8
0-2
  6
Continuous
 62
     3
370
     9
100
AcDbCircle
 10
-208.6735493427997
 20
96.82676573057435
 30
0.0
 40
0.5000000970589148
100
AcDbArc
 50
0.0
 51
90.0
  0
ARC
  5
1BE
330
1F
100
AcDbEntity
  8
0-2
  6
Continuous
 62
     3
370
     9
100
AcDbCircle
 10
-242.6736367715371
 20
5.826935639252611
 30
0.0
 40
0.5000000970589148
100
AcDbArc
 50
180.0
 51
270.0
  0
ARC
  5
1BF
330
1F
100
AcDbEntity
  8
0-2
  6
Continuous
 62
     3
370
     9
100
AcDbCircle
 10
-208.6735493427997
 20
5.826935639252611
 30
0.0
 40
0.5000000970589148
100
AcDbArc
 50
270.0
 51
0.0
  0
ARC
  5
1C0
330
1F
100
AcDbEntity
  8
0-2
  6
Continuous
 62
     3
370
     9
100
AcDbCircle
 10
-230.6735476932009
 20
19.82695708403725
 30
0.0
 40
1.00000019411783
100
AcDbArc
 50
180.0
 51
270.0
  0
ARC
  5
1C1
330
1F
100
AcDbEntity
  8
0-2
  6
Continuous
 62
     3
370
     9
100
AcDbCircle
 10
-220.6736384211359
 20
19.82695708403725
 30
0.0
 40
1.00000019411783
100
AcDbArc
 50
270.0
 51
0.0
  0
ARC
  5
1C2
330
1F
100
AcDbEntity
  8
0-2
  6
Continuous
 62
     3
370
     9
100
AcDbCircle
 10
-230.6735476932009
 20
82.82686800570104
 30
0.0
 40
1.00000019411783
100
AcDbArc
 50
90.0
 51
180.0
  0
ARC
  5
1C3
330
1F
100
AcDbEntity
  8
0-2
  6
Continuous
 62
     3
370
     9
100
AcDbCircle
 10
-220.6736384211359
 20
82.82686800570104
 30
0.0
 40
1.00000019411783
100
AcDbArc
 50
0.0
 51
90.0
  0
ARC
  5
1C4
330
1F
100
AcDbEntity
  8
0-2
  6
Continuous
 62
     3
370
     9
100
AcDbCircle
 10
-225.6736549171241
 20
51.32666510504649
 30
0.0
 40
12.50000257749815
100
AcDbArc
 50
118.6856079101563
 51
241.3143920898438
  0
ARC
  5
1C5
330
1F
100
AcDbEntity
  8
0-2
  6
Continuous
 62
     3
370
     9
100
AcDbCircle
 10
-225.6736549171241
 20
51.32666510504649
 30
0.0
 40
12.50000257749815
100
AcDbArc
 50
298.6849822998047
 51
61.31501770019531
  0
ARC
  5
1C6
330
1F
100
AcDbEntity
  8
D-2
  6
JWW_DASHED3
 62
     3
370
     9
100
AcDbCircle
 10
303.2629889410896
 20
-263.551025390625
 30
0.0
 40
6.250000322187269
100
AcDbArc
 50
180.0
 51
270.0
  0
ARC
  5
1C7
330
1F
100
AcDbEntity
  8
D-2
  6
JWW_DASHED3
 62
     3
370
     9
100
AcDbCircle
 10
466.2632297825169
 20
-263.551025390625
 30
0.0
 40
6.250000322187269
100
AcDbArc
 50
270.0
 51
0.0
  0
ARC
  5
1C8
330
1F
100
AcDbEntity
  8
D-2
  6
Continuous
 62
     3
370
     9
100
AcDbCircle
 10
272.0133188608531
 20
-247.0509956978463
 30
0.0
 40
2.250000270637306
100
AcDbArc
 50
90.0
 51
180.0
  0
ARC
  5
1C9
330
1F
100
AcDbEntity
  8
D-2
  6
Continuous
 62
     3
370
     9
100
AcDbCircle
 10
497.5136421822214
 20
-247.0509956978463
 30
0.0
 40
2.250000270637306
100
AcDbArc
 50
0.0
 51
90.0
  0
ARC
  5
1CA
330
1F
100
AcDbEntity
  8
D-2
  6
JWW_DASHED3
 62
     3
370
     9
100
AcDbCircle
 10
477.061008762669
 20
-253.5509923986486
 30
0.0
 40
1.250000016109364
100
AcDbArc
 50
90.0
 51
163.8992004394532
  0
ARC
  5
1CB
330
1F
100
AcDbEntity
  8
D-2
  6
JWW_DASHED3
 62
     3
370
     9
100
AcDbCircle
 10
292.4647150812922
 20
-253.5509923986486
 30
0.0
 40
1.250000016109364
100
AcDbArc
 50
16.10079956054688
 51
90.0
  0
ARC
  5
1CC
330
1F
100
AcDbEntity
  8
D-2
  6
Continuous
 62
     3
370
     9
100
AcDbCircle
 10
274.7631176097974
 20
2.698430241765237
 30
0.0
 40
5.000001030999261
100
AcDbArc
 50
90.0
 51
180.0
  0
ARC
  5
1CD
330
1F
100
AcDbEntity
  8
D-2
  6
Continuous
 62
     3
370
     9
100
AcDbCircle
 10
494.7631011138091
 20
2.698430241765237
 30
0.0
 40
5.000001030999261
100
AcDbArc
 50
0.0
 51
90.0
  0
ARC
  5
1CE
330
1F
100
AcDbEntity
  8
D-2
  6
Continuous
 62
     3
370
     9
100
AcDbCircle
 10
494.7631011138091
 20
-74.8017017261401
 30
0.0
 40
5.000001030999261
100
AcDbArc
 50
270.0
 51
0.0
  0
ARC
  5
1CF
330
1F
100
AcDbEntity
  8
D-2
  6
Continuous
 62
     3
370
     9
100
AcDbCircle
 10
274.7631176097974
 20
-74.8017017261401
 30
0.0
 40
5.000001030999261
100
AcDbArc
 50
180.0
 51
270.0
  0
ARC
  5
1D0
330
1F
100
AcDbEntity
  8
D-2
  6
Continuous
 62
     3
370
     9
100
AcDbCircle
 10
308.7630813186234
 20
-26.30176441089517
 30
0.0
 40
5.500000554162103
100
AcDbArc
 50
90.0
 51
180.0
  0
ARC
  5
1D1
330
1F
100
AcDbEntity
  8
D-2
  6
Continuous
 62
     3
370
     9
100
AcDbCircle
 10
308.7630813186234
 20
-45.80181637325794
 30
0.0
 40
5.500000554162103
100
AcDbArc
 50
180.0
 51
270.0
  0
ARC
  5
1D2
330
1F
100
AcDbEntity
  8
D-2
  6
Continuous
 62
     3
370
     9
100
AcDbCircle
 10
460.7631374049831
 20
-26.30176441089517
 30
0.0
 40
5.500000554162103
100
AcDbArc
 50
0.0
 51
90.0
  0
ARC
  5
1D3
330
1F
100
AcDbEntity
  8
D-2
  6
Continuous
 62
     3
370
     9
100
AcDbCircle
 10
460.7631374049831
 20
-45.80181637325794
 30
0.0
 40
5.500000554162103
100
AcDbArc
 50
270.0
 51
0.0
  0
ARC
  5
1D4
330
1F
100
AcDbEntity
  8
D-2
  6
Continuous
 62
     3
370
     9
100
AcDbCircle
 10
347.2632330817146
 20
-367.301305822424
 30
0.0
 40
2.500000515499631
100
AcDbArc
 50
180.0
 51
270.0
  0
ARC
  5
1D5
330
1F
100
AcDbEntity
  8
D-2
  6
Continuous
 62
     3
370
     9
100
AcDbCircle
 10
422.2632330817146
 20
-367.301305822424
 30
0.0
 40
2.500000515499631
100
AcDbArc
 50
270.0
 51
0.0
  0
ARC
  5
1D6
330
1F
100
AcDbEntity
  8
D-2
  6
Continuous
 62
     3
370
     9
100
AcDbCircle
 10
352.2630021378802
 20
-288.5513553103885
 30
0.0
 40
7.500001063217988
100
AcDbArc
 50
292.0240478515625
 51
0.0000000000000382
  0
ARC
  5
1D7
330
1F
100
AcDbEntity
  8
D-2
  6
Continuous
 62
     3
370
     9
100
AcDbCircle
 10
359.7631506017737
 20
-307.0917737806166
 30
0.0
 40
12.50000064437454
100
AcDbArc
 50
112.0243377685547
 51
180.0
  0
ARC
  5
1D8
330
1F
100
AcDbEntity
  8
D-2
  6
Continuous
 62
     3
370
     9
100
AcDbCircle
 10
409.7630681218328
 20
-307.0917737806166
 30
0.0
 40
12.50000064437454
100
AcDbArc
 50
0.0
 51
67.9756622314453
  0
ARC
  5
1D9
330
1F
100
AcDbEntity
  8
D-2
  6
Continuous
 62
     3
370
     9
100
AcDbCircle
 10
417.2629691459039
 20
-288.5513553103885
 30
0.0
 40
7.500001063217988
100
AcDbArc
 50
180.0
 51
247.9759521484375
  0
ARC
  5
1DA
330
1F
100
AcDbEntity
  8
D-2
  6
Continuous
 62
     3
370
     9
100
AcDbCircle
 10
384.7632330817146
 20
-36.05169760214309
 30
0.0
 40
32.50000283524797
100
AcDbArc
 50
207.9842987060547
 51
332.0157012939453
  0
ARC
  5
1DB
330
1F
100
AcDbEntity
  8
D-2
  6
Continuous
 62
     3
370
     9
100
AcDbCircle
 10
384.7632330817146
 20
-36.05169760214309
 30
0.0
 40
32.50000283524797
100
AcDbArc
 50
27.98429870605469
 51
152.0157012939453
  0
ARC
  5
1DC
330
1F
100
AcDbEntity
  8
D-2
  6
JWW_CENTER2
 62
     3
370
     9
100
AcDbCircle
 10
352.2630021378802
 20
-194.8011697305215
 30
0.0
 40
7.500001063217988
100
AcDbArc
 50
0.0
 51
90.0
  0
ARC
  5
1DD
330
1F
100
AcDbEntity
  8
D-2
  6
JWW_CENTER2
 62
     3
370
     9
100
AcDbCircle
 10
417.2629691459039
 20
-194.8011697305215
 30
0.0
 40
7.500001063217988
100
AcDbArc
 50
90.0
 51
180.0
  0
ARC
  5
1DE
330
1F
100
AcDbEntity
  8
D-2
  6
JWW_CENTER2
 62
     3
370
     9
100
AcDbCircle
 10
417.2629691459039
 20
-212.3010418866131
 30
0.0
 40
7.500001063217988
100
AcDbArc
 50
180.0
 51
247.9759521484375
  0
ARC
  5
1DF
330
1F
100
AcDbEntity
  8
D-2
  6
JWW_CENTER2
 62
     3
370
     9
100
AcDbCircle
 10
409.7630681218328
 20
-230.8416459367081
 30
0.0
 40
12.50000064437454
100
AcDbArc
 50
0.0
 51
67.97628784179688
  0
ARC
  5
1E0
330
1F
100
AcDbEntity
  8
D-2
  6
JWW_CENTER2
 62
     3
370
     9
100
AcDbCircle
 10
352.2630021378802
 20
-212.3010418866131
 30
0.0
 40
7.500001063217988
100
AcDbArc
 50
292.0240478515625
 51
0.0000000000000382
  0
ARC
  5
1E1
330
1F
100
AcDbEntity
  8
D-2
  6
JWW_CENTER2
 62
     3
370
     9
100
AcDbCircle
 10
359.762903161951
 20
-230.8416459367081
 30
0.0
 40
12.50000064437454
100
AcDbArc
 50
112.0237121582031
 51
180.0
  0
ARC
  5
1E2
330
1F
100
AcDbEntity
  8
D-2
  6
Continuous
 62
     3
370
     9
100
AcDbCircle
 10
472.510219264675
 20
369.0303658150339
 30
0.0
 40
1.875000024164045
100
AcDbArc
 50
90.0
 51
270.0
  0
ARC
  5
1E3
330
1F
100
AcDbEntity
  8
D-2
  6
Continuous
 62
     3
370
     9
100
AcDbCircle
 10
506.1350642023859
 20
367.9052569415119
 30
0.0
 40
2.500000032218727
100
AcDbArc
 50
270.0
 51
0.0
  0
ARC
  5
1E4
330
1F
100
AcDbEntity
  8
D-2
  6
Continuous
 62
     3
370
     9
100
AcDbCircle
 10
494.8852126662797
 20
366.6551909575591
 30
0.0
 40
1.250000016109364
100
AcDbArc
 50
180.0
 51
270.0
  0
ARC
  5
1E5
330
1F
100
AcDbEntity
  8
D-2
  6
Continuous
 62
     3
370
     9
100
AcDbCircle
 10
304.8852044182854
 20
374.1760006466428
 30
0.0
 40
10.52080682806067
100
AcDbArc
 50
276.8236846923828
 51
334.5512237548828
  0
ARC
  5
1E6
330
1F
100
AcDbEntity
  8
D-2
  6
Continuous
 62
     3
370
     9
100
AcDbCircle
 10
304.8852044182854
 20
374.1760006466428
 30
0.0
 40
10.52080682806067
100
AcDbArc
 50
205.4487762451172
 51
263.1763153076172
  0
TEXT
  5
1E7
330
1F
100
AcDbEntity
  8
0-4
  6
Continuous
 62
     2
370
     9
100
AcDbText
 10
-371.9235889331714
 20
354.2645701805322
 30
0.0
 40
15.24
  1
423
 41
1.083333333333333
  7
ＭＳ ゴシック
100
AcDbText
  0
TEXT
  5
1E8
330
1F
100
AcDbEntity
  8
0-4
  6
Continuous
 62
     2
370
     9
100
AcDbText
 10
-371.9235889331714
 20
392.5119621648016
 30
0.0
 40
15.24
  1
450
 41
1.083333333333333
  7
ＭＳ ゴシック
100
AcDbText
  0
TEXT
  5
1E9
330
1F
100
AcDbEntity
  8
0-4
  6
Continuous
 62
     2
370
     9
100
AcDbText
 10
-371.9235270732157
 20
422.8272994747678
 30
0.0
 40
15.24
  1
471
 41
1.083333333333333
  7
ＭＳ ゴシック
100
AcDbText
  0
TEXT
  5
1EA
330
1F
100
AcDbEntity
  8
0-4
  6
Continuous
 62
     2
370
     9
100
AcDbText
 10
-658.6113702887459
 20
35.07678882495782
 30
0.0
 40
15.24
  1
423
 50
90.0
 41
1.083333333333333
  7
ＭＳ ゴシック
100
AcDbText
  0
TEXT
  5
1EB
330
1F
100
AcDbEntity
  8
0-4
  6
Continuous
 62
     2
370
     9
100
AcDbText
 10
-696.8587622730151
 20
35.07678882495782
 30
0.0
 40
15.24
  1
450
 50
90.0
 41
1.083333333333333
  7
ＭＳ ゴシック
100
AcDbText
  0
TEXT
  5
1EC
330
1F
100
AcDbEntity
  8
0-4
  6
Continuous
 62
     2
370
     9
100
AcDbText
 10
-727.1740995829814
 20
35.07685068491348
 30
0.0
 40
15.24
  1
471
 50
90.0
 41
1.083333333333333
  7
ＭＳ ゴシック
100
AcDbText
  0
TEXT
  5
1ED
330
1F
100
AcDbEntity
  8
0-4
  6
Continuous
 62
     2
370
     9
100
AcDbText
 10
-464.2626767545133
 20
-272.4899843618032
 30
0.0
 40
15.24
  1
平面詳細図　Ｓ＝１：５
 41
1.113636363636364
  7
ＭＳ ゴシック
100
AcDbText
  0
TEXT
  5
1EE
330
1F
100
AcDbEntity
  8
D-4
  6
Continuous
 62
     2
370
     9
100
AcDbText
 10
263.9256575300888
 20
-455.8500686892948
 30
0.0
 40
15.24
  1
把手詳細図　Ｓ＝１：２
 41
1.113636363636364
  7
ＭＳ ゴシック
100
AcDbText
  0
TEXT
  5
1EF
330
1F
100
AcDbEntity
  8
D-4
  6
Continuous
 62
     2
370
     9
100
AcDbText
 10
238.9352252032306
 20
168.3660625725824
 30
0.0
 40
15.24
  1
断面詳細図　Ｓ＝１：２
 41
1.113636363636364
  7
ＭＳ ゴシック
100
AcDbText
  0
TEXT
  5
1F0
330
1F
100
AcDbEntity
  8
D-4
  6
Continuous
 62
     7
370
     9
100
AcDbText
 10
360.4950611011402
 20
130.0943156804266
 30
0.0
 40
11.43
  1
処理：陽極酸化塗装複合皮膜（アルミ材のみ）
 41
1.158730158730159
  7
ＭＳ ゴシック
100
AcDbText
  0
TEXT
  5
1F1
330
1F
100
AcDbEntity
  8
D-4
  6
Continuous
 62
     2
370
     9
100
AcDbText
 10
675.0733138460727
 20
362.9052198255385
 30
0.0
 40
15.24
  1
22.5
 50
90.0
 41
1.09375
  7
ＭＳ ゴシック
100
AcDbText
  0
TEXT
  5
1F2
330
1F
100
AcDbEntity
  8
D-4
  6
Continuous
 62
     2
370
     9
100
AcDbText
 10
675.0733138460727
 20
421.8160763302365
 30
0.0
 40
15.24
  1
1.5
 50
90.0
 41
1.083333333333333
  7
ＭＳ ゴシック
100
AcDbText
  0
TEXT
  5
1F3
330
1F
100
AcDbEntity
  8
D-4
  6
Continuous
 62
     2
370
     9
100
AcDbText
 10
485.7603784509608
 20
476.7662115313556
 30
0.0
 40
15.24
  1
10
 41
1.0625
  7
ＭＳ ゴシック
100
AcDbText
  0
TEXT
  5
1F4
330
1F
100
AcDbEntity
  8
D-4
  6
Continuous
 62
     2
370
     9
100
AcDbText
 10
468.1082565720017
 20
517.2803997307856
 30
0.0
 40
15.24
  1
0.5
 41
1.083333333333333
  7
ＭＳ ゴシック
100
AcDbText
  0
TEXT
  5
1F5
330
1F
100
AcDbEntity
  8
D-4
  6
Continuous
 62
     2
370
     9
100
AcDbText
 10
512.0101557551204
 20
516.2417710752746
 30
0.0
 40
15.24
  1
10
 41
1.0625
  7
ＭＳ ゴシック
100
AcDbText
  0
TEXT
  5
1F6
330
1F
100
AcDbEntity
  8
D-4
  6
Continuous
 62
     2
370
     9
100
AcDbText
 10
476.6348967681062
 20
224.4387100797087
 30
0.0
 40
15.24
  1
18.3
 41
1.09375
  7
ＭＳ ゴシック
100
AcDbText
  0
TEXT
  5
1F7
330
1F
100
AcDbEntity
  8
D-4
  6
Continuous
 62
     2
370
     9
100
AcDbText
 10
374.138171221759
 20
-116.2358809847445
 30
0.0
 40
15.24
  1
92
 41
1.0625
  7
ＭＳ ゴシック
100
AcDbText
  0
TEXT
  5
1F8
330
1F
100
AcDbEntity
  8
D-4
  6
Continuous
 62
     2
370
     9
100
AcDbText
 10
584.46777911212
 20
-46.67669760214309
 30
0.0
 40
15.24
  1
35
 50
90.0
 41
1.0625
  7
ＭＳ ゴシック
100
AcDbText
  0
TEXT
  5
1F9
330
1F
100
AcDbEntity
  8
D-4
  6
Continuous
 62
     2
370
     9
100
AcDbText
 10
584.46777911212
 20
-317.9261697305215
 30
0.0
 40
15.24
  1
50
 50
90.0
 41
1.0625
  7
ＭＳ ゴシック
100
AcDbText
  0
TEXT
  5
1FA
330
1F
100
AcDbEntity
  8
D-4
  6
Continuous
 62
     2
370
     9
100
AcDbText
 10
584.46777911212
 20
-217.9261491105363
 30
0.0
 40
15.24
  1
30
 50
90.0
 41
1.0625
  7
ＭＳ ゴシック
100
AcDbText
  0
TEXT
  5
1FB
330
1F
100
AcDbEntity
  8
D-4
  6
Continuous
 62
     2
370
     9
100
AcDbText
 10
550.4044708086994
 20
-274.1760872505806
 30
0.0
 40
15.24
  1
15
 50
90.0
 41
1.0625
  7
ＭＳ ゴシック
100
AcDbText
  0
TEXT
  5
1FC
330
1F
100
AcDbEntity
  8
D-4
  6
Continuous
 62
     2
370
     9
100
AcDbText
 10
182.0810596362966
 20
574.7949409443626
 30
0.0
 40
15.24
  1
471
 41
1.083333333333333
  7
ＭＳ ゴシック
100
AcDbText
  0
TEXT
  5
1FD
330
1F
100
AcDbEntity
  8
D-4
  6
Continuous
 62
     2
370
     9
100
AcDbText
 10
181.08041299356
 20
516.2417710752746
 30
0.0
 40
15.24
  1
450
 41
1.083333333333333
  7
ＭＳ ゴシック
100
AcDbText
  0
TEXT
  5
1FE
330
1F
100
AcDbEntity
  8
D-4
  6
Continuous
 62
     2
370
     9
100
AcDbText
 10
182.7251454946158
 20
224.4387100797087
 30
0.0
 40
15.24
  1
423
 41
1.083333333333333
  7
ＭＳ ゴシック
100
AcDbText
  0
LWPOLYLINE
  5
1FF
330
1F
100
AcDbEntity
  8
0-4
  6
Continuous
 62
     7
370
     9
100
AcDbPolyline
 90
        4
 70
     1
 43
0.5
 10
-566.9235815099768
 20
348.944561932538
 42
0.4142135623731
 10
-567.1735815099768
 20
349.194561932538
 42
0.4142135623731
 10
-567.4235815099768
 20
348.944561932538
 42
0.4142135623731
 10
-567.1735815099768
 20
348.694561932538
 42
0.4142135623731
  0
LWPOLYLINE
  5
200
330
1F
100
AcDbEntity
  8
0-4
  6
Continuous
 62
     7
370
     9
100
AcDbPolyline
 90
        4
 70
     1
 43
0.5
 10
-143.9235963563661
 20
348.944561932538
 42
0.4142135623731
 10
-144.1735963563661
 20
349.194561932538
 42
0.4142135623731
 10
-144.4235963563661
 20
348.944561932538
 42
0.4142135623731
 10
-144.1735963563661
 20
348.694561932538
 42
0.4142135623731
  0
LWPOLYLINE
  5
201
330
1F
100
AcDbEntity
  8
0-4
  6
Continuous
 62
     7
370
     9
100
AcDbPolyline
 90
        4
 70
     1
 43
0.5
 10
-580.4235889331715
 20
387.1919539168076
 42
0.4142135623731
 10
-580.6735889331715
 20
387.4419539168076
 42
0.4142135623731
 10
-580.9235889331715
 20
387.1919539168076
 42
0.4142135623731
 10
-580.6735889331715
 20
386.9419539168076
 42
0.4142135623731
  0
LWPOLYLINE
  5
202
330
1F
100
AcDbEntity
  8
0-4
  6
Continuous
 62
     7
370
     9
100
AcDbPolyline
 90
        4
 70
     1
 43
0.5
 10
-130.4235889331713
 20
387.1919539168076
 42
0.4142135623731
 10
-130.6735889331713
 20
387.4419539168076
 42
0.4142135623731
 10
-130.9235889331713
 20
387.1919539168076
 42
0.4142135623731
 10
-130.6735889331713
 20
386.9419539168076
 42
0.4142135623731
  0
LWPOLYLINE
  5
203
330
1F
100
AcDbEntity
  8
0-4
  6
Continuous
 62
     7
370
     9
100
AcDbPolyline
 90
        4
 70
     1
 43
0.5
 10
-590.9235740867821
 20
417.5072912267737
 42
0.4142135623731
 10
-591.1735740867821
 20
417.7572912267737
 42
0.4142135623731
 10
-591.4235740867821
 20
417.5072912267737
 42
0.4142135623731
 10
-591.1735740867821
 20
417.2572912267737
 42
0.4142135623731
  0
LWPOLYLINE
  5
204
330
1F
100
AcDbEntity
  8
0-4
  6
Continuous
 62
     7
370
     9
100
AcDbPolyline
 90
        4
 70
     1
 43
0.5
 10
-119.9234800596495
 20
417.5072912267737
 42
0.4142135623731
 10
-120.1734800596495
 20
417.7572912267737
 42
0.4142135623731
 10
-120.4234800596495
 20
417.5072912267737
 42
0.4142135623731
 10
-120.1734800596495
 20
417.2572912267737
 42
0.4142135623731
  0
LWPOLYLINE
  5
205
330
1F
100
AcDbEntity
  8
0-4
  6
Continuous
 62
     7
370
     9
100
AcDbPolyline
 90
        4
 70
     1
 43
0.5
 10
-653.0413620407517
 20
-160.1732037518475
 42
0.4142135623731
 10
-653.2913620407517
 20
-159.9232037518475
 42
0.4142135623731
 10
-653.5413620407518
 20
-160.1732037518475
 42
0.4142135623731
 10
-653.2913620407517
 20
-160.4232037518475
 42
0.4142135623731
  0
LWPOLYLINE
  5
206
330
1F
100
AcDbEntity
  8
0-4
  6
Continuous
 62
     7
370
     9
100
AcDbPolyline
 90
        4
 70
     1
 43
0.5
 10
-653.0413620407517
 20
262.8267814017631
 42
0.4142135623731
 10
-653.2913620407517
 20
263.0767814017631
 42
0.4142135623731
 10
-653.5413620407518
 20
262.8267814017631
 42
0.4142135623731
 10
-653.2913620407517
 20
262.5767814017632
 42
0.4142135623731
  0
LWPOLYLINE
  5
207
330
1F
100
AcDbEntity
  8
0-4
  6
Continuous
 62
     7
370
     9
100
AcDbPolyline
 90
        4
 70
     1
 43
0.5
 10
-691.288754025021
 20
-173.6732111750422
 42
0.4142135623731
 10
-691.538754025021
 20
-173.4232111750422
 42
0.4142135623731
 10
-691.7887540250211
 20
-173.6732111750422
 42
0.4142135623731
 10
-691.538754025021
 20
-173.9232111750422
 42
0.4142135623731
  0
LWPOLYLINE
  5
208
330
1F
100
AcDbEntity
  8
0-4
  6
Continuous
 62
     7
370
     9
100
AcDbPolyline
 90
        4
 70
     1
 43
0.5
 10
-691.288754025021
 20
276.3267888249578
 42
0.4142135623731
 10
-691.538754025021
 20
276.5767888249578
 42
0.4142135623731
 10
-691.7887540250211
 20
276.3267888249578
 42
0.4142135623731
 10
-691.538754025021
 20
276.0767888249578
 42
0.4142135623731
  0
LWPOLYLINE
  5
209
330
1F
100
AcDbEntity
  8
0-4
  6
Continuous
 62
     7
370
     9
100
AcDbPolyline
 90
        4
 70
     1
 43
0.5
 10
-721.6040913349872
 20
-184.1731963286529
 42
0.4142135623731
 10
-721.8540913349873
 20
-183.9231963286529
 42
0.4142135623731
 10
-722.1040913349873
 20
-184.1731963286529
 42
0.4142135623731
 10
-721.8540913349873
 20
-184.4231963286529
 42
0.4142135623731
  0
LWPOLYLINE
  5
20A
330
1F
100
AcDbEntity
  8
0-4
  6
Continuous
 62
     7
370
     9
100
AcDbPolyline
 90
        4
 70
     1
 43
0.5
 10
-721.6040913349872
 20
286.8268976984798
 42
0.4142135623731
 10
-721.8540913349873
 20
287.0768976984798
 42
0.4142135623731
 10
-722.1040913349873
 20
286.8268976984798
 42
0.4142135623731
 10
-721.8540913349873
 20
286.5768976984799
 42
0.4142135623731
  0
LWPOLYLINE
  5
20B
330
1F
100
AcDbEntity
  8
D-4
  6
Continuous
 62
     7
370
     9
100
AcDbPolyline
 90
        4
 70
     1
 43
0.5
 10
142.4247156091639
 20
370.9054647909629
 42
0.4142135623731
 10
142.1747156091639
 20
371.1554647909629
 42
0.4142135623731
 10
141.9247156091639
 20
370.9054647909629
 42
0.4142135623731
 10
142.1747156091639
 20
370.6554647909629
 42
0.4142135623731
  0
LWPOLYLINE
  5
20C
330
1F
100
AcDbEntity
  8
D-4
  6
Continuous
 62
     7
370
     9
100
AcDbPolyline
 90
        4
 70
     1
 43
0.5
 10
142.4247156091639
 20
374.9053295238599
 42
0.4142135623731
 10
142.1747156091639
 20
375.1553295238599
 42
0.4142135623731
 10
141.9247156091639
 20
374.9053295238599
 42
0.4142135623731
 10
142.1747156091639
 20
374.6553295238599
 42
0.4142135623731
  0
LWPOLYLINE
  5
20D
330
1F
100
AcDbEntity
  8
D-4
  6
Continuous
 62
     7
370
     9
100
AcDbPolyline
 90
        4
 70
     1
 43
0.5
 10
142.4247156091639
 20
412.4053295238599
 42
0.4142135623731
 10
142.1747156091639
 20
412.6553295238599
 42
0.4142135623731
 10
141.9247156091639
 20
412.4053295238599
 42
0.4142135623731
 10
142.1747156091639
 20
412.1553295238599
 42
0.4142135623731
  0
LWPOLYLINE
  5
20E
330
1F
100
AcDbEntity
  8
D-4
  6
Continuous
 62
     7
370
     9
100
AcDbPolyline
 90
        4
 70
     1
 43
0.5
 10
680.6431983741555
 20
356.6551579655828
 42
0.4142135623731
 10
680.3931983741554
 20
356.9051579655828
 42
0.4142135623731
 10
680.1431983741554
 20
356.6551579655828
 42
0.4142135623731
 10
680.3931983741554
 20
356.4051579655828
 42
0.4142135623731
  0
LWPOLYLINE
  5
20F
330
1F
100
AcDbEntity
  8
D-4
  6
Continuous
 62
     7
370
     9
100
AcDbPolyline
 90
        4
 70
     1
 43
0.5
 10
680.6431983741555
 20
412.9054054054055
 42
0.4142135623731
 10
680.3931983741554
 20
413.1554054054055
 42
0.4142135623731
 10
680.1431983741554
 20
412.9054054054055
 42
0.4142135623731
 10
680.3931983741554
 20
412.6554054054055
 42
0.4142135623731
  0
LWPOLYLINE
  5
210
330
1F
100
AcDbEntity
  8
D-4
  6
Continuous
 62
     7
370
     9
100
AcDbPolyline
 90
        4
 70
     1
 43
0.5
 10
680.6431983741555
 20
416.6553559174409
 42
0.4142135623731
 10
680.3931983741554
 20
416.9053559174409
 42
0.4142135623731
 10
680.1431983741554
 20
416.6553559174409
 42
0.4142135623731
 10
680.3931983741554
 20
416.4053559174409
 42
0.4142135623731
  0
LWPOLYLINE
  5
211
330
1F
100
AcDbEntity
  8
D-4
  6
Continuous
 62
     7
370
     9
100
AcDbPolyline
 90
        4
 70
     1
 43
0.5
 10
484.1351516311234
 20
471.4462032833616
 42
0.4142135623731
 10
483.8851516311234
 20
471.6962032833616
 42
0.4142135623731
 10
483.6351516311234
 20
471.4462032833616
 42
0.4142135623731
 10
483.8851516311234
 20
471.1962032833616
 42
0.4142135623731
  0
LWPOLYLINE
  5
212
330
1F
100
AcDbEntity
  8
D-4
  6
Continuous
 62
     7
370
     9
100
AcDbPolyline
 90
        4
 70
     1
 43
0.5
 10
509.1352341110643
 20
471.4462032833616
 42
0.4142135623731
 10
508.8852341110643
 20
471.6962032833616
 42
0.4142135623731
 10
508.6352341110643
 20
471.4462032833616
 42
0.4142135623731
 10
508.8852341110643
 20
471.1962032833616
 42
0.4142135623731
  0
LWPOLYLINE
  5
213
330
1F
100
AcDbEntity
  8
D-4
  6
Continuous
 62
     7
370
     9
100
AcDbPolyline
 90
        4
 70
     1
 43
0.5
 10
509.1352341110643
 20
510.9217628272805
 42
0.4142135623731
 10
508.8852341110643
 20
511.1717628272805
 42
0.4142135623731
 10
508.6352341110643
 20
510.9217628272805
 42
0.4142135623731
 10
508.8852341110643
 20
510.6717628272805
 42
0.4142135623731
  0
LWPOLYLINE
  5
214
330
1F
100
AcDbEntity
  8
D-4
  6
Continuous
 62
     7
370
     9
100
AcDbPolyline
 90
        4
 70
     1
 43
0.5
 10
510.3850526551943
 20
510.9217628272805
 42
0.4142135623731
 10
510.1350526551943
 20
511.1717628272805
 42
0.4142135623731
 10
509.8850526551943
 20
510.9217628272805
 42
0.4142135623731
 10
510.1350526551943
 20
510.6717628272805
 42
0.4142135623731
  0
LWPOLYLINE
  5
215
330
1F
100
AcDbEntity
  8
D-4
  6
Continuous
 62
     7
370
     9
100
AcDbPolyline
 90
        4
 70
     1
 43
0.5
 10
535.3851351351351
 20
510.9217628272805
 42
0.4142135623731
 10
535.1351351351352
 20
511.1717628272805
 42
0.4142135623731
 10
534.8851351351352
 20
510.9217628272805
 42
0.4142135623731
 10
535.1351351351352
 20
510.6717628272805
 42
0.4142135623731
  0
LWPOLYLINE
  5
216
330
1F
100
AcDbEntity
  8
D-4
  6
Continuous
 62
     7
370
     9
100
AcDbPolyline
 90
        4
 70
     1
 43
0.5
 10
535.3851351351351
 20
569.4749326963682
 42
0.4142135623731
 10
535.1351351351352
 20
569.7249326963682
 42
0.4142135623731
 10
534.8851351351352
 20
569.4749326963682
 42
0.4142135623731
 10
535.1351351351352
 20
569.2249326963682
 42
0.4142135623731
  0
LWPOLYLINE
  5
217
330
1F
100
AcDbEntity
  8
D-4
  6
Continuous
 62
     7
370
     9
100
AcDbPolyline
 90
        4
 70
     1
 43
0.5
 10
475.8851367847341
 20
219.1186399717589
 42
0.4142135623731
 10
475.6351367847341
 20
219.3686399717589
 42
0.4142135623731
 10
475.3851367847341
 20
219.1186399717589
 42
0.4142135623731
 10
475.6351367847341
 20
218.8686399717589
 42
0.4142135623731
  0
LWPOLYLINE
  5
218
330
1F
100
AcDbEntity
  8
D-4
  6
Continuous
 62
     7
370
     9
100
AcDbPolyline
 90
        4
 70
     1
 43
0.5
 10
521.635027911212
 20
219.1186399717589
 42
0.4142135623731
 10
521.385027911212
 20
219.3686399717589
 42
0.4142135623731
 10
521.135027911212
 20
219.1186399717589
 42
0.4142135623731
 10
521.385027911212
 20
218.8686399717589
 42
0.4142135623731
  0
LWPOLYLINE
  5
219
330
1F
100
AcDbEntity
  8
D-4
  6
Continuous
 62
     7
370
     9
100
AcDbPolyline
 90
        4
 70
     1
 43
0.5
 10
270.0131011138091
 20
-124.055835620777
 42
0.4142135623731
 10
269.7631011138091
 20
-123.805835620777
 42
0.4142135623731
 10
269.5131011138091
 20
-124.055835620777
 42
0.4142135623731
 10
269.7631011138091
 20
-124.305835620777
 42
0.4142135623731
  0
LWPOLYLINE
  5
21A
330
1F
100
AcDbEntity
  8
D-4
  6
Continuous
 62
     7
370
     9
100
AcDbPolyline
 90
        4
 70
     1
 43
0.5
 10
500.0131176097974
 20
-124.055835620777
 42
0.4142135623731
 10
499.7631176097974
 20
-123.805835620777
 42
0.4142135623731
 10
499.5131176097974
 20
-124.055835620777
 42
0.4142135623731
 10
499.7631176097974
 20
-124.305835620777
 42
0.4142135623731
  0
LWPOLYLINE
  5
21B
330
1F
100
AcDbEntity
  8
D-4
  6
Continuous
 62
     7
370
     9
100
AcDbPolyline
 90
        4
 70
     1
 43
0.5
 10
592.5380430479307
 20
-79.80178008208398
 42
0.4142135623731
 10
592.2880430479307
 20
-79.55178008208398
 42
0.4142135623731
 10
592.0380430479307
 20
-79.80178008208398
 42
0.4142135623731
 10
592.2880430479307
 20
-80.05178008208398
 42
0.4142135623731
  0
LWPOLYLINE
  5
21C
330
1F
100
AcDbEntity
  8
D-4
  6
Continuous
 62
     7
370
     9
100
AcDbPolyline
 90
        4
 70
     1
 43
0.5
 10
592.5380430479307
 20
7.698508597709122
 42
0.4142135623731
 10
592.2880430479307
 20
7.948508597709122
 42
0.4142135623731
 10
592.0380430479307
 20
7.698508597709122
 42
0.4142135623731
 10
592.2880430479307
 20
7.448508597709122
 42
0.4142135623731
  0
LWPOLYLINE
  5
21D
330
1F
100
AcDbEntity
  8
D-4
  6
Continuous
 62
     7
370
     9
100
AcDbPolyline
 90
        4
 70
     1
 43
0.5
 10
592.5380430479307
 20
-369.8011903505067
 42
0.4142135623731
 10
592.2880430479307
 20
-369.5511903505067
 42
0.4142135623731
 10
592.0380430479307
 20
-369.8011903505067
 42
0.4142135623731
 10
592.2880430479307
 20
-370.0511903505067
 42
0.4142135623731
  0
LWPOLYLINE
  5
21E
330
1F
100
AcDbEntity
  8
D-4
  6
Continuous
 62
     7
370
     9
100
AcDbPolyline
 90
        4
 70
     1
 43
0.5
 10
592.5380430479307
 20
-244.801025390625
 42
0.4142135623731
 10
592.2880430479307
 20
-244.551025390625
 42
0.4142135623731
 10
592.0380430479307
 20
-244.801025390625
 42
0.4142135623731
 10
592.2880430479307
 20
-245.051025390625
 42
0.4142135623731
  0
LWPOLYLINE
  5
21F
330
1F
100
AcDbEntity
  8
D-4
  6
Continuous
 62
     7
370
     9
100
AcDbPolyline
 90
        4
 70
     1
 43
0.5
 10
592.5380430479307
 20
-169.8010872505806
 42
0.4142135623731
 10
592.2880430479307
 20
-169.5510872505806
 42
0.4142135623731
 10
592.0380430479307
 20
-169.8010872505806
 42
0.4142135623731
 10
592.2880430479307
 20
-170.0510872505806
 42
0.4142135623731
  0
LWPOLYLINE
  5
220
330
1F
100
AcDbEntity
  8
D-4
  6
Continuous
 62
     7
370
     9
100
AcDbPolyline
 90
        4
 70
     1
 43
0.5
 10
592.5380430479307
 20
-244.801025390625
 42
0.4142135623731
 10
592.2880430479307
 20
-244.551025390625
 42
0.4142135623731
 10
592.0380430479307
 20
-244.801025390625
 42
0.4142135623731
 10
592.2880430479307
 20
-245.051025390625
 42
0.4142135623731
  0
LWPOLYLINE
  5
221
330
1F
100
AcDbEntity
  8
D-4
  6
Continuous
 62
     7
370
     9
100
AcDbPolyline
 90
        4
 70
     1
 43
0.5
 10
555.9743553367823
 20
-244.801025390625
 42
0.4142135623731
 10
555.7243553367823
 20
-244.551025390625
 42
0.4142135623731
 10
555.4743553367823
 20
-244.801025390625
 42
0.4142135623731
 10
555.7243553367823
 20
-245.051025390625
 42
0.4142135623731
  0
LWPOLYLINE
  5
222
330
1F
100
AcDbEntity
  8
D-4
  6
Continuous
 62
     7
370
     9
100
AcDbPolyline
 90
        4
 70
     1
 43
0.5
 10
555.9743553367823
 20
-282.301025390625
 42
0.4142135623731
 10
555.7243553367823
 20
-282.051025390625
 42
0.4142135623731
 10
555.4743553367823
 20
-282.301025390625
 42
0.4142135623731
 10
555.7243553367823
 20
-282.551025390625
 42
0.4142135623731
  0
LINE
  5
223
330
1F
100
AcDbEntity
  8
D-5
  6
Continuous
 62
     7
370
     9
100
AcDbLine
 10
81.57076449007604
 20
299.1837950010558
 30
0.0
 11
260.433630041174
 21
299.1837950010558
 31
0.0
  0
LINE
  5
224
330
1F
100
AcDbEntity
  8
D-5
  6
Continuous
 62
     7
370
     9
100
AcDbLine
 10
438.8512276314401
 20
278.3016679093645
 30
0.0
 11
278.2423689558701
 21
278.3016679093645
 31
0.0
  0
LINE
  5
225
330
1F
100
AcDbEntity
  8
D-5
  6
Continuous
 62
     7
370
     9
100
AcDbLine
 10
591.4149516337627
 20
495.9808514569258
 30
0.0
 11
779.3629414326438
 21
495.9808514569258
 31
0.0
  0
LINE
  5
226
330
1F
100
AcDbEntity
  8
D-5
  6
Continuous
 62
     7
370
     9
100
AcDbLine
 10
591.4149516337627
 20
495.9808514569258
 30
0.0
 11
534.2605590820312
 21
396.9864881360854
 31
0.0
  0
LINE
  5
227
330
1F
100
AcDbEntity
  8
D-5
  6
Continuous
 62
     7
370
     9
100
AcDbLine
 10
438.8512276314401
 20
278.3016679093645
 30
0.0
 11
487.8530966269005
 21
363.1750735721073
 31
0.0
  0
LINE
  5
228
330
1F
100
AcDbEntity
  8
D-5
  6
Continuous
 62
     7
370
     9
100
AcDbLine
 10
260.433630041174
 20
299.1837950010558
 30
0.0
 11
302.6755668021539
 21
372.3490287162163
 31
0.0
  0
LINE
  5
229
330
1F
100
AcDbEntity
  8
D-5
  6
Continuous
 62
     7
370
     9
100
AcDbLine
 10
534.2605590820312
 20
396.9864881360854
 30
0.0
 11
539.0439420133023
 21
408.5349995381124
 31
0.0
  0
LINE
  5
22A
330
1F
100
AcDbEntity
  8
D-5
  6
Continuous
 62
     7
370
     9
100
AcDbLine
 10
534.2605590820312
 20
396.9864881360854
 30
0.0
 11
541.8699522276182
 21
406.9033813476562
 31
0.0
  0
LINE
  5
22B
330
1F
100
AcDbEntity
  8
D-5
  6
Continuous
 62
     7
370
     9
100
AcDbLine
 10
517.5469888223186
 20
413.9424257020693
 30
0.0
 11
522.3304954735011
 21
425.4909371040964
 31
0.0
  0
LINE
  5
22C
330
1F
100
AcDbEntity
  8
D-5
  6
Continuous
 62
     7
370
     9
100
AcDbLine
 10
517.5469888223186
 20
413.9424257020693
 30
0.0
 11
525.1566294077281
 21
423.8593189136402
 31
0.0
  0
LINE
  5
22D
330
1F
100
AcDbEntity
  8
D-5
  6
Continuous
 62
     7
370
     9
100
AcDbLine
 10
491.7825647302575
 20
414.7467288455448
 30
0.0
 11
496.5660713814401
 21
426.2952402475719
 31
0.0
  0
LINE
  5
22E
330
1F
100
AcDbEntity
  8
D-5
  6
Continuous
 62
     7
370
     9
100
AcDbLine
 10
491.7825647302575
 20
414.7467288455448
 30
0.0
 11
499.392081595756
 21
424.6636220571157
 31
0.0
  0
LINE
  5
22F
330
1F
100
AcDbEntity
  8
D-5
  6
Continuous
 62
     7
370
     9
100
AcDbLine
 10
302.6755668021539
 20
372.3490287162163
 30
0.0
 11
297.8920601509714
 21
360.8005173141892
 31
0.0
  0
LINE
  5
230
330
1F
100
AcDbEntity
  8
D-5
  6
Continuous
 62
     7
370
     9
100
AcDbLine
 10
302.6755668021539
 20
372.3490287162163
 30
0.0
 11
295.0660499366555
 21
362.4321355046453
 31
0.0
  0
LINE
  5
231
330
1F
100
AcDbEntity
  8
D-5
  6
Continuous
 62
     7
370
     9
100
AcDbLine
 10
487.8530966269005
 20
363.1750735721073
 30
0.0
 11
483.069589975718
 21
351.6265621700803
 31
0.0
  0
LINE
  5
232
330
1F
100
AcDbEntity
  8
D-5
  6
Continuous
 62
     7
370
     9
100
AcDbLine
 10
487.8530966269005
 20
363.1750735721073
 30
0.0
 11
480.2435797614021
 21
353.2581803605364
 31
0.0
  0
LINE
  5
233
330
1F
100
AcDbEntity
  8
D-5
  6
Continuous
 62
     7
370
     9
100
AcDbLine
 10
587.5042889569258
 20
535.1116036080026
 30
0.0
 11
517.5469888223186
 21
413.9424257020693
 31
0.0
  0
LINE
  5
234
330
1F
100
AcDbEntity
  8
D-5
  6
Continuous
 62
     7
370
     9
100
AcDbLine
 10
587.5042889569258
 20
535.1116036080026
 30
0.0
 11
742.6359434385557
 21
535.1116036080026
 31
0.0
  0
LINE
  5
235
330
1F
100
AcDbEntity
  8
D-5
  6
Continuous
 62
     7
370
     9
100
AcDbLine
 10
579.6554977829394
 20
566.9467163085938
 30
0.0
 11
491.7825647302575
 21
414.7467288455448
 31
0.0
  0
LINE
  5
236
330
1F
100
AcDbEntity
  8
D-5
  6
Continuous
 62
     7
370
     9
100
AcDbLine
 10
805.9484945761193
 20
566.9467163085938
 30
0.0
 11
579.6554977829394
 21
566.9467163085938
 31
0.0
  0
TEXT
  5
237
330
1F
100
AcDbEntity
  8
D-5
  6
Continuous
 62
     7
370
     9
100
AcDbText
 10
598.7283118995463
 20
504.1787883366766
 30
0.0
 40
11.43
  1
皿木ネジ4.1×25
 41
1.155555555555555
  7
ＭＳ ゴシック
100
AcDbText
  0
TEXT
  5
238
330
1F
100
AcDbEntity
  8
D-5
  6
Continuous
 62
     7
370
     9
100
AcDbText
 10
98.6087077372784
 20
307.7767695576437
 30
0.0
 40
11.43
  1
タッピンネジM4×10
 41
1.157407407407407
  7
ＭＳ ゴシック
100
AcDbText
  0
TEXT
  5
239
330
1F
100
AcDbEntity
  8
D-5
  6
Continuous
 62
     7
370
     9
100
AcDbText
 10
83.61350531552227
 20
282.8912517155864
 30
0.0
 40
11.43
  1
S20C（ユニクロメッキ）
 50
0.0000746171416053
 41
1.151515151515151
  7
ＭＳ ゴシック
100
AcDbText
  0
TEXT
  5
23A
330
1F
100
AcDbEntity
  8
D-5
  6
Continuous
 62
     2
370
     9
100
AcDbText
 10
136.8547073611698
 20
331.9646144557644
 30
0.0
 40
15.24
  1
1.6
 50
90.0
 41
1.083333333333333
  7
ＭＳ ゴシック
100
AcDbText
  0
TEXT
  5
23B
330
1F
100
AcDbEntity
  8
D-5
  6
Continuous
 62
     7
370
     9
100
AcDbText
 10
592.8695307551204
 20
476.7967264041386
 30
0.0
 40
11.43
  1
S20C（電気亜鉛めっき）
 41
1.151515151515152
  7
ＭＳ ゴシック
100
AcDbText
  0
TEXT
  5
23C
330
1F
100
AcDbEntity
  8
D-5
  6
Continuous
 62
     7
370
     9
100
AcDbText
 10
587.1448826145481
 20
573.8528935942779
 30
0.0
 40
11.43
  1
蓋フレーム（Ａ６０６３Ｓ）
 41
1.153846153846154
  7
ＭＳ ゴシック
100
AcDbText
  0
TEXT
  5
23D
330
1F
100
AcDbEntity
  8
D-5
  6
Continuous
 62
     7
370
     9
100
AcDbText
 10
589.8941947318413
 20
541.0928508366766
 30
0.0
 40
11.43
  1
枠（Ａ６０６３Ｓ）
 41
1.148148148148148
  7
ＭＳ ゴシック
100
AcDbText
  0
TEXT
  5
23E
330
1F
100
AcDbEntity
  8
D-5
  6
Continuous
 62
     2
370
     9
100
AcDbText
 10
136.8547073611698
 20
383.0303913838155
 30
0.0
 40
15.24
  1
15
 50
90.0
 41
1.0625
  7
ＭＳ ゴシック
100
AcDbText
  0
LINE
  5
23F
330
1F
100
AcDbEntity
  8
D-5
  6
Continuous
 62
     7
370
     9
100
AcDbLine
 10
341.6436272698479
 20
460.6350625527872
 30
0.0
 11
391.9444305065434
 21
373.5115603809206
 31
0.0
  0
LINE
  5
240
330
1F
100
AcDbEntity
  8
D-5
  6
Continuous
 62
     7
370
     9
100
AcDbLine
 10
391.9444305065434
 20
373.5115603809206
 30
0.0
 11
384.3349136410452
 21
383.4284535924916
 31
0.0
  0
LINE
  5
241
330
1F
100
AcDbEntity
  8
D-5
  6
Continuous
 62
     7
370
     9
100
AcDbLine
 10
391.9444305065434
 20
373.5115603809206
 30
0.0
 11
387.1609238553611
 21
385.0600717829477
 31
0.0
  0
LINE
  5
242
330
1F
100
AcDbEntity
  8
D-5
  6
Continuous
 62
     7
370
     9
100
AcDbLine
 10
92.32746845967071
 20
-245.0061530035895
 30
0.0
 11
249.5319263355154
 21
-245.0061530035895
 31
0.0
  0
LINE
  5
243
330
1F
100
AcDbEntity
  8
D-5
  6
Continuous
 62
     7
370
     9
100
AcDbLine
 10
249.5319263355154
 20
-245.0061530035895
 30
0.0
 11
272.1414926889781
 21
-267.6763421135979
 31
0.0
  0
LINE
  5
244
330
1F
100
AcDbEntity
  8
D-5
  6
Continuous
 62
     7
370
     9
100
AcDbLine
 10
272.1414926889781
 20
-267.6763421135979
 30
0.0
 11
262.2347445101352
 21
-260.0537109375
 31
0.0
  0
LINE
  5
245
330
1F
100
AcDbEntity
  8
D-5
  6
Continuous
 62
     7
370
     9
100
AcDbLine
 10
272.1414926889781
 20
-267.6763421135979
 30
0.0
 11
264.5450901340794
 21
-257.749303869299
 31
0.0
  0
LINE
  5
246
330
1F
100
AcDbEntity
  8
D-5
  6
Continuous
 62
     7
370
     9
100
AcDbLine
 10
82.15967126794766
 20
-160.5258054991026
 30
0.0
 11
247.1080058329815
 21
-160.5258054991026
 31
0.0
  0
LINE
  5
247
330
1F
100
AcDbEntity
  8
D-5
  6
Continuous
 62
     7
370
     9
100
AcDbLine
 10
111.5721006651184
 20
-375.9728344066723
 30
0.0
 11
283.157018713049
 21
-375.9728344066723
 31
0.0
  0
LINE
  5
248
330
1F
100
AcDbEntity
  8
D-5
  6
Continuous
 62
     7
370
     9
100
AcDbLine
 10
112.2206404402451
 20
-294.6558194547086
 30
0.0
 11
279.3862832559122
 21
-294.6558194547086
 31
0.0
  0
LINE
  5
249
330
1F
100
AcDbEntity
  8
D-5
  6
Continuous
 62
     7
370
     9
100
AcDbLine
 10
247.1080058329815
 20
-160.5258054991026
 30
0.0
 11
294.7995572476773
 21
-244.801025390625
 31
0.0
  0
LINE
  5
24A
330
1F
100
AcDbEntity
  8
D-5
  6
Continuous
 62
     7
370
     9
100
AcDbLine
 10
294.7995572476773
 20
-244.801025390625
 30
0.0
 11
287.2759020006336
 21
-234.8188080658783
 31
0.0
  0
LINE
  5
24B
330
1F
100
AcDbEntity
  8
D-5
  6
Continuous
 62
     7
370
     9
100
AcDbLine
 10
294.7995572476773
 20
-244.801025390625
 30
0.0
 11
290.1160162848396
 21
-233.2118101377745
 31
0.0
  0
LINE
  5
24C
330
1F
100
AcDbEntity
  8
D-5
  6
Continuous
 62
     7
370
     9
100
AcDbLine
 10
279.3862832559122
 20
-294.6558194547086
 30
0.0
 11
321.5918463629646
 21
-269.8013553103885
 31
0.0
  0
LINE
  5
24D
330
1F
100
AcDbEntity
  8
D-5
  6
Continuous
 62
     7
370
     9
100
AcDbLine
 10
321.5918463629646
 20
-269.8013553103885
 30
0.0
 11
311.7407721442146
 21
-277.4959914748733
 31
0.0
  0
LINE
  5
24E
330
1F
100
AcDbEntity
  8
D-5
  6
Continuous
 62
     7
370
     9
100
AcDbLine
 10
321.5918463629646
 20
-269.8013553103885
 30
0.0
 11
310.0849048511404
 21
-274.6840853304476
 31
0.0
  0
LINE
  5
24F
330
1F
100
AcDbEntity
  8
D-5
  6
Continuous
 62
     7
370
     9
100
AcDbLine
 10
279.3862832559122
 20
-294.6558194547086
 30
0.0
 11
347.2632330817146
 21
-313.7887325802365
 31
0.0
  0
LINE
  5
250
330
1F
100
AcDbEntity
  8
D-5
  6
Continuous
 62
     7
370
     9
100
AcDbLine
 10
347.2632330817146
 20
-313.7887325802365
 30
0.0
 11
334.8922317092484
 21
-311.9967733847128
 31
0.0
  0
LINE
  5
251
330
1F
100
AcDbEntity
  8
D-5
  6
Continuous
 62
     7
370
     9
100
AcDbLine
 10
347.2632330817146
 20
-313.7887325802365
 30
0.0
 11
335.777571394637
 21
-308.856019716005
 31
0.0
  0
LINE
  5
252
330
1F
100
AcDbEntity
  8
D-5
  6
Continuous
 62
     7
370
     9
100
AcDbLine
 10
283.157018713049
 20
-375.9728344066723
 30
0.0
 11
306.1283420872044
 21
-345.6067719330659
 31
0.0
  0
LINE
  5
253
330
1F
100
AcDbEntity
  8
D-5
  6
Continuous
 62
     7
370
     9
100
AcDbLine
 10
306.1283420872044
 20
-345.6067719330659
 30
0.0
 11
299.9527389938768
 21
-356.4745763830236
 31
0.0
  0
LINE
  5
254
330
1F
100
AcDbEntity
  8
D-5
  6
Continuous
 62
     7
370
     9
100
AcDbLine
 10
306.1283420872044
 20
-345.6067719330659
 30
0.0
 11
297.3501669394005
 21
-354.5059451541385
 31
0.0
  0
TEXT
  5
255
330
1F
100
AcDbEntity
  8
D-5
  6
Continuous
 62
     7
370
     9
100
AcDbText
 10
93.72127636058913
 20
-239.6180190297719
 30
0.0
 40
11.43
  1
アルミ製ボックス
 41
1.145833333333333
  7
ＭＳ ゴシック
100
AcDbText
  0
TEXT
  5
256
330
1F
100
AcDbEntity
  8
D-5
  6
Continuous
 62
     7
370
     9
100
AcDbText
 10
93.72131347656257
 20
-224.0086489785683
 30
0.0
 40
11.43
  1
かさ上げ用
 41
1.133333333333333
  7
ＭＳ ゴシック
100
AcDbText
  0
TEXT
  5
257
330
1F
100
AcDbEntity
  8
D-5
  6
Continuous
 62
     7
370
     9
100
AcDbText
 10
84.57025476404141
 20
-153.5273331595756
 30
0.0
 40
11.43
  1
把手カバー　ｔ＝0.5
 41
1.157894736842105
  7
ＭＳ ゴシック
100
AcDbText
  0
TEXT
  5
258
330
1F
100
AcDbEntity
  8
D-5
  6
Continuous
 62
     7
370
     9
100
AcDbText
 10
101.4436257852091
 20
-175.3728053407411
 30
0.0
 40
11.43
  1
（SUS304　ＨＬ）
 41
1.145833333333333
  7
ＭＳ ゴシック
100
AcDbText
  0
TEXT
  5
259
330
1F
100
AcDbEntity
  8
D-5
  6
Continuous
 62
     7
370
     9
100
AcDbText
 10
120.0090645455025
 20
-368.7207362489442
 30
0.0
 40
11.43
  1
ストッパープレート
 41
1.148148148148148
  7
ＭＳ ゴシック
100
AcDbText
  0
TEXT
  5
25A
330
1F
100
AcDbEntity
  8
D-5
  6
Continuous
 62
     7
370
     9
100
AcDbText
 10
157.9423110549515
 20
-289.2678092008023
 30
0.0
 40
11.43
  1
把手本体
 41
1.125
  7
ＭＳ ゴシック
100
AcDbText
  0
TEXT
  5
25B
330
1F
100
AcDbEntity
  8
D-5
  6
Continuous
 62
     7
370
     9
100
AcDbText
 10
108.2447526261614
 20
-311.8781178737331
 30
0.0
 40
11.43
  1
（強化ナイロン樹脂）
 41
1.15
  7
ＭＳ ゴシック
100
AcDbText
  0
TEXT
  5
25C
330
1F
100
AcDbEntity
  8
D-5
  6
Continuous
 62
     7
370
     9
100
AcDbText
 10
112.3050091717695
 20
-392.1636799250422
 30
0.0
 40
11.43
  1
（SUS304　ｔ＝2.5）
 41
1.149122807017544
  7
ＭＳ ゴシック
100
AcDbText
  0
TEXT
  5
25D
330
1F
100
AcDbEntity
  8
D-5
  6
Continuous
 62
     7
370
     9
100
AcDbText
 10
313.5214623733816
 20
283.2776009391612
 30
0.0
 40
11.43
  1
クッション
 41
1.133333333333333
  7
ＭＳ ゴシック
100
AcDbText
  0
TEXT
  5
25E
330
1F
100
AcDbEntity
  8
D-5
  6
Continuous
 62
     7
370
     9
100
AcDbText
 10
279.1148500184755
 20
261.4617258762669
 30
0.0
 40
11.43
  1
軟質ポリ塩化ビニル
 41
1.148148148148148
  7
ＭＳ ゴシック
100
AcDbText
  0
LINE
  5
25F
330
1F
100
AcDbEntity
  8
0-2
  6
Continuous
 62
     7
370
     9
100
AcDbLine
 10
-485.6735229492188
 20
-54.15973377703828
 30
0.0
 11
-225.6736549171241
 21
-54.15973377703828
 31
0.0
  0
LWPOLYLINE
  5
260
330
1F
100
AcDbEntity
  8
0-2
  6
Continuous
 62
     7
370
     9
100
AcDbPolyline
 90
        4
 70
     1
 43
0.5
 10
-485.4235229492188
 20
-54.15973377703828
 42
0.4142135623731
 10
-485.6735229492188
 20
-53.90973377703827
 42
0.4142135623731
 10
-485.9235229492188
 20
-54.15973377703828
 42
0.4142135623731
 10
-485.6735229492188
 20
-54.40973377703828
 42
0.4142135623731
  0
LWPOLYLINE
  5
261
330
1F
100
AcDbEntity
  8
0-2
  6
Continuous
 62
     7
370
     9
100
AcDbPolyline
 90
        4
 70
     1
 43
0.5
 10
-225.4236549171241
 20
-54.15973377703828
 42
0.4142135623731
 10
-225.6736549171241
 20
-53.90973377703827
 42
0.4142135623731
 10
-225.9236549171241
 20
-54.15973377703828
 42
0.4142135623731
 10
-225.6736549171241
 20
-54.40973377703828
 42
0.4142135623731
  0
LINE
  5
262
330
1F
100
AcDbEntity
  8
0-2
  6
Continuous
 62
     7
370
     9
100
AcDbLine
 10
-485.6735229492188
 20
-55.65973377703828
 30
0.0
 11
-485.6735229492188
 21
-11.86609216638516
 31
0.0
  0
LINE
  5
263
330
1F
100
AcDbEntity
  8
0-2
  6
Continuous
 62
     7
370
     9
100
AcDbLine
 10
-225.6736549171241
 20
-55.65973377703828
 30
0.0
 11
-225.6736549171241
 21
-11.86609216638516
 31
0.0
  0
TEXT
  5
264
330
1F
100
AcDbEntity
  8
0-2
  6
Continuous
 62
     2
370
   211
100
AcDbText
 10
-371.9235889331714
 20
-48.83973377703828
 30
0.0
 40
15.24
  1
260
 41
1.083333333333333
  7
ＭＳ ゴシック
100
AcDbText
  0
TEXT
  5
265
330
1F
100
AcDbEntity
  8
D-5
  6
Continuous
 62
     7
370
     9
100
AcDbText
 10
183.8018228967713
 20
465.732207295186
 30
0.0
 40
11.43
  1
底板　ｔ＝１．６
 41
1.145833333333333
  7
ＭＳ ゴシック
100
AcDbText
  0
TEXT
  5
266
330
1F
100
AcDbEntity
  8
D-5
  6
Continuous
 62
     7
370
     9
100
AcDbText
 10
183.8018228967713
 20
444.4090548791994
 30
0.0
 40
11.43
  1
溶融亜鉛めっき鋼板
 41
1.148148148148148
  7
ＭＳ ゴシック
100
AcDbText
  0
LINE
  5
267
330
1F
100
AcDbEntity
  8
D-5
  6
Continuous
 62
     7
370
     9
100
AcDbLine
 10
180.2337783320066
 20
460.6350625527872
 30
0.0
 11
341.6436272698479
 21
460.6350625527872
 31
0.0
  0
TEXT
  5
268
330
1F
100
AcDbEntity
  8
F-5
  6
Continuous
 62
     7
370
     9
100
AcDbText
 10
-414.8020734246149
 20
-681.3211655012096
 30
0.0
 40
9.525
  1
アルミニウム＋スチール製　アルミニウム目地　一般住宅用　ＭＯＦＯ－４５０－１５
 41
1.116923076923077
  7
ＭＳ ゴシック
100
AcDbText
  0
TEXT
  5
269
330
1F
100
AcDbEntity
  8
F-5
  6
Continuous
 62
     7
370
     9
100
AcDbText
 10
-414.668468406436
 20
-662.6727177006583
 30
0.0
 40
9.525
  1
フロアーハッチ　フローリング床材用（フローリング厚15mm）　屋内用　一般形
 41
1.116666666666666
  7
ＭＳ ゴシック
100
AcDbText
  0
ENDSEC
  0
SECTION
  2
OBJECTS
  0
DICTIONARY
  5
C
330
0
100
AcDbDictionary
281
     1
  3
ACAD_GROUP
350
D
  3
ACAD_LAYOUT
350
1A
  3
ACAD_MLEADERSTYLE
350
26B
  3
ACAD_MLINESTYLE
350
17
  3
ACAD_PLOTSETTINGS
350
19
  3
ACAD_PLOTSTYLENAME
350
E
  3
ACAD_TABLESTYLE
350
26A
  3
ACAD_VISUALSTYLE
350
2A
  0
DICTIONARY
  5
D
102
{ACAD_REACTORS
330
C
102
}
330
C
100
AcDbDictionary
281
     1
  0
DICTIONARY
  5
1A
102
{ACAD_REACTORS
330
C
102
}
330
C
100
AcDbDictionary
281
     1
  3
Layout1
350
1E
  3
Layout2
350
26
  3
Model
350
22
  0
DICTIONARY
  5
26B
102
{ACAD_REACTORS
330
C
102
}
330
C
100
AcDbDictionary
281
     1
  0
DICTIONARY
  5
17
102
{ACAD_REACTORS
330
C
102
}
330
C
100
AcDbDictionary
281
     1
  3
Standard
350
18
  0
DICTIONARY
  5
19
102
{ACAD_REACTORS
330
C
102
}
330
C
100
AcDbDictionary
281
     1
  0
ACDBDICTIONARYWDFLT
  5
E
102
{ACAD_REACTORS
330
C
102
}
330
C
100
AcDbDictionary
281
     1
  3
Normal
350
F
100
AcDbDictionaryWithDefault
340
F
  0
DICTIONARY
  5
26A
102
{ACAD_REACTORS
330
C
102
}
330
C
100
AcDbDictionary
281
     1
  0
DICTIONARY
  5
2A
102
{ACAD_REACTORS
330
C
102
}
330
C
100
AcDbDictionary
281
     1
  3
2dWireframe
350
2F
  3
3D Hidden
350
31
  3
3dWireframe
350
30
  3
Basic
350
32
  3
Brighten
350
36
  3
ColorChange
350
3A
  3
Conceptual
350
34
  3
Dim
350
35
  3
Facepattern
350
39
  3
Flat
350
2B
  3
FlatWithEdges
350
2C
  3
Gouraud
350
2D
  3
GouraudWithEdges
350
2E
  3
Linepattern
350
38
  3
Realistic
350
33
  3
Thicken
350
37
  0
LAYOUT
  5
1E
102
{ACAD_REACTORS
330
1A
102
}
330
1A
100
AcDbPlotSettings
  1

  2
none_device
  4

  6

 40
0.0
 41
0.0
 42
0.0
 43
0.0
 44
0.0
 45
0.0
 46
0.0
 47
0.0
 48
0.0
 49
0.0
140
0.0
141
0.0
142
1.0
143
1.0
 70
   688
 72
     0
 73
     0
 74
     5
  7

 75
    16
 76
     0
 77
     5
 78
   300
147
1.0
148
0.0
149
0.0
100
AcDbLayout
  1
Layout1
 70
     1
 71
     1
 10
0.0
 20
0.0
 11
420.0
 21
297.0
 12
0.0
 22
0.0
 32
0.0
 14
1.000000000000000E+20
 24
1.000000000000000E+20
 34
1.000000000000000E+20
 15
-1.000000000000000E+20
 25
-1.000000000000000E+20
 35
-1.000000000000000E+20
146
0.0
 13
0.0
 23
0.0
 33
0.0
 16
1.0
 26
0.0
 36
0.0
 17
0.0
 27
1.0
 37
0.0
 76
     0
330
1B
  0
LAYOUT
  5
26
102
{ACAD_REACTORS
330
1A
102
}
330
1A
100
AcDbPlotSettings
  1

  2
none_device
  4

  6

 40
0.0
 41
0.0
 42
0.0
 43
0.0
 44
0.0
 45
0.0
 46
0.0
 47
0.0
 48
0.0
 49
0.0
140
0.0
141
0.0
142
1.0
143
1.0
 70
   688
 72
     0
 73
     0
 74
     5
  7

 75
    16
 76
     0
 77
     5
 78
   300
147
1.0
148
0.0
149
0.0
100
AcDbLayout
  1
Layout2
 70
     1
 71
     2
 10
0.0
 20
0.0
 11
0.0
 21
0.0
 12
0.0
 22
0.0
 32
0.0
 14
0.0
 24
0.0
 34
0.0
 15
0.0
 25
0.0
 35
0.0
146
0.0
 13
0.0
 23
0.0
 33
0.0
 16
1.0
 26
0.0
 36
0.0
 17
0.0
 27
1.0
 37
0.0
 76
     0
330
23
  0
LAYOUT
  5
22
102
{ACAD_REACTORS
330
1A
102
}
330
1A
100
AcDbPlotSettings
  1

  2
none_device
  4

  6

 40
0.0
 41
0.0
 42
0.0
 43
0.0
 44
0.0
 45
0.0
 46
0.0
 47
0.0
 48
0.0
 49
0.0
140
0.0
141
0.0
142
1.0
143
1.0
 70
  1712
 72
     0
 73
     0
 74
     0
  7

 75
     0
 76
     0
 77
     5
 78
   300
147
1.0
148
0.0
149
0.0
100
AcDbLayout
  1
Model
 70
     1
 71
     0
 10
-1050.0
 20
-742.5
 11
1050.0
 21
742.5
 12
0.0
 22
0.0
 32
0.0
 14
-1050.0
 24
-742.5
 34
0.0
 15
1050.0
 25
742.5
 35
0.0
146
0.0
 13
0.0
 23
0.0
 33
0.0
 16
1.0
 26
0.0
 36
0.0
 17
0.0
 27
1.0
 37
0.0
 76
     0
330
1F
331
29
  0
MLINESTYLE
  5
18
102
{ACAD_REACTORS
330
17
102
}
330
17
100
AcDbMlineStyle
  2
Standard
 70
     0
  3

 62
   256
 51
90.0
 52
90.0
 71
     2
 49
0.5
 62
   256
  6
BYLAYER
 49
-0.5
 62
   256
  6
BYLAYER
  0
ACDBPLACEHOLDER
  5
F
102
{ACAD_REACTORS
330
E
102
}
330
E
  0
VISUALSTYLE
  5
2F
102
{ACAD_REACTORS
330
2A
102
}
330
2A
100
AcDbVisualStyle
  2
2dWireframe
 70
     4
 71
     0
 72
     2
 73
     0
 90
        0
 40
-0.6
 41
-30.0
 62
     5
 63
     7
421
 16777215
 74
     1
 91
        4
 64
     7
 65
   257
 75
     1
175
     1
 42
1.0
 92
        0
 66
   257
 43
1.0
 76
     1
 77
     6
 78
     2
 67
     7
 79
     5
170
     0
171
     0
290
     0
174
     0
 93
        1
 44
0.0
173
     0
291
     0
 45
0.0
1001
ACAD
1000
AcDbSavedByObjectVersion
1070
     0
  0
VISUALSTYLE
  5
31
102
{ACAD_REACTORS
330
2A
102
}
330
2A
100
AcDbVisualStyle
  2
3D Hidden
 70
     6
 71
     1
 72
     2
 73
     2
 90
        0
 40
-0.6
 41
-30.0
 62
     5
 63
     7
421
 16777215
 74
     2
 91
        2
 64
     7
 65
   257
 75
     2
175
     1
 42
40.0
 92
        0
 66
   257
 43
1.0
 76
     1
 77
     6
 78
     2
 67
     7
 79
     3
170
     0
171
     0
290
     0
174
     0
 93
        1
 44
0.0
173
     0
291
     0
 45
0.0
1001
ACAD
1000
AcDbSavedByObjectVersion
1070
     0
  0
VISUALSTYLE
  5
30
102
{ACAD_REACTORS
330
2A
102
}
330
2A
100
AcDbVisualStyle
  2
3dWireframe
 70
     5
 71
     0
 72
     2
 73
     0
 90
        0
 40
-0.6
 41
-30.0
 62
     5
 63
     7
421
 16777215
 74
     1
 91
        4
 64
     7
 65
   257
 75
     1
175
     1
 42
1.0
 92
        0
 66
   257
 43
1.0
 76
     1
 77
     6
 78
     2
 67
     7
 79
     5
170
     0
171
     0
290
     0
174
     0
 93
        1
 44
0.0
173
     0
291
     0
 45
0.0
1001
ACAD
1000
AcDbSavedByObjectVersion
1070
     0
  0
VISUALSTYLE
  5
32
102
{ACAD_REACTORS
330
2A
102
}
330
2A
100
AcDbVisualStyle
  2
Basic
 70
     7
 71
     1
 72
     0
 73
     1
 90
        0
 40
-0.6
 41
-30.0
 62
     5
 63
     7
421
 16777215
 74
     0
 91
        4
 64
     7
 65
   257
 75
     1
175
     1
 42
1.0
 92
        8
 66
     7
 43
1.0
 76
     1
 77
     6
 78
     2
 67
     7
 79
     5
170
     0
171
     0
290
     0
174
     0
 93
        1
 44
0.0
173
     0
291
     1
 45
0.0
1001
ACAD
1000
AcDbSavedByObjectVersion
1070
     0
  0
VISUALSTYLE
  5
36
102
{ACAD_REACTORS
330
2A
102
}
330
2A
100
AcDbVisualStyle
  2
Brighten
 70
    12
 71
     2
 72
     2
 73
     0
 90
        0
 40
-0.6
 41
-30.0
 62
     5
 63
     7
421
 16777215
 74
     1
 91
        4
 64
     7
 65
   257
 75
     1
175
     1
 42
1.0
 92
        8
 66
     7
 43
1.0
 76
     1
 77
     6
 78
     2
 67
     7
 79
     5
170
     0
171
     0
290
     0
174
     0
 93
        1
 44
50.0
173
     0
291
     1
 45
0.0
1001
ACAD
1000
AcDbSavedByObjectVersion
1070
     0
  0
VISUALSTYLE
  5
3A
102
{ACAD_REACTORS
330
2A
102
}
330
2A
100
AcDbVisualStyle
  2
ColorChange
 70
    16
 71
     2
 72
     2
 73
     3
 90
        0
 40
-0.6
 41
-30.0
 62
     5
 63
     8
421
  8421504
 74
     1
 91
        4
 64
     7
 65
   257
 75
     1
175
     1
 42
1.0
 92
        8
 66
     8
424
  8421504
 43
1.0
 76
     1
 77
     6
 78
     2
 67
     7
 79
     5
170
     0
171
     0
290
     0
174
     0
 93
        1
 44
0.0
173
     0
291
     1
 45
0.0
1001
ACAD
1000
AcDbSavedByObjectVersion
1070
     0
  0
VISUALSTYLE
  5
34
102
{ACAD_REACTORS
330
2A
102
}
330
2A
100
AcDbVisualStyle
  2
Conceptual
 70
     9
 71
     3
 72
     2
 73
     0
 90
        0
 40
-0.6
 41
-30.0
 62
     5
 63
     7
421
 16777215
 74
     2
 91
        2
 64
     7
 65
   257
 75
     1
175
     1
 42
40.0
 92
        8
 66
     7
 43
1.0
 76
     1
 77
     6
 78
     2
 67
     7
 79
     3
170
     0
171
     0
290
     0
174
     0
 93
        1
 44
0.0
173
     0
291
     0
 45
0.0
1001
ACAD
1000
AcDbSavedByObjectVersion
1070
     0
  0
VISUALSTYLE
  5
35
102
{ACAD_REACTORS
330
2A
102
}
330
2A
100
AcDbVisualStyle
  2
Dim
 70
    11
 71
     2
 72
     2
 73
     0
 90
        0
 40
-0.6
 41
-30.0
 62
     5
 63
     7
421
 16777215
 74
     1
 91
        4
 64
     7
 65
   257
 75
     1
175
     1
 42
1.0
 92
        8
 66
     7
 43
1.0
 76
     1
 77
     6
 78
     2
 67
     7
 79
     5
170
     0
171
     0
290
     0
174
     0
 93
        1
 44
-50.0
173
     0
291
     1
 45
0.0
1001
ACAD
1000
AcDbSavedByObjectVersion
1070
     0
  0
VISUALSTYLE
  5
39
102
{ACAD_REACTORS
330
2A
102
}
330
2A
100
AcDbVisualStyle
  2
Facepattern
 70
    15
 71
     2
 72
     2
 73
     0
 90
        0
 40
-0.6
 41
-30.0
 62
     5
 63
     7
421
 16777215
 74
     1
 91
        4
 64
     7
 65
   257
 75
     1
175
     1
 42
1.0
 92
        8
 66
     7
 43
1.0
 76
     1
 77
     6
 78
     2
 67
     7
 79
     5
170
     0
171
     0
290
     0
174
     0
 93
        1
 44
0.0
173
     0
291
     1
 45
0.0
1001
ACAD
1000
AcDbSavedByObjectVersion
1070
     0
  0
VISUALSTYLE
  5
2B
102
{ACAD_REACTORS
330
2A
102
}
330
2A
100
AcDbVisualStyle
  2
Flat
 70
     0
 71
     2
 72
     1
 73
     1
 90
        2
 40
-0.6
 41
30.0
 62
     5
 63
     7
421
 16777215
 74
     0
 91
        4
 64
     7
 65
   257
 75
     1
175
     1
 42
1.0
 92
        8
 66
     7
 43
1.0
 76
     1
 77
     6
 78
     2
 67
     7
 79
     5
170
     0
171
     0
290
     0
174
     0
 93
       13
 44
0.0
173
     0
291
     1
 45
0.0
1001
ACAD
1000
AcDbSavedByObjectVersion
1070
     0
  0
VISUALSTYLE
  5
2C
102
{ACAD_REACTORS
330
2A
102
}
330
2A
100
AcDbVisualStyle
  2
FlatWithEdges
 70
     1
 71
     2
 72
     1
 73
     1
 90
        2
 40
-0.6
 41
30.0
 62
     5
 63
     7
421
 16777215
 74
     1
 91
        4
 64
     7
 65
   257
 75
     1
175
     1
 42
1.0
 92
        0
 66
   257
 43
1.0
 76
     1
 77
     6
 78
     2
 67
     7
 79
     5
170
     0
171
     0
290
     0
174
     0
 93
       13
 44
0.0
173
     0
291
     1
 45
0.0
1001
ACAD
1000
AcDbSavedByObjectVersion
1070
     0
  0
VISUALSTYLE
  5
2D
102
{ACAD_REACTORS
330
2A
102
}
330
2A
100
AcDbVisualStyle
  2
Gouraud
 70
     2
 71
     2
 72
     2
 73
     1
 90
        2
 40
-0.6
 41
30.0
 62
     5
 63
     7
421
 16777215
 74
     0
 91
        4
 64
     7
 65
   257
 75
     1
175
     1
 42
1.0
 92
        0
 66
     7
 43
1.0
 76
     1
 77
     6
 78
     2
 67
     7
 79
     5
170
     0
171
     0
290
     0
174
     0
 93
       13
 44
0.0
173
     0
291
     1
 45
0.0
1001
ACAD
1000
AcDbSavedByObjectVersion
1070
     0
  0
VISUALSTYLE
  5
2E
102
{ACAD_REACTORS
330
2A
102
}
330
2A
100
AcDbVisualStyle
  2
GouraudWithEdges
 70
     3
 71
     2
 72
     2
 73
     1
 90
        2
 40
-0.6
 41
30.0
 62
     5
 63
     7
421
 16777215
 74
     1
 91
        4
 64
     7
 65
   257
 75
     1
175
     1
 42
1.0
 92
        0
 66
   257
 43
1.0
 76
     1
 77
     6
 78
     2
 67
     7
 79
     5
170
     0
171
     0
290
     0
174
     0
 93
       13
 44
0.0
173
     0
291
     1
 45
0.0
1001
ACAD
1000
AcDbSavedByObjectVersion
1070
     0
  0
VISUALSTYLE
  5
38
102
{ACAD_REACTORS
330
2A
102
}
330
2A
100
AcDbVisualStyle
  2
Linepattern
 70
    14
 71
     2
 72
     2
 73
     0
 90
        0
 40
-0.6
 41
-30.0
 62
     5
 63
     7
421
 16777215
 74
     1
 91
        4
 64
     7
 65
   257
 75
     7
175
     7
 42
1.0
 92
        8
 66
     7
 43
1.0
 76
     1
 77
     6
 78
     2
 67
     7
 79
     5
170
     0
171
     0
290
     0
174
     0
 93
        1
 44
0.0
173
     0
291
     1
 45
0.0
1001
ACAD
1000
AcDbSavedByObjectVersion
1070
     0
  0
VISUALSTYLE
  5
33
102
{ACAD_REACTORS
330
2A
102
}
330
2A
100
AcDbVisualStyle
  2
Realistic
 70
     8
 71
     2
 72
     2
 73
     0
 90
        0
 40
-0.6
 41
-30.0
 62
     5
 63
     7
421
 16777215
 74
     1
 91
        0
 64
     7
 65
   257
 75
     1
175
     1
 42
1.0
 92
        8
 66
     8
424
  7895160
 43
1.0
 76
     1
 77
     6
 78
     2
 67
     7
 79
     5
170
     0
171
     0
290
     0
174
     0
 93
       13
 44
0.0
173
     0
291
     0
 45
0.0
1001
ACAD
1000
AcDbSavedByObjectVersion
1070
     0
  0
VISUALSTYLE
  5
37
102
{ACAD_REACTORS
330
2A
102
}
330
2A
100
AcDbVisualStyle
  2
Thicken
 70
    13
 71
     2
 72
     2
 73
     0
 90
        0
 40
-0.6
 41
-30.0
 62
     5
 63
     7
421
 16777215
 74
     1
 91
        4
 64
     7
 65
   257
 75
     1
175
     1
 42
1.0
 92
       12
 66
     7
 43
1.0
 76
     1
 77
     6
 78
     2
 67
     7
 79
     5
170
     0
171
     0
290
     0
174
     0
 93
        1
 44
0.0
173
     0
291
     1
 45
0.0
1001
ACAD
1000
AcDbSavedByObjectVersion
1070
     0
  0
ENDSEC
  0
EOF
