  0
SECTION
  2
HEADER
  9
$ACADVER
  1
AC1018
  9
$ACADMAINTVER
 70
     0
  9
$DWGCODEPAGE
  3
ANSI_932
  9
$INSBASE
 10
0.0
 20
0.0
 30
0.0
  9
$EXTMIN
 10
-1050.0
 20
-742.5
 30
0.0
  9
$EXTMAX
 10
1050.0
 20
742.5
 30
0.0
  9
$LIMMIN
 10
-1050.0
 20
-742.5
  9
$LIMMAX
 10
1050.0
 20
742.5
  9
$ORTHOMODE
 70
     0
  9
$REGENMODE
 70
     1
  9
$FILLMODE
 70
     1
  9
$QTEXTMODE
 70
     0
  9
$MIRRTEXT
 70
     1
  9
$LTSCALE
 40
5.0
  9
$ATTMODE
 70
     1
  9
$TEXTSIZE
 40
2.5
  9
$TRACEWID
 40
1.0
  9
$TEXTSTYLE
  7
Standard
  9
$CLAYER
  8
0
  9
$CELTYPE
  6
ByLayer
  9
$CECOLOR
 62
   256
  9
$CELTSCALE
 40
1.0
  9
$DISPSILH
 70
     0
  9
$DIMSCALE
 40
1.0
  9
$DIMASZ
 40
2.5
  9
$DIMEXO
 40
0.625
  9
$DIMDLI
 40
3.75
  9
$DIMRND
 40
0.0
  9
$DIMDLE
 40
0.0
  9
$DIMEXE
 40
1.25
  9
$DIMTP
 40
0.0
  9
$DIMTM
 40
0.0
  9
$DIMTXT
 40
2.5
  9
$DIMCEN
 40
2.5
  9
$DIMTSZ
 40
0.0
  9
$DIMTOL
 70
     0
  9
$DIMLIM
 70
     0
  9
$DIMTIH
 70
     0
  9
$DIMTOH
 70
     0
  9
$DIMSE1
 70
     0
  9
$DIMSE2
 70
     0
  9
$DIMTAD
 70
     1
  9
$DIMZIN
 70
     8
  9
$DIMBLK
  1

  9
$DIMASO
 70
     1
  9
$DIMSHO
 70
     1
  9
$DIMPOST
  1

  9
$DIMAPOST
  1

  9
$DIMALT
 70
     0
  9
$DIMALTD
 70
     3
  9
$DIMALTF
 40
0.03937007874016
  9
$DIMLFAC
 40
1.0
  9
$DIMTOFL
 70
     1
  9
$DIMTVP
 40
0.0
  9
$DIMTIX
 70
     0
  9
$DIMSOXD
 70
     0
  9
$DIMSAH
 70
     0
  9
$DIMBLK1
  1

  9
$DIMBLK2
  1

  9
$DIMSTYLE
  2
ISO-25
  9
$DIMCLRD
 70
     0
  9
$DIMCLRE
 70
     0
  9
$DIMCLRT
 70
     0
  9
$DIMTFAC
 40
1.0
  9
$DIMGAP
 40
0.625
  9
$DIMJUST
 70
     0
  9
$DIMSD1
 70
     0
  9
$DIMSD2
 70
     0
  9
$DIMTOLJ
 70
     0
  9
$DIMTZIN
 70
     8
  9
$DIMALTZ
 70
     0
  9
$DIMALTTZ
 70
     0
  9
$DIMUPT
 70
     0
  9
$DIMDEC
 70
     2
  9
$DIMTDEC
 70
     2
  9
$DIMALTU
 70
     2
  9
$DIMALTTD
 70
     3
  9
$DIMTXSTY
  7
Standard
  9
$DIMAUNIT
 70
     0
  9
$DIMADEC
 70
     0
  9
$DIMALTRND
 40
0.0
  9
$DIMAZIN
 70
     0
  9
$DIMDSEP
 70
    44
  9
$DIMATFIT
 70
     3
  9
$DIMFRAC
 70
     0
  9
$DIMLDRBLK
  1

  9
$DIMLUNIT
 70
     2
  9
$DIMLWD
 70
    -2
  9
$DIMLWE
 70
    -2
  9
$DIMTMOVE
 70
     0
  9
$LUNITS
 70
     2
  9
$LUPREC
 70
     4
  9
$SKETCHINC
 40
1.0
  9
$FILLETRAD
 40
10.0
  9
$AUNITS
 70
     0
  9
$AUPREC
 70
     0
  9
$MENU
  1
.
  9
$ELEVATION
 40
0.0
  9
$PELEVATION
 40
0.0
  9
$THICKNESS
 40
0.0
  9
$LIMCHECK
 70
     0
  9
$CHAMFERA
 40
10.0
  9
$CHAMFERB
 40
10.0
  9
$CHAMFERC
 40
20.0
  9
$CHAMFERD
 40
0.0
  9
$SKPOLY
 70
     0
  9
$TDCREATE
 40
2457904.478176944
  9
$TDUCREATE
 40
2457904.103176944
  9
$TDUPDATE
 40
2457904.478176956
  9
$TDUUPDATE
 40
2457904.103176956
  9
$TDINDWG
 40
0.0000000116
  9
$TDUSRTIMER
 40
0.0000000116
  9
$USRTIMER
 70
     1
  9
$ANGBASE
 50
0.0
  9
$ANGDIR
 70
     0
  9
$PDMODE
 70
     0
  9
$PDSIZE
 40
0.0
  9
$PLINEWID
 40
0.0
  9
$SPLFRAME
 70
     0
  9
$SPLINETYPE
 70
     6
  9
$SPLINESEGS
 70
     8
  9
$HANDSEED
  5
260
  9
$SURFTAB1
 70
     6
  9
$SURFTAB2
 70
     6
  9
$SURFTYPE
 70
     6
  9
$SURFU
 70
     6
  9
$SURFV
 70
     6
  9
$UCSBASE
  2

  9
$UCSNAME
  2

  9
$UCSORG
 10
0.0
 20
0.0
 30
0.0
  9
$UCSXDIR
 10
1.0
 20
0.0
 30
0.0
  9
$UCSYDIR
 10
0.0
 20
1.0
 30
0.0
  9
$UCSORTHOREF
  2

  9
$UCSORTHOVIEW
 70
     0
  9
$UCSORGTOP
 10
0.0
 20
0.0
 30
0.0
  9
$UCSORGBOTTOM
 10
0.0
 20
0.0
 30
0.0
  9
$UCSORGLEFT
 10
0.0
 20
0.0
 30
0.0
  9
$UCSORGRIGHT
 10
0.0
 20
0.0
 30
0.0
  9
$UCSORGFRONT
 10
0.0
 20
0.0
 30
0.0
  9
$UCSORGBACK
 10
0.0
 20
0.0
 30
0.0
  9
$PUCSBASE
  2

  9
$PUCSNAME
  2

  9
$PUCSORG
 10
0.0
 20
0.0
 30
0.0
  9
$PUCSXDIR
 10
1.0
 20
0.0
 30
0.0
  9
$PUCSYDIR
 10
0.0
 20
1.0
 30
0.0
  9
$PUCSORTHOREF
  2

  9
$PUCSORTHOVIEW
 70
     0
  9
$PUCSORGTOP
 10
0.0
 20
0.0
 30
0.0
  9
$PUCSORGBOTTOM
 10
0.0
 20
0.0
 30
0.0
  9
$PUCSORGLEFT
 10
0.0
 20
0.0
 30
0.0
  9
$PUCSORGRIGHT
 10
0.0
 20
0.0
 30
0.0
  9
$PUCSORGFRONT
 10
0.0
 20
0.0
 30
0.0
  9
$PUCSORGBACK
 10
0.0
 20
0.0
 30
0.0
  9
$USERI1
 70
     0
  9
$USERI2
 70
     0
  9
$USERI3
 70
     0
  9
$USERI4
 70
     0
  9
$USERI5
 70
     0
  9
$USERR1
 40
0.0
  9
$USERR2
 40
0.0
  9
$USERR3
 40
0.0
  9
$USERR4
 40
0.0
  9
$USERR5
 40
0.0
  9
$WORLDVIEW
 70
     1
  9
$SHADEDGE
 70
     3
  9
$SHADEDIF
 70
    70
  9
$TILEMODE
 70
     1
  9
$MAXACTVP
 70
    64
  9
$PINSBASE
 10
0.0
 20
0.0
 30
0.0
  9
$PLIMCHECK
 70
     0
  9
$PEXTMIN
 10
1.000000000000000E+20
 20
1.000000000000000E+20
 30
1.000000000000000E+20
  9
$PEXTMAX
 10
-1.000000000000000E+20
 20
-1.000000000000000E+20
 30
-1.000000000000000E+20
  9
$PLIMMIN
 10
0.0
 20
0.0
  9
$PLIMMAX
 10
420.0
 20
297.0
  9
$UNITMODE
 70
     0
  9
$VISRETAIN
 70
     1
  9
$PLINEGEN
 70
     0
  9
$PSLTSCALE
 70
     1
  9
$TREEDEPTH
 70
  3020
  9
$CMLSTYLE
  2
Standard
  9
$CMLJUST
 70
     0
  9
$CMLSCALE
 40
20.0
  9
$PROXYGRAPHICS
 70
     1
  9
$MEASUREMENT
 70
     1
  9
$CELWEIGHT
370
    -1
  9
$ENDCAPS
280
     0
  9
$JOINSTYLE
280
     0
  9
$LWDISPLAY
290
     0
  9
$INSUNITS
 70
     4
  9
$HYPERLINKBASE
  1

  9
$STYLESHEET
  1

  9
$XEDIT
290
     1
  9
$CEPSNTYPE
380
     0
  9
$PSTYLEMODE
290
     1
  9
$FINGERPRINTGUID
  2
{79301E2A-2EED-4922-AF2F-8ECD54BA4C89}
  9
$VERSIONGUID
  2
{FAEB1C32-E019-11D5-929B-00C0DF256EC4}
  9
$EXTNAMES
290
     1
  9
$PSVPSCALE
 40
0.0
  9
$OLESTARTUP
290
     0
  9
$SORTENTS
280
   127
  9
$INDEXCTL
280
     0
  9
$HIDETEXT
280
     1
  9
$XCLIPFRAME
290
     0
  9
$HALOGAP
280
     0
  9
$OBSCOLOR
 70
   257
  9
$OBSLTYPE
280
     0
  9
$INTERSECTIONDISPLAY
280
     0
  9
$INTERSECTIONCOLOR
 70
   257
  9
$DIMASSOC
280
     2
  9
$PROJECTNAME
  1

  0
ENDSEC
  0
SECTION
  2
CLASSES
  0
CLASS
  1
ACDBDICTIONARYWDFLT
  2
AcDbDictionaryWithDefault
  3
ObjectDBX Classes
 90
        0
 91
        4
280
     0
281
     0
  0
CLASS
  1
VISUALSTYLE
  2
AcDbVisualStyle
  3
ObjectDBX Classes
 90
     4095
 91
        4
280
     0
281
     0
  0
ENDSEC
  0
SECTION
  2
TABLES
  0
TABLE
  2
VPORT
  5
8
330
0
100
AcDbSymbolTable
 70
     1
  0
VPORT
  5
29
330
8
100
AcDbSymbolTableRecord
100
AcDbViewportTableRecord
  2
*Active
 70
     0
 10
0.0
 20
0.0
 11
1.0
 21
1.0
 12
0.0
 22
0.0
 13
0.0
 23
0.0
 14
10.0
 24
10.0
 15
10.0
 25
10.0
 16
0.0
 26
0.0
 36
1.0
 17
0.0
 27
0.0
 37
0.0
 40
1633.5
 41
1.414141414141414
 42
50.0
 43
0.0
 44
0.0
 50
0.0
 51
0.0
 71
     0
 72
 10000
 73
     1
 74
     3
 75
     0
 76
     0
 77
     0
 78
     0
281
     0
 65
     1
110
0.0
120
0.0
130
0.0
111
1.0
121
0.0
131
0.0
112
0.0
122
1.0
132
0.0
 79
     0
146
0.0
  0
ENDTAB
  0
TABLE
  2
LTYPE
  5
5
330
0
100
AcDbSymbolTable
 70
     4
  0
LTYPE
  5
14
330
5
100
AcDbSymbolTableRecord
100
AcDbLinetypeTableRecord
  2
ByBlock
 70
     0
  3

 72
    65
 73
     0
 40
0.0
  0
LTYPE
  5
15
330
5
100
AcDbSymbolTableRecord
100
AcDbLinetypeTableRecord
  2
ByLayer
 70
     0
  3

 72
    65
 73
     0
 40
0.0
  0
LTYPE
  5
16
330
5
100
AcDbSymbolTableRecord
100
AcDbLinetypeTableRecord
  2
Continuous
 70
     0
  3
Solid line
 72
    65
 73
     0
 40
0.0
  0
LTYPE
  5
3C
330
5
100
AcDbSymbolTableRecord
100
AcDbLinetypeTableRecord
  2
JWW_CENTER2
 70
     0
  3
-------------  --  -------------
 72
    65
 73
     4
 40
13.54666666666667
 49
11.00666666666667
 74
     0
 49
-0.8466666666666667
 74
     0
 49
0.8466666666666667
 74
     0
 49
-0.8466666666666667
 74
     0
  0
LTYPE
  5
3D
330
5
100
AcDbSymbolTableRecord
100
AcDbLinetypeTableRecord
  2
JWW_CENTER1
 70
     0
  3
-----  --  ----------  --  -----
 72
    65
 73
     4
 40
6.773333333333333
 49
4.233333333333333
 74
     0
 49
-0.8466666666666667
 74
     0
 49
0.8466666666666667
 74
     0
 49
-0.8466666666666667
 74
     0
  0
LTYPE
  5
3E
330
5
100
AcDbSymbolTableRecord
100
AcDbLinetypeTableRecord
  2
JWW_DASHED3
 70
     0
  3
---  ------  ------  ------  ---
 72
    65
 73
     2
 40
3.386666666666667
 49
2.54
 74
     0
 49
-0.8466666666666667
 74
     0
  0
ENDTAB
  0
TABLE
  2
LAYER
  5
2
330
0
100
AcDbSymbolTable
 70
    10
  0
LAYER
  5
10
330
2
100
AcDbSymbolTableRecord
100
AcDbLayerTableRecord
  2
0
 70
     0
 62
     7
  6
Continuous
370
    -3
390
F
  0
LAYER
  5
3F
330
2
100
AcDbSymbolTableRecord
100
AcDbLayerTableRecord
  2
D-2
 70
     0
 62
     7
  6
Continuous
370
    -3
390
F
  0
LAYER
  5
40
330
2
100
AcDbSymbolTableRecord
100
AcDbLayerTableRecord
  2
D-1
 70
     0
 62
     7
  6
Continuous
370
    -3
390
F
  0
LAYER
  5
41
330
2
100
AcDbSymbolTableRecord
100
AcDbLayerTableRecord
  2
D-6
 70
     0
 62
     7
  6
Continuous
370
    -3
390
F
  0
LAYER
  5
42
330
2
100
AcDbSymbolTableRecord
100
AcDbLayerTableRecord
  2
D-4
 70
     0
 62
     7
  6
Continuous
370
    -3
390
F
  0
LAYER
  5
43
330
2
100
AcDbSymbolTableRecord
100
AcDbLayerTableRecord
  2
0-4
 70
     0
 62
     7
  6
Continuous
370
    -3
390
F
  0
LAYER
  5
44
330
2
100
AcDbSymbolTableRecord
100
AcDbLayerTableRecord
  2
0-2
 70
     0
 62
     7
  6
Continuous
370
    -3
390
F
  0
LAYER
  5
45
330
2
100
AcDbSymbolTableRecord
100
AcDbLayerTableRecord
  2
0-1
 70
     0
 62
     7
  6
Continuous
370
    -3
390
F
  0
LAYER
  5
46
330
2
100
AcDbSymbolTableRecord
100
AcDbLayerTableRecord
  2
D-5
 70
     0
 62
     7
  6
Continuous
370
    -3
390
F
  0
LAYER
  5
47
330
2
100
AcDbSymbolTableRecord
100
AcDbLayerTableRecord
  2
F-5
 70
     0
 62
     7
  6
Continuous
370
    -3
390
F
  0
ENDTAB
  0
TABLE
  2
STYLE
  5
3
330
0
100
AcDbSymbolTable
 70
     2
  0
STYLE
  5
11
330
3
100
AcDbSymbolTableRecord
100
AcDbTextStyleTableRecord
  2
Standard
 70
     0
 40
0.0
 41
1.0
 50
0.0
 71
     0
 42
2.5
  3
txt
  4

1001
ACAD
1000

1071
        0
  0
STYLE
  5
3B
330
3
100
AcDbSymbolTableRecord
100
AcDbTextStyleTableRecord
  2
ＭＳ ゴシック
 70
     0
 40
1.0
 41
1.0
 50
0.0
 71
     0
 42
10.0
  3

  4

1001
ACAD
1000
MS Gothic
1071
    32817
  0
ENDTAB
  0
TABLE
  2
VIEW
  5
6
330
0
100
AcDbSymbolTable
 70
     0
  0
ENDTAB
  0
TABLE
  2
UCS
  5
7
330
0
100
AcDbSymbolTable
 70
     0
  0
ENDTAB
  0
TABLE
  2
APPID
  5
9
330
0
100
AcDbSymbolTable
 70
     1
  0
APPID
  5
12
330
9
100
AcDbSymbolTableRecord
100
AcDbRegAppTableRecord
  2
ACAD
 70
     0
  0
ENDTAB
  0
TABLE
  2
DIMSTYLE
  5
A
330
0
100
AcDbSymbolTable
 70
     1
100
AcDbDimStyleTable
  0
DIMSTYLE
105
27
330
A
100
AcDbSymbolTableRecord
100
AcDbDimStyleTableRecord
  2
ISO-25
 70
     0
 41
2.5
 42
0.625
 43
3.75
 44
1.25
 73
     0
 74
     0
 77
     1
 78
     8
140
2.5
141
2.5
143
0.03937007874016
147
0.625
171
     3
172
     1
271
     2
272
     2
274
     3
278
    44
283
     0
284
     8
340
11
  0
ENDTAB
  0
TABLE
  2
BLOCK_RECORD
  5
1
330
0
100
AcDbSymbolTable
 70
     1
  0
BLOCK_RECORD
  5
1F
330
1
100
AcDbSymbolTableRecord
100
AcDbBlockTableRecord
  2
*Model_Space
340
22
  0
BLOCK_RECORD
  5
1B
330
1
100
AcDbSymbolTableRecord
100
AcDbBlockTableRecord
  2
*Paper_Space
340
1E
  0
BLOCK_RECORD
  5
23
330
1
100
AcDbSymbolTableRecord
100
AcDbBlockTableRecord
  2
*Paper_Space0
340
26
  0
ENDTAB
  0
ENDSEC
  0
SECTION
  2
BLOCKS
  0
BLOCK
  5
20
330
1F
100
AcDbEntity
  8
0
100
AcDbBlockBegin
  2
*Model_Space
 70
     0
 10
0.0
 20
0.0
 30
0.0
  3
*Model_Space
  1

  0
ENDBLK
  5
21
330
1F
100
AcDbEntity
  8
0
100
AcDbBlockEnd
  0
BLOCK
  5
1C
330
1B
100
AcDbEntity
 67
     1
  8
0
100
AcDbBlockBegin
  2
*Paper_Space
 70
     0
 10
0.0
 20
0.0
 30
0.0
  3
*Paper_Space
  1

  0
ENDBLK
  5
1D
330
1B
100
AcDbEntity
 67
     1
  8
0
100
AcDbBlockEnd
  0
BLOCK
  5
24
330
23
100
AcDbEntity
  8
0
100
AcDbBlockBegin
  2
*Paper_Space0
 70
     0
 10
0.0
 20
0.0
 30
0.0
  3
*Paper_Space0
  1

  0
ENDBLK
  5
25
330
23
100
AcDbEntity
  8
0
100
AcDbBlockEnd
  0
ENDSEC
  0
SECTION
  2
ENTITIES
  0
LINE
  5
48
330
1F
100
AcDbEntity
  8
D-2
  6
Continuous
 62
     3
370
     9
100
AcDbLine
 10
581.5914669552365
 20
381.61169103674
 30
0.0
 11
581.5914669552365
 21
371.3614963840794
 31
0.0
  0
LINE
  5
49
330
1F
100
AcDbEntity
  8
D-2
  6
Continuous
 62
     3
370
     9
100
AcDbLine
 10
554.1329461175044
 20
371.3614963840794
 30
0.0
 11
525.1969620988177
 21
376.4867174303209
 31
0.0
  0
LINE
  5
4A
330
1F
100
AcDbEntity
  8
D-2
  6
Continuous
 62
     3
370
     9
100
AcDbLine
 10
581.5914669552365
 20
371.3614963840794
 30
0.0
 11
554.1329461175044
 21
371.3614963840794
 31
0.0
  0
LINE
  5
4B
330
1F
100
AcDbEntity
  8
D-2
  6
Continuous
 62
     3
370
     9
100
AcDbLine
 10
581.5914669552365
 20
381.61169103674
 30
0.0
 11
554.1329461175044
 21
381.61169103674
 31
0.0
  0
LINE
  5
4C
330
1F
100
AcDbEntity
  8
D-2
  6
Continuous
 62
     3
370
     9
100
AcDbLine
 10
578.7167110958615
 20
393.9866514463683
 30
0.0
 11
578.7167110958615
 21
381.61169103674
 31
0.0
  0
LINE
  5
4D
330
1F
100
AcDbEntity
  8
D-2
  6
Continuous
 62
     3
370
     9
100
AcDbLine
 10
589.9665626319679
 20
397.7366019584038
 30
0.0
 11
589.9665626319679
 21
391.4865194784629
 31
0.0
  0
LINE
  5
4E
330
1F
100
AcDbEntity
  8
D-2
  6
Continuous
 62
     3
370
     9
100
AcDbLine
 10
589.9665626319679
 20
391.4865194784629
 30
0.0
 11
587.4666781038852
 21
388.9863875105576
 31
0.0
  0
LINE
  5
4F
330
1F
100
AcDbEntity
  8
D-2
  6
Continuous
 62
     3
370
     9
100
AcDbLine
 10
583.7164801520271
 20
393.9866514463683
 30
0.0
 11
578.7167110958615
 21
393.9866514463683
 31
0.0
  0
LINE
  5
50
330
1F
100
AcDbEntity
  8
D-2
  6
Continuous
 62
     3
370
     9
100
AcDbLine
 10
589.9665626319679
 20
352.7364534945102
 30
0.0
 11
589.9665626319679
 21
348.9865029824747
 31
0.0
  0
LINE
  5
51
330
1F
100
AcDbEntity
  8
D-1
  6
Continuous
 62
     2
370
     9
100
AcDbLine
 10
602.4663564321158
 20
393.9866514463683
 30
0.0
 11
602.4663564321158
 21
388.9863875105576
 31
0.0
  0
LINE
  5
52
330
1F
100
AcDbEntity
  8
D-1
  6
Continuous
 62
     2
370
     9
100
AcDbLine
 10
602.4663564321158
 20
388.9863875105576
 30
0.0
 11
599.9665956239443
 21
388.9863875105576
 31
0.0
  0
LINE
  5
53
330
1F
100
AcDbEntity
  8
D-1
  6
Continuous
 62
     2
370
     9
100
AcDbLine
 10
599.9665956239443
 20
393.9866514463683
 30
0.0
 11
599.9665956239443
 21
388.9863875105576
 31
0.0
  0
LINE
  5
54
330
1F
100
AcDbEntity
  8
D-1
  6
Continuous
 62
     2
370
     9
100
AcDbLine
 10
599.9665956239443
 20
393.9866514463683
 30
0.0
 11
594.9663316881336
 21
393.9866514463683
 31
0.0
  0
LINE
  5
55
330
1F
100
AcDbEntity
  8
D-1
  6
Continuous
 62
     2
370
     9
100
AcDbLine
 10
602.4663564321158
 20
347.736436998522
 30
0.0
 11
599.9665956239443
 21
347.736436998522
 31
0.0
  0
LINE
  5
56
330
1F
100
AcDbEntity
  8
D-1
  6
Continuous
 62
     2
370
     9
100
AcDbLine
 10
602.4663564321158
 20
337.7364040065457
 30
0.0
 11
602.4663564321158
 21
347.736436998522
 31
0.0
  0
LINE
  5
57
330
1F
100
AcDbEntity
  8
D-1
  6
Continuous
 62
     2
370
     9
100
AcDbLine
 10
599.9665956239443
 20
342.7364205025339
 30
0.0
 11
599.9665956239443
 21
347.736436998522
 31
0.0
  0
LINE
  5
58
330
1F
100
AcDbEntity
  8
D-1
  6
Continuous
 62
     2
370
     9
100
AcDbLine
 10
594.9663316881336
 20
342.7364205025339
 30
0.0
 11
599.9665956239443
 21
342.7364205025339
 31
0.0
  0
LINE
  5
59
330
1F
100
AcDbEntity
  8
D-1
  6
Continuous
 62
     2
370
     9
100
AcDbLine
 10
560.4665395375846
 20
342.7364205025339
 30
0.0
 11
591.2163811760981
 21
342.7364205025339
 31
0.0
  0
LINE
  5
5A
330
1F
100
AcDbEntity
  8
D-1
  6
Continuous
 62
     2
370
     9
100
AcDbLine
 10
590.8415098448057
 20
346.4863710145693
 30
0.0
 11
590.8415098448057
 21
342.7364205025339
 31
0.0
  0
LINE
  5
5B
330
1F
100
AcDbEntity
  8
D-2
  6
Continuous
 62
     3
370
     9
100
AcDbLine
 10
589.9665626319679
 20
397.7366019584038
 30
0.0
 11
577.4666451119089
 21
397.7366019584038
 31
0.0
  0
LINE
  5
5C
330
1F
100
AcDbEntity
  8
D-2
  6
Continuous
 62
     3
370
     9
100
AcDbLine
 10
577.4666451119089
 20
397.7366019584038
 30
0.0
 11
564.9664801520271
 21
395.2367174303209
 31
0.0
  0
LINE
  5
5D
330
1F
100
AcDbEntity
  8
D-2
  6
Continuous
 62
     3
370
     9
100
AcDbLine
 10
564.9664801520271
 20
395.2367174303209
 30
0.0
 11
564.9664801520271
 21
393.9866514463683
 31
0.0
  0
LINE
  5
5E
330
1F
100
AcDbEntity
  8
D-1
  6
Continuous
 62
     2
370
     9
100
AcDbLine
 10
603.7165461359797
 20
397.7366019584038
 30
0.0
 11
591.2163811760981
 21
397.7366019584038
 31
0.0
  0
LINE
  5
5F
330
1F
100
AcDbEntity
  8
D-1
  6
Continuous
 62
     2
370
     9
100
AcDbLine
 10
616.2164636560391
 20
395.2367174303209
 30
0.0
 11
603.7165461359797
 21
397.7366019584038
 31
0.0
  0
LINE
  5
60
330
1F
100
AcDbEntity
  8
D-1
  6
Continuous
 62
     2
370
     9
100
AcDbLine
 10
616.2164636560391
 20
395.2367174303209
 30
0.0
 11
616.2164636560391
 21
393.9866514463683
 31
0.0
  0
LINE
  5
61
330
1F
100
AcDbEntity
  8
D-1
  6
Continuous
 62
     2
370
     9
100
AcDbLine
 10
616.2164636560391
 20
393.9866514463683
 30
0.0
 11
602.4663564321158
 21
393.9866514463683
 31
0.0
  0
LINE
  5
62
330
1F
100
AcDbEntity
  8
D-2
  6
Continuous
 62
     3
370
     9
100
AcDbLine
 10
572.4663811760981
 20
362.2364106049409
 30
0.0
 11
572.4663811760981
 21
358.236545872044
 31
0.0
  0
LINE
  5
63
330
1F
100
AcDbEntity
  8
D-2
  6
Continuous
 62
     3
370
     9
100
AcDbLine
 10
589.9665626319679
 20
352.7364534945102
 30
0.0
 11
587.4666781038852
 21
355.2365854624156
 31
0.0
  0
LINE
  5
64
330
1F
100
AcDbEntity
  8
D-1
  6
Continuous
 62
     2
370
     9
100
AcDbLine
 10
560.8414108688769
 20
346.4863710145693
 30
0.0
 11
590.8415098448057
 21
346.4863710145693
 31
0.0
  0
LINE
  5
65
330
1F
100
AcDbEntity
  8
D-2
  6
Continuous
 62
     3
370
     9
100
AcDbLine
 10
574.9665131440033
 20
347.736436998522
 30
0.0
 11
574.9665131440033
 21
354.4863479201858
 31
0.0
  0
LINE
  5
66
330
1F
100
AcDbEntity
  8
D-2
  6
Continuous
 62
     3
370
     9
100
AcDbLine
 10
574.9665131440033
 20
354.4863479201858
 30
0.0
 11
553.8415857263516
 21
354.4863479201858
 31
0.0
  0
LINE
  5
67
330
1F
100
AcDbEntity
  8
D-1
  6
Continuous
 62
     2
370
     9
100
AcDbLine
 10
560.4665395375846
 20
346.986446896115
 30
0.0
 11
560.4665395375846
 21
342.7364205025339
 31
0.0
  0
LINE
  5
68
330
1F
100
AcDbEntity
  8
D-1
  6
Continuous
 62
     2
370
     9
100
AcDbLine
 10
560.4665395375846
 20
346.986446896115
 30
0.0
 11
556.7164653056377
 21
346.986446896115
 31
0.0
  0
LINE
  5
69
330
1F
100
AcDbEntity
  8
D-1
  6
Continuous
 62
     2
370
     9
100
AcDbLine
 10
556.7164653056377
 20
346.986446896115
 30
0.0
 11
556.7164653056377
 21
337.7364040065457
 31
0.0
  0
LINE
  5
6A
330
1F
100
AcDbEntity
  8
D-2
  6
Continuous
 62
     3
370
     9
100
AcDbLine
 10
548.7401189030828
 20
380.5504216374578
 30
0.0
 11
543.2222108583193
 21
373.3655115076015
 31
0.0
  0
LINE
  5
6B
330
1F
100
AcDbEntity
  8
D-2
  6
Continuous
 62
     3
370
     9
100
AcDbLine
 10
562.0553506387248
 20
381.6119384765625
 30
0.0
 11
554.1833001214106
 21
371.3617438239021
 31
0.0
  0
LINE
  5
6C
330
1F
100
AcDbEntity
  8
D-2
  6
Continuous
 62
     3
370
     9
100
AcDbLine
 10
574.5552681587839
 20
381.6119384765625
 30
0.0
 11
566.6834650812922
 21
371.3617438239021
 31
0.0
  0
LINE
  5
6D
330
1F
100
AcDbEntity
  8
D-2
  6
Continuous
 62
     3
370
     9
100
AcDbLine
 10
581.5914669552365
 20
374.4975486961572
 30
0.0
 11
579.1832588814401
 21
371.3617438239021
 31
0.0
  0
LINE
  5
6E
330
1F
100
AcDbEntity
  8
D-1
  6
Continuous
 62
     2
370
     9
100
AcDbLine
 10
597.0914686048354
 20
371.3614963840794
 30
0.0
 11
624.549742002745
 21
371.3614963840794
 31
0.0
  0
LINE
  5
6F
330
1F
100
AcDbEntity
  8
D-1
  6
Continuous
 62
     2
370
     9
100
AcDbLine
 10
597.0914686048354
 20
381.61169103674
 30
0.0
 11
624.549742002745
 21
381.61169103674
 31
0.0
  0
LINE
  5
70
330
1F
100
AcDbEntity
  8
D-1
  6
Continuous
 62
     2
370
     9
100
AcDbLine
 10
629.9426929370779
 20
372.4230132231841
 30
0.0
 11
635.4608484216641
 21
379.6079233530406
 31
0.0
  0
LINE
  5
71
330
1F
100
AcDbEntity
  8
D-1
  6
Continuous
 62
     2
370
     9
100
AcDbLine
 10
616.6278323611698
 20
371.3614963840794
 30
0.0
 11
624.49951171875
 21
381.61169103674
 31
0.0
  0
LINE
  5
72
330
1F
100
AcDbEntity
  8
D-1
  6
Continuous
 62
     2
370
     9
100
AcDbLine
 10
604.1279148411106
 20
371.3614963840794
 30
0.0
 11
611.9995941986908
 21
381.61169103674
 31
0.0
  0
LINE
  5
73
330
1F
100
AcDbEntity
  8
D-1
  6
Continuous
 62
     2
370
     9
100
AcDbLine
 10
597.0914686048354
 20
378.4758861644849
 30
0.0
 11
599.4996766786318
 21
381.61169103674
 31
0.0
  0
LINE
  5
74
330
1F
100
AcDbEntity
  8
D-2
  6
JWW_CENTER2
 62
     3
370
     9
100
AcDbLine
 10
662.7942884290542
 20
376.4867174303209
 30
0.0
 11
514.8387599635769
 21
376.4867174303209
 31
0.0
  0
LINE
  5
75
330
1F
100
AcDbEntity
  8
D-1
  6
Continuous
 62
     2
370
     9
100
AcDbLine
 10
560.8414108688769
 20
346.4863710145693
 30
0.0
 11
560.8414108688769
 21
342.7364205025339
 31
0.0
  0
LINE
  5
76
330
1F
100
AcDbEntity
  8
D-2
  6
Continuous
 62
     3
370
     9
100
AcDbLine
 10
576.216826567779
 20
393.9866514463683
 30
0.0
 11
564.9664801520271
 21
393.9866514463683
 31
0.0
  0
LINE
  5
77
330
1F
100
AcDbEntity
  8
D-2
  6
Continuous
 62
     3
370
     9
100
AcDbLine
 10
578.7167110958615
 20
388.9863875105576
 30
0.0
 11
576.216826567779
 21
388.9863875105576
 31
0.0
  0
LINE
  5
78
330
1F
100
AcDbEntity
  8
D-2
  6
Continuous
 62
     3
370
     9
100
AcDbLine
 10
576.216826567779
 20
393.9866514463683
 30
0.0
 11
576.216826567779
 21
388.9863875105576
 31
0.0
  0
LINE
  5
79
330
1F
100
AcDbEntity
  8
D-2
  6
Continuous
 62
     3
370
     9
100
AcDbLine
 10
578.7167110958615
 20
363.2363149282095
 30
0.0
 11
576.216826567779
 21
363.2363149282095
 31
0.0
  0
LINE
  5
7A
330
1F
100
AcDbEntity
  8
D-2
  6
Continuous
 62
     3
370
     9
100
AcDbLine
 10
576.216826567779
 20
358.236545872044
 30
0.0
 11
576.216826567779
 21
363.2363149282095
 31
0.0
  0
LINE
  5
7B
330
1F
100
AcDbEntity
  8
D-2
  6
Continuous
 62
     3
370
     9
100
AcDbLine
 10
576.216826567779
 20
358.236545872044
 30
0.0
 11
263.1623964051943
 21
358.236545872044
 31
0.0
  0
LINE
  5
7C
330
1F
100
AcDbEntity
  8
D-1
  6
Continuous
 62
     2
370
     9
100
AcDbLine
 10
589.4664867504224
 20
337.7364040065457
 30
0.0
 11
588.2164207664698
 21
338.9864699904983
 31
0.0
  0
LINE
  5
7D
330
1F
100
AcDbEntity
  8
D-1
  6
Continuous
 62
     2
370
     9
100
AcDbLine
 10
565.4664323136615
 20
338.9864699904983
 30
0.0
 11
588.2164207664698
 21
338.9864699904983
 31
0.0
  0
LINE
  5
7E
330
1F
100
AcDbEntity
  8
D-1
  6
Continuous
 62
     2
370
     9
100
AcDbLine
 10
564.2166137695312
 20
337.7364040065457
 30
0.0
 11
565.4664323136615
 21
338.9864699904983
 31
0.0
  0
LINE
  5
7F
330
1F
100
AcDbEntity
  8
D-2
  6
Continuous
 62
     3
370
     9
100
AcDbLine
 10
525.1969620988177
 20
376.4867174303209
 30
0.0
 11
554.1329461175044
 21
381.61169103674
 31
0.0
  0
LINE
  5
80
330
1F
100
AcDbEntity
  8
D-2
  6
Continuous
 62
     3
370
     9
100
AcDbLine
 10
534.3665870460304
 20
378.110912426098
 30
0.0
 11
532.1709297798776
 21
375.2517452755491
 31
0.0
  0
LINE
  5
81
330
1F
100
AcDbEntity
  8
D-1
  6
Continuous
 62
     2
370
     9
100
AcDbLine
 10
624.549742002745
 20
371.3614963840794
 30
0.0
 11
653.4858497413429
 21
376.4867174303209
 31
0.0
  0
LINE
  5
82
330
1F
100
AcDbEntity
  8
D-1
  6
Continuous
 62
     2
370
     9
100
AcDbLine
 10
624.549742002745
 20
381.61169103674
 30
0.0
 11
653.4858497413429
 21
376.4867174303209
 31
0.0
  0
LINE
  5
83
330
1F
100
AcDbEntity
  8
D-1
  6
Continuous
 62
     2
370
     9
100
AcDbLine
 10
644.3163485140415
 20
374.862522434544
 30
0.0
 11
646.5122532200169
 21
377.721689585093
 31
0.0
  0
LINE
  5
84
330
1F
100
AcDbEntity
  8
D-1
  6
Continuous
 62
     2
370
     9
100
AcDbLine
 10
604.9662409601984
 20
393.4865755648227
 30
0.0
 11
604.9662409601984
 21
381.61169103674
 31
0.0
  0
LINE
  5
85
330
1F
100
AcDbEntity
  8
D-2
  6
Continuous
 62
     3
370
     9
100
AcDbLine
 10
574.9665131440033
 20
393.4865755648227
 30
0.0
 11
574.9665131440033
 21
381.61169103674
 31
0.0
  0
LINE
  5
86
330
1F
100
AcDbEntity
  8
D-6
  6
Continuous
 62
     6
370
     5
100
AcDbLine
 10
556.7164653056377
 20
337.7364040065457
 30
0.0
 11
556.7164653056377
 21
239.7523374815245
 31
0.0
  0
LINE
  5
87
330
1F
100
AcDbEntity
  8
D-2
  6
JWW_CENTER1
 62
     3
370
     9
100
AcDbLine
 10
386.2164471600508
 20
347.9309246991133
 30
0.0
 11
386.2164471600508
 21
385.8768112595017
 31
0.0
  0
LINE
  5
88
330
1F
100
AcDbEntity
  8
D-6
  6
Continuous
 62
     6
370
     5
100
AcDbLine
 10
556.9665032464106
 20
296.2360443940034
 30
0.0
 11
598.4668628589529
 21
337.7364040065457
 31
0.0
  0
LINE
  5
89
330
1F
100
AcDbEntity
  8
D-6
  6
Continuous
 62
     6
370
     5
100
AcDbLine
 10
556.7164653056377
 20
331.3413217905406
 30
0.0
 11
563.1114238017315
 21
337.7364040065457
 31
0.0
  0
LINE
  5
8A
330
1F
100
AcDbEntity
  8
D-2
  6
Continuous
 62
     3
370
     9
100
AcDbLine
 10
578.7167110958615
 20
350.2365689664275
 30
0.0
 11
578.7167110958615
 21
371.3614963840794
 31
0.0
  0
LINE
  5
8B
330
1F
100
AcDbEntity
  8
D-2
  6
Continuous
 62
     3
370
     9
100
AcDbLine
 10
583.7164801520271
 20
350.2365689664275
 30
0.0
 11
578.7167110958615
 21
350.2365689664275
 31
0.0
  0
LINE
  5
8C
330
1F
100
AcDbEntity
  8
D-2
  6
Continuous
 62
     3
370
     9
100
AcDbLine
 10
574.9665131440033
 20
371.3614963840794
 30
0.0
 11
574.9665131440033
 21
362.2366580447635
 31
0.0
  0
LINE
  5
8D
330
1F
100
AcDbEntity
  8
D-1
  6
Continuous
 62
     2
370
     9
100
AcDbLine
 10
604.9662409601984
 20
371.3614963840794
 30
0.0
 11
604.9662409601984
 21
362.2366580447635
 31
0.0
  0
LINE
  5
8E
330
1F
100
AcDbEntity
  8
D-2
  6
Continuous
 62
     2
370
     9
100
AcDbLine
 10
391.2164636560388
 20
362.2364106049409
 30
0.0
 11
572.4663811760981
 21
362.2364106049409
 31
0.0
  0
LINE
  5
8F
330
1F
100
AcDbEntity
  8
D-2
  6
Continuous
 62
     3
370
     9
100
AcDbLine
 10
387.4665131440034
 20
352.0641594964105
 30
0.0
 11
384.9663811760979
 21
352.0641594964105
 31
0.0
  0
LINE
  5
90
330
1F
100
AcDbEntity
  8
D-2
  6
Continuous
 62
     3
370
     9
100
AcDbLine
 10
384.9663811760979
 20
351.0610384554477
 30
0.0
 11
384.9663811760979
 21
352.0641594964105
 31
0.0
  0
LINE
  5
91
330
1F
100
AcDbEntity
  8
D-2
  6
Continuous
 62
     3
370
     9
100
AcDbLine
 10
387.4665131440034
 20
351.0610384554477
 30
0.0
 11
387.4665131440034
 21
352.0641594964105
 31
0.0
  0
LINE
  5
92
330
1F
100
AcDbEntity
  8
D-2
  6
Continuous
 62
     3
370
     9
100
AcDbLine
 10
376.7164900496201
 20
356.9864798880913
 30
0.0
 11
376.7164900496201
 21
358.236545872044
 31
0.0
  0
LINE
  5
93
330
1F
100
AcDbEntity
  8
D-2
  6
Continuous
 62
     3
370
     9
100
AcDbLine
 10
395.7164042704815
 20
356.9864798880913
 30
0.0
 11
395.7164042704815
 21
358.236545872044
 31
0.0
  0
LINE
  5
94
330
1F
100
AcDbEntity
  8
D-2
  6
Continuous
 62
     3
370
     9
100
AcDbLine
 10
381.2164306640625
 20
358.236545872044
 30
0.0
 11
381.2164306640625
 21
372.0761025918497
 31
0.0
  0
LINE
  5
95
330
1F
100
AcDbEntity
  8
D-2
  6
Continuous
 62
     3
370
     9
100
AcDbLine
 10
386.2164471600508
 20
383.2363809121622
 30
0.0
 11
381.2164306640625
 21
372.0761025918497
 31
0.0
  0
LINE
  5
96
330
1F
100
AcDbEntity
  8
D-2
  6
Continuous
 62
     3
370
     9
100
AcDbLine
 10
386.2164471600508
 20
383.2363809121622
 30
0.0
 11
391.2164636560388
 21
372.0761025918497
 31
0.0
  0
LINE
  5
97
330
1F
100
AcDbEntity
  8
D-2
  6
Continuous
 62
     3
370
     9
100
AcDbLine
 10
391.2164636560388
 20
358.236545872044
 30
0.0
 11
391.2164636560388
 21
372.0761025918497
 31
0.0
  0
LINE
  5
98
330
1F
100
AcDbEntity
  8
D-2
  6
Continuous
 62
     3
370
     9
100
AcDbLine
 10
381.2164306640625
 20
361.7949779613599
 30
0.0
 11
387.3801566459039
 21
358.236545872044
 31
0.0
  0
LINE
  5
99
330
1F
100
AcDbEntity
  8
D-2
  6
Continuous
 62
     3
370
     9
100
AcDbLine
 10
381.2164306640625
 20
367.5937302048142
 30
0.0
 11
391.2164636560388
 21
361.8199693834459
 31
0.0
  0
LINE
  5
9A
330
1F
100
AcDbEntity
  8
D-2
  6
Continuous
 62
     3
370
     9
100
AcDbLine
 10
381.6850816881336
 20
373.1217832823058
 30
0.0
 11
391.2164636560388
 21
367.6187216269004
 31
0.0
  0
LINE
  5
9B
330
1F
100
AcDbEntity
  8
D-2
  6
Continuous
 62
     3
370
     9
100
AcDbLine
 10
383.7489772487331
 20
377.7288653399494
 30
0.0
 11
390.4060982369089
 21
373.8851351351352
 31
0.0
  0
LINE
  5
9C
330
1F
100
AcDbEntity
  8
D-2
  6
Continuous
 62
     3
370
     9
100
AcDbLine
 10
391.2164636560388
 20
362.2366580447635
 30
0.0
 11
574.9665131440033
 21
362.2366580447635
 31
0.0
  0
LINE
  5
9D
330
1F
100
AcDbEntity
  8
D-2
  6
Continuous
 62
     3
370
     9
100
AcDbLine
 10
391.2164636560388
 20
368.4864930848818
 30
0.0
 11
574.9665131440033
 21
368.4864930848818
 31
0.0
  0
LINE
  5
9E
330
1F
100
AcDbEntity
  8
D-2
  6
Continuous
 62
     3
370
     9
100
AcDbLine
 10
390.0247934702281
 20
374.7365755648227
 30
0.0
 11
535.0782239759292
 21
374.7365755648227
 31
0.0
  0
LINE
  5
9F
330
1F
100
AcDbEntity
  8
D-2
  6
Continuous
 62
     3
370
     9
100
AcDbLine
 10
550.6039593670821
 20
380.9866580447635
 30
0.0
 11
387.2245169974664
 21
380.9866580447635
 31
0.0
  0
LINE
  5
A0
330
1F
100
AcDbEntity
  8
D-1
  6
Continuous
 62
     2
370
     9
100
AcDbLine
 10
263.1623964051943
 20
337.7364040065457
 30
0.0
 11
602.4663564321158
 21
337.7364040065457
 31
0.0
  0
LINE
  5
A1
330
1F
100
AcDbEntity
  8
D-6
  6
Continuous
 62
     6
370
     5
100
AcDbLine
 10
604.9662409601984
 20
239.7523374815245
 30
0.0
 11
604.9662409601984
 21
362.2366580447635
 31
0.0
  0
LINE
  5
A2
330
1F
100
AcDbEntity
  8
D-6
  6
Continuous
 62
     6
370
     5
100
AcDbLine
 10
679.9662409601988
 20
362.2366580447635
 30
0.0
 11
679.9662409601988
 21
287.2366580447635
 31
0.0
  0
LINE
  5
A3
330
1F
100
AcDbEntity
  8
D-6
  6
Continuous
 62
     6
370
     5
100
AcDbLine
 10
679.9662409601988
 20
287.2366580447635
 30
0.0
 11
604.9662409601984
 21
287.2366580447635
 31
0.0
  0
LINE
  5
A4
330
1F
100
AcDbEntity
  8
D-6
  6
Continuous
 62
     6
370
     5
100
AcDbLine
 10
604.9662409601984
 20
362.2366580447635
 30
0.0
 11
679.9662409601988
 21
287.2366580447635
 31
0.0
  0
LINE
  5
A5
330
1F
100
AcDbEntity
  8
D-6
  6
Continuous
 62
     6
370
     5
100
AcDbLine
 10
679.9662409601988
 20
362.2366580447635
 30
0.0
 11
604.9662409601984
 21
287.2366580447635
 31
0.0
  0
LINE
  5
A6
330
1F
100
AcDbEntity
  8
D-6
  6
Continuous
 62
     6
370
     5
100
AcDbLine
 10
648.0194091796875
 20
321.2272190403294
 30
0.0
 11
642.6811424461573
 21
318.5583331133869
 31
0.0
  0
LINE
  5
A7
330
1F
100
AcDbEntity
  8
D-6
  6
Continuous
 62
     6
370
     5
100
AcDbLine
 10
642.6811424461573
 20
318.5583331133869
 30
0.0
 11
635.2669793206294
 21
320.6343532252957
 31
0.0
  0
LINE
  5
A8
330
1F
100
AcDbEntity
  8
D-6
  6
Continuous
 62
     6
370
     5
100
AcDbLine
 10
635.2669793206294
 20
320.6343532252957
 30
0.0
 11
634.0808765308279
 21
326.269052866343
 31
0.0
  0
LINE
  5
A9
330
1F
100
AcDbEntity
  8
D-6
  6
Continuous
 62
     6
370
     5
100
AcDbLine
 10
634.0808765308279
 20
326.269052866343
 30
0.0
 11
635.8600925754856
 21
332.2004328547298
 31
0.0
  0
LINE
  5
AA
330
1F
100
AcDbEntity
  8
D-6
  6
Continuous
 62
     6
370
     5
100
AcDbLine
 10
635.8600925754856
 20
332.2004328547298
 30
0.0
 11
640.0121327993033
 21
333.6833397117822
 31
0.0
  0
LINE
  5
AB
330
1F
100
AcDbEntity
  8
D-6
  6
Continuous
 62
     6
370
     5
100
AcDbLine
 10
640.0121327993033
 20
333.6833397117822
 30
0.0
 11
647.7228525522594
 21
332.2004328547298
 31
0.0
  0
LINE
  5
AC
330
1F
100
AcDbEntity
  8
D-6
  6
Continuous
 62
     6
370
     5
100
AcDbLine
 10
647.7228525522594
 20
332.2004328547298
 30
0.0
 11
650.985099173881
 21
327.158846468539
 31
0.0
  0
LINE
  5
AD
330
1F
100
AcDbEntity
  8
D-6
  6
Continuous
 62
     6
370
     5
100
AcDbLine
 10
650.985099173881
 20
327.158846468539
 30
0.0
 11
648.0194091796875
 21
321.2272190403294
 31
0.0
  0
LINE
  5
AE
330
1F
100
AcDbEntity
  8
D-6
  6
Continuous
 62
     6
370
     5
100
AcDbLine
 10
619.0871367583404
 20
334.0119397962417
 30
0.0
 11
629.4671135979731
 21
339.6468868771116
 31
0.0
  0
LINE
  5
AF
330
1F
100
AcDbEntity
  8
D-6
  6
Continuous
 62
     6
370
     5
100
AcDbLine
 10
629.4671135979731
 20
339.6468868771116
 30
0.0
 11
640.1436470650339
 21
341.7226595491977
 31
0.0
  0
LINE
  5
B0
330
1F
100
AcDbEntity
  8
D-6
  6
Continuous
 62
     6
370
     5
100
AcDbLine
 10
640.1436470650339
 20
341.7226595491977
 30
0.0
 11
660.6065492372255
 21
337.5706193253801
 31
0.0
  0
LINE
  5
B1
330
1F
100
AcDbEntity
  8
D-6
  6
Continuous
 62
     6
370
     5
100
AcDbLine
 10
660.6065492372255
 20
337.5706193253801
 30
0.0
 11
667.7241557353252
 21
327.4874465529983
 31
0.0
  0
LINE
  5
B2
330
1F
100
AcDbEntity
  8
D-6
  6
Continuous
 62
     6
370
     5
100
AcDbLine
 10
667.7241557353252
 20
327.4874465529983
 30
0.0
 11
668.9101348052154
 21
315.6246865762247
 31
0.0
  0
LINE
  5
B3
330
1F
100
AcDbEntity
  8
D-6
  6
Continuous
 62
     6
370
     5
100
AcDbLine
 10
668.9101348052154
 20
315.6246865762247
 30
0.0
 11
653.1922623917865
 21
309.9899869351775
 31
0.0
  0
LINE
  5
B4
330
1F
100
AcDbEntity
  8
D-6
  6
Continuous
 62
     6
370
     5
100
AcDbLine
 10
653.1922623917865
 20
309.9899869351775
 30
0.0
 11
638.6606164880703
 21
309.9899869351775
 31
0.0
  0
LINE
  5
B5
330
1F
100
AcDbEntity
  8
D-6
  6
Continuous
 62
     6
370
     5
100
AcDbLine
 10
638.6606164880703
 20
309.9899869351775
 30
0.0
 11
624.4254034918708
 21
316.8111605257602
 31
0.0
  0
LINE
  5
B6
330
1F
100
AcDbEntity
  8
D-6
  6
Continuous
 62
     6
370
     5
100
AcDbLine
 10
624.4254034918708
 20
316.8111605257602
 30
0.0
 11
619.0871367583404
 21
334.0119397962417
 31
0.0
  0
LINE
  5
B7
330
1F
100
AcDbEntity
  8
D-6
  6
Continuous
 62
     6
370
     5
100
AcDbLine
 10
629.1705569705448
 20
349.7298122096707
 30
0.0
 11
640.4399562526394
 21
350.6196058118667
 31
0.0
  0
LINE
  5
B8
330
1F
100
AcDbEntity
  8
D-6
  6
Continuous
 62
     6
370
     5
100
AcDbLine
 10
673.3588553763727
 20
341.1295462943413
 30
0.0
 11
677.8073285077071
 21
315.6246865762247
 31
0.0
  0
LINE
  5
B9
330
1F
100
AcDbEntity
  8
D-6
  6
Continuous
 62
     6
370
     5
100
AcDbLine
 10
677.8073285077071
 20
315.6246865762247
 30
0.0
 11
656.1580761058912
 21
294.8652277766048
 31
0.0
  0
LINE
  5
BA
330
1F
100
AcDbEntity
  8
D-6
  6
Continuous
 62
     6
370
     5
100
AcDbLine
 10
656.1580761058912
 20
294.8652277766048
 30
0.0
 11
635.6948027739654
 21
296.0514542863176
 31
0.0
  0
LINE
  5
BB
330
1F
100
AcDbEntity
  8
D-6
  6
Continuous
 62
     6
370
     5
100
AcDbLine
 10
635.6948027739654
 20
296.0514542863176
 30
0.0
 11
619.38381710568
 21
305.8379467113599
 31
0.0
  0
LINE
  5
BC
330
1F
100
AcDbEntity
  8
D-6
  6
Continuous
 62
     6
370
     5
100
AcDbLine
 10
619.38381710568
 20
305.8379467113599
 30
0.0
 11
607.9632320919552
 21
345.4020897117822
 31
0.0
  0
LINE
  5
BD
330
1F
100
AcDbEntity
  8
D-6
  6
Continuous
 62
     6
370
     5
100
AcDbLine
 10
607.9632320919552
 20
345.4020897117822
 30
0.0
 11
629.1705569705448
 21
349.7298122096707
 31
0.0
  0
LINE
  5
BE
330
1F
100
AcDbEntity
  8
D-6
  6
Continuous
 62
     6
370
     5
100
AcDbLine
 10
617.534080711571
 20
359.7357837573902
 30
0.0
 11
639.2759993269638
 21
361.5918298669765
 31
0.0
  0
LINE
  5
BF
330
1F
100
AcDbEntity
  8
D-6
  6
Continuous
 62
     6
370
     5
100
AcDbLine
 10
667.6464596310177
 20
358.9405121674409
 30
0.0
 11
678.782488848712
 21
351.5163277290964
 31
0.0
  0
LINE
  5
C0
330
1F
100
AcDbEntity
  8
D-6
  6
Continuous
 62
     6
370
     5
100
AcDbLine
 10
604.9662409601984
 20
324.8210350242822
 30
0.0
 11
610.6402835330448
 21
303.2598711993244
 31
0.0
  0
LINE
  5
C1
330
1F
100
AcDbEntity
  8
D-6
  6
Continuous
 62
     6
370
     5
100
AcDbLine
 10
604.9662409601984
 20
354.237423458615
 30
0.0
 11
617.534080711571
 21
359.7357837573902
 31
0.0
  0
LINE
  5
C2
330
1F
100
AcDbEntity
  8
D-6
  6
Continuous
 62
     6
370
     5
100
AcDbLine
 10
610.6402835330448
 20
303.2598711993244
 30
0.0
 11
626.1705965609165
 21
287.2366580447635
 31
0.0
  0
LINE
  5
C3
330
1F
100
AcDbEntity
  8
D-6
  6
Continuous
 62
     6
370
     5
100
AcDbLine
 10
668.7069867108321
 20
289.7375323321369
 30
0.0
 11
654.9518069705448
 21
287.2366580447635
 31
0.0
  0
LINE
  5
C4
330
1F
100
AcDbEntity
  8
D-6
  6
Continuous
 62
     6
370
     5
100
AcDbLine
 10
679.9662409601988
 20
299.5096732474663
 30
0.0
 11
668.7069867108321
 21
289.7375323321369
 31
0.0
  0
LINE
  5
C5
330
1F
100
AcDbEntity
  8
D-6
  6
Continuous
 62
     6
370
     5
100
AcDbLine
 10
678.782488848712
 20
351.5163277290964
 30
0.0
 11
679.9662409601988
 21
347.8257627744933
 31
0.0
  0
LINE
  5
C6
330
1F
100
AcDbEntity
  8
D-6
  6
Continuous
 62
     6
370
     5
100
AcDbLine
 10
640.4399562526394
 20
350.6196058118667
 30
0.0
 11
663.2756826039908
 21
348.8402660472974
 31
0.0
  0
LINE
  5
C7
330
1F
100
AcDbEntity
  8
D-6
  6
Continuous
 62
     6
370
     5
100
AcDbLine
 10
673.3588553763727
 20
341.1295462943413
 30
0.0
 11
663.2756826039908
 21
348.8402660472974
 31
0.0
  0
LINE
  5
C8
330
1F
100
AcDbEntity
  8
D-6
  6
Continuous
 62
     6
370
     5
100
AcDbLine
 10
639.2759993269638
 20
361.5918298669765
 30
0.0
 11
667.6464596310177
 21
358.9405121674409
 31
0.0
  0
LINE
  5
C9
330
1F
100
AcDbEntity
  8
D-1
  6
Continuous
 62
     2
370
     9
100
AcDbLine
 10
597.0914686048354
 20
381.61169103674
 30
0.0
 11
597.0914686048354
 21
371.3614963840794
 31
0.0
  0
LINE
  5
CA
330
1F
100
AcDbEntity
  8
D-2
  6
Continuous
 62
     3
370
     9
100
AcDbLine
 10
583.7164801520271
 20
350.6114402977197
 30
0.0
 11
578.7167110958615
 21
350.6114402977197
 31
0.0
  0
LINE
  5
CB
330
1F
100
AcDbEntity
  8
D-2
  6
Continuous
 62
     3
370
     9
100
AcDbLine
 10
583.7164801520271
 20
393.6115326752534
 30
0.0
 11
578.7167110958615
 21
393.6115326752534
 31
0.0
  0
LINE
  5
CC
330
1F
100
AcDbEntity
  8
D-2
  6
Continuous
 62
     3
370
     9
100
AcDbLine
 10
392.4665296399917
 20
358.236545872044
 30
0.0
 11
392.4665296399917
 21
362.2366580447635
 31
0.0
  0
LINE
  5
CD
330
1F
100
AcDbEntity
  8
D-2
  6
Continuous
 62
     3
370
     9
100
AcDbLine
 10
379.9663646801099
 20
358.236545872044
 30
0.0
 11
379.9663646801099
 21
362.2366580447635
 31
0.0
  0
LINE
  5
CE
330
1F
100
AcDbEntity
  8
D-2
  6
Continuous
 62
     3
370
     9
100
AcDbLine
 10
385.2083773226352
 20
380.9866580447635
 30
0.0
 11
263.1623964051943
 21
380.9866580447635
 31
0.0
  0
LINE
  5
CF
330
1F
100
AcDbEntity
  8
D-2
  6
Continuous
 62
     3
370
     9
100
AcDbLine
 10
381.2164306640625
 20
368.4864930848818
 30
0.0
 11
263.1623964051943
 21
368.4864930848818
 31
0.0
  0
LINE
  5
D0
330
1F
100
AcDbEntity
  8
D-2
  6
Continuous
 62
     3
370
     9
100
AcDbLine
 10
382.4085957295188
 20
374.7365755648227
 30
0.0
 11
263.1623964051943
 21
374.7365755648227
 31
0.0
  0
LINE
  5
D1
330
1F
100
AcDbEntity
  8
D-2
  6
Continuous
 62
     3
370
     9
100
AcDbLine
 10
381.2164306640625
 20
362.2364106049409
 30
0.0
 11
263.1623964051943
 21
362.2364106049409
 31
0.0
  0
LINE
  5
D2
330
1F
100
AcDbEntity
  8
D-2
  6
Continuous
 62
     3
370
     9
100
AcDbLine
 10
574.9665131440033
 20
387.2364930848818
 30
0.0
 11
263.1623964051943
 21
387.2364930848818
 31
0.0
  0
LINE
  5
D3
330
1F
100
AcDbEntity
  8
D-2
  6
Continuous
 62
     3
370
     9
100
AcDbLine
 10
574.9665131440033
 20
393.4865755648227
 30
0.0
 11
263.1623964051943
 21
393.4865755648227
 31
0.0
  0
LINE
  5
D4
330
1F
100
AcDbEntity
  8
D-6
  6
Continuous
 62
     6
370
     5
100
AcDbLine
 10
717.1012672218117
 20
374.7365755648227
 30
0.0
 11
644.3163485140415
 21
374.7365755648227
 31
0.0
  0
LINE
  5
D5
330
1F
100
AcDbEntity
  8
D-6
  6
Continuous
 62
     6
370
     5
100
AcDbLine
 10
717.1012672218117
 20
380.9866580447635
 30
0.0
 11
628.0790999129013
 21
380.9866580447635
 31
0.0
  0
LINE
  5
D6
330
1F
100
AcDbEntity
  8
D-2
  6
Continuous
 62
     3
370
     9
100
AcDbLine
 10
581.5912195154141
 20
371.3614963840794
 30
0.0
 11
587.4666781038852
 21
366.2362753378379
 31
0.0
  0
LINE
  5
D7
330
1F
100
AcDbEntity
  8
D-1
  6
Continuous
 62
     2
370
     9
100
AcDbLine
 10
591.2163811760981
 20
397.7366019584038
 30
0.0
 11
591.2163811760981
 21
342.7364205025339
 31
0.0
  0
LINE
  5
D8
330
1F
100
AcDbEntity
  8
D-2
  6
Continuous
 62
     3
370
     9
100
AcDbLine
 10
587.4666781038852
 20
388.9863875105576
 30
0.0
 11
587.4666781038852
 21
355.2365854624156
 31
0.0
  0
LINE
  5
D9
330
1F
100
AcDbEntity
  8
D-1
  6
Continuous
 62
     2
370
     9
100
AcDbLine
 10
591.2163811760981
 20
386.7366646431589
 30
0.0
 11
597.0914686048354
 21
381.61169103674
 31
0.0
  0
LINE
  5
DA
330
1F
100
AcDbEntity
  8
D-1
  6
Continuous
 62
     2
370
     9
100
AcDbLine
 10
597.0914686048354
 20
371.3614963840794
 30
0.0
 11
591.2163811760981
 21
366.2365227776605
 31
0.0
  0
LINE
  5
DB
330
1F
100
AcDbEntity
  8
D-1
  6
Continuous
 62
     2
370
     9
100
AcDbLine
 10
594.9663316881336
 20
369.5079246727197
 30
0.0
 11
594.9663316881336
 21
342.7364205025339
 31
0.0
  0
LINE
  5
DC
330
1F
100
AcDbEntity
  8
D-2
  6
Continuous
 62
     3
370
     9
100
AcDbLine
 10
583.7164801520271
 20
369.5074297930744
 30
0.0
 11
583.7164801520271
 21
350.2365689664275
 31
0.0
  0
LINE
  5
DD
330
1F
100
AcDbEntity
  8
D-2
  6
Continuous
 62
     3
370
     9
100
AcDbLine
 10
583.7164801520271
 20
383.4657576277451
 30
0.0
 11
583.7164801520271
 21
393.9866514463683
 31
0.0
  0
LINE
  5
DE
330
1F
100
AcDbEntity
  8
D-1
  6
Continuous
 62
     2
370
     9
100
AcDbLine
 10
594.9663316881336
 20
393.9866514463683
 30
0.0
 11
594.9663316881336
 21
383.4652627480997
 31
0.0
  0
LINE
  5
DF
330
1F
100
AcDbEntity
  8
D-2
  6
Continuous
 62
     3
370
     9
100
AcDbLine
 10
587.4666781038852
 20
386.7369120829815
 30
0.0
 11
581.5912195154141
 21
381.61169103674
 31
0.0
  0
LINE
  5
E0
330
1F
100
AcDbEntity
  8
D-2
  6
Continuous
 62
     3
370
     9
100
AcDbLine
 10
574.4388477222342
 20
-21.49939047323684
 30
0.0
 11
354.4387404983109
 21
-21.49939047323684
 31
0.0
  0
LINE
  5
E1
330
1F
100
AcDbEntity
  8
D-2
  6
Continuous
 62
     3
370
     9
100
AcDbLine
 10
579.438740498311
 20
-103.9995389371305
 30
0.0
 11
579.438740498311
 21
-26.49946882918073
 31
0.0
  0
LINE
  5
E2
330
1F
100
AcDbEntity
  8
D-2
  6
Continuous
 62
     3
370
     9
100
AcDbLine
 10
349.4386002824115
 20
-103.9995389371305
 30
0.0
 11
349.4386002824115
 21
-26.49946882918073
 31
0.0
  0
LINE
  5
E3
330
1F
100
AcDbEntity
  8
D-2
  6
Continuous
 62
     3
370
     9
100
AcDbLine
 10
354.4387404983109
 20
-108.9996172930743
 30
0.0
 11
574.4388477222342
 21
-108.9996172930743
 31
0.0
  0
LINE
  5
E4
330
1F
100
AcDbEntity
  8
D-2
  6
Continuous
 62
     3
370
     9
100
AcDbLine
 10
382.9387355495143
 20
-74.9996535842483
 30
0.0
 11
382.9387355495143
 21
-55.49960162188555
 31
0.0
  0
LINE
  5
E5
330
1F
100
AcDbEntity
  8
D-2
  6
Continuous
 62
     3
370
     9
100
AcDbLine
 10
540.4387602934967
 20
-49.99950924435169
 30
0.0
 11
388.438704207137
 21
-49.99950924435169
 31
0.0
  0
LINE
  5
E6
330
1F
100
AcDbEntity
  8
D-2
  6
Continuous
 62
     3
370
     9
100
AcDbLine
 10
545.9387289511193
 20
-74.9996535842483
 30
0.0
 11
545.9387289511193
 21
-55.49960162188555
 31
0.0
  0
LINE
  5
E7
330
1F
100
AcDbEntity
  8
D-2
  6
Continuous
 62
     3
370
     9
100
AcDbLine
 10
540.4387602934967
 20
-80.49949852195937
 30
0.0
 11
388.438704207137
 21
-80.49949852195937
 31
0.0
  0
LINE
  5
E8
330
1F
100
AcDbEntity
  8
D-4
  6
Continuous
 62
     7
370
     9
100
AcDbLine
 10
349.4386002824115
 20
-153.2536728317672
 30
0.0
 11
579.438740498311
 21
-153.2536728317672
 31
0.0
  0
LINE
  5
E9
330
1F
100
AcDbEntity
  8
D-4
  6
Continuous
 62
     7
370
     9
100
AcDbLine
 10
349.4386002824115
 20
-116.4995183171452
 30
0.0
 11
349.4386002824115
 21
-154.7536530365815
 31
0.0
  0
LINE
  5
EA
330
1F
100
AcDbEntity
  8
D-4
  6
Continuous
 62
     7
370
     9
100
AcDbLine
 10
579.438740498311
 20
-116.4995183171452
 30
0.0
 11
579.438740498311
 21
-154.7536530365815
 31
0.0
  0
LINE
  5
EB
330
1F
100
AcDbEntity
  8
D-4
  6
Continuous
 62
     7
370
     9
100
AcDbLine
 10
671.9639133762669
 20
-108.9996172930743
 30
0.0
 11
671.9639133762669
 21
-21.49939047323684
 31
0.0
  0
LINE
  5
EC
330
1F
100
AcDbEntity
  8
D-4
  6
Continuous
 62
     7
370
     9
100
AcDbLine
 10
586.9387652422932
 20
-108.9996172930743
 30
0.0
 11
673.4636461412586
 21
-108.9996172930743
 31
0.0
  0
LINE
  5
ED
330
1F
100
AcDbEntity
  8
D-4
  6
Continuous
 62
     7
370
     9
100
AcDbLine
 10
586.9387652422932
 20
-21.49939047323684
 30
0.0
 11
673.4636461412586
 21
-21.49939047323684
 31
0.0
  0
LINE
  5
EE
330
1F
100
AcDbEntity
  8
D-2
  6
JWW_CENTER1
 62
     3
370
     9
100
AcDbLine
 10
464.4387322503169
 20
-124.751636402027
 30
0.0
 11
464.4387322503169
 21
-3.163047996727215
 31
0.0
  0
LINE
  5
EF
330
1F
100
AcDbEntity
  8
D-2
  6
JWW_CENTER1
 62
     3
370
     9
100
AcDbLine
 10
332.0198265281886
 20
-65.24953481313347
 30
0.0
 11
597.6440017287797
 21
-65.24953481313347
 31
0.0
  0
LINE
  5
F0
330
1F
100
AcDbEntity
  8
D-2
  6
Continuous
 62
     3
370
     9
100
AcDbLine
 10
269.2123000686234
 20
358.236545872044
 30
0.0
 11
273.212412241343
 21
362.2366580447635
 31
0.0
  0
LINE
  5
F1
330
1F
100
AcDbEntity
  8
D-2
  6
Continuous
 62
     3
370
     9
100
AcDbLine
 10
281.7124650285052
 20
358.236545872044
 30
0.0
 11
285.7123297614021
 21
362.2366580447635
 31
0.0
  0
LINE
  5
F2
330
1F
100
AcDbEntity
  8
D-2
  6
Continuous
 62
     3
370
     9
100
AcDbLine
 10
294.2121351087417
 20
358.236545872044
 30
0.0
 11
298.2122472814612
 21
362.2366580447635
 31
0.0
  0
LINE
  5
F3
330
1F
100
AcDbEntity
  8
D-2
  6
Continuous
 62
     3
370
     9
100
AcDbLine
 10
306.7123000686234
 20
358.236545872044
 30
0.0
 11
310.712412241343
 21
362.2366580447635
 31
0.0
  0
LINE
  5
F4
330
1F
100
AcDbEntity
  8
D-2
  6
Continuous
 62
     3
370
     9
100
AcDbLine
 10
319.2124650285052
 20
358.236545872044
 30
0.0
 11
323.2125772012247
 21
362.2366580447635
 31
0.0
  0
LINE
  5
F5
330
1F
100
AcDbEntity
  8
D-2
  6
Continuous
 62
     3
370
     9
100
AcDbLine
 10
331.7121351087417
 20
358.236545872044
 30
0.0
 11
335.7122472814612
 21
362.2366580447635
 31
0.0
  0
LINE
  5
F6
330
1F
100
AcDbEntity
  8
D-2
  6
Continuous
 62
     3
370
     9
100
AcDbLine
 10
344.2123000686234
 20
358.236545872044
 30
0.0
 11
348.212412241343
 21
362.2366580447635
 31
0.0
  0
LINE
  5
F7
330
1F
100
AcDbEntity
  8
D-2
  6
Continuous
 62
     3
370
     9
100
AcDbLine
 10
356.7124650285052
 20
358.236545872044
 30
0.0
 11
360.7125772012247
 21
362.2366580447635
 31
0.0
  0
LINE
  5
F8
330
1F
100
AcDbEntity
  8
D-2
  6
Continuous
 62
     3
370
     9
100
AcDbLine
 10
369.2121351087417
 20
358.236545872044
 30
0.0
 11
373.2122472814612
 21
362.2366580447635
 31
0.0
  0
LINE
  5
F9
330
1F
100
AcDbEntity
  8
D-2
  6
Continuous
 62
     3
370
     9
100
AcDbLine
 10
394.2124650285052
 20
358.236545872044
 30
0.0
 11
398.2120823215794
 21
362.2366580447635
 31
0.0
  0
LINE
  5
FA
330
1F
100
AcDbEntity
  8
D-2
  6
Continuous
 62
     3
370
     9
100
AcDbLine
 10
406.7121351087417
 20
358.236545872044
 30
0.0
 11
410.7122472814612
 21
362.2366580447635
 31
0.0
  0
LINE
  5
FB
330
1F
100
AcDbEntity
  8
D-2
  6
Continuous
 62
     3
370
     9
100
AcDbLine
 10
419.2123000686234
 20
358.236545872044
 30
0.0
 11
423.212412241343
 21
362.2366580447635
 31
0.0
  0
LINE
  5
FC
330
1F
100
AcDbEntity
  8
D-2
  6
Continuous
 62
     3
370
     9
100
AcDbLine
 10
431.7119701488599
 20
358.236545872044
 30
0.0
 11
435.7120823215794
 21
362.2366580447635
 31
0.0
  0
LINE
  5
FD
330
1F
100
AcDbEntity
  8
D-2
  6
Continuous
 62
     3
370
     9
100
AcDbLine
 10
444.2121351087417
 20
358.236545872044
 30
0.0
 11
448.2122472814612
 21
362.2366580447635
 31
0.0
  0
LINE
  5
FE
330
1F
100
AcDbEntity
  8
D-2
  6
Continuous
 62
     3
370
     9
100
AcDbLine
 10
456.7123000686234
 20
358.236545872044
 30
0.0
 11
460.712412241343
 21
362.2366580447635
 31
0.0
  0
LINE
  5
FF
330
1F
100
AcDbEntity
  8
D-2
  6
Continuous
 62
     3
370
     9
100
AcDbLine
 10
469.2122175886826
 20
358.236545872044
 30
0.0
 11
473.2123297614021
 21
362.2366580447635
 31
0.0
  0
LINE
  5
100
330
1F
100
AcDbEntity
  8
D-2
  6
Continuous
 62
     3
370
     9
100
AcDbLine
 10
481.7121351087417
 20
358.236545872044
 30
0.0
 11
485.7122472814612
 21
362.2366580447635
 31
0.0
  0
LINE
  5
101
330
1F
100
AcDbEntity
  8
D-2
  6
Continuous
 62
     3
370
     9
100
AcDbLine
 10
494.2120526288008
 20
358.236545872044
 30
0.0
 11
498.212412241343
 21
362.2366580447635
 31
0.0
  0
LINE
  5
102
330
1F
100
AcDbEntity
  8
D-2
  6
Continuous
 62
     3
370
     9
100
AcDbLine
 10
506.7122175886826
 20
358.236545872044
 30
0.0
 11
510.7124534813136
 21
362.2366580447635
 31
0.0
  0
LINE
  5
103
330
1F
100
AcDbEntity
  8
D-2
  6
Continuous
 62
     3
370
     9
100
AcDbLine
 10
519.2121351087417
 20
358.236545872044
 30
0.0
 11
523.2122472814613
 21
362.2366580447635
 31
0.0
  0
LINE
  5
104
330
1F
100
AcDbEntity
  8
D-2
  6
Continuous
 62
     3
370
     9
100
AcDbLine
 10
531.7120526288008
 20
358.236545872044
 30
0.0
 11
535.7121648015203
 21
362.2366580447635
 31
0.0
  0
LINE
  5
105
330
1F
100
AcDbEntity
  8
D-2
  6
Continuous
 62
     3
370
     9
100
AcDbLine
 10
544.2123413085938
 20
358.236545872044
 30
0.0
 11
548.2123297614021
 21
362.2366580447635
 31
0.0
  0
LINE
  5
106
330
1F
100
AcDbEntity
  8
D-2
  6
Continuous
 62
     3
370
     9
100
AcDbLine
 10
556.7122588286529
 20
358.236545872044
 30
0.0
 11
560.71212356155
 21
362.2366580447635
 31
0.0
  0
LINE
  5
107
330
1F
100
AcDbEntity
  8
D-2
  6
Continuous
 62
     3
370
     9
100
AcDbLine
 10
569.2120526288008
 20
358.236545872044
 30
0.0
 11
572.4663811760981
 21
361.4908744193413
 31
0.0
  0
LINE
  5
108
330
1F
100
AcDbEntity
  8
D-2
  6
Continuous
 62
     3
370
     9
100
AcDbLine
 10
577.1891413508234
 20
-273.9989244615709
 30
0.0
 11
351.6889417493667
 21
-273.9989244615709
 31
0.0
  0
LINE
  5
109
330
1F
100
AcDbEntity
  8
D-2
  6
Continuous
 62
     3
370
     9
100
AcDbLine
 10
556.7367553710938
 20
-281.4988254856419
 30
0.0
 11
579.4386167783995
 21
-281.4988254856419
 31
0.0
  0
LINE
  5
10A
330
1F
100
AcDbEntity
  8
D-2
  6
Continuous
 62
     3
370
     9
100
AcDbLine
 10
555.5366722313136
 20
-281.4988254856419
 30
0.0
 11
349.4384765625
 21
-281.4988254856419
 31
0.0
  0
LINE
  5
10B
330
1F
100
AcDbEntity
  8
D-2
  6
Continuous
 62
     3
370
     9
100
AcDbLine
 10
373.3414108688768
 20
-282.4023519979941
 30
0.0
 11
376.6887767894849
 21
-292.7489244615709
 31
0.0
  0
LINE
  5
10C
330
1F
100
AcDbEntity
  8
D-2
  6
Continuous
 62
     3
370
     9
100
AcDbLine
 10
349.4384765625
 20
-276.2488947687922
 30
0.0
 11
349.4384765625
 21
-281.4988254856419
 31
0.0
  0
LINE
  5
10D
330
1F
100
AcDbEntity
  8
D-2
  6
Continuous
 62
     3
370
     9
100
AcDbLine
 10
579.4386167783995
 20
-276.2488947687922
 30
0.0
 11
579.4386167783995
 21
-281.4988254856419
 31
0.0
  0
LINE
  5
10E
330
1F
100
AcDbEntity
  8
D-2
  6
JWW_CENTER1
 62
     3
370
     9
100
AcDbLine
 10
464.4387322503169
 20
-184.1386784733953
 30
0.0
 11
464.4387322503169
 21
-413.5449631149704
 31
0.0
  0
LINE
  5
10F
330
1F
100
AcDbEntity
  8
D-2
  6
Continuous
 62
     3
370
     9
100
AcDbLine
 10
555.5366722313136
 20
-282.4023519979941
 30
0.0
 11
552.1888114310602
 21
-292.7489244615709
 31
0.0
  0
LINE
  5
110
330
1F
100
AcDbEntity
  8
D-2
  6
Continuous
 62
     3
370
     9
100
AcDbLine
 10
382.9386118296031
 20
-298.9990069415118
 30
0.0
 11
545.9388526710304
 21
-298.9990069415118
 31
0.0
  0
LINE
  5
111
330
1F
100
AcDbEntity
  8
D-2
  6
Continuous
 62
     3
370
     9
100
AcDbLine
 10
355.6888064822635
 20
-281.4988254856419
 30
0.0
 11
355.6888064822635
 21
-305.24884198163
 31
0.0
  0
LINE
  5
112
330
1F
100
AcDbEntity
  8
D-2
  6
Continuous
 62
     3
370
     9
100
AcDbLine
 10
573.18865801837
 20
-281.4988254856419
 30
0.0
 11
573.18865801837
 21
-305.24884198163
 31
0.0
  0
LINE
  5
113
330
1F
100
AcDbEntity
  8
D-2
  6
Continuous
 62
     3
370
     9
100
AcDbLine
 10
350.6885425464529
 20
-281.4988254856419
 30
0.0
 11
350.6885425464529
 21
-305.24884198163
 31
0.0
  0
LINE
  5
114
330
1F
100
AcDbEntity
  8
D-2
  6
Continuous
 62
     3
370
     9
100
AcDbLine
 10
578.1889219541807
 20
-281.4988254856419
 30
0.0
 11
578.1889219541807
 21
-305.24884198163
 31
0.0
  0
LINE
  5
115
330
1F
100
AcDbEntity
  8
D-4
  6
Continuous
 62
     7
370
     9
100
AcDbLine
 10
671.9639133762669
 20
-398.9989657015414
 30
0.0
 11
671.9639133762669
 21
-198.9989244615709
 31
0.0
  0
LINE
  5
116
330
1F
100
AcDbEntity
  8
D-4
  6
Continuous
 62
     7
370
     9
100
AcDbLine
 10
514.4388972101984
 20
-398.9989657015414
 30
0.0
 11
673.4636461412586
 21
-398.9989657015414
 31
0.0
  0
LINE
  5
117
330
1F
100
AcDbEntity
  8
D-4
  6
Continuous
 62
     7
370
     9
100
AcDbLine
 10
591.9387817382812
 20
-273.9989244615709
 30
0.0
 11
673.4636461412586
 21
-273.9989244615709
 31
0.0
  0
LINE
  5
118
330
1F
100
AcDbEntity
  8
D-4
  6
Continuous
 62
     7
370
     9
100
AcDbLine
 10
556.6887520455026
 20
-198.9989244615709
 30
0.0
 11
673.4636461412586
 21
-198.9989244615709
 31
0.0
  0
LINE
  5
119
330
1F
100
AcDbEntity
  8
D-2
  6
Continuous
 62
     3
370
     9
100
AcDbLine
 10
384.4387157543287
 20
-372.7490646774704
 30
0.0
 11
544.438748746305
 21
-372.7490646774704
 31
0.0
  0
LINE
  5
11A
330
1F
100
AcDbEntity
  8
D-2
  6
Continuous
 62
     3
370
     9
100
AcDbLine
 10
384.4387157543287
 20
-378.9991471574114
 30
0.0
 11
544.438748746305
 21
-378.9991471574114
 31
0.0
  0
LINE
  5
11B
330
1F
100
AcDbEntity
  8
D-2
  6
Continuous
 62
     3
370
     9
100
AcDbLine
 10
426.9387322503169
 20
-369.2490283862964
 30
0.0
 11
434.438756994299
 21
-371.9990745750633
 31
0.0
  0
LINE
  5
11C
330
1F
100
AcDbEntity
  8
D-2
  6
Continuous
 62
     3
370
     9
100
AcDbLine
 10
501.9387322503169
 20
-369.2490283862964
 30
0.0
 11
494.4388312262458
 21
-371.9990745750633
 31
0.0
  0
LINE
  5
11D
330
1F
100
AcDbEntity
  8
D-2
  6
Continuous
 62
     3
370
     9
100
AcDbLine
 10
434.438756994299
 20
-371.9990745750633
 30
0.0
 11
434.438756994299
 21
-372.7490646774704
 31
0.0
  0
LINE
  5
11E
330
1F
100
AcDbEntity
  8
D-2
  6
Continuous
 62
     3
370
     9
100
AcDbLine
 10
494.4388312262458
 20
-371.9990745750633
 30
0.0
 11
494.4388312262458
 21
-372.7490646774704
 31
0.0
  0
LINE
  5
11F
330
1F
100
AcDbEntity
  8
D-2
  6
Continuous
 62
     3
370
     9
100
AcDbLine
 10
424.4387240023227
 20
-396.4990811734586
 30
0.0
 11
424.4387240023227
 21
-378.9991471574114
 31
0.0
  0
LINE
  5
120
330
1F
100
AcDbEntity
  8
D-2
  6
Continuous
 62
     3
370
     9
100
AcDbLine
 10
501.9387322503169
 20
-398.9989657015414
 30
0.0
 11
426.9387322503169
 21
-398.9989657015414
 31
0.0
  0
LINE
  5
121
330
1F
100
AcDbEntity
  8
D-2
  6
Continuous
 62
     3
370
     9
100
AcDbLine
 10
504.4388642182221
 20
-396.4990811734586
 30
0.0
 11
504.4388642182221
 21
-378.9991471574114
 31
0.0
  0
LINE
  5
122
330
1F
100
AcDbEntity
  8
D-2
  6
Continuous
 62
     3
370
     9
100
AcDbLine
 10
384.4387157543287
 20
-372.7490646774704
 30
0.0
 11
384.4387157543287
 21
-383.9991636533995
 31
0.0
  0
LINE
  5
123
330
1F
100
AcDbEntity
  8
D-2
  6
Continuous
 62
     3
370
     9
100
AcDbLine
 10
544.438748746305
 20
-372.7490646774704
 30
0.0
 11
544.438748746305
 21
-383.9991636533995
 31
0.0
  0
LINE
  5
124
330
1F
100
AcDbEntity
  8
D-2
  6
Continuous
 62
     3
370
     9
100
AcDbLine
 10
384.4387157543287
 20
-383.9991636533995
 30
0.0
 11
423.8138147302575
 21
-383.9991636533995
 31
0.0
  0
LINE
  5
125
330
1F
100
AcDbEntity
  8
D-2
  6
Continuous
 62
     3
370
     9
100
AcDbLine
 10
505.0637734902872
 20
-383.9991636533995
 30
0.0
 11
544.438748746305
 21
-383.9991636533995
 31
0.0
  0
LINE
  5
126
330
1F
100
AcDbEntity
  8
D-2
  6
Continuous
 62
     3
370
     9
100
AcDbLine
 10
505.0637734902872
 20
-378.9991471574114
 30
0.0
 11
505.0637734902872
 21
-383.9991636533995
 31
0.0
  0
LINE
  5
127
330
1F
100
AcDbEntity
  8
D-2
  6
Continuous
 62
     3
370
     9
100
AcDbLine
 10
423.8138147302575
 20
-378.9991471574114
 30
0.0
 11
423.8138147302575
 21
-383.9991636533995
 31
0.0
  0
LINE
  5
128
330
1F
100
AcDbEntity
  8
D-2
  6
Continuous
 62
     3
370
     9
100
AcDbLine
 10
426.9387322503169
 20
-336.248969000739
 30
0.0
 11
426.9387322503169
 21
-369.2490283862964
 31
0.0
  0
LINE
  5
129
330
1F
100
AcDbEntity
  8
D-2
  6
Continuous
 62
     3
370
     9
100
AcDbLine
 10
501.9387322503169
 20
-336.2895491316511
 30
0.0
 11
501.9387322503169
 21
-369.2490283862964
 31
0.0
  0
LINE
  5
12A
330
1F
100
AcDbEntity
  8
D-2
  6
JWW_CENTER2
 62
     3
370
     9
100
AcDbLine
 10
384.6887536951013
 20
-198.9989244615709
 30
0.0
 11
544.1887108055323
 21
-198.9989244615709
 31
0.0
  0
LINE
  5
12B
330
1F
100
AcDbEntity
  8
D-2
  6
JWW_CENTER2
 62
     3
370
     9
100
AcDbLine
 10
384.6887536951013
 20
-210.2490234375
 30
0.0
 11
544.1887108055323
 21
-210.2490234375
 31
0.0
  0
LINE
  5
12C
330
1F
100
AcDbEntity
  8
D-2
  6
JWW_CENTER2
 62
     3
370
     9
100
AcDbLine
 10
384.6887536951013
 20
-198.9989244615709
 30
0.0
 11
384.6887536951013
 21
-210.2490234375
 31
0.0
  0
LINE
  5
12D
330
1F
100
AcDbEntity
  8
D-2
  6
JWW_CENTER2
 62
     3
370
     9
100
AcDbLine
 10
544.1887108055323
 20
-198.9989244615709
 30
0.0
 11
544.1887108055323
 21
-210.2490234375
 31
0.0
  0
LINE
  5
12E
330
1F
100
AcDbEntity
  8
D-2
  6
JWW_CENTER2
 62
     3
370
     9
100
AcDbLine
 10
541.1888741158151
 20
-210.2490234375
 30
0.0
 11
541.1888741158151
 21
-216.4989821975296
 31
0.0
  0
LINE
  5
12F
330
1F
100
AcDbEntity
  8
D-2
  6
JWW_CENTER2
 62
     3
370
     9
100
AcDbLine
 10
387.6887141047297
 20
-210.2490234375
 30
0.0
 11
387.6887141047297
 21
-216.4989821975296
 31
0.0
  0
LINE
  5
130
330
1F
100
AcDbEntity
  8
D-2
  6
JWW_CENTER2
 62
     3
370
     9
100
AcDbLine
 10
431.938748746305
 20
-216.4989821975296
 30
0.0
 11
387.6887141047297
 21
-216.4989821975296
 31
0.0
  0
LINE
  5
131
330
1F
100
AcDbEntity
  8
D-2
  6
JWW_CENTER2
 62
     3
370
     9
100
AcDbLine
 10
496.9387157543287
 20
-216.4989821975296
 30
0.0
 11
541.1888741158151
 21
-216.4989821975296
 31
0.0
  0
LINE
  5
132
330
1F
100
AcDbEntity
  8
D-2
  6
JWW_CENTER2
 62
     3
370
     9
100
AcDbLine
 10
426.9388559702281
 20
-259.9989030167862
 30
0.0
 11
426.9388559702281
 21
-273.9989244615709
 31
0.0
  0
LINE
  5
133
330
1F
100
AcDbEntity
  8
D-2
  6
JWW_CENTER2
 62
     3
370
     9
100
AcDbLine
 10
439.4387734902872
 20
-241.4989409575591
 30
0.0
 11
439.4387734902872
 21
-223.9990069415118
 31
0.0
  0
LINE
  5
134
330
1F
100
AcDbEntity
  8
D-2
  6
JWW_CENTER2
 62
     3
370
     9
100
AcDbLine
 10
489.438938450169
 20
-241.4989409575591
 30
0.0
 11
489.438938450169
 21
-223.9990069415118
 31
0.0
  0
LINE
  5
135
330
1F
100
AcDbEntity
  8
D-2
  6
JWW_CENTER2
 62
     3
370
     9
100
AcDbLine
 10
501.9389796901393
 20
-260.0394831476984
 30
0.0
 11
501.9389796901393
 21
-273.9989244615709
 31
0.0
  0
LINE
  5
136
330
1F
100
AcDbEntity
  8
D-2
  6
JWW_CENTER2
 62
     3
370
     9
100
AcDbLine
 10
437.9387932854732
 20
-202.7489986935177
 30
0.0
 11
490.9386712151607
 21
-202.7489986935177
 31
0.0
  0
LINE
  5
137
330
1F
100
AcDbEntity
  8
D-2
  6
JWW_CENTER2
 62
     3
370
     9
100
AcDbLine
 10
437.9387932854732
 20
-202.7489986935177
 30
0.0
 11
437.9387932854732
 21
-210.2490234375
 31
0.0
  0
LINE
  5
138
330
1F
100
AcDbEntity
  8
D-2
  6
JWW_CENTER2
 62
     3
370
     9
100
AcDbLine
 10
490.9386712151607
 20
-202.7489986935177
 30
0.0
 11
490.9386712151607
 21
-210.2490234375
 31
0.0
  0
LINE
  5
139
330
1F
100
AcDbEntity
  8
D-2
  6
Continuous
 62
     3
370
     9
100
AcDbLine
 10
439.4386497703761
 20
-317.7491306614231
 30
0.0
 11
439.4386497703761
 21
-298.9990069415118
 31
0.0
  0
LINE
  5
13A
330
1F
100
AcDbEntity
  8
D-2
  6
Continuous
 62
     3
370
     9
100
AcDbLine
 10
489.4386910103464
 20
-317.7491306614231
 30
0.0
 11
489.4386910103464
 21
-298.9990069415118
 31
0.0
  0
LINE
  5
13B
330
1F
100
AcDbEntity
  8
D-2
  6
Continuous
 62
     3
370
     9
100
AcDbLine
 10
578.1889219541807
 20
-305.24884198163
 30
0.0
 11
350.6885425464529
 21
-305.24884198163
 31
0.0
  0
LINE
  5
13C
330
1F
100
AcDbEntity
  8
D-4
  6
Continuous
 62
     7
370
     9
100
AcDbLine
 10
591.9387817382812
 20
-305.24884198163
 30
0.0
 11
636.1592473210516
 21
-305.24884198163
 31
0.0
  0
LINE
  5
13D
330
1F
100
AcDbEntity
  8
D-4
  6
Continuous
 62
     7
370
     9
100
AcDbLine
 10
634.659143396326
 20
-352.7535144702808
 30
0.0
 11
634.659143396326
 21
-273.9989244615709
 31
0.0
  0
LINE
  5
13E
330
1F
100
AcDbEntity
  8
D-4
  6
Continuous
 62
     7
370
     9
100
AcDbLine
 10
310.8614947344807
 20
142.3968299659523
 30
0.0
 11
572.2913175015835
 21
142.3968299659523
 31
0.0
  0
LINE
  5
13F
330
1F
100
AcDbEntity
  8
D-4
  6
Continuous
 62
     7
370
     9
100
AcDbLine
 10
590.5225599134292
 20
-483.8387195484058
 30
0.0
 11
333.6389490076013
 21
-483.8387195484058
 31
0.0
  0
LINE
  5
140
330
1F
100
AcDbEntity
  8
D-4
  6
Continuous
 62
     7
370
     9
100
AcDbLine
 10
223.2560441300676
 20
318.4932564400339
 30
0.0
 11
223.2560441300676
 21
393.4865755648227
 31
0.0
  0
LINE
  5
141
330
1F
100
AcDbEntity
  8
D-4
  6
Continuous
 62
     7
370
     9
100
AcDbLine
 10
258.1299652924409
 20
358.236545872044
 30
0.0
 11
221.7560639252534
 21
358.236545872044
 31
0.0
  0
LINE
  5
142
330
1F
100
AcDbEntity
  8
D-4
  6
Continuous
 62
     7
370
     9
100
AcDbLine
 10
258.1299652924409
 20
362.2364106049409
 30
0.0
 11
221.7560639252534
 21
362.2364106049409
 31
0.0
  0
LINE
  5
143
330
1F
100
AcDbEntity
  8
D-4
  6
Continuous
 62
     7
370
     9
100
AcDbLine
 10
258.1299652924409
 20
393.4865755648227
 30
0.0
 11
221.7560639252534
 21
393.4865755648227
 31
0.0
  0
LINE
  5
144
330
1F
100
AcDbEntity
  8
D-4
  6
Continuous
 62
     7
370
     9
100
AcDbLine
 10
761.4745268950592
 20
337.7364040065457
 30
0.0
 11
761.4745268950592
 21
434.6985440640838
 31
0.0
  0
LINE
  5
145
330
1F
100
AcDbEntity
  8
D-4
  6
Continuous
 62
     7
370
     9
100
AcDbLine
 10
608.0935091585727
 20
337.7364040065457
 30
0.0
 11
762.9746308197846
 21
337.7364040065457
 31
0.0
  0
LINE
  5
146
330
1F
100
AcDbEntity
  8
D-4
  6
Continuous
 62
     7
370
     9
100
AcDbLine
 10
720.7653561153927
 20
393.9866514463683
 30
0.0
 11
762.9746308197846
 21
393.9866514463683
 31
0.0
  0
LINE
  5
147
330
1F
100
AcDbEntity
  8
D-4
  6
Continuous
 62
     7
370
     9
100
AcDbLine
 10
612.4889064479519
 20
397.7366019584038
 30
0.0
 11
762.9746308197846
 21
397.7366019584038
 31
0.0
  0
LINE
  5
148
330
1F
100
AcDbEntity
  8
D-6
  6
Continuous
 62
     6
370
     5
100
AcDbLine
 10
571.1936744483742
 20
239.7523374815245
 30
0.0
 11
604.9662409601984
 21
273.5253988729942
 31
0.0
  0
LINE
  5
149
330
1F
100
AcDbEntity
  8
D-6
  6
Continuous
 62
     6
370
     5
100
AcDbLine
 10
556.7164653056377
 20
260.6307529758763
 30
0.0
 11
604.9662409601984
 21
308.8805904903928
 31
0.0
  0
LINE
  5
14A
330
1F
100
AcDbEntity
  8
D-6
  6
Continuous
 62
     6
370
     5
100
AcDbLine
 10
602.4663564321158
 20
337.7364040065457
 30
0.0
 11
604.9662409601984
 21
337.7364040065457
 31
0.0
  0
LINE
  5
14B
330
1F
100
AcDbEntity
  8
D-6
  6
Continuous
 62
     6
370
     5
100
AcDbLine
 10
717.1012672218117
 20
387.2364930848818
 30
0.0
 11
604.9662409601984
 21
387.2364930848818
 31
0.0
  0
LINE
  5
14C
330
1F
100
AcDbEntity
  8
D-6
  6
Continuous
 62
     6
370
     5
100
AcDbLine
 10
717.1012672218117
 20
393.4865755648227
 30
0.0
 11
604.9662409601984
 21
393.4865755648227
 31
0.0
  0
LINE
  5
14D
330
1F
100
AcDbEntity
  8
D-6
  6
Continuous
 62
     6
370
     5
100
AcDbLine
 10
717.1012672218117
 20
368.4864930848818
 30
0.0
 11
604.9662409601984
 21
368.4864930848818
 31
0.0
  0
LINE
  5
14E
330
1F
100
AcDbEntity
  8
D-6
  6
Continuous
 62
     6
370
     5
100
AcDbLine
 10
604.9662409601984
 20
362.2366580447635
 30
0.0
 11
717.1012672218117
 21
362.2366580447635
 31
0.0
  0
LINE
  5
14F
330
1F
100
AcDbEntity
  8
D-1
  6
Continuous
 62
     2
370
     9
100
AcDbLine
 10
585.7750557564401
 20
342.7364205025339
 30
0.0
 11
589.5248825485644
 21
346.4863710145693
 31
0.0
  0
LINE
  5
150
330
1F
100
AcDbEntity
  8
D-1
  6
Continuous
 62
     2
370
     9
100
AcDbLine
 10
573.2750145164698
 20
342.7364205025339
 30
0.0
 11
577.0250887484165
 21
346.4863710145693
 31
0.0
  0
LINE
  5
151
330
1F
100
AcDbEntity
  8
D-1
  6
Continuous
 62
     2
370
     9
100
AcDbLine
 10
560.8414108688769
 20
342.802734375
 30
0.0
 11
564.5251712283573
 21
346.4863710145693
 31
0.0
  0
LINE
  5
152
330
1F
100
AcDbEntity
  8
D-4
  6
Continuous
 62
     7
370
     9
100
AcDbLine
 10
564.9664801520271
 20
452.5274493243244
 30
0.0
 11
589.9665626319679
 21
452.5274493243244
 31
0.0
  0
LINE
  5
153
330
1F
100
AcDbEntity
  8
D-4
  6
Continuous
 62
     7
370
     9
100
AcDbLine
 10
564.9664801520271
 20
403.6248036977407
 30
0.0
 11
564.9664801520271
 21
454.0274295291385
 31
0.0
  0
LINE
  5
154
330
1F
100
AcDbEntity
  8
D-4
  6
Continuous
 62
     7
370
     9
100
AcDbLine
 10
589.9665626319679
 20
403.6248036977407
 30
0.0
 11
589.9665626319679
 21
493.5029890730576
 31
0.0
  0
LINE
  5
155
330
1F
100
AcDbEntity
  8
D-4
  6
Continuous
 62
     7
370
     9
100
AcDbLine
 10
263.1623964051943
 20
492.0030088682433
 30
0.0
 11
616.2164636560391
 21
492.0030088682433
 31
0.0
  0
LINE
  5
156
330
1F
100
AcDbEntity
  8
D-4
  6
Continuous
 62
     7
370
     9
100
AcDbLine
 10
591.2163811760981
 20
403.6248036977407
 30
0.0
 11
591.2163811760981
 21
493.5029890730576
 31
0.0
  0
LINE
  5
157
330
1F
100
AcDbEntity
  8
D-4
  6
Continuous
 62
     7
370
     9
100
AcDbLine
 10
616.2164636560391
 20
403.6248036977407
 30
0.0
 11
616.2164636560391
 21
552.0561589421453
 31
0.0
  0
LINE
  5
158
330
1F
100
AcDbEntity
  8
D-4
  6
Continuous
 62
     7
370
     9
100
AcDbLine
 10
263.1623964051943
 20
550.5561787373313
 30
0.0
 11
616.2164636560391
 21
550.5561787373313
 31
0.0
  0
LINE
  5
159
330
1F
100
AcDbEntity
  8
D-4
  6
Continuous
 62
     7
370
     9
100
AcDbLine
 10
263.1623964051943
 20
200.1998860127217
 30
0.0
 11
602.4663564321158
 21
200.1998860127217
 31
0.0
  0
LINE
  5
15A
330
1F
100
AcDbEntity
  8
D-4
  6
Continuous
 62
     7
370
     9
100
AcDbLine
 10
556.7164653056377
 20
235.1357908506651
 30
0.0
 11
556.7164653056377
 21
198.6999676678633
 31
0.0
  0
LINE
  5
15B
330
1F
100
AcDbEntity
  8
0-4
  6
Continuous
 62
     7
370
     9
100
AcDbLine
 10
-513.9582453547297
 20
-417.3783008472339
 30
0.0
 11
-252.5284225876267
 21
-417.3783008472339
 31
0.0
  0
LINE
  5
15C
330
1F
100
AcDbEntity
  8
0-2
  6
Continuous
 62
     3
370
     9
100
AcDbLine
 10
-666.3558135161529
 20
294.5765892235009
 30
0.0
 11
-66.35581351615286
 21
294.5765892235009
 31
0.0
  0
LINE
  5
15D
330
1F
100
AcDbEntity
  8
0-2
  6
Continuous
 62
     3
370
     9
100
AcDbLine
 10
-66.35581351615286
 20
294.5765892235009
 30
0.0
 11
-66.35581351615286
 21
-305.4231633366765
 31
0.0
  0
LINE
  5
15E
330
1F
100
AcDbEntity
  8
0-2
  6
Continuous
 62
     3
370
     9
100
AcDbLine
 10
-66.35581351615286
 20
-305.4231633366765
 30
0.0
 11
-666.3558135161529
 21
-305.4231633366765
 31
0.0
  0
LINE
  5
15F
330
1F
100
AcDbEntity
  8
0-2
  6
Continuous
 62
     3
370
     9
100
AcDbLine
 10
-666.3558135161529
 20
-305.4231633366765
 30
0.0
 11
-666.3558135161529
 21
294.5765892235009
 31
0.0
  0
LINE
  5
160
330
1F
100
AcDbEntity
  8
0-1
  6
Continuous
 62
     2
370
     9
100
AcDbLine
 10
-666.8557656777873
 20
-305.9232392182221
 30
0.0
 11
-666.8557656777873
 21
295.0766651050465
 31
0.0
  0
LINE
  5
161
330
1F
100
AcDbEntity
  8
0-2
  6
Continuous
 62
     3
370
     9
100
AcDbLine
 10
-666.3558135161529
 20
294.5765892235009
 30
0.0
 11
-656.3558423841322
 21
284.5768036713471
 31
0.0
  0
LINE
  5
162
330
1F
100
AcDbEntity
  8
0-2
  6
Continuous
 62
     3
370
     9
100
AcDbLine
 10
-656.3558423841322
 20
-295.4233777845228
 30
0.0
 11
-656.3558423841322
 21
284.5768036713471
 31
0.0
  0
LINE
  5
163
330
1F
100
AcDbEntity
  8
0-2
  6
Continuous
 62
     3
370
     9
100
AcDbLine
 10
-656.3558423841322
 20
-295.4233777845228
 30
0.0
 11
-666.3558135161529
 21
-305.4231633366765
 31
0.0
  0
LINE
  5
164
330
1F
100
AcDbEntity
  8
0-2
  6
Continuous
 62
     3
370
     9
100
AcDbLine
 10
-661.3558588801203
 20
-300.4232705605996
 30
0.0
 11
-661.3558588801203
 21
289.5765727275128
 31
0.0
  0
LINE
  5
165
330
1F
100
AcDbEntity
  8
0-2
  6
Continuous
 62
     3
370
     9
100
AcDbLine
 10
-76.35578464817357
 20
-295.4233777845228
 30
0.0
 11
-656.3558423841322
 21
-295.4233777845228
 31
0.0
  0
LINE
  5
166
330
1F
100
AcDbEntity
  8
0-2
  6
Continuous
 62
     3
370
     9
100
AcDbLine
 10
-76.35578464817357
 20
-295.4233777845228
 30
0.0
 11
-66.35581351615286
 21
-305.4231633366765
 31
0.0
  0
LINE
  5
167
330
1F
100
AcDbEntity
  8
0-2
  6
Continuous
 62
     3
370
     9
100
AcDbLine
 10
-71.35583001214101
 20
-300.4232705605996
 30
0.0
 11
-661.3557970201646
 21
-300.4232705605996
 31
0.0
  0
LINE
  5
168
330
1F
100
AcDbEntity
  8
0-2
  6
Continuous
 62
     3
370
     9
100
AcDbLine
 10
-76.35578464817357
 20
284.5768036713471
 30
0.0
 11
-76.35578464817357
 21
-295.4233777845228
 31
0.0
  0
LINE
  5
169
330
1F
100
AcDbEntity
  8
0-2
  6
Continuous
 62
     3
370
     9
100
AcDbLine
 10
-76.35578464817357
 20
284.5768036713471
 30
0.0
 11
-66.35581351615286
 21
294.5765892235009
 31
0.0
  0
LINE
  5
16A
330
1F
100
AcDbEntity
  8
0-2
  6
Continuous
 62
     3
370
     9
100
AcDbLine
 10
-71.35570629222968
 20
289.5765727275128
 30
0.0
 11
-71.35570629222968
 21
-300.4232705605996
 31
0.0
  0
LINE
  5
16B
330
1F
100
AcDbEntity
  8
0-2
  6
Continuous
 62
     3
370
     9
100
AcDbLine
 10
-656.3558423841322
 20
284.5768036713471
 30
0.0
 11
-76.35578464817357
 21
284.5768036713471
 31
0.0
  0
LINE
  5
16C
330
1F
100
AcDbEntity
  8
0-2
  6
Continuous
 62
     3
370
     9
100
AcDbLine
 10
-661.3557970201646
 20
289.5768201673354
 30
0.0
 11
-71.35583001214101
 21
289.5768201673354
 31
0.0
  0
LINE
  5
16D
330
1F
100
AcDbEntity
  8
0-1
  6
Continuous
 62
     2
370
     9
100
AcDbLine
 10
-676.8557986697635
 20
305.0766980970229
 30
0.0
 11
-666.8557656777873
 21
295.0766651050465
 31
0.0
  0
LINE
  5
16E
330
1F
100
AcDbEntity
  8
0-1
  6
Continuous
 62
     2
370
     9
100
AcDbLine
 10
-666.8557656777873
 20
-305.9232392182221
 30
0.0
 11
-676.8557986697635
 21
-315.9232722101984
 31
0.0
  0
LINE
  5
16F
330
1F
100
AcDbEntity
  8
0-1
  6
Continuous
 62
     2
370
     9
100
AcDbLine
 10
-671.8557821737752
 20
-310.9232557142103
 30
0.0
 11
-671.8557821737752
 21
300.0766816010346
 31
0.0
  0
LINE
  5
170
330
1F
100
AcDbEntity
  8
0-1
  6
Continuous
 62
     2
370
     9
100
AcDbLine
 10
-65.85579949456289
 20
-305.9232392182221
 30
0.0
 11
-666.8557656777873
 21
-305.9232392182221
 31
0.0
  0
LINE
  5
171
330
1F
100
AcDbEntity
  8
0-1
  6
Continuous
 62
     2
370
     9
100
AcDbLine
 10
-55.85582836254218
 20
-315.9232722101984
 30
0.0
 11
-676.8557986697635
 21
-315.9232722101984
 31
0.0
  0
LINE
  5
172
330
1F
100
AcDbEntity
  8
0-1
  6
Continuous
 62
     2
370
     9
100
AcDbLine
 10
-65.85579949456289
 20
-305.9232392182221
 30
0.0
 11
-55.85582836254218
 21
-315.9232722101984
 31
0.0
  0
LINE
  5
173
330
1F
100
AcDbEntity
  8
0-1
  6
Continuous
 62
     2
370
     9
100
AcDbLine
 10
-60.85584485853033
 20
-310.9232557142103
 30
0.0
 11
-671.8557821737752
 21
-310.9232557142103
 31
0.0
  0
LINE
  5
174
330
1F
100
AcDbEntity
  8
0-1
  6
Continuous
 62
     2
370
     9
100
AcDbLine
 10
-65.85579949456289
 20
295.0766651050465
 30
0.0
 11
-65.85579949456289
 21
-305.9232392182221
 31
0.0
  0
LINE
  5
175
330
1F
100
AcDbEntity
  8
0-1
  6
Continuous
 62
     2
370
     9
100
AcDbLine
 10
-55.85582836254218
 20
305.0766980970229
 30
0.0
 11
-55.85582836254218
 21
-315.9232722101984
 31
0.0
  0
LINE
  5
176
330
1F
100
AcDbEntity
  8
0-1
  6
Continuous
 62
     2
370
     9
100
AcDbLine
 10
-65.85579949456289
 20
295.0766651050465
 30
0.0
 11
-55.85582836254218
 21
305.0766980970229
 31
0.0
  0
LINE
  5
177
330
1F
100
AcDbEntity
  8
0-1
  6
Continuous
 62
     2
370
     9
100
AcDbLine
 10
-60.85584485853033
 20
300.0769290408573
 30
0.0
 11
-60.85584485853033
 21
-310.9232557142103
 31
0.0
  0
LINE
  5
178
330
1F
100
AcDbEntity
  8
0-1
  6
Continuous
 62
     2
370
     9
100
AcDbLine
 10
-666.8557656777873
 20
295.0766651050465
 30
0.0
 11
-65.85579949456289
 21
295.0766651050465
 31
0.0
  0
LINE
  5
179
330
1F
100
AcDbEntity
  8
0-1
  6
Continuous
 62
     2
370
     9
100
AcDbLine
 10
-676.8557986697635
 20
305.0766980970229
 30
0.0
 11
-55.85582836254218
 21
305.0766980970229
 31
0.0
  0
LINE
  5
17A
330
1F
100
AcDbEntity
  8
0-1
  6
Continuous
 62
     2
370
     9
100
AcDbLine
 10
-671.8557821737752
 20
300.0766816010346
 30
0.0
 11
-60.85584485853033
 21
300.0766816010346
 31
0.0
  0
LINE
  5
17B
330
1F
100
AcDbEntity
  8
0-1
  6
Continuous
 62
     2
370
     9
100
AcDbLine
 10
-676.8557986697635
 20
-315.9232722101984
 30
0.0
 11
-676.8557986697635
 21
305.0766980970229
 31
0.0
  0
LINE
  5
17C
330
1F
100
AcDbEntity
  8
0-2
  6
Continuous
 62
     3
370
     9
100
AcDbLine
 10
-588.3559149664801
 20
40.57676573057435
 30
0.0
 11
-554.3557656777871
 21
40.57676573057435
 31
0.0
  0
LINE
  5
17D
330
1F
100
AcDbEntity
  8
0-2
  6
Continuous
 62
     3
370
     9
100
AcDbLine
 10
-553.8558753761085
 20
-50.9231402422931
 30
0.0
 11
-553.8558753761085
 21
40.07681356894011
 31
0.0
  0
LINE
  5
17E
330
1F
100
AcDbEntity
  8
0-2
  6
Continuous
 62
     3
370
     9
100
AcDbLine
 10
-588.8557434082031
 20
-50.9231402422931
 30
0.0
 11
-588.8557434082031
 21
40.07681356894011
 31
0.0
  0
LINE
  5
17F
330
1F
100
AcDbEntity
  8
0-2
  6
Continuous
 62
     3
370
     9
100
AcDbLine
 10
-588.3559149664801
 20
-51.42309240392734
 30
0.0
 11
-554.3557656777871
 21
-51.42309240392734
 31
0.0
  0
LINE
  5
180
330
1F
100
AcDbEntity
  8
0-2
  6
Continuous
 62
     3
370
     9
100
AcDbLine
 10
-576.3558877480996
 20
-37.92314684068828
 30
0.0
 11
-566.3558547561233
 21
-37.92314684068828
 31
0.0
  0
LINE
  5
181
330
1F
100
AcDbEntity
  8
0-2
  6
Continuous
 62
     3
370
     9
100
AcDbLine
 10
-565.3558267129433
 20
26.07679212415547
 30
0.0
 11
-565.3558267129433
 21
-36.92311879750847
 31
0.0
  0
LINE
  5
182
330
1F
100
AcDbEntity
  8
0-2
  6
Continuous
 62
     3
370
     9
100
AcDbLine
 10
-577.3557920713682
 20
26.07679212415547
 30
0.0
 11
-577.3557920713682
 21
-36.92311879750847
 31
0.0
  0
LINE
  5
183
330
1F
100
AcDbEntity
  8
0-2
  6
Continuous
 62
     3
370
     9
100
AcDbLine
 10
-576.3558877480996
 20
27.0766964474241
 30
0.0
 11
-566.3558547561233
 21
27.0766964474241
 31
0.0
  0
LINE
  5
184
330
1F
100
AcDbEntity
  8
0-2
  6
JWW_CENTER1
 62
     3
370
     9
100
AcDbLine
 10
-571.3557475322001
 20
-58.61616804793073
 30
0.0
 11
-571.3557475322001
 21
53.93925847233959
 31
0.0
  0
LINE
  5
185
330
1F
100
AcDbEntity
  8
0-2
  6
Continuous
 62
     3
370
     9
100
AcDbLine
 10
-144.3557739257812
 20
40.57676573057435
 30
0.0
 11
-178.3559232144742
 21
40.57676573057435
 31
0.0
  0
LINE
  5
186
330
1F
100
AcDbEntity
  8
0-2
  6
Continuous
 62
     3
370
     9
100
AcDbLine
 10
-178.8558135161529
 20
-50.9231402422931
 30
0.0
 11
-178.8558135161529
 21
40.07681356894011
 31
0.0
  0
LINE
  5
187
330
1F
100
AcDbEntity
  8
0-2
  6
Continuous
 62
     3
370
     9
100
AcDbLine
 10
-143.8559454840582
 20
-50.9231402422931
 30
0.0
 11
-143.8559454840582
 21
40.07681356894011
 31
0.0
  0
LINE
  5
188
330
1F
100
AcDbEntity
  8
0-2
  6
Continuous
 62
     3
370
     9
100
AcDbLine
 10
-144.3557739257812
 20
-51.42309240392734
 30
0.0
 11
-178.3559232144742
 21
-51.42309240392734
 31
0.0
  0
LINE
  5
189
330
1F
100
AcDbEntity
  8
0-2
  6
Continuous
 62
     3
370
     9
100
AcDbLine
 10
-156.3558011441617
 20
-37.92314684068828
 30
0.0
 11
-166.3558959960938
 21
-37.92314684068828
 31
0.0
  0
LINE
  5
18A
330
1F
100
AcDbEntity
  8
0-2
  6
Continuous
 62
     3
370
     9
100
AcDbLine
 10
-167.3558003193622
 20
26.07679212415547
 30
0.0
 11
-167.3558003193622
 21
-36.92311879750847
 31
0.0
  0
LINE
  5
18B
330
1F
100
AcDbEntity
  8
0-2
  6
Continuous
 62
     3
370
     9
100
AcDbLine
 10
-155.3558968208931
 20
26.07679212415547
 30
0.0
 11
-155.3558968208931
 21
-36.92311879750847
 31
0.0
  0
LINE
  5
18C
330
1F
100
AcDbEntity
  8
0-2
  6
Continuous
 62
     3
370
     9
100
AcDbLine
 10
-156.3558011441617
 20
27.0766964474241
 30
0.0
 11
-166.3558959960938
 21
27.0766964474241
 31
0.0
  0
LINE
  5
18D
330
1F
100
AcDbEntity
  8
0-2
  6
JWW_CENTER1
 62
     3
370
     9
100
AcDbLine
 10
-161.3559413600612
 20
-58.61616804793073
 30
0.0
 11
-161.3559413600612
 21
50.46260524440456
 31
0.0
  0
LINE
  5
18E
330
1F
100
AcDbEntity
  8
0-2
  6
JWW_CENTER1
 62
     3
370
     9
100
AcDbLine
 10
-600.962664629962
 20
-5.423287056587753
 30
0.0
 11
-537.0381329510662
 21
-5.423287056587753
 31
0.0
  0
LINE
  5
18F
330
1F
100
AcDbEntity
  8
0-2
  6
JWW_CENTER1
 62
     3
370
     9
100
AcDbLine
 10
-133.7303986420503
 20
-5.423287056587753
 30
0.0
 11
-186.5103644293707
 21
-5.423287056587753
 31
0.0
  0
LINE
  5
190
330
1F
100
AcDbEntity
  8
0-1
  6
JWW_DASHED3
 62
     2
370
     9
100
AcDbLine
 10
-652.8558060929582
 20
-291.9233414933487
 30
0.0
 11
-652.8558060929582
 21
281.0767673801732
 31
0.0
  0
LINE
  5
191
330
1F
100
AcDbEntity
  8
0-1
  6
JWW_DASHED3
 62
     2
370
     9
100
AcDbLine
 10
-652.8558060929582
 20
281.0767673801732
 30
0.0
 11
-79.85582093934752
 21
281.0767673801732
 31
0.0
  0
LINE
  5
192
330
1F
100
AcDbEntity
  8
0-1
  6
JWW_DASHED3
 62
     2
370
     9
100
AcDbLine
 10
-79.85582093934752
 20
281.0767673801732
 30
0.0
 11
-79.85582093934752
 21
-291.9233414933487
 31
0.0
  0
LINE
  5
193
330
1F
100
AcDbEntity
  8
0-1
  6
JWW_DASHED3
 62
     2
370
     9
100
AcDbLine
 10
-79.85582093934752
 20
-291.9233414933487
 30
0.0
 11
-652.8558060929582
 21
-291.9233414933487
 31
0.0
  0
LINE
  5
194
330
1F
100
AcDbEntity
  8
0-4
  6
Continuous
 62
     7
370
     9
100
AcDbLine
 10
-652.8558060929582
 20
371.964754671664
 30
0.0
 11
-79.85582093934752
 21
371.964754671664
 31
0.0
  0
LINE
  5
195
330
1F
100
AcDbEntity
  8
0-4
  6
Continuous
 62
     7
370
     9
100
AcDbLine
 10
-652.8558060929582
 20
317.799435177365
 30
0.0
 11
-652.8558060929582
 21
373.4647348764781
 31
0.0
  0
LINE
  5
196
330
1F
100
AcDbEntity
  8
0-4
  6
Continuous
 62
     7
370
     9
100
AcDbLine
 10
-79.85582093934752
 20
317.799435177365
 30
0.0
 11
-79.85582093934752
 21
373.4647348764781
 31
0.0
  0
LINE
  5
197
330
1F
100
AcDbEntity
  8
0-4
  6
Continuous
 62
     7
370
     9
100
AcDbLine
 10
-666.3558135161529
 20
405.198397249789
 30
0.0
 11
-66.35581351615286
 21
405.198397249789
 31
0.0
  0
LINE
  5
198
330
1F
100
AcDbEntity
  8
0-4
  6
Continuous
 62
     7
370
     9
100
AcDbLine
 10
-666.3558135161529
 20
317.799435177365
 30
0.0
 11
-666.3558135161529
 21
406.6983774546031
 31
0.0
  0
LINE
  5
199
330
1F
100
AcDbEntity
  8
0-4
  6
Continuous
 62
     7
370
     9
100
AcDbLine
 10
-66.35581351615286
 20
317.799435177365
 30
0.0
 11
-66.35581351615286
 21
406.6983774546031
 31
0.0
  0
LINE
  5
19A
330
1F
100
AcDbEntity
  8
0-4
  6
Continuous
 62
     7
370
     9
100
AcDbLine
 10
-676.8557986697635
 20
435.1440594647383
 30
0.0
 11
-55.85582836254218
 21
435.1440594647383
 31
0.0
  0
LINE
  5
19B
330
1F
100
AcDbEntity
  8
0-4
  6
Continuous
 62
     7
370
     9
100
AcDbLine
 10
-676.8557986697635
 20
317.799435177365
 30
0.0
 11
-676.8557986697635
 21
436.6440396695525
 31
0.0
  0
LINE
  5
19C
330
1F
100
AcDbEntity
  8
0-4
  6
Continuous
 62
     7
370
     9
100
AcDbLine
 10
-55.85582836254218
 20
317.799435177365
 30
0.0
 11
-55.85582836254218
 21
436.6440396695525
 31
0.0
  0
LINE
  5
19D
330
1F
100
AcDbEntity
  8
0-4
  6
Continuous
 62
     7
370
     9
100
AcDbLine
 10
-743.7438552444046
 20
-291.9232796333932
 30
0.0
 11
-743.7438552444046
 21
281.0766436602619
 31
0.0
  0
LINE
  5
19E
330
1F
100
AcDbEntity
  8
0-4
  6
Continuous
 62
     7
370
     9
100
AcDbLine
 10
-689.5785357501054
 20
-291.9232796333932
 30
0.0
 11
-745.2438354492188
 21
-291.9232796333932
 31
0.0
  0
LINE
  5
19F
330
1F
100
AcDbEntity
  8
0-4
  6
Continuous
 62
     7
370
     9
100
AcDbLine
 10
-689.5785357501054
 20
281.0766436602619
 30
0.0
 11
-745.2438354492188
 21
281.0766436602619
 31
0.0
  0
LINE
  5
1A0
330
1F
100
AcDbEntity
  8
0-4
  6
Continuous
 62
     7
370
     9
100
AcDbLine
 10
-776.9774978225296
 20
-305.4232870565878
 30
0.0
 11
-776.9774978225296
 21
294.5767129434122
 31
0.0
  0
LINE
  5
1A1
330
1F
100
AcDbEntity
  8
0-4
  6
Continuous
 62
     7
370
     9
100
AcDbLine
 10
-689.5785357501054
 20
-305.4232870565878
 30
0.0
 11
-778.4774780273438
 21
-305.4232870565878
 31
0.0
  0
LINE
  5
1A2
330
1F
100
AcDbEntity
  8
0-4
  6
Continuous
 62
     7
370
     9
100
AcDbLine
 10
-689.5785357501054
 20
294.5767129434122
 30
0.0
 11
-778.4774780273438
 21
294.5767129434122
 31
0.0
  0
LINE
  5
1A3
330
1F
100
AcDbEntity
  8
0-4
  6
Continuous
 62
     7
370
     9
100
AcDbLine
 10
-806.923160037479
 20
-315.9232722101984
 30
0.0
 11
-806.923160037479
 21
305.0766980970229
 31
0.0
  0
LINE
  5
1A4
330
1F
100
AcDbEntity
  8
0-4
  6
Continuous
 62
     7
370
     9
100
AcDbLine
 10
-689.5785357501054
 20
-315.9232722101984
 30
0.0
 11
-808.4231402422931
 21
-315.9232722101984
 31
0.0
  0
LINE
  5
1A5
330
1F
100
AcDbEntity
  8
0-4
  6
Continuous
 62
     7
370
     9
100
AcDbLine
 10
-689.5785357501054
 20
305.0766980970229
 30
0.0
 11
-808.4231402422931
 21
305.0766980970229
 31
0.0
  0
LINE
  5
1A6
330
1F
100
AcDbEntity
  8
D-4
  6
Continuous
 62
     7
370
     9
100
AcDbLine
 10
602.4663564321158
 20
322.8183808197846
 30
0.0
 11
602.4663564321158
 21
198.6999676678633
 31
0.0
  0
ARC
  5
1A7
330
1F
100
AcDbEntity
  8
D-2
  6
Continuous
 62
     3
370
     9
100
AcDbCircle
 10
553.8415857263516
 20
356.361446896115
 30
0.0
 40
1.875000144984271
100
AcDbArc
 50
90.0
 51
270.0
  0
ARC
  5
1A8
330
1F
100
AcDbEntity
  8
D-2
  6
Continuous
 62
     3
370
     9
100
AcDbCircle
 10
587.4666781038852
 20
348.9865029824747
 30
0.0
 40
2.500000032218727
100
AcDbArc
 50
270.0
 51
0.0
  0
ARC
  5
1A9
330
1F
100
AcDbEntity
  8
D-2
  6
Continuous
 62
     3
370
     9
100
AcDbCircle
 10
576.2163316881336
 20
347.736436998522
 30
0.0
 40
1.250000016109364
100
AcDbArc
 50
180.0
 51
270.0
  0
ARC
  5
1AA
330
1F
100
AcDbEntity
  8
D-2
  6
Continuous
 62
     3
370
     9
100
AcDbCircle
 10
386.2164471600508
 20
361.5074528874578
 30
0.0
 40
10.52080682806067
100
AcDbArc
 50
205.4487762451172
 51
263.1763153076172
  0
ARC
  5
1AB
330
1F
100
AcDbEntity
  8
D-2
  6
Continuous
 62
     3
370
     9
100
AcDbCircle
 10
386.2164471600508
 20
361.5074528874578
 30
0.0
 40
10.52080682806067
100
AcDbArc
 50
276.8236846923828
 51
334.5512237548828
  0
ARC
  5
1AC
330
1F
100
AcDbEntity
  8
D-2
  6
Continuous
 62
     3
370
     9
100
AcDbCircle
 10
354.4387404983109
 20
-26.49946882918073
 30
0.0
 40
5.000001030999261
100
AcDbArc
 50
90.0
 51
180.0
  0
ARC
  5
1AD
330
1F
100
AcDbEntity
  8
D-2
  6
Continuous
 62
     3
370
     9
100
AcDbCircle
 10
574.4388477222342
 20
-26.49946882918073
 30
0.0
 40
5.000001030999261
100
AcDbArc
 50
0.0
 51
90.0
  0
ARC
  5
1AE
330
1F
100
AcDbEntity
  8
D-2
  6
Continuous
 62
     3
370
     9
100
AcDbCircle
 10
574.4388477222342
 20
-103.9995389371305
 30
0.0
 40
5.000001030999261
100
AcDbArc
 50
270.0
 51
0.0
  0
ARC
  5
1AF
330
1F
100
AcDbEntity
  8
D-2
  6
Continuous
 62
     3
370
     9
100
AcDbCircle
 10
354.4387404983109
 20
-103.9995389371305
 30
0.0
 40
5.000001030999261
100
AcDbArc
 50
180.0
 51
270.0
  0
ARC
  5
1B0
330
1F
100
AcDbEntity
  8
D-2
  6
Continuous
 62
     3
370
     9
100
AcDbCircle
 10
388.438704207137
 20
-55.49960162188555
 30
0.0
 40
5.500000554162103
100
AcDbArc
 50
90.0
 51
180.0
  0
ARC
  5
1B1
330
1F
100
AcDbEntity
  8
D-2
  6
Continuous
 62
     3
370
     9
100
AcDbCircle
 10
388.438704207137
 20
-74.9996535842483
 30
0.0
 40
5.500000554162103
100
AcDbArc
 50
180.0
 51
270.0
  0
ARC
  5
1B2
330
1F
100
AcDbEntity
  8
D-2
  6
Continuous
 62
     3
370
     9
100
AcDbCircle
 10
540.4387602934967
 20
-55.49960162188555
 30
0.0
 40
5.500000554162103
100
AcDbArc
 50
0.0
 51
90.0
  0
ARC
  5
1B3
330
1F
100
AcDbEntity
  8
D-2
  6
Continuous
 62
     3
370
     9
100
AcDbCircle
 10
540.4387602934967
 20
-74.9996535842483
 30
0.0
 40
5.500000554162103
100
AcDbArc
 50
270.0
 51
0.0
  0
ARC
  5
1B4
330
1F
100
AcDbEntity
  8
D-2
  6
Continuous
 62
     3
370
     9
100
AcDbCircle
 10
464.4387322503169
 20
-65.24953481313347
 30
0.0
 40
32.50000283524797
100
AcDbArc
 50
207.9842987060547
 51
332.0157012939453
  0
ARC
  5
1B5
330
1F
100
AcDbEntity
  8
D-2
  6
Continuous
 62
     3
370
     9
100
AcDbCircle
 10
464.4387322503169
 20
-65.24953481313347
 30
0.0
 40
32.50000283524797
100
AcDbArc
 50
27.98429870605469
 51
152.0157012939453
  0
ARC
  5
1B6
330
1F
100
AcDbEntity
  8
D-2
  6
Continuous
 62
     3
370
     9
100
AcDbCircle
 10
382.9386118296031
 20
-292.7489244615709
 30
0.0
 40
6.250000322187269
100
AcDbArc
 50
180.0
 51
270.0
  0
ARC
  5
1B7
330
1F
100
AcDbEntity
  8
D-2
  6
Continuous
 62
     3
370
     9
100
AcDbCircle
 10
545.9388526710304
 20
-292.7489244615709
 30
0.0
 40
6.250000322187269
100
AcDbArc
 50
270.0
 51
0.0
  0
ARC
  5
1B8
330
1F
100
AcDbEntity
  8
D-2
  6
Continuous
 62
     3
370
     9
100
AcDbCircle
 10
351.6889417493667
 20
-276.2488947687922
 30
0.0
 40
2.249999787356403
100
AcDbArc
 50
90.0
 51
180.0
  0
ARC
  5
1B9
330
1F
100
AcDbEntity
  8
D-2
  6
Continuous
 62
     3
370
     9
100
AcDbCircle
 10
577.1891413508234
 20
-276.2488947687922
 30
0.0
 40
2.249999787356403
100
AcDbArc
 50
0.0
 51
90.0
  0
ARC
  5
1BA
330
1F
100
AcDbEntity
  8
D-2
  6
Continuous
 62
     3
370
     9
100
AcDbCircle
 10
556.7367553710938
 20
-282.7488914695946
 30
0.0
 40
1.249999895289138
100
AcDbArc
 50
90.0
 51
163.8992004394532
  0
ARC
  5
1BB
330
1F
100
AcDbEntity
  8
D-2
  6
Continuous
 62
     3
370
     9
100
AcDbCircle
 10
372.1403379698057
 20
-282.7488914695946
 30
0.0
 40
1.249999895289138
100
AcDbArc
 50
16.10079956054688
 51
90.0
  0
ARC
  5
1BC
330
1F
100
AcDbEntity
  8
D-2
  6
Continuous
 62
     3
370
     9
100
AcDbCircle
 10
426.9387322503169
 20
-396.4990811734586
 30
0.0
 40
2.500000032218727
100
AcDbArc
 50
180.0
 51
270.0
  0
ARC
  5
1BD
330
1F
100
AcDbEntity
  8
D-2
  6
Continuous
 62
     3
370
     9
100
AcDbCircle
 10
501.9387322503169
 20
-396.4990811734586
 30
0.0
 40
2.500000032218727
100
AcDbArc
 50
270.0
 51
0.0
  0
ARC
  5
1BE
330
1F
100
AcDbEntity
  8
D-2
  6
Continuous
 62
     3
370
     9
100
AcDbCircle
 10
431.938748746305
 20
-317.7491306614231
 30
0.0
 40
7.500000579937085
100
AcDbArc
 50
292.0240478515625
 51
0.0000000000000382
  0
ARC
  5
1BF
330
1F
100
AcDbEntity
  8
D-2
  6
Continuous
 62
     3
370
     9
100
AcDbCircle
 10
439.4387734902872
 20
-336.2895491316511
 30
0.0
 40
12.50000064437454
100
AcDbArc
 50
112.0243377685547
 51
180.0
  0
ARC
  5
1C0
330
1F
100
AcDbEntity
  8
D-2
  6
Continuous
 62
     3
370
     9
100
AcDbCircle
 10
489.4386910103464
 20
-336.2895491316511
 30
0.0
 40
12.50000064437454
100
AcDbArc
 50
0.0
 51
67.9756622314453
  0
ARC
  5
1C1
330
1F
100
AcDbEntity
  8
D-2
  6
Continuous
 62
     3
370
     9
100
AcDbCircle
 10
496.9387157543287
 20
-317.7491306614231
 30
0.0
 40
7.500000579937085
100
AcDbArc
 50
180.0
 51
247.9759521484375
  0
ARC
  5
1C2
330
1F
100
AcDbEntity
  8
D-2
  6
JWW_CENTER2
 62
     3
370
     9
100
AcDbCircle
 10
431.938748746305
 20
-223.9990069415118
 30
0.0
 40
7.500000579937085
100
AcDbArc
 50
0.0
 51
90.0
  0
ARC
  5
1C3
330
1F
100
AcDbEntity
  8
D-2
  6
JWW_CENTER2
 62
     3
370
     9
100
AcDbCircle
 10
496.9387157543287
 20
-223.9990069415118
 30
0.0
 40
7.500000579937085
100
AcDbArc
 50
90.0
 51
180.0
  0
ARC
  5
1C4
330
1F
100
AcDbEntity
  8
D-2
  6
JWW_CENTER2
 62
     3
370
     9
100
AcDbCircle
 10
496.9387157543287
 20
-241.4989409575591
 30
0.0
 40
7.500000579937085
100
AcDbArc
 50
180.0
 51
247.9759521484375
  0
ARC
  5
1C5
330
1F
100
AcDbEntity
  8
D-2
  6
JWW_CENTER2
 62
     3
370
     9
100
AcDbCircle
 10
489.438938450169
 20
-260.0394831476984
 30
0.0
 40
12.50000064437454
100
AcDbArc
 50
0.0
 51
67.97628784179688
  0
ARC
  5
1C6
330
1F
100
AcDbEntity
  8
D-2
  6
JWW_CENTER2
 62
     3
370
     9
100
AcDbCircle
 10
431.938748746305
 20
-241.4989409575591
 30
0.0
 40
7.500000579937085
100
AcDbArc
 50
292.0240478515625
 51
0.0000000000000382
  0
ARC
  5
1C7
330
1F
100
AcDbEntity
  8
D-2
  6
JWW_CENTER2
 62
     3
370
     9
100
AcDbCircle
 10
439.4386497703761
 20
-260.0394831476984
 30
0.0
 40
12.50000064437454
100
AcDbArc
 50
112.0237121582031
 51
180.0
  0
ARC
  5
1C8
330
1F
100
AcDbEntity
  8
0-2
  6
Continuous
 62
     3
370
     9
100
AcDbCircle
 10
-554.3557656777871
 20
40.07681356894011
 30
0.0
 40
0.5000000366488019
100
AcDbArc
 50
0.0
 51
90.0
  0
ARC
  5
1C9
330
1F
100
AcDbEntity
  8
0-2
  6
Continuous
 62
     3
370
     9
100
AcDbCircle
 10
-588.3559149664801
 20
40.07681356894011
 30
0.0
 40
0.5000000366488019
100
AcDbArc
 50
90.0
 51
180.0
  0
ARC
  5
1CA
330
1F
100
AcDbEntity
  8
0-2
  6
Continuous
 62
     3
370
     9
100
AcDbCircle
 10
-554.3557656777871
 20
-50.9231402422931
 30
0.0
 40
0.5000000366488019
100
AcDbArc
 50
270.0
 51
0.0
  0
ARC
  5
1CB
330
1F
100
AcDbEntity
  8
0-2
  6
Continuous
 62
     3
370
     9
100
AcDbCircle
 10
-588.3559149664801
 20
-50.9231402422931
 30
0.0
 40
0.5000000366488019
100
AcDbArc
 50
180.0
 51
270.0
  0
ARC
  5
1CC
330
1F
100
AcDbEntity
  8
0-2
  6
Continuous
 62
     3
370
     9
100
AcDbCircle
 10
-566.3558547561233
 20
-36.92311879750847
 30
0.0
 40
1.000000073297604
100
AcDbArc
 50
270.0
 51
0.0
  0
ARC
  5
1CD
330
1F
100
AcDbEntity
  8
0-2
  6
Continuous
 62
     3
370
     9
100
AcDbCircle
 10
-576.3558877480996
 20
-36.92311879750847
 30
0.0
 40
1.000000073297604
100
AcDbArc
 50
180.0
 51
270.0
  0
ARC
  5
1CE
330
1F
100
AcDbEntity
  8
0-2
  6
Continuous
 62
     3
370
     9
100
AcDbCircle
 10
-566.3558547561233
 20
26.07679212415547
 30
0.0
 40
1.000000073297604
100
AcDbArc
 50
0.0
 51
90.0
  0
ARC
  5
1CF
330
1F
100
AcDbEntity
  8
0-2
  6
Continuous
 62
     3
370
     9
100
AcDbCircle
 10
-576.3558877480996
 20
26.07679212415547
 30
0.0
 40
1.000000073297604
100
AcDbArc
 50
90.0
 51
180.0
  0
ARC
  5
1D0
330
1F
100
AcDbEntity
  8
0-2
  6
Continuous
 62
     3
370
     9
100
AcDbCircle
 10
-571.3557475322001
 20
-5.423287056587753
 30
0.0
 40
12.50000161093635
100
AcDbArc
 50
298.6856079101564
 51
61.31439208984379
  0
ARC
  5
1D1
330
1F
100
AcDbEntity
  8
0-2
  6
Continuous
 62
     3
370
     9
100
AcDbCircle
 10
-571.3557475322001
 20
-5.423287056587753
 30
0.0
 40
12.50000161093635
100
AcDbArc
 50
118.6849822998047
 51
241.3150177001953
  0
ARC
  5
1D2
330
1F
100
AcDbEntity
  8
0-2
  6
Continuous
 62
     3
370
     9
100
AcDbCircle
 10
-178.3559232144742
 20
40.07681356894011
 30
0.0
 40
0.5000000366488019
100
AcDbArc
 50
90.0
 51
180.0
  0
ARC
  5
1D3
330
1F
100
AcDbEntity
  8
0-2
  6
Continuous
 62
     3
370
     9
100
AcDbCircle
 10
-144.3557739257812
 20
40.07681356894011
 30
0.0
 40
0.5000000366488019
100
AcDbArc
 50
0.0
 51
90.0
  0
ARC
  5
1D4
330
1F
100
AcDbEntity
  8
0-2
  6
Continuous
 62
     3
370
     9
100
AcDbCircle
 10
-178.3559232144742
 20
-50.9231402422931
 30
0.0
 40
0.5000000366488019
100
AcDbArc
 50
180.0
 51
270.0
  0
ARC
  5
1D5
330
1F
100
AcDbEntity
  8
0-2
  6
Continuous
 62
     3
370
     9
100
AcDbCircle
 10
-144.3557739257812
 20
-50.9231402422931
 30
0.0
 40
0.5000000366488019
100
AcDbArc
 50
270.0
 51
0.0
  0
ARC
  5
1D6
330
1F
100
AcDbEntity
  8
0-2
  6
Continuous
 62
     3
370
     9
100
AcDbCircle
 10
-166.3558959960938
 20
-36.92311879750847
 30
0.0
 40
1.000000073297604
100
AcDbArc
 50
180.0
 51
270.0
  0
ARC
  5
1D7
330
1F
100
AcDbEntity
  8
0-2
  6
Continuous
 62
     3
370
     9
100
AcDbCircle
 10
-156.3558011441617
 20
-36.92311879750847
 30
0.0
 40
1.000000073297604
100
AcDbArc
 50
270.0
 51
0.0
  0
ARC
  5
1D8
330
1F
100
AcDbEntity
  8
0-2
  6
Continuous
 62
     3
370
     9
100
AcDbCircle
 10
-166.3558959960938
 20
26.07679212415547
 30
0.0
 40
1.000000073297604
100
AcDbArc
 50
90.0
 51
180.0
  0
ARC
  5
1D9
330
1F
100
AcDbEntity
  8
0-2
  6
Continuous
 62
     3
370
     9
100
AcDbCircle
 10
-156.3558011441617
 20
26.07679212415547
 30
0.0
 40
1.000000073297604
100
AcDbArc
 50
0.0
 51
90.0
  0
ARC
  5
1DA
330
1F
100
AcDbEntity
  8
0-2
  6
Continuous
 62
     3
370
     9
100
AcDbCircle
 10
-161.3559413600612
 20
-5.423287056587753
 30
0.0
 40
12.50000161093635
100
AcDbArc
 50
118.6856079101563
 51
241.3143920898438
  0
ARC
  5
1DB
330
1F
100
AcDbEntity
  8
0-2
  6
Continuous
 62
     3
370
     9
100
AcDbCircle
 10
-161.3559413600612
 20
-5.423287056587753
 30
0.0
 40
12.50000161093635
100
AcDbArc
 50
298.6849822998047
 51
61.31501770019531
  0
TEXT
  5
1DC
330
1F
100
AcDbEntity
  8
D-4
  6
Continuous
 62
     2
370
     9
100
AcDbText
 10
453.8135466704499
 20
-145.4337181957348
 30
0.0
 40
15.24
  1
92
 41
1.0625
  7
ＭＳ ゴシック
100
AcDbText
  0
TEXT
  5
1DD
330
1F
100
AcDbEntity
  8
D-4
  6
Continuous
 62
     2
370
     9
100
AcDbText
 10
664.1434020006335
 20
-75.8745348131334
 30
0.0
 40
15.24
  1
35
 50
90.0
 41
1.0625
  7
ＭＳ ゴシック
100
AcDbText
  0
TEXT
  5
1DE
330
1F
100
AcDbEntity
  8
D-4
  6
Continuous
 62
     2
370
     9
100
AcDbText
 10
345.0069860509925
 20
-474.7688226483319
 30
0.0
 40
15.24
  1
把手詳細図　Ｓ＝１：２
 41
1.113636363636364
  7
ＭＳ ゴシック
100
AcDbText
  0
TEXT
  5
1DF
330
1F
100
AcDbEntity
  8
D-4
  6
Continuous
 62
     2
370
     9
100
AcDbText
 10
664.1434020006335
 20
-347.1240069415119
 30
0.0
 40
15.24
  1
50
 50
90.0
 41
1.0625
  7
ＭＳ ゴシック
100
AcDbText
  0
TEXT
  5
1E0
330
1F
100
AcDbEntity
  8
D-4
  6
Continuous
 62
     2
370
     9
100
AcDbText
 10
664.1434020006335
 20
-247.1239863215266
 30
0.0
 40
15.24
  1
30
 50
90.0
 41
1.0625
  7
ＭＳ ゴシック
100
AcDbText
  0
TEXT
  5
1E1
330
1F
100
AcDbEntity
  8
D-4
  6
Continuous
 62
     2
370
     9
100
AcDbText
 10
629.3392588682432
 20
-352.0040244025153
 30
0.0
 40
15.24
  1
12.5
 50
90.0
 41
1.09375
  7
ＭＳ ゴシック
100
AcDbText
  0
TEXT
  5
1E2
330
1F
100
AcDbEntity
  8
D-4
  6
Continuous
 62
     2
370
     9
100
AcDbText
 10
320.0165537241344
 20
149.4473086135452
 30
0.0
 40
15.24
  1
断面詳細図　Ｓ＝１：２
 41
1.113636363636364
  7
ＭＳ ゴシック
100
AcDbText
  0
TEXT
  5
1E3
330
1F
100
AcDbEntity
  8
D-4
  6
Continuous
 62
     7
370
     9
100
AcDbText
 10
441.576389622044
 20
111.1755617213895
 30
0.0
 40
11.43
  1
処理：陽極酸化塗装複合皮膜（アルミ材のみ）
 41
1.158730158730159
  7
ＭＳ ゴシック
100
AcDbText
  0
TEXT
  5
1E4
330
1F
100
AcDbEntity
  8
D-4
  6
Continuous
 62
     2
370
     9
100
AcDbText
 10
217.9360358820736
 20
319.2956955368455
 30
0.0
 40
15.24
  1
1.6
 50
90.0
 41
1.083333333333333
  7
ＭＳ ゴシック
100
AcDbText
  0
TEXT
  5
1E5
330
1F
100
AcDbEntity
  8
D-4
  6
Continuous
 62
     2
370
     9
100
AcDbText
 10
217.9360358820736
 20
363.8248299263619
 30
0.0
 40
15.24
  1
12.5
 50
90.0
 41
1.09375
  7
ＭＳ ゴシック
100
AcDbText
  0
TEXT
  5
1E6
330
1F
100
AcDbEntity
  8
D-4
  6
Continuous
 62
     2
370
     9
100
AcDbText
 10
756.1546423669765
 20
343.9864658665014
 30
0.0
 40
15.24
  1
22.5
 50
90.0
 41
1.09375
  7
ＭＳ ゴシック
100
AcDbText
  0
TEXT
  5
1E7
330
1F
100
AcDbEntity
  8
D-4
  6
Continuous
 62
     2
370
     9
100
AcDbText
 10
756.1546423669765
 20
402.8973223711994
 30
0.0
 40
15.24
  1
1.5
 50
90.0
 41
1.083333333333333
  7
ＭＳ ゴシック
100
AcDbText
  0
TEXT
  5
1E8
330
1F
100
AcDbEntity
  8
D-4
  6
Continuous
 62
     2
370
     9
100
AcDbText
 10
566.8417069718645
 20
457.8474575723185
 30
0.0
 40
15.24
  1
10
 41
1.0625
  7
ＭＳ ゴシック
100
AcDbText
  0
TEXT
  5
1E9
330
1F
100
AcDbEntity
  8
D-4
  6
Continuous
 62
     2
370
     9
100
AcDbText
 10
549.1895850929054
 20
498.3616457717484
 30
0.0
 40
15.24
  1
0.5
 41
1.083333333333333
  7
ＭＳ ゴシック
100
AcDbText
  0
TEXT
  5
1EA
330
1F
100
AcDbEntity
  8
D-4
  6
Continuous
 62
     2
370
     9
100
AcDbText
 10
593.0914842760241
 20
497.3230171162374
 30
0.0
 40
15.24
  1
10
 41
1.0625
  7
ＭＳ ゴシック
100
AcDbText
  0
TEXT
  5
1EB
330
1F
100
AcDbEntity
  8
D-4
  6
Continuous
 62
     2
370
     9
100
AcDbText
 10
557.7162252890098
 20
205.5199561206715
 30
0.0
 40
15.24
  1
18.3
 41
1.09375
  7
ＭＳ ゴシック
100
AcDbText
  0
TEXT
  5
1EC
330
1F
100
AcDbEntity
  8
0-4
  6
Continuous
 62
     2
370
     9
100
AcDbText
 10
-504.8032172950539
 20
-410.327822199641
 30
0.0
 40
15.24
  1
平面詳細図　Ｓ＝１：５
 41
1.113636363636364
  7
ＭＳ ゴシック
100
AcDbText
  0
TEXT
  5
1ED
330
1F
100
AcDbEntity
  8
0-4
  6
Continuous
 62
     2
370
     9
100
AcDbText
 10
-382.6058135161528
 20
377.2847629196579
 30
0.0
 40
15.24
  1
573
 41
1.083333333333333
  7
ＭＳ ゴシック
100
AcDbText
  0
TEXT
  5
1EE
330
1F
100
AcDbEntity
  8
0-4
  6
Continuous
 62
     2
370
     9
100
AcDbText
 10
-382.6058135161528
 20
410.5184054977829
 30
0.0
 40
15.24
  1
600
 41
1.083333333333333
  7
ＭＳ ゴシック
100
AcDbText
  0
TEXT
  5
1EF
330
1F
100
AcDbEntity
  8
0-4
  6
Continuous
 62
     2
370
     9
100
AcDbText
 10
-382.6058135161528
 20
440.4640677127323
 30
0.0
 40
15.24
  1
621
 41
1.083333333333333
  7
ＭＳ ゴシック
100
AcDbText
  0
TEXT
  5
1F0
330
1F
100
AcDbEntity
  8
0-4
  6
Continuous
 62
     2
370
     9
100
AcDbText
 10
-749.0638634923988
 20
-21.67328705658782
 30
0.0
 40
15.24
  1
573
 50
90.0
 41
1.083333333333333
  7
ＭＳ ゴシック
100
AcDbText
  0
TEXT
  5
1F1
330
1F
100
AcDbEntity
  8
0-4
  6
Continuous
 62
     2
370
     9
100
AcDbText
 10
-782.2975060705238
 20
-21.67328705658782
 30
0.0
 40
15.24
  1
600
 50
90.0
 41
1.083333333333333
  7
ＭＳ ゴシック
100
AcDbText
  0
TEXT
  5
1F2
330
1F
100
AcDbEntity
  8
0-4
  6
Continuous
 62
     2
370
     9
100
AcDbText
 10
-812.243168285473
 20
-21.67328705658782
 30
0.0
 40
15.24
  1
621
 50
90.0
 41
1.083333333333333
  7
ＭＳ ゴシック
100
AcDbText
  0
TEXT
  5
1F3
330
1F
100
AcDbEntity
  8
D-4
  6
Continuous
 62
     2
370
     9
100
AcDbText
 10
266.3231844515414
 20
555.8761869853253
 30
0.0
 40
15.24
  1
621
 41
1.083333333333333
  7
ＭＳ ゴシック
100
AcDbText
  0
TEXT
  5
1F4
330
1F
100
AcDbEntity
  8
D-4
  6
Continuous
 62
     2
370
     9
100
AcDbText
 10
265.322537808805
 20
497.3230171162374
 30
0.0
 40
15.24
  1
600
 41
1.083333333333333
  7
ＭＳ ゴシック
100
AcDbText
  0
TEXT
  5
1F5
330
1F
100
AcDbEntity
  8
D-4
  6
Continuous
 62
     2
370
     9
100
AcDbText
 10
266.9672703098607
 20
205.5199561206715
 30
0.0
 40
15.24
  1
573
 41
1.083333333333333
  7
ＭＳ ゴシック
100
AcDbText
  0
LWPOLYLINE
  5
1F6
330
1F
100
AcDbEntity
  8
D-4
  6
Continuous
 62
     7
370
     9
100
AcDbPolyline
 90
        4
 70
     1
 43
0.5
 10
349.6886002824115
 20
-153.2536728317672
 42
0.4142135623731
 10
349.4386002824115
 20
-153.0036728317672
 42
0.4142135623731
 10
349.1886002824115
 20
-153.2536728317672
 42
0.4142135623731
 10
349.4386002824115
 20
-153.5036728317673
 42
0.4142135623731
  0
LWPOLYLINE
  5
1F7
330
1F
100
AcDbEntity
  8
D-4
  6
Continuous
 62
     7
370
     9
100
AcDbPolyline
 90
        4
 70
     1
 43
0.5
 10
579.688740498311
 20
-153.2536728317672
 42
0.4142135623731
 10
579.438740498311
 20
-153.0036728317672
 42
0.4142135623731
 10
579.188740498311
 20
-153.2536728317672
 42
0.4142135623731
 10
579.438740498311
 20
-153.5036728317673
 42
0.4142135623731
  0
LWPOLYLINE
  5
1F8
330
1F
100
AcDbEntity
  8
D-4
  6
Continuous
 62
     7
370
     9
100
AcDbPolyline
 90
        4
 70
     1
 43
0.5
 10
672.213913376267
 20
-108.9996172930743
 42
0.4142135623731
 10
671.9639133762669
 20
-108.7496172930743
 42
0.4142135623731
 10
671.7139133762669
 20
-108.9996172930743
 42
0.4142135623731
 10
671.9639133762669
 20
-109.2496172930743
 42
0.4142135623731
  0
LWPOLYLINE
  5
1F9
330
1F
100
AcDbEntity
  8
D-4
  6
Continuous
 62
     7
370
     9
100
AcDbPolyline
 90
        4
 70
     1
 43
0.5
 10
672.213913376267
 20
-21.49939047323684
 42
0.4142135623731
 10
671.9639133762669
 20
-21.24939047323684
 42
0.4142135623731
 10
671.7139133762669
 20
-21.49939047323684
 42
0.4142135623731
 10
671.9639133762669
 20
-21.74939047323684
 42
0.4142135623731
  0
LWPOLYLINE
  5
1FA
330
1F
100
AcDbEntity
  8
D-4
  6
Continuous
 62
     7
370
     9
100
AcDbPolyline
 90
        4
 70
     1
 43
0.5
 10
672.213913376267
 20
-398.9989657015414
 42
0.4142135623731
 10
671.9639133762669
 20
-398.7489657015414
 42
0.4142135623731
 10
671.7139133762669
 20
-398.9989657015414
 42
0.4142135623731
 10
671.9639133762669
 20
-399.2489657015414
 42
0.4142135623731
  0
LWPOLYLINE
  5
1FB
330
1F
100
AcDbEntity
  8
D-4
  6
Continuous
 62
     7
370
     9
100
AcDbPolyline
 90
        4
 70
     1
 43
0.5
 10
672.213913376267
 20
-273.9989244615709
 42
0.4142135623731
 10
671.9639133762669
 20
-273.7489244615709
 42
0.4142135623731
 10
671.7139133762669
 20
-273.9989244615709
 42
0.4142135623731
 10
671.9639133762669
 20
-274.2489244615709
 42
0.4142135623731
  0
LWPOLYLINE
  5
1FC
330
1F
100
AcDbEntity
  8
D-4
  6
Continuous
 62
     7
370
     9
100
AcDbPolyline
 90
        4
 70
     1
 43
0.5
 10
672.213913376267
 20
-198.9989244615709
 42
0.4142135623731
 10
671.9639133762669
 20
-198.7489244615709
 42
0.4142135623731
 10
671.7139133762669
 20
-198.9989244615709
 42
0.4142135623731
 10
671.9639133762669
 20
-199.2489244615709
 42
0.4142135623731
  0
LWPOLYLINE
  5
1FD
330
1F
100
AcDbEntity
  8
D-4
  6
Continuous
 62
     7
370
     9
100
AcDbPolyline
 90
        4
 70
     1
 43
0.5
 10
634.909143396326
 20
-305.24884198163
 42
0.4142135623731
 10
634.659143396326
 20
-304.99884198163
 42
0.4142135623731
 10
634.409143396326
 20
-305.24884198163
 42
0.4142135623731
 10
634.659143396326
 20
-305.49884198163
 42
0.4142135623731
  0
LWPOLYLINE
  5
1FE
330
1F
100
AcDbEntity
  8
D-4
  6
Continuous
 62
     7
370
     9
100
AcDbPolyline
 90
        4
 70
     1
 43
0.5
 10
634.909143396326
 20
-273.9989244615709
 42
0.4142135623731
 10
634.659143396326
 20
-273.7489244615709
 42
0.4142135623731
 10
634.409143396326
 20
-273.9989244615709
 42
0.4142135623731
 10
634.659143396326
 20
-274.2489244615709
 42
0.4142135623731
  0
LWPOLYLINE
  5
1FF
330
1F
100
AcDbEntity
  8
D-4
  6
Continuous
 62
     7
370
     9
100
AcDbPolyline
 90
        4
 70
     1
 43
0.5
 10
223.5060441300676
 20
358.236545872044
 42
0.4142135623731
 10
223.2560441300676
 20
358.486545872044
 42
0.4142135623731
 10
223.0060441300676
 20
358.236545872044
 42
0.4142135623731
 10
223.2560441300676
 20
357.986545872044
 42
0.4142135623731
  0
LWPOLYLINE
  5
200
330
1F
100
AcDbEntity
  8
D-4
  6
Continuous
 62
     7
370
     9
100
AcDbPolyline
 90
        4
 70
     1
 43
0.5
 10
223.5060441300676
 20
362.2364106049409
 42
0.4142135623731
 10
223.2560441300676
 20
362.4864106049409
 42
0.4142135623731
 10
223.0060441300676
 20
362.2364106049409
 42
0.4142135623731
 10
223.2560441300676
 20
361.9864106049409
 42
0.4142135623731
  0
LWPOLYLINE
  5
201
330
1F
100
AcDbEntity
  8
D-4
  6
Continuous
 62
     7
370
     9
100
AcDbPolyline
 90
        4
 70
     1
 43
0.5
 10
223.5060441300676
 20
393.4865755648227
 42
0.4142135623731
 10
223.2560441300676
 20
393.7365755648227
 42
0.4142135623731
 10
223.0060441300676
 20
393.4865755648227
 42
0.4142135623731
 10
223.2560441300676
 20
393.2365755648227
 42
0.4142135623731
  0
LWPOLYLINE
  5
202
330
1F
100
AcDbEntity
  8
D-4
  6
Continuous
 62
     7
370
     9
100
AcDbPolyline
 90
        4
 70
     1
 43
0.5
 10
761.7245268950592
 20
337.7364040065457
 42
0.4142135623731
 10
761.4745268950592
 20
337.9864040065457
 42
0.4142135623731
 10
761.2245268950591
 20
337.7364040065457
 42
0.4142135623731
 10
761.4745268950592
 20
337.4864040065457
 42
0.4142135623731
  0
LWPOLYLINE
  5
203
330
1F
100
AcDbEntity
  8
D-4
  6
Continuous
 62
     7
370
     9
100
AcDbPolyline
 90
        4
 70
     1
 43
0.5
 10
761.7245268950592
 20
393.9866514463683
 42
0.4142135623731
 10
761.4745268950592
 20
394.2366514463683
 42
0.4142135623731
 10
761.2245268950591
 20
393.9866514463683
 42
0.4142135623731
 10
761.4745268950592
 20
393.7366514463684
 42
0.4142135623731
  0
LWPOLYLINE
  5
204
330
1F
100
AcDbEntity
  8
D-4
  6
Continuous
 62
     7
370
     9
100
AcDbPolyline
 90
        4
 70
     1
 43
0.5
 10
761.7245268950592
 20
397.7366019584038
 42
0.4142135623731
 10
761.4745268950592
 20
397.9866019584038
 42
0.4142135623731
 10
761.2245268950591
 20
397.7366019584038
 42
0.4142135623731
 10
761.4745268950592
 20
397.4866019584038
 42
0.4142135623731
  0
LWPOLYLINE
  5
205
330
1F
100
AcDbEntity
  8
D-4
  6
Continuous
 62
     7
370
     9
100
AcDbPolyline
 90
        4
 70
     1
 43
0.5
 10
565.2164801520271
 20
452.5274493243244
 42
0.4142135623731
 10
564.9664801520271
 20
452.7774493243243
 42
0.4142135623731
 10
564.7164801520271
 20
452.5274493243244
 42
0.4142135623731
 10
564.9664801520271
 20
452.2774493243244
 42
0.4142135623731
  0
LWPOLYLINE
  5
206
330
1F
100
AcDbEntity
  8
D-4
  6
Continuous
 62
     7
370
     9
100
AcDbPolyline
 90
        4
 70
     1
 43
0.5
 10
590.2165626319679
 20
452.5274493243244
 42
0.4142135623731
 10
589.9665626319679
 20
452.7774493243243
 42
0.4142135623731
 10
589.716562631968
 20
452.5274493243244
 42
0.4142135623731
 10
589.9665626319679
 20
452.2774493243244
 42
0.4142135623731
  0
LWPOLYLINE
  5
207
330
1F
100
AcDbEntity
  8
D-4
  6
Continuous
 62
     7
370
     9
100
AcDbPolyline
 90
        4
 70
     1
 43
0.5
 10
590.2165626319679
 20
492.0030088682433
 42
0.4142135623731
 10
589.9665626319679
 20
492.2530088682433
 42
0.4142135623731
 10
589.716562631968
 20
492.0030088682433
 42
0.4142135623731
 10
589.9665626319679
 20
491.7530088682434
 42
0.4142135623731
  0
LWPOLYLINE
  5
208
330
1F
100
AcDbEntity
  8
D-4
  6
Continuous
 62
     7
370
     9
100
AcDbPolyline
 90
        4
 70
     1
 43
0.5
 10
591.4663811760981
 20
492.0030088682433
 42
0.4142135623731
 10
591.2163811760981
 20
492.2530088682433
 42
0.4142135623731
 10
590.9663811760983
 20
492.0030088682433
 42
0.4142135623731
 10
591.2163811760981
 20
491.7530088682434
 42
0.4142135623731
  0
LWPOLYLINE
  5
209
330
1F
100
AcDbEntity
  8
D-4
  6
Continuous
 62
     7
370
     9
100
AcDbPolyline
 90
        4
 70
     1
 43
0.5
 10
616.4664636560391
 20
492.0030088682433
 42
0.4142135623731
 10
616.2164636560391
 20
492.2530088682433
 42
0.4142135623731
 10
615.9664636560391
 20
492.0030088682433
 42
0.4142135623731
 10
616.2164636560391
 20
491.7530088682434
 42
0.4142135623731
  0
LWPOLYLINE
  5
20A
330
1F
100
AcDbEntity
  8
D-4
  6
Continuous
 62
     7
370
     9
100
AcDbPolyline
 90
        4
 70
     1
 43
0.5
 10
616.4664636560391
 20
550.5561787373313
 42
0.4142135623731
 10
616.2164636560391
 20
550.8061787373313
 42
0.4142135623731
 10
615.9664636560391
 20
550.5561787373313
 42
0.4142135623731
 10
616.2164636560391
 20
550.3061787373313
 42
0.4142135623731
  0
LWPOLYLINE
  5
20B
330
1F
100
AcDbEntity
  8
D-4
  6
Continuous
 62
     7
370
     9
100
AcDbPolyline
 90
        4
 70
     1
 43
0.5
 10
556.9664653056377
 20
200.1998860127217
 42
0.4142135623731
 10
556.7164653056377
 20
200.4498860127217
 42
0.4142135623731
 10
556.4664653056378
 20
200.1998860127217
 42
0.4142135623731
 10
556.7164653056377
 20
199.9498860127218
 42
0.4142135623731
  0
LWPOLYLINE
  5
20C
330
1F
100
AcDbEntity
  8
D-4
  6
Continuous
 62
     7
370
     9
100
AcDbPolyline
 90
        4
 70
     1
 43
0.5
 10
602.7163564321158
 20
200.1998860127217
 42
0.4142135623731
 10
602.4663564321158
 20
200.4498860127217
 42
0.4142135623731
 10
602.216356432116
 20
200.1998860127217
 42
0.4142135623731
 10
602.4663564321158
 20
199.9498860127218
 42
0.4142135623731
  0
LWPOLYLINE
  5
20D
330
1F
100
AcDbEntity
  8
0-4
  6
Continuous
 62
     7
370
     9
100
AcDbPolyline
 90
        4
 70
     1
 43
0.5
 10
-652.6058060929581
 20
371.964754671664
 42
0.4142135623731
 10
-652.8558060929582
 20
372.2147546716639
 42
0.4142135623731
 10
-653.1058060929582
 20
371.964754671664
 42
0.4142135623731
 10
-652.8558060929582
 20
371.714754671664
 42
0.4142135623731
  0
LWPOLYLINE
  5
20E
330
1F
100
AcDbEntity
  8
0-4
  6
Continuous
 62
     7
370
     9
100
AcDbPolyline
 90
        4
 70
     1
 43
0.5
 10
-79.60582093934752
 20
371.964754671664
 42
0.4142135623731
 10
-79.85582093934752
 20
372.2147546716639
 42
0.4142135623731
 10
-80.10582093934752
 20
371.964754671664
 42
0.4142135623731
 10
-79.85582093934752
 20
371.714754671664
 42
0.4142135623731
  0
LWPOLYLINE
  5
20F
330
1F
100
AcDbEntity
  8
0-4
  6
Continuous
 62
     7
370
     9
100
AcDbPolyline
 90
        4
 70
     1
 43
0.5
 10
-666.1058135161528
 20
405.198397249789
 42
0.4142135623731
 10
-666.3558135161529
 20
405.4483972497889
 42
0.4142135623731
 10
-666.6058135161529
 20
405.198397249789
 42
0.4142135623731
 10
-666.3558135161529
 20
404.948397249789
 42
0.4142135623731
  0
LWPOLYLINE
  5
210
330
1F
100
AcDbEntity
  8
0-4
  6
Continuous
 62
     7
370
     9
100
AcDbPolyline
 90
        4
 70
     1
 43
0.5
 10
-66.10581351615286
 20
405.198397249789
 42
0.4142135623731
 10
-66.35581351615286
 20
405.4483972497889
 42
0.4142135623731
 10
-66.60581351615286
 20
405.198397249789
 42
0.4142135623731
 10
-66.35581351615286
 20
404.948397249789
 42
0.4142135623731
  0
LWPOLYLINE
  5
211
330
1F
100
AcDbEntity
  8
0-4
  6
Continuous
 62
     7
370
     9
100
AcDbPolyline
 90
        4
 70
     1
 43
0.5
 10
-676.6057986697635
 20
435.1440594647383
 42
0.4142135623731
 10
-676.8557986697635
 20
435.3940594647383
 42
0.4142135623731
 10
-677.1057986697635
 20
435.1440594647383
 42
0.4142135623731
 10
-676.8557986697635
 20
434.8940594647383
 42
0.4142135623731
  0
LWPOLYLINE
  5
212
330
1F
100
AcDbEntity
  8
0-4
  6
Continuous
 62
     7
370
     9
100
AcDbPolyline
 90
        4
 70
     1
 43
0.5
 10
-55.60582836254218
 20
435.1440594647383
 42
0.4142135623731
 10
-55.85582836254218
 20
435.3940594647383
 42
0.4142135623731
 10
-56.10582836254218
 20
435.1440594647383
 42
0.4142135623731
 10
-55.85582836254218
 20
434.8940594647383
 42
0.4142135623731
  0
LWPOLYLINE
  5
213
330
1F
100
AcDbEntity
  8
0-4
  6
Continuous
 62
     7
370
     9
100
AcDbPolyline
 90
        4
 70
     1
 43
0.5
 10
-743.4938552444045
 20
-291.9232796333932
 42
0.4142135623731
 10
-743.7438552444046
 20
-291.6732796333932
 42
0.4142135623731
 10
-743.9938552444046
 20
-291.9232796333932
 42
0.4142135623731
 10
-743.7438552444046
 20
-292.1732796333931
 42
0.4142135623731
  0
LWPOLYLINE
  5
214
330
1F
100
AcDbEntity
  8
0-4
  6
Continuous
 62
     7
370
     9
100
AcDbPolyline
 90
        4
 70
     1
 43
0.5
 10
-743.4938552444045
 20
281.0766436602619
 42
0.4142135623731
 10
-743.7438552444046
 20
281.3266436602618
 42
0.4142135623731
 10
-743.9938552444046
 20
281.0766436602619
 42
0.4142135623731
 10
-743.7438552444046
 20
280.8266436602619
 42
0.4142135623731
  0
LWPOLYLINE
  5
215
330
1F
100
AcDbEntity
  8
0-4
  6
Continuous
 62
     7
370
     9
100
AcDbPolyline
 90
        4
 70
     1
 43
0.5
 10
-776.7274978225295
 20
-305.4232870565878
 42
0.4142135623731
 10
-776.9774978225296
 20
-305.1732870565878
 42
0.4142135623731
 10
-777.2274978225296
 20
-305.4232870565878
 42
0.4142135623731
 10
-776.9774978225296
 20
-305.6732870565878
 42
0.4142135623731
  0
LWPOLYLINE
  5
216
330
1F
100
AcDbEntity
  8
0-4
  6
Continuous
 62
     7
370
     9
100
AcDbPolyline
 90
        4
 70
     1
 43
0.5
 10
-776.7274978225295
 20
294.5767129434122
 42
0.4142135623731
 10
-776.9774978225296
 20
294.8267129434122
 42
0.4142135623731
 10
-777.2274978225296
 20
294.5767129434122
 42
0.4142135623731
 10
-776.9774978225296
 20
294.3267129434122
 42
0.4142135623731
  0
LWPOLYLINE
  5
217
330
1F
100
AcDbEntity
  8
0-4
  6
Continuous
 62
     7
370
     9
100
AcDbPolyline
 90
        4
 70
     1
 43
0.5
 10
-806.6731600374789
 20
-315.9232722101984
 42
0.4142135623731
 10
-806.923160037479
 20
-315.6732722101984
 42
0.4142135623731
 10
-807.173160037479
 20
-315.9232722101984
 42
0.4142135623731
 10
-806.923160037479
 20
-316.1732722101984
 42
0.4142135623731
  0
LWPOLYLINE
  5
218
330
1F
100
AcDbEntity
  8
0-4
  6
Continuous
 62
     7
370
     9
100
AcDbPolyline
 90
        4
 70
     1
 43
0.5
 10
-806.6731600374789
 20
305.0766980970229
 42
0.4142135623731
 10
-806.923160037479
 20
305.3266980970229
 42
0.4142135623731
 10
-807.173160037479
 20
305.0766980970229
 42
0.4142135623731
 10
-806.923160037479
 20
304.8266980970229
 42
0.4142135623731
  0
LINE
  5
219
330
1F
100
AcDbEntity
  8
D-5
  6
Continuous
 62
     7
370
     9
100
AcDbLine
 10
172.0030913481843
 20
-274.2040520745354
 30
0.0
 11
329.2075492240289
 21
-274.2040520745354
 31
0.0
  0
LINE
  5
21A
330
1F
100
AcDbEntity
  8
D-5
  6
Continuous
 62
     7
370
     9
100
AcDbLine
 10
329.2075492240289
 20
-274.2040520745354
 30
0.0
 11
351.8171155774917
 21
-296.8743030444995
 31
0.0
  0
LINE
  5
21B
330
1F
100
AcDbEntity
  8
D-5
  6
Continuous
 62
     7
370
     9
100
AcDbLine
 10
351.8171155774917
 20
-296.8743030444995
 30
0.0
 11
341.9103673986487
 21
-289.2514862885346
 31
0.0
  0
LINE
  5
21C
330
1F
100
AcDbEntity
  8
D-5
  6
Continuous
 62
     7
370
     9
100
AcDbLine
 10
351.8171155774917
 20
-296.8743030444995
 30
0.0
 11
344.220713022593
 21
-286.9472029402449
 31
0.0
  0
LINE
  5
21D
330
1F
100
AcDbEntity
  8
D-5
  6
Continuous
 62
     7
370
     9
100
AcDbLine
 10
161.8352941564612
 20
-189.7236427100929
 30
0.0
 11
326.7835050015836
 21
-189.7236427100929
 31
0.0
  0
LINE
  5
21E
330
1F
100
AcDbEntity
  8
D-5
  6
Continuous
 62
     7
370
     9
100
AcDbLine
 10
191.2477235536318
 20
-405.1706097577069
 30
0.0
 11
362.8326416015625
 21
-405.1706097577069
 31
0.0
  0
LINE
  5
21F
330
1F
100
AcDbEntity
  8
D-5
  6
Continuous
 62
     7
370
     9
100
AcDbLine
 10
191.8963870486698
 20
-323.8537185256546
 30
0.0
 11
359.0619061444258
 21
-323.8537185256546
 31
0.0
  0
LINE
  5
220
330
1F
100
AcDbEntity
  8
D-5
  6
Continuous
 62
     7
370
     9
100
AcDbLine
 10
326.7835050015836
 20
-189.7236427100929
 30
0.0
 11
374.4754275760135
 21
-273.9989244615709
 31
0.0
  0
LINE
  5
221
330
1F
100
AcDbEntity
  8
D-5
  6
Continuous
 62
     7
370
     9
100
AcDbLine
 10
374.4754275760135
 20
-273.9989244615709
 30
0.0
 11
366.9516486090583
 21
-264.0167071368243
 31
0.0
  0
LINE
  5
222
330
1F
100
AcDbEntity
  8
D-5
  6
Continuous
 62
     7
370
     9
100
AcDbLine
 10
374.4754275760135
 20
-273.9989244615709
 30
0.0
 11
369.7916391733531
 21
-262.4096473487648
 31
0.0
  0
LINE
  5
223
330
1F
100
AcDbEntity
  8
D-5
  6
Continuous
 62
     7
370
     9
100
AcDbLine
 10
359.0619061444258
 20
-323.8537185256546
 30
0.0
 11
401.2673455315667
 21
-298.9991306614231
 31
0.0
  0
LINE
  5
224
330
1F
100
AcDbEntity
  8
D-5
  6
Continuous
 62
     7
370
     9
100
AcDbLine
 10
401.2673455315667
 20
-298.9991306614231
 30
0.0
 11
391.4163950327281
 21
-306.6937668259079
 31
0.0
  0
LINE
  5
225
330
1F
100
AcDbEntity
  8
D-5
  6
Continuous
 62
     7
370
     9
100
AcDbLine
 10
401.2673455315667
 20
-298.9991306614231
 30
0.0
 11
389.7605277396539
 21
-303.8818606814822
 31
0.0
  0
LINE
  5
226
330
1F
100
AcDbEntity
  8
D-5
  6
Continuous
 62
     7
370
     9
100
AcDbLine
 10
359.0619061444258
 20
-323.8537185256546
 30
0.0
 11
426.9387322503169
 21
-342.9865079312711
 31
0.0
  0
LINE
  5
227
330
1F
100
AcDbEntity
  8
D-5
  6
Continuous
 62
     7
370
     9
100
AcDbLine
 10
426.9387322503169
 20
-342.9865079312711
 30
0.0
 11
414.567854597762
 21
-341.1945487357474
 31
0.0
  0
LINE
  5
228
330
1F
100
AcDbEntity
  8
D-5
  6
Continuous
 62
     7
370
     9
100
AcDbLine
 10
426.9387322503169
 20
-342.9865079312711
 30
0.0
 11
415.4531942831505
 21
-338.0537950670396
 31
0.0
  0
LINE
  5
229
330
1F
100
AcDbEntity
  8
D-5
  6
Continuous
 62
     7
370
     9
100
AcDbLine
 10
362.8326416015625
 20
-405.1706097577069
 30
0.0
 11
385.803964975718
 21
-374.8045472841005
 31
0.0
  0
LINE
  5
22A
330
1F
100
AcDbEntity
  8
D-5
  6
Continuous
 62
     7
370
     9
100
AcDbLine
 10
385.803964975718
 20
-374.8045472841005
 30
0.0
 11
379.6283618823904
 21
-385.6723517340583
 31
0.0
  0
LINE
  5
22B
330
1F
100
AcDbEntity
  8
D-5
  6
Continuous
 62
     7
370
     9
100
AcDbLine
 10
385.803964975718
 20
-374.8045472841005
 30
0.0
 11
377.0260372677365
 21
-383.7037205051731
 31
0.0
  0
TEXT
  5
22C
330
1F
100
AcDbEntity
  8
D-5
  6
Continuous
 62
     7
370
     9
100
AcDbText
 10
173.3968992491027
 20
-268.8159181007179
 30
0.0
 40
11.43
  1
アルミ製ボックス
 41
1.145833333333333
  7
ＭＳ ゴシック
100
AcDbText
  0
TEXT
  5
22D
330
1F
100
AcDbEntity
  8
D-5
  6
Continuous
 62
     7
370
     9
100
AcDbText
 10
173.3969363650761
 20
-253.206424329603
 30
0.0
 40
11.43
  1
かさ上げ用
 41
1.133333333333333
  7
ＭＳ ゴシック
100
AcDbText
  0
TEXT
  5
22E
330
1F
100
AcDbEntity
  8
D-5
  6
Continuous
 62
     7
370
     9
100
AcDbText
 10
164.245877652555
 20
-182.7251703705658
 30
0.0
 40
11.43
  1
把手カバー　ｔ＝0.5
 41
1.157894736842105
  7
ＭＳ ゴシック
100
AcDbText
  0
TEXT
  5
22F
330
1F
100
AcDbEntity
  8
D-5
  6
Continuous
 62
     7
370
     9
100
AcDbText
 10
181.1193723936339
 20
-204.5706425517314
 30
0.0
 40
11.43
  1
（SUS304　ＨＬ）
 41
1.145833333333333
  7
ＭＳ ゴシック
100
AcDbText
  0
TEXT
  5
230
330
1F
100
AcDbEntity
  8
D-5
  6
Continuous
 62
     7
370
     9
100
AcDbText
 10
199.6846874340161
 20
-397.9185115999788
 30
0.0
 40
11.43
  1
ストッパープレート
 41
1.148148148148148
  7
ＭＳ ゴシック
100
AcDbText
  0
TEXT
  5
231
330
1F
100
AcDbEntity
  8
D-5
  6
Continuous
 62
     7
370
     9
100
AcDbText
 10
237.6179339434651
 20
-318.465584551837
 30
0.0
 40
11.43
  1
把手本体
 41
1.125
  7
ＭＳ ゴシック
100
AcDbText
  0
TEXT
  5
232
330
1F
100
AcDbEntity
  8
D-5
  6
Continuous
 62
     7
370
     9
100
AcDbText
 10
187.9204992345862
 20
-341.0758932247677
 30
0.0
 40
11.43
  1
（強化ナイロン樹脂）
 41
1.15
  7
ＭＳ ゴシック
100
AcDbText
  0
TEXT
  5
233
330
1F
100
AcDbEntity
  8
D-5
  6
Continuous
 62
     7
370
     9
100
AcDbText
 10
191.9806328592739
 20
-421.3614552760739
 30
0.0
 40
11.43
  1
（SUS304　ｔ＝2.5）
 50
359.9999783553299
 41
1.149122807017544
  7
ＭＳ ゴシック
100
AcDbText
  0
LINE
  5
234
330
1F
100
AcDbEntity
  8
D-5
  6
Continuous
 62
     7
370
     9
100
AcDbLine
 10
162.6520930109798
 20
280.2650410420187
 30
0.0
 11
341.5149585620779
 21
280.2650410420187
 31
0.0
  0
LINE
  5
235
330
1F
100
AcDbEntity
  8
D-5
  6
Continuous
 62
     7
370
     9
100
AcDbLine
 10
519.9325561523438
 20
259.3829139503273
 30
0.0
 11
359.3236974767737
 21
259.3829139503273
 31
0.0
  0
LINE
  5
236
330
1F
100
AcDbEntity
  8
D-5
  6
Continuous
 62
     7
370
     9
100
AcDbLine
 10
672.4962801546665
 20
477.0620974978885
 30
0.0
 11
860.4442699535474
 21
477.0620974978885
 31
0.0
  0
LINE
  5
237
330
1F
100
AcDbEntity
  8
D-5
  6
Continuous
 62
     7
370
     9
100
AcDbLine
 10
672.4962801546665
 20
477.0620974978885
 30
0.0
 11
615.3418876029352
 21
378.0677341770482
 31
0.0
  0
LINE
  5
238
330
1F
100
AcDbEntity
  8
D-5
  6
Continuous
 62
     7
370
     9
100
AcDbLine
 10
519.9325561523438
 20
259.3829139503273
 30
0.0
 11
568.9344251478042
 21
344.2563196130702
 31
0.0
  0
LINE
  5
239
330
1F
100
AcDbEntity
  8
D-5
  6
Continuous
 62
     7
370
     9
100
AcDbLine
 10
341.5149585620779
 20
280.2650410420187
 30
0.0
 11
383.7568953230576
 21
353.4302747571792
 31
0.0
  0
LINE
  5
23A
330
1F
100
AcDbEntity
  8
D-5
  6
Continuous
 62
     7
370
     9
100
AcDbLine
 10
422.7249557907518
 20
441.71630859375
 30
0.0
 11
469.3885184623102
 21
360.8926886481208
 31
0.0
  0
LINE
  5
23B
330
1F
100
AcDbEntity
  8
D-5
  6
Continuous
 62
     7
370
     9
100
AcDbLine
 10
615.3418876029352
 20
378.0677341770482
 30
0.0
 11
620.1252705342063
 21
389.6162455790753
 31
0.0
  0
LINE
  5
23C
330
1F
100
AcDbEntity
  8
D-5
  6
Continuous
 62
     7
370
     9
100
AcDbLine
 10
615.3418876029352
 20
378.0677341770482
 30
0.0
 11
622.9512807485221
 21
387.9846273886192
 31
0.0
  0
LINE
  5
23D
330
1F
100
AcDbEntity
  8
D-5
  6
Continuous
 62
     7
370
     9
100
AcDbLine
 10
598.6283173432221
 20
395.0236717430322
 30
0.0
 11
603.4118239944047
 21
406.5721831450593
 31
0.0
  0
LINE
  5
23E
330
1F
100
AcDbEntity
  8
D-5
  6
Continuous
 62
     7
370
     9
100
AcDbLine
 10
598.6283173432221
 20
395.0236717430322
 30
0.0
 11
606.2379579286318
 21
404.9405649546031
 31
0.0
  0
LINE
  5
23F
330
1F
100
AcDbEntity
  8
D-5
  6
Continuous
 62
     7
370
     9
100
AcDbLine
 10
572.8638932511615
 20
395.8279748865077
 30
0.0
 11
577.6473999023438
 21
407.3764862885346
 31
0.0
  0
LINE
  5
240
330
1F
100
AcDbEntity
  8
D-5
  6
Continuous
 62
     7
370
     9
100
AcDbLine
 10
572.8638932511615
 20
395.8279748865077
 30
0.0
 11
580.4734101166596
 21
405.7448680980787
 31
0.0
  0
LINE
  5
241
330
1F
100
AcDbEntity
  8
D-5
  6
Continuous
 62
     7
370
     9
100
AcDbLine
 10
469.3885184623102
 20
360.8926886481208
 30
0.0
 11
461.7790015968117
 21
370.8095818596918
 31
0.0
  0
LINE
  5
242
330
1F
100
AcDbEntity
  8
D-5
  6
Continuous
 62
     7
370
     9
100
AcDbLine
 10
469.3885184623102
 20
360.8926886481208
 30
0.0
 11
464.6050118111276
 21
372.4412000501479
 31
0.0
  0
LINE
  5
243
330
1F
100
AcDbEntity
  8
D-5
  6
Continuous
 62
     7
370
     9
100
AcDbLine
 10
383.7568953230576
 20
353.4302747571792
 30
0.0
 11
378.973388671875
 21
341.8817633551521
 31
0.0
  0
LINE
  5
244
330
1F
100
AcDbEntity
  8
D-5
  6
Continuous
 62
     7
370
     9
100
AcDbLine
 10
383.7568953230576
 20
353.4302747571792
 30
0.0
 11
376.1473784575591
 21
343.5133815456082
 31
0.0
  0
LINE
  5
245
330
1F
100
AcDbEntity
  8
D-5
  6
Continuous
 62
     7
370
     9
100
AcDbLine
 10
568.9344251478042
 20
344.2563196130702
 30
0.0
 11
564.1509184966217
 21
332.7078082110431
 31
0.0
  0
LINE
  5
246
330
1F
100
AcDbEntity
  8
D-5
  6
Continuous
 62
     7
370
     9
100
AcDbLine
 10
568.9344251478042
 20
344.2563196130702
 30
0.0
 11
561.3249082823057
 21
334.3394264014992
 31
0.0
  0
LINE
  5
247
330
1F
100
AcDbEntity
  8
D-5
  6
Continuous
 62
     7
370
     9
100
AcDbLine
 10
668.5856174778294
 20
516.1928496489655
 30
0.0
 11
598.6283173432221
 21
395.0236717430322
 31
0.0
  0
LINE
  5
248
330
1F
100
AcDbEntity
  8
D-5
  6
Continuous
 62
     7
370
     9
100
AcDbLine
 10
668.5856174778294
 20
516.1928496489655
 30
0.0
 11
823.7172719594596
 21
516.1928496489655
 31
0.0
  0
LINE
  5
249
330
1F
100
AcDbEntity
  8
D-5
  6
Continuous
 62
     7
370
     9
100
AcDbLine
 10
660.7368263038429
 20
548.0279623495568
 30
0.0
 11
572.8638932511615
 21
395.8279748865077
 31
0.0
  0
LINE
  5
24A
330
1F
100
AcDbEntity
  8
D-5
  6
Continuous
 62
     7
370
     9
100
AcDbLine
 10
887.0299468169342
 20
548.0279623495568
 30
0.0
 11
660.7368263038429
 21
548.0279623495568
 31
0.0
  0
TEXT
  5
24B
330
1F
100
AcDbEntity
  8
D-5
  6
Continuous
 62
     7
370
     9
100
AcDbText
 10
679.8096404204499
 20
485.2600343776395
 30
0.0
 40
11.43
  1
皿木ネジ4.1×25
 41
1.155555555555555
  7
ＭＳ ゴシック
100
AcDbText
  0
TEXT
  5
24C
330
1F
100
AcDbEntity
  8
D-5
  6
Continuous
 62
     7
370
     9
100
AcDbText
 10
179.6900362581821
 20
288.8580155986065
 30
0.0
 40
11.43
  1
タッピンネジM4×10
 41
1.157407407407407
  7
ＭＳ ゴシック
100
AcDbText
  0
TEXT
  5
24D
330
1F
100
AcDbEntity
  8
D-5
  6
Continuous
 62
     7
370
     9
100
AcDbText
 10
164.694833836426
 20
263.9724977565493
 30
0.0
 40
11.43
  1
S20C（ユニクロメッキ）
 50
0.0000746171416053
 41
1.151515151515152
  7
ＭＳ ゴシック
100
AcDbText
  0
TEXT
  5
24E
330
1F
100
AcDbEntity
  8
D-5
  6
Continuous
 62
     7
370
     9
100
AcDbText
 10
673.9508592760241
 20
457.8779724451015
 30
0.0
 40
11.43
  1
S20C（電気亜鉛めっき）
 41
1.151515151515152
  7
ＭＳ ゴシック
100
AcDbText
  0
TEXT
  5
24F
330
1F
100
AcDbEntity
  8
D-5
  6
Continuous
 62
     7
370
     9
100
AcDbText
 10
668.226211135452
 20
554.9341396352409
 30
0.0
 40
11.43
  1
蓋フレーム（Ａ６０６３Ｓ）
 41
1.153846153846154
  7
ＭＳ ゴシック
100
AcDbText
  0
TEXT
  5
250
330
1F
100
AcDbEntity
  8
D-5
  6
Continuous
 62
     7
370
     9
100
AcDbText
 10
670.975523252745
 20
522.1740968776395
 30
0.0
 40
11.43
  1
枠（Ａ６０６３Ｓ）
 41
1.148148148148148
  7
ＭＳ ゴシック
100
AcDbText
  0
TEXT
  5
251
330
1F
100
AcDbEntity
  8
D-5
  6
Continuous
 62
     7
370
     9
100
AcDbText
 10
400.7456612723045
 20
264.8213699098887
 30
0.0
 40
11.43
  1
クッション
 41
1.133333333333333
  7
ＭＳ ゴシック
100
AcDbText
  0
TEXT
  5
252
330
1F
100
AcDbEntity
  8
D-5
  6
Continuous
 62
     7
370
     9
100
AcDbText
 10
360.1961785393793
 20
242.5429719172298
 30
0.0
 40
11.43
  1
軟質ポリ塩化ビニル
 41
1.148148148148148
  7
ＭＳ ゴシック
100
AcDbText
  0
LINE
  5
253
330
1F
100
AcDbEntity
  8
0-4
  6
Continuous
 62
     7
370
     9
100
AcDbLine
 10
-571.3557475322001
 20
-104.8252911813644
 30
0.0
 11
-161.3559413600612
 21
-104.8252911813644
 31
0.0
  0
LWPOLYLINE
  5
254
330
1F
100
AcDbEntity
  8
0-4
  6
Continuous
 62
     7
370
     9
100
AcDbPolyline
 90
        4
 70
     1
 43
0.5
 10
-571.1057475322001
 20
-104.8252911813644
 42
0.4142135623731
 10
-571.3557475322001
 20
-104.5752911813644
 42
0.4142135623731
 10
-571.6057475322001
 20
-104.8252911813644
 42
0.4142135623731
 10
-571.3557475322001
 20
-105.0752911813644
 42
0.4142135623731
  0
LWPOLYLINE
  5
255
330
1F
100
AcDbEntity
  8
0-4
  6
Continuous
 62
     7
370
     9
100
AcDbPolyline
 90
        4
 70
     1
 43
0.5
 10
-161.1059413600612
 20
-104.8252911813644
 42
0.4142135623731
 10
-161.3559413600612
 20
-104.5752911813644
 42
0.4142135623731
 10
-161.6059413600612
 20
-104.8252911813644
 42
0.4142135623731
 10
-161.3559413600612
 20
-105.0752911813644
 42
0.4142135623731
  0
LINE
  5
256
330
1F
100
AcDbEntity
  8
0-4
  6
Continuous
 62
     7
370
     9
100
AcDbLine
 10
-571.3557475322001
 20
-106.3252911813644
 30
0.0
 11
-571.3557475322001
 21
-68.61616804793073
 31
0.0
  0
LINE
  5
257
330
1F
100
AcDbEntity
  8
0-4
  6
Continuous
 62
     7
370
     9
100
AcDbLine
 10
-161.3559413600612
 20
-106.3252911813644
 30
0.0
 11
-161.3559413600612
 21
-68.61616804793073
 31
0.0
  0
TEXT
  5
258
330
1F
100
AcDbEntity
  8
0-4
  6
Continuous
 62
     2
370
   211
100
AcDbText
 10
-382.6058444461307
 20
-99.50529118136441
 30
0.0
 40
15.24
  1
410
 41
1.083333333333333
  7
ＭＳ ゴシック
100
AcDbText
  0
TEXT
  5
259
330
1F
100
AcDbEntity
  8
D-5
  6
Continuous
 62
     7
370
     9
100
AcDbText
 10
265.614223447839
 20
446.8134533361487
 30
0.0
 40
11.43
  1
底板　ｔ＝１．６
 41
1.145833333333333
  7
ＭＳ ゴシック
100
AcDbText
  0
TEXT
  5
25A
330
1F
100
AcDbEntity
  8
D-5
  6
Continuous
 62
     7
370
     9
100
AcDbText
 10
265.614223447839
 20
425.4903009201622
 30
0.0
 40
11.43
  1
溶融亜鉛めっき鋼板
 41
1.148148148148148
  7
ＭＳ ゴシック
100
AcDbText
  0
LINE
  5
25B
330
1F
100
AcDbEntity
  8
D-5
  6
Continuous
 62
     7
370
     9
100
AcDbLine
 10
263.2373705991598
 20
441.71630859375
 30
0.0
 11
422.7249557907518
 21
441.71630859375
 31
0.0
  0
TEXT
  5
25C
330
1F
100
AcDbEntity
  8
F-5
  6
Continuous
 62
     7
370
     9
100
AcDbText
 10
-410.0014153794365
 20
-663.3916080431803
 30
0.0
 40
9.525
  1
フロアーハッチ　フローリング床材用（フローリング厚12.5mm）　屋内用　一般形
 41
1.116756756756757
  7
ＭＳ ゴシック
100
AcDbText
  0
TEXT
  5
25D
330
1F
100
AcDbEntity
  8
F-5
  6
Continuous
 62
     7
370
     9
100
AcDbText
 10
-410.233466200484
 20
-681.9767692561734
 30
0.0
 40
9.525
  1
アルミニウム＋スチール製　アルミニウム目地　一般住宅用　ＭＯＦＯ－６００－１２.５
 41
1.117037037037037
  7
ＭＳ ゴシック
100
AcDbText
  0
ENDSEC
  0
SECTION
  2
OBJECTS
  0
DICTIONARY
  5
C
330
0
100
AcDbDictionary
281
     1
  3
ACAD_GROUP
350
D
  3
ACAD_LAYOUT
350
1A
  3
ACAD_MLEADERSTYLE
350
25F
  3
ACAD_MLINESTYLE
350
17
  3
ACAD_PLOTSETTINGS
350
19
  3
ACAD_PLOTSTYLENAME
350
E
  3
ACAD_TABLESTYLE
350
25E
  3
ACAD_VISUALSTYLE
350
2A
  0
DICTIONARY
  5
D
102
{ACAD_REACTORS
330
C
102
}
330
C
100
AcDbDictionary
281
     1
  0
DICTIONARY
  5
1A
102
{ACAD_REACTORS
330
C
102
}
330
C
100
AcDbDictionary
281
     1
  3
Layout1
350
1E
  3
Layout2
350
26
  3
Model
350
22
  0
DICTIONARY
  5
25F
102
{ACAD_REACTORS
330
C
102
}
330
C
100
AcDbDictionary
281
     1
  0
DICTIONARY
  5
17
102
{ACAD_REACTORS
330
C
102
}
330
C
100
AcDbDictionary
281
     1
  3
Standard
350
18
  0
DICTIONARY
  5
19
102
{ACAD_REACTORS
330
C
102
}
330
C
100
AcDbDictionary
281
     1
  0
ACDBDICTIONARYWDFLT
  5
E
102
{ACAD_REACTORS
330
C
102
}
330
C
100
AcDbDictionary
281
     1
  3
Normal
350
F
100
AcDbDictionaryWithDefault
340
F
  0
DICTIONARY
  5
25E
102
{ACAD_REACTORS
330
C
102
}
330
C
100
AcDbDictionary
281
     1
  0
DICTIONARY
  5
2A
102
{ACAD_REACTORS
330
C
102
}
330
C
100
AcDbDictionary
281
     1
  3
2dWireframe
350
2F
  3
3D Hidden
350
31
  3
3dWireframe
350
30
  3
Basic
350
32
  3
Brighten
350
36
  3
ColorChange
350
3A
  3
Conceptual
350
34
  3
Dim
350
35
  3
Facepattern
350
39
  3
Flat
350
2B
  3
FlatWithEdges
350
2C
  3
Gouraud
350
2D
  3
GouraudWithEdges
350
2E
  3
Linepattern
350
38
  3
Realistic
350
33
  3
Thicken
350
37
  0
LAYOUT
  5
1E
102
{ACAD_REACTORS
330
1A
102
}
330
1A
100
AcDbPlotSettings
  1

  2
none_device
  4

  6

 40
0.0
 41
0.0
 42
0.0
 43
0.0
 44
0.0
 45
0.0
 46
0.0
 47
0.0
 48
0.0
 49
0.0
140
0.0
141
0.0
142
1.0
143
1.0
 70
   688
 72
     0
 73
     0
 74
     5
  7

 75
    16
 76
     0
 77
     5
 78
   300
147
1.0
148
0.0
149
0.0
100
AcDbLayout
  1
Layout1
 70
     1
 71
     1
 10
0.0
 20
0.0
 11
420.0
 21
297.0
 12
0.0
 22
0.0
 32
0.0
 14
1.000000000000000E+20
 24
1.000000000000000E+20
 34
1.000000000000000E+20
 15
-1.000000000000000E+20
 25
-1.000000000000000E+20
 35
-1.000000000000000E+20
146
0.0
 13
0.0
 23
0.0
 33
0.0
 16
1.0
 26
0.0
 36
0.0
 17
0.0
 27
1.0
 37
0.0
 76
     0
330
1B
  0
LAYOUT
  5
26
102
{ACAD_REACTORS
330
1A
102
}
330
1A
100
AcDbPlotSettings
  1

  2
none_device
  4

  6

 40
0.0
 41
0.0
 42
0.0
 43
0.0
 44
0.0
 45
0.0
 46
0.0
 47
0.0
 48
0.0
 49
0.0
140
0.0
141
0.0
142
1.0
143
1.0
 70
   688
 72
     0
 73
     0
 74
     5
  7

 75
    16
 76
     0
 77
     5
 78
   300
147
1.0
148
0.0
149
0.0
100
AcDbLayout
  1
Layout2
 70
     1
 71
     2
 10
0.0
 20
0.0
 11
0.0
 21
0.0
 12
0.0
 22
0.0
 32
0.0
 14
0.0
 24
0.0
 34
0.0
 15
0.0
 25
0.0
 35
0.0
146
0.0
 13
0.0
 23
0.0
 33
0.0
 16
1.0
 26
0.0
 36
0.0
 17
0.0
 27
1.0
 37
0.0
 76
     0
330
23
  0
LAYOUT
  5
22
102
{ACAD_REACTORS
330
1A
102
}
330
1A
100
AcDbPlotSettings
  1

  2
none_device
  4

  6

 40
0.0
 41
0.0
 42
0.0
 43
0.0
 44
0.0
 45
0.0
 46
0.0
 47
0.0
 48
0.0
 49
0.0
140
0.0
141
0.0
142
1.0
143
1.0
 70
  1712
 72
     0
 73
     0
 74
     0
  7

 75
     0
 76
     0
 77
     5
 78
   300
147
1.0
148
0.0
149
0.0
100
AcDbLayout
  1
Model
 70
     1
 71
     0
 10
-1050.0
 20
-742.5
 11
1050.0
 21
742.5
 12
0.0
 22
0.0
 32
0.0
 14
-1050.0
 24
-742.5
 34
0.0
 15
1050.0
 25
742.5
 35
0.0
146
0.0
 13
0.0
 23
0.0
 33
0.0
 16
1.0
 26
0.0
 36
0.0
 17
0.0
 27
1.0
 37
0.0
 76
     0
330
1F
331
29
  0
MLINESTYLE
  5
18
102
{ACAD_REACTORS
330
17
102
}
330
17
100
AcDbMlineStyle
  2
Standard
 70
     0
  3

 62
   256
 51
90.0
 52
90.0
 71
     2
 49
0.5
 62
   256
  6
BYLAYER
 49
-0.5
 62
   256
  6
BYLAYER
  0
ACDBPLACEHOLDER
  5
F
102
{ACAD_REACTORS
330
E
102
}
330
E
  0
VISUALSTYLE
  5
2F
102
{ACAD_REACTORS
330
2A
102
}
330
2A
100
AcDbVisualStyle
  2
2dWireframe
 70
     4
 71
     0
 72
     2
 73
     0
 90
        0
 40
-0.6
 41
-30.0
 62
     5
 63
     7
421
 16777215
 74
     1
 91
        4
 64
     7
 65
   257
 75
     1
175
     1
 42
1.0
 92
        0
 66
   257
 43
1.0
 76
     1
 77
     6
 78
     2
 67
     7
 79
     5
170
     0
171
     0
290
     0
174
     0
 93
        1
 44
0.0
173
     0
291
     0
 45
0.0
1001
ACAD
1000
AcDbSavedByObjectVersion
1070
     0
  0
VISUALSTYLE
  5
31
102
{ACAD_REACTORS
330
2A
102
}
330
2A
100
AcDbVisualStyle
  2
3D Hidden
 70
     6
 71
     1
 72
     2
 73
     2
 90
        0
 40
-0.6
 41
-30.0
 62
     5
 63
     7
421
 16777215
 74
     2
 91
        2
 64
     7
 65
   257
 75
     2
175
     1
 42
40.0
 92
        0
 66
   257
 43
1.0
 76
     1
 77
     6
 78
     2
 67
     7
 79
     3
170
     0
171
     0
290
     0
174
     0
 93
        1
 44
0.0
173
     0
291
     0
 45
0.0
1001
ACAD
1000
AcDbSavedByObjectVersion
1070
     0
  0
VISUALSTYLE
  5
30
102
{ACAD_REACTORS
330
2A
102
}
330
2A
100
AcDbVisualStyle
  2
3dWireframe
 70
     5
 71
     0
 72
     2
 73
     0
 90
        0
 40
-0.6
 41
-30.0
 62
     5
 63
     7
421
 16777215
 74
     1
 91
        4
 64
     7
 65
   257
 75
     1
175
     1
 42
1.0
 92
        0
 66
   257
 43
1.0
 76
     1
 77
     6
 78
     2
 67
     7
 79
     5
170
     0
171
     0
290
     0
174
     0
 93
        1
 44
0.0
173
     0
291
     0
 45
0.0
1001
ACAD
1000
AcDbSavedByObjectVersion
1070
     0
  0
VISUALSTYLE
  5
32
102
{ACAD_REACTORS
330
2A
102
}
330
2A
100
AcDbVisualStyle
  2
Basic
 70
     7
 71
     1
 72
     0
 73
     1
 90
        0
 40
-0.6
 41
-30.0
 62
     5
 63
     7
421
 16777215
 74
     0
 91
        4
 64
     7
 65
   257
 75
     1
175
     1
 42
1.0
 92
        8
 66
     7
 43
1.0
 76
     1
 77
     6
 78
     2
 67
     7
 79
     5
170
     0
171
     0
290
     0
174
     0
 93
        1
 44
0.0
173
     0
291
     1
 45
0.0
1001
ACAD
1000
AcDbSavedByObjectVersion
1070
     0
  0
VISUALSTYLE
  5
36
102
{ACAD_REACTORS
330
2A
102
}
330
2A
100
AcDbVisualStyle
  2
Brighten
 70
    12
 71
     2
 72
     2
 73
     0
 90
        0
 40
-0.6
 41
-30.0
 62
     5
 63
     7
421
 16777215
 74
     1
 91
        4
 64
     7
 65
   257
 75
     1
175
     1
 42
1.0
 92
        8
 66
     7
 43
1.0
 76
     1
 77
     6
 78
     2
 67
     7
 79
     5
170
     0
171
     0
290
     0
174
     0
 93
        1
 44
50.0
173
     0
291
     1
 45
0.0
1001
ACAD
1000
AcDbSavedByObjectVersion
1070
     0
  0
VISUALSTYLE
  5
3A
102
{ACAD_REACTORS
330
2A
102
}
330
2A
100
AcDbVisualStyle
  2
ColorChange
 70
    16
 71
     2
 72
     2
 73
     3
 90
        0
 40
-0.6
 41
-30.0
 62
     5
 63
     8
421
  8421504
 74
     1
 91
        4
 64
     7
 65
   257
 75
     1
175
     1
 42
1.0
 92
        8
 66
     8
424
  8421504
 43
1.0
 76
     1
 77
     6
 78
     2
 67
     7
 79
     5
170
     0
171
     0
290
     0
174
     0
 93
        1
 44
0.0
173
     0
291
     1
 45
0.0
1001
ACAD
1000
AcDbSavedByObjectVersion
1070
     0
  0
VISUALSTYLE
  5
34
102
{ACAD_REACTORS
330
2A
102
}
330
2A
100
AcDbVisualStyle
  2
Conceptual
 70
     9
 71
     3
 72
     2
 73
     0
 90
        0
 40
-0.6
 41
-30.0
 62
     5
 63
     7
421
 16777215
 74
     2
 91
        2
 64
     7
 65
   257
 75
     1
175
     1
 42
40.0
 92
        8
 66
     7
 43
1.0
 76
     1
 77
     6
 78
     2
 67
     7
 79
     3
170
     0
171
     0
290
     0
174
     0
 93
        1
 44
0.0
173
     0
291
     0
 45
0.0
1001
ACAD
1000
AcDbSavedByObjectVersion
1070
     0
  0
VISUALSTYLE
  5
35
102
{ACAD_REACTORS
330
2A
102
}
330
2A
100
AcDbVisualStyle
  2
Dim
 70
    11
 71
     2
 72
     2
 73
     0
 90
        0
 40
-0.6
 41
-30.0
 62
     5
 63
     7
421
 16777215
 74
     1
 91
        4
 64
     7
 65
   257
 75
     1
175
     1
 42
1.0
 92
        8
 66
     7
 43
1.0
 76
     1
 77
     6
 78
     2
 67
     7
 79
     5
170
     0
171
     0
290
     0
174
     0
 93
        1
 44
-50.0
173
     0
291
     1
 45
0.0
1001
ACAD
1000
AcDbSavedByObjectVersion
1070
     0
  0
VISUALSTYLE
  5
39
102
{ACAD_REACTORS
330
2A
102
}
330
2A
100
AcDbVisualStyle
  2
Facepattern
 70
    15
 71
     2
 72
     2
 73
     0
 90
        0
 40
-0.6
 41
-30.0
 62
     5
 63
     7
421
 16777215
 74
     1
 91
        4
 64
     7
 65
   257
 75
     1
175
     1
 42
1.0
 92
        8
 66
     7
 43
1.0
 76
     1
 77
     6
 78
     2
 67
     7
 79
     5
170
     0
171
     0
290
     0
174
     0
 93
        1
 44
0.0
173
     0
291
     1
 45
0.0
1001
ACAD
1000
AcDbSavedByObjectVersion
1070
     0
  0
VISUALSTYLE
  5
2B
102
{ACAD_REACTORS
330
2A
102
}
330
2A
100
AcDbVisualStyle
  2
Flat
 70
     0
 71
     2
 72
     1
 73
     1
 90
        2
 40
-0.6
 41
30.0
 62
     5
 63
     7
421
 16777215
 74
     0
 91
        4
 64
     7
 65
   257
 75
     1
175
     1
 42
1.0
 92
        8
 66
     7
 43
1.0
 76
     1
 77
     6
 78
     2
 67
     7
 79
     5
170
     0
171
     0
290
     0
174
     0
 93
       13
 44
0.0
173
     0
291
     1
 45
0.0
1001
ACAD
1000
AcDbSavedByObjectVersion
1070
     0
  0
VISUALSTYLE
  5
2C
102
{ACAD_REACTORS
330
2A
102
}
330
2A
100
AcDbVisualStyle
  2
FlatWithEdges
 70
     1
 71
     2
 72
     1
 73
     1
 90
        2
 40
-0.6
 41
30.0
 62
     5
 63
     7
421
 16777215
 74
     1
 91
        4
 64
     7
 65
   257
 75
     1
175
     1
 42
1.0
 92
        0
 66
   257
 43
1.0
 76
     1
 77
     6
 78
     2
 67
     7
 79
     5
170
     0
171
     0
290
     0
174
     0
 93
       13
 44
0.0
173
     0
291
     1
 45
0.0
1001
ACAD
1000
AcDbSavedByObjectVersion
1070
     0
  0
VISUALSTYLE
  5
2D
102
{ACAD_REACTORS
330
2A
102
}
330
2A
100
AcDbVisualStyle
  2
Gouraud
 70
     2
 71
     2
 72
     2
 73
     1
 90
        2
 40
-0.6
 41
30.0
 62
     5
 63
     7
421
 16777215
 74
     0
 91
        4
 64
     7
 65
   257
 75
     1
175
     1
 42
1.0
 92
        0
 66
     7
 43
1.0
 76
     1
 77
     6
 78
     2
 67
     7
 79
     5
170
     0
171
     0
290
     0
174
     0
 93
       13
 44
0.0
173
     0
291
     1
 45
0.0
1001
ACAD
1000
AcDbSavedByObjectVersion
1070
     0
  0
VISUALSTYLE
  5
2E
102
{ACAD_REACTORS
330
2A
102
}
330
2A
100
AcDbVisualStyle
  2
GouraudWithEdges
 70
     3
 71
     2
 72
     2
 73
     1
 90
        2
 40
-0.6
 41
30.0
 62
     5
 63
     7
421
 16777215
 74
     1
 91
        4
 64
     7
 65
   257
 75
     1
175
     1
 42
1.0
 92
        0
 66
   257
 43
1.0
 76
     1
 77
     6
 78
     2
 67
     7
 79
     5
170
     0
171
     0
290
     0
174
     0
 93
       13
 44
0.0
173
     0
291
     1
 45
0.0
1001
ACAD
1000
AcDbSavedByObjectVersion
1070
     0
  0
VISUALSTYLE
  5
38
102
{ACAD_REACTORS
330
2A
102
}
330
2A
100
AcDbVisualStyle
  2
Linepattern
 70
    14
 71
     2
 72
     2
 73
     0
 90
        0
 40
-0.6
 41
-30.0
 62
     5
 63
     7
421
 16777215
 74
     1
 91
        4
 64
     7
 65
   257
 75
     7
175
     7
 42
1.0
 92
        8
 66
     7
 43
1.0
 76
     1
 77
     6
 78
     2
 67
     7
 79
     5
170
     0
171
     0
290
     0
174
     0
 93
        1
 44
0.0
173
     0
291
     1
 45
0.0
1001
ACAD
1000
AcDbSavedByObjectVersion
1070
     0
  0
VISUALSTYLE
  5
33
102
{ACAD_REACTORS
330
2A
102
}
330
2A
100
AcDbVisualStyle
  2
Realistic
 70
     8
 71
     2
 72
     2
 73
     0
 90
        0
 40
-0.6
 41
-30.0
 62
     5
 63
     7
421
 16777215
 74
     1
 91
        0
 64
     7
 65
   257
 75
     1
175
     1
 42
1.0
 92
        8
 66
     8
424
  7895160
 43
1.0
 76
     1
 77
     6
 78
     2
 67
     7
 79
     5
170
     0
171
     0
290
     0
174
     0
 93
       13
 44
0.0
173
     0
291
     0
 45
0.0
1001
ACAD
1000
AcDbSavedByObjectVersion
1070
     0
  0
VISUALSTYLE
  5
37
102
{ACAD_REACTORS
330
2A
102
}
330
2A
100
AcDbVisualStyle
  2
Thicken
 70
    13
 71
     2
 72
     2
 73
     0
 90
        0
 40
-0.6
 41
-30.0
 62
     5
 63
     7
421
 16777215
 74
     1
 91
        4
 64
     7
 65
   257
 75
     1
175
     1
 42
1.0
 92
       12
 66
     7
 43
1.0
 76
     1
 77
     6
 78
     2
 67
     7
 79
     5
170
     0
171
     0
290
     0
174
     0
 93
        1
 44
0.0
173
     0
291
     1
 45
0.0
1001
ACAD
1000
AcDbSavedByObjectVersion
1070
     0
  0
ENDSEC
  0
EOF
