  0
SECTION
  2
HEADER
  9
$ACADVER
  1
AC1018
  9
$ACADMAINTVER
 70
     0
  9
$DWGCODEPAGE
  3
ANSI_932
  9
$INSBASE
 10
0.0
 20
0.0
 30
0.0
  9
$EXTMIN
 10
-1050.0
 20
-742.5
 30
0.0
  9
$EXTMAX
 10
1050.0
 20
742.5
 30
0.0
  9
$LIMMIN
 10
-1050.0
 20
-742.5
  9
$LIMMAX
 10
1050.0
 20
742.5
  9
$ORTHOMODE
 70
     0
  9
$REGENMODE
 70
     1
  9
$FILLMODE
 70
     1
  9
$QTEXTMODE
 70
     0
  9
$MIRRTEXT
 70
     1
  9
$LTSCALE
 40
5.0
  9
$ATTMODE
 70
     1
  9
$TEXTSIZE
 40
2.5
  9
$TRACEWID
 40
1.0
  9
$TEXTSTYLE
  7
Standard
  9
$CLAYER
  8
0
  9
$CELTYPE
  6
ByLayer
  9
$CECOLOR
 62
   256
  9
$CELTSCALE
 40
1.0
  9
$DISPSILH
 70
     0
  9
$DIMSCALE
 40
1.0
  9
$DIMASZ
 40
2.5
  9
$DIMEXO
 40
0.625
  9
$DIMDLI
 40
3.75
  9
$DIMRND
 40
0.0
  9
$DIMDLE
 40
0.0
  9
$DIMEXE
 40
1.25
  9
$DIMTP
 40
0.0
  9
$DIMTM
 40
0.0
  9
$DIMTXT
 40
2.5
  9
$DIMCEN
 40
2.5
  9
$DIMTSZ
 40
0.0
  9
$DIMTOL
 70
     0
  9
$DIMLIM
 70
     0
  9
$DIMTIH
 70
     0
  9
$DIMTOH
 70
     0
  9
$DIMSE1
 70
     0
  9
$DIMSE2
 70
     0
  9
$DIMTAD
 70
     1
  9
$DIMZIN
 70
     8
  9
$DIMBLK
  1

  9
$DIMASO
 70
     1
  9
$DIMSHO
 70
     1
  9
$DIMPOST
  1

  9
$DIMAPOST
  1

  9
$DIMALT
 70
     0
  9
$DIMALTD
 70
     3
  9
$DIMALTF
 40
0.03937007874016
  9
$DIMLFAC
 40
1.0
  9
$DIMTOFL
 70
     1
  9
$DIMTVP
 40
0.0
  9
$DIMTIX
 70
     0
  9
$DIMSOXD
 70
     0
  9
$DIMSAH
 70
     0
  9
$DIMBLK1
  1

  9
$DIMBLK2
  1

  9
$DIMSTYLE
  2
ISO-25
  9
$DIMCLRD
 70
     0
  9
$DIMCLRE
 70
     0
  9
$DIMCLRT
 70
     0
  9
$DIMTFAC
 40
1.0
  9
$DIMGAP
 40
0.625
  9
$DIMJUST
 70
     0
  9
$DIMSD1
 70
     0
  9
$DIMSD2
 70
     0
  9
$DIMTOLJ
 70
     0
  9
$DIMTZIN
 70
     8
  9
$DIMALTZ
 70
     0
  9
$DIMALTTZ
 70
     0
  9
$DIMUPT
 70
     0
  9
$DIMDEC
 70
     2
  9
$DIMTDEC
 70
     2
  9
$DIMALTU
 70
     2
  9
$DIMALTTD
 70
     3
  9
$DIMTXSTY
  7
Standard
  9
$DIMAUNIT
 70
     0
  9
$DIMADEC
 70
     0
  9
$DIMALTRND
 40
0.0
  9
$DIMAZIN
 70
     0
  9
$DIMDSEP
 70
    44
  9
$DIMATFIT
 70
     3
  9
$DIMFRAC
 70
     0
  9
$DIMLDRBLK
  1

  9
$DIMLUNIT
 70
     2
  9
$DIMLWD
 70
    -2
  9
$DIMLWE
 70
    -2
  9
$DIMTMOVE
 70
     0
  9
$LUNITS
 70
     2
  9
$LUPREC
 70
     4
  9
$SKETCHINC
 40
1.0
  9
$FILLETRAD
 40
10.0
  9
$AUNITS
 70
     0
  9
$AUPREC
 70
     0
  9
$MENU
  1
.
  9
$ELEVATION
 40
0.0
  9
$PELEVATION
 40
0.0
  9
$THICKNESS
 40
0.0
  9
$LIMCHECK
 70
     0
  9
$CHAMFERA
 40
0.0
  9
$CHAMFERB
 40
0.0
  9
$CHAMFERC
 40
0.0
  9
$CHAMFERD
 40
0.0
  9
$SKPOLY
 70
     0
  9
$TDCREATE
 40
2459205.591396597
  9
$TDUCREATE
 40
2459205.216396597
  9
$TDUPDATE
 40
2459205.591396748
  9
$TDUUPDATE
 40
2459205.216396748
  9
$TDINDWG
 40
0.0000000116
  9
$TDUSRTIMER
 40
0.0000000116
  9
$USRTIMER
 70
     1
  9
$ANGBASE
 50
0.0
  9
$ANGDIR
 70
     0
  9
$PDMODE
 70
     0
  9
$PDSIZE
 40
0.0
  9
$PLINEWID
 40
0.0
  9
$SPLFRAME
 70
     0
  9
$SPLINETYPE
 70
     6
  9
$SPLINESEGS
 70
     8
  9
$HANDSEED
  5
3EF
  9
$SURFTAB1
 70
     6
  9
$SURFTAB2
 70
     6
  9
$SURFTYPE
 70
     6
  9
$SURFU
 70
     6
  9
$SURFV
 70
     6
  9
$UCSBASE
  2

  9
$UCSNAME
  2

  9
$UCSORG
 10
0.0
 20
0.0
 30
0.0
  9
$UCSXDIR
 10
1.0
 20
0.0
 30
0.0
  9
$UCSYDIR
 10
0.0
 20
1.0
 30
0.0
  9
$UCSORTHOREF
  2

  9
$UCSORTHOVIEW
 70
     0
  9
$UCSORGTOP
 10
0.0
 20
0.0
 30
0.0
  9
$UCSORGBOTTOM
 10
0.0
 20
0.0
 30
0.0
  9
$UCSORGLEFT
 10
0.0
 20
0.0
 30
0.0
  9
$UCSORGRIGHT
 10
0.0
 20
0.0
 30
0.0
  9
$UCSORGFRONT
 10
0.0
 20
0.0
 30
0.0
  9
$UCSORGBACK
 10
0.0
 20
0.0
 30
0.0
  9
$PUCSBASE
  2

  9
$PUCSNAME
  2

  9
$PUCSORG
 10
0.0
 20
0.0
 30
0.0
  9
$PUCSXDIR
 10
1.0
 20
0.0
 30
0.0
  9
$PUCSYDIR
 10
0.0
 20
1.0
 30
0.0
  9
$PUCSORTHOREF
  2

  9
$PUCSORTHOVIEW
 70
     0
  9
$PUCSORGTOP
 10
0.0
 20
0.0
 30
0.0
  9
$PUCSORGBOTTOM
 10
0.0
 20
0.0
 30
0.0
  9
$PUCSORGLEFT
 10
0.0
 20
0.0
 30
0.0
  9
$PUCSORGRIGHT
 10
0.0
 20
0.0
 30
0.0
  9
$PUCSORGFRONT
 10
0.0
 20
0.0
 30
0.0
  9
$PUCSORGBACK
 10
0.0
 20
0.0
 30
0.0
  9
$USERI1
 70
     0
  9
$USERI2
 70
     0
  9
$USERI3
 70
     0
  9
$USERI4
 70
     0
  9
$USERI5
 70
     0
  9
$USERR1
 40
0.0
  9
$USERR2
 40
0.0
  9
$USERR3
 40
0.0
  9
$USERR4
 40
0.0
  9
$USERR5
 40
0.0
  9
$WORLDVIEW
 70
     1
  9
$SHADEDGE
 70
     3
  9
$SHADEDIF
 70
    70
  9
$TILEMODE
 70
     1
  9
$MAXACTVP
 70
    64
  9
$PINSBASE
 10
0.0
 20
0.0
 30
0.0
  9
$PLIMCHECK
 70
     0
  9
$PEXTMIN
 10
1.000000000000000E+20
 20
1.000000000000000E+20
 30
1.000000000000000E+20
  9
$PEXTMAX
 10
-1.000000000000000E+20
 20
-1.000000000000000E+20
 30
-1.000000000000000E+20
  9
$PLIMMIN
 10
0.0
 20
0.0
  9
$PLIMMAX
 10
420.0
 20
297.0
  9
$UNITMODE
 70
     0
  9
$VISRETAIN
 70
     1
  9
$PLINEGEN
 70
     0
  9
$PSLTSCALE
 70
     1
  9
$TREEDEPTH
 70
  3020
  9
$CMLSTYLE
  2
Standard
  9
$CMLJUST
 70
     0
  9
$CMLSCALE
 40
20.0
  9
$PROXYGRAPHICS
 70
     1
  9
$MEASUREMENT
 70
     1
  9
$CELWEIGHT
370
    -1
  9
$ENDCAPS
280
     0
  9
$JOINSTYLE
280
     0
  9
$LWDISPLAY
290
     0
  9
$INSUNITS
 70
     4
  9
$HYPERLINKBASE
  1

  9
$STYLESHEET
  1

  9
$XEDIT
290
     1
  9
$CEPSNTYPE
380
     0
  9
$PSTYLEMODE
290
     1
  9
$FINGERPRINTGUID
  2
{55CD7F68-611C-4056-88FE-0F6B1FD08573}
  9
$VERSIONGUID
  2
{FAEB1C32-E019-11D5-929B-00C0DF256EC4}
  9
$EXTNAMES
290
     1
  9
$PSVPSCALE
 40
0.0
  9
$OLESTARTUP
290
     0
  9
$SORTENTS
280
   127
  9
$INDEXCTL
280
     0
  9
$HIDETEXT
280
     1
  9
$XCLIPFRAME
290
     0
  9
$HALOGAP
280
     0
  9
$OBSCOLOR
 70
   257
  9
$OBSLTYPE
280
     0
  9
$INTERSECTIONDISPLAY
280
     0
  9
$INTERSECTIONCOLOR
 70
   257
  9
$DIMASSOC
280
     2
  9
$PROJECTNAME
  1

  0
ENDSEC
  0
SECTION
  2
CLASSES
  0
CLASS
  1
ACDBDICTIONARYWDFLT
  2
AcDbDictionaryWithDefault
  3
ObjectDBX Classes
 90
        0
 91
        4
280
     0
281
     0
  0
CLASS
  1
VISUALSTYLE
  2
AcDbVisualStyle
  3
ObjectDBX Classes
 90
     4095
 91
        4
280
     0
281
     0
  0
CLASS
  1
MATERIAL
  2
AcDbMaterial
  3
ObjectDBX Classes
 90
     1153
 91
        4
280
     0
281
     0
  0
CLASS
  1
SCALE
  2
AcDbScale
  3
ObjectDBX Classes
 90
     1153
 91
        4
280
     0
281
     0
  0
CLASS
  1
TABLESTYLE
  2
AcDbTableStyle
  3
ObjectDBX Classes
 90
     4095
 91
        4
280
     0
281
     0
  0
CLASS
  1
MLEADERSTYLE
  2
AcDbMLeaderStyle
  3
ACDB_MLEADERSTYLE_CLASS
 90
     4095
 91
        4
280
     0
281
     0
  0
CLASS
  1
SUN
  2
AcDbSun
  3
SCENEOE
 90
     1153
 91
        4
280
     0
281
     0
  0
CLASS
  1
DICTIONARYVAR
  2
AcDbDictionaryVar
  3
ObjectDBX Classes
 90
        0
 91
        4
280
     0
281
     0
  0
CLASS
  1
CELLSTYLEMAP
  2
AcDbCellStyleMap
  3
ObjectDBX Classes
 90
     1152
 91
        4
280
     0
281
     0
  0
ENDSEC
  0
SECTION
  2
TABLES
  0
TABLE
  2
VPORT
  5
8
102
{ACAD_XDICTIONARY
360
3A6
102
}
330
0
100
AcDbSymbolTable
 70
     1
  0
VPORT
  5
29
330
8
100
AcDbSymbolTableRecord
100
AcDbViewportTableRecord
  2
*Active
 70
     0
 10
0.0
 20
0.0
 11
1.0
 21
1.0
 12
0.0
 22
0.0
 13
0.0
 23
0.0
 14
10.0
 24
10.0
 15
10.0
 25
10.0
 16
0.0
 26
0.0
 36
1.0
 17
0.0
 27
0.0
 37
0.0
 40
1633.5
 41
1.414141414141414
 42
50.0
 43
0.0
 44
0.0
 50
0.0
 51
0.0
 71
     0
 72
 10000
 73
     1
 74
     3
 75
     0
 76
     0
 77
     0
 78
     0
281
     0
 65
     1
110
0.0
120
0.0
130
0.0
111
1.0
121
0.0
131
0.0
112
0.0
122
1.0
132
0.0
 79
     0
146
0.0
  0
ENDTAB
  0
TABLE
  2
LTYPE
  5
5
330
0
100
AcDbSymbolTable
 70
     3
  0
LTYPE
  5
14
330
5
100
AcDbSymbolTableRecord
100
AcDbLinetypeTableRecord
  2
ByBlock
 70
     0
  3

 72
    65
 73
     0
 40
0.0
  0
LTYPE
  5
15
330
5
100
AcDbSymbolTableRecord
100
AcDbLinetypeTableRecord
  2
ByLayer
 70
     0
  3

 72
    65
 73
     0
 40
0.0
  0
LTYPE
  5
16
330
5
100
AcDbSymbolTableRecord
100
AcDbLinetypeTableRecord
  2
Continuous
 70
     0
  3
Solid line
 72
    65
 73
     0
 40
0.0
  0
LTYPE
  5
6F
330
5
100
AcDbSymbolTableRecord
100
AcDbLinetypeTableRecord
  2
JWW_CENTER1
 70
     0
  3
-----  --  ----------  --  -----
 72
    65
 73
     4
 40
6.773333333333333
 49
4.233333333333333
 74
     0
 49
-0.8466666666666667
 74
     0
 49
0.8466666666666667
 74
     0
 49
-0.8466666666666667
 74
     0
  0
LTYPE
  5
70
330
5
100
AcDbSymbolTableRecord
100
AcDbLinetypeTableRecord
  2
JWW_DASHED1
 70
     0
  3
-  --  --  --  --  --  --  --  -
 72
    65
 73
     2
 40
1.693333333333333
 49
0.8466666666666667
 74
     0
 49
-0.8466666666666667
 74
     0
  0
ENDTAB
  0
TABLE
  2
LAYER
  5
2
330
0
100
AcDbSymbolTable
 70
     9
  0
LAYER
  5
10
330
2
100
AcDbSymbolTableRecord
100
AcDbLayerTableRecord
  2
0
 70
     0
 62
     7
  6
Continuous
370
    -3
390
F
  0
LAYER
  5
71
330
2
100
AcDbSymbolTableRecord
100
AcDbLayerTableRecord
  2
1-E
 70
     0
 62
     7
  6
Continuous
370
    -3
390
F
  0
LAYER
  5
72
330
2
100
AcDbSymbolTableRecord
100
AcDbLayerTableRecord
  2
F-0ﾚｲﾔ
 70
     0
 62
     7
  6
Continuous
370
    -3
390
F
  0
LAYER
  5
73
330
2
100
AcDbSymbolTableRecord
100
AcDbLayerTableRecord
  2
1-4ﾚｲﾔ
 70
     0
 62
     7
  6
Continuous
370
    -3
390
F
  0
LAYER
  5
74
330
2
100
AcDbSymbolTableRecord
100
AcDbLayerTableRecord
  2
1-1ﾚｲﾔ
 70
     0
 62
     7
  6
Continuous
370
    -3
390
F
  0
LAYER
  5
75
330
2
100
AcDbSymbolTableRecord
100
AcDbLayerTableRecord
  2
1-0ﾚｲﾔ
 70
     0
 62
     7
  6
Continuous
370
    -3
390
F
  0
LAYER
  5
76
330
2
100
AcDbSymbolTableRecord
100
AcDbLayerTableRecord
  2
1-3ﾚｲﾔ
 70
     0
 62
     7
  6
Continuous
370
    -3
390
F
  0
LAYER
  5
77
330
2
100
AcDbSymbolTableRecord
100
AcDbLayerTableRecord
  2
1-2ﾚｲﾔ
 70
     0
 62
     7
  6
Continuous
370
    -3
390
F
  0
LAYER
  5
78
330
2
100
AcDbSymbolTableRecord
100
AcDbLayerTableRecord
  2
F-4ﾚｲﾔ
 70
     0
 62
     7
  6
Continuous
370
    -3
390
F
  0
ENDTAB
  0
TABLE
  2
STYLE
  5
3
330
0
100
AcDbSymbolTable
 70
     2
  0
STYLE
  5
11
330
3
100
AcDbSymbolTableRecord
100
AcDbTextStyleTableRecord
  2
Standard
 70
     0
 40
0.0
 41
1.0
 50
0.0
 71
     0
 42
2.5
  3
txt
  4

  0
STYLE
  5
6E
330
3
100
AcDbSymbolTableRecord
100
AcDbTextStyleTableRecord
  2
ＭＳ ゴシック
 70
     0
 40
1.0
 41
1.0
 50
0.0
 71
     0
 42
2.5
  3

  4

1001
ACAD
1000
MS Gothic
1071
    32817
  0
ENDTAB
  0
TABLE
  2
VIEW
  5
6
330
0
100
AcDbSymbolTable
 70
     0
  0
ENDTAB
  0
TABLE
  2
UCS
  5
7
330
0
100
AcDbSymbolTable
 70
     0
  0
ENDTAB
  0
TABLE
  2
APPID
  5
9
330
0
100
AcDbSymbolTable
 70
     2
  0
APPID
  5
12
330
9
100
AcDbSymbolTableRecord
100
AcDbRegAppTableRecord
  2
ACAD
 70
     0
  0
APPID
  5
3E5
330
9
100
AcDbSymbolTableRecord
100
AcDbRegAppTableRecord
  2
ACAD_MLEADERVER
 70
     0
  0
ENDTAB
  0
TABLE
  2
DIMSTYLE
  5
A
330
0
100
AcDbSymbolTable
 70
     1
100
AcDbDimStyleTable
  0
DIMSTYLE
105
27
330
A
100
AcDbSymbolTableRecord
100
AcDbDimStyleTableRecord
  2
ISO-25
 70
     0
 41
2.5
 42
0.625
 43
3.75
 44
1.25
 73
     0
 74
     0
 77
     1
 78
     8
140
2.5
141
2.5
143
0.03937007874016
147
0.625
171
     3
172
     1
178
     0
271
     2
272
     2
274
     3
278
    44
283
     0
284
     8
340
11
  0
ENDTAB
  0
TABLE
  2
BLOCK_RECORD
  5
1
330
0
100
AcDbSymbolTable
 70
     1
  0
BLOCK_RECORD
  5
1F
330
1
100
AcDbSymbolTableRecord
100
AcDbBlockTableRecord
  2
*Model_Space
340
22
  0
BLOCK_RECORD
  5
1B
330
1
100
AcDbSymbolTableRecord
100
AcDbBlockTableRecord
  2
*Paper_Space
340
1E
  0
BLOCK_RECORD
  5
23
330
1
100
AcDbSymbolTableRecord
100
AcDbBlockTableRecord
  2
*Paper_Space0
340
26
  0
ENDTAB
  0
ENDSEC
  0
SECTION
  2
BLOCKS
  0
BLOCK
  5
20
330
1F
100
AcDbEntity
  8
0
100
AcDbBlockBegin
  2
*Model_Space
 70
     0
 10
0.0
 20
0.0
 30
0.0
  3
*Model_Space
  1

  0
ENDBLK
  5
21
330
1F
100
AcDbEntity
  8
0
100
AcDbBlockEnd
  0
BLOCK
  5
1C
330
1B
100
AcDbEntity
 67
     1
  8
0
100
AcDbBlockBegin
  2
*Paper_Space
 70
     0
 10
0.0
 20
0.0
 30
0.0
  3
*Paper_Space
  1

  0
ENDBLK
  5
1D
330
1B
100
AcDbEntity
 67
     1
  8
0
100
AcDbBlockEnd
  0
BLOCK
  5
24
330
23
100
AcDbEntity
  8
0
100
AcDbBlockBegin
  2
*Paper_Space0
 70
     0
 10
0.0
 20
0.0
 30
0.0
  3
*Paper_Space0
  1

  0
ENDBLK
  5
25
330
23
100
AcDbEntity
  8
0
100
AcDbBlockEnd
  0
ENDSEC
  0
SECTION
  2
ENTITIES
  0
LWPOLYLINE
  5
79
330
1F
100
AcDbEntity
  8
1-E
  6
Continuous
 62
     7
370
     9
100
AcDbPolyline
 90
        4
 70
     1
 43
1.0
 10
-352.2027027027026
 20
-19.93260151631119
 42
0.4142135623731
 10
-352.7027027027026
 20
-19.43260151631119
 42
0.4142135623731
 10
-353.2027027027026
 20
-19.93260151631119
 42
0.4142135623731
 10
-352.7027027027026
 20
-20.43260151631119
 42
0.4142135623731
  0
LWPOLYLINE
  5
7A
330
1F
100
AcDbEntity
  8
1-E
  6
Continuous
 62
     7
370
     9
100
AcDbPolyline
 90
        4
 70
     1
 43
1.0
 10
474.5768845016893
 20
-19.93260151631119
 42
0.4142135623731
 10
474.0768845016893
 20
-19.43260151631119
 42
0.4142135623731
 10
473.5768845016894
 20
-19.93260151631119
 42
0.4142135623731
 10
474.0768845016893
 20
-20.43260151631119
 42
0.4142135623731
  0
LINE
  5
7B
330
1F
100
AcDbEntity
  8
F-0ﾚｲﾔ
  6
Continuous
 62
     7
370
     9
100
AcDbLine
 10
-910.0001567118876
 20
528.4456985061234
 30
0.0
 11
-910.0001567118876
 21
688.4459789379224
 31
0.0
  0
LINE
  5
7C
330
1F
100
AcDbEntity
  8
F-0ﾚｲﾔ
  6
Continuous
 62
     7
370
     9
100
AcDbLine
 10
-450.0001237199112
 20
528.4456985061234
 30
0.0
 11
-450.0001237199112
 21
688.4459789379224
 31
0.0
  0
LINE
  5
7D
330
1F
100
AcDbEntity
  8
F-0ﾚｲﾔ
  6
Continuous
 62
     7
370
     9
100
AcDbLine
 10
-350.0000412399704
 20
528.4456985061234
 30
0.0
 11
-350.0000412399704
 21
688.4459789379224
 31
0.0
  0
LINE
  5
7E
330
1F
100
AcDbEntity
  8
F-0ﾚｲﾔ
  6
Continuous
 62
     7
370
     9
100
AcDbLine
 10
-85.0000329919763
 20
648.4458469700169
 30
0.0
 11
-450.0001237199112
 21
648.4458469700169
 31
0.0
  0
LINE
  5
7F
330
1F
100
AcDbEntity
  8
F-0ﾚｲﾔ
  6
Continuous
 62
     7
370
     9
100
AcDbLine
 10
-85.0000329919763
 20
608.4457150021115
 30
0.0
 11
-450.0001237199112
 21
608.4457150021115
 31
0.0
  0
LINE
  5
80
330
1F
100
AcDbEntity
  8
F-0ﾚｲﾔ
  6
Continuous
 62
     7
370
     9
100
AcDbLine
 10
-85.0000329919763
 20
568.445830474029
 30
0.0
 11
-450.0001237199112
 21
568.445830474029
 31
0.0
  0
LINE
  5
81
330
1F
100
AcDbEntity
  8
F-0ﾚｲﾔ
  6
Continuous
 62
     7
370
     9
100
AcDbLine
 10
-85.0000329919763
 20
528.4456985061234
 30
0.0
 11
-85.0000329919763
 21
688.4459789379224
 31
0.0
  0
LINE
  5
82
330
1F
100
AcDbEntity
  8
F-0ﾚｲﾔ
  6
Continuous
 62
     7
370
     9
100
AcDbLine
 10
-85.0000329919763
 20
528.4456985061234
 30
0.0
 11
-960.0000742319468
 21
528.4456985061234
 31
0.0
  0
LINE
  5
83
330
1F
100
AcDbEntity
  8
1-E
  6
Continuous
 62
     7
370
     9
100
AcDbLine
 10
474.0770082216005
 20
312.0979267842062
 30
0.0
 11
341.3839391759925
 21
450.044885583826
 31
0.0
  0
LINE
  5
84
330
1F
100
AcDbEntity
  8
1-4ﾚｲﾔ
  6
Continuous
 62
     7
370
     9
100
AcDbLine
 10
-717.7026697107262
 20
-488.8964513830236
 30
0.0
 11
12.29726430532097
 21
-488.8964513830236
 31
0.0
  0
LINE
  5
85
330
1F
100
AcDbEntity
  8
1-4ﾚｲﾔ
  6
Continuous
 62
     7
370
     9
100
AcDbLine
 10
-717.7026697107262
 20
-48.12193587019635
 30
0.0
 11
-717.7026697107262
 21
-490.3964315878378
 31
0.0
  0
LINE
  5
86
330
1F
100
AcDbEntity
  8
1-4ﾚｲﾔ
  6
Continuous
 62
     7
370
     9
100
AcDbLine
 10
12.29726430532097
 20
-48.12193587019635
 30
0.0
 11
12.29726430532097
 21
-490.3964315878378
 31
0.0
  0
LINE
  5
87
330
1F
100
AcDbEntity
  8
1-4ﾚｲﾔ
  6
Continuous
 62
     7
370
     9
100
AcDbLine
 10
474.0768845016893
 20
-488.8964513830236
 30
0.0
 11
549.0770082216005
 21
-488.8964513830236
 31
0.0
  0
LINE
  5
88
330
1F
100
AcDbEntity
  8
1-4ﾚｲﾔ
  6
Continuous
 62
     7
370
     9
100
AcDbLine
 10
474.0768845016893
 20
-373.4326481174778
 30
0.0
 11
474.0768845016893
 21
-490.3964625178156
 31
0.0
  0
LINE
  5
89
330
1F
100
AcDbEntity
  8
1-4ﾚｲﾔ
  6
Continuous
 62
     7
370
     9
100
AcDbLine
 10
549.0770082216005
 20
-407.4326118263039
 30
0.0
 11
549.0770082216005
 21
-490.3964625178156
 31
0.0
  0
LINE
  5
8A
330
1F
100
AcDbEntity
  8
1-4ﾚｲﾔ
  6
Continuous
 62
     7
370
     9
100
AcDbLine
 10
-717.7026697107262
 20
-488.8964513830236
 30
0.0
 11
-705.3096461940456
 21
-487.2648641225454
 31
0.0
  0
LINE
  5
8B
330
1F
100
AcDbEntity
  8
1-4ﾚｲﾔ
  6
Continuous
 62
     7
370
     9
100
AcDbLine
 10
-717.7026697107262
 20
-488.8964513830236
 30
0.0
 11
-705.3096461940456
 21
-490.5280386435019
 31
0.0
  0
LINE
  5
8C
330
1F
100
AcDbEntity
  8
1-4ﾚｲﾔ
  6
Continuous
 62
     7
370
     9
100
AcDbLine
 10
12.29726430532097
 20
-488.8964513830236
 30
0.0
 11
-0.0957592113597627
 21
-490.5280386435019
 31
0.0
  0
LINE
  5
8D
330
1F
100
AcDbEntity
  8
1-4ﾚｲﾔ
  6
Continuous
 62
     7
370
     9
100
AcDbLine
 10
12.29726430532097
 20
-488.8964513830236
 30
0.0
 11
-0.0957592113597627
 21
-487.2648641225454
 31
0.0
  0
LINE
  5
8E
330
1F
100
AcDbEntity
  8
1-4ﾚｲﾔ
  6
Continuous
 62
     7
370
     9
100
AcDbLine
 10
474.0768845016893
 20
-488.8964513830236
 30
0.0
 11
486.4700317382812
 21
-487.2648641225454
 31
0.0
  0
LINE
  5
8F
330
1F
100
AcDbEntity
  8
1-4ﾚｲﾔ
  6
Continuous
 62
     7
370
     9
100
AcDbLine
 10
474.0768845016893
 20
-488.8964513830236
 30
0.0
 11
486.4700317382812
 21
-490.5280386435019
 31
0.0
  0
LINE
  5
90
330
1F
100
AcDbEntity
  8
1-4ﾚｲﾔ
  6
Continuous
 62
     7
370
     9
100
AcDbLine
 10
549.0770082216005
 20
-488.8964513830236
 30
0.0
 11
536.6839847049198
 21
-490.5280386435019
 31
0.0
  0
LINE
  5
91
330
1F
100
AcDbEntity
  8
1-4ﾚｲﾔ
  6
Continuous
 62
     7
370
     9
100
AcDbLine
 10
549.0770082216005
 20
-488.8964513830236
 30
0.0
 11
536.6839847049198
 21
-487.2648641225454
 31
0.0
  0
LINE
  5
92
330
1F
100
AcDbEntity
  8
1-4ﾚｲﾔ
  6
Continuous
 62
     7
370
     9
100
AcDbLine
 10
636.4864864864865
 20
-319.9324777963999
 30
0.0
 11
636.4864864864865
 21
280.0673366237332
 31
0.0
  0
LINE
  5
93
330
1F
100
AcDbEntity
  8
1-4ﾚｲﾔ
  6
Continuous
 62
     7
370
     9
100
AcDbLine
 10
556.5770329655828
 20
-319.9324777963999
 30
0.0
 11
637.9864666913008
 21
-319.9324777963999
 31
0.0
  0
LINE
  5
94
330
1F
100
AcDbEntity
  8
1-4ﾚｲﾔ
  6
Continuous
 62
     7
370
     9
100
AcDbLine
 10
556.5770329655828
 20
280.0673366237332
 30
0.0
 11
637.9864666913008
 21
280.0673366237332
 31
0.0
  0
LINE
  5
95
330
1F
100
AcDbEntity
  8
1-4ﾚｲﾔ
  6
Continuous
 62
     7
370
     9
100
AcDbLine
 10
636.4864864864865
 20
-319.9324777963999
 30
0.0
 11
634.8548682960304
 21
-307.5394233497414
 31
0.0
  0
LINE
  5
96
330
1F
100
AcDbEntity
  8
1-4ﾚｲﾔ
  6
Continuous
 62
     7
370
     9
100
AcDbLine
 10
636.4864864864865
 20
-319.9324777963999
 30
0.0
 11
638.1181046769427
 21
-307.5394233497414
 31
0.0
  0
LINE
  5
97
330
1F
100
AcDbEntity
  8
1-4ﾚｲﾔ
  6
Continuous
 62
     7
370
     9
100
AcDbLine
 10
636.4864864864865
 20
280.0673366237332
 30
0.0
 11
634.8548682960304
 21
267.6742512470968
 31
0.0
  0
LINE
  5
98
330
1F
100
AcDbEntity
  8
1-4ﾚｲﾔ
  6
Continuous
 62
     7
370
     9
100
AcDbLine
 10
636.4864864864865
 20
280.0673366237332
 30
0.0
 11
638.1181046769427
 21
267.6742512470968
 31
0.0
  0
LINE
  5
99
330
1F
100
AcDbEntity
  8
1-4ﾚｲﾔ
  6
Continuous
 62
     7
370
     9
100
AcDbLine
 10
668.918918918919
 20
-399.9326180122994
 30
0.0
 11
668.918918918919
 21
360.0673531197214
 31
0.0
  0
LINE
  5
9A
330
1F
100
AcDbEntity
  8
1-4ﾚｲﾔ
  6
Continuous
 62
     7
370
     9
100
AcDbLine
 10
556.5770329655828
 20
-399.9326180122994
 30
0.0
 11
670.4188991237331
 21
-399.9326180122994
 31
0.0
  0
LINE
  5
9B
330
1F
100
AcDbEntity
  8
1-4ﾚｲﾔ
  6
Continuous
 62
     7
370
     9
100
AcDbLine
 10
556.5770329655828
 20
360.0673531197214
 30
0.0
 11
670.4188991237331
 21
360.0673531197214
 31
0.0
  0
LINE
  5
9C
330
1F
100
AcDbEntity
  8
1-4ﾚｲﾔ
  6
Continuous
 62
     7
370
     9
100
AcDbLine
 10
668.918918918919
 20
-399.9326180122994
 30
0.0
 11
667.287300728463
 21
-387.5395635656408
 31
0.0
  0
LINE
  5
9D
330
1F
100
AcDbEntity
  8
1-4ﾚｲﾔ
  6
Continuous
 62
     7
370
     9
100
AcDbLine
 10
668.918918918919
 20
-399.9326180122994
 30
0.0
 11
670.550537109375
 21
-387.5395635656408
 31
0.0
  0
LINE
  5
9E
330
1F
100
AcDbEntity
  8
1-4ﾚｲﾔ
  6
Continuous
 62
     7
370
     9
100
AcDbLine
 10
668.918918918919
 20
360.0673531197214
 30
0.0
 11
667.287300728463
 21
347.6743296030406
 31
0.0
  0
LINE
  5
9F
330
1F
100
AcDbEntity
  8
1-4ﾚｲﾔ
  6
Continuous
 62
     7
370
     9
100
AcDbLine
 10
668.918918918919
 20
360.0673531197214
 30
0.0
 11
670.550537109375
 21
347.6743296030406
 31
0.0
  0
LINE
  5
A0
330
1F
100
AcDbEntity
  8
1-4ﾚｲﾔ
  6
Continuous
 62
     7
370
     9
100
AcDbLine
 10
375.9051348711995
 20
-355.932621311497
 30
0.0
 11
375.9051348711995
 21
316.067356418919
 31
0.0
  0
LINE
  5
A1
330
1F
100
AcDbEntity
  8
1-4ﾚｲﾔ
  6
Continuous
 62
     7
370
     9
100
AcDbLine
 10
466.5769834776182
 20
-355.932621311497
 30
0.0
 11
374.4051546663852
 21
-355.932621311497
 31
0.0
  0
LINE
  5
A2
330
1F
100
AcDbEntity
  8
1-4ﾚｲﾔ
  6
Continuous
 62
     7
370
     9
100
AcDbLine
 10
466.5769834776182
 20
316.067356418919
 30
0.0
 11
374.4051546663852
 21
316.067356418919
 31
0.0
  0
LINE
  5
A3
330
1F
100
AcDbEntity
  8
1-4ﾚｲﾔ
  6
Continuous
 62
     7
370
     9
100
AcDbLine
 10
375.9051348711995
 20
-355.932621311497
 30
0.0
 11
374.2735166807432
 21
-343.5395668648385
 31
0.0
  0
LINE
  5
A4
330
1F
100
AcDbEntity
  8
1-4ﾚｲﾔ
  6
Continuous
 62
     7
370
     9
100
AcDbLine
 10
375.9051348711995
 20
-355.932621311497
 30
0.0
 11
377.5367530616555
 21
-343.5395668648385
 31
0.0
  0
LINE
  5
A5
330
1F
100
AcDbEntity
  8
1-4ﾚｲﾔ
  6
Continuous
 62
     7
370
     9
100
AcDbLine
 10
375.9051348711995
 20
316.067356418919
 30
0.0
 11
374.2735166807432
 21
303.6743329022383
 31
0.0
  0
LINE
  5
A6
330
1F
100
AcDbEntity
  8
1-4ﾚｲﾔ
  6
Continuous
 62
     7
370
     9
100
AcDbLine
 10
375.9051348711995
 20
316.067356418919
 30
0.0
 11
377.5367530616555
 21
303.6743329022383
 31
0.0
  0
LINE
  5
A7
330
1F
100
AcDbEntity
  8
1-4ﾚｲﾔ
  6
Continuous
 62
     7
370
     9
100
AcDbLine
 10
375.9051348711995
 20
-355.932621311497
 30
0.0
 11
375.9051348711995
 21
-357.9325536779455
 31
0.0
  0
LINE
  5
A8
330
1F
100
AcDbEntity
  8
1-4ﾚｲﾔ
  6
Continuous
 62
     7
370
     9
100
AcDbLine
 10
466.5769834776182
 20
-357.9325536779455
 30
0.0
 11
374.4051546663852
 21
-357.9325536779455
 31
0.0
  0
LINE
  5
A9
330
1F
100
AcDbEntity
  8
1-4ﾚｲﾔ
  6
Continuous
 62
     7
370
     9
100
AcDbLine
 10
375.9051348711995
 20
316.067356418919
 30
0.0
 11
375.9051348711995
 21
318.0674125052788
 31
0.0
  0
LINE
  5
AA
330
1F
100
AcDbEntity
  8
1-4ﾚｲﾔ
  6
Continuous
 62
     7
370
     9
100
AcDbLine
 10
466.5769834776182
 20
318.0674125052788
 30
0.0
 11
374.4051546663852
 21
318.0674125052788
 31
0.0
  0
LINE
  5
AB
330
1F
100
AcDbEntity
  8
1-4ﾚｲﾔ
  6
Continuous
 62
     7
370
     9
100
AcDbLine
 10
466.5769834776182
 20
-365.9326543034734
 30
0.0
 11
333.2706348316091
 21
-365.9326543034734
 31
0.0
  0
LINE
  5
AC
330
1F
100
AcDbEntity
  8
1-4ﾚｲﾔ
  6
Continuous
 62
     7
370
     9
100
AcDbLine
 10
375.9051348711995
 20
-365.9326543034734
 30
0.0
 11
374.2735166807432
 21
-378.325708750132
 31
0.0
  0
LINE
  5
AD
330
1F
100
AcDbEntity
  8
1-4ﾚｲﾔ
  6
Continuous
 62
     7
370
     9
100
AcDbLine
 10
375.9051348711995
 20
-365.9326543034734
 30
0.0
 11
377.5367530616555
 21
-378.325708750132
 31
0.0
  0
LINE
  5
AE
330
1F
100
AcDbEntity
  8
1-4ﾚｲﾔ
  6
Continuous
 62
     7
370
     9
100
AcDbLine
 10
466.5769834776182
 20
326.0673894108953
 30
0.0
 11
333.2706348316091
 21
326.0673894108953
 31
0.0
  0
LINE
  5
AF
330
1F
100
AcDbEntity
  8
1-4ﾚｲﾔ
  6
Continuous
 62
     7
370
     9
100
AcDbLine
 10
375.9051348711995
 20
326.0673894108953
 30
0.0
 11
374.2735166807432
 21
338.460412927576
 31
0.0
  0
LINE
  5
B0
330
1F
100
AcDbEntity
  8
1-4ﾚｲﾔ
  6
Continuous
 62
     7
370
     9
100
AcDbLine
 10
375.9051348711995
 20
326.0673894108953
 30
0.0
 11
377.5367530616555
 21
338.460412927576
 31
0.0
  0
LINE
  5
B1
330
1F
100
AcDbEntity
  8
1-4ﾚｲﾔ
  6
Continuous
 62
     7
370
     9
100
AcDbLine
 10
375.9051348711995
 20
318.0674125052788
 30
0.0
 11
375.9051348711995
 21
349.810601311761
 31
0.0
  0
LINE
  5
B2
330
1F
100
AcDbEntity
  8
1-4ﾚｲﾔ
  6
Continuous
 62
     7
370
     9
100
AcDbLine
 10
375.9051348711995
 20
-357.9325536779455
 30
0.0
 11
375.9051348711995
 21
-387.4247824179159
 31
0.0
  0
LINE
  5
B3
330
1F
100
AcDbEntity
  8
1-4ﾚｲﾔ
  6
Continuous
 62
     7
370
     9
100
AcDbLine
 10
466.5769834776182
 20
-342.9324114000474
 30
0.0
 11
411.8651931350297
 21
-342.9302153716216
 31
0.0
  0
LINE
  5
B4
330
1F
100
AcDbEntity
  8
1-4ﾚｲﾔ
  6
Continuous
 62
     7
370
     9
100
AcDbLine
 10
413.3651733398438
 20
-342.9302153716216
 30
0.0
 11
411.7335551493878
 21
-330.537160924963
 31
0.0
  0
LINE
  5
B5
330
1F
100
AcDbEntity
  8
1-4ﾚｲﾔ
  6
Continuous
 62
     7
370
     9
100
AcDbLine
 10
413.3651733398438
 20
-342.9302153716216
 30
0.0
 11
414.9967915303
 21
-330.537160924963
 31
0.0
  0
LINE
  5
B6
330
1F
100
AcDbEntity
  8
1-4ﾚｲﾔ
  6
Continuous
 62
     7
370
     9
100
AcDbLine
 10
413.3651733398438
 20
-355.932621311497
 30
0.0
 11
411.7335551493878
 21
-368.3256757581556
 31
0.0
  0
LINE
  5
B7
330
1F
100
AcDbEntity
  8
1-4ﾚｲﾔ
  6
Continuous
 62
     7
370
     9
100
AcDbLine
 10
413.3651733398438
 20
-355.932621311497
 30
0.0
 11
414.9967915303
 21
-368.3256757581556
 31
0.0
  0
LINE
  5
B8
330
1F
100
AcDbEntity
  8
1-4ﾚｲﾔ
  6
Continuous
 62
     7
370
     9
100
AcDbLine
 10
413.3651733398438
 20
-307.0004684860642
 30
0.0
 11
413.3651733398438
 21
-375.8878388275971
 31
0.0
  0
LINE
  5
B9
330
1F
100
AcDbEntity
  8
1-4ﾚｲﾔ
  6
Continuous
 62
     7
370
     9
100
AcDbLine
 10
334.7707387563347
 20
-365.9326543034734
 30
0.0
 11
334.7707387563347
 21
326.0673894108953
 31
0.0
  0
LINE
  5
BA
330
1F
100
AcDbEntity
  8
1-4ﾚｲﾔ
  6
Continuous
 62
     7
370
     9
100
AcDbLine
 10
334.7707387563347
 20
-365.9326543034734
 30
0.0
 11
333.1391205658784
 21
-353.5395998568148
 31
0.0
  0
LINE
  5
BB
330
1F
100
AcDbEntity
  8
1-4ﾚｲﾔ
  6
Continuous
 62
     7
370
     9
100
AcDbLine
 10
334.7707387563347
 20
-365.9326543034734
 30
0.0
 11
336.4022332268792
 21
-353.5395998568148
 31
0.0
  0
LINE
  5
BC
330
1F
100
AcDbEntity
  8
1-4ﾚｲﾔ
  6
Continuous
 62
     7
370
     9
100
AcDbLine
 10
334.7707387563347
 20
326.0673894108953
 30
0.0
 11
333.1391205658784
 21
313.6743658942146
 31
0.0
  0
LINE
  5
BD
330
1F
100
AcDbEntity
  8
1-4ﾚｲﾔ
  6
Continuous
 62
     7
370
     9
100
AcDbLine
 10
334.7707387563347
 20
326.0673894108953
 30
0.0
 11
336.4022332268792
 21
313.6743658942146
 31
0.0
  0
LINE
  5
BE
330
1F
100
AcDbEntity
  8
1-4ﾚｲﾔ
  6
Continuous
 62
     7
370
     9
100
AcDbLine
 10
474.0770082216005
 20
8.431363492398702
 30
0.0
 11
514.0768927496833
 21
8.431363492398702
 31
0.0
  0
LINE
  5
BF
330
1F
100
AcDbEntity
  8
1-4ﾚｲﾔ
  6
Continuous
 62
     7
370
     9
100
AcDbLine
 10
474.0770082216005
 20
0.9313387484164082
 30
0.0
 11
474.0770082216005
 21
6.931383287584509
 31
0.0
  0
LINE
  5
C0
330
1F
100
AcDbEntity
  8
1-4ﾚｲﾔ
  6
Continuous
 62
     7
370
     9
100
AcDbLine
 10
514.0768927496833
 20
0.9313387484164082
 30
0.0
 11
514.0768927496833
 21
6.931383287584509
 31
0.0
  0
LINE
  5
C1
330
1F
100
AcDbEntity
  8
1-4ﾚｲﾔ
  6
Continuous
 62
     7
370
     9
100
AcDbLine
 10
474.0770082216005
 20
8.431363492398702
 30
0.0
 11
486.4700317382812
 21
10.06291982289909
 31
0.0
  0
LINE
  5
C2
330
1F
100
AcDbEntity
  8
1-4ﾚｲﾔ
  6
Continuous
 62
     7
370
     9
100
AcDbLine
 10
474.0770082216005
 20
8.431363492398702
 30
0.0
 11
486.4700317382812
 21
6.799807161898315
 31
0.0
  0
LINE
  5
C3
330
1F
100
AcDbEntity
  8
1-4ﾚｲﾔ
  6
Continuous
 62
     7
370
     9
100
AcDbLine
 10
514.0768927496833
 20
8.431363492398702
 30
0.0
 11
501.6838692330026
 21
10.06291982289909
 31
0.0
  0
LINE
  5
C4
330
1F
100
AcDbEntity
  8
1-4ﾚｲﾔ
  6
Continuous
 62
     7
370
     9
100
AcDbLine
 10
514.0768927496833
 20
8.431363492398702
 30
0.0
 11
501.6838692330026
 21
6.799807161898315
 31
0.0
  0
LINE
  5
C5
330
1F
100
AcDbEntity
  8
1-4ﾚｲﾔ
  6
Continuous
 62
     7
370
     9
100
AcDbLine
 10
524.0769257416596
 20
8.431363492398702
 30
0.0
 11
514.0770164695948
 21
8.431363492398702
 31
0.0
  0
LINE
  5
C6
330
1F
100
AcDbEntity
  8
1-4ﾚｲﾔ
  6
Continuous
 62
     7
370
     9
100
AcDbLine
 10
524.0769257416596
 20
0.9313387484164082
 30
0.0
 11
524.0769257416596
 21
6.931383287584509
 31
0.0
  0
LINE
  5
C7
330
1F
100
AcDbEntity
  8
1-4ﾚｲﾔ
  6
Continuous
 62
     7
370
     9
100
AcDbLine
 10
514.0770164695948
 20
0.9313387484164082
 30
0.0
 11
514.0770164695948
 21
6.931383287584509
 31
0.0
  0
LINE
  5
C8
330
1F
100
AcDbEntity
  8
1-4ﾚｲﾔ
  6
Continuous
 62
     7
370
     9
100
AcDbLine
 10
514.0770164695948
 20
8.431363492398702
 30
0.0
 11
501.6839929529138
 21
10.06291982289909
 31
0.0
  0
LINE
  5
C9
330
1F
100
AcDbEntity
  8
1-4ﾚｲﾔ
  6
Continuous
 62
     7
370
     9
100
AcDbLine
 10
514.0770164695948
 20
8.431363492398702
 30
0.0
 11
501.6839929529138
 21
6.799807161898315
 31
0.0
  0
LINE
  5
CA
330
1F
100
AcDbEntity
  8
1-4ﾚｲﾔ
  6
Continuous
 62
     7
370
     9
100
AcDbLine
 10
530.5770461623734
 20
0.9313387484164082
 30
0.0
 11
530.5770461623734
 21
6.931383287584509
 31
0.0
  0
LINE
  5
CB
330
1F
100
AcDbEntity
  8
1-4ﾚｲﾔ
  6
Continuous
 62
     7
370
     9
100
AcDbLine
 10
530.5770461623734
 20
8.431363492398702
 30
0.0
 11
542.9700696790542
 21
10.06291982289909
 31
0.0
  0
LINE
  5
CC
330
1F
100
AcDbEntity
  8
1-4ﾚｲﾔ
  6
Continuous
 62
     7
370
     9
100
AcDbLine
 10
530.5770461623734
 20
8.431363492398702
 30
0.0
 11
542.9700696790542
 21
6.799807161898315
 31
0.0
  0
LINE
  5
CD
330
1F
100
AcDbEntity
  8
1-4ﾚｲﾔ
  6
Continuous
 62
     7
370
     9
100
AcDbLine
 10
586.4237192514781
 20
8.431363492398702
 30
0.0
 11
524.0769257416596
 21
8.431363492398702
 31
0.0
  0
LINE
  5
CE
330
1F
100
AcDbEntity
  8
1-4ﾚｲﾔ
  6
Continuous
 62
     7
370
     9
100
AcDbLine
 10
488.9043447133659
 20
37.15498228330873
 30
0.0
 11
506.9623792493667
 21
37.15498228330873
 31
0.0
  0
LINE
  5
CF
330
1F
100
AcDbEntity
  8
1-4ﾚｲﾔ
  6
Continuous
 62
     7
370
     9
100
AcDbLine
 10
506.9623792493667
 20
37.15498228330873
 30
0.0
 11
519.0010689400339
 21
8.431363492398702
 31
0.0
  0
LINE
  5
D0
330
1F
100
AcDbEntity
  8
1-4ﾚｲﾔ
  6
Continuous
 62
     7
370
     9
100
AcDbLine
 10
-373.702673009924
 20
182.9761566986909
 30
0.0
 11
-331.7027323954813
 21
182.9761566986909
 31
0.0
  0
LINE
  5
D1
330
1F
100
AcDbEntity
  8
1-4ﾚｲﾔ
  6
Continuous
 62
     7
370
     9
100
AcDbLine
 10
-373.702673009924
 20
227.9294153161952
 30
0.0
 11
-373.702673009924
 21
181.4761764938767
 31
0.0
  0
LINE
  5
D2
330
1F
100
AcDbEntity
  8
1-4ﾚｲﾔ
  6
Continuous
 62
     7
370
     9
100
AcDbLine
 10
-331.7027323954813
 20
227.9294153161952
 30
0.0
 11
-331.7027323954813
 21
181.4761764938767
 31
0.0
  0
LINE
  5
D3
330
1F
100
AcDbEntity
  8
1-4ﾚｲﾔ
  6
Continuous
 62
     7
370
     9
100
AcDbLine
 10
-373.702673009924
 20
182.9761566986909
 30
0.0
 11
-361.3096494932432
 21
184.6077130291914
 31
0.0
  0
LINE
  5
D4
330
1F
100
AcDbEntity
  8
1-4ﾚｲﾔ
  6
Continuous
 62
     7
370
     9
100
AcDbLine
 10
-373.702673009924
 20
182.9761566986909
 30
0.0
 11
-361.3096494932432
 21
181.3446003681905
 31
0.0
  0
LINE
  5
D5
330
1F
100
AcDbEntity
  8
1-4ﾚｲﾔ
  6
Continuous
 62
     7
370
     9
100
AcDbLine
 10
-331.7027323954813
 20
182.9761566986909
 30
0.0
 11
-344.0957559121621
 21
184.6077130291914
 31
0.0
  0
LINE
  5
D6
330
1F
100
AcDbEntity
  8
1-4ﾚｲﾔ
  6
Continuous
 62
     7
370
     9
100
AcDbLine
 10
-331.7027323954813
 20
182.9761566986909
 30
0.0
 11
-344.0957559121621
 21
181.3446003681905
 31
0.0
  0
LINE
  5
D7
330
1F
100
AcDbEntity
  8
1-4ﾚｲﾔ
  6
Continuous
 62
     7
370
     9
100
AcDbLine
 10
-412.8274866052575
 20
233.5670842351141
 30
0.0
 11
-412.8274866052575
 21
305.567247545397
 31
0.0
  0
LINE
  5
D8
330
1F
100
AcDbEntity
  8
1-4ﾚｲﾔ
  6
Continuous
 62
     7
370
     9
100
AcDbLine
 10
-381.2026977539062
 20
233.5670842351141
 30
0.0
 11
-414.3274668100718
 21
233.5670842351141
 31
0.0
  0
LINE
  5
D9
330
1F
100
AcDbEntity
  8
1-4ﾚｲﾔ
  6
Continuous
 62
     7
370
     9
100
AcDbLine
 10
-360.2027274466849
 20
305.567247545397
 30
0.0
 11
-414.3274668100718
 21
305.567247545397
 31
0.0
  0
LINE
  5
DA
330
1F
100
AcDbEntity
  8
1-4ﾚｲﾔ
  6
Continuous
 62
     7
370
     9
100
AcDbLine
 10
-412.8274866052575
 20
233.5670842351141
 30
0.0
 11
-414.4591047957136
 21
245.9601696117505
 31
0.0
  0
LINE
  5
DB
330
1F
100
AcDbEntity
  8
1-4ﾚｲﾔ
  6
Continuous
 62
     7
370
     9
100
AcDbLine
 10
-412.8274866052575
 20
233.5670842351141
 30
0.0
 11
-411.1959921347128
 21
245.9601696117505
 31
0.0
  0
LINE
  5
DC
330
1F
100
AcDbEntity
  8
1-4ﾚｲﾔ
  6
Continuous
 62
     7
370
     9
100
AcDbLine
 10
-412.8274866052575
 20
305.567247545397
 30
0.0
 11
-414.4591047957136
 21
293.1742240287163
 31
0.0
  0
LINE
  5
DD
330
1F
100
AcDbEntity
  8
1-4ﾚｲﾔ
  6
Continuous
 62
     7
370
     9
100
AcDbLine
 10
-412.8274866052575
 20
305.567247545397
 30
0.0
 11
-411.1959921347128
 21
293.1742240287163
 31
0.0
  0
LINE
  5
DE
330
1F
100
AcDbEntity
  8
1-E
  6
Continuous
 62
     7
370
     9
100
AcDbLine
 10
353.5098514041385
 20
508.9419968063767
 30
0.0
 11
496.9059299778294
 21
327.7426807300465
 31
0.0
  0
LINE
  5
DF
330
1F
100
AcDbEntity
  8
1-E
  6
Continuous
 62
     7
370
     9
100
AcDbLine
 10
309.1192709433068
 20
-171.386248614337
 30
0.0
 11
474.0768845016893
 21
-283.1221544420396
 31
0.0
  0
LINE
  5
E0
330
1F
100
AcDbEntity
  8
1-E
  6
Continuous
 62
     7
370
     9
100
AcDbLine
 10
474.0768845016893
 20
-283.1221544420396
 30
0.0
 11
462.9012649123734
 21
-277.5227768356735
 31
0.0
  0
LINE
  5
E1
330
1F
100
AcDbEntity
  8
1-E
  6
Continuous
 62
     7
370
     9
100
AcDbLine
 10
474.0768845016893
 20
-283.1221544420396
 30
0.0
 11
464.7312061206716
 21
-274.821074202254
 31
0.0
  0
LINE
  5
E2
330
1F
100
AcDbEntity
  8
1-E
  6
Continuous
 62
     7
370
     9
100
AcDbLine
 10
613.6449452993033
 20
393.9411225190034
 30
0.0
 11
534.7516034100508
 21
300.4602133261192
 31
0.0
  0
LINE
  5
E3
330
1F
100
AcDbEntity
  8
1-E
  6
Continuous
 62
     7
370
     9
100
AcDbLine
 10
534.7516034100508
 20
300.4602133261192
 30
0.0
 11
541.497802734375
 21
310.9834578230574
 31
0.0
  0
LINE
  5
E4
330
1F
100
AcDbEntity
  8
1-E
  6
Continuous
 62
     7
370
     9
100
AcDbLine
 10
534.7516034100508
 20
300.4602133261192
 30
0.0
 11
543.9915012668919
 21
308.8788584116344
 31
0.0
  0
LINE
  5
E5
330
1F
100
AcDbEntity
  8
1-E
  6
Continuous
 62
     7
370
     9
100
AcDbLine
 10
379.8294067382812
 20
-430.0113409918708
 30
0.0
 11
474.0768845016893
 21
-312.3641905913482
 31
0.0
  0
LINE
  5
E6
330
1F
100
AcDbEntity
  8
1-E
  6
Continuous
 62
     7
370
     9
100
AcDbLine
 10
474.0768845016893
 20
-312.3641905913482
 30
0.0
 11
467.6018792229732
 21
-323.0564364871463
 31
0.0
  0
LINE
  5
E7
330
1F
100
AcDbEntity
  8
1-E
  6
Continuous
 62
     7
370
     9
100
AcDbLine
 10
474.0768845016893
 20
-312.3641905913482
 30
0.0
 11
465.0552285684122
 21
-321.016233289564
 31
0.0
  0
LINE
  5
E8
330
1F
100
AcDbEntity
  8
1-E
  6
Continuous
 62
     7
370
     9
100
AcDbLine
 10
496.9059299778294
 20
327.7426807300465
 30
0.0
 11
487.9358652475719
 21
336.4483560098185
 31
0.0
  0
LINE
  5
E9
330
1F
100
AcDbEntity
  8
1-E
  6
Continuous
 62
     7
370
     9
100
AcDbLine
 10
496.9059299778294
 20
327.7426807300465
 30
0.0
 11
490.4946404534419
 21
338.4732797983531
 31
0.0
  0
LINE
  5
EA
330
1F
100
AcDbEntity
  8
1-E
  6
Continuous
 62
     7
370
     9
100
AcDbLine
 10
474.0770082216005
 20
312.0979267842062
 30
0.0
 11
464.3096923828125
 21
319.8984671927788
 31
0.0
  0
LINE
  5
EB
330
1F
100
AcDbEntity
  8
1-E
  6
Continuous
 62
     7
370
     9
100
AcDbLine
 10
474.0770082216005
 20
312.0979267842062
 30
0.0
 11
466.661360457137
 21
322.1606857712204
 31
0.0
  0
LINE
  5
EC
330
1F
100
AcDbEntity
  8
1-E
  6
Continuous
 62
     7
370
     9
100
AcDbLine
 10
309.1192709433068
 20
-171.386248614337
 30
0.0
 11
93.40655352618256
 21
-171.386248614337
 31
0.0
  0
LINE
  5
ED
330
1F
100
AcDbEntity
  8
1-1ﾚｲﾔ
  6
Continuous
 62
     3
370
     9
100
AcDbLine
 10
-432.2028288970122
 20
53.56748013883035
 30
0.0
 11
-432.2028288970122
 21
-19.93266337626679
 31
0.0
  0
LINE
  5
EE
330
1F
100
AcDbEntity
  8
1-1ﾚｲﾔ
  6
Continuous
 62
     3
370
     9
100
AcDbLine
 10
-433.7026235219594
 20
55.06721290382188
 30
0.0
 11
-433.7026235219594
 21
-19.93266337626679
 31
0.0
  0
LINE
  5
EF
330
1F
100
AcDbEntity
  8
1-1ﾚｲﾔ
  6
Continuous
 62
     3
370
     9
100
AcDbLine
 10
-443.2025187724345
 20
53.56748013883035
 30
0.0
 11
-443.2025187724345
 21
-19.93266337626679
 31
0.0
  0
LINE
  5
F0
330
1F
100
AcDbEntity
  8
1-1ﾚｲﾔ
  6
Continuous
 62
     3
370
     9
100
AcDbLine
 10
-441.702786007443
 20
55.06721290382188
 30
0.0
 11
-441.702786007443
 21
-19.93266337626679
 31
0.0
  0
LINE
  5
F1
330
1F
100
AcDbEntity
  8
1-1ﾚｲﾔ
  6
Continuous
 62
     3
370
     9
100
AcDbLine
 10
-446.2024173221072
 20
-91.43299824482682
 30
0.0
 11
-446.2024173221072
 21
-19.93266337626679
 31
0.0
  0
LINE
  5
F2
330
1F
100
AcDbEntity
  8
1-1ﾚｲﾔ
  6
Continuous
 62
     3
370
     9
100
AcDbLine
 10
-444.70262269716
 20
-92.93273100981835
 30
0.0
 11
-444.70262269716
 21
-19.93266337626679
 31
0.0
  0
LINE
  5
F3
330
1F
100
AcDbEntity
  8
1-1ﾚｲﾔ
  6
Continuous
 62
     3
370
     9
100
AcDbLine
 10
-429.2029922072952
 20
-91.43299824482682
 30
0.0
 11
-429.2029922072952
 21
-19.93266337626679
 31
0.0
  0
LINE
  5
F4
330
1F
100
AcDbEntity
  8
1-1ﾚｲﾔ
  6
Continuous
 62
     3
370
     9
100
AcDbLine
 10
-430.7027868322424
 20
-92.93273100981835
 30
0.0
 11
-430.7027868322424
 21
-19.93266337626679
 31
0.0
  0
LINE
  5
F5
330
1F
100
AcDbEntity
  8
1-1ﾚｲﾔ
  6
JWW_CENTER1
 62
     3
370
     9
100
AcDbLine
 10
-592.80160439981
 20
-104.9326963682432
 30
0.0
 11
-352.7027027027026
 21
-104.9326963682432
 31
0.0
  0
LINE
  5
F6
330
1F
100
AcDbEntity
  8
1-0ﾚｲﾔ
  6
Continuous
 62
     2
370
     9
100
AcDbLine
 10
539.0770989495356
 20
-388.9327425570101
 30
0.0
 11
542.0770593591641
 21
-386.9326864706503
 31
0.0
  0
LINE
  5
F7
330
1F
100
AcDbEntity
  8
1-0ﾚｲﾔ
  6
Continuous
 62
     2
370
     9
100
AcDbLine
 10
539.9775324641047
 20
-399.0228436444256
 30
0.0
 11
549.0770082216005
 21
-399.9326798722551
 31
0.0
  0
LINE
  5
F8
330
1F
100
AcDbEntity
  8
1-0ﾚｲﾔ
  6
Continuous
 62
     2
370
     9
100
AcDbLine
 10
530.6297508445948
 20
-268.1561279296875
 30
0.0
 11
531.8660839183912
 21
-267.5377758129223
 31
0.0
  0
LINE
  5
F9
330
1F
100
AcDbEntity
  8
1-0ﾚｲﾔ
  6
Continuous
 62
     2
370
     9
100
AcDbLine
 10
534.0769587336359
 20
-263.9602908572635
 30
0.0
 11
534.0769587336359
 21
-246.0891971072635
 31
0.0
  0
LINE
  5
FA
330
1F
100
AcDbEntity
  8
1-0ﾚｲﾔ
  6
Continuous
 62
     2
370
     9
100
AcDbLine
 10
540.1970115867823
 20
-354.0457070840372
 30
0.0
 11
474.0768845016893
 21
-357.9327392578125
 31
0.0
  0
LINE
  5
FB
330
1F
100
AcDbEntity
  8
1-0ﾚｲﾔ
  6
Continuous
 62
     2
370
     9
100
AcDbLine
 10
542.0770593591641
 20
-352.0493625950169
 30
0.0
 11
542.0770593591641
 21
-331.6979320629223
 31
0.0
  0
LINE
  5
FC
330
1F
100
AcDbEntity
  8
1-0ﾚｲﾔ
  6
Continuous
 62
     2
370
     9
100
AcDbLine
 10
542.0770593591641
 20
-376.4983965899493
 30
0.0
 11
542.0770593591641
 21
-386.9326864706503
 31
0.0
  0
LINE
  5
FD
330
1F
100
AcDbEntity
  8
1-0ﾚｲﾔ
  6
Continuous
 62
     2
370
     9
100
AcDbLine
 10
536.5268604175467
 20
-370.5153016786317
 30
0.0
 11
474.0768845016893
 21
-365.9327161634291
 31
0.0
  0
LINE
  5
FE
330
1F
100
AcDbEntity
  8
1-0ﾚｲﾔ
  6
Continuous
 62
     2
370
     9
100
AcDbLine
 10
530.9529072529563
 20
-328.5420845650338
 30
0.0
 11
540.3250616949958
 21
-329.7134646853885
 31
0.0
  0
LINE
  5
FF
330
1F
100
AcDbEntity
  8
1-0ﾚｲﾔ
  6
Continuous
 62
     2
370
     9
100
AcDbLine
 10
549.0770082216005
 20
-319.9326633762669
 30
0.0
 11
530.9981887404984
 21
-321.3598962732263
 31
0.0
  0
LINE
  5
100
330
1F
100
AcDbEntity
  8
1-0ﾚｲﾔ
  6
Continuous
 62
     2
370
     9
100
AcDbLine
 10
534.0769587336359
 20
-328.932544605152
 30
0.0
 11
534.0769587336359
 21
-321.116662927576
 31
0.0
  0
LINE
  5
101
330
1F
100
AcDbEntity
  8
1-1ﾚｲﾔ
  6
Continuous
 62
     3
370
     9
100
AcDbLine
 10
474.0768845016893
 20
-355.9326831714527
 30
0.0
 11
484.0769174936656
 21
-354.9325314083615
 31
0.0
  0
LINE
  5
102
330
1F
100
AcDbEntity
  8
1-1ﾚｲﾔ
  6
Continuous
 62
     3
370
     9
100
AcDbLine
 10
484.0769174936656
 20
-353.6824654244088
 30
0.0
 11
484.0769174936656
 21
-354.9325314083615
 31
0.0
  0
LINE
  5
103
330
1F
100
AcDbEntity
  8
1-1ﾚｲﾔ
  6
Continuous
 62
     3
370
     9
100
AcDbLine
 10
521.0769653320312
 20
-329.9326963682432
 30
0.0
 11
530.0769702808279
 21
-327.9326402818834
 31
0.0
  0
LINE
  5
104
330
1F
100
AcDbEntity
  8
1-1ﾚｲﾔ
  6
Continuous
 62
     3
370
     9
100
AcDbLine
 10
530.0769702808279
 20
-327.9326402818834
 30
0.0
 11
530.0769702808279
 21
-320.9328151393581
 31
0.0
  0
LINE
  5
105
330
1F
100
AcDbEntity
  8
1-1ﾚｲﾔ
  6
Continuous
 62
     3
370
     9
100
AcDbLine
 10
519.5159912109375
 20
-340.9086320206926
 30
0.0
 11
488.7598398569469
 21
-347.8287815403294
 31
0.0
  0
LINE
  5
106
330
1F
100
AcDbEntity
  8
1-1ﾚｲﾔ
  6
Continuous
 62
     3
370
     9
100
AcDbLine
 10
521.0769653320312
 20
-338.9575690192145
 30
0.0
 11
521.0769653320312
 21
-329.9326963682432
 31
0.0
  0
LINE
  5
107
330
1F
100
AcDbEntity
  8
1-1ﾚｲﾔ
  6
Continuous
 62
     3
370
     9
100
AcDbLine
 10
510.1743955869932
 20
-334.8104775918496
 30
0.0
 11
482.5769372888513
 21
-341.0199799408784
 31
0.0
  0
LINE
  5
108
330
1F
100
AcDbEntity
  8
1-1ﾚｲﾔ
  6
Continuous
 62
     3
370
     9
100
AcDbLine
 10
524.2093060467696
 20
-319.6288072740709
 30
0.0
 11
530.0769702808279
 21
-320.9328151393581
 31
0.0
  0
LINE
  5
109
330
1F
100
AcDbEntity
  8
1-1ﾚｲﾔ
  6
Continuous
 62
     3
370
     9
100
AcDbLine
 10
514.0770164695948
 20
-289.9330592799831
 30
0.0
 11
524.0769257416596
 21
-252.6127005912162
 31
0.0
  0
LINE
  5
10A
330
1F
100
AcDbEntity
  8
1-1ﾚｲﾔ
  6
Continuous
 62
     3
370
     9
100
AcDbLine
 10
521.0769653320312
 20
-288.9225150443412
 30
0.0
 11
538.5770230679898
 21
-223.6117636190878
 31
0.0
  0
LINE
  5
10B
330
1F
100
AcDbEntity
  8
1-1ﾚｲﾔ
  6
JWW_CENTER1
 62
     3
370
     9
100
AcDbLine
 10
496.9823888830237
 20
-104.9326963682432
 30
0.0
 11
558.4204596442146
 21
-104.9326963682432
 31
0.0
  0
LINE
  5
10C
330
1F
100
AcDbEntity
  8
1-1ﾚｲﾔ
  6
Continuous
 62
     3
370
     9
100
AcDbLine
 10
524.0769257416596
 20
-115.5998271220439
 30
0.0
 11
524.0769257416596
 21
-252.6127005912162
 31
0.0
  0
LINE
  5
10D
330
1F
100
AcDbEntity
  8
1-1ﾚｲﾔ
  6
Continuous
 62
     3
370
     9
100
AcDbLine
 10
530.5770461623734
 20
-117.582067541174
 30
0.0
 11
530.5770461623734
 21
-253.4681000580659
 31
0.0
  0
LINE
  5
10E
330
1F
100
AcDbEntity
  8
1-1ﾚｲﾔ
  6
Continuous
 62
     3
370
     9
100
AcDbLine
 10
514.9285806191936
 20
-109.0603637695312
 30
0.0
 11
518.9670459644217
 21
-109.6660964553421
 31
0.0
  0
LINE
  5
10F
330
1F
100
AcDbEntity
  8
1-1ﾚｲﾔ
  6
Continuous
 62
     3
370
     9
100
AcDbLine
 10
537.761213972762
 20
-112.0855630410684
 30
0.0
 11
534.6555967588682
 21
-112.6677889437288
 31
0.0
  0
LINE
  5
110
330
1F
100
AcDbEntity
  8
1-1ﾚｲﾔ
  6
Continuous
 62
     3
370
     9
100
AcDbLine
 10
514.9285806191936
 20
-100.8049052470439
 30
0.0
 11
518.9670459644217
 21
-100.1991725612331
 31
0.0
  0
LINE
  5
111
330
1F
100
AcDbEntity
  8
1-1ﾚｲﾔ
  6
Continuous
 62
     3
370
     9
100
AcDbLine
 10
537.761213972762
 20
-97.77970597550677
 30
0.0
 11
534.6555967588682
 21
-97.19748007284622
 31
0.0
  0
LINE
  5
112
330
1F
100
AcDbEntity
  8
1-1ﾚｲﾔ
  6
JWW_CENTER1
 62
     3
370
     9
100
AcDbLine
 10
452.3016852301521
 20
-19.93266337626679
 30
0.0
 11
578.4201544684333
 21
-19.93266337626679
 31
0.0
  0
LINE
  5
113
330
1F
100
AcDbEntity
  8
1-1ﾚｲﾔ
  6
Continuous
 62
     3
370
     9
100
AcDbLine
 10
-273.2025765083931
 20
53.56748013883035
 30
0.0
 11
-273.2025765083931
 21
-19.93266337626679
 31
0.0
  0
LINE
  5
114
330
1F
100
AcDbEntity
  8
1-1ﾚｲﾔ
  6
Continuous
 62
     3
370
     9
100
AcDbLine
 10
-271.7027818834459
 20
55.06721290382188
 30
0.0
 11
-271.7027818834459
 21
-19.93266337626679
 31
0.0
  0
LINE
  5
115
330
1F
100
AcDbEntity
  8
1-1ﾚｲﾔ
  6
Continuous
 62
     3
370
     9
100
AcDbLine
 10
-262.2028866329708
 20
53.56748013883035
 30
0.0
 11
-262.2028866329708
 21
-19.93266337626679
 31
0.0
  0
LINE
  5
116
330
1F
100
AcDbEntity
  8
1-1ﾚｲﾔ
  6
Continuous
 62
     3
370
     9
100
AcDbLine
 10
-263.7026193979624
 20
55.06721290382188
 30
0.0
 11
-263.7026193979624
 21
-19.93266337626679
 31
0.0
  0
LINE
  5
117
330
1F
100
AcDbEntity
  8
1-1ﾚｲﾔ
  6
Continuous
 62
     3
370
     9
100
AcDbLine
 10
-259.202988083298
 20
-91.43299824482682
 30
0.0
 11
-259.202988083298
 21
-19.93266337626679
 31
0.0
  0
LINE
  5
118
330
1F
100
AcDbEntity
  8
1-1ﾚｲﾔ
  6
Continuous
 62
     3
370
     9
100
AcDbLine
 10
-260.7027827082453
 20
-92.93273100981835
 30
0.0
 11
-260.7027827082453
 21
-19.93266337626679
 31
0.0
  0
LINE
  5
119
330
1F
100
AcDbEntity
  8
1-1ﾚｲﾔ
  6
Continuous
 62
     3
370
     9
100
AcDbLine
 10
-276.2024131981102
 20
-91.43299824482682
 30
0.0
 11
-276.2024131981102
 21
-19.93266337626679
 31
0.0
  0
LINE
  5
11A
330
1F
100
AcDbEntity
  8
1-1ﾚｲﾔ
  6
Continuous
 62
     3
370
     9
100
AcDbLine
 10
-274.702618573163
 20
-92.93273100981835
 30
0.0
 11
-274.702618573163
 21
-19.93266337626679
 31
0.0
  0
LINE
  5
11B
330
1F
100
AcDbEntity
  8
1-1ﾚｲﾔ
  6
JWW_CENTER1
 62
     3
370
     9
100
AcDbLine
 10
-112.6038010055954
 20
-104.9326963682432
 30
0.0
 11
-352.7027027027026
 21
-104.9326963682432
 31
0.0
  0
LINE
  5
11C
330
1F
100
AcDbEntity
  8
1-1ﾚｲﾔ
  6
Continuous
 62
     3
370
     9
100
AcDbLine
 10
-424.2030375712626
 20
-96.43289102090364
 30
0.0
 11
-281.2023678341427
 21
-96.43289102090364
 31
0.0
  0
LINE
  5
11D
330
1F
100
AcDbEntity
  8
1-1ﾚｲﾔ
  6
Continuous
 62
     3
370
     9
100
AcDbLine
 10
-425.7027703362542
 20
-97.9327475058065
 30
0.0
 11
-279.7026350691511
 21
-97.9327475058065
 31
0.0
  0
LINE
  5
11E
330
1F
100
AcDbEntity
  8
1-1ﾚｲﾔ
  6
Continuous
 62
     3
370
     9
100
AcDbLine
 10
-424.2030375712626
 20
-113.4322542757601
 30
0.0
 11
-281.2023678341427
 21
-113.4322542757601
 31
0.0
  0
LINE
  5
11F
330
1F
100
AcDbEntity
  8
1-1ﾚｲﾔ
  6
Continuous
 62
     3
370
     9
100
AcDbLine
 10
-425.7027703362542
 20
-111.9325215107686
 30
0.0
 11
-279.7026350691511
 21
-111.9325215107686
 31
0.0
  0
LINE
  5
120
330
1F
100
AcDbEntity
  8
1-1ﾚｲﾔ
  6
Continuous
 62
     3
370
     9
100
AcDbLine
 10
-426.2028462177998
 20
70.56721455342071
 30
0.0
 11
-279.2025591876056
 21
70.56721455342071
 31
0.0
  0
LINE
  5
121
330
1F
100
AcDbEntity
  8
1-1ﾚｲﾔ
  6
Continuous
 62
     3
370
     9
100
AcDbLine
 10
-427.7025789827914
 20
69.06735806851785
 30
0.0
 11
-277.702826422614
 21
69.06735806851785
 31
0.0
  0
LINE
  5
122
330
1F
100
AcDbEntity
  8
1-1ﾚｲﾔ
  6
Continuous
 62
     3
370
     9
100
AcDbLine
 10
-426.2028462177998
 20
59.56752467799831
 30
0.0
 11
-279.2025591876056
 21
59.56752467799831
 31
0.0
  0
LINE
  5
123
330
1F
100
AcDbEntity
  8
1-1ﾚｲﾔ
  6
Continuous
 62
     3
370
     9
100
AcDbLine
 10
-427.7025789827914
 20
61.06725744298984
 30
0.0
 11
-277.702826422614
 21
61.06725744298984
 31
0.0
  0
LINE
  5
124
330
1F
100
AcDbEntity
  8
1-3ﾚｲﾔ
  6
Continuous
 62
     7
370
     9
100
AcDbLine
 10
542.0768119193415
 20
-351.2743810705236
 30
0.0
 11
519.5768614073057
 21
-351.274133630701
 31
0.0
  0
LINE
  5
125
330
1F
100
AcDbEntity
  8
1-3ﾚｲﾔ
  6
Continuous
 62
     7
370
     9
100
AcDbLine
 10
542.0768119193415
 20
-331.2740676467483
 30
0.0
 11
542.0768119193415
 21
-351.2743810705236
 31
0.0
  0
LINE
  5
126
330
1F
100
AcDbEntity
  8
1-3ﾚｲﾔ
  6
Continuous
 62
     7
370
     9
100
AcDbLine
 10
541.5769834776182
 20
-331.2740676467483
 30
0.0
 11
541.5769834776182
 21
-351.2743810705236
 31
0.0
  0
LINE
  5
127
330
1F
100
AcDbEntity
  8
1-3ﾚｲﾔ
  6
Continuous
 62
     7
370
     9
100
AcDbLine
 10
519.5768614073057
 20
-351.274133630701
 30
0.0
 11
519.5768614073057
 21
-340.9086320206926
 31
0.0
  0
LINE
  5
128
330
1F
100
AcDbEntity
  8
1-3ﾚｲﾔ
  6
Continuous
 62
     7
370
     9
100
AcDbLine
 10
521.0769653320312
 20
-331.2740676467483
 30
0.0
 11
542.0768119193415
 21
-331.2740676467483
 31
0.0
  0
LINE
  5
129
330
1F
100
AcDbEntity
  8
1-3ﾚｲﾔ
  6
Continuous
 62
     7
370
     9
100
AcDbLine
 10
541.5769834776182
 20
-332.170789563978
 30
0.0
 11
540.6801378404773
 21
-331.2740676467483
 31
0.0
  0
LINE
  5
12A
330
1F
100
AcDbEntity
  8
1-3ﾚｲﾔ
  6
Continuous
 62
     7
370
     9
100
AcDbLine
 10
541.5769834776182
 20
-338.534694362331
 30
0.0
 11
534.3162330421242
 21
-331.2740676467483
 31
0.0
  0
LINE
  5
12B
330
1F
100
AcDbEntity
  8
1-3ﾚｲﾔ
  6
Continuous
 62
     7
370
     9
100
AcDbLine
 10
541.5769834776182
 20
-344.8985991606841
 30
0.0
 11
527.952328243771
 21
-331.2743150865709
 31
0.0
  0
LINE
  5
12C
330
1F
100
AcDbEntity
  8
1-3ﾚｲﾔ
  6
Continuous
 62
     7
370
     9
100
AcDbLine
 10
541.5769834776182
 20
-351.2627513988598
 30
0.0
 11
521.5882997255068
 21
-331.2740676467483
 31
0.0
  0
LINE
  5
12D
330
1F
100
AcDbEntity
  8
1-3ﾚｲﾔ
  6
Continuous
 62
     7
370
     9
100
AcDbLine
 10
535.2244609111065
 20
-351.274133630701
 30
0.0
 11
521.0769653320312
 21
-337.1265143317145
 31
0.0
  0
LINE
  5
12E
330
1F
100
AcDbEntity
  8
1-3ﾚｲﾔ
  6
Continuous
 62
     7
370
     9
100
AcDbLine
 10
528.8605561127533
 20
-351.274133630701
 30
0.0
 11
519.5768614073057
 21
-341.990686365076
 31
0.0
  0
LINE
  5
12F
330
1F
100
AcDbEntity
  8
1-3ﾚｲﾔ
  6
Continuous
 62
     7
370
     9
100
AcDbLine
 10
522.4966513144005
 20
-351.274133630701
 30
0.0
 11
519.5768614073057
 21
-348.3545911634291
 31
0.0
  0
LINE
  5
130
330
1F
100
AcDbEntity
  8
1-3ﾚｲﾔ
  6
Continuous
 62
     7
370
     9
100
AcDbLine
 10
540.5763368348818
 20
-351.274133630701
 30
0.0
 11
541.5769834776182
 21
-350.2737344277872
 31
0.0
  0
LINE
  5
131
330
1F
100
AcDbEntity
  8
1-3ﾚｲﾔ
  6
Continuous
 62
     7
370
     9
100
AcDbLine
 10
534.212432036529
 20
-351.274133630701
 30
0.0
 11
541.5769834776182
 21
-343.9098296294341
 31
0.0
  0
LINE
  5
132
330
1F
100
AcDbEntity
  8
1-3ﾚｲﾔ
  6
Continuous
 62
     7
370
     9
100
AcDbLine
 10
527.8485272381758
 20
-351.274133630701
 30
0.0
 11
541.5769834776182
 21
-337.5456773912584
 31
0.0
  0
LINE
  5
133
330
1F
100
AcDbEntity
  8
1-3ﾚｲﾔ
  6
Continuous
 62
     7
370
     9
100
AcDbLine
 10
521.484375
 20
-351.274133630701
 30
0.0
 11
541.4844409839529
 21
-331.2740676467483
 31
0.0
  0
LINE
  5
134
330
1F
100
AcDbEntity
  8
1-3ﾚｲﾔ
  6
Continuous
 62
     7
370
     9
100
AcDbLine
 10
519.5768614073057
 20
-346.8177424250422
 30
0.0
 11
535.1205361855998
 21
-331.2740676467483
 31
0.0
  0
LINE
  5
135
330
1F
100
AcDbEntity
  8
1-3ﾚｲﾔ
  6
Continuous
 62
     7
370
     9
100
AcDbLine
 10
521.0769653320312
 20
-338.9536099820523
 30
0.0
 11
528.756383947424
 21
-331.2743150865709
 31
0.0
  0
LINE
  5
136
330
1F
100
AcDbEntity
  8
1-3ﾚｲﾔ
  6
Continuous
 62
     7
370
     9
100
AcDbLine
 10
521.0769653320312
 20
-332.5897051836993
 30
0.0
 11
522.392479149071
 21
-331.2740676467483
 31
0.0
  0
LINE
  5
137
330
1F
100
AcDbEntity
  8
1-0ﾚｲﾔ
  6
Continuous
 62
     2
370
     9
100
AcDbLine
 10
539.0770989495356
 20
349.0674158044765
 30
0.0
 11
542.0770593591641
 21
347.0672359982053
 31
0.0
  0
LINE
  5
138
330
1F
100
AcDbEntity
  8
1-0ﾚｲﾔ
  6
Continuous
 62
     2
370
     9
100
AcDbLine
 10
539.9775324641047
 20
359.1573931719806
 30
0.0
 11
549.0770082216005
 21
360.0673531197214
 31
0.0
  0
LINE
  5
139
330
1F
100
AcDbEntity
  8
1-0ﾚｲﾔ
  6
Continuous
 62
     2
370
     9
100
AcDbLine
 10
530.6297508445948
 20
228.2908011771538
 30
0.0
 11
531.8660839183912
 21
227.6725727802999
 31
0.0
  0
LINE
  5
13A
330
1F
100
AcDbEntity
  8
1-0ﾚｲﾔ
  6
Continuous
 62
     2
370
     9
100
AcDbLine
 10
534.0769587336359
 20
224.0949641047298
 30
0.0
 11
534.0769587336359
 21
206.2238703547298
 31
0.0
  0
LINE
  5
13B
330
1F
100
AcDbEntity
  8
1-0ﾚｲﾔ
  6
Continuous
 62
     2
370
     9
100
AcDbLine
 10
540.1970115867823
 20
314.1803803315034
 30
0.0
 11
474.0768845016893
 21
318.0672887853675
 31
0.0
  0
LINE
  5
13C
330
1F
100
AcDbEntity
  8
1-0ﾚｲﾔ
  6
Continuous
 62
     2
370
     9
100
AcDbLine
 10
542.0770593591641
 20
312.1840358424832
 30
0.0
 11
542.0770593591641
 21
291.8327290302999
 31
0.0
  0
LINE
  5
13D
330
1F
100
AcDbEntity
  8
1-0ﾚｲﾔ
  6
Continuous
 62
     2
370
     9
100
AcDbLine
 10
542.0770593591641
 20
336.6330698374156
 30
0.0
 11
542.0770593591641
 21
347.0672359982053
 31
0.0
  0
LINE
  5
13E
330
1F
100
AcDbEntity
  8
1-0ﾚｲﾔ
  6
Continuous
 62
     2
370
     9
100
AcDbLine
 10
536.5268604175467
 20
330.6500986460094
 30
0.0
 11
474.0768845016893
 21
326.0673894108953
 31
0.0
  0
LINE
  5
13F
330
1F
100
AcDbEntity
  8
1-0ﾚｲﾔ
  6
Continuous
 62
     2
370
     9
100
AcDbLine
 10
530.9529072529563
 20
288.6766340925886
 30
0.0
 11
540.3250616949958
 21
289.8480142129435
 31
0.0
  0
LINE
  5
140
330
1F
100
AcDbEntity
  8
1-0ﾚｲﾔ
  6
Continuous
 62
     2
370
     9
100
AcDbLine
 10
549.0770082216005
 20
280.0672129038219
 30
0.0
 11
530.9981887404984
 21
281.4944458007812
 31
0.0
  0
LINE
  5
141
330
1F
100
AcDbEntity
  8
1-0ﾚｲﾔ
  6
Continuous
 62
     2
370
     9
100
AcDbLine
 10
534.0769587336359
 20
289.067094132707
 30
0.0
 11
534.0769587336359
 21
281.2514598949537
 31
0.0
  0
LINE
  5
142
330
1F
100
AcDbEntity
  8
1-1ﾚｲﾔ
  6
Continuous
 62
     3
370
     9
100
AcDbLine
 10
474.0768845016893
 20
316.067356418919
 30
0.0
 11
484.0769174936656
 21
315.0673283757391
 31
0.0
  0
LINE
  5
143
330
1F
100
AcDbEntity
  8
1-1ﾚｲﾔ
  6
Continuous
 62
     3
370
     9
100
AcDbLine
 10
484.0769174936656
 20
313.8172623917864
 30
0.0
 11
484.0769174936656
 21
315.0673283757391
 31
0.0
  0
LINE
  5
144
330
1F
100
AcDbEntity
  8
1-1ﾚｲﾔ
  6
Continuous
 62
     3
370
     9
100
AcDbLine
 10
521.0769653320312
 20
290.0672458957982
 30
0.0
 11
530.0769702808279
 21
288.0673135293497
 31
0.0
  0
LINE
  5
145
330
1F
100
AcDbEntity
  8
1-1ﾚｲﾔ
  6
Continuous
 62
     3
370
     9
100
AcDbLine
 10
530.0769702808279
 20
288.0673135293497
 30
0.0
 11
530.0769702808279
 21
281.0674883868244
 31
0.0
  0
LINE
  5
146
330
1F
100
AcDbEntity
  8
1-1ﾚｲﾔ
  6
Continuous
 62
     3
370
     9
100
AcDbLine
 10
519.5159912109375
 20
301.0433052681589
 30
0.0
 11
488.7598398569469
 21
307.9634547877957
 31
0.0
  0
LINE
  5
147
330
1F
100
AcDbEntity
  8
1-1ﾚｲﾔ
  6
Continuous
 62
     3
370
     9
100
AcDbLine
 10
521.0769653320312
 20
299.0921185467695
 30
0.0
 11
521.0769653320312
 21
290.0672458957982
 31
0.0
  0
LINE
  5
148
330
1F
100
AcDbEntity
  8
1-1ﾚｲﾔ
  6
Continuous
 62
     3
370
     9
100
AcDbLine
 10
510.1743955869932
 20
294.9452745592272
 30
0.0
 11
482.5769372888513
 21
301.1546531883447
 31
0.0
  0
LINE
  5
149
330
1F
100
AcDbEntity
  8
1-1ﾚｲﾔ
  6
Continuous
 62
     3
370
     9
100
AcDbLine
 10
524.2093060467696
 20
279.7634805215372
 30
0.0
 11
530.0769702808279
 21
281.0674883868244
 31
0.0
  0
LINE
  5
14A
330
1F
100
AcDbEntity
  8
1-1ﾚｲﾔ
  6
Continuous
 62
     3
370
     9
100
AcDbLine
 10
514.0770164695948
 20
250.0677325274494
 30
0.0
 11
524.0769257416596
 21
212.7472501187712
 31
0.0
  0
LINE
  5
14B
330
1F
100
AcDbEntity
  8
1-1ﾚｲﾔ
  6
Continuous
 62
     3
370
     9
100
AcDbLine
 10
521.0769653320312
 20
249.0571882918074
 30
0.0
 11
538.5770230679898
 21
183.7463131466428
 31
0.0
  0
LINE
  5
14C
330
1F
100
AcDbEntity
  8
1-1ﾚｲﾔ
  6
JWW_CENTER1
 62
     3
370
     9
100
AcDbLine
 10
496.9823888830237
 20
65.06736961570951
 30
0.0
 11
558.4204596442146
 21
65.06736961570951
 31
0.0
  0
LINE
  5
14D
330
1F
100
AcDbEntity
  8
1-1ﾚｲﾔ
  6
Continuous
 62
     3
370
     9
100
AcDbLine
 10
524.0769257416596
 20
75.73450036951016
 30
0.0
 11
524.0769257416596
 21
212.7472501187712
 31
0.0
  0
LINE
  5
14E
330
1F
100
AcDbEntity
  8
1-1ﾚｲﾔ
  6
Continuous
 62
     3
370
     9
100
AcDbLine
 10
530.5770461623734
 20
77.71674078864024
 30
0.0
 11
530.5770461623734
 21
213.6027733055322
 31
0.0
  0
LINE
  5
14F
330
1F
100
AcDbEntity
  8
1-1ﾚｲﾔ
  6
Continuous
 62
     3
370
     9
100
AcDbLine
 10
514.9285806191936
 20
69.19503701699753
 30
0.0
 11
518.9670459644217
 21
69.80076970280834
 31
0.0
  0
LINE
  5
150
330
1F
100
AcDbEntity
  8
1-1ﾚｲﾔ
  6
Continuous
 62
     3
370
     9
100
AcDbLine
 10
537.761213972762
 20
72.22023628853464
 30
0.0
 11
534.6555967588682
 21
72.80246219119519
 31
0.0
  0
LINE
  5
151
330
1F
100
AcDbEntity
  8
1-1ﾚｲﾔ
  6
Continuous
 62
     3
370
     9
100
AcDbLine
 10
514.9285806191936
 20
60.93957849451016
 30
0.0
 11
518.9670459644217
 21
60.33384580869935
 31
0.0
  0
LINE
  5
152
330
1F
100
AcDbEntity
  8
1-1ﾚｲﾔ
  6
Continuous
 62
     3
370
     9
100
AcDbLine
 10
537.761213972762
 20
57.91437922297305
 30
0.0
 11
534.6555967588682
 21
57.3321533203125
 31
0.0
  0
LINE
  5
153
330
1F
100
AcDbEntity
  8
1-3ﾚｲﾔ
  6
Continuous
 62
     7
370
     9
100
AcDbLine
 10
542.0768119193415
 20
311.4089305980787
 30
0.0
 11
519.5768614073057
 21
311.4088068781673
 31
0.0
  0
LINE
  5
154
330
1F
100
AcDbEntity
  8
1-3ﾚｲﾔ
  6
Continuous
 62
     7
370
     9
100
AcDbLine
 10
542.0768119193415
 20
291.4088646141259
 30
0.0
 11
542.0768119193415
 21
311.4089305980787
 31
0.0
  0
LINE
  5
155
330
1F
100
AcDbEntity
  8
1-3ﾚｲﾔ
  6
Continuous
 62
     7
370
     9
100
AcDbLine
 10
541.5769834776182
 20
291.4088646141259
 30
0.0
 11
541.5769834776182
 21
311.4089305980787
 31
0.0
  0
LINE
  5
156
330
1F
100
AcDbEntity
  8
1-3ﾚｲﾔ
  6
Continuous
 62
     7
370
     9
100
AcDbLine
 10
519.5768614073057
 20
311.4088068781673
 30
0.0
 11
519.5768614073057
 21
301.0433052681589
 31
0.0
  0
LINE
  5
157
330
1F
100
AcDbEntity
  8
1-3ﾚｲﾔ
  6
Continuous
 62
     7
370
     9
100
AcDbLine
 10
521.0769653320312
 20
291.4087408942146
 30
0.0
 11
542.0768119193415
 21
291.4088646141259
 31
0.0
  0
LINE
  5
158
330
1F
100
AcDbEntity
  8
1-3ﾚｲﾔ
  6
Continuous
 62
     7
370
     9
100
AcDbLine
 10
541.5769834776182
 20
292.3055865313556
 30
0.0
 11
540.6801378404773
 21
291.4088646141259
 31
0.0
  0
LINE
  5
159
330
1F
100
AcDbEntity
  8
1-3ﾚｲﾔ
  6
Continuous
 62
     7
370
     9
100
AcDbLine
 10
541.5769834776182
 20
298.6693676097974
 30
0.0
 11
534.3162330421242
 21
291.4088646141259
 31
0.0
  0
LINE
  5
15A
330
1F
100
AcDbEntity
  8
1-3ﾚｲﾔ
  6
Continuous
 62
     7
370
     9
100
AcDbLine
 10
541.5769834776182
 20
305.0333961280617
 30
0.0
 11
527.952328243771
 21
291.4088646141259
 31
0.0
  0
LINE
  5
15B
330
1F
100
AcDbEntity
  8
1-3ﾚｲﾔ
  6
Continuous
 62
     7
370
     9
100
AcDbLine
 10
541.5769834776182
 20
311.397424646326
 30
0.0
 11
521.5882997255068
 21
291.4087408942146
 31
0.0
  0
LINE
  5
15C
330
1F
100
AcDbEntity
  8
1-3ﾚｲﾔ
  6
Continuous
 62
     7
370
     9
100
AcDbLine
 10
535.2244609111065
 20
311.4089305980787
 30
0.0
 11
521.0769653320312
 21
297.2611875791808
 31
0.0
  0
LINE
  5
15D
330
1F
100
AcDbEntity
  8
1-3ﾚｲﾔ
  6
Continuous
 62
     7
370
     9
100
AcDbLine
 10
528.8605561127533
 20
311.4089305980787
 30
0.0
 11
519.5768614073057
 21
302.1253596125423
 31
0.0
  0
LINE
  5
15E
330
1F
100
AcDbEntity
  8
1-3ﾚｲﾔ
  6
Continuous
 62
     7
370
     9
100
AcDbLine
 10
522.4966513144005
 20
311.4088068781673
 30
0.0
 11
519.5768614073057
 21
308.4892644108953
 31
0.0
  0
LINE
  5
15F
330
1F
100
AcDbEntity
  8
1-3ﾚｲﾔ
  6
Continuous
 62
     7
370
     9
100
AcDbLine
 10
540.5763368348818
 20
311.4089305980787
 30
0.0
 11
541.5769834776182
 21
310.4085313951647
 31
0.0
  0
LINE
  5
160
330
1F
100
AcDbEntity
  8
1-3ﾚｲﾔ
  6
Continuous
 62
     7
370
     9
100
AcDbLine
 10
534.212432036529
 20
311.4089305980787
 30
0.0
 11
541.5769834776182
 21
304.0445028769004
 31
0.0
  0
LINE
  5
161
330
1F
100
AcDbEntity
  8
1-3ﾚｲﾔ
  6
Continuous
 62
     7
370
     9
100
AcDbLine
 10
527.8485272381758
 20
311.4089305980787
 30
0.0
 11
541.5769834776182
 21
297.680474358636
 31
0.0
  0
LINE
  5
162
330
1F
100
AcDbEntity
  8
1-3ﾚｲﾔ
  6
Continuous
 62
     7
370
     9
100
AcDbLine
 10
521.484375
 20
311.4089305980787
 30
0.0
 11
541.4844409839529
 21
291.4088646141259
 31
0.0
  0
LINE
  5
163
330
1F
100
AcDbEntity
  8
1-3ﾚｲﾔ
  6
Continuous
 62
     7
370
     9
100
AcDbLine
 10
519.5768614073057
 20
306.9524156725084
 30
0.0
 11
535.1205361855998
 21
291.4088646141259
 31
0.0
  0
LINE
  5
164
330
1F
100
AcDbEntity
  8
1-3ﾚｲﾔ
  6
Continuous
 62
     7
370
     9
100
AcDbLine
 10
521.0769653320312
 20
299.0882832295187
 30
0.0
 11
528.756383947424
 21
291.4088646141259
 31
0.0
  0
LINE
  5
165
330
1F
100
AcDbEntity
  8
1-3ﾚｲﾔ
  6
Continuous
 62
     7
370
     9
100
AcDbLine
 10
521.0769653320312
 20
292.7243784311656
 30
0.0
 11
522.392479149071
 21
291.4088646141259
 31
0.0
  0
LINE
  5
166
330
1F
100
AcDbEntity
  8
1-0ﾚｲﾔ
  6
Continuous
 62
     2
370
     9
100
AcDbLine
 10
474.0768845016893
 20
-365.9327161634291
 30
0.0
 11
474.0768845016893
 21
326.0673894108953
 31
0.0
  0
LINE
  5
167
330
1F
100
AcDbEntity
  8
1-0ﾚｲﾔ
  6
Continuous
 62
     2
370
     9
100
AcDbLine
 10
549.0770082216005
 20
-399.9326798722551
 30
0.0
 11
549.0770082216005
 21
360.0673531197214
 31
0.0
  0
LINE
  5
168
330
1F
100
AcDbEntity
  8
1-1ﾚｲﾔ
  6
Continuous
 62
     3
370
     9
100
AcDbLine
 10
474.0768845016893
 20
-355.9326831714527
 30
0.0
 11
474.0768845016893
 21
316.067356418919
 31
0.0
  0
LINE
  5
169
330
1F
100
AcDbEntity
  8
1-1ﾚｲﾔ
  6
Continuous
 62
     3
370
     9
100
AcDbLine
 10
524.0769257416596
 20
-94.26544189453125
 30
0.0
 11
524.0769257416596
 21
54.40011514199753
 31
0.0
  0
LINE
  5
16A
330
1F
100
AcDbEntity
  8
1-1ﾚｲﾔ
  6
Continuous
 62
     3
370
     9
100
AcDbLine
 10
530.5770461623734
 20
-92.28320147540117
 30
0.0
 11
530.5770461623734
 21
52.41787472286745
 31
0.0
  0
LINE
  5
16B
330
1F
100
AcDbEntity
  8
1-1ﾚｲﾔ
  6
Continuous
 62
     3
370
     9
100
AcDbLine
 10
538.5770230679898
 20
-223.6117636190878
 30
0.0
 11
538.5770230679898
 21
183.7463131466428
 31
0.0
  0
LINE
  5
16C
330
1F
100
AcDbEntity
  8
1-0ﾚｲﾔ
  6
Continuous
 62
     2
370
     9
100
AcDbLine
 10
539.0770989495356
 20
-372.1642406566723
 30
0.0
 11
539.0770989495356
 21
-398.0276406777872
 31
0.0
  0
LINE
  5
16D
330
1F
100
AcDbEntity
  8
1-1ﾚｲﾔ
  6
JWW_CENTER1
 62
     3
370
     9
100
AcDbLine
 10
-352.7027027027026
 20
423.297011916702
 30
0.0
 11
-352.7027027027026
 21
-445.5932452227619
 31
0.0
  0
LINE
  5
16E
330
1F
100
AcDbEntity
  8
1-1ﾚｲﾔ
  6
JWW_CENTER1
 62
     3
370
     9
100
AcDbLine
 10
-791.0616488070102
 20
-19.93266337626679
 30
0.0
 11
85.65624340160483
 21
-19.93266337626679
 31
0.0
  0
LINE
  5
16F
330
1F
100
AcDbEntity
  8
1-0ﾚｲﾔ
  6
Continuous
 62
     2
370
     9
100
AcDbLine
 10
530.0769702808279
 20
229.1851724160685
 30
0.0
 11
530.0769702808279
 21
287.6842766839105
 31
0.0
  0
LINE
  5
170
330
1F
100
AcDbEntity
  8
1-0ﾚｲﾔ
  6
Continuous
 62
     2
370
     9
100
AcDbLine
 10
530.0769702808279
 20
-269.0503754486909
 30
0.0
 11
530.0769702808279
 21
-327.5496034364442
 31
0.0
  0
LINE
  5
171
330
1F
100
AcDbEntity
  8
1-0ﾚｲﾔ
  6
JWW_DASHED1
 62
     2
370
     9
100
AcDbLine
 10
542.0770593591641
 20
-331.7224286053631
 30
0.0
 11
542.0770593591641
 21
-19.93266337626679
 31
0.0
  0
LINE
  5
172
330
1F
100
AcDbEntity
  8
1-1ﾚｲﾔ
  6
Continuous
 62
     3
370
     9
100
AcDbLine
 10
-257.70263671875
 20
69.06735806851785
 30
0.0
 11
-97.79254810230142
 21
69.06735806851785
 31
0.0
  0
LINE
  5
173
330
1F
100
AcDbEntity
  8
1-1ﾚｲﾔ
  6
Continuous
 62
     3
370
     9
100
AcDbLine
 10
-257.70263671875
 20
61.06725744298984
 30
0.0
 11
-95.13869414458398
 21
61.06725744298984
 31
0.0
  0
LINE
  5
174
330
1F
100
AcDbEntity
  8
1-1ﾚｲﾔ
  6
Continuous
 62
     3
370
     9
100
AcDbLine
 10
-256.2028420938027
 20
70.56721455342071
 30
0.0
 11
-138.3437285552154
 21
70.56721455342071
 31
0.0
  0
LINE
  5
175
330
1F
100
AcDbEntity
  8
1-1ﾚｲﾔ
  6
Continuous
 62
     3
370
     9
100
AcDbLine
 10
-256.2028420938027
 20
59.56752467799831
 30
0.0
 11
-134.0255943504539
 21
59.56752467799831
 31
0.0
  0
LINE
  5
176
330
1F
100
AcDbEntity
  8
1-1ﾚｲﾔ
  6
Continuous
 62
     3
370
     9
100
AcDbLine
 10
-138.3437285552154
 20
70.56721455342071
 30
0.0
 11
-97.79254810230142
 21
69.06735806851785
 31
0.0
  0
LINE
  5
177
330
1F
100
AcDbEntity
  8
1-1ﾚｲﾔ
  6
Continuous
 62
     3
370
     9
100
AcDbLine
 10
-134.0255943504539
 20
59.56752467799831
 30
0.0
 11
-95.13869414458398
 21
61.06725744298984
 31
0.0
  0
LINE
  5
178
330
1F
100
AcDbEntity
  8
1-1ﾚｲﾔ
  6
Continuous
 62
     3
370
     9
100
AcDbLine
 10
-263.7026193979624
 20
75.0674026076858
 30
0.0
 11
-263.7026193979624
 21
234.9774912241344
 31
0.0
  0
LINE
  5
179
330
1F
100
AcDbEntity
  8
1-1ﾚｲﾔ
  6
Continuous
 62
     3
370
     9
100
AcDbLine
 10
-271.7027818834459
 20
75.0674026076858
 30
0.0
 11
-271.7027818834459
 21
237.6312833218962
 31
0.0
  0
LINE
  5
17A
330
1F
100
AcDbEntity
  8
1-1ﾚｲﾔ
  6
Continuous
 62
     3
370
     9
100
AcDbLine
 10
-262.2028866329708
 20
76.56725909258867
 30
0.0
 11
-262.2028866329708
 21
194.4261870513091
 31
0.0
  0
LINE
  5
17B
330
1F
100
AcDbEntity
  8
1-1ﾚｲﾔ
  6
Continuous
 62
     3
370
     9
100
AcDbLine
 10
-273.2025765083931
 20
76.56725909258867
 30
0.0
 11
-273.2025765083931
 21
198.7443831160262
 31
0.0
  0
LINE
  5
17C
330
1F
100
AcDbEntity
  8
1-1ﾚｲﾔ
  6
Continuous
 62
     3
370
     9
100
AcDbLine
 10
-263.7026193979624
 20
234.9774912241344
 30
0.0
 11
-262.2028866329708
 21
194.4261870513091
 31
0.0
  0
LINE
  5
17D
330
1F
100
AcDbEntity
  8
1-1ﾚｲﾔ
  6
Continuous
 62
     3
370
     9
100
AcDbLine
 10
-273.2025765083931
 20
198.7443831160262
 30
0.0
 11
-271.7027818834459
 21
237.6312833218962
 31
0.0
  0
LINE
  5
17E
330
1F
100
AcDbEntity
  8
1-1ﾚｲﾔ
  6
Continuous
 62
     3
370
     9
100
AcDbLine
 10
-433.7026235219594
 20
75.0674026076858
 30
0.0
 11
-433.7026235219594
 21
237.6312833218962
 31
0.0
  0
LINE
  5
17F
330
1F
100
AcDbEntity
  8
1-1ﾚｲﾔ
  6
Continuous
 62
     3
370
     9
100
AcDbLine
 10
-441.702786007443
 20
75.0674026076858
 30
0.0
 11
-441.702786007443
 21
234.9774912241344
 31
0.0
  0
LINE
  5
180
330
1F
100
AcDbEntity
  8
1-1ﾚｲﾔ
  6
Continuous
 62
     3
370
     9
100
AcDbLine
 10
-432.2028288970122
 20
76.56725909258867
 30
0.0
 11
-432.2028288970122
 21
198.7443831160262
 31
0.0
  0
LINE
  5
181
330
1F
100
AcDbEntity
  8
1-1ﾚｲﾔ
  6
Continuous
 62
     3
370
     9
100
AcDbLine
 10
-443.2025187724345
 20
76.56725909258867
 30
0.0
 11
-443.2025187724345
 21
194.4261870513091
 31
0.0
  0
LINE
  5
182
330
1F
100
AcDbEntity
  8
1-1ﾚｲﾔ
  6
Continuous
 62
     3
370
     9
100
AcDbLine
 10
-433.7026235219594
 20
237.6312833218962
 30
0.0
 11
-432.2028288970122
 21
198.7443831160262
 31
0.0
  0
LINE
  5
183
330
1F
100
AcDbEntity
  8
1-1ﾚｲﾔ
  6
Continuous
 62
     3
370
     9
100
AcDbLine
 10
-443.2025187724345
 20
194.4261870513091
 30
0.0
 11
-441.702786007443
 21
234.9774912241344
 31
0.0
  0
LINE
  5
184
330
1F
100
AcDbEntity
  8
1-1ﾚｲﾔ
  6
Continuous
 62
     3
370
     9
100
AcDbLine
 10
-449.2025633116026
 20
70.56721455342071
 30
0.0
 11
-567.061491270323
 21
70.56721455342071
 31
0.0
  0
LINE
  5
185
330
1F
100
AcDbEntity
  8
1-1ﾚｲﾔ
  6
Continuous
 62
     3
370
     9
100
AcDbLine
 10
-449.2025633116026
 20
59.56752467799831
 30
0.0
 11
-571.3798110549515
 21
59.56752467799831
 31
0.0
  0
LINE
  5
186
330
1F
100
AcDbEntity
  8
1-1ﾚｲﾔ
  6
Continuous
 62
     3
370
     9
100
AcDbLine
 10
-447.7027686866554
 20
69.06735806851785
 30
0.0
 11
-607.6127335831925
 21
69.06735806851785
 31
0.0
  0
LINE
  5
187
330
1F
100
AcDbEntity
  8
1-1ﾚｲﾔ
  6
Continuous
 62
     3
370
     9
100
AcDbLine
 10
-447.7027686866554
 20
61.06725744298984
 30
0.0
 11
-610.2665256809544
 21
61.06725744298984
 31
0.0
  0
LINE
  5
188
330
1F
100
AcDbEntity
  8
1-1ﾚｲﾔ
  6
Continuous
 62
     3
370
     9
100
AcDbLine
 10
-567.061491270323
 20
70.56721455342071
 30
0.0
 11
-607.6127335831925
 21
69.06735806851785
 31
0.0
  0
LINE
  5
189
330
1F
100
AcDbEntity
  8
1-1ﾚｲﾔ
  6
Continuous
 62
     3
370
     9
100
AcDbLine
 10
-610.2665256809544
 20
61.06725744298984
 30
0.0
 11
-571.3798110549515
 21
59.56752467799831
 31
0.0
  0
LINE
  5
18A
330
1F
100
AcDbEntity
  8
1-1ﾚｲﾔ
  6
Continuous
 62
     3
370
     9
100
AcDbLine
 10
-254.2030334472656
 20
-96.43289102090364
 30
0.0
 11
-132.0525710647171
 21
-96.43289102090364
 31
0.0
  0
LINE
  5
18B
330
1F
100
AcDbEntity
  8
1-1ﾚｲﾔ
  6
Continuous
 62
     3
370
     9
100
AcDbLine
 10
-254.2030334472656
 20
-113.4322542757601
 30
0.0
 11
-138.7014028188344
 21
-113.4322542757601
 31
0.0
  0
LINE
  5
18C
330
1F
100
AcDbEntity
  8
1-1ﾚｲﾔ
  6
Continuous
 62
     3
370
     9
100
AcDbLine
 10
-255.7028280722128
 20
-97.9327475058065
 30
0.0
 11
-164.550884349926
 21
-97.9327475058065
 31
0.0
  0
LINE
  5
18D
330
1F
100
AcDbEntity
  8
1-1ﾚｲﾔ
  6
Continuous
 62
     3
370
     9
100
AcDbLine
 10
-255.7028280722128
 20
-111.9325215107686
 30
0.0
 11
-170.9854950775971
 21
-111.9325215107686
 31
0.0
  0
LINE
  5
18E
330
1F
100
AcDbEntity
  8
1-1ﾚｲﾔ
  6
Continuous
 62
     3
370
     9
100
AcDbLine
 10
-274.702618573163
 20
-116.9325380067567
 30
0.0
 11
-274.702618573163
 21
-208.0844198690878
 31
0.0
  0
LINE
  5
18F
330
1F
100
AcDbEntity
  8
1-1ﾚｲﾔ
  6
Continuous
 62
     3
370
     9
100
AcDbLine
 10
-260.7027827082453
 20
-116.9325380067567
 30
0.0
 11
-260.7027827082453
 21
-201.6497472814611
 31
0.0
  0
LINE
  5
190
330
1F
100
AcDbEntity
  8
1-1ﾚｲﾔ
  6
Continuous
 62
     3
370
     9
100
AcDbLine
 10
-259.202988083298
 20
-118.4322707717483
 30
0.0
 11
-259.202988083298
 21
-233.9339632601351
 31
0.0
  0
LINE
  5
191
330
1F
100
AcDbEntity
  8
1-1ﾚｲﾔ
  6
Continuous
 62
     3
370
     9
100
AcDbLine
 10
-276.2024131981102
 20
-118.4322707717483
 30
0.0
 11
-276.2024131981102
 21
-240.5829187341638
 31
0.0
  0
LINE
  5
192
330
1F
100
AcDbEntity
  8
1-1ﾚｲﾔ
  6
Continuous
 62
     3
370
     9
100
AcDbLine
 10
-429.2029922072952
 20
-118.4322707717483
 30
0.0
 11
-429.2029922072952
 21
-240.5829187341638
 31
0.0
  0
LINE
  5
193
330
1F
100
AcDbEntity
  8
1-1ﾚｲﾔ
  6
Continuous
 62
     3
370
     9
100
AcDbLine
 10
-446.2024173221072
 20
-118.4322707717483
 30
0.0
 11
-446.2024173221072
 21
-233.9339632601351
 31
0.0
  0
LINE
  5
194
330
1F
100
AcDbEntity
  8
1-1ﾚｲﾔ
  6
Continuous
 62
     3
370
     9
100
AcDbLine
 10
-430.7027868322424
 20
-116.9325380067567
 30
0.0
 11
-430.7027868322424
 21
-208.0844198690878
 31
0.0
  0
LINE
  5
195
330
1F
100
AcDbEntity
  8
1-1ﾚｲﾔ
  6
Continuous
 62
     3
370
     9
100
AcDbLine
 10
-444.70262269716
 20
-116.9325380067567
 30
0.0
 11
-444.70262269716
 21
-201.6497472814611
 31
0.0
  0
LINE
  5
196
330
1F
100
AcDbEntity
  8
1-1ﾚｲﾔ
  6
Continuous
 62
     3
370
     9
100
AcDbLine
 10
-449.7025773331925
 20
-97.9327475058065
 30
0.0
 11
-540.8545210554793
 21
-97.9327475058065
 31
0.0
  0
LINE
  5
197
330
1F
100
AcDbEntity
  8
1-1ﾚｲﾔ
  6
Continuous
 62
     3
370
     9
100
AcDbLine
 10
-449.7025773331925
 20
-111.9325215107686
 30
0.0
 11
-534.4199103278082
 21
-111.9325215107686
 31
0.0
  0
LINE
  5
198
330
1F
100
AcDbEntity
  8
1-1ﾚｲﾔ
  6
Continuous
 62
     3
370
     9
100
AcDbLine
 10
-451.2023719581398
 20
-113.4322542757601
 30
0.0
 11
-566.7040025865709
 21
-113.4322542757601
 31
0.0
  0
LINE
  5
199
330
1F
100
AcDbEntity
  8
1-1ﾚｲﾔ
  6
Continuous
 62
     3
370
     9
100
AcDbLine
 10
-451.2023719581398
 20
-96.43289102090364
 30
0.0
 11
-573.3528343406883
 21
-96.43289102090364
 31
0.0
  0
LINE
  5
19A
330
1F
100
AcDbEntity
  8
1-1ﾚｲﾔ
  6
Continuous
 62
     3
370
     9
100
AcDbLine
 10
-573.3528343406883
 20
-96.43289102090364
 30
0.0
 11
-540.8545210554793
 21
-97.9327475058065
 31
0.0
  0
LINE
  5
19B
330
1F
100
AcDbEntity
  8
1-1ﾚｲﾔ
  6
Continuous
 62
     3
370
     9
100
AcDbLine
 10
-534.4199103278082
 20
-111.9325215107686
 30
0.0
 11
-566.7040025865709
 21
-113.4322542757601
 31
0.0
  0
LINE
  5
19C
330
1F
100
AcDbEntity
  8
1-1ﾚｲﾔ
  6
Continuous
 62
     3
370
     9
100
AcDbLine
 10
-444.70262269716
 20
-201.6497472814611
 30
0.0
 11
-446.2024173221072
 21
-233.9339632601351
 31
0.0
  0
LINE
  5
19D
330
1F
100
AcDbEntity
  8
1-1ﾚｲﾔ
  6
Continuous
 62
     3
370
     9
100
AcDbLine
 10
-430.7027868322424
 20
-208.0844198690878
 30
0.0
 11
-429.2029922072952
 21
-240.5829187341638
 31
0.0
  0
LINE
  5
19E
330
1F
100
AcDbEntity
  8
1-1ﾚｲﾔ
  6
Continuous
 62
     3
370
     9
100
AcDbLine
 10
-260.7027827082453
 20
-201.6497472814611
 30
0.0
 11
-259.202988083298
 21
-233.9339632601351
 31
0.0
  0
LINE
  5
19F
330
1F
100
AcDbEntity
  8
1-1ﾚｲﾔ
  6
Continuous
 62
     3
370
     9
100
AcDbLine
 10
-276.2024131981102
 20
-240.5829187341638
 30
0.0
 11
-274.702618573163
 21
-208.0844198690878
 31
0.0
  0
LINE
  5
1A0
330
1F
100
AcDbEntity
  8
1-1ﾚｲﾔ
  6
Continuous
 62
     3
370
     9
100
AcDbLine
 10
-164.550884349926
 20
-97.9327475058065
 30
0.0
 11
-132.0525710647171
 21
-96.43289102090364
 31
0.0
  0
LINE
  5
1A1
330
1F
100
AcDbEntity
  8
1-1ﾚｲﾔ
  6
Continuous
 62
     3
370
     9
100
AcDbLine
 10
-170.9854950775971
 20
-111.9325215107686
 30
0.0
 11
-138.7014028188344
 21
-113.4322542757601
 31
0.0
  0
LINE
  5
1A2
330
1F
100
AcDbEntity
  8
1-1ﾚｲﾔ
  6
JWW_CENTER1
 62
     3
370
     9
100
AcDbLine
 10
-81.67852453283359
 20
65.06736961570951
 30
0.0
 11
-352.7027027027026
 21
65.06736961570951
 31
0.0
  0
LINE
  5
1A3
330
1F
100
AcDbEntity
  8
1-1ﾚｲﾔ
  6
JWW_CENTER1
 62
     3
370
     9
100
AcDbLine
 10
-623.4981227565456
 20
65.06736961570951
 30
0.0
 11
-352.7027027027026
 21
65.06736961570951
 31
0.0
  0
LINE
  5
1A4
330
1F
100
AcDbEntity
  8
1-1ﾚｲﾔ
  6
JWW_CENTER1
 62
     3
370
     9
100
AcDbLine
 10
-437.7026738347234
 20
-248.2978449641047
 30
0.0
 11
-437.7026738347234
 21
251.8433606946792
 31
0.0
  0
LINE
  5
1A5
330
1F
100
AcDbEntity
  8
1-1ﾚｲﾔ
  6
JWW_CENTER1
 62
     3
370
     9
100
AcDbLine
 10
-267.702731570682
 20
-251.6320965741131
 30
0.0
 11
-267.702731570682
 21
251.8433606946792
 31
0.0
  0
LINE
  5
1A6
330
1F
100
AcDbEntity
  8
1-3ﾚｲﾔ
  6
Continuous
 62
     4
370
     9
100
AcDbLine
 10
-352.7027027027026
 20
305.567247545397
 30
0.0
 11
-373.702673009924
 21
303.0671155774917
 31
0.0
  0
LINE
  5
1A7
330
1F
100
AcDbEntity
  8
1-3ﾚｲﾔ
  6
Continuous
 62
     4
370
     9
100
AcDbLine
 10
-352.7027027027026
 20
305.567247545397
 30
0.0
 11
-331.7027323954813
 21
303.0671155774917
 31
0.0
  0
LINE
  5
1A8
330
1F
100
AcDbEntity
  8
1-3ﾚｲﾔ
  6
Continuous
 62
     4
370
     9
100
AcDbLine
 10
-371.8450804014464
 20
233.4343327702703
 30
0.0
 11
-352.7027027027026
 21
232.0671040302999
 31
0.0
  0
LINE
  5
1A9
330
1F
100
AcDbEntity
  8
1-3ﾚｲﾔ
  6
Continuous
 62
     4
370
     9
100
AcDbLine
 10
-333.560325003959
 20
233.4343327702703
 30
0.0
 11
-352.7027027027026
 21
232.0671040302999
 31
0.0
  0
LINE
  5
1AA
330
1F
100
AcDbEntity
  8
1-3ﾚｲﾔ
  6
Continuous
 62
     4
370
     9
100
AcDbLine
 10
-331.7027323954813
 20
235.4294400601775
 30
0.0
 11
-331.7027323954813
 21
303.0671155774917
 31
0.0
  0
LINE
  5
1AB
330
1F
100
AcDbEntity
  8
1-3ﾚｲﾔ
  6
JWW_CENTER1
 62
     4
370
     9
100
AcDbLine
 10
-305.8813971442145
 20
267.5672953837628
 30
0.0
 11
-399.392370275549
 21
267.5672953837628
 31
0.0
  0
LINE
  5
1AC
330
1F
100
AcDbEntity
  8
1-3ﾚｲﾔ
  6
JWW_CENTER1
 62
     4
370
     9
100
AcDbLine
 10
-382.7026779587204
 20
282.1525120090794
 30
0.0
 11
-382.7026779587204
 21
254.1644699509079
 31
0.0
  0
LINE
  5
1AD
330
1F
100
AcDbEntity
  8
1-3ﾚｲﾔ
  6
Continuous
 62
     4
370
     9
100
AcDbLine
 10
-373.702673009924
 20
279.6104389912374
 30
0.0
 11
-384.7026721851245
 21
277.3650463207349
 31
0.0
  0
LINE
  5
1AE
330
1F
100
AcDbEntity
  8
1-3ﾚｲﾔ
  6
Continuous
 62
     4
370
     9
100
AcDbLine
 10
-373.702673009924
 20
255.5237806165542
 30
0.0
 11
-384.7026721851245
 21
257.7691732870567
 31
0.0
  0
LINE
  5
1AF
330
1F
100
AcDbEntity
  8
1-3ﾚｲﾔ
  6
Continuous
 62
     4
370
     9
100
AcDbLine
 10
-373.702673009924
 20
235.4294400601775
 30
0.0
 11
-373.702673009924
 21
303.0671155774917
 31
0.0
  0
LINE
  5
1B0
330
1F
100
AcDbEntity
  8
1-3ﾚｲﾔ
  6
JWW_CENTER1
 62
     4
370
     9
100
AcDbLine
 10
-322.7027274466849
 20
282.1525120090794
 30
0.0
 11
-322.7027274466849
 21
254.1644699509079
 31
0.0
  0
LINE
  5
1B1
330
1F
100
AcDbEntity
  8
1-3ﾚｲﾔ
  6
Continuous
 62
     4
370
     9
100
AcDbLine
 10
-331.7027323954813
 20
279.6104389912374
 30
0.0
 11
-320.7027332202807
 21
277.3650463207349
 31
0.0
  0
LINE
  5
1B2
330
1F
100
AcDbEntity
  8
1-3ﾚｲﾔ
  6
Continuous
 62
     4
370
     9
100
AcDbLine
 10
-331.7027323954813
 20
255.5237806165542
 30
0.0
 11
-320.7027332202807
 21
257.7691732870567
 31
0.0
  0
LINE
  5
1B3
330
1F
100
AcDbEntity
  8
1-2ﾚｲﾔ
  6
Continuous
 62
     6
370
     9
100
AcDbLine
 10
-364.1043585699957
 20
269.0673993084883
 30
0.0
 11
-341.300799395587
 21
269.0673993084883
 31
0.0
  0
LINE
  5
1B4
330
1F
100
AcDbEntity
  8
1-2ﾚｲﾔ
  6
Continuous
 62
     6
370
     9
100
AcDbLine
 10
-364.1043585699957
 20
266.0671914590372
 30
0.0
 11
-341.300799395587
 21
266.0671914590372
 31
0.0
  0
LINE
  5
1B5
330
1F
100
AcDbEntity
  8
1-3ﾚｲﾔ
  6
Continuous
 62
     4
370
     9
100
AcDbLine
 10
-365.2026820827174
 20
402.5672458957982
 30
0.0
 11
-340.2027233226879
 21
402.5672458957982
 31
0.0
  0
LINE
  5
1B6
330
1F
100
AcDbEntity
  8
1-3ﾚｲﾔ
  6
Continuous
 62
     2
370
     9
100
AcDbLine
 10
-352.7027027027026
 20
352.5672046558277
 30
0.0
 11
-359.2026994035051
 21
348.8145323057433
 31
0.0
  0
LINE
  5
1B7
330
1F
100
AcDbEntity
  8
1-3ﾚｲﾔ
  6
Continuous
 62
     2
370
     9
100
AcDbLine
 10
-352.7027027027026
 20
352.5672046558277
 30
0.0
 11
-346.2027060019003
 21
348.8145323057433
 31
0.0
  0
LINE
  5
1B8
330
1F
100
AcDbEntity
  8
1-3ﾚｲﾔ
  6
Continuous
 62
     2
370
     9
100
AcDbLine
 10
-346.2027060019003
 20
348.8145323057433
 30
0.0
 11
-346.2027060019003
 21
341.3200749577703
 31
0.0
  0
LINE
  5
1B9
330
1F
100
AcDbEntity
  8
1-3ﾚｲﾔ
  6
Continuous
 62
     2
370
     9
100
AcDbLine
 10
-352.7027027027026
 20
337.5674026076858
 30
0.0
 11
-346.2027060019003
 21
341.3200749577703
 31
0.0
  0
LINE
  5
1BA
330
1F
100
AcDbEntity
  8
1-3ﾚｲﾔ
  6
Continuous
 62
     2
370
     9
100
AcDbLine
 10
-352.7027027027026
 20
337.5674026076858
 30
0.0
 11
-359.2026994035051
 21
341.3200749577703
 31
0.0
  0
LINE
  5
1BB
330
1F
100
AcDbEntity
  8
1-3ﾚｲﾔ
  6
Continuous
 62
     2
370
     9
100
AcDbLine
 10
-359.2026994035051
 20
348.8145323057433
 30
0.0
 11
-359.2026994035051
 21
341.3200749577703
 31
0.0
  0
LINE
  5
1BC
330
1F
100
AcDbEntity
  8
1-0ﾚｲﾔ
  6
JWW_CENTER1
 62
     4
370
     9
100
AcDbLine
 10
-366.4227459881756
 20
345.0673036317568
 30
0.0
 11
-338.9554410367398
 21
345.0673036317568
 31
0.0
  0
LINE
  5
1BD
330
1F
100
AcDbEntity
  8
1-3ﾚｲﾔ
  6
Continuous
 62
     4
370
     9
100
AcDbLine
 10
-340.2027233226879
 20
402.5672458957982
 30
0.0
 11
-340.2027233226879
 21
358.6440792599241
 31
0.0
  0
LINE
  5
1BE
330
1F
100
AcDbEntity
  8
1-3ﾚｲﾔ
  6
Continuous
 62
     4
370
     9
100
AcDbLine
 10
-340.2027233226879
 20
358.6440792599241
 30
0.0
 11
-340.2027233226879
 21
345.0673036317568
 31
0.0
  0
LINE
  5
1BF
330
1F
100
AcDbEntity
  8
1-3ﾚｲﾔ
  6
Continuous
 62
     4
370
     9
100
AcDbLine
 10
-365.2026820827174
 20
402.5672458957982
 30
0.0
 11
-365.2026820827174
 21
345.0673036317568
 31
0.0
  0
LINE
  5
1C0
330
1F
100
AcDbEntity
  8
1-0ﾚｲﾔ
  6
JWW_CENTER1
 62
     4
370
     9
100
AcDbLine
 10
-717.7026697107262
 20
-4.878672006967832
 30
0.0
 11
-717.7026697107262
 21
-40.62197298616979
 31
0.0
  0
LINE
  5
1C1
330
1F
100
AcDbEntity
  8
1-3ﾚｲﾔ
  6
Continuous
 62
     4
370
     9
100
AcDbLine
 10
-775.2026119747677
 20
-7.432622136296345
 30
0.0
 11
-775.2026119747677
 21
-32.43270461623723
 31
0.0
  0
LINE
  5
1C2
330
1F
100
AcDbEntity
  8
1-3ﾚｲﾔ
  6
Continuous
 62
     4
370
     9
100
AcDbLine
 10
-775.2026119747677
 20
-7.432622136296345
 30
0.0
 11
-717.7026697107262
 21
-7.432622136296345
 31
0.0
  0
LINE
  5
1C3
330
1F
100
AcDbEntity
  8
1-3ﾚｲﾔ
  6
Continuous
 62
     2
370
     9
100
AcDbLine
 10
-725.2025707347973
 20
-19.93266337626679
 30
0.0
 11
-721.4498983847127
 21
-13.43266667546445
 31
0.0
  0
LINE
  5
1C4
330
1F
100
AcDbEntity
  8
1-3ﾚｲﾔ
  6
Continuous
 62
     2
370
     9
100
AcDbLine
 10
-721.4498983847127
 20
-13.43266667546445
 30
0.0
 11
-713.9554410367398
 21
-13.43266667546445
 31
0.0
  0
LINE
  5
1C5
330
1F
100
AcDbEntity
  8
1-3ﾚｲﾔ
  6
Continuous
 62
     2
370
     9
100
AcDbLine
 10
-710.2027686866554
 20
-19.93266337626679
 30
0.0
 11
-713.9554410367398
 21
-13.43266667546445
 31
0.0
  0
LINE
  5
1C6
330
1F
100
AcDbEntity
  8
1-3ﾚｲﾔ
  6
Continuous
 62
     2
370
     9
100
AcDbLine
 10
-724.8928997967694
 20
-19.93266337626679
 30
0.0
 11
-721.2978466137035
 21
-26.15936279296875
 31
0.0
  0
LINE
  5
1C7
330
1F
100
AcDbEntity
  8
1-3ﾚｲﾔ
  6
Continuous
 62
     2
370
     9
100
AcDbLine
 10
-721.2978466137035
 20
-26.15936279296875
 30
0.0
 11
-714.1078639674831
 21
-26.15936279296875
 31
0.0
  0
LINE
  5
1C8
330
1F
100
AcDbEntity
  8
1-3ﾚｲﾔ
  6
Continuous
 62
     2
370
     9
100
AcDbLine
 10
-714.1078639674831
 20
-26.15936279296875
 30
0.0
 11
-710.5128107844172
 21
-19.93266337626679
 31
0.0
  0
LINE
  5
1C9
330
1F
100
AcDbEntity
  8
1-3ﾚｲﾔ
  6
Continuous
 62
     2
370
     9
100
AcDbLine
 10
-717.7026697107262
 20
-38.31744219805742
 30
0.0
 11
-699.3177671690245
 21
-19.93266337626679
 31
0.0
  0
LINE
  5
1CA
330
1F
100
AcDbEntity
  8
1-3ﾚｲﾔ
  6
Continuous
 62
     2
370
     9
100
AcDbLine
 10
-736.0874485325169
 20
-19.93278709617812
 30
0.0
 11
-717.7026697107262
 21
-38.31744219805742
 31
0.0
  0
LINE
  5
1CB
330
1F
100
AcDbEntity
  8
1-3ﾚｲﾔ
  6
Continuous
 62
     4
370
     9
100
AcDbLine
 10
-775.2026119747677
 20
-32.43270461623723
 30
0.0
 11
-732.4466189822635
 21
-32.43270461623723
 31
0.0
  0
LINE
  5
1CC
330
1F
100
AcDbEntity
  8
1-3ﾚｲﾔ
  6
Continuous
 62
     4
370
     9
100
AcDbLine
 10
-365.2028058026287
 20
-442.4326963682432
 30
0.0
 11
-340.2025996027766
 21
-442.4326963682432
 31
0.0
  0
LINE
  5
1CD
330
1F
100
AcDbEntity
  8
1-3ﾚｲﾔ
  6
Continuous
 62
     4
370
     9
100
AcDbLine
 10
-365.2028058026287
 20
-442.4326963682432
 30
0.0
 11
-365.2028058026287
 21
-399.6765796558277
 31
0.0
  0
LINE
  5
1CE
330
1F
100
AcDbEntity
  8
1-3ﾚｲﾔ
  6
Continuous
 62
     4
370
     9
100
AcDbLine
 10
-340.2025996027766
 20
-442.4326963682432
 30
0.0
 11
-340.2025996027766
 21
-399.6765796558277
 31
0.0
  0
LINE
  5
1CF
330
1F
100
AcDbEntity
  8
1-3ﾚｲﾔ
  6
Continuous
 62
     2
370
     9
100
AcDbLine
 10
-352.7027027027026
 20
-392.1227367504223
 30
0.0
 11
-358.9294021194046
 21
-388.5279310071791
 31
0.0
  0
LINE
  5
1D0
330
1F
100
AcDbEntity
  8
1-3ﾚｲﾔ
  6
Continuous
 62
     2
370
     9
100
AcDbLine
 10
-358.9294021194046
 20
-388.5279310071791
 30
0.0
 11
-358.9294021194046
 21
-381.3378246410473
 31
0.0
  0
LINE
  5
1D1
330
1F
100
AcDbEntity
  8
1-3ﾚｲﾔ
  6
Continuous
 62
     2
370
     9
100
AcDbLine
 10
-358.9294021194046
 20
-381.3378246410473
 30
0.0
 11
-352.7027027027026
 21
-377.7427714579813
 31
0.0
  0
LINE
  5
1D2
330
1F
100
AcDbEntity
  8
1-3ﾚｲﾔ
  6
Continuous
 62
     2
370
     9
100
AcDbLine
 10
-352.7027027027026
 20
-377.7427714579813
 30
0.0
 11
-346.4760032860008
 21
-381.3378246410473
 31
0.0
  0
LINE
  5
1D3
330
1F
100
AcDbEntity
  8
1-3ﾚｲﾔ
  6
Continuous
 62
     2
370
     9
100
AcDbLine
 10
-346.4760032860008
 20
-381.3378246410473
 30
0.0
 11
-346.4760032860008
 21
-388.5279310071791
 31
0.0
  0
LINE
  5
1D4
330
1F
100
AcDbEntity
  8
1-3ﾚｲﾔ
  6
Continuous
 62
     2
370
     9
100
AcDbLine
 10
-346.4760032860008
 20
-388.5279310071791
 30
0.0
 11
-352.7027027027026
 21
-392.1227367504223
 31
0.0
  0
LINE
  5
1D5
330
1F
100
AcDbEntity
  8
1-3ﾚｲﾔ
  6
Continuous
 62
     2
370
     9
100
AcDbLine
 10
-334.3179238809121
 20
-384.9326303842905
 30
0.0
 11
-352.7027027027026
 21
-366.5478515625
 31
0.0
  0
LINE
  5
1D6
330
1F
100
AcDbEntity
  8
1-3ﾚｲﾔ
  6
Continuous
 62
     2
370
     9
100
AcDbLine
 10
-352.7027027027026
 20
-366.5478515625
 30
0.0
 11
-371.0874815244932
 21
-384.9326303842905
 31
0.0
  0
LINE
  5
1D7
330
1F
100
AcDbEntity
  8
1-3ﾚｲﾔ
  6
Continuous
 62
     2
370
     9
100
AcDbLine
 10
-371.0874815244932
 20
-384.9326303842905
 30
0.0
 11
-352.7027027027026
 21
-403.317409206081
 31
0.0
  0
LINE
  5
1D8
330
1F
100
AcDbEntity
  8
1-3ﾚｲﾔ
  6
Continuous
 62
     2
370
     9
100
AcDbLine
 10
-352.7027027027026
 20
-403.317409206081
 30
0.0
 11
-334.3179238809121
 21
-384.9326303842905
 31
0.0
  0
LINE
  5
1D9
330
1F
100
AcDbEntity
  8
1-0ﾚｲﾔ
  6
JWW_CENTER1
 62
     4
370
     9
100
AcDbLine
 10
-377.2120501544025
 20
-384.9326303842905
 30
0.0
 11
-329.6744063093855
 21
-384.9326303842905
 31
0.0
  0
LINE
  5
1DA
330
1F
100
AcDbEntity
  8
1-3ﾚｲﾔ
  6
Continuous
 62
     7
370
     9
100
AcDbLine
 10
-326.455461656725
 20
-313.9327425570101
 30
0.0
 11
-330.2068349477406
 21
-307.4349728146115
 31
0.0
  0
LINE
  5
1DB
330
1F
100
AcDbEntity
  8
1-3ﾚｲﾔ
  6
Continuous
 62
     7
370
     9
100
AcDbLine
 10
-330.2068349477406
 20
-307.4349728146115
 30
0.0
 11
-326.4526160987647
 21
-300.9325017155828
 31
0.0
  0
LINE
  5
1DC
330
1F
100
AcDbEntity
  8
1-3ﾚｲﾔ
  6
Continuous
 62
     7
370
     9
100
AcDbLine
 10
-318.9499932366448
 20
-313.9327425570101
 30
0.0
 11
-326.455461656725
 21
-313.9327425570101
 31
0.0
  0
LINE
  5
1DD
330
1F
100
AcDbEntity
  8
1-3ﾚｲﾔ
  6
Continuous
 62
     7
370
     9
100
AcDbLine
 10
-318.9499932366448
 20
-313.9327425570101
 30
0.0
 11
-315.1986199456292
 21
-307.4349728146115
 31
0.0
  0
LINE
  5
1DE
330
1F
100
AcDbEntity
  8
1-3ﾚｲﾔ
  6
Continuous
 62
     7
370
     9
100
AcDbLine
 10
-315.1986199456292
 20
-307.4349728146115
 30
0.0
 11
-318.9528387946051
 21
-300.9325017155828
 31
0.0
  0
LINE
  5
1DF
330
1F
100
AcDbEntity
  8
1-3ﾚｲﾔ
  6
Continuous
 62
     7
370
     9
100
AcDbLine
 10
-318.9528387946051
 20
-300.9325017155828
 30
0.0
 11
-326.4526160987647
 21
-300.9325017155828
 31
0.0
  0
LINE
  5
1E0
330
1F
100
AcDbEntity
  8
1-3ﾚｲﾔ
  6
JWW_CENTER1
 62
     4
370
     9
100
AcDbLine
 10
-322.7027274466849
 20
-316.0255885768581
 30
0.0
 11
-322.7027274466849
 21
-298.9628807274071
 31
0.0
  0
LINE
  5
1E1
330
1F
100
AcDbEntity
  8
1-3ﾚｲﾔ
  6
JWW_CENTER1
 62
     4
370
     9
100
AcDbLine
 10
-331.9235724371832
 20
-307.4324984163851
 30
0.0
 11
-313.3945980587521
 21
-307.4324984163851
 31
0.0
  0
LINE
  5
1E2
330
1F
100
AcDbEntity
  8
1-3ﾚｲﾔ
  6
Continuous
 62
     7
370
     9
100
AcDbLine
 10
-378.9499437486803
 20
-313.9327425570101
 30
0.0
 11
-375.1985704576647
 21
-307.4349728146115
 31
0.0
  0
LINE
  5
1E3
330
1F
100
AcDbEntity
  8
1-3ﾚｲﾔ
  6
Continuous
 62
     7
370
     9
100
AcDbLine
 10
-375.1985704576647
 20
-307.4349728146115
 30
0.0
 11
-378.9527893066406
 21
-300.9325017155828
 31
0.0
  0
LINE
  5
1E4
330
1F
100
AcDbEntity
  8
1-3ﾚｲﾔ
  6
Continuous
 62
     7
370
     9
100
AcDbLine
 10
-386.4554121687605
 20
-313.9327425570101
 30
0.0
 11
-378.9499437486803
 21
-313.9327425570101
 31
0.0
  0
LINE
  5
1E5
330
1F
100
AcDbEntity
  8
1-3ﾚｲﾔ
  6
Continuous
 62
     7
370
     9
100
AcDbLine
 10
-386.4554121687605
 20
-313.9327425570101
 30
0.0
 11
-390.2067854597761
 21
-307.4349728146115
 31
0.0
  0
LINE
  5
1E6
330
1F
100
AcDbEntity
  8
1-3ﾚｲﾔ
  6
Continuous
 62
     7
370
     9
100
AcDbLine
 10
-390.2067854597761
 20
-307.4349728146115
 30
0.0
 11
-386.4525666108003
 21
-300.9325017155828
 31
0.0
  0
LINE
  5
1E7
330
1F
100
AcDbEntity
  8
1-3ﾚｲﾔ
  6
Continuous
 62
     7
370
     9
100
AcDbLine
 10
-386.4525666108003
 20
-300.9325017155828
 30
0.0
 11
-378.9527893066406
 21
-300.9325017155828
 31
0.0
  0
LINE
  5
1E8
330
1F
100
AcDbEntity
  8
1-3ﾚｲﾔ
  6
JWW_CENTER1
 62
     4
370
     9
100
AcDbLine
 10
-382.7026779587204
 20
-316.0255885768581
 30
0.0
 11
-382.7026779587204
 21
-298.9628807274071
 31
0.0
  0
LINE
  5
1E9
330
1F
100
AcDbEntity
  8
1-3ﾚｲﾔ
  6
JWW_CENTER1
 62
     4
370
     9
100
AcDbLine
 10
-373.4818329682221
 20
-307.4324984163851
 30
0.0
 11
-392.0108073466532
 21
-307.4324984163851
 31
0.0
  0
LINE
  5
1EA
330
1F
100
AcDbEntity
  8
1-0ﾚｲﾔ
  6
JWW_DASHED1
 62
     2
370
     9
100
AcDbLine
 10
542.0770593591641
 20
291.8571018528294
 30
0.0
 11
542.0770593591641
 21
-19.93266337626679
 31
0.0
  0
LINE
  5
1EB
330
1F
100
AcDbEntity
  8
1-3ﾚｲﾔ
  6
Continuous
 62
     4
370
     9
100
AcDbLine
 10
512.5770362647804
 20
283.5672491949958
 30
0.0
 11
512.5770362647804
 21
251.5672178526182
 31
0.0
  0
LINE
  5
1EC
330
1F
100
AcDbEntity
  8
1-3ﾚｲﾔ
  6
Continuous
 62
     4
370
     9
100
AcDbLine
 10
474.0768845016893
 20
305.567247545397
 30
0.0
 11
474.0768845016893
 21
232.0672277502112
 31
0.0
  0
LINE
  5
1ED
330
1F
100
AcDbEntity
  8
1-3ﾚｲﾔ
  6
Continuous
 62
     4
370
     9
100
AcDbLine
 10
481.035139754012
 20
303.9300619589317
 30
0.0
 11
474.0768845016893
 21
305.567247545397
 31
0.0
  0
LINE
  5
1EE
330
1F
100
AcDbEntity
  8
1-3ﾚｲﾔ
  6
Continuous
 62
     4
370
     9
100
AcDbLine
 10
480.5770049224029
 20
232.0672277502112
 30
0.0
 11
474.0768845016893
 21
232.0672277502112
 31
0.0
  0
LINE
  5
1EF
330
1F
100
AcDbEntity
  8
1-3ﾚｲﾔ
  6
Continuous
 62
     4
370
     9
100
AcDbLine
 10
487.5769537848396
 20
283.5672491949958
 30
0.0
 11
512.5770362647804
 21
283.5672491949958
 31
0.0
  0
LINE
  5
1F0
330
1F
100
AcDbEntity
  8
1-3ﾚｲﾔ
  6
Continuous
 62
     4
370
     9
100
AcDbLine
 10
487.5769537848396
 20
251.5672178526182
 30
0.0
 11
512.5770362647804
 21
251.5672178526182
 31
0.0
  0
LINE
  5
1F1
330
1F
100
AcDbEntity
  8
1-3ﾚｲﾔ
  6
Continuous
 62
     4
370
     9
100
AcDbLine
 10
482.5769372888513
 20
246.5673250765414
 30
0.0
 11
482.5769372888513
 21
234.067283836571
 31
0.0
  0
LINE
  5
1F2
330
1F
100
AcDbEntity
  8
1-0ﾚｲﾔ
  6
Continuous
 62
     4
370
     9
100
AcDbLine
 10
474.0768845016893
 20
279.3172228014147
 30
0.0
 11
479.0769009976773
 21
279.3172228014147
 31
0.0
  0
LINE
  5
1F3
330
1F
100
AcDbEntity
  8
1-0ﾚｲﾔ
  6
Continuous
 62
     4
370
     9
100
AcDbLine
 10
479.0769009976773
 20
279.3172228014147
 30
0.0
 11
479.0769009976773
 21
255.8173679661107
 31
0.0
  0
LINE
  5
1F4
330
1F
100
AcDbEntity
  8
1-0ﾚｲﾔ
  6
Continuous
 62
     4
370
     9
100
AcDbLine
 10
474.0768845016893
 20
255.8173679661107
 30
0.0
 11
479.0769009976773
 21
255.8173679661107
 31
0.0
  0
LINE
  5
1F5
330
1F
100
AcDbEntity
  8
1-0ﾚｲﾔ
  6
Continuous
 62
     4
370
     9
100
AcDbLine
 10
512.5770362647804
 20
257.5672623917864
 30
0.0
 11
500.0769950248102
 21
257.5672623917864
 31
0.0
  0
LINE
  5
1F6
330
1F
100
AcDbEntity
  8
1-0ﾚｲﾔ
  6
Continuous
 62
     4
370
     9
100
AcDbLine
 10
500.0769950248102
 20
277.5673283757391
 30
0.0
 11
512.5770362647804
 21
277.5673283757391
 31
0.0
  0
LINE
  5
1F7
330
1F
100
AcDbEntity
  8
1-3ﾚｲﾔ
  6
JWW_DASHED1
 62
     4
370
     9
100
AcDbLine
 10
498.0770626583615
 20
275.4673066010346
 30
0.0
 11
498.0770626583615
 21
275.5672722893793
 31
0.0
  0
LINE
  5
1F8
330
1F
100
AcDbEntity
  8
1-3ﾚｲﾔ
  6
JWW_DASHED1
 62
     4
370
     9
100
AcDbLine
 10
498.0770626583615
 20
259.6672841664907
 30
0.0
 11
498.0770626583615
 21
259.5673184781463
 31
0.0
  0
LINE
  5
1F9
330
1F
100
AcDbEntity
  8
1-0ﾚｲﾔ
  6
Continuous
 62
     4
370
     9
100
AcDbLine
 10
498.0770626583615
 20
275.4673066010346
 30
0.0
 11
498.0770626583615
 21
259.6672841664907
 31
0.0
  0
LINE
  5
1FA
330
1F
100
AcDbEntity
  8
1-1ﾚｲﾔ
  6
Continuous
 62
     3
370
     9
100
AcDbLine
 10
512.5770362647804
 20
251.5672178526182
 30
0.0
 11
512.5770362647804
 21
283.5672491949958
 31
0.0
  0
LINE
  5
1FB
330
1F
100
AcDbEntity
  8
1-1ﾚｲﾔ
  6
Continuous
 62
     3
370
     9
100
AcDbLine
 10
512.5770362647804
 20
251.5672178526182
 30
0.0
 11
514.0770164695948
 21
250.5673135293497
 31
0.0
  0
LINE
  5
1FC
330
1F
100
AcDbEntity
  8
1-1ﾚｲﾔ
  6
Continuous
 62
     3
370
     9
100
AcDbLine
 10
512.5770362647804
 20
283.5672491949958
 30
0.0
 11
514.0770164695948
 21
284.5672772381758
 31
0.0
  0
LINE
  5
1FD
330
1F
100
AcDbEntity
  8
1-3ﾚｲﾔ
  6
JWW_CENTER1
 62
     4
370
     9
100
AcDbLine
 10
469.4698024440456
 20
267.5672953837628
 30
0.0
 11
523.7991745407519
 21
267.5672953837628
 31
0.0
  0
LINE
  5
1FE
330
1F
100
AcDbEntity
  8
1-2ﾚｲﾔ
  6
Continuous
 62
     4
370
     9
100
AcDbLine
 10
479.8768739442568
 20
260.3672914247255
 30
0.0
 11
479.8768739442568
 21
274.7672993427999
 31
0.0
  0
LINE
  5
1FF
330
1F
100
AcDbEntity
  8
1-2ﾚｲﾔ
  6
Continuous
 62
     4
370
     9
100
AcDbLine
 10
479.0769009976773
 20
259.5673184781463
 30
0.0
 11
479.8768739442568
 21
260.3672914247255
 31
0.0
  0
LINE
  5
200
330
1F
100
AcDbEntity
  8
1-2ﾚｲﾔ
  6
Continuous
 62
     4
370
     9
100
AcDbLine
 10
479.8768739442568
 20
274.7672993427999
 30
0.0
 11
479.0769009976773
 21
275.5672722893793
 31
0.0
  0
LINE
  5
201
330
1F
100
AcDbEntity
  8
1-0ﾚｲﾔ
  6
Continuous
 62
     4
370
     9
100
AcDbLine
 10
474.0768845016893
 20
256.0672821869721
 30
0.0
 11
477.0769686312289
 21
256.0672821869721
 31
0.0
  0
LINE
  5
202
330
1F
100
AcDbEntity
  8
1-0ﾚｲﾔ
  6
Continuous
 62
     4
370
     9
100
AcDbLine
 10
474.0768845016893
 20
279.0673085805532
 30
0.0
 11
477.0769686312289
 21
279.0673085805532
 31
0.0
  0
LINE
  5
203
330
1F
100
AcDbEntity
  8
1-0ﾚｲﾔ
  6
Continuous
 62
     6
370
     9
100
AcDbLine
 10
477.0769686312289
 20
256.5672343486065
 30
0.0
 11
479.0769009976773
 21
256.5672343486065
 31
0.0
  0
LINE
  5
204
330
1F
100
AcDbEntity
  8
1-0ﾚｲﾔ
  6
Continuous
 62
     6
370
     9
100
AcDbLine
 10
477.0769686312289
 20
278.567356418919
 30
0.0
 11
479.0769009976773
 21
278.567356418919
 31
0.0
  0
LINE
  5
205
330
1F
100
AcDbEntity
  8
1-0ﾚｲﾔ
  6
Continuous
 62
     6
370
     9
100
AcDbLine
 10
479.0769009976773
 20
274.3173300253379
 30
0.0
 11
477.0769686312289
 21
274.3173300253379
 31
0.0
  0
LINE
  5
206
330
1F
100
AcDbEntity
  8
1-0ﾚｲﾔ
  6
Continuous
 62
     6
370
     9
100
AcDbLine
 10
479.0769009976773
 20
260.8172607421875
 30
0.0
 11
477.0769686312289
 21
260.8172607421875
 31
0.0
  0
LINE
  5
207
330
1F
100
AcDbEntity
  8
1-0ﾚｲﾔ
  6
Continuous
 62
     4
370
     9
100
AcDbLine
 10
474.0768845016893
 20
266.0671914590372
 30
0.0
 11
476.076940588049
 21
266.0671914590372
 31
0.0
  0
LINE
  5
208
330
1F
100
AcDbEntity
  8
1-0ﾚｲﾔ
  6
Continuous
 62
     4
370
     9
100
AcDbLine
 10
474.0768845016893
 20
269.0673993084883
 30
0.0
 11
476.076940588049
 21
269.0673993084883
 31
0.0
  0
LINE
  5
209
330
1F
100
AcDbEntity
  8
1-0ﾚｲﾔ
  6
Continuous
 62
     4
370
     9
100
AcDbLine
 10
476.076940588049
 20
266.0671914590372
 30
0.0
 11
476.076940588049
 21
269.0673993084883
 31
0.0
  0
LINE
  5
20A
330
1F
100
AcDbEntity
  8
1-0ﾚｲﾔ
  6
Continuous
 62
     4
370
     9
100
AcDbLine
 10
485.9943286792654
 20
275.5672722893793
 30
0.0
 11
485.9943286792654
 21
259.5673184781463
 31
0.0
  0
LINE
  5
20B
330
1F
100
AcDbEntity
  8
1-0ﾚｲﾔ
  6
Continuous
 62
     4
370
     9
100
AcDbLine
 10
477.0769686312289
 20
256.0672821869721
 30
0.0
 11
477.0769686312289
 21
279.0673085805532
 31
0.0
  0
LINE
  5
20C
330
1F
100
AcDbEntity
  8
1-0ﾚｲﾔ
  6
Continuous
 62
     4
370
     9
100
AcDbLine
 10
487.0767541833825
 20
274.7672993427999
 30
0.0
 11
487.0767541833825
 21
260.3672914247255
 31
0.0
  0
LINE
  5
20D
330
1F
100
AcDbEntity
  8
1-0ﾚｲﾔ
  6
Continuous
 62
     4
370
     9
100
AcDbLine
 10
485.9943286792654
 20
259.5673184781463
 30
0.0
 11
487.0767541833825
 21
260.3672914247255
 31
0.0
  0
LINE
  5
20E
330
1F
100
AcDbEntity
  8
1-0ﾚｲﾔ
  6
Continuous
 62
     4
370
     9
100
AcDbLine
 10
487.0767541833825
 20
274.7672993427999
 30
0.0
 11
485.9943286792654
 21
275.5672722893793
 31
0.0
  0
LINE
  5
20F
330
1F
100
AcDbEntity
  8
1-0ﾚｲﾔ
  6
Continuous
 62
     4
370
     9
100
AcDbLine
 10
479.8768739442568
 20
260.3672914247255
 30
0.0
 11
498.0770626583615
 21
260.3672914247255
 31
0.0
  0
LINE
  5
210
330
1F
100
AcDbEntity
  8
1-0ﾚｲﾔ
  6
Continuous
 62
     4
370
     9
100
AcDbLine
 10
479.0769009976773
 20
259.5673184781463
 30
0.0
 11
498.0770626583615
 21
259.5673184781463
 31
0.0
  0
LINE
  5
211
330
1F
100
AcDbEntity
  8
1-0ﾚｲﾔ
  6
Continuous
 62
     4
370
     9
100
AcDbLine
 10
479.0769009976773
 20
275.5672722893793
 30
0.0
 11
498.0770626583615
 21
275.5672722893793
 31
0.0
  0
LINE
  5
212
330
1F
100
AcDbEntity
  8
1-0ﾚｲﾔ
  6
Continuous
 62
     4
370
     9
100
AcDbLine
 10
479.8768739442568
 20
274.7672993427999
 30
0.0
 11
498.0770626583615
 21
274.7672993427999
 31
0.0
  0
LINE
  5
213
330
1F
100
AcDbEntity
  8
1-3ﾚｲﾔ
  6
Continuous
 62
     4
370
     9
100
AcDbLine
 10
482.5769372888513
 20
288.567265690984
 30
0.0
 11
482.5769372888513
 21
301.9832054344384
 31
0.0
  0
LINE
  5
214
330
1F
100
AcDbEntity
  8
1-1ﾚｲﾔ
  6
Continuous
 62
     3
370
     9
100
AcDbLine
 10
514.0770164695948
 20
290.0671221758869
 30
0.0
 11
514.0770164695948
 21
284.5672772381758
 31
0.0
  0
LINE
  5
215
330
1F
100
AcDbEntity
  8
1-3ﾚｲﾔ
  6
Continuous
 62
     4
370
     9
100
AcDbLine
 10
535.0769867768158
 20
332.5673861116977
 30
0.0
 11
535.0769867768158
 21
402.5672458957982
 31
0.0
  0
LINE
  5
216
330
1F
100
AcDbEntity
  8
1-3ﾚｲﾔ
  6
Continuous
 62
     4
370
     9
100
AcDbLine
 10
535.0769867768158
 20
332.5673861116977
 30
0.0
 11
539.0770989495356
 21
332.5673861116977
 31
0.0
  0
LINE
  5
217
330
1F
100
AcDbEntity
  8
1-3ﾚｲﾔ
  6
Continuous
 62
     2
370
     9
100
AcDbLine
 10
551.3770850929054
 20
340.8772813951647
 30
0.0
 11
551.3770850929054
 21
355.2573704075169
 31
0.0
  0
LINE
  5
218
330
1F
100
AcDbEntity
  8
1-3ﾚｲﾔ
  6
Continuous
 62
     2
370
     9
100
AcDbLine
 10
556.0669357712206
 20
352.2574099978885
 30
0.0
 11
551.3770850929054
 21
352.2574099978885
 31
0.0
  0
LINE
  5
219
330
1F
100
AcDbEntity
  8
1-3ﾚｲﾔ
  6
Continuous
 62
     2
370
     9
100
AcDbLine
 10
556.6769986539273
 20
339.4723180822425
 30
0.0
 11
556.6769986539273
 21
350.6622891812713
 31
0.0
  0
LINE
  5
21A
330
1F
100
AcDbEntity
  8
1-3ﾚｲﾔ
  6
Continuous
 62
     2
370
     9
100
AcDbLine
 10
556.0669357712206
 20
337.877197265625
 30
0.0
 11
551.3770850929054
 21
337.877197265625
 31
0.0
  0
LINE
  5
21B
330
1F
100
AcDbEntity
  8
1-3ﾚｲﾔ
  6
Continuous
 62
     2
370
     9
100
AcDbLine
 10
522.0537340318836
 20
349.0671683646538
 30
0.0
 11
521.3769861169762
 21
348.3907916094806
 31
0.0
  0
LINE
  5
21C
330
1F
100
AcDbEntity
  8
1-3ﾚｲﾔ
  6
Continuous
 62
     2
370
     9
100
AcDbLine
 10
521.3769861169762
 20
348.3907916094806
 30
0.0
 11
521.3769861169762
 21
341.7439393739443
 31
0.0
  0
LINE
  5
21D
330
1F
100
AcDbEntity
  8
1-3ﾚｲﾔ
  6
Continuous
 62
     2
370
     9
100
AcDbLine
 10
521.3769861169762
 20
341.7439393739443
 30
0.0
 11
522.0537340318836
 21
341.0671914590372
 31
0.0
  0
LINE
  5
21E
330
1F
100
AcDbEntity
  8
1-3ﾚｲﾔ
  6
Continuous
 62
     2
370
     9
100
AcDbLine
 10
529.2985245988177
 20
337.5674026076858
 30
0.0
 11
535.0767393369932
 21
337.5674026076858
 31
0.0
  0
LINE
  5
21F
330
1F
100
AcDbEntity
  8
1-3ﾚｲﾔ
  6
Continuous
 62
     2
370
     9
100
AcDbLine
 10
529.2985245988177
 20
352.5672046558277
 30
0.0
 11
535.0767393369932
 21
352.5672046558277
 31
0.0
  0
LINE
  5
220
330
1F
100
AcDbEntity
  8
1-3ﾚｲﾔ
  6
Continuous
 62
     2
370
     9
100
AcDbLine
 10
535.0767393369932
 20
337.5674026076858
 30
0.0
 11
535.0767393369932
 21
352.5672046558277
 31
0.0
  0
LINE
  5
221
330
1F
100
AcDbEntity
  8
1-3ﾚｲﾔ
  6
Continuous
 62
     2
370
     9
100
AcDbLine
 10
529.2985245988177
 20
341.3200749577703
 30
0.0
 11
535.0767393369932
 21
341.3200749577703
 31
0.0
  0
LINE
  5
222
330
1F
100
AcDbEntity
  8
1-3ﾚｲﾔ
  6
Continuous
 62
     2
370
     9
100
AcDbLine
 10
529.2985245988177
 20
348.8145323057433
 30
0.0
 11
535.0767393369932
 21
348.8145323057433
 31
0.0
  0
LINE
  5
223
330
1F
100
AcDbEntity
  8
1-3ﾚｲﾔ
  6
Continuous
 62
     2
370
     9
100
AcDbLine
 10
528.5767426361908
 20
339.4437387827281
 30
0.0
 11
528.5767426361908
 21
350.6909922006969
 31
0.0
  0
LINE
  5
224
330
1F
100
AcDbEntity
  8
1-3ﾚｲﾔ
  6
Continuous
 62
     2
370
     9
100
AcDbLine
 10
522.0537340318836
 20
341.0671914590372
 30
0.0
 11
522.0537340318836
 21
349.0671683646538
 31
0.0
  0
LINE
  5
225
330
1F
100
AcDbEntity
  8
1-0ﾚｲﾔ
  6
Continuous
 62
     2
370
     9
100
AcDbLine
 10
556.0670594911318
 20
349.0671683646538
 30
0.0
 11
551.3770850929054
 21
349.0671683646538
 31
0.0
  0
LINE
  5
226
330
1F
100
AcDbEntity
  8
1-0ﾚｲﾔ
  6
Continuous
 62
     2
370
     9
100
AcDbLine
 10
556.0670594911318
 20
341.0674388988599
 30
0.0
 11
551.3770850929054
 21
341.0674388988599
 31
0.0
  0
LINE
  5
227
330
1F
100
AcDbEntity
  8
1-3ﾚｲﾔ
  6
Continuous
 62
     4
370
     9
100
AcDbLine
 10
512.5770362647804
 20
-323.4324522276182
 30
0.0
 11
512.5770362647804
 21
-291.432544605152
 31
0.0
  0
LINE
  5
228
330
1F
100
AcDbEntity
  8
1-3ﾚｲﾔ
  6
Continuous
 62
     4
370
     9
100
AcDbLine
 10
474.0768845016893
 20
-345.4325742979307
 30
0.0
 11
474.0768845016893
 21
-271.9328019425675
 31
0.0
  0
LINE
  5
229
330
1F
100
AcDbEntity
  8
1-3ﾚｲﾔ
  6
Continuous
 62
     4
370
     9
100
AcDbLine
 10
481.035139754012
 20
-343.7955124313767
 30
0.0
 11
474.0768845016893
 21
-345.4325742979307
 31
0.0
  0
LINE
  5
22A
330
1F
100
AcDbEntity
  8
1-3ﾚｲﾔ
  6
Continuous
 62
     4
370
     9
100
AcDbLine
 10
480.5770049224029
 20
-271.9328019425675
 30
0.0
 11
474.0768845016893
 21
-271.9328019425675
 31
0.0
  0
LINE
  5
22B
330
1F
100
AcDbEntity
  8
1-3ﾚｲﾔ
  6
Continuous
 62
     4
370
     9
100
AcDbLine
 10
487.5769537848396
 20
-323.4324522276182
 30
0.0
 11
512.5770362647804
 21
-323.4324522276182
 31
0.0
  0
LINE
  5
22C
330
1F
100
AcDbEntity
  8
1-3ﾚｲﾔ
  6
Continuous
 62
     4
370
     9
100
AcDbLine
 10
487.5769537848396
 20
-291.432544605152
 30
0.0
 11
512.5770362647804
 21
-291.432544605152
 31
0.0
  0
LINE
  5
22D
330
1F
100
AcDbEntity
  8
1-3ﾚｲﾔ
  6
Continuous
 62
     4
370
     9
100
AcDbLine
 10
482.5769372888513
 20
-286.4327755489865
 30
0.0
 11
482.5769372888513
 21
-273.9326105891047
 31
0.0
  0
LINE
  5
22E
330
1F
100
AcDbEntity
  8
1-3ﾚｲﾔ
  6
JWW_CENTER1
 62
     4
370
     9
100
AcDbLine
 10
469.4698024440456
 20
-307.4324984163851
 30
0.0
 11
528.6972458298144
 21
-307.4324984163851
 31
0.0
  0
LINE
  5
22F
330
1F
100
AcDbEntity
  8
1-3ﾚｲﾔ
  6
Continuous
 62
     4
370
     9
100
AcDbLine
 10
482.5769372888513
 20
-328.4324687236063
 30
0.0
 11
482.5769372888513
 21
-341.8484084670608
 31
0.0
  0
LINE
  5
230
330
1F
100
AcDbEntity
  8
1-0ﾚｲﾔ
  6
Continuous
 62
     2
370
     9
100
AcDbLine
 10
551.3770850929054
 20
358.0672970333616
 30
0.0
 11
551.3770850929054
 21
332.0673102301521
 31
0.0
  0
LINE
  5
231
330
1F
100
AcDbEntity
  8
1-0ﾚｲﾔ
  6
Continuous
 62
     2
370
     9
100
AcDbLine
 10
549.0770082216005
 20
358.0672970333616
 30
0.0
 11
551.3770850929054
 21
358.0672970333616
 31
0.0
  0
LINE
  5
232
330
1F
100
AcDbEntity
  8
1-0ﾚｲﾔ
  6
Continuous
 62
     2
370
     9
100
AcDbLine
 10
549.0770082216005
 20
332.0673102301521
 30
0.0
 11
551.3770850929054
 21
332.0673102301521
 31
0.0
  0
LINE
  5
233
330
1F
100
AcDbEntity
  8
1-3ﾚｲﾔ
  6
Continuous
 62
     2
370
     9
100
AcDbLine
 10
528.5767426361908
 20
348.3907916094806
 30
0.0
 11
521.3769861169762
 21
348.3907916094806
 31
0.0
  0
LINE
  5
234
330
1F
100
AcDbEntity
  8
1-3ﾚｲﾔ
  6
Continuous
 62
     2
370
     9
100
AcDbLine
 10
528.5767426361908
 20
349.0671683646538
 30
0.0
 11
522.0537340318836
 21
349.0671683646538
 31
0.0
  0
LINE
  5
235
330
1F
100
AcDbEntity
  8
1-3ﾚｲﾔ
  6
Continuous
 62
     2
370
     9
100
AcDbLine
 10
528.5767426361908
 20
341.7439393739443
 30
0.0
 11
521.3769861169762
 21
341.7439393739443
 31
0.0
  0
LINE
  5
236
330
1F
100
AcDbEntity
  8
1-3ﾚｲﾔ
  6
Continuous
 62
     2
370
     9
100
AcDbLine
 10
528.5767426361908
 20
341.0671914590372
 30
0.0
 11
522.0537340318836
 21
341.0671914590372
 31
0.0
  0
LINE
  5
237
330
1F
100
AcDbEntity
  8
1-0ﾚｲﾔ
  6
JWW_CENTER1
 62
     4
370
     9
100
AcDbLine
 10
516.4398193359375
 20
345.0673036317568
 30
0.0
 11
559.3951251055745
 21
345.0673036317568
 31
0.0
  0
LINE
  5
238
330
1F
100
AcDbEntity
  8
1-3ﾚｲﾔ
  6
Continuous
 62
     4
370
     9
100
AcDbLine
 10
507.5770197687922
 20
-323.4324522276182
 30
0.0
 11
507.5770197687922
 21
-291.432544605152
 31
0.0
  0
LINE
  5
239
330
1F
100
AcDbEntity
  8
1-3ﾚｲﾔ
  6
Continuous
 62
     4
370
     9
100
AcDbLine
 10
480.035111710832
 20
-341.5306957347973
 30
0.0
 11
474.0768845016893
 21
-342.932689769848
 31
0.0
  0
LINE
  5
23A
330
1F
100
AcDbEntity
  8
1-3ﾚｲﾔ
  6
Continuous
 62
     4
370
     9
100
AcDbLine
 10
479.5769768792232
 20
-273.4325347075591
 30
0.0
 11
474.0768845016893
 21
-273.4325347075591
 31
0.0
  0
LINE
  5
23B
330
1F
100
AcDbEntity
  8
1-3ﾚｲﾔ
  6
Continuous
 62
     4
370
     9
100
AcDbLine
 10
481.5770329655828
 20
-275.4325907939188
 30
0.0
 11
481.5770329655828
 21
-339.5838392103041
 31
0.0
  0
LINE
  5
23C
330
1F
100
AcDbEntity
  8
1-3ﾚｲﾔ
  6
JWW_DASHED1
 62
     4
370
     9
100
AcDbLine
 10
474.0768845016893
 20
-319.1826732738598
 30
0.0
 11
479.0769009976773
 21
-319.1826732738598
 31
0.0
  0
LINE
  5
23D
330
1F
100
AcDbEntity
  8
1-3ﾚｲﾔ
  6
JWW_DASHED1
 62
     4
370
     9
100
AcDbLine
 10
479.0769009976773
 20
-319.1826732738598
 30
0.0
 11
479.0769009976773
 21
-295.6825709987331
 31
0.0
  0
LINE
  5
23E
330
1F
100
AcDbEntity
  8
1-3ﾚｲﾔ
  6
JWW_DASHED1
 62
     4
370
     9
100
AcDbLine
 10
474.0768845016893
 20
-295.6825709987331
 30
0.0
 11
479.0769009976773
 21
-295.6825709987331
 31
0.0
  0
LINE
  5
23F
330
1F
100
AcDbEntity
  8
1-3ﾚｲﾔ
  6
JWW_DASHED1
 62
     4
370
     9
100
AcDbLine
 10
512.5770362647804
 20
-297.4327128642313
 30
0.0
 11
500.0769950248102
 21
-297.4327128642313
 31
0.0
  0
LINE
  5
240
330
1F
100
AcDbEntity
  8
1-3ﾚｲﾔ
  6
JWW_DASHED1
 62
     4
370
     9
100
AcDbLine
 10
496.0770065720018
 20
-301.4325775971284
 30
0.0
 11
479.0769009976773
 21
-301.4325775971284
 31
0.0
  0
LINE
  5
241
330
1F
100
AcDbEntity
  8
1-3ﾚｲﾔ
  6
JWW_DASHED1
 62
     4
370
     9
100
AcDbLine
 10
500.0769950248102
 20
-317.4325314083615
 30
0.0
 11
512.5770362647804
 21
-317.4325314083615
 31
0.0
  0
LINE
  5
242
330
1F
100
AcDbEntity
  8
1-3ﾚｲﾔ
  6
JWW_DASHED1
 62
     4
370
     9
100
AcDbLine
 10
498.0770626583615
 20
-315.3325096336571
 30
0.0
 11
498.0770626583615
 21
-315.4327227618243
 31
0.0
  0
LINE
  5
243
330
1F
100
AcDbEntity
  8
1-3ﾚｲﾔ
  6
JWW_DASHED1
 62
     4
370
     9
100
AcDbLine
 10
496.1769722603464
 20
-313.4326666754645
 30
0.0
 11
479.0769009976773
 21
-313.4326666754645
 31
0.0
  0
LINE
  5
244
330
1F
100
AcDbEntity
  8
1-3ﾚｲﾔ
  6
JWW_DASHED1
 62
     4
370
     9
100
AcDbLine
 10
498.0770626583615
 20
-299.5327346389358
 30
0.0
 11
498.0770626583615
 21
-299.4325215107685
 31
0.0
  0
LINE
  5
245
330
1F
100
AcDbEntity
  8
1-3ﾚｲﾔ
  6
JWW_DASHED1
 62
     4
370
     9
100
AcDbLine
 10
498.0770626583615
 20
-315.3325096336571
 30
0.0
 11
498.0770626583615
 21
-299.5327346389358
 31
0.0
  0
LINE
  5
246
330
1F
100
AcDbEntity
  8
1-3ﾚｲﾔ
  6
Continuous
 62
     2
370
     9
100
AcDbLine
 10
521.0769653320312
 20
-300.242639490076
 30
0.0
 11
521.0769653320312
 21
-314.6226047825169
 31
0.0
  0
LINE
  5
247
330
1F
100
AcDbEntity
  8
1-3ﾚｲﾔ
  6
Continuous
 62
     2
370
     9
100
AcDbLine
 10
525.7668160103464
 20
-314.6226047825169
 30
0.0
 11
521.0769653320312
 21
-314.6226047825169
 31
0.0
  0
LINE
  5
248
330
1F
100
AcDbEntity
  8
1-3ﾚｲﾔ
  6
Continuous
 62
     2
370
     9
100
AcDbLine
 10
526.3768788930533
 20
-301.8376365867821
 30
0.0
 11
526.3768788930533
 21
-313.0276076858108
 31
0.0
  0
LINE
  5
249
330
1F
100
AcDbEntity
  8
1-3ﾚｲﾔ
  6
Continuous
 62
     2
370
     9
100
AcDbLine
 10
525.7668160103464
 20
-300.242639490076
 30
0.0
 11
521.0769653320312
 21
-300.242639490076
 31
0.0
  0
LINE
  5
24A
330
1F
100
AcDbEntity
  8
1-3ﾚｲﾔ
  6
Continuous
 62
     2
370
     9
100
AcDbLine
 10
505.753635715794
 20
-311.4326105891047
 30
0.0
 11
505.0770115207982
 21
-310.7561101140203
 31
0.0
  0
LINE
  5
24B
330
1F
100
AcDbEntity
  8
1-3ﾚｲﾔ
  6
Continuous
 62
     2
370
     9
100
AcDbLine
 10
505.0770115207982
 20
-310.7561101140203
 30
0.0
 11
505.0770115207982
 21
-304.1091341585726
 31
0.0
  0
LINE
  5
24C
330
1F
100
AcDbEntity
  8
1-3ﾚｲﾔ
  6
Continuous
 62
     2
370
     9
100
AcDbLine
 10
505.0770115207982
 20
-304.1091341585726
 30
0.0
 11
505.753635715794
 21
-303.4326336834881
 31
0.0
  0
LINE
  5
24D
330
1F
100
AcDbEntity
  8
1-3ﾚｲﾔ
  6
Continuous
 62
     2
370
     9
100
AcDbLine
 10
505.753635715794
 20
-303.4326336834881
 30
0.0
 11
505.753635715794
 21
-311.4326105891047
 31
0.0
  0
LINE
  5
24E
330
1F
100
AcDbEntity
  8
1-0ﾚｲﾔ
  6
Continuous
 62
     2
370
     9
100
AcDbLine
 10
525.767063450169
 20
-311.4326105891047
 30
0.0
 11
521.0769653320312
 21
-311.4326105891047
 31
0.0
  0
LINE
  5
24F
330
1F
100
AcDbEntity
  8
1-0ﾚｲﾔ
  6
Continuous
 62
     2
370
     9
100
AcDbLine
 10
525.767063450169
 20
-303.4326336834881
 30
0.0
 11
521.0769653320312
 21
-303.4326336834881
 31
0.0
  0
LINE
  5
250
330
1F
100
AcDbEntity
  8
1-3ﾚｲﾔ
  6
Continuous
 62
     2
370
     9
100
AcDbLine
 10
507.5770197687922
 20
-310.7561101140203
 30
0.0
 11
505.0770115207982
 21
-310.7561101140203
 31
0.0
  0
LINE
  5
251
330
1F
100
AcDbEntity
  8
1-3ﾚｲﾔ
  6
Continuous
 62
     2
370
     9
100
AcDbLine
 10
507.5770197687922
 20
-311.4326105891047
 30
0.0
 11
505.753635715794
 21
-311.4326105891047
 31
0.0
  0
LINE
  5
252
330
1F
100
AcDbEntity
  8
1-3ﾚｲﾔ
  6
Continuous
 62
     2
370
     9
100
AcDbLine
 10
507.5770197687922
 20
-304.1091341585726
 30
0.0
 11
505.0770115207982
 21
-304.1091341585726
 31
0.0
  0
LINE
  5
253
330
1F
100
AcDbEntity
  8
1-3ﾚｲﾔ
  6
Continuous
 62
     2
370
     9
100
AcDbLine
 10
507.5770197687922
 20
-303.4326336834881
 30
0.0
 11
505.753635715794
 21
-303.4326336834881
 31
0.0
  0
LINE
  5
254
330
1F
100
AcDbEntity
  8
1-3ﾚｲﾔ
  6
JWW_DASHED1
 62
     2
370
     9
100
AcDbLine
 10
507.5770197687922
 20
-311.4326105891047
 30
0.0
 11
521.0769653320312
 21
-311.4326105891047
 31
0.0
  0
LINE
  5
255
330
1F
100
AcDbEntity
  8
1-3ﾚｲﾔ
  6
JWW_DASHED1
 62
     2
370
     9
100
AcDbLine
 10
507.5770197687922
 20
-303.4326336834881
 30
0.0
 11
521.0769653320312
 21
-303.4326336834881
 31
0.0
  0
LINE
  5
256
330
1F
100
AcDbEntity
  8
1-3ﾚｲﾔ
  6
JWW_DASHED1
 62
     2
370
     9
100
AcDbLine
 10
507.5770197687922
 20
-310.7561101140203
 30
0.0
 11
521.0769653320312
 21
-310.7561101140203
 31
0.0
  0
LINE
  5
257
330
1F
100
AcDbEntity
  8
1-3ﾚｲﾔ
  6
JWW_DASHED1
 62
     2
370
     9
100
AcDbLine
 10
507.5770197687922
 20
-304.1091341585726
 30
0.0
 11
521.0769653320312
 21
-304.1091341585726
 31
0.0
  0
LINE
  5
258
330
1F
100
AcDbEntity
  8
1-1ﾚｲﾔ
  6
Continuous
 62
     3
370
     9
100
AcDbLine
 10
512.5770362647804
 20
-291.432544605152
 30
0.0
 11
514.0770164695948
 21
-290.4326402818834
 31
0.0
  0
LINE
  5
259
330
1F
100
AcDbEntity
  8
1-1ﾚｲﾔ
  6
Continuous
 62
     3
370
     9
100
AcDbLine
 10
512.5770362647804
 20
-323.4324522276182
 30
0.0
 11
514.0770164695948
 21
-324.4326039907094
 31
0.0
  0
LINE
  5
25A
330
1F
100
AcDbEntity
  8
1-1ﾚｲﾔ
  6
Continuous
 62
     3
370
     9
100
AcDbLine
 10
514.0770164695948
 20
250.5673135293497
 30
0.0
 11
514.0770164695948
 21
-290.4326402818834
 31
0.0
  0
LINE
  5
25B
330
1F
100
AcDbEntity
  8
1-1ﾚｲﾔ
  6
Continuous
 62
     3
370
     9
100
AcDbLine
 10
514.0770164695948
 20
-324.4326039907094
 30
0.0
 11
514.0770164695948
 21
-329.9324489284206
 31
0.0
  0
LINE
  5
25C
330
1F
100
AcDbEntity
  8
1-3ﾚｲﾔ
  6
Continuous
 62
     4
370
     9
100
AcDbLine
 10
539.0770989495356
 20
332.5673861116977
 30
0.0
 11
539.0770989495356
 21
402.5672458957982
 31
0.0
  0
LINE
  5
25D
330
1F
100
AcDbEntity
  8
1-0ﾚｲﾔ
  6
Continuous
 62
     2
370
     9
100
AcDbLine
 10
539.0770989495356
 20
331.4369572819891
 30
0.0
 11
539.0770989495356
 21
358.1623139252534
 31
0.0
  0
LINE
  5
25E
330
1F
100
AcDbEntity
  8
1-3ﾚｲﾔ
  6
Continuous
 62
     4
370
     9
100
AcDbLine
 10
535.0769867768158
 20
-442.4326963682432
 30
0.0
 11
539.0770989495356
 21
-442.4326963682432
 31
0.0
  0
LINE
  5
25F
330
1F
100
AcDbEntity
  8
1-3ﾚｲﾔ
  6
Continuous
 62
     4
370
     9
100
AcDbLine
 10
535.0769867768158
 20
-372.4327128642313
 30
0.0
 11
535.0769867768158
 21
-442.4326963682432
 31
0.0
  0
LINE
  5
260
330
1F
100
AcDbEntity
  8
1-3ﾚｲﾔ
  6
Continuous
 62
     4
370
     9
100
AcDbLine
 10
535.0769867768158
 20
-372.4327128642313
 30
0.0
 11
539.0770989495356
 21
-372.4327128642313
 31
0.0
  0
LINE
  5
261
330
1F
100
AcDbEntity
  8
1-3ﾚｲﾔ
  6
Continuous
 62
     2
370
     9
100
AcDbLine
 10
551.3770850929054
 20
-380.7424844277872
 30
0.0
 11
551.3770850929054
 21
-395.1226971600506
 31
0.0
  0
LINE
  5
262
330
1F
100
AcDbEntity
  8
1-3ﾚｲﾔ
  6
Continuous
 62
     2
370
     9
100
AcDbLine
 10
556.0669357712206
 20
-392.1227367504223
 30
0.0
 11
551.3770850929054
 21
-392.1227367504223
 31
0.0
  0
LINE
  5
263
330
1F
100
AcDbEntity
  8
1-3ﾚｲﾔ
  6
Continuous
 62
     2
370
     9
100
AcDbLine
 10
556.6769986539273
 20
-379.3375211148648
 30
0.0
 11
556.6769986539273
 21
-390.5277396537162
 31
0.0
  0
LINE
  5
264
330
1F
100
AcDbEntity
  8
1-3ﾚｲﾔ
  6
Continuous
 62
     2
370
     9
100
AcDbLine
 10
556.0669357712206
 20
-377.7425240181588
 30
0.0
 11
551.3770850929054
 21
-377.7425240181588
 31
0.0
  0
LINE
  5
265
330
1F
100
AcDbEntity
  8
1-3ﾚｲﾔ
  6
Continuous
 62
     2
370
     9
100
AcDbLine
 10
522.0537340318836
 20
-388.9324951171875
 30
0.0
 11
521.3769861169762
 21
-388.255994642103
 31
0.0
  0
LINE
  5
266
330
1F
100
AcDbEntity
  8
1-3ﾚｲﾔ
  6
Continuous
 62
     2
370
     9
100
AcDbLine
 10
521.3769861169762
 20
-388.255994642103
 30
0.0
 11
521.3769861169762
 21
-381.609266126478
 31
0.0
  0
LINE
  5
267
330
1F
100
AcDbEntity
  8
1-3ﾚｲﾔ
  6
Continuous
 62
     2
370
     9
100
AcDbLine
 10
521.3769861169762
 20
-381.609266126478
 30
0.0
 11
522.0537340318836
 21
-380.9325182115709
 31
0.0
  0
LINE
  5
268
330
1F
100
AcDbEntity
  8
1-3ﾚｲﾔ
  6
Continuous
 62
     2
370
     9
100
AcDbLine
 10
529.2985245988177
 20
-377.4327293602196
 30
0.0
 11
535.0767393369932
 21
-377.4327293602196
 31
0.0
  0
LINE
  5
269
330
1F
100
AcDbEntity
  8
1-3ﾚｲﾔ
  6
Continuous
 62
     2
370
     9
100
AcDbLine
 10
529.2985245988177
 20
-392.4325314083615
 30
0.0
 11
535.0767393369932
 21
-392.4325314083615
 31
0.0
  0
LINE
  5
26A
330
1F
100
AcDbEntity
  8
1-3ﾚｲﾔ
  6
Continuous
 62
     2
370
     9
100
AcDbLine
 10
535.0767393369932
 20
-377.4327293602196
 30
0.0
 11
535.0767393369932
 21
-392.4325314083615
 31
0.0
  0
LINE
  5
26B
330
1F
100
AcDbEntity
  8
1-3ﾚｲﾔ
  6
Continuous
 62
     2
370
     9
100
AcDbLine
 10
529.2985245988177
 20
-381.1854017103041
 30
0.0
 11
535.0767393369932
 21
-381.1854017103041
 31
0.0
  0
LINE
  5
26C
330
1F
100
AcDbEntity
  8
1-3ﾚｲﾔ
  6
Continuous
 62
     2
370
     9
100
AcDbLine
 10
529.2985245988177
 20
-388.679859058277
 30
0.0
 11
535.0767393369932
 21
-388.679859058277
 31
0.0
  0
LINE
  5
26D
330
1F
100
AcDbEntity
  8
1-3ﾚｲﾔ
  6
Continuous
 62
     2
370
     9
100
AcDbLine
 10
528.5767426361908
 20
-379.3090655352618
 30
0.0
 11
528.5767426361908
 21
-390.5561952333193
 31
0.0
  0
LINE
  5
26E
330
1F
100
AcDbEntity
  8
1-3ﾚｲﾔ
  6
Continuous
 62
     2
370
     9
100
AcDbLine
 10
522.0537340318836
 20
-380.9325182115709
 30
0.0
 11
522.0537340318836
 21
-388.9324951171875
 31
0.0
  0
LINE
  5
26F
330
1F
100
AcDbEntity
  8
1-0ﾚｲﾔ
  6
Continuous
 62
     2
370
     9
100
AcDbLine
 10
556.0670594911318
 20
-388.9324951171875
 30
0.0
 11
551.3770850929054
 21
-388.9324951171875
 31
0.0
  0
LINE
  5
270
330
1F
100
AcDbEntity
  8
1-0ﾚｲﾔ
  6
Continuous
 62
     2
370
     9
100
AcDbLine
 10
556.0670594911318
 20
-380.9327656513935
 30
0.0
 11
551.3770850929054
 21
-380.9327656513935
 31
0.0
  0
LINE
  5
271
330
1F
100
AcDbEntity
  8
1-0ﾚｲﾔ
  6
Continuous
 62
     2
370
     9
100
AcDbLine
 10
551.3770850929054
 20
-397.9326237858953
 30
0.0
 11
551.3770850929054
 21
-371.9326369826858
 31
0.0
  0
LINE
  5
272
330
1F
100
AcDbEntity
  8
1-0ﾚｲﾔ
  6
Continuous
 62
     2
370
     9
100
AcDbLine
 10
549.0770082216005
 20
-397.9326237858953
 30
0.0
 11
551.3770850929054
 21
-397.9326237858953
 31
0.0
  0
LINE
  5
273
330
1F
100
AcDbEntity
  8
1-0ﾚｲﾔ
  6
Continuous
 62
     2
370
     9
100
AcDbLine
 10
549.0770082216005
 20
-371.9326369826858
 30
0.0
 11
551.3770850929054
 21
-371.9326369826858
 31
0.0
  0
LINE
  5
274
330
1F
100
AcDbEntity
  8
1-3ﾚｲﾔ
  6
Continuous
 62
     2
370
     9
100
AcDbLine
 10
528.5767426361908
 20
-388.255994642103
 30
0.0
 11
521.3769861169762
 21
-388.255994642103
 31
0.0
  0
LINE
  5
275
330
1F
100
AcDbEntity
  8
1-3ﾚｲﾔ
  6
Continuous
 62
     2
370
     9
100
AcDbLine
 10
528.5767426361908
 20
-388.9324951171875
 30
0.0
 11
522.0537340318836
 21
-388.9324951171875
 31
0.0
  0
LINE
  5
276
330
1F
100
AcDbEntity
  8
1-3ﾚｲﾔ
  6
Continuous
 62
     2
370
     9
100
AcDbLine
 10
528.5767426361908
 20
-381.609266126478
 30
0.0
 11
521.3769861169762
 21
-381.609266126478
 31
0.0
  0
LINE
  5
277
330
1F
100
AcDbEntity
  8
1-3ﾚｲﾔ
  6
Continuous
 62
     2
370
     9
100
AcDbLine
 10
528.5767426361908
 20
-380.9325182115709
 30
0.0
 11
522.0537340318836
 21
-380.9325182115709
 31
0.0
  0
LINE
  5
278
330
1F
100
AcDbEntity
  8
1-0ﾚｲﾔ
  6
JWW_CENTER1
 62
     4
370
     9
100
AcDbLine
 10
516.4398193359375
 20
-384.9326303842905
 30
0.0
 11
559.3951251055745
 21
-384.9326303842905
 31
0.0
  0
LINE
  5
279
330
1F
100
AcDbEntity
  8
1-3ﾚｲﾔ
  6
Continuous
 62
     4
370
     9
100
AcDbLine
 10
539.0770989495356
 20
-372.4327128642313
 30
0.0
 11
539.0770989495356
 21
-442.4326963682432
 31
0.0
  0
LINE
  5
27A
330
1F
100
AcDbEntity
  8
1-1ﾚｲﾔ
  6
Continuous
 62
     3
370
     9
100
AcDbLine
 10
521.0769653320312
 20
275.8587564004435
 30
0.0
 11
521.0769653320312
 21
249.0571882918074
 31
0.0
  0
LINE
  5
27B
330
1F
100
AcDbEntity
  8
1-1ﾚｲﾔ
  6
Continuous
 62
     3
370
     9
100
AcDbLine
 10
521.0769653320312
 20
-315.7239594330659
 30
0.0
 11
521.0769653320312
 21
-288.9225150443412
 31
0.0
  0
LINE
  5
27C
330
1F
100
AcDbEntity
  8
1-0ﾚｲﾔ
  6
Continuous
 62
     2
370
     9
100
AcDbLine
 10
-14.70442075987108
 20
-18.85605270798138
 30
0.0
 11
-6.749168602195823
 21
-14.26319844013932
 31
0.0
  0
LINE
  5
27D
330
1F
100
AcDbEntity
  8
1-0ﾚｲﾔ
  6
Continuous
 62
     2
370
     9
100
AcDbLine
 10
-14.70312170080234
 20
-19.43258749472122
 30
0.0
 11
-6.740260768580981
 21
-14.83527931007174
 31
0.0
  0
LINE
  5
27E
330
1F
100
AcDbEntity
  8
1-1ﾚｲﾔ
  6
Continuous
 62
     3
370
     9
100
AcDbLine
 10
-16.70435312631966
 20
-18.85444434913424
 30
0.0
 11
-29.81860186602617
 21
-11.28303321632174
 31
0.0
  0
LINE
  5
27F
330
1F
100
AcDbEntity
  8
1-1ﾚｲﾔ
  6
Continuous
 62
     3
370
     9
100
AcDbLine
 10
-16.70305406725078
 20
-19.43258749472122
 30
0.0
 11
-29.80338431693411
 21
-11.86909443623307
 31
0.0
  0
LINE
  5
280
330
1F
100
AcDbEntity
  8
1-0ﾚｲﾔ
  6
Continuous
 62
     2
370
     9
100
AcDbLine
 10
-374.7027010531039
 20
332.2506631387247
 30
0.0
 11
-374.7027010531039
 21
344.2777231577281
 31
0.0
  0
LINE
  5
281
330
1F
100
AcDbEntity
  8
1-0ﾚｲﾔ
  6
Continuous
 62
     2
370
     9
100
AcDbLine
 10
-372.7027686866553
 20
332.1506974503801
 30
0.0
 11
-372.7027686866553
 21
346.40756143106
 31
0.0
  0
LINE
  5
282
330
1F
100
AcDbEntity
  8
1-0ﾚｲﾔ
  6
Continuous
 62
     2
370
     9
100
AcDbLine
 10
-330.7027043523015
 20
332.2506631387247
 30
0.0
 11
-330.7027043523015
 21
344.2777231577281
 31
0.0
  0
LINE
  5
283
330
1F
100
AcDbEntity
  8
1-0ﾚｲﾔ
  6
Continuous
 62
     2
370
     9
100
AcDbLine
 10
-332.70263671875
 20
332.1506974503801
 30
0.0
 11
-332.70263671875
 21
346.40756143106
 31
0.0
  0
LINE
  5
284
330
1F
100
AcDbEntity
  8
1-0ﾚｲﾔ
  6
Continuous
 62
     2
370
     9
100
AcDbLine
 10
-0.5193761877110603
 20
2.067334974134383
 30
0.0
 11
11.50768383129233
 21
2.067334974134383
 31
0.0
  0
LINE
  5
285
330
1F
100
AcDbEntity
  8
1-0ﾚｲﾔ
  6
Continuous
 62
     2
370
     9
100
AcDbLine
 10
-0.6193418760557279
 20
0.067402607685807
 30
0.0
 11
13.63752210462422
 21
0.067402607685807
 31
0.0
  0
LINE
  5
286
330
1F
100
AcDbEntity
  8
1-0ﾚｲﾔ
  6
Continuous
 62
     2
370
     9
100
AcDbLine
 10
-704.8861529376054
 20
2.067334974134383
 30
0.0
 11
-716.9129655167864
 21
2.067334974134383
 31
0.0
  0
LINE
  5
287
330
1F
100
AcDbEntity
  8
1-0ﾚｲﾔ
  6
Continuous
 62
     2
370
     9
100
AcDbLine
 10
-704.7859398094383
 20
0.067402607685807
 30
0.0
 11
-719.0429275100296
 21
0.067402607685807
 31
0.0
  0
LINE
  5
288
330
1F
100
AcDbEntity
  8
1-0ﾚｲﾔ
  6
Continuous
 62
     2
370
     9
100
AcDbLine
 10
-345.202739818676
 20
-395.8175081820101
 30
0.0
 11
-345.202739818676
 21
-397.8133577913851
 31
0.0
  0
LINE
  5
289
330
1F
100
AcDbEntity
  8
1-0ﾚｲﾔ
  6
JWW_DASHED1
 62
     2
370
     9
100
AcDbLine
 10
-345.202739818676
 20
-384.9326303842905
 30
0.0
 11
-345.202739818676
 21
-395.8175081820101
 31
0.0
  0
LINE
  5
28A
330
1F
100
AcDbEntity
  8
1-0ﾚｲﾔ
  6
Continuous
 62
     2
370
     9
100
AcDbLine
 10
-360.2026655867293
 20
-395.8175081820101
 30
0.0
 11
-360.2026655867293
 21
-397.8133577913851
 31
0.0
  0
LINE
  5
28B
330
1F
100
AcDbEntity
  8
1-0ﾚｲﾔ
  6
JWW_DASHED1
 62
     2
370
     9
100
AcDbLine
 10
-360.2026655867293
 20
-384.9326303842905
 30
0.0
 11
-360.2026655867293
 21
-395.8175081820101
 31
0.0
  0
LINE
  5
28C
330
1F
100
AcDbEntity
  8
1-0ﾚｲﾔ
  6
Continuous
 62
     2
370
     9
100
AcDbLine
 10
-728.5875475084458
 20
-27.43256440033775
 30
0.0
 11
-730.5833971178209
 21
-27.43256440033775
 31
0.0
  0
LINE
  5
28D
330
1F
100
AcDbEntity
  8
1-0ﾚｲﾔ
  6
JWW_DASHED1
 62
     2
370
     9
100
AcDbLine
 10
-717.7027934306376
 20
-27.43256440033775
 30
0.0
 11
-728.5875475084458
 21
-27.43256440033775
 31
0.0
  0
LINE
  5
28E
330
1F
100
AcDbEntity
  8
1-0ﾚｲﾔ
  6
JWW_DASHED1
 62
     2
370
     9
100
AcDbLine
 10
-717.7027934306376
 20
-12.43276235219597
 30
0.0
 11
-730.5833971178209
 21
-12.43276235219597
 31
0.0
  0
LINE
  5
28F
330
1F
100
AcDbEntity
  8
1-0ﾚｲﾔ
  6
JWW_CENTER1
 62
     4
370
     9
100
AcDbLine
 10
12.29726430532097
 20
-4.878672006967832
 30
0.0
 11
12.29726430532097
 21
-40.62197298616979
 31
0.0
  0
LINE
  5
290
330
1F
100
AcDbEntity
  8
1-3ﾚｲﾔ
  6
Continuous
 62
     4
370
     9
100
AcDbLine
 10
69.79720656936237
 20
-7.432622136296345
 30
0.0
 11
69.79720656936237
 21
-32.43270461623723
 31
0.0
  0
LINE
  5
291
330
1F
100
AcDbEntity
  8
1-3ﾚｲﾔ
  6
Continuous
 62
     4
370
     9
100
AcDbLine
 10
69.79720656936237
 20
-7.432622136296345
 30
0.0
 11
12.29726430532097
 21
-7.432622136296345
 31
0.0
  0
LINE
  5
292
330
1F
100
AcDbEntity
  8
1-3ﾚｲﾔ
  6
Continuous
 62
     2
370
     9
100
AcDbLine
 10
19.79716532939193
 20
-19.93266337626679
 30
0.0
 11
16.04449297930742
 21
-13.43266667546445
 31
0.0
  0
LINE
  5
293
330
1F
100
AcDbEntity
  8
1-3ﾚｲﾔ
  6
Continuous
 62
     2
370
     9
100
AcDbLine
 10
16.04449297930742
 20
-13.43266667546445
 30
0.0
 11
8.55003563133451
 21
-13.43266667546445
 31
0.0
  0
LINE
  5
294
330
1F
100
AcDbEntity
  8
1-3ﾚｲﾔ
  6
Continuous
 62
     2
370
     9
100
AcDbLine
 10
4.79736328125
 20
-19.93266337626679
 30
0.0
 11
8.55003563133451
 21
-13.43266667546445
 31
0.0
  0
LINE
  5
295
330
1F
100
AcDbEntity
  8
1-3ﾚｲﾔ
  6
Continuous
 62
     2
370
     9
100
AcDbLine
 10
19.48749439136407
 20
-19.93266337626679
 30
0.0
 11
15.89244120829818
 21
-26.15936279296875
 31
0.0
  0
LINE
  5
296
330
1F
100
AcDbEntity
  8
1-3ﾚｲﾔ
  6
Continuous
 62
     2
370
     9
100
AcDbLine
 10
15.89244120829818
 20
-26.15936279296875
 30
0.0
 11
8.702458562077737
 21
-26.15936279296875
 31
0.0
  0
LINE
  5
297
330
1F
100
AcDbEntity
  8
1-3ﾚｲﾔ
  6
Continuous
 62
     2
370
     9
100
AcDbLine
 10
8.702458562077737
 20
-26.15936279296875
 30
0.0
 11
5.107405379011851
 21
-19.93266337626679
 31
0.0
  0
LINE
  5
298
330
1F
100
AcDbEntity
  8
1-3ﾚｲﾔ
  6
Continuous
 62
     2
370
     9
100
AcDbLine
 10
12.29726430532097
 20
-38.31744219805742
 30
0.0
 11
-6.087638236380855
 21
-19.93266337626679
 31
0.0
  0
LINE
  5
299
330
1F
100
AcDbEntity
  8
1-3ﾚｲﾔ
  6
Continuous
 62
     2
370
     9
100
AcDbLine
 10
30.6820431271116
 20
-19.93278709617812
 30
0.0
 11
12.29726430532097
 21
-38.31744219805742
 31
0.0
  0
LINE
  5
29A
330
1F
100
AcDbEntity
  8
1-3ﾚｲﾔ
  6
Continuous
 62
     4
370
     9
100
AcDbLine
 10
69.79720656936237
 20
-32.43270461623723
 30
0.0
 11
27.04121357685821
 21
-32.43270461623723
 31
0.0
  0
LINE
  5
29B
330
1F
100
AcDbEntity
  8
1-0ﾚｲﾔ
  6
Continuous
 62
     2
370
     9
100
AcDbLine
 10
23.18214210304063
 20
-27.43256440033775
 30
0.0
 11
25.17799171241563
 21
-27.43256440033775
 31
0.0
  0
LINE
  5
29C
330
1F
100
AcDbEntity
  8
1-0ﾚｲﾔ
  6
JWW_DASHED1
 62
     2
370
     9
100
AcDbLine
 10
12.29738802523229
 20
-27.43256440033775
 30
0.0
 11
23.18214210304063
 21
-27.43256440033775
 31
0.0
  0
LINE
  5
29D
330
1F
100
AcDbEntity
  8
1-0ﾚｲﾔ
  6
JWW_DASHED1
 62
     2
370
     9
100
AcDbLine
 10
12.29738802523229
 20
-12.43276235219597
 30
0.0
 11
25.17799171241563
 21
-12.43276235219597
 31
0.0
  0
LINE
  5
29E
330
1F
100
AcDbEntity
  8
1-0ﾚｲﾔ
  6
JWW_DASHED1
 62
     2
370
     9
100
AcDbLine
 10
-345.202739818676
 20
345.0674273516681
 30
0.0
 11
-345.202739818676
 21
357.9480310388515
 31
0.0
  0
LINE
  5
29F
330
1F
100
AcDbEntity
  8
1-0ﾚｲﾔ
  6
JWW_DASHED1
 62
     2
370
     9
100
AcDbLine
 10
-360.2026655867293
 20
345.0674273516681
 30
0.0
 11
-360.2026655867293
 21
357.9480310388515
 31
0.0
  0
ARC
  5
2A0
330
1F
100
AcDbEntity
  8
1-1ﾚｲﾔ
  6
Continuous
 62
     3
370
     9
100
AcDbCircle
 10
-449.2025633116026
 20
76.56725909258867
 30
0.0
 40
5.999999110763138
100
AcDbArc
 50
270.0
 51
0.0
  0
ARC
  5
2A1
330
1F
100
AcDbEntity
  8
1-1ﾚｲﾔ
  6
Continuous
 62
     3
370
     9
100
AcDbCircle
 10
-447.7027686866554
 20
75.0674026076858
 30
0.0
 40
5.999999110763138
100
AcDbArc
 50
270.0
 51
0.0
  0
ARC
  5
2A2
330
1F
100
AcDbEntity
  8
1-1ﾚｲﾔ
  6
Continuous
 62
     3
370
     9
100
AcDbCircle
 10
-426.2028462177998
 20
76.56725909258867
 30
0.0
 40
5.999999110763138
100
AcDbArc
 50
180.0
 51
270.0
  0
ARC
  5
2A3
330
1F
100
AcDbEntity
  8
1-1ﾚｲﾔ
  6
Continuous
 62
     3
370
     9
100
AcDbCircle
 10
-427.7025789827914
 20
75.0674026076858
 30
0.0
 40
5.999999110763138
100
AcDbArc
 50
180.0
 51
270.0
  0
ARC
  5
2A4
330
1F
100
AcDbEntity
  8
1-1ﾚｲﾔ
  6
Continuous
 62
     3
370
     9
100
AcDbCircle
 10
-426.2028462177998
 20
53.56748013883035
 30
0.0
 40
5.999999110763138
100
AcDbArc
 50
90.0
 51
180.0
  0
ARC
  5
2A5
330
1F
100
AcDbEntity
  8
1-1ﾚｲﾔ
  6
Continuous
 62
     3
370
     9
100
AcDbCircle
 10
-427.7025789827914
 20
55.06721290382188
 30
0.0
 40
5.999999110763138
100
AcDbArc
 50
90.0
 51
180.0
  0
ARC
  5
2A6
330
1F
100
AcDbEntity
  8
1-1ﾚｲﾔ
  6
Continuous
 62
     3
370
     9
100
AcDbCircle
 10
-449.2025633116026
 20
53.56748013883035
 30
0.0
 40
5.999999110763138
100
AcDbArc
 50
0.0
 51
90.0
  0
ARC
  5
2A7
330
1F
100
AcDbEntity
  8
1-1ﾚｲﾔ
  6
Continuous
 62
     3
370
     9
100
AcDbCircle
 10
-447.7027686866554
 20
55.06721290382188
 30
0.0
 40
5.999999110763138
100
AcDbArc
 50
0.0
 51
90.0
  0
ARC
  5
2A8
330
1F
100
AcDbEntity
  8
1-1ﾚｲﾔ
  6
Continuous
 62
     3
370
     9
100
AcDbCircle
 10
-451.2023719581398
 20
-91.43299824482682
 30
0.0
 40
4.99999958115655
100
AcDbArc
 50
270.0
 51
0.0
  0
ARC
  5
2A9
330
1F
100
AcDbEntity
  8
1-1ﾚｲﾔ
  6
Continuous
 62
     3
370
     9
100
AcDbCircle
 10
-449.7025773331925
 20
-92.93273100981835
 30
0.0
 40
4.99999958115655
100
AcDbArc
 50
270.0
 51
0.0
  0
ARC
  5
2AA
330
1F
100
AcDbEntity
  8
1-1ﾚｲﾔ
  6
Continuous
 62
     3
370
     9
100
AcDbCircle
 10
-424.2030375712626
 20
-91.43299824482682
 30
0.0
 40
4.99999958115655
100
AcDbArc
 50
180.0
 51
270.0
  0
ARC
  5
2AB
330
1F
100
AcDbEntity
  8
1-1ﾚｲﾔ
  6
Continuous
 62
     3
370
     9
100
AcDbCircle
 10
-425.7027703362542
 20
-92.93273100981835
 30
0.0
 40
4.99999958115655
100
AcDbArc
 50
180.0
 51
270.0
  0
ARC
  5
2AC
330
1F
100
AcDbEntity
  8
1-1ﾚｲﾔ
  6
Continuous
 62
     3
370
     9
100
AcDbCircle
 10
-424.2030375712626
 20
-118.4322707717483
 30
0.0
 40
4.99999958115655
100
AcDbArc
 50
90.0
 51
180.0
  0
ARC
  5
2AD
330
1F
100
AcDbEntity
  8
1-1ﾚｲﾔ
  6
Continuous
 62
     3
370
     9
100
AcDbCircle
 10
-425.7027703362542
 20
-116.9325380067567
 30
0.0
 40
4.99999958115655
100
AcDbArc
 50
90.0
 51
180.0
  0
ARC
  5
2AE
330
1F
100
AcDbEntity
  8
1-1ﾚｲﾔ
  6
Continuous
 62
     3
370
     9
100
AcDbCircle
 10
-451.2023719581398
 20
-118.4322707717483
 30
0.0
 40
4.99999958115655
100
AcDbArc
 50
0.0
 51
90.0
  0
ARC
  5
2AF
330
1F
100
AcDbEntity
  8
1-1ﾚｲﾔ
  6
Continuous
 62
     3
370
     9
100
AcDbCircle
 10
-449.7025773331925
 20
-116.9325380067567
 30
0.0
 40
4.99999958115655
100
AcDbArc
 50
0.0
 51
90.0
  0
ARC
  5
2B0
330
1F
100
AcDbEntity
  8
1-0ﾚｲﾔ
  6
Continuous
 62
     2
370
     9
100
AcDbCircle
 10
540.0770032728042
 20
-398.0276406777872
 30
0.0
 40
0.9999999524773778
100
AcDbArc
 50
180.0
 51
264.2886962890625
  0
ARC
  5
2B1
330
1F
100
AcDbEntity
  8
1-0ﾚｲﾔ
  6
Continuous
 62
     2
370
     9
100
AcDbCircle
 10
530.0769702808279
 20
-263.9602908572635
 30
0.0
 40
3.999999809909511
100
AcDbArc
 50
296.5668029785156
 51
0.0000000000000127
  0
ARC
  5
2B2
330
1F
100
AcDbEntity
  8
1-0ﾚｲﾔ
  6
Continuous
 62
     2
370
     9
100
AcDbCircle
 10
540.0770032728042
 20
-331.6979320629223
 30
0.0
 40
1.999999904954756
100
AcDbArc
 50
0.0
 51
82.87568664550781
  0
ARC
  5
2B3
330
1F
100
AcDbEntity
  8
1-0ﾚｲﾔ
  6
Continuous
 62
     2
370
     9
100
AcDbCircle
 10
531.077122043919
 20
-327.5496034364442
 30
0.0
 40
0.9999999524773778
100
AcDbArc
 50
180.0
 51
262.8753356933594
  0
ARC
  5
2B4
330
1F
100
AcDbEntity
  8
1-0ﾚｲﾔ
  6
Continuous
 62
     2
370
     9
100
AcDbCircle
 10
531.077122043919
 20
-322.3565838788006
 30
0.0
 40
0.9999999524773778
100
AcDbArc
 50
94.51409912109375
 51
180.0
  0
ARC
  5
2B5
330
1F
100
AcDbEntity
  8
1-0ﾚｲﾔ
  6
Continuous
 62
     2
370
     9
100
AcDbCircle
 10
531.077122043919
 20
-269.0503754486909
 30
0.0
 40
0.9999999524773778
100
AcDbArc
 50
116.5663146972656
 51
180.0
  0
ARC
  5
2B6
330
1F
100
AcDbEntity
  8
1-0ﾚｲﾔ
  6
Continuous
 62
     2
370
     9
100
AcDbCircle
 10
540.0770032728042
 20
-352.0493625950169
 30
0.0
 40
1.999999904954756
100
AcDbArc
 50
273.4420166015625
 51
0.0000000000000254
  0
ARC
  5
2B7
330
1F
100
AcDbEntity
  8
1-0ﾚｲﾔ
  6
Continuous
 62
     2
370
     9
100
AcDbCircle
 10
536.0770148199958
 20
-376.4983965899493
 30
0.0
 40
5.999999110763138
100
AcDbArc
 50
0.0
 51
85.70010375976564
  0
ARC
  5
2B8
330
1F
100
AcDbEntity
  8
1-1ﾚｲﾔ
  6
Continuous
 62
     3
370
     9
100
AcDbCircle
 10
490.0769620328336
 20
-353.6824654244088
 30
0.0
 40
5.999999110763138
100
AcDbArc
 50
102.6800994873047
 51
180.0
  0
ARC
  5
2B9
330
1F
100
AcDbEntity
  8
1-1ﾚｲﾔ
  6
Continuous
 62
     3
370
     9
100
AcDbCircle
 10
519.0770329655828
 20
-338.9575690192145
 30
0.0
 40
1.999999904954756
100
AcDbArc
 50
282.6800689697266
 51
0.0
  0
ARC
  5
2BA
330
1F
100
AcDbEntity
  8
1-1ﾚｲﾔ
  6
Continuous
 62
     3
370
     9
100
AcDbCircle
 10
509.076876253695
 20
-329.9324489284206
 30
0.0
 40
4.99999958115655
100
AcDbArc
 50
282.6802978515625
 51
0.0
  0
ARC
  5
2BB
330
1F
100
AcDbEntity
  8
1-1ﾚｲﾔ
  6
Continuous
 62
     3
370
     9
100
AcDbCircle
 10
518.0768812024917
 20
-115.5998271220439
 30
0.0
 40
5.999999110763138
100
AcDbArc
 50
0.0
 51
81.46994018554689
  0
ARC
  5
2BC
330
1F
100
AcDbEntity
  8
1-1ﾚｲﾔ
  6
Continuous
 62
     3
370
     9
100
AcDbCircle
 10
535.5770626583615
 20
-117.582067541174
 30
0.0
 40
4.99999958115655
100
AcDbArc
 50
100.6194458007812
 51
180.0
  0
ARC
  5
2BD
330
1F
100
AcDbEntity
  8
1-1ﾚｲﾔ
  6
Continuous
 62
     3
370
     9
100
AcDbCircle
 10
515.0769207928633
 20
-108.0714705183699
 30
0.0
 40
0.9999999524773778
100
AcDbArc
 50
180.0
 51
261.4688110351562
  0
ARC
  5
2BE
330
1F
100
AcDbEntity
  8
1-1ﾚｲﾔ
  6
Continuous
 62
     3
370
     9
100
AcDbCircle
 10
537.5768713048988
 20
-111.1026083456503
 30
0.0
 40
0.9999999524773778
100
AcDbArc
 50
280.6180877685547
 51
0.0
  0
ARC
  5
2BF
330
1F
100
AcDbEntity
  8
1-1ﾚｲﾔ
  6
Continuous
 62
     3
370
     9
100
AcDbCircle
 10
518.0768812024917
 20
-94.26544189453125
 30
0.0
 40
5.999999110763138
100
AcDbArc
 50
278.5300598144531
 51
0.0
  0
ARC
  5
2C0
330
1F
100
AcDbEntity
  8
1-1ﾚｲﾔ
  6
Continuous
 62
     3
370
     9
100
AcDbCircle
 10
535.5770626583615
 20
-92.28320147540117
 30
0.0
 40
4.99999958115655
100
AcDbArc
 50
180.0
 51
259.3805541992188
  0
ARC
  5
2C1
330
1F
100
AcDbEntity
  8
1-1ﾚｲﾔ
  6
Continuous
 62
     3
370
     9
100
AcDbCircle
 10
515.0769207928633
 20
-101.7937984982052
 30
0.0
 40
0.9999999524773778
100
AcDbArc
 50
98.53118896484375
 51
180.0
  0
ARC
  5
2C2
330
1F
100
AcDbEntity
  8
1-1ﾚｲﾔ
  6
Continuous
 62
     3
370
     9
100
AcDbCircle
 10
537.5768713048988
 20
-98.76278439083606
 30
0.0
 40
0.9999999524773778
100
AcDbArc
 50
0.0
 51
79.38191223144531
  0
ARC
  5
2C3
330
1F
100
AcDbEntity
  8
1-1ﾚｲﾔ
  6
Continuous
 62
     3
370
     9
100
AcDbCircle
 10
-256.2028420938027
 20
76.56725909258867
 30
0.0
 40
5.999999110763138
100
AcDbArc
 50
180.0
 51
270.0
  0
ARC
  5
2C4
330
1F
100
AcDbEntity
  8
1-1ﾚｲﾔ
  6
Continuous
 62
     3
370
     9
100
AcDbCircle
 10
-257.70263671875
 20
75.0674026076858
 30
0.0
 40
5.999999110763138
100
AcDbArc
 50
180.0
 51
270.0
  0
ARC
  5
2C5
330
1F
100
AcDbEntity
  8
1-1ﾚｲﾔ
  6
Continuous
 62
     3
370
     9
100
AcDbCircle
 10
-279.2025591876056
 20
76.56725909258867
 30
0.0
 40
5.999999110763138
100
AcDbArc
 50
270.0
 51
0.0
  0
ARC
  5
2C6
330
1F
100
AcDbEntity
  8
1-1ﾚｲﾔ
  6
Continuous
 62
     3
370
     9
100
AcDbCircle
 10
-277.702826422614
 20
75.0674026076858
 30
0.0
 40
5.999999110763138
100
AcDbArc
 50
270.0
 51
0.0
  0
ARC
  5
2C7
330
1F
100
AcDbEntity
  8
1-1ﾚｲﾔ
  6
Continuous
 62
     3
370
     9
100
AcDbCircle
 10
-279.2025591876056
 20
53.56748013883035
 30
0.0
 40
5.999999110763138
100
AcDbArc
 50
0.0
 51
90.0
  0
ARC
  5
2C8
330
1F
100
AcDbEntity
  8
1-1ﾚｲﾔ
  6
Continuous
 62
     3
370
     9
100
AcDbCircle
 10
-277.702826422614
 20
55.06721290382188
 30
0.0
 40
5.999999110763138
100
AcDbArc
 50
0.0
 51
90.0
  0
ARC
  5
2C9
330
1F
100
AcDbEntity
  8
1-1ﾚｲﾔ
  6
Continuous
 62
     3
370
     9
100
AcDbCircle
 10
-256.2028420938027
 20
53.56748013883035
 30
0.0
 40
5.999999110763138
100
AcDbArc
 50
90.0
 51
180.0
  0
ARC
  5
2CA
330
1F
100
AcDbEntity
  8
1-1ﾚｲﾔ
  6
Continuous
 62
     3
370
     9
100
AcDbCircle
 10
-257.70263671875
 20
55.06721290382188
 30
0.0
 40
5.999999110763138
100
AcDbArc
 50
90.0
 51
180.0
  0
ARC
  5
2CB
330
1F
100
AcDbEntity
  8
1-1ﾚｲﾔ
  6
Continuous
 62
     3
370
     9
100
AcDbCircle
 10
-254.2030334472656
 20
-91.43299824482682
 30
0.0
 40
4.99999958115655
100
AcDbArc
 50
180.0
 51
270.0
  0
ARC
  5
2CC
330
1F
100
AcDbEntity
  8
1-1ﾚｲﾔ
  6
Continuous
 62
     3
370
     9
100
AcDbCircle
 10
-255.7028280722128
 20
-92.93273100981835
 30
0.0
 40
4.99999958115655
100
AcDbArc
 50
180.0
 51
270.0
  0
ARC
  5
2CD
330
1F
100
AcDbEntity
  8
1-1ﾚｲﾔ
  6
Continuous
 62
     3
370
     9
100
AcDbCircle
 10
-281.2023678341427
 20
-91.43299824482682
 30
0.0
 40
4.99999958115655
100
AcDbArc
 50
270.0
 51
0.0
  0
ARC
  5
2CE
330
1F
100
AcDbEntity
  8
1-1ﾚｲﾔ
  6
Continuous
 62
     3
370
     9
100
AcDbCircle
 10
-279.7026350691511
 20
-92.93273100981835
 30
0.0
 40
4.99999958115655
100
AcDbArc
 50
270.0
 51
0.0
  0
ARC
  5
2CF
330
1F
100
AcDbEntity
  8
1-1ﾚｲﾔ
  6
Continuous
 62
     3
370
     9
100
AcDbCircle
 10
-281.2023678341427
 20
-118.4322707717483
 30
0.0
 40
4.99999958115655
100
AcDbArc
 50
0.0
 51
90.0
  0
ARC
  5
2D0
330
1F
100
AcDbEntity
  8
1-1ﾚｲﾔ
  6
Continuous
 62
     3
370
     9
100
AcDbCircle
 10
-279.7026350691511
 20
-116.9325380067567
 30
0.0
 40
4.99999958115655
100
AcDbArc
 50
0.0
 51
90.0
  0
ARC
  5
2D1
330
1F
100
AcDbEntity
  8
1-1ﾚｲﾔ
  6
Continuous
 62
     3
370
     9
100
AcDbCircle
 10
-254.2030334472656
 20
-118.4322707717483
 30
0.0
 40
4.99999958115655
100
AcDbArc
 50
90.0
 51
180.0
  0
ARC
  5
2D2
330
1F
100
AcDbEntity
  8
1-1ﾚｲﾔ
  6
Continuous
 62
     3
370
     9
100
AcDbCircle
 10
-255.7028280722128
 20
-116.9325380067567
 30
0.0
 40
4.99999958115655
100
AcDbArc
 50
90.0
 51
180.0
  0
ARC
  5
2D3
330
1F
100
AcDbEntity
  8
1-0ﾚｲﾔ
  6
Continuous
 62
     2
370
     9
100
AcDbCircle
 10
540.0770032728042
 20
358.1623139252534
 30
0.0
 40
0.9999999524773778
100
AcDbArc
 50
95.7113037109375
 51
180.0
  0
ARC
  5
2D4
330
1F
100
AcDbEntity
  8
1-0ﾚｲﾔ
  6
Continuous
 62
     2
370
     9
100
AcDbCircle
 10
530.0769702808279
 20
224.0949641047298
 30
0.0
 40
3.999999809909511
100
AcDbArc
 50
0.0
 51
63.43319702148438
  0
ARC
  5
2D5
330
1F
100
AcDbEntity
  8
1-0ﾚｲﾔ
  6
Continuous
 62
     2
370
     9
100
AcDbCircle
 10
540.0770032728042
 20
291.8327290302999
 30
0.0
 40
1.999999904954756
100
AcDbArc
 50
277.1243133544922
 51
0.0
  0
ARC
  5
2D6
330
1F
100
AcDbEntity
  8
1-0ﾚｲﾔ
  6
Continuous
 62
     2
370
     9
100
AcDbCircle
 10
531.077122043919
 20
287.6842766839105
 30
0.0
 40
0.9999999524773778
100
AcDbArc
 50
97.12466430664062
 51
180.0
  0
ARC
  5
2D7
330
1F
100
AcDbEntity
  8
1-0ﾚｲﾔ
  6
Continuous
 62
     2
370
     9
100
AcDbCircle
 10
531.077122043919
 20
282.4913808461782
 30
0.0
 40
0.9999999524773778
100
AcDbArc
 50
180.0
 51
265.4859008789062
  0
ARC
  5
2D8
330
1F
100
AcDbEntity
  8
1-0ﾚｲﾔ
  6
Continuous
 62
     2
370
     9
100
AcDbCircle
 10
531.077122043919
 20
229.1851724160685
 30
0.0
 40
0.9999999524773778
100
AcDbArc
 50
180.0
 51
243.4336853027344
  0
ARC
  5
2D9
330
1F
100
AcDbEntity
  8
1-0ﾚｲﾔ
  6
Continuous
 62
     2
370
     9
100
AcDbCircle
 10
540.0770032728042
 20
312.1840358424832
 30
0.0
 40
1.999999904954756
100
AcDbArc
 50
0.0
 51
86.5579833984375
  0
ARC
  5
2DA
330
1F
100
AcDbEntity
  8
1-1ﾚｲﾔ
  6
Continuous
 62
     3
370
     9
100
AcDbCircle
 10
490.0769620328336
 20
313.8172623917864
 30
0.0
 40
5.999999110763138
100
AcDbArc
 50
180.0
 51
257.3199005126953
  0
ARC
  5
2DB
330
1F
100
AcDbEntity
  8
1-1ﾚｲﾔ
  6
Continuous
 62
     3
370
     9
100
AcDbCircle
 10
519.0770329655828
 20
299.0921185467695
 30
0.0
 40
1.999999904954756
100
AcDbArc
 50
0.0
 51
77.31993103027344
  0
ARC
  5
2DC
330
1F
100
AcDbEntity
  8
1-1ﾚｲﾔ
  6
Continuous
 62
     3
370
     9
100
AcDbCircle
 10
509.076876253695
 20
290.0671221758869
 30
0.0
 40
4.99999958115655
100
AcDbArc
 50
0.0
 51
77.3197021484375
  0
ARC
  5
2DD
330
1F
100
AcDbEntity
  8
1-1ﾚｲﾔ
  6
Continuous
 62
     3
370
     9
100
AcDbCircle
 10
518.0768812024917
 20
75.73450036951016
 30
0.0
 40
5.999999110763138
100
AcDbArc
 50
278.5300598144531
 51
0.0
  0
ARC
  5
2DE
330
1F
100
AcDbEntity
  8
1-1ﾚｲﾔ
  6
Continuous
 62
     3
370
     9
100
AcDbCircle
 10
535.5770626583615
 20
77.71674078864024
 30
0.0
 40
4.99999958115655
100
AcDbArc
 50
180.0
 51
259.3805541992188
  0
ARC
  5
2DF
330
1F
100
AcDbEntity
  8
1-1ﾚｲﾔ
  6
Continuous
 62
     3
370
     9
100
AcDbCircle
 10
515.0769207928633
 20
68.2061437658362
 30
0.0
 40
0.9999999524773778
100
AcDbArc
 50
98.53118896484375
 51
180.0
  0
ARC
  5
2E0
330
1F
100
AcDbEntity
  8
1-1ﾚｲﾔ
  6
Continuous
 62
     3
370
     9
100
AcDbCircle
 10
537.5768713048988
 20
71.23728159311653
 30
0.0
 40
0.9999999524773778
100
AcDbArc
 50
0.0
 51
79.38191223144531
  0
ARC
  5
2E1
330
1F
100
AcDbEntity
  8
1-1ﾚｲﾔ
  6
Continuous
 62
     3
370
     9
100
AcDbCircle
 10
518.0768812024917
 20
54.40011514199753
 30
0.0
 40
5.999999110763138
100
AcDbArc
 50
0.0
 51
81.46994018554689
  0
ARC
  5
2E2
330
1F
100
AcDbEntity
  8
1-1ﾚｲﾔ
  6
Continuous
 62
     3
370
     9
100
AcDbCircle
 10
535.5770626583615
 20
52.41787472286745
 30
0.0
 40
4.99999958115655
100
AcDbArc
 50
100.6194458007812
 51
180.0
  0
ARC
  5
2E3
330
1F
100
AcDbEntity
  8
1-1ﾚｲﾔ
  6
Continuous
 62
     3
370
     9
100
AcDbCircle
 10
515.0769207928633
 20
61.92847174567149
 30
0.0
 40
0.9999999524773778
100
AcDbArc
 50
180.0
 51
261.4688110351562
  0
ARC
  5
2E4
330
1F
100
AcDbEntity
  8
1-1ﾚｲﾔ
  6
Continuous
 62
     3
370
     9
100
AcDbCircle
 10
537.5768713048988
 20
58.89745763830234
 30
0.0
 40
0.9999999524773778
100
AcDbArc
 50
280.6180877685547
 51
0.0
  0
ARC
  5
2E5
330
1F
100
AcDbEntity
  8
1-0ﾚｲﾔ
  6
Continuous
 62
     2
370
     9
100
AcDbCircle
 10
537.4410268422721
 20
-372.3659041121199
 30
0.0
 40
1.648292227371319
100
AcDbArc
 50
7.028884887695313
 51
72.50296020507812
  0
ARC
  5
2E6
330
1F
100
AcDbEntity
  8
1-1ﾚｲﾔ
  6
Continuous
 62
     3
370
     9
100
AcDbCircle
 10
525.0769537848396
 20
275.8587564004435
 30
0.0
 40
3.999999809909511
100
AcDbArc
 50
102.5282287597656
 51
180.0
  0
ARC
  5
2E7
330
1F
100
AcDbEntity
  8
1-1ﾚｲﾔ
  6
Continuous
 62
     3
370
     9
100
AcDbCircle
 10
525.0769537848396
 20
-315.7239594330659
 30
0.0
 40
3.999999809909511
100
AcDbArc
 50
180.0
 51
257.4717712402344
  0
ARC
  5
2E8
330
1F
100
AcDbEntity
  8
1-1ﾚｲﾔ
  6
Continuous
 62
     3
370
     9
100
AcDbCircle
 10
-352.7027027027026
 20
-19.93266337626679
 30
0.0
 40
270.0003340437606
100
AcDbArc
 50
19.24627685546875
 51
70.75370788574219
  0
ARC
  5
2E9
330
1F
100
AcDbEntity
  8
1-1ﾚｲﾔ
  6
Continuous
 62
     3
370
     9
100
AcDbCircle
 10
-352.7027027027026
 20
-19.93266337626679
 30
0.0
 40
232.6799289600269
100
AcDbArc
 50
22.88890075683594
 51
67.11108398437501
  0
ARC
  5
2EA
330
1F
100
AcDbEntity
  8
1-1ﾚｲﾔ
  6
Continuous
 62
     3
370
     9
100
AcDbCircle
 10
-352.7027027027026
 20
-19.93266337626679
 30
0.0
 40
232.6799289600269
100
AcDbArc
 50
70.02124023437499
 51
109.978759765625
  0
ARC
  5
2EB
330
1F
100
AcDbEntity
  8
1-1ﾚｲﾔ
  6
Continuous
 62
     3
370
     9
100
AcDbCircle
 10
-352.7027027027026
 20
-19.93266337626679
 30
0.0
 40
232.6799289600269
100
AcDbArc
 50
112.888916015625
 51
157.111083984375
  0
ARC
  5
2EC
330
1F
100
AcDbEntity
  8
1-1ﾚｲﾔ
  6
Continuous
 62
     3
370
     9
100
AcDbCircle
 10
-352.7027027027026
 20
-19.93266337626679
 30
0.0
 40
270.0003340437606
100
AcDbArc
 50
109.2462921142578
 51
160.7537078857422
  0
ARC
  5
2ED
330
1F
100
AcDbEntity
  8
1-1ﾚｲﾔ
  6
Continuous
 62
     3
370
     9
100
AcDbCircle
 10
-352.7027027027026
 20
-19.93266337626679
 30
0.0
 40
270.0003340437606
100
AcDbArc
 50
0.0
 51
17.45756530761719
  0
ARC
  5
2EE
330
1F
100
AcDbEntity
  8
1-1ﾚｲﾔ
  6
Continuous
 62
     3
370
     9
100
AcDbCircle
 10
-352.7027027027026
 20
-19.93266337626679
 30
0.0
 40
232.6799289600269
100
AcDbArc
 50
0.0
 51
19.978759765625
  0
ARC
  5
2EF
330
1F
100
AcDbEntity
  8
1-1ﾚｲﾔ
  6
Continuous
 62
     3
370
     9
100
AcDbCircle
 10
-352.7027027027026
 20
-19.93266337626679
 30
0.0
 40
232.6799289600269
100
AcDbArc
 50
160.021240234375
 51
180.0
  0
ARC
  5
2F0
330
1F
100
AcDbEntity
  8
1-1ﾚｲﾔ
  6
Continuous
 62
     3
370
     9
100
AcDbCircle
 10
-352.7027027027026
 20
-19.93266337626679
 30
0.0
 40
270.0003340437606
100
AcDbArc
 50
162.5424346923828
 51
180.0
  0
ARC
  5
2F1
330
1F
100
AcDbEntity
  8
1-1ﾚｲﾔ
  6
Continuous
 62
     3
370
     9
100
AcDbCircle
 10
-352.7027027027026
 20
-19.93266337626679
 30
0.0
 40
268.9898825980522
100
AcDbArc
 50
180.0
 51
0.0
  0
ARC
  5
2F2
330
1F
100
AcDbEntity
  8
1-1ﾚｲﾔ
  6
Continuous
 62
     3
370
     9
100
AcDbCircle
 10
-352.7027027027026
 20
-19.93266337626679
 30
0.0
 40
203.6789765229096
100
AcDbArc
 50
333.1477813720704
 51
337.4831085205078
  0
ARC
  5
2F3
330
1F
100
AcDbEntity
  8
1-1ﾚｲﾔ
  6
Continuous
 62
     3
370
     9
100
AcDbCircle
 10
-352.7027027027026
 20
-19.93266337626679
 30
0.0
 40
203.6789765229096
100
AcDbArc
 50
292.5168914794922
 51
296.8522186279297
  0
ARC
  5
2F4
330
1F
100
AcDbEntity
  8
1-1ﾚｲﾔ
  6
Continuous
 62
     3
370
     9
100
AcDbCircle
 10
-352.7027027027026
 20
-19.93266337626679
 30
0.0
 40
203.6789765229096
100
AcDbArc
 50
243.1477813720703
 51
247.4831085205079
  0
ARC
  5
2F5
330
1F
100
AcDbEntity
  8
1-1ﾚｲﾔ
  6
Continuous
 62
     3
370
     9
100
AcDbCircle
 10
-352.7027027027026
 20
-19.93266337626679
 30
0.0
 40
203.6789765229096
100
AcDbArc
 50
202.5168914794922
 51
206.8522186279297
  0
ARC
  5
2F6
330
1F
100
AcDbEntity
  8
1-1ﾚｲﾔ
  6
Continuous
 62
     3
370
     9
100
AcDbCircle
 10
-352.7027027027026
 20
-19.93266337626679
 30
0.0
 40
233.5353748218433
100
AcDbArc
 50
180.0
 51
199.1216278076172
  0
ARC
  5
2F7
330
1F
100
AcDbEntity
  8
1-1ﾚｲﾔ
  6
Continuous
 62
     3
370
     9
100
AcDbCircle
 10
-352.7027027027026
 20
-19.93266337626679
 30
0.0
 40
233.5353748218433
100
AcDbArc
 50
203.6010894775391
 51
246.3989105224609
  0
ARC
  5
2F8
330
1F
100
AcDbEntity
  8
1-1ﾚｲﾔ
  6
Continuous
 62
     3
370
     9
100
AcDbCircle
 10
-352.7027027027026
 20
-19.93266337626679
 30
0.0
 40
233.5353748218433
100
AcDbArc
 50
250.8783721923828
 51
289.1216278076172
  0
ARC
  5
2F9
330
1F
100
AcDbEntity
  8
1-1ﾚｲﾔ
  6
Continuous
 62
     3
370
     9
100
AcDbCircle
 10
-352.7027027027026
 20
-19.93266337626679
 30
0.0
 40
233.5353748218433
100
AcDbArc
 50
293.6010894775391
 51
336.3989105224609
  0
ARC
  5
2FA
330
1F
100
AcDbEntity
  8
1-1ﾚｲﾔ
  6
Continuous
 62
     3
370
     9
100
AcDbCircle
 10
-352.7027027027026
 20
-19.93266337626679
 30
0.0
 40
233.5353748218433
100
AcDbArc
 50
340.8783721923828
 51
0.0000000000000032
  0
ARC
  5
2FB
330
1F
100
AcDbEntity
  8
1-0ﾚｲﾔ
  6
Continuous
 62
     2
370
     9
100
AcDbCircle
 10
-352.7027027027026
 20
-19.93266337626679
 30
0.0
 40
345.9999909272065
100
AcDbArc
 50
0.0
 51
180.0
  0
ARC
  5
2FC
330
1F
100
AcDbEntity
  8
1-0ﾚｲﾔ
  6
Continuous
 62
     2
370
     9
100
AcDbCircle
 10
-352.7027027027026
 20
-19.93266337626679
 30
0.0
 40
337.9999830916121
100
AcDbArc
 50
0.0
 51
180.0
  0
ARC
  5
2FD
330
1F
100
AcDbEntity
  8
1-0ﾚｲﾔ
  6
Continuous
 62
     2
370
     9
100
AcDbCircle
 10
-352.7027027027026
 20
-19.93266337626679
 30
0.0
 40
299.9998762800887
100
AcDbArc
 50
180.0
 51
0.0
  0
ARC
  5
2FE
330
1F
100
AcDbEntity
  8
1-1ﾚｲﾔ
  6
Continuous
 62
     3
370
     9
100
AcDbCircle
 10
-352.7027027027026
 20
-19.93266337626679
 30
0.0
 40
336.0000507251636
100
AcDbArc
 50
0.0
 51
180.0
  0
ARC
  5
2FF
330
1F
100
AcDbEntity
  8
1-3ﾚｲﾔ
  6
Continuous
 62
     4
370
     9
100
AcDbCircle
 10
-371.7026787835198
 20
235.4294400601775
 30
0.0
 40
1.999999904954756
100
AcDbArc
 50
180.0
 51
265.9171142578125
  0
ARC
  5
300
330
1F
100
AcDbEntity
  8
1-3ﾚｲﾔ
  6
Continuous
 62
     4
370
     9
100
AcDbCircle
 10
-333.7027266218855
 20
235.4294400601775
 30
0.0
 40
1.999999904954756
100
AcDbArc
 50
274.0828857421875
 51
0.0
  0
CIRCLE
  5
301
330
1F
100
AcDbEntity
  8
1-3ﾚｲﾔ
  6
Continuous
 62
     4
370
     9
100
AcDbCircle
 10
-352.7027027027026
 20
267.5672953837628
 30
0.0
 40
11.74999990978757
  0
ARC
  5
302
330
1F
100
AcDbEntity
  8
1-3ﾚｲﾔ
  6
Continuous
 62
     4
370
     9
100
AcDbCircle
 10
-382.7026779587204
 20
267.5672953837628
 30
0.0
 40
9.9999991623131
100
AcDbArc
 50
101.5367431640626
 51
258.4632568359375
  0
ARC
  5
303
330
1F
100
AcDbEntity
  8
1-3ﾚｲﾔ
  6
Continuous
 62
     4
370
     9
100
AcDbCircle
 10
-322.7027274466849
 20
267.5672953837628
 30
0.0
 40
9.9999991623131
100
AcDbArc
 50
281.5367431640625
 51
78.4632568359375
  0
CIRCLE
  5
304
330
1F
100
AcDbEntity
  8
1-3ﾚｲﾔ
  6
Continuous
 62
     7
370
     9
100
AcDbCircle
 10
-382.7026779587204
 20
267.5669242240288
 30
0.0
 40
3.999999809909511
  0
CIRCLE
  5
305
330
1F
100
AcDbEntity
  8
1-3ﾚｲﾔ
  6
Continuous
 62
     7
370
     9
100
AcDbCircle
 10
-382.7026779587204
 20
267.5669242240288
 30
0.0
 40
3.593999389055613
  0
CIRCLE
  5
306
330
1F
100
AcDbEntity
  8
1-3ﾚｲﾔ
  6
Continuous
 62
     7
370
     9
100
AcDbCircle
 10
-322.7027274466849
 20
267.5669242240288
 30
0.0
 40
3.999999809909511
  0
CIRCLE
  5
307
330
1F
100
AcDbEntity
  8
1-3ﾚｲﾔ
  6
Continuous
 62
     7
370
     9
100
AcDbCircle
 10
-322.7027274466849
 20
267.5669242240288
 30
0.0
 40
3.593999389055613
  0
CIRCLE
  5
308
330
1F
100
AcDbEntity
  8
1-2ﾚｲﾔ
  6
Continuous
 62
     4
370
     9
100
AcDbCircle
 10
-352.7027027027026
 20
267.5672953837628
 30
0.0
 40
11.74999990978757
  0
CIRCLE
  5
309
330
1F
100
AcDbEntity
  8
1-2ﾚｲﾔ
  6
Continuous
 62
     6
370
     9
100
AcDbCircle
 10
-352.7027027027026
 20
267.5672953837628
 30
0.0
 40
11.49999966492524
  0
ARC
  5
30A
330
1F
100
AcDbEntity
  8
1-3ﾚｲﾔ
  6
Continuous
 62
     4
370
     9
100
AcDbCircle
 10
-352.7027027027026
 20
345.0673036317568
 30
0.0
 40
12.50000741030719
100
AcDbArc
 50
180.0
 51
0.0
  0
CIRCLE
  5
30B
330
1F
100
AcDbEntity
  8
1-3ﾚｲﾔ
  6
Continuous
 62
     2
370
     9
100
AcDbCircle
 10
-352.7027027027026
 20
345.0618599556589
 30
0.0
 40
6.500000567049594
  0
CIRCLE
  5
30C
330
1F
100
AcDbEntity
  8
1-3ﾚｲﾔ
  6
Continuous
 62
     2
370
     9
100
AcDbCircle
 10
-352.7027027027026
 20
345.0673036317568
 30
0.0
 40
3.999999809909511
  0
CIRCLE
  5
30D
330
1F
100
AcDbEntity
  8
1-3ﾚｲﾔ
  6
Continuous
 62
     2
370
     9
100
AcDbCircle
 10
-352.7027027027026
 20
345.0673036317568
 30
0.0
 40
3.323499818105955
  0
ARC
  5
30E
330
1F
100
AcDbEntity
  8
1-0ﾚｲﾔ
  6
Continuous
 62
     2
370
     9
100
AcDbCircle
 10
-352.7027027027026
 20
-19.93266337626679
 30
0.0
 40
378.9999884528083
100
AcDbArc
 50
1.890045166015626
 51
88.10995483398438
  0
ARC
  5
30F
330
1F
100
AcDbEntity
  8
1-3ﾚｲﾔ
  6
Continuous
 62
     4
370
     9
100
AcDbCircle
 10
-717.7026697107262
 20
-19.93266337626679
 30
0.0
 40
12.50000741030719
100
AcDbArc
 50
0.0
 51
90.0
  0
ARC
  5
310
330
1F
100
AcDbEntity
  8
1-3ﾚｲﾔ
  6
Continuous
 62
     2
370
     9
100
AcDbCircle
 10
-717.6972260346283
 20
-19.93266337626679
 30
0.0
 40
6.500000567049594
100
AcDbArc
 50
0.0
 51
180.0
  0
ARC
  5
311
330
1F
100
AcDbEntity
  8
1-3ﾚｲﾔ
  6
Continuous
 62
     2
370
     9
100
AcDbCircle
 10
-717.7026697107262
 20
-19.93266337626679
 30
0.0
 40
3.323499818105955
100
AcDbArc
 50
0.0
 51
180.0
  0
ARC
  5
312
330
1F
100
AcDbEntity
  8
1-3ﾚｲﾔ
  6
Continuous
 62
     2
370
     9
100
AcDbCircle
 10
-717.7026697107262
 20
-19.93266337626679
 30
0.0
 40
3.999999809909511
100
AcDbArc
 50
0.0
 51
180.0
  0
CIRCLE
  5
313
330
1F
100
AcDbEntity
  8
1-3ﾚｲﾔ
  6
Continuous
 62
     2
370
     9
100
AcDbCircle
 10
-717.7027934306376
 20
-19.93266337626679
 30
0.0
 40
6.226724064027941
  0
ARC
  5
314
330
1F
100
AcDbEntity
  8
1-0ﾚｲﾔ
  6
Continuous
 62
     2
370
     9
100
AcDbCircle
 10
-352.7027027027026
 20
-19.93266337626679
 30
0.0
 40
378.9999884528083
100
AcDbArc
 50
91.88507080078125
 51
178.1099548339844
  0
CIRCLE
  5
315
330
1F
100
AcDbEntity
  8
1-3ﾚｲﾔ
  6
Continuous
 62
     2
370
     9
100
AcDbCircle
 10
-352.7027027027026
 20
-384.9326303842905
 30
0.0
 40
6.226724064027941
  0
CIRCLE
  5
316
330
1F
100
AcDbEntity
  8
1-3ﾚｲﾔ
  6
JWW_DASHED1
 62
     2
370
     9
100
AcDbCircle
 10
-352.7027027027026
 20
-384.9326303842905
 30
0.0
 40
4.499999574712805
  0
ARC
  5
317
330
1F
100
AcDbEntity
  8
1-1ﾚｲﾔ
  6
Continuous
 62
     3
370
     9
100
AcDbCircle
 10
-352.7027027027026
 20
-19.93266337626679
 30
0.0
 40
322.9999336036476
100
AcDbArc
 50
0.0
 51
86.2722625732422
  0
ARC
  5
318
330
1F
100
AcDbEntity
  8
1-1ﾚｲﾔ
  6
Continuous
 62
     3
370
     9
100
AcDbCircle
 10
-352.7027027027026
 20
-19.93266337626679
 30
0.0
 40
322.9999336036476
100
AcDbArc
 50
93.72773742675776
 51
180.0
  0
ARC
  5
319
330
1F
100
AcDbEntity
  8
1-1ﾚｲﾔ
  6
Continuous
 62
     3
370
     9
100
AcDbCircle
 10
-352.7027027027026
 20
-19.93266337626679
 30
0.0
 40
270.0003340437606
100
AcDbArc
 50
72.54243469238284
 51
85.53916931152345
  0
ARC
  5
31A
330
1F
100
AcDbEntity
  8
1-1ﾚｲﾔ
  6
Continuous
 62
     3
370
     9
100
AcDbCircle
 10
-352.7027027027026
 20
-19.93266337626679
 30
0.0
 40
270.0003340437606
100
AcDbArc
 50
94.46083068847656
 51
107.4575653076172
  0
ARC
  5
31B
330
1F
100
AcDbEntity
  8
1-1ﾚｲﾔ
  6
Continuous
 62
     3
370
     9
100
AcDbCircle
 10
-352.7027027027026
 20
-19.93266337626679
 30
0.0
 40
313.9998977248733
100
AcDbArc
 50
0.0
 51
86.16526794433595
  0
ARC
  5
31C
330
1F
100
AcDbEntity
  8
1-1ﾚｲﾔ
  6
Continuous
 62
     3
370
     9
100
AcDbCircle
 10
-352.7027027027026
 20
-19.93266337626679
 30
0.0
 40
313.9998977248733
100
AcDbArc
 50
93.83473205566406
 51
180.0
  0
CIRCLE
  5
31D
330
1F
100
AcDbEntity
  8
1-3ﾚｲﾔ
  6
Continuous
 62
     7
370
     9
100
AcDbCircle
 10
-322.7027274466849
 20
-307.4324984163851
 30
0.0
 40
6.499999600487786
  0
CIRCLE
  5
31E
330
1F
100
AcDbEntity
  8
1-3ﾚｲﾔ
  6
Continuous
 62
     7
370
     9
100
AcDbCircle
 10
-382.7026779587204
 20
-307.4324984163851
 30
0.0
 40
6.499999600487786
  0
ARC
  5
31F
330
1F
100
AcDbEntity
  8
1-3ﾚｲﾔ
  6
Continuous
 62
     4
370
     9
100
AcDbCircle
 10
480.5770049224029
 20
301.9832054344384
 30
0.0
 40
1.999999904954756
100
AcDbArc
 50
0.0
 51
76.75849914550781
  0
ARC
  5
320
330
1F
100
AcDbEntity
  8
1-3ﾚｲﾔ
  6
Continuous
 62
     4
370
     9
100
AcDbCircle
 10
480.5770049224029
 20
234.067283836571
 30
0.0
 40
1.999999904954756
100
AcDbArc
 50
270.0
 51
0.0
  0
ARC
  5
321
330
1F
100
AcDbEntity
  8
1-3ﾚｲﾔ
  6
Continuous
 62
     4
370
     9
100
AcDbCircle
 10
487.5769537848396
 20
288.567265690984
 30
0.0
 40
4.99999958115655
100
AcDbArc
 50
180.0
 51
270.0
  0
ARC
  5
322
330
1F
100
AcDbEntity
  8
1-3ﾚｲﾔ
  6
Continuous
 62
     4
370
     9
100
AcDbCircle
 10
487.5769537848396
 20
246.5673250765414
 30
0.0
 40
4.99999958115655
100
AcDbArc
 50
90.0
 51
180.0
  0
ARC
  5
323
330
1F
100
AcDbEntity
  8
1-0ﾚｲﾔ
  6
Continuous
 62
     4
370
     9
100
AcDbCircle
 10
500.0769950248102
 20
275.5672722893793
 30
0.0
 40
1.999999904954756
100
AcDbArc
 50
90.0
 51
180.0
  0
ARC
  5
324
330
1F
100
AcDbEntity
  8
1-0ﾚｲﾔ
  6
Continuous
 62
     4
370
     9
100
AcDbCircle
 10
500.0769950248102
 20
259.5673184781463
 30
0.0
 40
1.999999904954756
100
AcDbArc
 50
180.0
 51
270.0
  0
ARC
  5
325
330
1F
100
AcDbEntity
  8
1-3ﾚｲﾔ
  6
Continuous
 62
     2
370
     9
100
AcDbCircle
 10
554.2872248469172
 20
350.6622891812713
 30
0.0
 40
2.389999982473013
100
AcDbArc
 50
318.1361083984374
 51
41.86389160156251
  0
ARC
  5
326
330
1F
100
AcDbEntity
  8
1-3ﾚｲﾔ
  6
Continuous
 62
     2
370
     9
100
AcDbCircle
 10
554.2872248469172
 20
339.4723180822425
 30
0.0
 40
2.389999982473013
100
AcDbArc
 50
318.1361083984374
 51
41.86389160156251
  0
ARC
  5
327
330
1F
100
AcDbEntity
  8
1-3ﾚｲﾔ
  6
Continuous
 62
     2
370
     9
100
AcDbCircle
 10
543.2588319520693
 20
345.0673036317568
 30
0.0
 40
13.41822759525196
100
AcDbArc
 50
342.6564025878906
 51
17.34359741210938
  0
ARC
  5
328
330
1F
100
AcDbEntity
  8
1-3ﾚｲﾔ
  6
Continuous
 62
     2
370
     9
100
AcDbCircle
 10
531.3770191089529
 20
339.4437387827281
 30
0.0
 40
2.800172809008006
100
AcDbArc
 50
137.9255676269531
 51
222.0746307373047
  0
ARC
  5
329
330
1F
100
AcDbEntity
  8
1-3ﾚｲﾔ
  6
Continuous
 62
     2
370
     9
100
AcDbCircle
 10
538.6661014041385
 20
345.0673036317568
 30
0.0
 40
10.08940902916161
100
AcDbArc
 50
158.1978607177734
 51
201.8021392822266
  0
ARC
  5
32A
330
1F
100
AcDbEntity
  8
1-3ﾚｲﾔ
  6
Continuous
 62
     2
370
     9
100
AcDbCircle
 10
531.3770191089529
 20
350.6909922006969
 30
0.0
 40
2.800189240558728
100
AcDbArc
 50
137.9257202148438
 51
222.0742797851562
  0
ARC
  5
32B
330
1F
100
AcDbEntity
  8
1-3ﾚｲﾔ
  6
Continuous
 62
     4
370
     9
100
AcDbCircle
 10
480.5770049224029
 20
-341.8484084670608
 30
0.0
 40
1.999999904954756
100
AcDbArc
 50
283.2415008544922
 51
0.0
  0
ARC
  5
32C
330
1F
100
AcDbEntity
  8
1-3ﾚｲﾔ
  6
Continuous
 62
     4
370
     9
100
AcDbCircle
 10
480.5770049224029
 20
-273.9326105891047
 30
0.0
 40
1.999999904954756
100
AcDbArc
 50
0.0
 51
90.0
  0
ARC
  5
32D
330
1F
100
AcDbEntity
  8
1-3ﾚｲﾔ
  6
Continuous
 62
     4
370
     9
100
AcDbCircle
 10
487.5769537848396
 20
-328.4324687236063
 30
0.0
 40
4.99999958115655
100
AcDbArc
 50
90.0
 51
180.0
  0
ARC
  5
32E
330
1F
100
AcDbEntity
  8
1-3ﾚｲﾔ
  6
Continuous
 62
     4
370
     9
100
AcDbCircle
 10
487.5769537848396
 20
-286.4327755489865
 30
0.0
 40
4.99999958115655
100
AcDbArc
 50
180.0
 51
270.0
  0
ARC
  5
32F
330
1F
100
AcDbEntity
  8
1-3ﾚｲﾔ
  6
Continuous
 62
     4
370
     9
100
AcDbCircle
 10
479.5769768792232
 20
-339.5838392103041
 30
0.0
 40
1.999999904954756
100
AcDbArc
 50
283.2410125732422
 51
0.0000000000000254
  0
ARC
  5
330
330
1F
100
AcDbEntity
  8
1-3ﾚｲﾔ
  6
Continuous
 62
     4
370
     9
100
AcDbCircle
 10
479.5769768792232
 20
-275.4325907939188
 30
0.0
 40
1.999999904954756
100
AcDbArc
 50
0.0
 51
90.0
  0
ARC
  5
331
330
1F
100
AcDbEntity
  8
1-3ﾚｲﾔ
  6
JWW_DASHED1
 62
     4
370
     9
100
AcDbCircle
 10
500.0769950248102
 20
-315.4327227618243
 30
0.0
 40
1.999999904954756
100
AcDbArc
 50
180.0
 51
270.0
  0
ARC
  5
332
330
1F
100
AcDbEntity
  8
1-3ﾚｲﾔ
  6
JWW_DASHED1
 62
     4
370
     9
100
AcDbCircle
 10
496.1769722603464
 20
-315.3325096336571
 30
0.0
 40
1.899999903666007
100
AcDbArc
 50
0.0
 51
90.0
  0
ARC
  5
333
330
1F
100
AcDbEntity
  8
1-3ﾚｲﾔ
  6
JWW_DASHED1
 62
     4
370
     9
100
AcDbCircle
 10
500.0769950248102
 20
-299.4325215107685
 30
0.0
 40
1.999999904954756
100
AcDbArc
 50
90.0
 51
180.0
  0
ARC
  5
334
330
1F
100
AcDbEntity
  8
1-3ﾚｲﾔ
  6
JWW_DASHED1
 62
     4
370
     9
100
AcDbCircle
 10
496.1769722603464
 20
-299.5327346389358
 30
0.0
 40
1.899999903666007
100
AcDbArc
 50
270.0
 51
0.0
  0
ARC
  5
335
330
1F
100
AcDbEntity
  8
1-3ﾚｲﾔ
  6
Continuous
 62
     2
370
     9
100
AcDbCircle
 10
523.9869813661318
 20
-313.0276076858108
 30
0.0
 40
2.389999982473013
100
AcDbArc
 50
318.1361083984374
 51
41.86389160156253
  0
ARC
  5
336
330
1F
100
AcDbEntity
  8
1-3ﾚｲﾔ
  6
Continuous
 62
     2
370
     9
100
AcDbCircle
 10
523.9869813661318
 20
-301.8376365867821
 30
0.0
 40
2.389999982473013
100
AcDbArc
 50
318.1361083984374
 51
41.86389160156253
  0
ARC
  5
337
330
1F
100
AcDbEntity
  8
1-3ﾚｲﾔ
  6
Continuous
 62
     2
370
     9
100
AcDbCircle
 10
512.9588359111065
 20
-307.4324984163851
 30
0.0
 40
13.41822759525196
100
AcDbArc
 50
342.6564025878906
 51
17.34359741210941
  0
ARC
  5
338
330
1F
100
AcDbEntity
  8
1-0ﾚｲﾔ
  6
Continuous
 62
     2
370
     9
100
AcDbCircle
 10
536.0770148199958
 20
336.6330698374156
 30
0.0
 40
5.999999110763138
100
AcDbArc
 50
274.2998962402344
 51
0.0000000000000127
  0
ARC
  5
339
330
1F
100
AcDbEntity
  8
1-3ﾚｲﾔ
  6
Continuous
 62
     2
370
     9
100
AcDbCircle
 10
554.2872248469172
 20
-390.5277396537162
 30
0.0
 40
2.389999982473013
100
AcDbArc
 50
318.1361083984374
 51
41.86389160156253
  0
ARC
  5
33A
330
1F
100
AcDbEntity
  8
1-3ﾚｲﾔ
  6
Continuous
 62
     2
370
     9
100
AcDbCircle
 10
554.2872248469172
 20
-379.3375211148648
 30
0.0
 40
2.389999982473013
100
AcDbArc
 50
318.1361083984374
 51
41.86389160156253
  0
ARC
  5
33B
330
1F
100
AcDbEntity
  8
1-3ﾚｲﾔ
  6
Continuous
 62
     2
370
     9
100
AcDbCircle
 10
543.2588319520693
 20
-384.9326303842905
 30
0.0
 40
13.41822759525196
100
AcDbArc
 50
342.6564025878906
 51
17.34359741210941
  0
ARC
  5
33C
330
1F
100
AcDbEntity
  8
1-3ﾚｲﾔ
  6
Continuous
 62
     2
370
     9
100
AcDbCircle
 10
531.3770191089529
 20
-379.3090655352618
 30
0.0
 40
2.800172809008006
100
AcDbArc
 50
137.9253692626953
 51
222.0744323730469
  0
ARC
  5
33D
330
1F
100
AcDbEntity
  8
1-3ﾚｲﾔ
  6
Continuous
 62
     2
370
     9
100
AcDbCircle
 10
538.6661014041385
 20
-384.9326303842905
 30
0.0
 40
10.08940902916161
100
AcDbArc
 50
158.1978607177735
 51
201.8021392822266
  0
ARC
  5
33E
330
1F
100
AcDbEntity
  8
1-3ﾚｲﾔ
  6
Continuous
 62
     2
370
     9
100
AcDbCircle
 10
531.3770191089529
 20
-390.5561952333193
 30
0.0
 40
2.800189240558728
100
AcDbArc
 50
137.9257202148438
 51
222.0742797851563
  0
ARC
  5
33F
330
1F
100
AcDbEntity
  8
1-0ﾚｲﾔ
  6
Continuous
 62
     2
370
     9
100
AcDbCircle
 10
-328.702771985853
 20
344.2777231577281
 30
0.0
 40
1.999999904954756
100
AcDbArc
 50
86.23068237304688
 51
180.0
  0
ARC
  5
340
330
1F
100
AcDbEntity
  8
1-0ﾚｲﾔ
  6
Continuous
 62
     2
370
     9
100
AcDbCircle
 10
-330.7027043523015
 20
346.40756143106
 30
0.0
 40
1.999999904954756
100
AcDbArc
 50
86.5634002685547
 51
180.0
  0
ARC
  5
341
330
1F
100
AcDbEntity
  8
1-0ﾚｲﾔ
  6
Continuous
 62
     2
370
     9
100
AcDbCircle
 10
-376.7026334195523
 20
344.2777231577281
 30
0.0
 40
1.999999904954756
100
AcDbArc
 50
0.0
 51
93.76945495605469
  0
ARC
  5
342
330
1F
100
AcDbEntity
  8
1-0ﾚｲﾔ
  6
Continuous
 62
     2
370
     9
100
AcDbCircle
 10
-374.7027010531039
 20
346.40756143106
 30
0.0
 40
1.999999904954756
100
AcDbArc
 50
0.0
 51
93.43659973144531
  0
ARC
  5
343
330
1F
100
AcDbEntity
  8
1-0ﾚｲﾔ
  6
Continuous
 62
     2
370
     9
100
AcDbCircle
 10
-376.7026334195523
 20
332.2506631387247
 30
0.0
 40
1.999999904954756
100
AcDbArc
 50
273.8991851806641
 51
0.0000000000000127
  0
ARC
  5
344
330
1F
100
AcDbEntity
  8
1-0ﾚｲﾔ
  6
Continuous
 62
     2
370
     9
100
AcDbCircle
 10
-374.7027010531039
 20
332.1506974503801
 30
0.0
 40
1.999999904954756
100
AcDbArc
 50
273.5747375488281
 51
0.0
  0
ARC
  5
345
330
1F
100
AcDbEntity
  8
1-0ﾚｲﾔ
  6
Continuous
 62
     2
370
     9
100
AcDbCircle
 10
-328.702771985853
 20
332.2506631387247
 30
0.0
 40
1.999999904954756
100
AcDbArc
 50
180.0
 51
266.1008148193359
  0
ARC
  5
346
330
1F
100
AcDbEntity
  8
1-0ﾚｲﾔ
  6
Continuous
 62
     2
370
     9
100
AcDbCircle
 10
-330.7027043523015
 20
332.1506974503801
 30
0.0
 40
1.999999904954756
100
AcDbArc
 50
180.0
 51
266.4252624511719
  0
ARC
  5
347
330
1F
100
AcDbEntity
  8
1-0ﾚｲﾔ
  6
Continuous
 62
     2
370
     9
100
AcDbCircle
 10
-352.7027027027026
 20
-19.93266337626679
 30
0.0
 40
350.7698574581662
100
AcDbArc
 50
86.42449951171875
 51
93.57550048828124
  0
ARC
  5
348
330
1F
100
AcDbEntity
  8
1-0ﾚｲﾔ
  6
Continuous
 62
     2
370
     9
100
AcDbCircle
 10
13.63752210462422
 20
2.067334974134383
 30
0.0
 40
1.999999904954756
100
AcDbArc
 50
270.0
 51
3.436599731445304
  0
ARC
  5
349
330
1F
100
AcDbEntity
  8
1-0ﾚｲﾔ
  6
Continuous
 62
     2
370
     9
100
AcDbCircle
 10
-0.5193761877110603
 20
4.067267340582816
 30
0.0
 40
1.999999904954756
100
AcDbArc
 50
183.8991851806641
 51
270.0
  0
ARC
  5
34A
330
1F
100
AcDbEntity
  8
1-0ﾚｲﾔ
  6
Continuous
 62
     2
370
     9
100
AcDbCircle
 10
-0.6193418760557279
 20
2.067334974134383
 30
0.0
 40
1.999999904954756
100
AcDbArc
 50
183.5747375488281
 51
270.0
  0
ARC
  5
34B
330
1F
100
AcDbEntity
  8
1-0ﾚｲﾔ
  6
Continuous
 62
     2
370
     9
100
AcDbCircle
 10
11.50768383129233
 20
4.067267340582816
 30
0.0
 40
1.999999904954756
100
AcDbArc
 50
270.0
 51
3.769454956054685
  0
ARC
  5
34C
330
1F
100
AcDbEntity
  8
1-0ﾚｲﾔ
  6
Continuous
 62
     2
370
     9
100
AcDbCircle
 10
-352.7027027027026
 20
-19.93266337626679
 30
0.0
 40
367.0000849543391
100
AcDbArc
 50
3.77009582519532
 51
86.2299041748047
  0
ARC
  5
34D
330
1F
100
AcDbEntity
  8
1-0ﾚｲﾔ
  6
Continuous
 62
     2
370
     9
100
AcDbCircle
 10
-352.7027027027026
 20
-19.93266337626679
 30
0.0
 40
369.0000482507654
100
AcDbArc
 50
3.436676025390624
 51
86.56332397460938
  0
ARC
  5
34E
330
1F
100
AcDbEntity
  8
1-0ﾚｲﾔ
  6
Continuous
 62
     2
370
     9
100
AcDbCircle
 10
-352.7027027027026
 20
-19.93266337626679
 30
0.0
 40
351.0001002131282
100
AcDbArc
 50
3.898452758789063
 51
86.10154724121095
  0
ARC
  5
34F
330
1F
100
AcDbEntity
  8
1-0ﾚｲﾔ
  6
Continuous
 62
     2
370
     9
100
AcDbCircle
 10
-352.7027027027026
 20
-19.93266337626679
 30
0.0
 40
350.7698574581662
100
AcDbArc
 50
0.0
 51
3.57550048828125
  0
ARC
  5
350
330
1F
100
AcDbEntity
  8
1-0ﾚｲﾔ
  6
Continuous
 62
     2
370
     9
100
AcDbCircle
 10
-719.0429275100296
 20
2.067334974134383
 30
0.0
 40
1.999999904954756
100
AcDbArc
 50
176.5634002685547
 51
270.0
  0
ARC
  5
351
330
1F
100
AcDbEntity
  8
1-0ﾚｲﾔ
  6
Continuous
 62
     2
370
     9
100
AcDbCircle
 10
-704.8861529376054
 20
4.067267340582816
 30
0.0
 40
1.999999904954756
100
AcDbArc
 50
270.0
 51
356.1008148193359
  0
ARC
  5
352
330
1F
100
AcDbEntity
  8
1-0ﾚｲﾔ
  6
Continuous
 62
     2
370
     9
100
AcDbCircle
 10
-704.7859398094383
 20
2.067334974134383
 30
0.0
 40
1.999999904954756
100
AcDbArc
 50
270.0
 51
356.4252624511719
  0
ARC
  5
353
330
1F
100
AcDbEntity
  8
1-0ﾚｲﾔ
  6
Continuous
 62
     2
370
     9
100
AcDbCircle
 10
-716.9129655167864
 20
4.067267340582816
 30
0.0
 40
1.999999904954756
100
AcDbArc
 50
176.2305450439454
 51
270.0000000000001
  0
ARC
  5
354
330
1F
100
AcDbEntity
  8
1-0ﾚｲﾔ
  6
Continuous
 62
     2
370
     9
100
AcDbCircle
 10
-352.7027027027026
 20
-19.93266337626679
 30
0.0
 40
351.0001002131282
100
AcDbArc
 50
93.89845275878912
 51
176.101547241211
  0
ARC
  5
355
330
1F
100
AcDbEntity
  8
1-0ﾚｲﾔ
  6
Continuous
 62
     2
370
     9
100
AcDbCircle
 10
-352.7027027027026
 20
-19.93266337626679
 30
0.0
 40
350.7698574581662
100
AcDbArc
 50
176.4244995117188
 51
180.0
  0
ARC
  5
356
330
1F
100
AcDbEntity
  8
1-0ﾚｲﾔ
  6
Continuous
 62
     2
370
     9
100
AcDbCircle
 10
-352.7027027027026
 20
-19.93266337626679
 30
0.0
 40
367.0000849543391
100
AcDbArc
 50
93.77009582519531
 51
176.2299041748047
  0
ARC
  5
357
330
1F
100
AcDbEntity
  8
1-0ﾚｲﾔ
  6
Continuous
 62
     2
370
     9
100
AcDbCircle
 10
-352.7027027027026
 20
-19.93266337626679
 30
0.0
 40
369.0000482507654
100
AcDbArc
 50
93.43667602539068
 51
176.5633239746094
  0
ARC
  5
358
330
1F
100
AcDbEntity
  8
1-0ﾚｲﾔ
  6
JWW_DASHED1
 62
     2
370
     9
100
AcDbCircle
 10
-352.7027027027026
 20
-384.9326303842905
 30
0.0
 40
7.499999613375278
100
AcDbArc
 50
0.0
 51
180.0
  0
ARC
  5
359
330
1F
100
AcDbEntity
  8
1-0ﾚｲﾔ
  6
Continuous
 62
     2
370
     9
100
AcDbCircle
 10
-343.2028074522276
 20
-397.8133577913851
 30
0.0
 40
1.999999904954756
100
AcDbArc
 50
180.0
 51
271.4394378662109
  0
ARC
  5
35A
330
1F
100
AcDbEntity
  8
1-0ﾚｲﾔ
  6
Continuous
 62
     2
370
     9
100
AcDbCircle
 10
-362.2025979531777
 20
-397.8133577913851
 30
0.0
 40
1.999999904954756
100
AcDbArc
 50
268.5605621337891
 51
0.0000000000000509
  0
ARC
  5
35B
330
1F
100
AcDbEntity
  8
1-0ﾚｲﾔ
  6
JWW_DASHED1
 62
     2
370
     9
100
AcDbCircle
 10
-717.7027934306376
 20
-19.93266337626679
 30
0.0
 40
7.499999613375278
100
AcDbArc
 50
270.0
 51
90.0
  0
ARC
  5
35C
330
1F
100
AcDbEntity
  8
1-0ﾚｲﾔ
  6
Continuous
 62
     2
370
     9
100
AcDbCircle
 10
-730.5833971178209
 20
-29.43262048669766
 30
0.0
 40
1.999999904954756
100
AcDbArc
 50
90.0
 51
181.4394378662109
  0
ARC
  5
35D
330
1F
100
AcDbEntity
  8
1-0ﾚｲﾔ
  6
Continuous
 62
     2
370
     9
100
AcDbCircle
 10
-352.7027027027026
 20
-19.93266337626679
 30
0.0
 40
380.0002020758552
100
AcDbArc
 50
181.4401092529297
 51
268.5598907470703
  0
ARC
  5
35E
330
1F
100
AcDbEntity
  8
1-0ﾚｲﾔ
  6
JWW_DASHED1
 62
     2
370
     9
100
AcDbCircle
 10
-730.5833971178209
 20
-10.43270626583606
 30
0.0
 40
1.999999904954756
100
AcDbArc
 50
178.5605621337891
 51
270.0000000000001
  0
ARC
  5
35F
330
1F
100
AcDbEntity
  8
1-0ﾚｲﾔ
  6
JWW_DASHED1
 62
     2
370
     9
100
AcDbCircle
 10
-352.7027027027026
 20
-19.93266337626679
 30
0.0
 40
380.0002020758552
100
AcDbArc
 50
178.1149291992188
 51
178.5598907470703
  0
ARC
  5
360
330
1F
100
AcDbEntity
  8
1-0ﾚｲﾔ
  6
Continuous
 62
     2
370
     9
100
AcDbCircle
 10
-352.7027027027026
 20
-19.93266337626679
 30
0.0
 40
380.0002020758552
100
AcDbArc
 50
91.88507080078125
 51
178.1149291992188
  0
ARC
  5
361
330
1F
100
AcDbEntity
  8
1-3ﾚｲﾔ
  6
Continuous
 62
     4
370
     9
100
AcDbCircle
 10
12.29726430532097
 20
-19.93266337626679
 30
0.0
 40
12.50000741030719
100
AcDbArc
 50
90.0
 51
180.0
  0
ARC
  5
362
330
1F
100
AcDbEntity
  8
1-3ﾚｲﾔ
  6
Continuous
 62
     2
370
     9
100
AcDbCircle
 10
12.29182062922305
 20
-19.93266337626679
 30
0.0
 40
6.500000567049594
100
AcDbArc
 50
0.0
 51
180.0
  0
ARC
  5
363
330
1F
100
AcDbEntity
  8
1-3ﾚｲﾔ
  6
Continuous
 62
     2
370
     9
100
AcDbCircle
 10
12.29726430532097
 20
-19.93266337626679
 30
0.0
 40
3.323499818105955
100
AcDbArc
 50
0.0
 51
180.0
  0
ARC
  5
364
330
1F
100
AcDbEntity
  8
1-3ﾚｲﾔ
  6
Continuous
 62
     2
370
     9
100
AcDbCircle
 10
12.29726430532097
 20
-19.93266337626679
 30
0.0
 40
3.999999809909511
100
AcDbArc
 50
0.0
 51
180.0
  0
CIRCLE
  5
365
330
1F
100
AcDbEntity
  8
1-3ﾚｲﾔ
  6
Continuous
 62
     2
370
     9
100
AcDbCircle
 10
12.29738802523229
 20
-19.93266337626679
 30
0.0
 40
6.226724064027941
  0
ARC
  5
366
330
1F
100
AcDbEntity
  8
1-0ﾚｲﾔ
  6
JWW_DASHED1
 62
     2
370
     9
100
AcDbCircle
 10
12.29738802523229
 20
-19.93266337626679
 30
0.0
 40
7.499999613375278
100
AcDbArc
 50
90.0
 51
270.0
  0
ARC
  5
367
330
1F
100
AcDbEntity
  8
1-0ﾚｲﾔ
  6
Continuous
 62
     2
370
     9
100
AcDbCircle
 10
25.17799171241563
 20
-29.43262048669766
 30
0.0
 40
1.999999904954756
100
AcDbArc
 50
358.5605621337891
 51
90.00000000000006
  0
ARC
  5
368
330
1F
100
AcDbEntity
  8
1-0ﾚｲﾔ
  6
JWW_DASHED1
 62
     2
370
     9
100
AcDbCircle
 10
25.17799171241563
 20
-10.43270626583606
 30
0.0
 40
1.999999904954756
100
AcDbArc
 50
270.0
 51
1.439437866210938
  0
ARC
  5
369
330
1F
100
AcDbEntity
  8
1-0ﾚｲﾔ
  6
JWW_DASHED1
 62
     2
370
     9
100
AcDbCircle
 10
-352.7027027027026
 20
-19.93266337626679
 30
0.0
 40
380.0002020758552
100
AcDbArc
 50
1.440109252929703
 51
1.885070800781266
  0
ARC
  5
36A
330
1F
100
AcDbEntity
  8
1-0ﾚｲﾔ
  6
Continuous
 62
     2
370
     9
100
AcDbCircle
 10
-352.7027027027026
 20
-19.93266337626679
 30
0.0
 40
380.0002020758552
100
AcDbArc
 50
271.4401092529297
 51
358.5598907470703
  0
ARC
  5
36B
330
1F
100
AcDbEntity
  8
1-0ﾚｲﾔ
  6
JWW_DASHED1
 62
     2
370
     9
100
AcDbCircle
 10
-352.7027027027026
 20
345.0674273516681
 30
0.0
 40
7.499999613375278
100
AcDbArc
 50
180.0
 51
0.0
  0
ARC
  5
36C
330
1F
100
AcDbEntity
  8
1-0ﾚｲﾔ
  6
JWW_DASHED1
 62
     2
370
     9
100
AcDbCircle
 10
-343.2028074522276
 20
357.9480310388515
 30
0.0
 40
1.999999904954756
100
AcDbArc
 50
88.56056213378912
 51
180.0
  0
ARC
  5
36D
330
1F
100
AcDbEntity
  8
1-0ﾚｲﾔ
  6
JWW_DASHED1
 62
     2
370
     9
100
AcDbCircle
 10
-362.2025979531777
 20
357.9480310388515
 30
0.0
 40
1.999999904954756
100
AcDbArc
 50
0.0
 51
91.43943786621094
  0
ARC
  5
36E
330
1F
100
AcDbEntity
  8
1-0ﾚｲﾔ
  6
JWW_DASHED1
 62
     2
370
     9
100
AcDbCircle
 10
-352.7027027027026
 20
-19.93266337626679
 30
0.0
 40
380.0002020758552
100
AcDbArc
 50
88.11492919921876
 51
88.55989074707033
  0
ARC
  5
36F
330
1F
100
AcDbEntity
  8
1-0ﾚｲﾔ
  6
Continuous
 62
     2
370
     9
100
AcDbCircle
 10
-352.7027027027026
 20
-19.93266337626679
 30
0.0
 40
380.0002020758552
100
AcDbArc
 50
1.885070800781261
 51
88.11492919921878
  0
ARC
  5
370
330
1F
100
AcDbEntity
  8
1-0ﾚｲﾔ
  6
JWW_DASHED1
 62
     2
370
     9
100
AcDbCircle
 10
-352.7027027027026
 20
-19.93266337626679
 30
0.0
 40
380.0002020758552
100
AcDbArc
 50
91.44010925292969
 51
91.88507080078125
  0
TEXT
  5
371
330
1F
100
AcDbEntity
  8
F-4ﾚｲﾔ
  6
Continuous
 62
     2
370
     9
100
AcDbText
 10
-443.750051549963
 20
661.2658799619933
 30
0.0
 40
15.24
  1
適用荷重
 41
1.09375
  7
ＭＳ ゴシック
100
AcDbText
  0
TEXT
  5
372
330
1F
100
AcDbEntity
  8
F-4ﾚｲﾔ
  6
Continuous
 62
     2
370
     9
100
AcDbText
 10
-443.750051549963
 20
621.2657479940881
 30
0.0
 40
15.24
  1
破壊荷重
 41
1.09375
  7
ＭＳ ゴシック
100
AcDbText
  0
TEXT
  5
373
330
1F
100
AcDbEntity
  8
F-4ﾚｲﾔ
  6
Continuous
 62
     2
370
     9
100
AcDbText
 10
-443.750051549963
 20
581.2658634660053
 30
0.0
 40
15.24
  1
接触圧子
 41
1.09375
  7
ＭＳ ゴシック
100
AcDbText
  0
TEXT
  5
374
330
1F
100
AcDbEntity
  8
F-4ﾚｲﾔ
  6
Continuous
 62
     2
370
     9
100
AcDbText
 10
-443.750051549963
 20
541.2657314980999
 30
0.0
 40
15.24
  1
標準質量
 41
1.09375
  7
ＭＳ ゴシック
100
AcDbText
  0
TEXT
  5
375
330
1F
100
AcDbEntity
  8
F-4ﾚｲﾔ
  6
Continuous
 62
     2
370
     9
100
AcDbText
 10
-947.0381845010295
 20
641.2658139780407
 30
0.0
 40
15.24
  1
備
 41
0.9999999999999998
  7
ＭＳ ゴシック
100
AcDbText
  0
TEXT
  5
376
330
1F
100
AcDbEntity
  8
F-4ﾚｲﾔ
  6
Continuous
 62
     2
370
     9
100
AcDbText
 10
-947.0381845010295
 20
561.2657974820523
 30
0.0
 40
15.24
  1
考
 41
0.9999999999999998
  7
ＭＳ ゴシック
100
AcDbText
  0
TEXT
  5
377
330
1F
100
AcDbEntity
  8
F-4ﾚｲﾔ
  6
Continuous
 62
     2
370
     9
100
AcDbText
 10
-895.0001113479202
 20
661.2658799619933
 30
0.0
 40
15.24
  1
簡易密閉型・鋳鉄目地
 41
1.1125
  7
ＭＳ ゴシック
100
AcDbText
  0
TEXT
  5
378
330
1F
100
AcDbEntity
  8
1-4ﾚｲﾔ
  6
Continuous
 62
     2
370
     9
100
AcDbText
 10
-368.9527027027027
 20
-481.0764348870354
 30
0.0
 40
15.24
  1
730
 41
1.083333333333333
  7
ＭＳ ゴシック
100
AcDbText
  0
TEXT
  5
379
330
1F
100
AcDbEntity
  8
1-4ﾚｲﾔ
  6
Continuous
 62
     2
370
     9
100
AcDbText
 10
500.9519463616449
 20
-481.0764658170133
 30
0.0
 40
15.24
  1
75
 41
1.0625
  7
ＭＳ ゴシック
100
AcDbText
  0
TEXT
  5
37A
330
1F
100
AcDbEntity
  8
1-4ﾚｲﾔ
  6
Continuous
 62
     2
370
     9
100
AcDbText
 10
368.4316578468117
 20
-350.9011789270349
 30
0.0
 40
15.24
  1
2
 50
90.0
 41
0.9999999999999998
  7
ＭＳ ゴシック
100
AcDbText
  0
TEXT
  5
37B
330
1F
100
AcDbEntity
  8
1-4ﾚｲﾔ
  6
Continuous
 62
     2
370
     9
100
AcDbText
 10
368.6595499234586
 20
302.07650674356
 30
0.0
 40
15.24
  1
2
 50
90.0
 41
0.9999999999999998
  7
ＭＳ ゴシック
100
AcDbText
  0
TEXT
  5
37C
330
1F
100
AcDbEntity
  8
1-4ﾚｲﾔ
  6
Continuous
 62
     2
370
     9
100
AcDbText
 10
368.6106805584883
 20
-379.8961154834644
 30
0.0
 40
15.24
  1
8
 50
90.0
 41
0.9999999999999998
  7
ＭＳ ゴシック
100
AcDbText
  0
TEXT
  5
37D
330
1F
100
AcDbEntity
  8
1-4ﾚｲﾔ
  6
Continuous
 62
     2
370
     9
100
AcDbText
 10
368.4234923326649
 20
330.8806053367822
 30
0.0
 40
15.24
  1
8
 50
90.0
 41
0.9999999999999998
  7
ＭＳ ゴシック
100
AcDbText
  0
TEXT
  5
37E
330
1F
100
AcDbEntity
  8
1-4ﾚｲﾔ
  6
Continuous
 62
     2
370
     9
100
AcDbText
 10
406.2670625263938
 20
-353.2242646088471
 30
0.0
 40
15.24
  1
13
 50
90.0
 41
1.0625
  7
ＭＳ ゴシック
100
AcDbText
  0
TEXT
  5
37F
330
1F
100
AcDbEntity
  8
1-4ﾚｲﾔ
  6
Continuous
 62
     2
370
     9
100
AcDbText
 10
326.9507222603464
 20
-47.43263244628899
 30
0.0
 40
15.24
  1
φ692
 50
90.0
 41
1.1
  7
ＭＳ ゴシック
100
AcDbText
  0
TEXT
  5
380
330
1F
100
AcDbEntity
  8
1-4ﾚｲﾔ
  6
Continuous
 62
     2
370
     9
100
AcDbText
 10
368.0851183752112
 20
-47.43263244628899
 30
0.0
 40
15.24
  1
φ672
 50
90.0
 41
1.1
  7
ＭＳ ゴシック
100
AcDbText
  0
TEXT
  5
381
330
1F
100
AcDbEntity
  8
1-4ﾚｲﾔ
  6
Continuous
 62
     2
370
     9
100
AcDbText
 10
628.6664699904984
 20
-47.43250872637766
 30
0.0
 40
15.24
  1
φ600
 50
90.0
 41
1.1
  7
ＭＳ ゴシック
100
AcDbText
  0
TEXT
  5
382
330
1F
100
AcDbEntity
  8
1-4ﾚｲﾔ
  6
Continuous
 62
     2
370
     9
100
AcDbText
 10
661.0989024229307
 20
-47.43263244628899
 30
0.0
 40
15.24
  1
φ760
 50
90.0
 41
1.1
  7
ＭＳ ゴシック
100
AcDbText
  0
TEXT
  5
383
330
1F
100
AcDbEntity
  8
1-4ﾚｲﾔ
  6
Continuous
 62
     2
370
     9
100
AcDbText
 10
483.4518886256864
 20
16.25137998838685
 30
0.0
 40
15.24
  1
40
 41
1.0625
  7
ＭＳ ゴシック
100
AcDbText
  0
TEXT
  5
384
330
1F
100
AcDbEntity
  8
1-4ﾚｲﾔ
  6
Continuous
 62
     2
370
     9
100
AcDbText
 10
486.4551894729202
 20
42.29151390281888
 30
0.0
 40
15.24
  1
10
 41
1.0625
  7
ＭＳ ゴシック
100
AcDbText
  0
TEXT
  5
385
330
1F
100
AcDbEntity
  8
1-4ﾚｲﾔ
  6
Continuous
 62
     2
370
     9
100
AcDbText
 10
-363.3277645626583
 20
190.796173194679
 30
0.0
 40
15.24
  1
42
 41
1.0625
  7
ＭＳ ゴシック
100
AcDbText
  0
TEXT
  5
386
330
1F
100
AcDbEntity
  8
1-4ﾚｲﾔ
  6
Continuous
 62
     2
370
     9
100
AcDbText
 10
-420.6475031012458
 20
258.9421658902555
 30
0.0
 40
15.24
  1
72
 50
90.0
 41
1.0625
  7
ＭＳ ゴシック
100
AcDbText
  0
TEXT
  5
387
330
1F
100
AcDbEntity
  8
F-4ﾚｲﾔ
  6
Continuous
 62
     2
370
     9
100
AcDbText
 10
452.499991752006
 20
-681.1863471407504
 30
0.0
 40
15.24
  1
１：５
 41
1.083333333333333
  7
ＭＳ ゴシック
100
AcDbText
  0
TEXT
  5
388
330
1F
100
AcDbEntity
  8
F-4ﾚｲﾔ
  6
Continuous
 62
     2
370
     9
100
AcDbText
 10
-287.5000804179423
 20
541.2657314980999
 30
0.0
 40
15.24
  1
５１．０ｋｇ
 41
1.104166666666667
  7
ＭＳ ゴシック
100
AcDbText
  0
TEXT
  5
389
330
1F
100
AcDbEntity
  8
1-4ﾚｲﾔ
  6
Continuous
 62
     2
370
     9
100
AcDbText
 10
552.0070586333405
 20
16.25137998838685
 30
0.0
 40
15.24
  1
6.5
 41
1.083333333333333
  7
ＭＳ ゴシック
100
AcDbText
  0
TEXT
  5
38A
330
1F
100
AcDbEntity
  8
F-4ﾚｲﾔ
  6
Continuous
 62
     2
370
     9
100
AcDbText
 10
-253.750142277898
 20
661.2658799619933
 30
0.0
 40
15.24
  1
Ｔ－２
 41
1.083333333333333
  7
ＭＳ ゴシック
100
AcDbText
  0
TEXT
  5
38B
330
1F
100
AcDbEntity
  8
F-4ﾚｲﾔ
  6
Continuous
 62
     3
370
     9
100
AcDbText
 10
-333.0000494879646
 20
621.2657479940881
 30
0.0
 40
15.24
  1
２０ｋＮ（２，０４１ｋｇｆ）以上
 41
0.6984374999999998
  7
ＭＳ ゴシック
100
AcDbText
  0
TEXT
  5
38C
330
1F
100
AcDbEntity
  8
F-4ﾚｲﾔ
  6
Continuous
 62
     2
370
     9
100
AcDbText
 10
-287.5000804179423
 20
581.2658634660053
 30
0.0
 40
15.24
  1
φ１５０ｍｍ
 41
1.104166666666667
  7
ＭＳ ゴシック
100
AcDbText
  0
LWPOLYLINE
  5
38D
330
1F
100
AcDbEntity
  8
1-4ﾚｲﾔ
  6
Continuous
 62
     7
370
     9
100
AcDbPolyline
 90
        4
 70
     1
 43
1.0
 10
376.4051348711995
 20
318.0674125052788
 42
0.4142135623731
 10
375.9051348711995
 20
318.5674125052788
 42
0.4142135623731
 10
375.4051348711995
 20
318.0674125052788
 42
0.4142135623731
 10
375.9051348711995
 20
317.5674125052788
 42
0.4142135623731
  0
LWPOLYLINE
  5
38E
330
1F
100
AcDbEntity
  8
1-4ﾚｲﾔ
  6
Continuous
 62
     7
370
     9
100
AcDbPolyline
 90
        4
 70
     1
 43
1.0
 10
376.4051348711995
 20
-357.9325536779455
 42
0.4142135623731
 10
375.9051348711995
 20
-357.4325536779455
 42
0.4142135623731
 10
375.4051348711995
 20
-357.9325536779455
 42
0.4142135623731
 10
375.9051348711995
 20
-358.4325536779455
 42
0.4142135623731
  0
LWPOLYLINE
  5
38F
330
1F
100
AcDbEntity
  8
1-4ﾚｲﾔ
  6
Continuous
 62
     7
370
     9
100
AcDbPolyline
 90
        4
 70
     1
 43
1.0
 10
524.5769257416596
 20
8.431363492398702
 42
0.4142135623731
 10
524.0769257416596
 20
8.931363492398702
 42
0.4142135623731
 10
523.5769257416597
 20
8.431363492398702
 42
0.4142135623731
 10
524.0769257416596
 20
7.931363492398702
 42
0.4142135623731
  0
TEXT
  5
390
330
1F
100
AcDbEntity
  8
F-4ﾚｲﾔ
  6
Continuous
 62
     2
370
     9
100
AcDbText
 10
-424.5051717235974
 20
-662.2918987890829
 30
0.0
 40
15.24
  1
タイル用　鋳鉄目地　簡易密閉型　充填深さ４０ｍｍ
 41
0.8989583333333333
  7
ＭＳ ゴシック
100
AcDbText
  0
TEXT
  5
391
330
1F
100
AcDbEntity
  8
F-4ﾚｲﾔ
  6
Continuous
 62
     2
370
     9
100
AcDbText
 10
-181.7305766764343
 20
-687.3803690119929
 30
0.0
 40
15.24
  1
カラー舗装用鉄蓋　ＭＲＯＰＲ－２－６０７０
 41
0.8988095238095237
  7
ＭＳ ゴシック
100
AcDbText
  0
LINE
  5
392
330
1F
100
AcDbEntity
  8
1-E
  6
Continuous
 62
     7
370
     9
100
AcDbLine
 10
618.4337719066724
 20
502.0945945945947
 30
0.0
 11
539.0770989495356
 21
402.5673696157095
 31
0.0
  0
LINE
  5
393
330
1F
100
AcDbEntity
  8
1-E
  6
Continuous
 62
     7
370
     9
100
AcDbLine
 10
539.0770989495356
 20
402.5673696157095
 30
0.0
 11
545.527607685811
 21
413.2744619008657
 31
0.0
  0
LINE
  5
394
330
1F
100
AcDbEntity
  8
1-E
  6
Continuous
 62
     7
370
     9
100
AcDbLine
 10
539.0770989495356
 20
402.5673696157095
 30
0.0
 11
548.0789596970019
 21
411.2401353990709
 31
0.0
  0
LINE
  5
395
330
1F
100
AcDbEntity
  8
1-E
  6
Continuous
 62
     7
370
     9
100
AcDbLine
 10
111.9639216242611
 20
508.9419968063767
 30
0.0
 11
353.5098514041385
 21
508.9419968063767
 31
0.0
  0
LINE
  5
396
330
1F
100
AcDbEntity
  8
1-3ﾚｲﾔ
  6
Continuous
 62
     4
370
     9
100
AcDbLine
 10
535.0769867768158
 20
402.5672458957982
 30
0.0
 11
539.0770989495356
 21
402.5672458957982
 31
0.0
  0
LINE
  5
397
330
1F
100
AcDbEntity
  8
1-E
  6
Continuous
 62
     7
370
     9
100
AcDbLine
 10
341.3839391759925
 20
450.044885583826
 30
0.0
 11
102.2426295924832
 21
450.044885583826
 31
0.0
  0
TEXT
  5
398
330
1F
100
AcDbEntity
  8
1-E
  6
Continuous
 62
     7
370
     9
100
AcDbText
 10
115.5953726136371
 20
513.0612593697481
 30
0.0
 40
11.43
  1
枠：ＦＣ２００，樹脂系塗装
 50
0.0000607162925714
 41
1.153846153846154
  7
ＭＳ ゴシック
100
AcDbText
  0
TEXT
  5
399
330
1F
100
AcDbEntity
  8
1-E
  6
Continuous
 62
     7
370
     9
100
AcDbText
 10
616.5618772764464
 20
398.5561307669975
 30
0.0
 40
11.43
  1
パッキン：エチレンプロピレンゴム
 41
1.15625
  7
ＭＳ ゴシック
100
AcDbText
  0
TEXT
  5
39A
330
1F
100
AcDbEntity
  8
1-E
  6
Continuous
 62
     7
370
     9
100
AcDbText
 10
107.2674187056454
 20
454.9583062578889
 30
0.0
 40
11.43
  1
蓋：ＦＣ２００，樹脂系塗装
 50
359.9999392837074
 41
1.153846153846154
  7
ＭＳ ゴシック
100
AcDbText
  0
TEXT
  5
39B
330
1F
100
AcDbEntity
  8
1-E
  6
Continuous
 62
     7
370
     9
100
AcDbText
 10
94.49481531091641
 20
-166.7227421611064
 30
0.0
 40
11.43
  1
把手ボックス：ＦＣ２００
 41
1.152777777777778
  7
ＭＳ ゴシック
100
AcDbText
  0
TEXT
  5
39C
330
1F
100
AcDbEntity
  8
1-E
  6
Continuous
 62
     7
370
     9
100
AcDbText
 10
155.4416833826014
 20
-191.7544969383446
 30
0.0
 40
11.43
  1
樹脂系塗装
 41
1.133333333333333
  7
ＭＳ ゴシック
100
AcDbText
  0
TEXT
  5
39D
330
1F
100
AcDbEntity
  8
1-E
  6
Continuous
 62
     7
370
     9
100
AcDbText
 10
621.2942136095542
 20
508.2818812946041
 30
0.0
 40
11.43
  1
アンカ－：ＳＳ４００
 50
0.00007898192589
 41
1.15
  7
ＭＳ ゴシック
100
AcDbText
  0
TEXT
  5
39E
330
1F
100
AcDbEntity
  8
1-E
  6
Continuous
 62
     7
370
     9
100
AcDbText
 10
646.9549916331707
 20
484.713418065451
 30
0.0
 40
11.43
  1
電気亜鉛めっき
 41
1.142857142857143
  7
ＭＳ ゴシック
100
AcDbText
  0
LINE
  5
39F
330
1F
100
AcDbEntity
  8
1-E
  6
Continuous
 62
     7
370
     9
100
AcDbLine
 10
618.4337719066724
 20
502.0945945945947
 30
0.0
 11
792.391101833802
 21
502.0945945945947
 31
0.0
  0
LINE
  5
3A0
330
1F
100
AcDbEntity
  8
1-E
  6
Continuous
 62
     7
370
     9
100
AcDbLine
 10
895.5036486276675
 20
393.9411225190034
 30
0.0
 11
613.6449452993033
 21
393.9411225190034
 31
0.0
  0
TEXT
  5
3A1
330
1F
100
AcDbEntity
  8
1-E
  6
Continuous
 62
     7
370
     9
100
AcDbText
 10
188.2366869230942
 20
-446.323531463811
 30
0.0
 40
11.43
  1
パッキン：クロロプレン
 41
1.151515151515152
  7
ＭＳ ゴシック
100
AcDbText
  0
LINE
  5
3A2
330
1F
100
AcDbEntity
  8
1-E
  6
Continuous
 62
     7
370
     9
100
AcDbLine
 10
379.8294067382812
 20
-430.0113409918708
 30
0.0
 11
185.6664456979467
 21
-430.0113409918708
 31
0.0
  0
TEXT
  5
3A3
330
1F
100
AcDbEntity
  8
1-E
  6
Continuous
 62
     7
370
     9
100
AcDbText
 10
186.7947621759245
 20
-423.2527355090963
 30
0.0
 40
11.43
  1
キャップ：ＳＣＳ１３
 41
1.15
  7
ＭＳ ゴシック
100
AcDbText
  0
LINE
  5
3A4
330
1F
100
AcDbEntity
  8
F-0ﾚｲﾔ
  6
Continuous
 62
     7
370
     9
100
AcDbLine
 10
-85.0000329919763
 20
688.4459789379224
 30
0.0
 11
-960.0000742319468
 21
688.4459789379224
 31
0.0
  0
LINE
  5
3A5
330
1F
100
AcDbEntity
  8
F-0ﾚｲﾔ
  6
Continuous
 62
     7
370
     9
100
AcDbLine
 10
-960.0000742319468
 20
528.4456985061234
 30
0.0
 11
-960.0000742319468
 21
688.4459789379224
 31
0.0
  0
ENDSEC
  0
SECTION
  2
OBJECTS
  0
DICTIONARY
  5
C
330
0
100
AcDbDictionary
281
     1
  3
ACAD_DETAILVIEWSTYLE
350
3EB
  3
ACAD_GROUP
350
D
  3
ACAD_LAYOUT
350
1A
  3
ACAD_MATERIAL
350
43
  3
ACAD_MLEADERSTYLE
350
6B
  3
ACAD_MLINESTYLE
350
17
  3
ACAD_PLOTSETTINGS
350
19
  3
ACAD_PLOTSTYLENAME
350
E
  3
ACAD_SCALELIST
350
47
  3
ACAD_SECTIONVIEWSTYLE
350
3EC
  3
ACAD_TABLESTYLE
350
69
  3
ACAD_VISUALSTYLE
350
2A
  3
ACDB_RECOMPOSE_DATA
350
3E8
  3
AcDbVariableDictionary
350
3A8
  0
DICTIONARY
  5
3A6
330
8
100
AcDbDictionary
280
     1
281
     1
  3
ACAD_XREC_ROUNDTRIP
360
3A7
  0
DICTIONARY
  5
3EB
102
{ACAD_REACTORS
330
C
102
}
330
C
100
AcDbDictionary
281
     1
  0
DICTIONARY
  5
D
102
{ACAD_REACTORS
330
C
102
}
330
C
100
AcDbDictionary
281
     1
  0
DICTIONARY
  5
1A
102
{ACAD_REACTORS
330
C
102
}
330
C
100
AcDbDictionary
281
     1
  3
Layout1
350
1E
  3
Layout2
350
26
  3
Model
350
22
  0
DICTIONARY
  5
43
102
{ACAD_REACTORS
330
C
102
}
330
C
100
AcDbDictionary
281
     1
  3
ByBlock
350
45
  3
ByLayer
350
44
  3
Global
350
46
  0
DICTIONARY
  5
6B
102
{ACAD_REACTORS
330
C
102
}
330
C
100
AcDbDictionary
281
     1
  3
Standard
350
6C
  0
DICTIONARY
  5
17
102
{ACAD_REACTORS
330
C
102
}
330
C
100
AcDbDictionary
281
     1
  3
Standard
350
18
  0
DICTIONARY
  5
19
102
{ACAD_REACTORS
330
C
102
}
330
C
100
AcDbDictionary
281
     1
  0
ACDBDICTIONARYWDFLT
  5
E
102
{ACAD_REACTORS
330
C
102
}
330
C
100
AcDbDictionary
281
     1
  3
Normal
350
F
100
AcDbDictionaryWithDefault
340
F
  0
DICTIONARY
  5
47
102
{ACAD_REACTORS
330
C
102
}
330
C
100
AcDbDictionary
281
     1
  3
A0
350
48
  3
A1
350
49
  3
A2
350
4A
  3
A3
350
4B
  3
A4
350
4C
  3
A5
350
4D
  3
A6
350
4E
  3
A7
350
4F
  3
A8
350
50
  3
A9
350
51
  3
B0
350
52
  3
B1
350
53
  3
B2
350
54
  3
B3
350
55
  3
B4
350
56
  3
B5
350
57
  3
B6
350
58
  3
B7
350
59
  3
B8
350
5A
  3
B9
350
5B
  3
C0
350
5C
  3
C1
350
5D
  3
C2
350
5E
  3
C3
350
5F
  3
C4
350
60
  3
C5
350
61
  3
C6
350
62
  3
C7
350
63
  3
C8
350
64
  3
C9
350
65
  3
D0
350
66
  3
D1
350
67
  3
D2
350
68
  0
DICTIONARY
  5
3EC
102
{ACAD_REACTORS
330
C
102
}
330
C
100
AcDbDictionary
281
     1
  0
DICTIONARY
  5
69
102
{ACAD_REACTORS
330
C
102
}
330
C
100
AcDbDictionary
281
     1
  3
Standard
350
6A
  0
DICTIONARY
  5
2A
102
{ACAD_REACTORS
330
C
102
}
330
C
100
AcDbDictionary
281
     1
  3
2dWireframe
350
2F
  3
Basic
350
32
  3
Brighten
350
36
  3
ColorChange
350
3A
  3
Conceptual
350
34
  3
Dim
350
35
  3
EdgeColorOff
350
3D
  3
Facepattern
350
39
  3
Flat
350
2B
  3
FlatWithEdges
350
2C
  3
Gouraud
350
2D
  3
GouraudWithEdges
350
2E
  3
Hidden
350
31
  3
JitterOff
350
3B
  3
Linepattern
350
38
  3
OverhangOff
350
3C
  3
Realistic
350
33
  3
Shaded
350
42
  3
Shaded with edges
350
41
  3
Shades of Gray
350
3E
  3
Sketchy
350
3F
  3
Thicken
350
37
  3
Wireframe
350
30
  3
X-Ray
350
40
  0
XRECORD
  5
3E8
102
{ACAD_REACTORS
330
C
102
}
330
C
100
AcDbXrecord
280
     1
 90
        1
330
6A
  0
DICTIONARY
  5
3A8
102
{ACAD_REACTORS
330
C
102
}
330
C
100
AcDbDictionary
281
     1
  3
CANNOSCALE
350
3A9
  3
CENTEREXE
350
3ED
  3
CENTERLTYPEFILE
350
3EE
  3
CMLEADERSTYLE
350
3EA
  3
CTABLESTYLE
350
3E9
  3
MSLTSCALE
350
3AA
  3
XCLIPFRAME
350
3AB
  0
XRECORD
  5
3A7
102
{ACAD_REACTORS
330
3A6
102
}
330
3A6
100
AcDbXrecord
280
     1
102
VTR_0.000_0.000_1.000_1.000_VISUALSTYLE
340
2F
102
VTR_0.000_0.000_1.000_1.000_GRIDDISPLAY
 70
     3
102
VTR_0.000_0.000_1.000_1.000_GRIDMAJOR
 70
     5
102
VTR_0.000_0.000_1.000_1.000_DEFAULTLIGHTING
280
     1
102
VTR_0.000_0.000_1.000_1.000_DEFAULTLIGHTINGTYPE
 70
     1
102
VTR_0.000_0.000_1.000_1.000_BRIGHTNESS
141
0.0
102
VTR_0.000_0.000_1.000_1.000_CONTRAST
142
0.0
  0
LAYOUT
  5
1E
102
{ACAD_REACTORS
330
1A
102
}
330
1A
100
AcDbPlotSettings
  1

  2
none_device
  4

  6

 40
0.0
 41
0.0
 42
0.0
 43
0.0
 44
0.0
 45
0.0
 46
0.0
 47
0.0
 48
0.0
 49
0.0
140
0.0
141
0.0
142
1.0
143
1.0
 70
   688
 72
     1
 73
     0
 74
     5
  7

 75
    16
 76
     0
 77
     5
 78
   300
147
1.0
148
0.0
149
0.0
100
AcDbLayout
  1
Layout1
 70
     1
 71
     1
 10
0.0
 20
0.0
 11
420.0
 21
297.0
 12
0.0
 22
0.0
 32
0.0
 14
1.000000000000000E+20
 24
1.000000000000000E+20
 34
1.000000000000000E+20
 15
-1.000000000000000E+20
 25
-1.000000000000000E+20
 35
-1.000000000000000E+20
146
0.0
 13
0.0
 23
0.0
 33
0.0
 16
1.0
 26
0.0
 36
0.0
 17
0.0
 27
1.0
 37
0.0
 76
     0
330
1B
  0
LAYOUT
  5
26
102
{ACAD_REACTORS
330
1A
102
}
330
1A
100
AcDbPlotSettings
  1

  2
none_device
  4

  6

 40
0.0
 41
0.0
 42
0.0
 43
0.0
 44
0.0
 45
0.0
 46
0.0
 47
0.0
 48
0.0
 49
0.0
140
0.0
141
0.0
142
1.0
143
1.0
 70
   688
 72
     1
 73
     0
 74
     5
  7

 75
    16
 76
     0
 77
     5
 78
   300
147
1.0
148
0.0
149
0.0
100
AcDbLayout
  1
Layout2
 70
     1
 71
     2
 10
0.0
 20
0.0
 11
0.0
 21
0.0
 12
0.0
 22
0.0
 32
0.0
 14
0.0
 24
0.0
 34
0.0
 15
0.0
 25
0.0
 35
0.0
146
0.0
 13
0.0
 23
0.0
 33
0.0
 16
1.0
 26
0.0
 36
0.0
 17
0.0
 27
1.0
 37
0.0
 76
     0
330
23
  0
LAYOUT
  5
22
102
{ACAD_REACTORS
330
1A
102
}
330
1A
100
AcDbPlotSettings
  1

  2
none_device
  4
Letter_(8.50_x_11.00_Inches)
  6

 40
6.35
 41
6.35
 42
6.35000508
 43
6.35000508
 44
215.9
 45
279.4
 46
0.0
 47
0.0
 48
0.0
 49
0.0
140
0.0
141
0.0
142
1.0
143
1.0
 70
  1712
 72
     1
 73
     0
 74
     0
  7

 75
     0
 76
     0
 77
     5
 78
   300
147
1.0
148
0.0
149
0.0
100
AcDbLayout
  1
Model
 70
     1
 71
     0
 10
-1050.0
 20
-742.5
 11
1050.0
 21
742.5
 12
0.0
 22
0.0
 32
0.0
 14
-1050.0
 24
-742.5
 34
0.0
 15
1050.0
 25
742.5
 35
0.0
146
0.0
 13
0.0
 23
0.0
 33
0.0
 16
1.0
 26
0.0
 36
0.0
 17
0.0
 27
1.0
 37
0.0
 76
     0
330
1F
331
29
  0
MATERIAL
  5
45
102
{ACAD_REACTORS
330
43
102
}
102
{ACAD_XDICTIONARY
360
3DE
102
}
330
43
100
AcDbMaterial
  1
ByBlock
  0
MATERIAL
  5
44
102
{ACAD_REACTORS
330
43
102
}
102
{ACAD_XDICTIONARY
360
3DC
102
}
330
43
100
AcDbMaterial
  1
ByLayer
  0
MATERIAL
  5
46
102
{ACAD_REACTORS
330
43
102
}
102
{ACAD_XDICTIONARY
360
3E0
102
}
330
43
100
AcDbMaterial
  1
Global
  0
MLEADERSTYLE
  5
6C
102
{ACAD_REACTORS
330
6B
102
}
102
{ACAD_XDICTIONARY
360
3E6
102
}
330
6B
100
AcDbMLeaderStyle
170
     2
171
     1
172
     0
 90
        2
 40
0.0
 41
0.0
173
     1
 91
-1056964608
340
14
 92
       -2
290
     1
 42
2.0
291
     1
 43
8.0
  3
Standard
341
0
 44
4.0
300

342
11
174
     1
178
     6
175
     1
176
     0
 93
-1056964608
 45
4.0
292
     0
297
     0
 46
4.0
343
0
 94
-1056964608
 47
1.0
 49
1.0
140
1.0
293
     1
141
0.0
294
     1
177
     0
142
1.0
295
     0
296
     0
143
3.75
1001
ACAD_MLEADERVER
1070
     2
  0
MLINESTYLE
  5
18
102
{ACAD_REACTORS
330
17
102
}
330
17
100
AcDbMlineStyle
  2
Standard
 70
     0
  3

 62
   256
 51
90.0
 52
90.0
 71
     2
 49
0.5
 62
   256
  6
BYLAYER
 49
-0.5
 62
   256
  6
BYLAYER
  0
ACDBPLACEHOLDER
  5
F
102
{ACAD_REACTORS
330
E
102
}
330
E
  0
SCALE
  5
48
102
{ACAD_REACTORS
330
47
102
}
330
47
100
AcDbScale
 70
     0
300
1:1
140
1.0
141
1.0
290
     1
  0
SCALE
  5
49
102
{ACAD_REACTORS
330
47
102
}
330
47
100
AcDbScale
 70
     0
300
1:2
140
1.0
141
2.0
290
     0
  0
SCALE
  5
4A
102
{ACAD_REACTORS
330
47
102
}
330
47
100
AcDbScale
 70
     0
300
1:4
140
1.0
141
4.0
290
     0
  0
SCALE
  5
4B
102
{ACAD_REACTORS
330
47
102
}
330
47
100
AcDbScale
 70
     0
300
1:5
140
1.0
141
5.0
290
     0
  0
SCALE
  5
4C
102
{ACAD_REACTORS
330
47
102
}
330
47
100
AcDbScale
 70
     0
300
1:8
140
1.0
141
8.0
290
     0
  0
SCALE
  5
4D
102
{ACAD_REACTORS
330
47
102
}
330
47
100
AcDbScale
 70
     0
300
1:10
140
1.0
141
10.0
290
     0
  0
SCALE
  5
4E
102
{ACAD_REACTORS
330
47
102
}
330
47
100
AcDbScale
 70
     0
300
1:16
140
1.0
141
16.0
290
     0
  0
SCALE
  5
4F
102
{ACAD_REACTORS
330
47
102
}
330
47
100
AcDbScale
 70
     0
300
1:20
140
1.0
141
20.0
290
     0
  0
SCALE
  5
50
102
{ACAD_REACTORS
330
47
102
}
330
47
100
AcDbScale
 70
     0
300
1:30
140
1.0
141
30.0
290
     0
  0
SCALE
  5
51
102
{ACAD_REACTORS
330
47
102
}
330
47
100
AcDbScale
 70
     0
300
1:40
140
1.0
141
40.0
290
     0
  0
SCALE
  5
52
102
{ACAD_REACTORS
330
47
102
}
330
47
100
AcDbScale
 70
     0
300
1:50
140
1.0
141
50.0
290
     0
  0
SCALE
  5
53
102
{ACAD_REACTORS
330
47
102
}
330
47
100
AcDbScale
 70
     0
300
1:100
140
1.0
141
100.0
290
     0
  0
SCALE
  5
54
102
{ACAD_REACTORS
330
47
102
}
330
47
100
AcDbScale
 70
     0
300
2:1
140
2.0
141
1.0
290
     0
  0
SCALE
  5
55
102
{ACAD_REACTORS
330
47
102
}
330
47
100
AcDbScale
 70
     0
300
4:1
140
4.0
141
1.0
290
     0
  0
SCALE
  5
56
102
{ACAD_REACTORS
330
47
102
}
330
47
100
AcDbScale
 70
     0
300
8:1
140
8.0
141
1.0
290
     0
  0
SCALE
  5
57
102
{ACAD_REACTORS
330
47
102
}
330
47
100
AcDbScale
 70
     0
300
10:1
140
10.0
141
1.0
290
     0
  0
SCALE
  5
58
102
{ACAD_REACTORS
330
47
102
}
330
47
100
AcDbScale
 70
     0
300
100:1
140
100.0
141
1.0
290
     0
  0
SCALE
  5
59
102
{ACAD_REACTORS
330
47
102
}
330
47
100
AcDbScale
 70
     0
300
1/128" = 1'-0"
140
0.0078125
141
12.0
290
     0
  0
SCALE
  5
5A
102
{ACAD_REACTORS
330
47
102
}
330
47
100
AcDbScale
 70
     0
300
1/64" = 1'-0"
140
0.015625
141
12.0
290
     0
  0
SCALE
  5
5B
102
{ACAD_REACTORS
330
47
102
}
330
47
100
AcDbScale
 70
     0
300
1/32" = 1'-0"
140
0.03125
141
12.0
290
     0
  0
SCALE
  5
5C
102
{ACAD_REACTORS
330
47
102
}
330
47
100
AcDbScale
 70
     0
300
1/16" = 1'-0"
140
0.0625
141
12.0
290
     0
  0
SCALE
  5
5D
102
{ACAD_REACTORS
330
47
102
}
330
47
100
AcDbScale
 70
     0
300
3/32" = 1'-0"
140
0.09375
141
12.0
290
     0
  0
SCALE
  5
5E
102
{ACAD_REACTORS
330
47
102
}
330
47
100
AcDbScale
 70
     0
300
1/8" = 1'-0"
140
0.125
141
12.0
290
     0
  0
SCALE
  5
5F
102
{ACAD_REACTORS
330
47
102
}
330
47
100
AcDbScale
 70
     0
300
3/16" = 1'-0"
140
0.1875
141
12.0
290
     0
  0
SCALE
  5
60
102
{ACAD_REACTORS
330
47
102
}
330
47
100
AcDbScale
 70
     0
300
1/4" = 1'-0"
140
0.25
141
12.0
290
     0
  0
SCALE
  5
61
102
{ACAD_REACTORS
330
47
102
}
330
47
100
AcDbScale
 70
     0
300
3/8" = 1'-0"
140
0.375
141
12.0
290
     0
  0
SCALE
  5
62
102
{ACAD_REACTORS
330
47
102
}
330
47
100
AcDbScale
 70
     0
300
1/2" = 1'-0"
140
0.5
141
12.0
290
     0
  0
SCALE
  5
63
102
{ACAD_REACTORS
330
47
102
}
330
47
100
AcDbScale
 70
     0
300
3/4" = 1'-0"
140
0.75
141
12.0
290
     0
  0
SCALE
  5
64
102
{ACAD_REACTORS
330
47
102
}
330
47
100
AcDbScale
 70
     0
300
1" = 1'-0"
140
1.0
141
12.0
290
     0
  0
SCALE
  5
65
102
{ACAD_REACTORS
330
47
102
}
330
47
100
AcDbScale
 70
     0
300
1-1/2" = 1'-0"
140
1.5
141
12.0
290
     0
  0
SCALE
  5
66
102
{ACAD_REACTORS
330
47
102
}
330
47
100
AcDbScale
 70
     0
300
3" = 1'-0"
140
3.0
141
12.0
290
     0
  0
SCALE
  5
67
102
{ACAD_REACTORS
330
47
102
}
330
47
100
AcDbScale
 70
     0
300
6" = 1'-0"
140
6.0
141
12.0
290
     0
  0
SCALE
  5
68
102
{ACAD_REACTORS
330
47
102
}
330
47
100
AcDbScale
 70
     0
300
1'-0" = 1'-0"
140
12.0
141
12.0
290
     0
  0
TABLESTYLE
  5
6A
102
{ACAD_REACTORS
330
69
102
}
102
{ACAD_XDICTIONARY
360
3E2
102
}
330
69
100
AcDbTableStyle
  3
Standard
 70
     0
 71
     0
 40
0.06
 41
0.06
280
     0
281
     0
  7
Standard
140
4.5
170
     2
 62
     0
 63
   257
283
     0
274
    -2
284
     1
 64
     0
275
    -2
285
     1
 65
     0
276
    -2
286
     1
 66
     0
277
    -2
287
     1
 67
     0
278
    -2
288
     1
 68
     0
279
    -2
289
     1
 69
     0
  7
Standard
140
6.0
170
     5
 62
     0
 63
   257
283
     0
274
    -2
284
     1
 64
     0
275
    -2
285
     1
 65
     0
276
    -2
286
     1
 66
     0
277
    -2
287
     1
 67
     0
278
    -2
288
     1
 68
     0
279
    -2
289
     1
 69
     0
  7
Standard
140
4.5
170
     5
 62
     0
 63
   257
283
     0
274
    -2
284
     1
 64
     0
275
    -2
285
     1
 65
     0
276
    -2
286
     1
 66
     0
277
    -2
287
     1
 67
     0
278
    -2
288
     1
 68
     0
279
    -2
289
     1
 69
     0
  0
VISUALSTYLE
  5
2F
102
{ACAD_REACTORS
330
2A
102
}
102
{ACAD_XDICTIONARY
360
3B4
102
}
330
2A
100
AcDbVisualStyle
  2
2dWireframe
 70
     4
 71
     0
 72
     2
 73
     0
 90
        0
 40
0.6
 41
30.0
 62
     5
 63
     7
421
 16777215
 74
     1
 91
        4
 64
     7
 65
   257
 75
     1
175
     1
 42
1.0
 92
        0
 66
   257
 43
1.0
 76
     1
 77
     6
 78
     2
 67
     7
 79
     5
170
     0
171
     0
290
     0
174
     0
 93
        1
 44
0.0
173
     0
291
     0
 45
0.0
1001
ACAD
1000
AcDbSavedByObjectVersion
1070
     0
  0
VISUALSTYLE
  5
32
102
{ACAD_REACTORS
330
2A
102
}
102
{ACAD_XDICTIONARY
360
3BA
102
}
330
2A
100
AcDbVisualStyle
  2
Basic
 70
     7
 71
     1
 72
     0
 73
     1
 90
        0
 40
0.6
 41
30.0
 62
     5
 63
     7
421
 16777215
 74
     0
 91
        4
 64
     7
 65
   257
 75
     1
175
     1
 42
1.0
 92
        8
 66
     7
 43
1.0
 76
     1
 77
     6
 78
     2
 67
     7
 79
     5
170
     0
171
     0
290
     0
174
     0
 93
        1
 44
0.0
173
     0
291
     1
 45
0.0
1001
ACAD
1000
AcDbSavedByObjectVersion
1070
     0
  0
VISUALSTYLE
  5
36
102
{ACAD_REACTORS
330
2A
102
}
102
{ACAD_XDICTIONARY
360
3C2
102
}
330
2A
100
AcDbVisualStyle
  2
Brighten
 70
    12
 71
     2
 72
     2
 73
     0
 90
        0
 40
0.6
 41
30.0
 62
     5
 63
     7
421
 16777215
 74
     1
 91
        4
 64
     7
 65
   257
 75
     1
175
     1
 42
1.0
 92
        8
 66
     7
 43
1.0
 76
     1
 77
     6
 78
     2
 67
     7
 79
     5
170
     0
171
     0
290
     0
174
     0
 93
        1
 44
50.0
173
     0
291
     1
 45
0.0
1001
ACAD
1000
AcDbSavedByObjectVersion
1070
     0
  0
VISUALSTYLE
  5
3A
102
{ACAD_REACTORS
330
2A
102
}
102
{ACAD_XDICTIONARY
360
3CA
102
}
330
2A
100
AcDbVisualStyle
  2
ColorChange
 70
    16
 71
     2
 72
     2
 73
     3
 90
        0
 40
0.6
 41
30.0
 62
     5
 63
     8
421
  8421504
 74
     1
 91
        4
 64
     7
 65
   257
 75
     1
175
     1
 42
1.0
 92
        8
 66
     8
424
  8421504
 43
1.0
 76
     1
 77
     6
 78
     2
 67
     7
 79
     5
170
     0
171
     0
290
     0
174
     0
 93
        1
 44
0.0
173
     0
291
     1
 45
0.0
1001
ACAD
1000
AcDbSavedByObjectVersion
1070
     0
  0
VISUALSTYLE
  5
34
102
{ACAD_REACTORS
330
2A
102
}
102
{ACAD_XDICTIONARY
360
3BE
102
}
330
2A
100
AcDbVisualStyle
  2
Conceptual
 70
     9
 71
     3
 72
     2
 73
     0
 90
        0
 40
0.6
 41
30.0
 62
     5
 63
     7
421
 16777215
 74
     2
 91
        2
 64
     7
 65
   257
 75
     1
175
     1
 42
179.0
 92
        8
 66
     7
 43
1.0
 76
     1
 77
     6
 78
     2
 67
     7
 79
     3
170
     0
171
     0
290
     0
174
     0
 93
        1
 44
0.0
173
     0
291
     0
 45
0.0
1001
ACAD
1000
AcDbSavedByObjectVersion
1070
     0
  0
VISUALSTYLE
  5
35
102
{ACAD_REACTORS
330
2A
102
}
102
{ACAD_XDICTIONARY
360
3C0
102
}
330
2A
100
AcDbVisualStyle
  2
Dim
 70
    11
 71
     2
 72
     2
 73
     0
 90
        0
 40
0.6
 41
30.0
 62
     5
 63
     7
421
 16777215
 74
     1
 91
        4
 64
     7
 65
   257
 75
     1
175
     1
 42
1.0
 92
        8
 66
     7
 43
1.0
 76
     1
 77
     6
 78
     2
 67
     7
 79
     5
170
     0
171
     0
290
     0
174
     0
 93
        1
 44
-50.0
173
     0
291
     1
 45
0.0
1001
ACAD
1000
AcDbSavedByObjectVersion
1070
     0
  0
VISUALSTYLE
  5
3D
102
{ACAD_REACTORS
330
2A
102
}
102
{ACAD_XDICTIONARY
360
3D0
102
}
330
2A
100
AcDbVisualStyle
  2
EdgeColorOff
 70
    22
 71
     2
 72
     2
 73
     0
 90
        0
 40
0.6
 41
30.0
 62
     5
 63
     7
421
 16777215
 74
     1
 91
        4
 64
     7
 65
   257
 75
     1
175
     1
 42
1.0
 92
        8
 66
     7
 43
1.0
 76
     1
 77
     6
 78
     2
 67
     7
 79
     5
170
     0
171
     0
290
     0
174
     0
 93
        1
 44
0.0
173
     0
291
     1
 45
0.0
1001
ACAD
1000
AcDbSavedByObjectVersion
1070
     0
  0
VISUALSTYLE
  5
39
102
{ACAD_REACTORS
330
2A
102
}
102
{ACAD_XDICTIONARY
360
3C8
102
}
330
2A
100
AcDbVisualStyle
  2
Facepattern
 70
    15
 71
     2
 72
     2
 73
     0
 90
        0
 40
0.6
 41
30.0
 62
     5
 63
     7
421
 16777215
 74
     1
 91
        4
 64
     7
 65
   257
 75
     1
175
     1
 42
1.0
 92
        8
 66
     7
 43
1.0
 76
     1
 77
     6
 78
     2
 67
     7
 79
     5
170
     0
171
     0
290
     0
174
     0
 93
        1
 44
0.0
173
     0
291
     1
 45
0.0
1001
ACAD
1000
AcDbSavedByObjectVersion
1070
     0
  0
VISUALSTYLE
  5
2B
102
{ACAD_REACTORS
330
2A
102
}
102
{ACAD_XDICTIONARY
360
3AC
102
}
330
2A
100
AcDbVisualStyle
  2
Flat
 70
     0
 71
     2
 72
     1
 73
     1
 90
        2
 40
0.6
 41
30.0
 62
     5
 63
     7
421
 16777215
 74
     0
 91
        0
 64
     7
 65
   257
 75
     1
175
     1
 42
1.0
 92
        8
 66
     7
 43
1.0
 76
     1
 77
     6
 78
     2
 67
     7
 79
     5
170
     0
171
     0
290
     0
174
     0
 93
       13
 44
0.0
173
     0
291
     1
 45
0.0
1001
ACAD
1000
AcDbSavedByObjectVersion
1070
     0
  0
VISUALSTYLE
  5
2C
102
{ACAD_REACTORS
330
2A
102
}
102
{ACAD_XDICTIONARY
360
3AE
102
}
330
2A
100
AcDbVisualStyle
  2
FlatWithEdges
 70
     1
 71
     2
 72
     1
 73
     1
 90
        2
 40
0.6
 41
30.0
 62
     5
 63
     7
421
 16777215
 74
     1
 91
        0
 64
     7
 65
   257
 75
     1
175
     1
 42
1.0
 92
        0
 66
   257
 43
1.0
 76
     1
 77
     6
 78
     2
 67
     7
 79
     5
170
     0
171
     0
290
     0
174
     0
 93
       13
 44
0.0
173
     0
291
     1
 45
0.0
1001
ACAD
1000
AcDbSavedByObjectVersion
1070
     0
  0
VISUALSTYLE
  5
2D
102
{ACAD_REACTORS
330
2A
102
}
102
{ACAD_XDICTIONARY
360
3B0
102
}
330
2A
100
AcDbVisualStyle
  2
Gouraud
 70
     2
 71
     2
 72
     2
 73
     1
 90
        2
 40
0.6
 41
30.0
 62
     5
 63
     7
421
 16777215
 74
     0
 91
        0
 64
     7
 65
   257
 75
     1
175
     1
 42
1.0
 92
        0
 66
     7
 43
1.0
 76
     1
 77
     6
 78
     2
 67
     7
 79
     5
170
     0
171
     0
290
     0
174
     0
 93
       13
 44
0.0
173
     0
291
     1
 45
0.0
1001
ACAD
1000
AcDbSavedByObjectVersion
1070
     0
  0
VISUALSTYLE
  5
2E
102
{ACAD_REACTORS
330
2A
102
}
102
{ACAD_XDICTIONARY
360
3B2
102
}
330
2A
100
AcDbVisualStyle
  2
GouraudWithEdges
 70
     3
 71
     2
 72
     2
 73
     1
 90
        2
 40
0.6
 41
30.0
 62
     5
 63
     7
421
 16777215
 74
     1
 91
        0
 64
     7
 65
   257
 75
     1
175
     1
 42
1.0
 92
        0
 66
   257
 43
1.0
 76
     1
 77
     6
 78
     2
 67
     7
 79
     5
170
     0
171
     0
290
     0
174
     0
 93
       13
 44
0.0
173
     0
291
     1
 45
0.0
1001
ACAD
1000
AcDbSavedByObjectVersion
1070
     0
  0
VISUALSTYLE
  5
31
102
{ACAD_REACTORS
330
2A
102
}
102
{ACAD_XDICTIONARY
360
3B8
102
}
330
2A
100
AcDbVisualStyle
  2
Hidden
 70
     6
 71
     1
 72
     2
 73
     2
 90
        0
 40
0.6
 41
30.0
 62
     5
 63
     7
421
 16777215
 74
     2
 91
        2
 64
     7
 65
   257
 75
     2
175
     1
 42
40.0
 92
        0
 66
   257
 43
1.0
 76
     1
 77
     6
 78
     2
 67
     7
 79
     3
170
     0
171
     0
290
     0
174
     0
 93
        1
 44
0.0
173
     0
291
     0
 45
0.0
1001
ACAD
1000
AcDbSavedByObjectVersion
1070
     0
  0
VISUALSTYLE
  5
3B
102
{ACAD_REACTORS
330
2A
102
}
102
{ACAD_XDICTIONARY
360
3CC
102
}
330
2A
100
AcDbVisualStyle
  2
JitterOff
 70
    20
 71
     2
 72
     2
 73
     0
 90
        0
 40
0.6
 41
30.0
 62
     5
 63
     7
421
 16777215
 74
     1
 91
        4
 64
     7
 65
   257
 75
     1
175
     1
 42
1.0
 92
       10
 66
     7
 43
1.0
 76
     1
 77
     6
 78
     2
 67
     7
 79
     5
170
     0
171
     0
290
     0
174
     0
 93
        1
 44
0.0
173
     0
291
     1
 45
0.0
1001
ACAD
1000
AcDbSavedByObjectVersion
1070
     0
  0
VISUALSTYLE
  5
38
102
{ACAD_REACTORS
330
2A
102
}
102
{ACAD_XDICTIONARY
360
3C6
102
}
330
2A
100
AcDbVisualStyle
  2
Linepattern
 70
    14
 71
     2
 72
     2
 73
     0
 90
        0
 40
0.6
 41
30.0
 62
     5
 63
     7
421
 16777215
 74
     1
 91
        4
 64
     7
 65
   257
 75
     7
175
     7
 42
1.0
 92
        8
 66
     7
 43
1.0
 76
     1
 77
     6
 78
     2
 67
     7
 79
     5
170
     0
171
     0
290
     0
174
     0
 93
        1
 44
0.0
173
     0
291
     1
 45
0.0
1001
ACAD
1000
AcDbSavedByObjectVersion
1070
     0
  0
VISUALSTYLE
  5
3C
102
{ACAD_REACTORS
330
2A
102
}
102
{ACAD_XDICTIONARY
360
3CE
102
}
330
2A
100
AcDbVisualStyle
  2
OverhangOff
 70
    21
 71
     2
 72
     2
 73
     0
 90
        0
 40
0.6
 41
30.0
 62
     5
 63
     7
421
 16777215
 74
     1
 91
        4
 64
     7
 65
   257
 75
     1
175
     1
 42
1.0
 92
        9
 66
     7
 43
1.0
 76
     1
 77
     6
 78
     2
 67
     7
 79
     5
170
     0
171
     0
290
     0
174
     0
 93
        1
 44
0.0
173
     0
291
     1
 45
0.0
1001
ACAD
1000
AcDbSavedByObjectVersion
1070
     0
  0
VISUALSTYLE
  5
33
102
{ACAD_REACTORS
330
2A
102
}
102
{ACAD_XDICTIONARY
360
3BC
102
}
330
2A
100
AcDbVisualStyle
  2
Realistic
 70
     8
 71
     2
 72
     3
 73
     0
 90
        2
 40
0.6
 41
30.0
 62
     5
 63
     7
421
 16777215
 74
     0
 91
        0
 64
     7
 65
   257
 75
     1
175
     1
 42
1.0
 92
        8
 66
   257
 43
1.0
 76
     1
 77
     6
 78
     2
 67
     7
 79
     3
170
     0
171
     0
290
     0
174
     0
 93
       13
 44
0.0
173
     0
291
     0
 45
0.0
1001
ACAD
1000
AcDbSavedByObjectVersion
1070
     0
  0
VISUALSTYLE
  5
42
102
{ACAD_REACTORS
330
2A
102
}
102
{ACAD_XDICTIONARY
360
3DA
102
}
330
2A
100
AcDbVisualStyle
  2
Shaded
 70
    27
 71
     2
 72
     2
 73
     1
 90
        2
 40
0.6
 41
30.0
 62
     5
 63
     7
421
 16777215
 74
     0
 91
        4
 64
     7
 65
   257
 75
     1
175
     1
 42
1.0
 92
        8
 66
   257
 43
1.0
 76
     1
 77
     6
 78
     2
 67
     8
425
  7895160
 79
     3
170
     0
171
     0
290
     0
174
     0
 93
        5
 44
0.0
173
     0
291
     0
 45
0.0
1001
ACAD
1000
AcDbSavedByObjectVersion
1070
     0
  0
VISUALSTYLE
  5
41
102
{ACAD_REACTORS
330
2A
102
}
102
{ACAD_XDICTIONARY
360
3D8
102
}
330
2A
100
AcDbVisualStyle
  2
Shaded with edges
 70
    26
 71
     2
 72
     2
 73
     1
 90
        2
 40
0.6
 41
30.0
 62
     5
 63
     7
421
 16777215
 74
     1
 91
       10
 64
     7
 65
   257
 75
     2
175
     1
 42
1.0
 92
        8
 66
   257
 43
1.0
 76
     1
 77
     6
 78
     2
 67
     7
 79
     3
170
     0
171
     0
290
     0
174
     0
 93
        5
 44
0.0
173
     0
291
     0
 45
0.0
1001
ACAD
1000
AcDbSavedByObjectVersion
1070
     0
  0
VISUALSTYLE
  5
3E
102
{ACAD_REACTORS
330
2A
102
}
102
{ACAD_XDICTIONARY
360
3D2
102
}
330
2A
100
AcDbVisualStyle
  2
Shades of Gray
 70
    23
 71
     2
 72
     2
 73
     3
 90
        0
 40
0.6
 41
30.0
 62
     5
 63
     7
421
 16777215
 74
     2
 91
        2
 64
     7
 65
     7
 75
     1
175
     1
 42
40.0
 92
        8
 66
     7
 43
1.0
 76
     1
 77
     6
 78
     2
 67
     7
 79
     3
170
     0
171
     0
290
     0
174
     0
 93
        1
 44
0.0
173
     0
291
     0
 45
0.0
1001
ACAD
1000
AcDbSavedByObjectVersion
1070
     0
  0
VISUALSTYLE
  5
3F
102
{ACAD_REACTORS
330
2A
102
}
102
{ACAD_XDICTIONARY
360
3D4
102
}
330
2A
100
AcDbVisualStyle
  2
Sketchy
 70
    24
 71
     1
 72
     2
 73
     2
 90
        0
 40
0.6
 41
30.0
 62
     5
 63
     7
421
 16777215
 74
     2
 91
        2
 64
     7
 65
     7
 75
     1
175
     1
 42
40.0
 92
       11
 66
     7
 43
1.0
 76
     1
 77
     6
 78
     2
 67
     7
 79
     6
170
     0
171
     0
290
     0
174
     0
 93
        1
 44
0.0
173
     0
291
     0
 45
0.0
1001
ACAD
1000
AcDbSavedByObjectVersion
1070
     0
  0
VISUALSTYLE
  5
37
102
{ACAD_REACTORS
330
2A
102
}
102
{ACAD_XDICTIONARY
360
3C4
102
}
330
2A
100
AcDbVisualStyle
  2
Thicken
 70
    13
 71
     2
 72
     2
 73
     0
 90
        0
 40
0.6
 41
30.0
 62
     5
 63
     7
421
 16777215
 74
     1
 91
        4
 64
     7
 65
   257
 75
     1
175
     1
 42
1.0
 92
       12
 66
     7
 43
1.0
 76
     1
 77
     6
 78
     2
 67
     7
 79
     5
170
     0
171
     0
290
     0
174
     0
 93
        1
 44
0.0
173
     0
291
     1
 45
0.0
1001
ACAD
1000
AcDbSavedByObjectVersion
1070
     0
  0
VISUALSTYLE
  5
30
102
{ACAD_REACTORS
330
2A
102
}
102
{ACAD_XDICTIONARY
360
3B6
102
}
330
2A
100
AcDbVisualStyle
  2
Wireframe
 70
     5
 71
     0
 72
     2
 73
     0
 90
        0
 40
0.6
 41
30.0
 62
     5
 63
     7
421
 16777215
 74
     1
 91
        4
 64
     7
 65
   257
 75
     1
175
     1
 42
1.0
 92
        0
 66
   257
 43
1.0
 76
     1
 77
     6
 78
     2
 67
     7
 79
     3
170
     0
171
     0
290
     0
174
     0
 93
        1
 44
0.0
173
     0
291
     0
 45
0.0
1001
ACAD
1000
AcDbSavedByObjectVersion
1070
     0
  0
VISUALSTYLE
  5
40
102
{ACAD_REACTORS
330
2A
102
}
102
{ACAD_XDICTIONARY
360
3D6
102
}
330
2A
100
AcDbVisualStyle
  2
X-Ray
 70
    25
 71
     2
 72
     2
 73
     1
 90
        1
 40
0.5
 41
30.0
 62
     5
 63
     7
421
 16777215
 74
     1
 91
        0
 64
     7
 65
   257
 75
     1
175
     1
 42
1.0
 92
        8
 66
     7
 43
1.0
 76
     1
 77
     6
 78
     2
 67
     7
 79
     3
170
     0
171
     0
290
     0
174
     0
 93
       13
 44
0.0
173
     0
291
     0
 45
0.0
1001
ACAD
1000
AcDbSavedByObjectVersion
1070
     0
  0
DICTIONARYVAR
  5
3A9
102
{ACAD_REACTORS
330
3A8
102
}
330
3A8
100
DictionaryVariables
280
     0
  1
1:1
  0
DICTIONARYVAR
  5
3ED
102
{ACAD_REACTORS
330
3A8
102
}
330
3A8
100
DictionaryVariables
280
     0
  1
3.500000
  0
DICTIONARYVAR
  5
3EE
102
{ACAD_REACTORS
330
3A8
102
}
330
3A8
100
DictionaryVariables
280
     0
  1
acadiso.lin
  0
DICTIONARYVAR
  5
3EA
102
{ACAD_REACTORS
330
3A8
102
}
330
3A8
100
DictionaryVariables
280
     0
  1
Standard
  0
DICTIONARYVAR
  5
3E9
102
{ACAD_REACTORS
330
3A8
102
}
330
3A8
100
DictionaryVariables
280
     0
  1
Standard
  0
DICTIONARYVAR
  5
3AA
102
{ACAD_REACTORS
330
3A8
102
}
330
3A8
100
DictionaryVariables
280
     0
  1
1
  0
DICTIONARYVAR
  5
3AB
102
{ACAD_REACTORS
330
3A8
102
}
330
3A8
100
DictionaryVariables
280
     0
  1
2
  0
DICTIONARY
  5
3DE
330
45
100
AcDbDictionary
280
     1
281
     1
  3
ACAD_XREC_ROUNDTRIP
360
3DF
  0
DICTIONARY
  5
3DC
330
44
100
AcDbDictionary
280
     1
281
     1
  3
ACAD_XREC_ROUNDTRIP
360
3DD
  0
DICTIONARY
  5
3E0
330
46
100
AcDbDictionary
280
     1
281
     1
  3
ACAD_XREC_ROUNDTRIP
360
3E1
  0
DICTIONARY
  5
3E6
330
6C
100
AcDbDictionary
280
     1
281
     1
  3
ACAD_XREC_ROUNDTRIP
360
3E7
  0
DICTIONARY
  5
3E2
330
6A
100
AcDbDictionary
280
     1
281
     1
  3
ACAD_ROUNDTRIP_2008_TABLESTYLE_CELLSTYLEMAP
360
3E4
  3
ACAD_XREC_ROUNDTRIP
360
3E3
  0
DICTIONARY
  5
3B4
330
2F
100
AcDbDictionary
280
     1
281
     1
  3
ACAD_XREC_ROUNDTRIP
360
3B5
  0
DICTIONARY
  5
3BA
330
32
100
AcDbDictionary
280
     1
281
     1
  3
ACAD_XREC_ROUNDTRIP
360
3BB
  0
DICTIONARY
  5
3C2
330
36
100
AcDbDictionary
280
     1
281
     1
  3
ACAD_XREC_ROUNDTRIP
360
3C3
  0
DICTIONARY
  5
3CA
330
3A
100
AcDbDictionary
280
     1
281
     1
  3
ACAD_XREC_ROUNDTRIP
360
3CB
  0
DICTIONARY
  5
3BE
330
34
100
AcDbDictionary
280
     1
281
     1
  3
ACAD_XREC_ROUNDTRIP
360
3BF
  0
DICTIONARY
  5
3C0
330
35
100
AcDbDictionary
280
     1
281
     1
  3
ACAD_XREC_ROUNDTRIP
360
3C1
  0
DICTIONARY
  5
3D0
330
3D
100
AcDbDictionary
280
     1
281
     1
  3
ACAD_XREC_ROUNDTRIP
360
3D1
  0
DICTIONARY
  5
3C8
330
39
100
AcDbDictionary
280
     1
281
     1
  3
ACAD_XREC_ROUNDTRIP
360
3C9
  0
DICTIONARY
  5
3AC
330
2B
100
AcDbDictionary
280
     1
281
     1
  3
ACAD_XREC_ROUNDTRIP
360
3AD
  0
DICTIONARY
  5
3AE
330
2C
100
AcDbDictionary
280
     1
281
     1
  3
ACAD_XREC_ROUNDTRIP
360
3AF
  0
DICTIONARY
  5
3B0
330
2D
100
AcDbDictionary
280
     1
281
     1
  3
ACAD_XREC_ROUNDTRIP
360
3B1
  0
DICTIONARY
  5
3B2
330
2E
100
AcDbDictionary
280
     1
281
     1
  3
ACAD_XREC_ROUNDTRIP
360
3B3
  0
DICTIONARY
  5
3B8
330
31
100
AcDbDictionary
280
     1
281
     1
  3
ACAD_XREC_ROUNDTRIP
360
3B9
  0
DICTIONARY
  5
3CC
330
3B
100
AcDbDictionary
280
     1
281
     1
  3
ACAD_XREC_ROUNDTRIP
360
3CD
  0
DICTIONARY
  5
3C6
330
38
100
AcDbDictionary
280
     1
281
     1
  3
ACAD_XREC_ROUNDTRIP
360
3C7
  0
DICTIONARY
  5
3CE
330
3C
100
AcDbDictionary
280
     1
281
     1
  3
ACAD_XREC_ROUNDTRIP
360
3CF
  0
DICTIONARY
  5
3BC
330
33
100
AcDbDictionary
280
     1
281
     1
  3
ACAD_XREC_ROUNDTRIP
360
3BD
  0
DICTIONARY
  5
3DA
330
42
100
AcDbDictionary
280
     1
281
     1
  3
ACAD_XREC_ROUNDTRIP
360
3DB
  0
DICTIONARY
  5
3D8
330
41
100
AcDbDictionary
280
     1
281
     1
  3
ACAD_XREC_ROUNDTRIP
360
3D9
  0
DICTIONARY
  5
3D2
330
3E
100
AcDbDictionary
280
     1
281
     1
  3
ACAD_XREC_ROUNDTRIP
360
3D3
  0
DICTIONARY
  5
3D4
330
3F
100
AcDbDictionary
280
     1
281
     1
  3
ACAD_XREC_ROUNDTRIP
360
3D5
  0
DICTIONARY
  5
3C4
330
37
100
AcDbDictionary
280
     1
281
     1
  3
ACAD_XREC_ROUNDTRIP
360
3C5
  0
DICTIONARY
  5
3B6
330
30
100
AcDbDictionary
280
     1
281
     1
  3
ACAD_XREC_ROUNDTRIP
360
3B7
  0
DICTIONARY
  5
3D6
330
40
100
AcDbDictionary
280
     1
281
     1
  3
ACAD_XREC_ROUNDTRIP
360
3D7
  0
XRECORD
  5
3DF
102
{ACAD_REACTORS
330
3DE
102
}
330
3DE
100
AcDbXrecord
280
     1
102
MATERIAL
148
0.0
149
0.0
149
0.0
 93
        0
 94
      127
282
     0
 72
     1
 77
     1
171
     1
175
     1
179
     1
273
     0
  0
XRECORD
  5
3DD
102
{ACAD_REACTORS
330
3DC
102
}
330
3DC
100
AcDbXrecord
280
     1
102
MATERIAL
148
0.0
149
0.0
149
0.0
 93
        0
 94
      127
282
     0
 72
     1
 77
     1
171
     1
175
     1
179
     1
273
     0
  0
XRECORD
  5
3E1
102
{ACAD_REACTORS
330
3E0
102
}
330
3E0
100
AcDbXrecord
280
     1
102
MATERIAL
148
0.0
149
0.0
149
0.0
 93
        0
 94
      127
282
     0
 72
     1
 77
     1
171
     1
175
     1
179
     1
273
     0
  0
XRECORD
  5
3E7
102
{ACAD_REACTORS
330
3E6
102
}
330
3E6
100
AcDbXrecord
280
     1
102
ACAD_ROUNDTRIP_2010_MLEADER_STYLE
  0
CELLSTYLEMAP
  5
3E4
102
{ACAD_REACTORS
330
3E2
102
}
330
3E2
100
AcDbCellStyleMap
 90
        3
300
CELLSTYLE
  1
TABLEFORMAT_BEGIN
 90
        5
170
     1
 91
        0
 92
    32768
 62
   257
 93
        1
300
CONTENTFORMAT
  1
CONTENTFORMAT_BEGIN
 90
        0
 91
        0
 92
        4
 93
        0
300

 40
0.0
140
1.0
 94
        5
 62
     0
340
11
144
6.0
309
CONTENTFORMAT_END
171
     1
301
MARGIN
  1
CELLMARGIN_BEGIN
 40
1.5
 40
1.5
 40
1.5
 40
1.5
 40
1.5
 40
1.5
309
CELLMARGIN_END
 94
        6
 95
        1
302
GRIDFORMAT
  1
GRIDFORMAT_BEGIN
 90
        0
 91
        1
 62
     0
 92
       -2
340
14
 93
        0
 40
0.045
309
GRIDFORMAT_END
 95
        2
302
GRIDFORMAT
  1
GRIDFORMAT_BEGIN
 90
        0
 91
        1
 62
     0
 92
       -2
340
14
 93
        0
 40
0.045
309
GRIDFORMAT_END
 95
        4
302
GRIDFORMAT
  1
GRIDFORMAT_BEGIN
 90
        0
 91
        1
 62
     0
 92
       -2
340
14
 93
        0
 40
0.045
309
GRIDFORMAT_END
 95
        8
302
GRIDFORMAT
  1
GRIDFORMAT_BEGIN
 90
        0
 91
        1
 62
     0
 92
       -2
340
14
 93
        0
 40
0.045
309
GRIDFORMAT_END
 95
       16
302
GRIDFORMAT
  1
GRIDFORMAT_BEGIN
 90
        0
 91
        1
 62
     0
 92
       -2
340
14
 93
        0
 40
0.045
309
GRIDFORMAT_END
 95
       32
302
GRIDFORMAT
  1
GRIDFORMAT_BEGIN
 90
        0
 91
        1
 62
     0
 92
       -2
340
14
 93
        0
 40
0.045
309
GRIDFORMAT_END
309
TABLEFORMAT_END
  1
CELLSTYLE_BEGIN
 90
        1
 91
        1
300
_TITLE
309
CELLSTYLE_END
300
CELLSTYLE
  1
TABLEFORMAT_BEGIN
 90
        5
170
     1
 91
        0
 92
        0
 62
   257
 93
        1
300
CONTENTFORMAT
  1
CONTENTFORMAT_BEGIN
 90
        0
 91
        0
 92
        4
 93
        0
300

 40
0.0
140
1.0
 94
        5
 62
     0
340
11
144
4.5
309
CONTENTFORMAT_END
171
     1
301
MARGIN
  1
CELLMARGIN_BEGIN
 40
1.5
 40
1.5
 40
1.5
 40
1.5
 40
1.5
 40
1.5
309
CELLMARGIN_END
 94
        6
 95
        1
302
GRIDFORMAT
  1
GRIDFORMAT_BEGIN
 90
        0
 91
        1
 62
     0
 92
       -2
340
14
 93
        0
 40
0.045
309
GRIDFORMAT_END
 95
        2
302
GRIDFORMAT
  1
GRIDFORMAT_BEGIN
 90
        0
 91
        1
 62
     0
 92
       -2
340
14
 93
        0
 40
0.045
309
GRIDFORMAT_END
 95
        4
302
GRIDFORMAT
  1
GRIDFORMAT_BEGIN
 90
        0
 91
        1
 62
     0
 92
       -2
340
14
 93
        0
 40
0.045
309
GRIDFORMAT_END
 95
        8
302
GRIDFORMAT
  1
GRIDFORMAT_BEGIN
 90
        0
 91
        1
 62
     0
 92
       -2
340
14
 93
        0
 40
0.045
309
GRIDFORMAT_END
 95
       16
302
GRIDFORMAT
  1
GRIDFORMAT_BEGIN
 90
        0
 91
        1
 62
     0
 92
       -2
340
14
 93
        0
 40
0.045
309
GRIDFORMAT_END
 95
       32
302
GRIDFORMAT
  1
GRIDFORMAT_BEGIN
 90
        0
 91
        1
 62
     0
 92
       -2
340
14
 93
        0
 40
0.045
309
GRIDFORMAT_END
309
TABLEFORMAT_END
  1
CELLSTYLE_BEGIN
 90
        2
 91
        1
300
_HEADER
309
CELLSTYLE_END
300
CELLSTYLE
  1
TABLEFORMAT_BEGIN
 90
        5
170
     1
 91
        0
 92
        0
 62
   257
 93
        1
300
CONTENTFORMAT
  1
CONTENTFORMAT_BEGIN
 90
        0
 91
        0
 92
        4
 93
        0
300

 40
0.0
140
1.0
 94
        2
 62
     0
340
11
144
4.5
309
CONTENTFORMAT_END
171
     1
301
MARGIN
  1
CELLMARGIN_BEGIN
 40
1.5
 40
1.5
 40
1.5
 40
1.5
 40
1.5
 40
1.5
309
CELLMARGIN_END
 94
        6
 95
        1
302
GRIDFORMAT
  1
GRIDFORMAT_BEGIN
 90
        0
 91
        1
 62
     0
 92
       -2
340
14
 93
        0
 40
0.045
309
GRIDFORMAT_END
 95
        2
302
GRIDFORMAT
  1
GRIDFORMAT_BEGIN
 90
        0
 91
        1
 62
     0
 92
       -2
340
14
 93
        0
 40
0.045
309
GRIDFORMAT_END
 95
        4
302
GRIDFORMAT
  1
GRIDFORMAT_BEGIN
 90
        0
 91
        1
 62
     0
 92
       -2
340
14
 93
        0
 40
0.045
309
GRIDFORMAT_END
 95
        8
302
GRIDFORMAT
  1
GRIDFORMAT_BEGIN
 90
        0
 91
        1
 62
     0
 92
       -2
340
14
 93
        0
 40
0.045
309
GRIDFORMAT_END
 95
       16
302
GRIDFORMAT
  1
GRIDFORMAT_BEGIN
 90
        0
 91
        1
 62
     0
 92
       -2
340
14
 93
        0
 40
0.045
309
GRIDFORMAT_END
 95
       32
302
GRIDFORMAT
  1
GRIDFORMAT_BEGIN
 90
        0
 91
        1
 62
     0
 92
       -2
340
14
 93
        0
 40
0.045
309
GRIDFORMAT_END
309
TABLEFORMAT_END
  1
CELLSTYLE_BEGIN
 90
        3
 91
        2
300
_DATA
309
CELLSTYLE_END
  0
XRECORD
  5
3E3
102
{ACAD_REACTORS
330
3E2
102
}
330
3E2
100
AcDbXrecord
280
     1
102
ACAD_ROUNDTRIP_PRE2007_TABLESTYLE
 90
        4
 91
        0
  1

 92
        4
 93
        0
  2

 94
        4
 95
        0
  3

  0
XRECORD
  5
3B5
102
{ACAD_REACTORS
330
3B4
102
}
330
3B4
100
AcDbXrecord
280
     1
102
RTVSPropertyOp0
 70
     1
102
RTVSPropertyOp1
 70
     1
102
RTVSPropertyOp2
 70
     1
102
RTVSPropertyOp3
 70
     1
102
RTVSPropertyOp4
 70
     1
102
RTVSPropertyOp5
 70
     1
102
RTVSPropertyOp6
 70
     1
102
RTVSPropertyOp7
 70
     1
102
RTVSPropertyOp8
 70
     1
102
RTVSPropertyOp9
 70
     1
102
RTVSPropertyOp10
 70
     1
102
RTVSPropertyOp11
 70
     1
102
RTVSPropertyOp12
 70
     1
102
RTVSPropertyOp13
 70
     1
102
RTVSPropertyOp14
 70
     1
102
RTVSPropertyOp15
 70
     1
102
RTVSPropertyOp16
 70
     1
102
RTVSPropertyOp17
 70
     1
102
RTVSPropertyOp18
 70
     1
102
RTVSPropertyOp19
 70
     1
102
RTVSPropertyOp20
 70
     1
102
RTVSPropertyOp21
 70
     1
102
RTVSPropertyOp22
 70
     1
102
RTVSPropertyOp23
 70
     1
102
RTVSPropertyOp24
 70
     1
102
RTVSPropertyOp25
 70
     1
102
RTVSPropertyOp26
 70
     1
102
RTVSPropertyOp27
 70
     1
102
RTVSPropertyOp28
 70
     1
102
RTVSPropertyOp29
 70
     1
102
RTVSPropertyOp30
 70
     1
102
RTVSPropertyOp31
 70
     1
102
RTVSPropertyOp32
 70
     1
102
RTVSPropertyOp33
 70
     1
102
RTVSPropertyOp34
 70
     1
102
RTVSPropertyOp35
 70
     1
102
RTVSPropertyOp36
 70
     1
102
RTVSPropertyOp37
 70
     1
102
RTVSPropertyOp38
 70
     1
102
RTVSPropertyOp39
 70
     1
102
RTVSPropertyOp40
 70
     1
102
RTVSPropertyOp41
 70
     1
102
RTVSPropertyOp42
 70
     1
102
RTVSPropertyOp43
 70
     1
102
RTVSPropertyOp44
 70
     1
102
RTVSPropertyOp45
 70
     1
102
RTVSPropertyOp46
 70
     1
102
RTVSPropertyOp47
 70
     1
102
RTVSPropertyOp48
 70
     1
102
RTVSPropertyOp49
 70
     1
102
RTVSPropertyOp50
 70
     1
102
RTVSPropertyOp51
 70
     0
102
RTVSPropertyOp52
 70
     0
102
RTVSPropertyOp53
 70
     1
102
RTVSPropertyOp54
 70
     1
102
RTVSPropertyOp55
 70
     1
102
RTVSPropertyOp56
 70
     1
102
RTVSPropertyOp57
 70
     1
102
RTVSPost2010Prop28
280
     1
102
RTVSPost2010PropOp28
 70
     1
102
RTVSPost2010Prop29
280
     1
102
RTVSPost2010PropOp29
 70
     1
102
RTVSPost2010Prop30
280
     0
102
RTVSPost2010PropOp30
 70
     1
102
RTVSPost2010Prop31
280
     0
102
RTVSPost2010PropOp31
 70
     1
102
RTVSPost2010Prop32
280
     0
102
RTVSPost2010PropOp32
 70
     1
102
RTVSPost2010Prop33
280
     0
102
RTVSPost2010PropOp33
 70
     1
102
RTVSPost2010Prop34
280
     0
102
RTVSPost2010PropOp34
 70
     1
102
RTVSPost2010Prop35
280
     0
102
RTVSPost2010PropOp35
 70
     1
102
RTVSPost2010Prop36
280
     0
102
RTVSPost2010PropOp36
 70
     1
102
RTVSPost2010Prop37
 90
       50
102
RTVSPost2010PropOp37
 70
     1
102
RTVSPost2010Prop38
140
0.0
102
RTVSPost2010PropOp38
 70
     1
102
RTVSPost2010Prop39
140
1.0
102
RTVSPost2010PropOp39
 70
     1
102
RTVSPost2010Prop40
 90
        0
102
RTVSPost2010PropOp40
 70
     1
102
RTVSPost2010Prop41ColorIndex
 90
       18
102
RTVSPost2010Prop41ColorRGB
 90
        0
102
RTVSPost2010PropOp41
 70
     1
102
RTVSPost2010Prop42
 90
       50
102
RTVSPost2010PropOp42
 70
     1
102
RTVSPost2010Prop43
 90
        3
102
RTVSPost2010PropOp43
 70
     1
102
RTVSPost2010Prop44ColorIndex
 90
        5
102
RTVSPost2010Prop44ColorRGB
 90
      255
102
RTVSPost2010PropOp44
 70
     1
102
RTVSPost2010Prop45
280
     0
102
RTVSPost2010PropOp45
 70
     1
102
RTVSPost2010Prop46
 90
       50
102
RTVSPost2010PropOp46
 70
     1
102
RTVSPost2010Prop47
 90
       50
102
RTVSPost2010PropOp47
 70
     1
102
RTVSPost2010Prop48
 90
       50
102
RTVSPost2010PropOp48
 70
     1
102
RTVSPost2010Prop49
280
     0
102
RTVSPost2010PropOp49
 70
     1
102
RTVSPost2010Prop50
 90
       50
102
RTVSPost2010PropOp50
 70
     1
102
RTVSPost2010Prop51ColorIndex
 90
      256
102
RTVSPost2010Prop51ColorRGB
 90
-16777216
102
RTVSPost2010PropOp51
 70
     0
102
RTVSPost2010Prop52
140
1.0
102
RTVSPost2010PropOp52
 70
     0
102
RTVSPost2010Prop53
 90
        2
102
RTVSPost2010PropOp53
 70
     1
102
RTVSPost2010Prop54
  1
strokes_ogs.tif
102
RTVSPost2010PropOp54
 70
     1
102
RTVSPost2010Prop55
280
     0
102
RTVSPost2010PropOp55
 70
     1
102
RTVSPost2010Prop56
140
1.0
102
RTVSPost2010PropOp56
 70
     1
102
RTVSPost2010Prop57
140
1.0
102
RTVSPost2010PropOp57
 70
     1
  0
XRECORD
  5
3BB
102
{ACAD_REACTORS
330
3BA
102
}
330
3BA
100
AcDbXrecord
280
     1
102
RTVSPropertyOp0
 70
     1
102
RTVSPropertyOp1
 70
     1
102
RTVSPropertyOp2
 70
     1
102
RTVSPropertyOp3
 70
     1
102
RTVSPropertyOp4
 70
     1
102
RTVSPropertyOp5
 70
     1
102
RTVSPropertyOp6
 70
     1
102
RTVSPropertyOp7
 70
     1
102
RTVSPropertyOp8
 70
     1
102
RTVSPropertyOp9
 70
     1
102
RTVSPropertyOp10
 70
     1
102
RTVSPropertyOp11
 70
     1
102
RTVSPropertyOp12
 70
     1
102
RTVSPropertyOp13
 70
     1
102
RTVSPropertyOp14
 70
     1
102
RTVSPropertyOp15
 70
     1
102
RTVSPropertyOp16
 70
     1
102
RTVSPropertyOp17
 70
     1
102
RTVSPropertyOp18
 70
     1
102
RTVSPropertyOp19
 70
     1
102
RTVSPropertyOp20
 70
     1
102
RTVSPropertyOp21
 70
     1
102
RTVSPropertyOp22
 70
     1
102
RTVSPropertyOp23
 70
     1
102
RTVSPropertyOp24
 70
     1
102
RTVSPropertyOp25
 70
     1
102
RTVSPropertyOp26
 70
     1
102
RTVSPropertyOp27
 70
     1
102
RTVSPropertyOp28
 70
     1
102
RTVSPropertyOp29
 70
     1
102
RTVSPropertyOp30
 70
     1
102
RTVSPropertyOp31
 70
     1
102
RTVSPropertyOp32
 70
     1
102
RTVSPropertyOp33
 70
     1
102
RTVSPropertyOp34
 70
     1
102
RTVSPropertyOp35
 70
     1
102
RTVSPropertyOp36
 70
     1
102
RTVSPropertyOp37
 70
     1
102
RTVSPropertyOp38
 70
     1
102
RTVSPropertyOp39
 70
     1
102
RTVSPropertyOp40
 70
     1
102
RTVSPropertyOp41
 70
     1
102
RTVSPropertyOp42
 70
     1
102
RTVSPropertyOp43
 70
     1
102
RTVSPropertyOp44
 70
     1
102
RTVSPropertyOp45
 70
     1
102
RTVSPropertyOp46
 70
     1
102
RTVSPropertyOp47
 70
     1
102
RTVSPropertyOp48
 70
     1
102
RTVSPropertyOp49
 70
     1
102
RTVSPropertyOp50
 70
     1
102
RTVSPropertyOp51
 70
     0
102
RTVSPropertyOp52
 70
     0
102
RTVSPropertyOp53
 70
     1
102
RTVSPropertyOp54
 70
     1
102
RTVSPropertyOp55
 70
     1
102
RTVSPropertyOp56
 70
     1
102
RTVSPropertyOp57
 70
     1
102
RTVSPost2010Prop28
280
     0
102
RTVSPost2010PropOp28
 70
     1
102
RTVSPost2010Prop29
280
     1
102
RTVSPost2010PropOp29
 70
     1
102
RTVSPost2010Prop30
280
     1
102
RTVSPost2010PropOp30
 70
     1
102
RTVSPost2010Prop31
280
     0
102
RTVSPost2010PropOp31
 70
     1
102
RTVSPost2010Prop32
280
     0
102
RTVSPost2010PropOp32
 70
     1
102
RTVSPost2010Prop33
280
     0
102
RTVSPost2010PropOp33
 70
     1
102
RTVSPost2010Prop34
280
     0
102
RTVSPost2010PropOp34
 70
     1
102
RTVSPost2010Prop35
280
     0
102
RTVSPost2010PropOp35
 70
     1
102
RTVSPost2010Prop36
280
     0
102
RTVSPost2010PropOp36
 70
     1
102
RTVSPost2010Prop37
 90
       50
102
RTVSPost2010PropOp37
 70
     1
102
RTVSPost2010Prop38
140
0.0
102
RTVSPost2010PropOp38
 70
     1
102
RTVSPost2010Prop39
140
1.0
102
RTVSPost2010PropOp39
 70
     1
102
RTVSPost2010Prop40
 90
        0
102
RTVSPost2010PropOp40
 70
     1
102
RTVSPost2010Prop41ColorIndex
 90
       18
102
RTVSPost2010Prop41ColorRGB
 90
        0
102
RTVSPost2010PropOp41
 70
     1
102
RTVSPost2010Prop42
 90
       50
102
RTVSPost2010PropOp42
 70
     1
102
RTVSPost2010Prop43
 90
        3
102
RTVSPost2010PropOp43
 70
     1
102
RTVSPost2010Prop44ColorIndex
 90
        5
102
RTVSPost2010Prop44ColorRGB
 90
      255
102
RTVSPost2010PropOp44
 70
     1
102
RTVSPost2010Prop45
280
     0
102
RTVSPost2010PropOp45
 70
     1
102
RTVSPost2010Prop46
 90
       50
102
RTVSPost2010PropOp46
 70
     1
102
RTVSPost2010Prop47
 90
       50
102
RTVSPost2010PropOp47
 70
     1
102
RTVSPost2010Prop48
 90
       50
102
RTVSPost2010PropOp48
 70
     1
102
RTVSPost2010Prop49
280
     0
102
RTVSPost2010PropOp49
 70
     1
102
RTVSPost2010Prop50
 90
       50
102
RTVSPost2010PropOp50
 70
     1
102
RTVSPost2010Prop51ColorIndex
 90
      256
102
RTVSPost2010Prop51ColorRGB
 90
-16777216
102
RTVSPost2010PropOp51
 70
     0
102
RTVSPost2010Prop52
140
1.0
102
RTVSPost2010PropOp52
 70
     0
102
RTVSPost2010Prop53
 90
        2
102
RTVSPost2010PropOp53
 70
     1
102
RTVSPost2010Prop54
  1
strokes_ogs.tif
102
RTVSPost2010PropOp54
 70
     1
102
RTVSPost2010Prop55
280
     0
102
RTVSPost2010PropOp55
 70
     1
102
RTVSPost2010Prop56
140
1.0
102
RTVSPost2010PropOp56
 70
     1
102
RTVSPost2010Prop57
140
1.0
102
RTVSPost2010PropOp57
 70
     1
  0
XRECORD
  5
3C3
102
{ACAD_REACTORS
330
3C2
102
}
330
3C2
100
AcDbXrecord
280
     1
102
RTVSPropertyOp0
 70
     1
102
RTVSPropertyOp1
 70
     1
102
RTVSPropertyOp2
 70
     1
102
RTVSPropertyOp3
 70
     1
102
RTVSPropertyOp4
 70
     1
102
RTVSPropertyOp5
 70
     1
102
RTVSPropertyOp6
 70
     1
102
RTVSPropertyOp7
 70
     1
102
RTVSPropertyOp8
 70
     1
102
RTVSPropertyOp9
 70
     1
102
RTVSPropertyOp10
 70
     1
102
RTVSPropertyOp11
 70
     1
102
RTVSPropertyOp12
 70
     1
102
RTVSPropertyOp13
 70
     1
102
RTVSPropertyOp14
 70
     1
102
RTVSPropertyOp15
 70
     1
102
RTVSPropertyOp16
 70
     1
102
RTVSPropertyOp17
 70
     1
102
RTVSPropertyOp18
 70
     1
102
RTVSPropertyOp19
 70
     1
102
RTVSPropertyOp20
 70
     1
102
RTVSPropertyOp21
 70
     1
102
RTVSPropertyOp22
 70
     1
102
RTVSPropertyOp23
 70
     1
102
RTVSPropertyOp24
 70
     1
102
RTVSPropertyOp25
 70
     1
102
RTVSPropertyOp26
 70
     1
102
RTVSPropertyOp27
 70
     1
102
RTVSPropertyOp28
 70
     1
102
RTVSPropertyOp29
 70
     1
102
RTVSPropertyOp30
 70
     1
102
RTVSPropertyOp31
 70
     1
102
RTVSPropertyOp32
 70
     1
102
RTVSPropertyOp33
 70
     1
102
RTVSPropertyOp34
 70
     1
102
RTVSPropertyOp35
 70
     1
102
RTVSPropertyOp36
 70
     1
102
RTVSPropertyOp37
 70
     1
102
RTVSPropertyOp38
 70
     1
102
RTVSPropertyOp39
 70
     1
102
RTVSPropertyOp40
 70
     1
102
RTVSPropertyOp41
 70
     1
102
RTVSPropertyOp42
 70
     1
102
RTVSPropertyOp43
 70
     1
102
RTVSPropertyOp44
 70
     1
102
RTVSPropertyOp45
 70
     1
102
RTVSPropertyOp46
 70
     1
102
RTVSPropertyOp47
 70
     1
102
RTVSPropertyOp48
 70
     1
102
RTVSPropertyOp49
 70
     1
102
RTVSPropertyOp50
 70
     1
102
RTVSPropertyOp51
 70
     0
102
RTVSPropertyOp52
 70
     0
102
RTVSPropertyOp53
 70
     1
102
RTVSPropertyOp54
 70
     1
102
RTVSPropertyOp55
 70
     1
102
RTVSPropertyOp56
 70
     1
102
RTVSPropertyOp57
 70
     1
102
RTVSPost2010Prop28
280
     0
102
RTVSPost2010PropOp28
 70
     1
102
RTVSPost2010Prop29
280
     1
102
RTVSPost2010PropOp29
 70
     1
102
RTVSPost2010Prop30
280
     1
102
RTVSPost2010PropOp30
 70
     1
102
RTVSPost2010Prop31
280
     0
102
RTVSPost2010PropOp31
 70
     1
102
RTVSPost2010Prop32
280
     0
102
RTVSPost2010PropOp32
 70
     1
102
RTVSPost2010Prop33
280
     0
102
RTVSPost2010PropOp33
 70
     1
102
RTVSPost2010Prop34
280
     0
102
RTVSPost2010PropOp34
 70
     1
102
RTVSPost2010Prop35
280
     0
102
RTVSPost2010PropOp35
 70
     1
102
RTVSPost2010Prop36
280
     0
102
RTVSPost2010PropOp36
 70
     1
102
RTVSPost2010Prop37
 90
       50
102
RTVSPost2010PropOp37
 70
     1
102
RTVSPost2010Prop38
140
0.0
102
RTVSPost2010PropOp38
 70
     1
102
RTVSPost2010Prop39
140
1.0
102
RTVSPost2010PropOp39
 70
     1
102
RTVSPost2010Prop40
 90
        0
102
RTVSPost2010PropOp40
 70
     1
102
RTVSPost2010Prop41ColorIndex
 90
       18
102
RTVSPost2010Prop41ColorRGB
 90
        0
102
RTVSPost2010PropOp41
 70
     1
102
RTVSPost2010Prop42
 90
       50
102
RTVSPost2010PropOp42
 70
     1
102
RTVSPost2010Prop43
 90
        3
102
RTVSPost2010PropOp43
 70
     1
102
RTVSPost2010Prop44ColorIndex
 90
        5
102
RTVSPost2010Prop44ColorRGB
 90
      255
102
RTVSPost2010PropOp44
 70
     1
102
RTVSPost2010Prop45
280
     0
102
RTVSPost2010PropOp45
 70
     1
102
RTVSPost2010Prop46
 90
       50
102
RTVSPost2010PropOp46
 70
     1
102
RTVSPost2010Prop47
 90
       50
102
RTVSPost2010PropOp47
 70
     1
102
RTVSPost2010Prop48
 90
       50
102
RTVSPost2010PropOp48
 70
     1
102
RTVSPost2010Prop49
280
     0
102
RTVSPost2010PropOp49
 70
     1
102
RTVSPost2010Prop50
 90
       50
102
RTVSPost2010PropOp50
 70
     1
102
RTVSPost2010Prop51ColorIndex
 90
      256
102
RTVSPost2010Prop51ColorRGB
 90
-16777216
102
RTVSPost2010PropOp51
 70
     0
102
RTVSPost2010Prop52
140
1.0
102
RTVSPost2010PropOp52
 70
     0
102
RTVSPost2010Prop53
 90
        2
102
RTVSPost2010PropOp53
 70
     1
102
RTVSPost2010Prop54
  1
strokes_ogs.tif
102
RTVSPost2010PropOp54
 70
     1
102
RTVSPost2010Prop55
280
     0
102
RTVSPost2010PropOp55
 70
     1
102
RTVSPost2010Prop56
140
1.0
102
RTVSPost2010PropOp56
 70
     1
102
RTVSPost2010Prop57
140
1.0
102
RTVSPost2010PropOp57
 70
     1
  0
XRECORD
  5
3CB
102
{ACAD_REACTORS
330
3CA
102
}
330
3CA
100
AcDbXrecord
280
     1
102
RTVSPropertyOp0
 70
     1
102
RTVSPropertyOp1
 70
     1
102
RTVSPropertyOp2
 70
     1
102
RTVSPropertyOp3
 70
     1
102
RTVSPropertyOp4
 70
     1
102
RTVSPropertyOp5
 70
     1
102
RTVSPropertyOp6
 70
     1
102
RTVSPropertyOp7
 70
     1
102
RTVSPropertyOp8
 70
     1
102
RTVSPropertyOp9
 70
     1
102
RTVSPropertyOp10
 70
     1
102
RTVSPropertyOp11
 70
     1
102
RTVSPropertyOp12
 70
     1
102
RTVSPropertyOp13
 70
     1
102
RTVSPropertyOp14
 70
     1
102
RTVSPropertyOp15
 70
     1
102
RTVSPropertyOp16
 70
     1
102
RTVSPropertyOp17
 70
     1
102
RTVSPropertyOp18
 70
     1
102
RTVSPropertyOp19
 70
     1
102
RTVSPropertyOp20
 70
     1
102
RTVSPropertyOp21
 70
     1
102
RTVSPropertyOp22
 70
     1
102
RTVSPropertyOp23
 70
     1
102
RTVSPropertyOp24
 70
     1
102
RTVSPropertyOp25
 70
     1
102
RTVSPropertyOp26
 70
     1
102
RTVSPropertyOp27
 70
     1
102
RTVSPropertyOp28
 70
     1
102
RTVSPropertyOp29
 70
     1
102
RTVSPropertyOp30
 70
     1
102
RTVSPropertyOp31
 70
     1
102
RTVSPropertyOp32
 70
     1
102
RTVSPropertyOp33
 70
     1
102
RTVSPropertyOp34
 70
     1
102
RTVSPropertyOp35
 70
     1
102
RTVSPropertyOp36
 70
     1
102
RTVSPropertyOp37
 70
     1
102
RTVSPropertyOp38
 70
     1
102
RTVSPropertyOp39
 70
     1
102
RTVSPropertyOp40
 70
     1
102
RTVSPropertyOp41
 70
     1
102
RTVSPropertyOp42
 70
     1
102
RTVSPropertyOp43
 70
     1
102
RTVSPropertyOp44
 70
     1
102
RTVSPropertyOp45
 70
     1
102
RTVSPropertyOp46
 70
     1
102
RTVSPropertyOp47
 70
     1
102
RTVSPropertyOp48
 70
     1
102
RTVSPropertyOp49
 70
     1
102
RTVSPropertyOp50
 70
     1
102
RTVSPropertyOp51
 70
     0
102
RTVSPropertyOp52
 70
     0
102
RTVSPropertyOp53
 70
     1
102
RTVSPropertyOp54
 70
     1
102
RTVSPropertyOp55
 70
     1
102
RTVSPropertyOp56
 70
     1
102
RTVSPropertyOp57
 70
     1
102
RTVSPost2010Prop28
280
     0
102
RTVSPost2010PropOp28
 70
     1
102
RTVSPost2010Prop29
280
     1
102
RTVSPost2010PropOp29
 70
     1
102
RTVSPost2010Prop30
280
     1
102
RTVSPost2010PropOp30
 70
     1
102
RTVSPost2010Prop31
280
     0
102
RTVSPost2010PropOp31
 70
     1
102
RTVSPost2010Prop32
280
     0
102
RTVSPost2010PropOp32
 70
     1
102
RTVSPost2010Prop33
280
     0
102
RTVSPost2010PropOp33
 70
     1
102
RTVSPost2010Prop34
280
     0
102
RTVSPost2010PropOp34
 70
     1
102
RTVSPost2010Prop35
280
     0
102
RTVSPost2010PropOp35
 70
     1
102
RTVSPost2010Prop36
280
     0
102
RTVSPost2010PropOp36
 70
     1
102
RTVSPost2010Prop37
 90
       50
102
RTVSPost2010PropOp37
 70
     1
102
RTVSPost2010Prop38
140
0.0
102
RTVSPost2010PropOp38
 70
     1
102
RTVSPost2010Prop39
140
1.0
102
RTVSPost2010PropOp39
 70
     1
102
RTVSPost2010Prop40
 90
        0
102
RTVSPost2010PropOp40
 70
     1
102
RTVSPost2010Prop41ColorIndex
 90
       18
102
RTVSPost2010Prop41ColorRGB
 90
        0
102
RTVSPost2010PropOp41
 70
     1
102
RTVSPost2010Prop42
 90
       50
102
RTVSPost2010PropOp42
 70
     1
102
RTVSPost2010Prop43
 90
        3
102
RTVSPost2010PropOp43
 70
     1
102
RTVSPost2010Prop44ColorIndex
 90
        5
102
RTVSPost2010Prop44ColorRGB
 90
      255
102
RTVSPost2010PropOp44
 70
     1
102
RTVSPost2010Prop45
280
     0
102
RTVSPost2010PropOp45
 70
     1
102
RTVSPost2010Prop46
 90
       50
102
RTVSPost2010PropOp46
 70
     1
102
RTVSPost2010Prop47
 90
       50
102
RTVSPost2010PropOp47
 70
     1
102
RTVSPost2010Prop48
 90
       50
102
RTVSPost2010PropOp48
 70
     1
102
RTVSPost2010Prop49
280
     0
102
RTVSPost2010PropOp49
 70
     1
102
RTVSPost2010Prop50
 90
       50
102
RTVSPost2010PropOp50
 70
     1
102
RTVSPost2010Prop51ColorIndex
 90
      256
102
RTVSPost2010Prop51ColorRGB
 90
-16777216
102
RTVSPost2010PropOp51
 70
     0
102
RTVSPost2010Prop52
140
1.0
102
RTVSPost2010PropOp52
 70
     0
102
RTVSPost2010Prop53
 90
        2
102
RTVSPost2010PropOp53
 70
     1
102
RTVSPost2010Prop54
  1
strokes_ogs.tif
102
RTVSPost2010PropOp54
 70
     1
102
RTVSPost2010Prop55
280
     0
102
RTVSPost2010PropOp55
 70
     1
102
RTVSPost2010Prop56
140
1.0
102
RTVSPost2010PropOp56
 70
     1
102
RTVSPost2010Prop57
140
1.0
102
RTVSPost2010PropOp57
 70
     1
  0
XRECORD
  5
3BF
102
{ACAD_REACTORS
330
3BE
102
}
330
3BE
100
AcDbXrecord
280
     1
102
RTVSPropertyOp0
 70
     1
102
RTVSPropertyOp1
 70
     1
102
RTVSPropertyOp2
 70
     1
102
RTVSPropertyOp3
 70
     1
102
RTVSPropertyOp4
 70
     1
102
RTVSPropertyOp5
 70
     1
102
RTVSPropertyOp6
 70
     1
102
RTVSPropertyOp7
 70
     1
102
RTVSPropertyOp8
 70
     1
102
RTVSPropertyOp9
 70
     1
102
RTVSPropertyOp10
 70
     1
102
RTVSPropertyOp11
 70
     1
102
RTVSPropertyOp12
 70
     1
102
RTVSPropertyOp13
 70
     1
102
RTVSPropertyOp14
 70
     1
102
RTVSPropertyOp15
 70
     1
102
RTVSPropertyOp16
 70
     1
102
RTVSPropertyOp17
 70
     1
102
RTVSPropertyOp18
 70
     1
102
RTVSPropertyOp19
 70
     1
102
RTVSPropertyOp20
 70
     1
102
RTVSPropertyOp21
 70
     1
102
RTVSPropertyOp22
 70
     1
102
RTVSPropertyOp23
 70
     1
102
RTVSPropertyOp24
 70
     1
102
RTVSPropertyOp25
 70
     1
102
RTVSPropertyOp26
 70
     1
102
RTVSPropertyOp27
 70
     1
102
RTVSPropertyOp28
 70
     1
102
RTVSPropertyOp29
 70
     1
102
RTVSPropertyOp30
 70
     1
102
RTVSPropertyOp31
 70
     1
102
RTVSPropertyOp32
 70
     1
102
RTVSPropertyOp33
 70
     1
102
RTVSPropertyOp34
 70
     1
102
RTVSPropertyOp35
 70
     1
102
RTVSPropertyOp36
 70
     1
102
RTVSPropertyOp37
 70
     1
102
RTVSPropertyOp38
 70
     1
102
RTVSPropertyOp39
 70
     1
102
RTVSPropertyOp40
 70
     1
102
RTVSPropertyOp41
 70
     1
102
RTVSPropertyOp42
 70
     1
102
RTVSPropertyOp43
 70
     1
102
RTVSPropertyOp44
 70
     1
102
RTVSPropertyOp45
 70
     1
102
RTVSPropertyOp46
 70
     1
102
RTVSPropertyOp47
 70
     1
102
RTVSPropertyOp48
 70
     1
102
RTVSPropertyOp49
 70
     1
102
RTVSPropertyOp50
 70
     1
102
RTVSPropertyOp51
 70
     0
102
RTVSPropertyOp52
 70
     0
102
RTVSPropertyOp53
 70
     1
102
RTVSPropertyOp54
 70
     1
102
RTVSPropertyOp55
 70
     1
102
RTVSPropertyOp56
 70
     1
102
RTVSPropertyOp57
 70
     1
102
RTVSPost2010Prop28
280
     0
102
RTVSPost2010PropOp28
 70
     1
102
RTVSPost2010Prop29
280
     1
102
RTVSPost2010PropOp29
 70
     1
102
RTVSPost2010Prop30
280
     1
102
RTVSPost2010PropOp30
 70
     1
102
RTVSPost2010Prop31
280
     0
102
RTVSPost2010PropOp31
 70
     1
102
RTVSPost2010Prop32
280
     0
102
RTVSPost2010PropOp32
 70
     1
102
RTVSPost2010Prop33
280
     0
102
RTVSPost2010PropOp33
 70
     1
102
RTVSPost2010Prop34
280
     0
102
RTVSPost2010PropOp34
 70
     1
102
RTVSPost2010Prop35
280
     0
102
RTVSPost2010PropOp35
 70
     1
102
RTVSPost2010Prop36
280
     0
102
RTVSPost2010PropOp36
 70
     1
102
RTVSPost2010Prop37
 90
       50
102
RTVSPost2010PropOp37
 70
     1
102
RTVSPost2010Prop38
140
0.0
102
RTVSPost2010PropOp38
 70
     1
102
RTVSPost2010Prop39
140
1.0
102
RTVSPost2010PropOp39
 70
     1
102
RTVSPost2010Prop40
 90
        0
102
RTVSPost2010PropOp40
 70
     1
102
RTVSPost2010Prop41ColorIndex
 90
       18
102
RTVSPost2010Prop41ColorRGB
 90
        0
102
RTVSPost2010PropOp41
 70
     1
102
RTVSPost2010Prop42
 90
       50
102
RTVSPost2010PropOp42
 70
     1
102
RTVSPost2010Prop43
 90
        3
102
RTVSPost2010PropOp43
 70
     1
102
RTVSPost2010Prop44ColorIndex
 90
        5
102
RTVSPost2010Prop44ColorRGB
 90
      255
102
RTVSPost2010PropOp44
 70
     1
102
RTVSPost2010Prop45
280
     0
102
RTVSPost2010PropOp45
 70
     1
102
RTVSPost2010Prop46
 90
       50
102
RTVSPost2010PropOp46
 70
     1
102
RTVSPost2010Prop47
 90
       50
102
RTVSPost2010PropOp47
 70
     1
102
RTVSPost2010Prop48
 90
       50
102
RTVSPost2010PropOp48
 70
     1
102
RTVSPost2010Prop49
280
     0
102
RTVSPost2010PropOp49
 70
     1
102
RTVSPost2010Prop50
 90
       50
102
RTVSPost2010PropOp50
 70
     1
102
RTVSPost2010Prop51ColorIndex
 90
      256
102
RTVSPost2010Prop51ColorRGB
 90
-16777216
102
RTVSPost2010PropOp51
 70
     0
102
RTVSPost2010Prop52
140
1.0
102
RTVSPost2010PropOp52
 70
     0
102
RTVSPost2010Prop53
 90
        2
102
RTVSPost2010PropOp53
 70
     1
102
RTVSPost2010Prop54
  1
strokes_ogs.tif
102
RTVSPost2010PropOp54
 70
     1
102
RTVSPost2010Prop55
280
     0
102
RTVSPost2010PropOp55
 70
     1
102
RTVSPost2010Prop56
140
1.0
102
RTVSPost2010PropOp56
 70
     1
102
RTVSPost2010Prop57
140
1.0
102
RTVSPost2010PropOp57
 70
     1
  0
XRECORD
  5
3C1
102
{ACAD_REACTORS
330
3C0
102
}
330
3C0
100
AcDbXrecord
280
     1
102
RTVSPropertyOp0
 70
     1
102
RTVSPropertyOp1
 70
     1
102
RTVSPropertyOp2
 70
     1
102
RTVSPropertyOp3
 70
     1
102
RTVSPropertyOp4
 70
     1
102
RTVSPropertyOp5
 70
     1
102
RTVSPropertyOp6
 70
     1
102
RTVSPropertyOp7
 70
     1
102
RTVSPropertyOp8
 70
     1
102
RTVSPropertyOp9
 70
     1
102
RTVSPropertyOp10
 70
     1
102
RTVSPropertyOp11
 70
     1
102
RTVSPropertyOp12
 70
     1
102
RTVSPropertyOp13
 70
     1
102
RTVSPropertyOp14
 70
     1
102
RTVSPropertyOp15
 70
     1
102
RTVSPropertyOp16
 70
     1
102
RTVSPropertyOp17
 70
     1
102
RTVSPropertyOp18
 70
     1
102
RTVSPropertyOp19
 70
     1
102
RTVSPropertyOp20
 70
     1
102
RTVSPropertyOp21
 70
     1
102
RTVSPropertyOp22
 70
     1
102
RTVSPropertyOp23
 70
     1
102
RTVSPropertyOp24
 70
     1
102
RTVSPropertyOp25
 70
     1
102
RTVSPropertyOp26
 70
     1
102
RTVSPropertyOp27
 70
     1
102
RTVSPropertyOp28
 70
     1
102
RTVSPropertyOp29
 70
     1
102
RTVSPropertyOp30
 70
     1
102
RTVSPropertyOp31
 70
     1
102
RTVSPropertyOp32
 70
     1
102
RTVSPropertyOp33
 70
     1
102
RTVSPropertyOp34
 70
     1
102
RTVSPropertyOp35
 70
     1
102
RTVSPropertyOp36
 70
     1
102
RTVSPropertyOp37
 70
     1
102
RTVSPropertyOp38
 70
     1
102
RTVSPropertyOp39
 70
     1
102
RTVSPropertyOp40
 70
     1
102
RTVSPropertyOp41
 70
     1
102
RTVSPropertyOp42
 70
     1
102
RTVSPropertyOp43
 70
     1
102
RTVSPropertyOp44
 70
     1
102
RTVSPropertyOp45
 70
     1
102
RTVSPropertyOp46
 70
     1
102
RTVSPropertyOp47
 70
     1
102
RTVSPropertyOp48
 70
     1
102
RTVSPropertyOp49
 70
     1
102
RTVSPropertyOp50
 70
     1
102
RTVSPropertyOp51
 70
     0
102
RTVSPropertyOp52
 70
     0
102
RTVSPropertyOp53
 70
     1
102
RTVSPropertyOp54
 70
     1
102
RTVSPropertyOp55
 70
     1
102
RTVSPropertyOp56
 70
     1
102
RTVSPropertyOp57
 70
     1
102
RTVSPost2010Prop28
280
     0
102
RTVSPost2010PropOp28
 70
     1
102
RTVSPost2010Prop29
280
     1
102
RTVSPost2010PropOp29
 70
     1
102
RTVSPost2010Prop30
280
     1
102
RTVSPost2010PropOp30
 70
     1
102
RTVSPost2010Prop31
280
     0
102
RTVSPost2010PropOp31
 70
     1
102
RTVSPost2010Prop32
280
     0
102
RTVSPost2010PropOp32
 70
     1
102
RTVSPost2010Prop33
280
     0
102
RTVSPost2010PropOp33
 70
     1
102
RTVSPost2010Prop34
280
     0
102
RTVSPost2010PropOp34
 70
     1
102
RTVSPost2010Prop35
280
     0
102
RTVSPost2010PropOp35
 70
     1
102
RTVSPost2010Prop36
280
     0
102
RTVSPost2010PropOp36
 70
     1
102
RTVSPost2010Prop37
 90
       50
102
RTVSPost2010PropOp37
 70
     1
102
RTVSPost2010Prop38
140
0.0
102
RTVSPost2010PropOp38
 70
     1
102
RTVSPost2010Prop39
140
1.0
102
RTVSPost2010PropOp39
 70
     1
102
RTVSPost2010Prop40
 90
        0
102
RTVSPost2010PropOp40
 70
     1
102
RTVSPost2010Prop41ColorIndex
 90
       18
102
RTVSPost2010Prop41ColorRGB
 90
        0
102
RTVSPost2010PropOp41
 70
     1
102
RTVSPost2010Prop42
 90
       50
102
RTVSPost2010PropOp42
 70
     1
102
RTVSPost2010Prop43
 90
        3
102
RTVSPost2010PropOp43
 70
     1
102
RTVSPost2010Prop44ColorIndex
 90
        5
102
RTVSPost2010Prop44ColorRGB
 90
      255
102
RTVSPost2010PropOp44
 70
     1
102
RTVSPost2010Prop45
280
     0
102
RTVSPost2010PropOp45
 70
     1
102
RTVSPost2010Prop46
 90
       50
102
RTVSPost2010PropOp46
 70
     1
102
RTVSPost2010Prop47
 90
       50
102
RTVSPost2010PropOp47
 70
     1
102
RTVSPost2010Prop48
 90
       50
102
RTVSPost2010PropOp48
 70
     1
102
RTVSPost2010Prop49
280
     0
102
RTVSPost2010PropOp49
 70
     1
102
RTVSPost2010Prop50
 90
       50
102
RTVSPost2010PropOp50
 70
     1
102
RTVSPost2010Prop51ColorIndex
 90
      256
102
RTVSPost2010Prop51ColorRGB
 90
-16777216
102
RTVSPost2010PropOp51
 70
     0
102
RTVSPost2010Prop52
140
1.0
102
RTVSPost2010PropOp52
 70
     0
102
RTVSPost2010Prop53
 90
        2
102
RTVSPost2010PropOp53
 70
     1
102
RTVSPost2010Prop54
  1
strokes_ogs.tif
102
RTVSPost2010PropOp54
 70
     1
102
RTVSPost2010Prop55
280
     0
102
RTVSPost2010PropOp55
 70
     1
102
RTVSPost2010Prop56
140
1.0
102
RTVSPost2010PropOp56
 70
     1
102
RTVSPost2010Prop57
140
1.0
102
RTVSPost2010PropOp57
 70
     1
  0
XRECORD
  5
3D1
102
{ACAD_REACTORS
330
3D0
102
}
330
3D0
100
AcDbXrecord
280
     1
102
RTVSPropertyOp0
 70
     0
102
RTVSPropertyOp1
 70
     0
102
RTVSPropertyOp2
 70
     0
102
RTVSPropertyOp3
 70
     0
102
RTVSPropertyOp4
 70
     0
102
RTVSPropertyOp5
 70
     0
102
RTVSPropertyOp6
 70
     0
102
RTVSPropertyOp7
 70
     0
102
RTVSPropertyOp8
 70
     0
102
RTVSPropertyOp9
 70
     0
102
RTVSPropertyOp10
 70
     0
102
RTVSPropertyOp11
 70
     0
102
RTVSPropertyOp12
 70
     0
102
RTVSPropertyOp13
 70
     0
102
RTVSPropertyOp14
 70
     2
102
RTVSPropertyOp15
 70
     0
102
RTVSPropertyOp16
 70
     0
102
RTVSPropertyOp17
 70
     0
102
RTVSPropertyOp18
 70
     0
102
RTVSPropertyOp19
 70
     0
102
RTVSPropertyOp20
 70
     0
102
RTVSPropertyOp21
 70
     0
102
RTVSPropertyOp22
 70
     0
102
RTVSPropertyOp23
 70
     0
102
RTVSPropertyOp24
 70
     0
102
RTVSPropertyOp25
 70
     0
102
RTVSPropertyOp26
 70
     0
102
RTVSPropertyOp27
 70
     0
102
RTVSPropertyOp28
 70
     0
102
RTVSPropertyOp29
 70
     0
102
RTVSPropertyOp30
 70
     0
102
RTVSPropertyOp31
 70
     0
102
RTVSPropertyOp32
 70
     0
102
RTVSPropertyOp33
 70
     0
102
RTVSPropertyOp34
 70
     0
102
RTVSPropertyOp35
 70
     0
102
RTVSPropertyOp36
 70
     0
102
RTVSPropertyOp37
 70
     0
102
RTVSPropertyOp38
 70
     0
102
RTVSPropertyOp39
 70
     0
102
RTVSPropertyOp40
 70
     0
102
RTVSPropertyOp41
 70
     0
102
RTVSPropertyOp42
 70
     0
102
RTVSPropertyOp43
 70
     0
102
RTVSPropertyOp44
 70
     0
102
RTVSPropertyOp45
 70
     0
102
RTVSPropertyOp46
 70
     0
102
RTVSPropertyOp47
 70
     0
102
RTVSPropertyOp48
 70
     0
102
RTVSPropertyOp49
 70
     0
102
RTVSPropertyOp50
 70
     0
102
RTVSPropertyOp51
 70
     0
102
RTVSPropertyOp52
 70
     0
102
RTVSPropertyOp53
 70
     0
102
RTVSPropertyOp54
 70
     0
102
RTVSPropertyOp55
 70
     0
102
RTVSPropertyOp56
 70
     0
102
RTVSPropertyOp57
 70
     0
102
RTVSPost2010Prop28
280
     0
102
RTVSPost2010PropOp28
 70
     0
102
RTVSPost2010Prop29
280
     1
102
RTVSPost2010PropOp29
 70
     0
102
RTVSPost2010Prop30
280
     1
102
RTVSPost2010PropOp30
 70
     0
102
RTVSPost2010Prop31
280
     0
102
RTVSPost2010PropOp31
 70
     0
102
RTVSPost2010Prop32
280
     0
102
RTVSPost2010PropOp32
 70
     0
102
RTVSPost2010Prop33
280
     0
102
RTVSPost2010PropOp33
 70
     0
102
RTVSPost2010Prop34
280
     0
102
RTVSPost2010PropOp34
 70
     0
102
RTVSPost2010Prop35
280
     0
102
RTVSPost2010PropOp35
 70
     0
102
RTVSPost2010Prop36
280
     0
102
RTVSPost2010PropOp36
 70
     0
102
RTVSPost2010Prop37
 90
       50
102
RTVSPost2010PropOp37
 70
     0
102
RTVSPost2010Prop38
140
0.0
102
RTVSPost2010PropOp38
 70
     0
102
RTVSPost2010Prop39
140
1.0
102
RTVSPost2010PropOp39
 70
     0
102
RTVSPost2010Prop40
 90
        0
102
RTVSPost2010PropOp40
 70
     0
102
RTVSPost2010Prop41ColorIndex
 90
       18
102
RTVSPost2010Prop41ColorRGB
 90
        0
102
RTVSPost2010PropOp41
 70
     0
102
RTVSPost2010Prop42
 90
       50
102
RTVSPost2010PropOp42
 70
     0
102
RTVSPost2010Prop43
 90
        3
102
RTVSPost2010PropOp43
 70
     0
102
RTVSPost2010Prop44ColorIndex
 90
        5
102
RTVSPost2010Prop44ColorRGB
 90
      255
102
RTVSPost2010PropOp44
 70
     0
102
RTVSPost2010Prop45
280
     0
102
RTVSPost2010PropOp45
 70
     0
102
RTVSPost2010Prop46
 90
       50
102
RTVSPost2010PropOp46
 70
     0
102
RTVSPost2010Prop47
 90
       50
102
RTVSPost2010PropOp47
 70
     0
102
RTVSPost2010Prop48
 90
       50
102
RTVSPost2010PropOp48
 70
     0
102
RTVSPost2010Prop49
280
     0
102
RTVSPost2010PropOp49
 70
     0
102
RTVSPost2010Prop50
 90
       50
102
RTVSPost2010PropOp50
 70
     0
102
RTVSPost2010Prop51ColorIndex
 90
      256
102
RTVSPost2010Prop51ColorRGB
 90
-16777216
102
RTVSPost2010PropOp51
 70
     0
102
RTVSPost2010Prop52
140
1.0
102
RTVSPost2010PropOp52
 70
     0
102
RTVSPost2010Prop53
 90
        2
102
RTVSPost2010PropOp53
 70
     0
102
RTVSPost2010Prop54
  1
strokes_ogs.tif
102
RTVSPost2010PropOp54
 70
     0
102
RTVSPost2010Prop55
280
     0
102
RTVSPost2010PropOp55
 70
     0
102
RTVSPost2010Prop56
140
1.0
102
RTVSPost2010PropOp56
 70
     0
102
RTVSPost2010Prop57
140
1.0
102
RTVSPost2010PropOp57
 70
     0
  0
XRECORD
  5
3C9
102
{ACAD_REACTORS
330
3C8
102
}
330
3C8
100
AcDbXrecord
280
     1
102
RTVSPropertyOp0
 70
     1
102
RTVSPropertyOp1
 70
     1
102
RTVSPropertyOp2
 70
     1
102
RTVSPropertyOp3
 70
     1
102
RTVSPropertyOp4
 70
     1
102
RTVSPropertyOp5
 70
     1
102
RTVSPropertyOp6
 70
     1
102
RTVSPropertyOp7
 70
     1
102
RTVSPropertyOp8
 70
     1
102
RTVSPropertyOp9
 70
     1
102
RTVSPropertyOp10
 70
     1
102
RTVSPropertyOp11
 70
     1
102
RTVSPropertyOp12
 70
     1
102
RTVSPropertyOp13
 70
     1
102
RTVSPropertyOp14
 70
     1
102
RTVSPropertyOp15
 70
     1
102
RTVSPropertyOp16
 70
     1
102
RTVSPropertyOp17
 70
     1
102
RTVSPropertyOp18
 70
     1
102
RTVSPropertyOp19
 70
     1
102
RTVSPropertyOp20
 70
     1
102
RTVSPropertyOp21
 70
     1
102
RTVSPropertyOp22
 70
     1
102
RTVSPropertyOp23
 70
     1
102
RTVSPropertyOp24
 70
     1
102
RTVSPropertyOp25
 70
     1
102
RTVSPropertyOp26
 70
     1
102
RTVSPropertyOp27
 70
     1
102
RTVSPropertyOp28
 70
     1
102
RTVSPropertyOp29
 70
     1
102
RTVSPropertyOp30
 70
     1
102
RTVSPropertyOp31
 70
     1
102
RTVSPropertyOp32
 70
     1
102
RTVSPropertyOp33
 70
     1
102
RTVSPropertyOp34
 70
     1
102
RTVSPropertyOp35
 70
     1
102
RTVSPropertyOp36
 70
     1
102
RTVSPropertyOp37
 70
     1
102
RTVSPropertyOp38
 70
     1
102
RTVSPropertyOp39
 70
     1
102
RTVSPropertyOp40
 70
     1
102
RTVSPropertyOp41
 70
     1
102
RTVSPropertyOp42
 70
     1
102
RTVSPropertyOp43
 70
     1
102
RTVSPropertyOp44
 70
     1
102
RTVSPropertyOp45
 70
     1
102
RTVSPropertyOp46
 70
     1
102
RTVSPropertyOp47
 70
     1
102
RTVSPropertyOp48
 70
     1
102
RTVSPropertyOp49
 70
     1
102
RTVSPropertyOp50
 70
     1
102
RTVSPropertyOp51
 70
     0
102
RTVSPropertyOp52
 70
     0
102
RTVSPropertyOp53
 70
     1
102
RTVSPropertyOp54
 70
     1
102
RTVSPropertyOp55
 70
     1
102
RTVSPropertyOp56
 70
     1
102
RTVSPropertyOp57
 70
     1
102
RTVSPost2010Prop28
280
     0
102
RTVSPost2010PropOp28
 70
     1
102
RTVSPost2010Prop29
280
     1
102
RTVSPost2010PropOp29
 70
     1
102
RTVSPost2010Prop30
280
     1
102
RTVSPost2010PropOp30
 70
     1
102
RTVSPost2010Prop31
280
     0
102
RTVSPost2010PropOp31
 70
     1
102
RTVSPost2010Prop32
280
     0
102
RTVSPost2010PropOp32
 70
     1
102
RTVSPost2010Prop33
280
     0
102
RTVSPost2010PropOp33
 70
     1
102
RTVSPost2010Prop34
280
     0
102
RTVSPost2010PropOp34
 70
     1
102
RTVSPost2010Prop35
280
     0
102
RTVSPost2010PropOp35
 70
     1
102
RTVSPost2010Prop36
280
     0
102
RTVSPost2010PropOp36
 70
     1
102
RTVSPost2010Prop37
 90
       50
102
RTVSPost2010PropOp37
 70
     1
102
RTVSPost2010Prop38
140
0.0
102
RTVSPost2010PropOp38
 70
     1
102
RTVSPost2010Prop39
140
1.0
102
RTVSPost2010PropOp39
 70
     1
102
RTVSPost2010Prop40
 90
        0
102
RTVSPost2010PropOp40
 70
     1
102
RTVSPost2010Prop41ColorIndex
 90
       18
102
RTVSPost2010Prop41ColorRGB
 90
        0
102
RTVSPost2010PropOp41
 70
     1
102
RTVSPost2010Prop42
 90
       50
102
RTVSPost2010PropOp42
 70
     1
102
RTVSPost2010Prop43
 90
        3
102
RTVSPost2010PropOp43
 70
     1
102
RTVSPost2010Prop44ColorIndex
 90
        5
102
RTVSPost2010Prop44ColorRGB
 90
      255
102
RTVSPost2010PropOp44
 70
     1
102
RTVSPost2010Prop45
280
     0
102
RTVSPost2010PropOp45
 70
     1
102
RTVSPost2010Prop46
 90
       50
102
RTVSPost2010PropOp46
 70
     1
102
RTVSPost2010Prop47
 90
       50
102
RTVSPost2010PropOp47
 70
     1
102
RTVSPost2010Prop48
 90
       50
102
RTVSPost2010PropOp48
 70
     1
102
RTVSPost2010Prop49
280
     0
102
RTVSPost2010PropOp49
 70
     1
102
RTVSPost2010Prop50
 90
       50
102
RTVSPost2010PropOp50
 70
     1
102
RTVSPost2010Prop51ColorIndex
 90
      256
102
RTVSPost2010Prop51ColorRGB
 90
-16777216
102
RTVSPost2010PropOp51
 70
     0
102
RTVSPost2010Prop52
140
1.0
102
RTVSPost2010PropOp52
 70
     0
102
RTVSPost2010Prop53
 90
        2
102
RTVSPost2010PropOp53
 70
     1
102
RTVSPost2010Prop54
  1
strokes_ogs.tif
102
RTVSPost2010PropOp54
 70
     1
102
RTVSPost2010Prop55
280
     0
102
RTVSPost2010PropOp55
 70
     1
102
RTVSPost2010Prop56
140
1.0
102
RTVSPost2010PropOp56
 70
     1
102
RTVSPost2010Prop57
140
1.0
102
RTVSPost2010PropOp57
 70
     1
  0
XRECORD
  5
3AD
102
{ACAD_REACTORS
330
3AC
102
}
330
3AC
100
AcDbXrecord
280
     1
102
RTVSPropertyOp0
 70
     1
102
RTVSPropertyOp1
 70
     1
102
RTVSPropertyOp2
 70
     1
102
RTVSPropertyOp3
 70
     1
102
RTVSPropertyOp4
 70
     1
102
RTVSPropertyOp5
 70
     1
102
RTVSPropertyOp6
 70
     1
102
RTVSPropertyOp7
 70
     1
102
RTVSPropertyOp8
 70
     1
102
RTVSPropertyOp9
 70
     1
102
RTVSPropertyOp10
 70
     1
102
RTVSPropertyOp11
 70
     1
102
RTVSPropertyOp12
 70
     1
102
RTVSPropertyOp13
 70
     1
102
RTVSPropertyOp14
 70
     1
102
RTVSPropertyOp15
 70
     1
102
RTVSPropertyOp16
 70
     1
102
RTVSPropertyOp17
 70
     1
102
RTVSPropertyOp18
 70
     1
102
RTVSPropertyOp19
 70
     1
102
RTVSPropertyOp20
 70
     1
102
RTVSPropertyOp21
 70
     1
102
RTVSPropertyOp22
 70
     1
102
RTVSPropertyOp23
 70
     1
102
RTVSPropertyOp24
 70
     1
102
RTVSPropertyOp25
 70
     1
102
RTVSPropertyOp26
 70
     1
102
RTVSPropertyOp27
 70
     1
102
RTVSPropertyOp28
 70
     1
102
RTVSPropertyOp29
 70
     1
102
RTVSPropertyOp30
 70
     1
102
RTVSPropertyOp31
 70
     1
102
RTVSPropertyOp32
 70
     1
102
RTVSPropertyOp33
 70
     1
102
RTVSPropertyOp34
 70
     1
102
RTVSPropertyOp35
 70
     1
102
RTVSPropertyOp36
 70
     1
102
RTVSPropertyOp37
 70
     1
102
RTVSPropertyOp38
 70
     1
102
RTVSPropertyOp39
 70
     1
102
RTVSPropertyOp40
 70
     1
102
RTVSPropertyOp41
 70
     1
102
RTVSPropertyOp42
 70
     1
102
RTVSPropertyOp43
 70
     1
102
RTVSPropertyOp44
 70
     1
102
RTVSPropertyOp45
 70
     1
102
RTVSPropertyOp46
 70
     1
102
RTVSPropertyOp47
 70
     1
102
RTVSPropertyOp48
 70
     1
102
RTVSPropertyOp49
 70
     1
102
RTVSPropertyOp50
 70
     1
102
RTVSPropertyOp51
 70
     0
102
RTVSPropertyOp52
 70
     0
102
RTVSPropertyOp53
 70
     1
102
RTVSPropertyOp54
 70
     1
102
RTVSPropertyOp55
 70
     1
102
RTVSPropertyOp56
 70
     1
102
RTVSPropertyOp57
 70
     1
102
RTVSPost2010Prop28
280
     0
102
RTVSPost2010PropOp28
 70
     1
102
RTVSPost2010Prop29
280
     1
102
RTVSPost2010PropOp29
 70
     1
102
RTVSPost2010Prop30
280
     1
102
RTVSPost2010PropOp30
 70
     1
102
RTVSPost2010Prop31
280
     0
102
RTVSPost2010PropOp31
 70
     1
102
RTVSPost2010Prop32
280
     0
102
RTVSPost2010PropOp32
 70
     1
102
RTVSPost2010Prop33
280
     0
102
RTVSPost2010PropOp33
 70
     1
102
RTVSPost2010Prop34
280
     0
102
RTVSPost2010PropOp34
 70
     1
102
RTVSPost2010Prop35
280
     0
102
RTVSPost2010PropOp35
 70
     1
102
RTVSPost2010Prop36
280
     0
102
RTVSPost2010PropOp36
 70
     1
102
RTVSPost2010Prop37
 90
       50
102
RTVSPost2010PropOp37
 70
     1
102
RTVSPost2010Prop38
140
0.0
102
RTVSPost2010PropOp38
 70
     1
102
RTVSPost2010Prop39
140
1.0
102
RTVSPost2010PropOp39
 70
     1
102
RTVSPost2010Prop40
 90
        0
102
RTVSPost2010PropOp40
 70
     1
102
RTVSPost2010Prop41ColorIndex
 90
       18
102
RTVSPost2010Prop41ColorRGB
 90
        0
102
RTVSPost2010PropOp41
 70
     1
102
RTVSPost2010Prop42
 90
       50
102
RTVSPost2010PropOp42
 70
     1
102
RTVSPost2010Prop43
 90
        3
102
RTVSPost2010PropOp43
 70
     1
102
RTVSPost2010Prop44ColorIndex
 90
        5
102
RTVSPost2010Prop44ColorRGB
 90
      255
102
RTVSPost2010PropOp44
 70
     1
102
RTVSPost2010Prop45
280
     0
102
RTVSPost2010PropOp45
 70
     1
102
RTVSPost2010Prop46
 90
       50
102
RTVSPost2010PropOp46
 70
     1
102
RTVSPost2010Prop47
 90
       50
102
RTVSPost2010PropOp47
 70
     1
102
RTVSPost2010Prop48
 90
       50
102
RTVSPost2010PropOp48
 70
     1
102
RTVSPost2010Prop49
280
     0
102
RTVSPost2010PropOp49
 70
     1
102
RTVSPost2010Prop50
 90
       50
102
RTVSPost2010PropOp50
 70
     1
102
RTVSPost2010Prop51ColorIndex
 90
      256
102
RTVSPost2010Prop51ColorRGB
 90
-16777216
102
RTVSPost2010PropOp51
 70
     0
102
RTVSPost2010Prop52
140
1.0
102
RTVSPost2010PropOp52
 70
     0
102
RTVSPost2010Prop53
 90
        2
102
RTVSPost2010PropOp53
 70
     1
102
RTVSPost2010Prop54
  1
strokes_ogs.tif
102
RTVSPost2010PropOp54
 70
     1
102
RTVSPost2010Prop55
280
     0
102
RTVSPost2010PropOp55
 70
     1
102
RTVSPost2010Prop56
140
1.0
102
RTVSPost2010PropOp56
 70
     1
102
RTVSPost2010Prop57
140
1.0
102
RTVSPost2010PropOp57
 70
     1
  0
XRECORD
  5
3AF
102
{ACAD_REACTORS
330
3AE
102
}
330
3AE
100
AcDbXrecord
280
     1
102
RTVSPropertyOp0
 70
     1
102
RTVSPropertyOp1
 70
     1
102
RTVSPropertyOp2
 70
     1
102
RTVSPropertyOp3
 70
     1
102
RTVSPropertyOp4
 70
     1
102
RTVSPropertyOp5
 70
     1
102
RTVSPropertyOp6
 70
     1
102
RTVSPropertyOp7
 70
     1
102
RTVSPropertyOp8
 70
     1
102
RTVSPropertyOp9
 70
     1
102
RTVSPropertyOp10
 70
     1
102
RTVSPropertyOp11
 70
     1
102
RTVSPropertyOp12
 70
     1
102
RTVSPropertyOp13
 70
     1
102
RTVSPropertyOp14
 70
     1
102
RTVSPropertyOp15
 70
     1
102
RTVSPropertyOp16
 70
     1
102
RTVSPropertyOp17
 70
     1
102
RTVSPropertyOp18
 70
     1
102
RTVSPropertyOp19
 70
     1
102
RTVSPropertyOp20
 70
     1
102
RTVSPropertyOp21
 70
     1
102
RTVSPropertyOp22
 70
     1
102
RTVSPropertyOp23
 70
     1
102
RTVSPropertyOp24
 70
     1
102
RTVSPropertyOp25
 70
     1
102
RTVSPropertyOp26
 70
     1
102
RTVSPropertyOp27
 70
     1
102
RTVSPropertyOp28
 70
     1
102
RTVSPropertyOp29
 70
     1
102
RTVSPropertyOp30
 70
     1
102
RTVSPropertyOp31
 70
     1
102
RTVSPropertyOp32
 70
     1
102
RTVSPropertyOp33
 70
     1
102
RTVSPropertyOp34
 70
     1
102
RTVSPropertyOp35
 70
     1
102
RTVSPropertyOp36
 70
     1
102
RTVSPropertyOp37
 70
     1
102
RTVSPropertyOp38
 70
     1
102
RTVSPropertyOp39
 70
     1
102
RTVSPropertyOp40
 70
     1
102
RTVSPropertyOp41
 70
     1
102
RTVSPropertyOp42
 70
     1
102
RTVSPropertyOp43
 70
     1
102
RTVSPropertyOp44
 70
     1
102
RTVSPropertyOp45
 70
     1
102
RTVSPropertyOp46
 70
     1
102
RTVSPropertyOp47
 70
     1
102
RTVSPropertyOp48
 70
     1
102
RTVSPropertyOp49
 70
     1
102
RTVSPropertyOp50
 70
     1
102
RTVSPropertyOp51
 70
     0
102
RTVSPropertyOp52
 70
     0
102
RTVSPropertyOp53
 70
     1
102
RTVSPropertyOp54
 70
     1
102
RTVSPropertyOp55
 70
     1
102
RTVSPropertyOp56
 70
     1
102
RTVSPropertyOp57
 70
     1
102
RTVSPost2010Prop28
280
     0
102
RTVSPost2010PropOp28
 70
     1
102
RTVSPost2010Prop29
280
     1
102
RTVSPost2010PropOp29
 70
     1
102
RTVSPost2010Prop30
280
     1
102
RTVSPost2010PropOp30
 70
     1
102
RTVSPost2010Prop31
280
     0
102
RTVSPost2010PropOp31
 70
     1
102
RTVSPost2010Prop32
280
     0
102
RTVSPost2010PropOp32
 70
     1
102
RTVSPost2010Prop33
280
     0
102
RTVSPost2010PropOp33
 70
     1
102
RTVSPost2010Prop34
280
     0
102
RTVSPost2010PropOp34
 70
     1
102
RTVSPost2010Prop35
280
     0
102
RTVSPost2010PropOp35
 70
     1
102
RTVSPost2010Prop36
280
     0
102
RTVSPost2010PropOp36
 70
     1
102
RTVSPost2010Prop37
 90
       50
102
RTVSPost2010PropOp37
 70
     1
102
RTVSPost2010Prop38
140
0.0
102
RTVSPost2010PropOp38
 70
     1
102
RTVSPost2010Prop39
140
1.0
102
RTVSPost2010PropOp39
 70
     1
102
RTVSPost2010Prop40
 90
        0
102
RTVSPost2010PropOp40
 70
     1
102
RTVSPost2010Prop41ColorIndex
 90
       18
102
RTVSPost2010Prop41ColorRGB
 90
        0
102
RTVSPost2010PropOp41
 70
     1
102
RTVSPost2010Prop42
 90
       50
102
RTVSPost2010PropOp42
 70
     1
102
RTVSPost2010Prop43
 90
        3
102
RTVSPost2010PropOp43
 70
     1
102
RTVSPost2010Prop44ColorIndex
 90
        5
102
RTVSPost2010Prop44ColorRGB
 90
      255
102
RTVSPost2010PropOp44
 70
     1
102
RTVSPost2010Prop45
280
     0
102
RTVSPost2010PropOp45
 70
     1
102
RTVSPost2010Prop46
 90
       50
102
RTVSPost2010PropOp46
 70
     1
102
RTVSPost2010Prop47
 90
       50
102
RTVSPost2010PropOp47
 70
     1
102
RTVSPost2010Prop48
 90
       50
102
RTVSPost2010PropOp48
 70
     1
102
RTVSPost2010Prop49
280
     0
102
RTVSPost2010PropOp49
 70
     1
102
RTVSPost2010Prop50
 90
       50
102
RTVSPost2010PropOp50
 70
     1
102
RTVSPost2010Prop51ColorIndex
 90
      256
102
RTVSPost2010Prop51ColorRGB
 90
-16777216
102
RTVSPost2010PropOp51
 70
     0
102
RTVSPost2010Prop52
140
1.0
102
RTVSPost2010PropOp52
 70
     0
102
RTVSPost2010Prop53
 90
        2
102
RTVSPost2010PropOp53
 70
     1
102
RTVSPost2010Prop54
  1
strokes_ogs.tif
102
RTVSPost2010PropOp54
 70
     1
102
RTVSPost2010Prop55
280
     0
102
RTVSPost2010PropOp55
 70
     1
102
RTVSPost2010Prop56
140
1.0
102
RTVSPost2010PropOp56
 70
     1
102
RTVSPost2010Prop57
140
1.0
102
RTVSPost2010PropOp57
 70
     1
  0
XRECORD
  5
3B1
102
{ACAD_REACTORS
330
3B0
102
}
330
3B0
100
AcDbXrecord
280
     1
102
RTVSPropertyOp0
 70
     1
102
RTVSPropertyOp1
 70
     1
102
RTVSPropertyOp2
 70
     1
102
RTVSPropertyOp3
 70
     1
102
RTVSPropertyOp4
 70
     1
102
RTVSPropertyOp5
 70
     1
102
RTVSPropertyOp6
 70
     1
102
RTVSPropertyOp7
 70
     1
102
RTVSPropertyOp8
 70
     1
102
RTVSPropertyOp9
 70
     1
102
RTVSPropertyOp10
 70
     1
102
RTVSPropertyOp11
 70
     1
102
RTVSPropertyOp12
 70
     1
102
RTVSPropertyOp13
 70
     1
102
RTVSPropertyOp14
 70
     1
102
RTVSPropertyOp15
 70
     1
102
RTVSPropertyOp16
 70
     1
102
RTVSPropertyOp17
 70
     1
102
RTVSPropertyOp18
 70
     1
102
RTVSPropertyOp19
 70
     1
102
RTVSPropertyOp20
 70
     1
102
RTVSPropertyOp21
 70
     1
102
RTVSPropertyOp22
 70
     1
102
RTVSPropertyOp23
 70
     1
102
RTVSPropertyOp24
 70
     1
102
RTVSPropertyOp25
 70
     1
102
RTVSPropertyOp26
 70
     1
102
RTVSPropertyOp27
 70
     1
102
RTVSPropertyOp28
 70
     1
102
RTVSPropertyOp29
 70
     1
102
RTVSPropertyOp30
 70
     1
102
RTVSPropertyOp31
 70
     1
102
RTVSPropertyOp32
 70
     1
102
RTVSPropertyOp33
 70
     1
102
RTVSPropertyOp34
 70
     1
102
RTVSPropertyOp35
 70
     1
102
RTVSPropertyOp36
 70
     1
102
RTVSPropertyOp37
 70
     1
102
RTVSPropertyOp38
 70
     1
102
RTVSPropertyOp39
 70
     1
102
RTVSPropertyOp40
 70
     1
102
RTVSPropertyOp41
 70
     1
102
RTVSPropertyOp42
 70
     1
102
RTVSPropertyOp43
 70
     1
102
RTVSPropertyOp44
 70
     1
102
RTVSPropertyOp45
 70
     1
102
RTVSPropertyOp46
 70
     1
102
RTVSPropertyOp47
 70
     1
102
RTVSPropertyOp48
 70
     1
102
RTVSPropertyOp49
 70
     1
102
RTVSPropertyOp50
 70
     1
102
RTVSPropertyOp51
 70
     0
102
RTVSPropertyOp52
 70
     0
102
RTVSPropertyOp53
 70
     1
102
RTVSPropertyOp54
 70
     1
102
RTVSPropertyOp55
 70
     1
102
RTVSPropertyOp56
 70
     1
102
RTVSPropertyOp57
 70
     1
102
RTVSPost2010Prop28
280
     0
102
RTVSPost2010PropOp28
 70
     1
102
RTVSPost2010Prop29
280
     1
102
RTVSPost2010PropOp29
 70
     1
102
RTVSPost2010Prop30
280
     1
102
RTVSPost2010PropOp30
 70
     1
102
RTVSPost2010Prop31
280
     0
102
RTVSPost2010PropOp31
 70
     1
102
RTVSPost2010Prop32
280
     0
102
RTVSPost2010PropOp32
 70
     1
102
RTVSPost2010Prop33
280
     0
102
RTVSPost2010PropOp33
 70
     1
102
RTVSPost2010Prop34
280
     0
102
RTVSPost2010PropOp34
 70
     1
102
RTVSPost2010Prop35
280
     0
102
RTVSPost2010PropOp35
 70
     1
102
RTVSPost2010Prop36
280
     0
102
RTVSPost2010PropOp36
 70
     1
102
RTVSPost2010Prop37
 90
       50
102
RTVSPost2010PropOp37
 70
     1
102
RTVSPost2010Prop38
140
0.0
102
RTVSPost2010PropOp38
 70
     1
102
RTVSPost2010Prop39
140
1.0
102
RTVSPost2010PropOp39
 70
     1
102
RTVSPost2010Prop40
 90
        0
102
RTVSPost2010PropOp40
 70
     1
102
RTVSPost2010Prop41ColorIndex
 90
       18
102
RTVSPost2010Prop41ColorRGB
 90
        0
102
RTVSPost2010PropOp41
 70
     1
102
RTVSPost2010Prop42
 90
       50
102
RTVSPost2010PropOp42
 70
     1
102
RTVSPost2010Prop43
 90
        3
102
RTVSPost2010PropOp43
 70
     1
102
RTVSPost2010Prop44ColorIndex
 90
        5
102
RTVSPost2010Prop44ColorRGB
 90
      255
102
RTVSPost2010PropOp44
 70
     1
102
RTVSPost2010Prop45
280
     0
102
RTVSPost2010PropOp45
 70
     1
102
RTVSPost2010Prop46
 90
       50
102
RTVSPost2010PropOp46
 70
     1
102
RTVSPost2010Prop47
 90
       50
102
RTVSPost2010PropOp47
 70
     1
102
RTVSPost2010Prop48
 90
       50
102
RTVSPost2010PropOp48
 70
     1
102
RTVSPost2010Prop49
280
     0
102
RTVSPost2010PropOp49
 70
     1
102
RTVSPost2010Prop50
 90
       50
102
RTVSPost2010PropOp50
 70
     1
102
RTVSPost2010Prop51ColorIndex
 90
      256
102
RTVSPost2010Prop51ColorRGB
 90
-16777216
102
RTVSPost2010PropOp51
 70
     0
102
RTVSPost2010Prop52
140
1.0
102
RTVSPost2010PropOp52
 70
     0
102
RTVSPost2010Prop53
 90
        2
102
RTVSPost2010PropOp53
 70
     1
102
RTVSPost2010Prop54
  1
strokes_ogs.tif
102
RTVSPost2010PropOp54
 70
     1
102
RTVSPost2010Prop55
280
     0
102
RTVSPost2010PropOp55
 70
     1
102
RTVSPost2010Prop56
140
1.0
102
RTVSPost2010PropOp56
 70
     1
102
RTVSPost2010Prop57
140
1.0
102
RTVSPost2010PropOp57
 70
     1
  0
XRECORD
  5
3B3
102
{ACAD_REACTORS
330
3B2
102
}
330
3B2
100
AcDbXrecord
280
     1
102
RTVSPropertyOp0
 70
     1
102
RTVSPropertyOp1
 70
     1
102
RTVSPropertyOp2
 70
     1
102
RTVSPropertyOp3
 70
     1
102
RTVSPropertyOp4
 70
     1
102
RTVSPropertyOp5
 70
     1
102
RTVSPropertyOp6
 70
     1
102
RTVSPropertyOp7
 70
     1
102
RTVSPropertyOp8
 70
     1
102
RTVSPropertyOp9
 70
     1
102
RTVSPropertyOp10
 70
     1
102
RTVSPropertyOp11
 70
     1
102
RTVSPropertyOp12
 70
     1
102
RTVSPropertyOp13
 70
     1
102
RTVSPropertyOp14
 70
     1
102
RTVSPropertyOp15
 70
     1
102
RTVSPropertyOp16
 70
     1
102
RTVSPropertyOp17
 70
     1
102
RTVSPropertyOp18
 70
     1
102
RTVSPropertyOp19
 70
     1
102
RTVSPropertyOp20
 70
     1
102
RTVSPropertyOp21
 70
     1
102
RTVSPropertyOp22
 70
     1
102
RTVSPropertyOp23
 70
     1
102
RTVSPropertyOp24
 70
     1
102
RTVSPropertyOp25
 70
     1
102
RTVSPropertyOp26
 70
     1
102
RTVSPropertyOp27
 70
     1
102
RTVSPropertyOp28
 70
     1
102
RTVSPropertyOp29
 70
     1
102
RTVSPropertyOp30
 70
     1
102
RTVSPropertyOp31
 70
     1
102
RTVSPropertyOp32
 70
     1
102
RTVSPropertyOp33
 70
     1
102
RTVSPropertyOp34
 70
     1
102
RTVSPropertyOp35
 70
     1
102
RTVSPropertyOp36
 70
     1
102
RTVSPropertyOp37
 70
     1
102
RTVSPropertyOp38
 70
     1
102
RTVSPropertyOp39
 70
     1
102
RTVSPropertyOp40
 70
     1
102
RTVSPropertyOp41
 70
     1
102
RTVSPropertyOp42
 70
     1
102
RTVSPropertyOp43
 70
     1
102
RTVSPropertyOp44
 70
     1
102
RTVSPropertyOp45
 70
     1
102
RTVSPropertyOp46
 70
     1
102
RTVSPropertyOp47
 70
     1
102
RTVSPropertyOp48
 70
     1
102
RTVSPropertyOp49
 70
     1
102
RTVSPropertyOp50
 70
     1
102
RTVSPropertyOp51
 70
     0
102
RTVSPropertyOp52
 70
     0
102
RTVSPropertyOp53
 70
     1
102
RTVSPropertyOp54
 70
     1
102
RTVSPropertyOp55
 70
     1
102
RTVSPropertyOp56
 70
     1
102
RTVSPropertyOp57
 70
     1
102
RTVSPost2010Prop28
280
     0
102
RTVSPost2010PropOp28
 70
     1
102
RTVSPost2010Prop29
280
     1
102
RTVSPost2010PropOp29
 70
     1
102
RTVSPost2010Prop30
280
     1
102
RTVSPost2010PropOp30
 70
     1
102
RTVSPost2010Prop31
280
     0
102
RTVSPost2010PropOp31
 70
     1
102
RTVSPost2010Prop32
280
     0
102
RTVSPost2010PropOp32
 70
     1
102
RTVSPost2010Prop33
280
     0
102
RTVSPost2010PropOp33
 70
     1
102
RTVSPost2010Prop34
280
     0
102
RTVSPost2010PropOp34
 70
     1
102
RTVSPost2010Prop35
280
     0
102
RTVSPost2010PropOp35
 70
     1
102
RTVSPost2010Prop36
280
     0
102
RTVSPost2010PropOp36
 70
     1
102
RTVSPost2010Prop37
 90
       50
102
RTVSPost2010PropOp37
 70
     1
102
RTVSPost2010Prop38
140
0.0
102
RTVSPost2010PropOp38
 70
     1
102
RTVSPost2010Prop39
140
1.0
102
RTVSPost2010PropOp39
 70
     1
102
RTVSPost2010Prop40
 90
        0
102
RTVSPost2010PropOp40
 70
     1
102
RTVSPost2010Prop41ColorIndex
 90
       18
102
RTVSPost2010Prop41ColorRGB
 90
        0
102
RTVSPost2010PropOp41
 70
     1
102
RTVSPost2010Prop42
 90
       50
102
RTVSPost2010PropOp42
 70
     1
102
RTVSPost2010Prop43
 90
        3
102
RTVSPost2010PropOp43
 70
     1
102
RTVSPost2010Prop44ColorIndex
 90
        5
102
RTVSPost2010Prop44ColorRGB
 90
      255
102
RTVSPost2010PropOp44
 70
     1
102
RTVSPost2010Prop45
280
     0
102
RTVSPost2010PropOp45
 70
     1
102
RTVSPost2010Prop46
 90
       50
102
RTVSPost2010PropOp46
 70
     1
102
RTVSPost2010Prop47
 90
       50
102
RTVSPost2010PropOp47
 70
     1
102
RTVSPost2010Prop48
 90
       50
102
RTVSPost2010PropOp48
 70
     1
102
RTVSPost2010Prop49
280
     0
102
RTVSPost2010PropOp49
 70
     1
102
RTVSPost2010Prop50
 90
       50
102
RTVSPost2010PropOp50
 70
     1
102
RTVSPost2010Prop51ColorIndex
 90
      256
102
RTVSPost2010Prop51ColorRGB
 90
-16777216
102
RTVSPost2010PropOp51
 70
     0
102
RTVSPost2010Prop52
140
1.0
102
RTVSPost2010PropOp52
 70
     0
102
RTVSPost2010Prop53
 90
        2
102
RTVSPost2010PropOp53
 70
     1
102
RTVSPost2010Prop54
  1
strokes_ogs.tif
102
RTVSPost2010PropOp54
 70
     1
102
RTVSPost2010Prop55
280
     0
102
RTVSPost2010PropOp55
 70
     1
102
RTVSPost2010Prop56
140
1.0
102
RTVSPost2010PropOp56
 70
     1
102
RTVSPost2010Prop57
140
1.0
102
RTVSPost2010PropOp57
 70
     1
  0
XRECORD
  5
3B9
102
{ACAD_REACTORS
330
3B8
102
}
330
3B8
100
AcDbXrecord
280
     1
102
RTVSPropertyOp0
 70
     1
102
RTVSPropertyOp1
 70
     1
102
RTVSPropertyOp2
 70
     1
102
RTVSPropertyOp3
 70
     1
102
RTVSPropertyOp4
 70
     1
102
RTVSPropertyOp5
 70
     1
102
RTVSPropertyOp6
 70
     1
102
RTVSPropertyOp7
 70
     1
102
RTVSPropertyOp8
 70
     1
102
RTVSPropertyOp9
 70
     1
102
RTVSPropertyOp10
 70
     1
102
RTVSPropertyOp11
 70
     1
102
RTVSPropertyOp12
 70
     1
102
RTVSPropertyOp13
 70
     1
102
RTVSPropertyOp14
 70
     1
102
RTVSPropertyOp15
 70
     1
102
RTVSPropertyOp16
 70
     1
102
RTVSPropertyOp17
 70
     1
102
RTVSPropertyOp18
 70
     1
102
RTVSPropertyOp19
 70
     1
102
RTVSPropertyOp20
 70
     1
102
RTVSPropertyOp21
 70
     1
102
RTVSPropertyOp22
 70
     1
102
RTVSPropertyOp23
 70
     1
102
RTVSPropertyOp24
 70
     1
102
RTVSPropertyOp25
 70
     1
102
RTVSPropertyOp26
 70
     1
102
RTVSPropertyOp27
 70
     1
102
RTVSPropertyOp28
 70
     1
102
RTVSPropertyOp29
 70
     1
102
RTVSPropertyOp30
 70
     1
102
RTVSPropertyOp31
 70
     1
102
RTVSPropertyOp32
 70
     1
102
RTVSPropertyOp33
 70
     1
102
RTVSPropertyOp34
 70
     1
102
RTVSPropertyOp35
 70
     1
102
RTVSPropertyOp36
 70
     1
102
RTVSPropertyOp37
 70
     1
102
RTVSPropertyOp38
 70
     1
102
RTVSPropertyOp39
 70
     1
102
RTVSPropertyOp40
 70
     1
102
RTVSPropertyOp41
 70
     1
102
RTVSPropertyOp42
 70
     1
102
RTVSPropertyOp43
 70
     1
102
RTVSPropertyOp44
 70
     1
102
RTVSPropertyOp45
 70
     1
102
RTVSPropertyOp46
 70
     1
102
RTVSPropertyOp47
 70
     1
102
RTVSPropertyOp48
 70
     1
102
RTVSPropertyOp49
 70
     1
102
RTVSPropertyOp50
 70
     1
102
RTVSPropertyOp51
 70
     0
102
RTVSPropertyOp52
 70
     0
102
RTVSPropertyOp53
 70
     1
102
RTVSPropertyOp54
 70
     1
102
RTVSPropertyOp55
 70
     1
102
RTVSPropertyOp56
 70
     1
102
RTVSPropertyOp57
 70
     1
102
RTVSPost2010Prop28
280
     0
102
RTVSPost2010PropOp28
 70
     1
102
RTVSPost2010Prop29
280
     1
102
RTVSPost2010PropOp29
 70
     1
102
RTVSPost2010Prop30
280
     1
102
RTVSPost2010PropOp30
 70
     1
102
RTVSPost2010Prop31
280
     0
102
RTVSPost2010PropOp31
 70
     1
102
RTVSPost2010Prop32
280
     0
102
RTVSPost2010PropOp32
 70
     1
102
RTVSPost2010Prop33
280
     0
102
RTVSPost2010PropOp33
 70
     1
102
RTVSPost2010Prop34
280
     0
102
RTVSPost2010PropOp34
 70
     1
102
RTVSPost2010Prop35
280
     0
102
RTVSPost2010PropOp35
 70
     1
102
RTVSPost2010Prop36
280
     0
102
RTVSPost2010PropOp36
 70
     1
102
RTVSPost2010Prop37
 90
       50
102
RTVSPost2010PropOp37
 70
     1
102
RTVSPost2010Prop38
140
0.0
102
RTVSPost2010PropOp38
 70
     1
102
RTVSPost2010Prop39
140
1.0
102
RTVSPost2010PropOp39
 70
     1
102
RTVSPost2010Prop40
 90
        0
102
RTVSPost2010PropOp40
 70
     1
102
RTVSPost2010Prop41ColorIndex
 90
       18
102
RTVSPost2010Prop41ColorRGB
 90
        0
102
RTVSPost2010PropOp41
 70
     1
102
RTVSPost2010Prop42
 90
       50
102
RTVSPost2010PropOp42
 70
     1
102
RTVSPost2010Prop43
 90
        3
102
RTVSPost2010PropOp43
 70
     1
102
RTVSPost2010Prop44ColorIndex
 90
        5
102
RTVSPost2010Prop44ColorRGB
 90
      255
102
RTVSPost2010PropOp44
 70
     1
102
RTVSPost2010Prop45
280
     0
102
RTVSPost2010PropOp45
 70
     1
102
RTVSPost2010Prop46
 90
       50
102
RTVSPost2010PropOp46
 70
     1
102
RTVSPost2010Prop47
 90
       50
102
RTVSPost2010PropOp47
 70
     1
102
RTVSPost2010Prop48
 90
       50
102
RTVSPost2010PropOp48
 70
     1
102
RTVSPost2010Prop49
280
     0
102
RTVSPost2010PropOp49
 70
     1
102
RTVSPost2010Prop50
 90
       50
102
RTVSPost2010PropOp50
 70
     1
102
RTVSPost2010Prop51ColorIndex
 90
      256
102
RTVSPost2010Prop51ColorRGB
 90
-16777216
102
RTVSPost2010PropOp51
 70
     0
102
RTVSPost2010Prop52
140
1.0
102
RTVSPost2010PropOp52
 70
     0
102
RTVSPost2010Prop53
 90
        2
102
RTVSPost2010PropOp53
 70
     1
102
RTVSPost2010Prop54
  1
strokes_ogs.tif
102
RTVSPost2010PropOp54
 70
     1
102
RTVSPost2010Prop55
280
     0
102
RTVSPost2010PropOp55
 70
     1
102
RTVSPost2010Prop56
140
1.0
102
RTVSPost2010PropOp56
 70
     1
102
RTVSPost2010Prop57
140
1.0
102
RTVSPost2010PropOp57
 70
     1
  0
XRECORD
  5
3CD
102
{ACAD_REACTORS
330
3CC
102
}
330
3CC
100
AcDbXrecord
280
     1
102
RTVSPropertyOp0
 70
     0
102
RTVSPropertyOp1
 70
     0
102
RTVSPropertyOp2
 70
     0
102
RTVSPropertyOp3
 70
     0
102
RTVSPropertyOp4
 70
     0
102
RTVSPropertyOp5
 70
     0
102
RTVSPropertyOp6
 70
     0
102
RTVSPropertyOp7
 70
     0
102
RTVSPropertyOp8
 70
     0
102
RTVSPropertyOp9
 70
     0
102
RTVSPropertyOp10
 70
     0
102
RTVSPropertyOp11
 70
     0
102
RTVSPropertyOp12
 70
     0
102
RTVSPropertyOp13
 70
     0
102
RTVSPropertyOp14
 70
     2
102
RTVSPropertyOp15
 70
     0
102
RTVSPropertyOp16
 70
     0
102
RTVSPropertyOp17
 70
     0
102
RTVSPropertyOp18
 70
     0
102
RTVSPropertyOp19
 70
     0
102
RTVSPropertyOp20
 70
     0
102
RTVSPropertyOp21
 70
     0
102
RTVSPropertyOp22
 70
     0
102
RTVSPropertyOp23
 70
     0
102
RTVSPropertyOp24
 70
     0
102
RTVSPropertyOp25
 70
     0
102
RTVSPropertyOp26
 70
     0
102
RTVSPropertyOp27
 70
     0
102
RTVSPropertyOp28
 70
     0
102
RTVSPropertyOp29
 70
     0
102
RTVSPropertyOp30
 70
     0
102
RTVSPropertyOp31
 70
     0
102
RTVSPropertyOp32
 70
     0
102
RTVSPropertyOp33
 70
     0
102
RTVSPropertyOp34
 70
     0
102
RTVSPropertyOp35
 70
     0
102
RTVSPropertyOp36
 70
     0
102
RTVSPropertyOp37
 70
     0
102
RTVSPropertyOp38
 70
     0
102
RTVSPropertyOp39
 70
     0
102
RTVSPropertyOp40
 70
     0
102
RTVSPropertyOp41
 70
     0
102
RTVSPropertyOp42
 70
     0
102
RTVSPropertyOp43
 70
     0
102
RTVSPropertyOp44
 70
     0
102
RTVSPropertyOp45
 70
     0
102
RTVSPropertyOp46
 70
     0
102
RTVSPropertyOp47
 70
     0
102
RTVSPropertyOp48
 70
     0
102
RTVSPropertyOp49
 70
     0
102
RTVSPropertyOp50
 70
     0
102
RTVSPropertyOp51
 70
     0
102
RTVSPropertyOp52
 70
     0
102
RTVSPropertyOp53
 70
     0
102
RTVSPropertyOp54
 70
     0
102
RTVSPropertyOp55
 70
     0
102
RTVSPropertyOp56
 70
     0
102
RTVSPropertyOp57
 70
     0
102
RTVSPost2010Prop28
280
     0
102
RTVSPost2010PropOp28
 70
     0
102
RTVSPost2010Prop29
280
     1
102
RTVSPost2010PropOp29
 70
     0
102
RTVSPost2010Prop30
280
     1
102
RTVSPost2010PropOp30
 70
     0
102
RTVSPost2010Prop31
280
     0
102
RTVSPost2010PropOp31
 70
     0
102
RTVSPost2010Prop32
280
     0
102
RTVSPost2010PropOp32
 70
     0
102
RTVSPost2010Prop33
280
     0
102
RTVSPost2010PropOp33
 70
     0
102
RTVSPost2010Prop34
280
     0
102
RTVSPost2010PropOp34
 70
     0
102
RTVSPost2010Prop35
280
     0
102
RTVSPost2010PropOp35
 70
     0
102
RTVSPost2010Prop36
280
     0
102
RTVSPost2010PropOp36
 70
     0
102
RTVSPost2010Prop37
 90
       50
102
RTVSPost2010PropOp37
 70
     0
102
RTVSPost2010Prop38
140
0.0
102
RTVSPost2010PropOp38
 70
     0
102
RTVSPost2010Prop39
140
1.0
102
RTVSPost2010PropOp39
 70
     0
102
RTVSPost2010Prop40
 90
        0
102
RTVSPost2010PropOp40
 70
     0
102
RTVSPost2010Prop41ColorIndex
 90
       18
102
RTVSPost2010Prop41ColorRGB
 90
        0
102
RTVSPost2010PropOp41
 70
     0
102
RTVSPost2010Prop42
 90
       50
102
RTVSPost2010PropOp42
 70
     0
102
RTVSPost2010Prop43
 90
        3
102
RTVSPost2010PropOp43
 70
     0
102
RTVSPost2010Prop44ColorIndex
 90
        5
102
RTVSPost2010Prop44ColorRGB
 90
      255
102
RTVSPost2010PropOp44
 70
     0
102
RTVSPost2010Prop45
280
     0
102
RTVSPost2010PropOp45
 70
     0
102
RTVSPost2010Prop46
 90
       50
102
RTVSPost2010PropOp46
 70
     0
102
RTVSPost2010Prop47
 90
       50
102
RTVSPost2010PropOp47
 70
     0
102
RTVSPost2010Prop48
 90
       50
102
RTVSPost2010PropOp48
 70
     0
102
RTVSPost2010Prop49
280
     0
102
RTVSPost2010PropOp49
 70
     0
102
RTVSPost2010Prop50
 90
       50
102
RTVSPost2010PropOp50
 70
     0
102
RTVSPost2010Prop51ColorIndex
 90
      256
102
RTVSPost2010Prop51ColorRGB
 90
-16777216
102
RTVSPost2010PropOp51
 70
     0
102
RTVSPost2010Prop52
140
1.0
102
RTVSPost2010PropOp52
 70
     0
102
RTVSPost2010Prop53
 90
        2
102
RTVSPost2010PropOp53
 70
     0
102
RTVSPost2010Prop54
  1
strokes_ogs.tif
102
RTVSPost2010PropOp54
 70
     0
102
RTVSPost2010Prop55
280
     0
102
RTVSPost2010PropOp55
 70
     0
102
RTVSPost2010Prop56
140
1.0
102
RTVSPost2010PropOp56
 70
     0
102
RTVSPost2010Prop57
140
1.0
102
RTVSPost2010PropOp57
 70
     0
  0
XRECORD
  5
3C7
102
{ACAD_REACTORS
330
3C6
102
}
330
3C6
100
AcDbXrecord
280
     1
102
RTVSPropertyOp0
 70
     1
102
RTVSPropertyOp1
 70
     1
102
RTVSPropertyOp2
 70
     1
102
RTVSPropertyOp3
 70
     1
102
RTVSPropertyOp4
 70
     1
102
RTVSPropertyOp5
 70
     1
102
RTVSPropertyOp6
 70
     1
102
RTVSPropertyOp7
 70
     1
102
RTVSPropertyOp8
 70
     1
102
RTVSPropertyOp9
 70
     1
102
RTVSPropertyOp10
 70
     1
102
RTVSPropertyOp11
 70
     1
102
RTVSPropertyOp12
 70
     1
102
RTVSPropertyOp13
 70
     1
102
RTVSPropertyOp14
 70
     1
102
RTVSPropertyOp15
 70
     1
102
RTVSPropertyOp16
 70
     1
102
RTVSPropertyOp17
 70
     1
102
RTVSPropertyOp18
 70
     1
102
RTVSPropertyOp19
 70
     1
102
RTVSPropertyOp20
 70
     1
102
RTVSPropertyOp21
 70
     1
102
RTVSPropertyOp22
 70
     1
102
RTVSPropertyOp23
 70
     1
102
RTVSPropertyOp24
 70
     1
102
RTVSPropertyOp25
 70
     1
102
RTVSPropertyOp26
 70
     1
102
RTVSPropertyOp27
 70
     1
102
RTVSPropertyOp28
 70
     1
102
RTVSPropertyOp29
 70
     1
102
RTVSPropertyOp30
 70
     1
102
RTVSPropertyOp31
 70
     1
102
RTVSPropertyOp32
 70
     1
102
RTVSPropertyOp33
 70
     1
102
RTVSPropertyOp34
 70
     1
102
RTVSPropertyOp35
 70
     1
102
RTVSPropertyOp36
 70
     1
102
RTVSPropertyOp37
 70
     1
102
RTVSPropertyOp38
 70
     1
102
RTVSPropertyOp39
 70
     1
102
RTVSPropertyOp40
 70
     1
102
RTVSPropertyOp41
 70
     1
102
RTVSPropertyOp42
 70
     1
102
RTVSPropertyOp43
 70
     1
102
RTVSPropertyOp44
 70
     1
102
RTVSPropertyOp45
 70
     1
102
RTVSPropertyOp46
 70
     1
102
RTVSPropertyOp47
 70
     1
102
RTVSPropertyOp48
 70
     1
102
RTVSPropertyOp49
 70
     1
102
RTVSPropertyOp50
 70
     1
102
RTVSPropertyOp51
 70
     0
102
RTVSPropertyOp52
 70
     0
102
RTVSPropertyOp53
 70
     1
102
RTVSPropertyOp54
 70
     1
102
RTVSPropertyOp55
 70
     1
102
RTVSPropertyOp56
 70
     1
102
RTVSPropertyOp57
 70
     1
102
RTVSPost2010Prop28
280
     0
102
RTVSPost2010PropOp28
 70
     1
102
RTVSPost2010Prop29
280
     1
102
RTVSPost2010PropOp29
 70
     1
102
RTVSPost2010Prop30
280
     1
102
RTVSPost2010PropOp30
 70
     1
102
RTVSPost2010Prop31
280
     0
102
RTVSPost2010PropOp31
 70
     1
102
RTVSPost2010Prop32
280
     0
102
RTVSPost2010PropOp32
 70
     1
102
RTVSPost2010Prop33
280
     0
102
RTVSPost2010PropOp33
 70
     1
102
RTVSPost2010Prop34
280
     0
102
RTVSPost2010PropOp34
 70
     1
102
RTVSPost2010Prop35
280
     0
102
RTVSPost2010PropOp35
 70
     1
102
RTVSPost2010Prop36
280
     0
102
RTVSPost2010PropOp36
 70
     1
102
RTVSPost2010Prop37
 90
       50
102
RTVSPost2010PropOp37
 70
     1
102
RTVSPost2010Prop38
140
0.0
102
RTVSPost2010PropOp38
 70
     1
102
RTVSPost2010Prop39
140
1.0
102
RTVSPost2010PropOp39
 70
     1
102
RTVSPost2010Prop40
 90
        0
102
RTVSPost2010PropOp40
 70
     1
102
RTVSPost2010Prop41ColorIndex
 90
       18
102
RTVSPost2010Prop41ColorRGB
 90
        0
102
RTVSPost2010PropOp41
 70
     1
102
RTVSPost2010Prop42
 90
       50
102
RTVSPost2010PropOp42
 70
     1
102
RTVSPost2010Prop43
 90
        3
102
RTVSPost2010PropOp43
 70
     1
102
RTVSPost2010Prop44ColorIndex
 90
        5
102
RTVSPost2010Prop44ColorRGB
 90
      255
102
RTVSPost2010PropOp44
 70
     1
102
RTVSPost2010Prop45
280
     0
102
RTVSPost2010PropOp45
 70
     1
102
RTVSPost2010Prop46
 90
       50
102
RTVSPost2010PropOp46
 70
     1
102
RTVSPost2010Prop47
 90
       50
102
RTVSPost2010PropOp47
 70
     1
102
RTVSPost2010Prop48
 90
       50
102
RTVSPost2010PropOp48
 70
     1
102
RTVSPost2010Prop49
280
     0
102
RTVSPost2010PropOp49
 70
     1
102
RTVSPost2010Prop50
 90
       50
102
RTVSPost2010PropOp50
 70
     1
102
RTVSPost2010Prop51ColorIndex
 90
      256
102
RTVSPost2010Prop51ColorRGB
 90
-16777216
102
RTVSPost2010PropOp51
 70
     0
102
RTVSPost2010Prop52
140
1.0
102
RTVSPost2010PropOp52
 70
     0
102
RTVSPost2010Prop53
 90
        2
102
RTVSPost2010PropOp53
 70
     1
102
RTVSPost2010Prop54
  1
strokes_ogs.tif
102
RTVSPost2010PropOp54
 70
     1
102
RTVSPost2010Prop55
280
     0
102
RTVSPost2010PropOp55
 70
     1
102
RTVSPost2010Prop56
140
1.0
102
RTVSPost2010PropOp56
 70
     1
102
RTVSPost2010Prop57
140
1.0
102
RTVSPost2010PropOp57
 70
     1
  0
XRECORD
  5
3CF
102
{ACAD_REACTORS
330
3CE
102
}
330
3CE
100
AcDbXrecord
280
     1
102
RTVSPropertyOp0
 70
     0
102
RTVSPropertyOp1
 70
     0
102
RTVSPropertyOp2
 70
     0
102
RTVSPropertyOp3
 70
     0
102
RTVSPropertyOp4
 70
     0
102
RTVSPropertyOp5
 70
     0
102
RTVSPropertyOp6
 70
     0
102
RTVSPropertyOp7
 70
     0
102
RTVSPropertyOp8
 70
     0
102
RTVSPropertyOp9
 70
     0
102
RTVSPropertyOp10
 70
     0
102
RTVSPropertyOp11
 70
     0
102
RTVSPropertyOp12
 70
     0
102
RTVSPropertyOp13
 70
     0
102
RTVSPropertyOp14
 70
     2
102
RTVSPropertyOp15
 70
     0
102
RTVSPropertyOp16
 70
     0
102
RTVSPropertyOp17
 70
     0
102
RTVSPropertyOp18
 70
     0
102
RTVSPropertyOp19
 70
     0
102
RTVSPropertyOp20
 70
     0
102
RTVSPropertyOp21
 70
     0
102
RTVSPropertyOp22
 70
     0
102
RTVSPropertyOp23
 70
     0
102
RTVSPropertyOp24
 70
     0
102
RTVSPropertyOp25
 70
     0
102
RTVSPropertyOp26
 70
     0
102
RTVSPropertyOp27
 70
     0
102
RTVSPropertyOp28
 70
     0
102
RTVSPropertyOp29
 70
     0
102
RTVSPropertyOp30
 70
     0
102
RTVSPropertyOp31
 70
     0
102
RTVSPropertyOp32
 70
     0
102
RTVSPropertyOp33
 70
     0
102
RTVSPropertyOp34
 70
     0
102
RTVSPropertyOp35
 70
     0
102
RTVSPropertyOp36
 70
     0
102
RTVSPropertyOp37
 70
     0
102
RTVSPropertyOp38
 70
     0
102
RTVSPropertyOp39
 70
     0
102
RTVSPropertyOp40
 70
     0
102
RTVSPropertyOp41
 70
     0
102
RTVSPropertyOp42
 70
     0
102
RTVSPropertyOp43
 70
     0
102
RTVSPropertyOp44
 70
     0
102
RTVSPropertyOp45
 70
     0
102
RTVSPropertyOp46
 70
     0
102
RTVSPropertyOp47
 70
     0
102
RTVSPropertyOp48
 70
     0
102
RTVSPropertyOp49
 70
     0
102
RTVSPropertyOp50
 70
     0
102
RTVSPropertyOp51
 70
     0
102
RTVSPropertyOp52
 70
     0
102
RTVSPropertyOp53
 70
     0
102
RTVSPropertyOp54
 70
     0
102
RTVSPropertyOp55
 70
     0
102
RTVSPropertyOp56
 70
     0
102
RTVSPropertyOp57
 70
     0
102
RTVSPost2010Prop28
280
     0
102
RTVSPost2010PropOp28
 70
     0
102
RTVSPost2010Prop29
280
     1
102
RTVSPost2010PropOp29
 70
     0
102
RTVSPost2010Prop30
280
     1
102
RTVSPost2010PropOp30
 70
     0
102
RTVSPost2010Prop31
280
     0
102
RTVSPost2010PropOp31
 70
     0
102
RTVSPost2010Prop32
280
     0
102
RTVSPost2010PropOp32
 70
     0
102
RTVSPost2010Prop33
280
     0
102
RTVSPost2010PropOp33
 70
     0
102
RTVSPost2010Prop34
280
     0
102
RTVSPost2010PropOp34
 70
     0
102
RTVSPost2010Prop35
280
     0
102
RTVSPost2010PropOp35
 70
     0
102
RTVSPost2010Prop36
280
     0
102
RTVSPost2010PropOp36
 70
     0
102
RTVSPost2010Prop37
 90
       50
102
RTVSPost2010PropOp37
 70
     0
102
RTVSPost2010Prop38
140
0.0
102
RTVSPost2010PropOp38
 70
     0
102
RTVSPost2010Prop39
140
1.0
102
RTVSPost2010PropOp39
 70
     0
102
RTVSPost2010Prop40
 90
        0
102
RTVSPost2010PropOp40
 70
     0
102
RTVSPost2010Prop41ColorIndex
 90
       18
102
RTVSPost2010Prop41ColorRGB
 90
        0
102
RTVSPost2010PropOp41
 70
     0
102
RTVSPost2010Prop42
 90
       50
102
RTVSPost2010PropOp42
 70
     0
102
RTVSPost2010Prop43
 90
        3
102
RTVSPost2010PropOp43
 70
     0
102
RTVSPost2010Prop44ColorIndex
 90
        5
102
RTVSPost2010Prop44ColorRGB
 90
      255
102
RTVSPost2010PropOp44
 70
     0
102
RTVSPost2010Prop45
280
     0
102
RTVSPost2010PropOp45
 70
     0
102
RTVSPost2010Prop46
 90
       50
102
RTVSPost2010PropOp46
 70
     0
102
RTVSPost2010Prop47
 90
       50
102
RTVSPost2010PropOp47
 70
     0
102
RTVSPost2010Prop48
 90
       50
102
RTVSPost2010PropOp48
 70
     0
102
RTVSPost2010Prop49
280
     0
102
RTVSPost2010PropOp49
 70
     0
102
RTVSPost2010Prop50
 90
       50
102
RTVSPost2010PropOp50
 70
     0
102
RTVSPost2010Prop51ColorIndex
 90
      256
102
RTVSPost2010Prop51ColorRGB
 90
-16777216
102
RTVSPost2010PropOp51
 70
     0
102
RTVSPost2010Prop52
140
1.0
102
RTVSPost2010PropOp52
 70
     0
102
RTVSPost2010Prop53
 90
        2
102
RTVSPost2010PropOp53
 70
     0
102
RTVSPost2010Prop54
  1
strokes_ogs.tif
102
RTVSPost2010PropOp54
 70
     0
102
RTVSPost2010Prop55
280
     0
102
RTVSPost2010PropOp55
 70
     0
102
RTVSPost2010Prop56
140
1.0
102
RTVSPost2010PropOp56
 70
     0
102
RTVSPost2010Prop57
140
1.0
102
RTVSPost2010PropOp57
 70
     0
  0
XRECORD
  5
3BD
102
{ACAD_REACTORS
330
3BC
102
}
330
3BC
100
AcDbXrecord
280
     1
102
RTVSPropertyOp0
 70
     1
102
RTVSPropertyOp1
 70
     1
102
RTVSPropertyOp2
 70
     1
102
RTVSPropertyOp3
 70
     1
102
RTVSPropertyOp4
 70
     1
102
RTVSPropertyOp5
 70
     1
102
RTVSPropertyOp6
 70
     1
102
RTVSPropertyOp7
 70
     1
102
RTVSPropertyOp8
 70
     1
102
RTVSPropertyOp9
 70
     1
102
RTVSPropertyOp10
 70
     1
102
RTVSPropertyOp11
 70
     1
102
RTVSPropertyOp12
 70
     1
102
RTVSPropertyOp13
 70
     1
102
RTVSPropertyOp14
 70
     1
102
RTVSPropertyOp15
 70
     1
102
RTVSPropertyOp16
 70
     1
102
RTVSPropertyOp17
 70
     1
102
RTVSPropertyOp18
 70
     1
102
RTVSPropertyOp19
 70
     1
102
RTVSPropertyOp20
 70
     1
102
RTVSPropertyOp21
 70
     1
102
RTVSPropertyOp22
 70
     1
102
RTVSPropertyOp23
 70
     1
102
RTVSPropertyOp24
 70
     1
102
RTVSPropertyOp25
 70
     1
102
RTVSPropertyOp26
 70
     1
102
RTVSPropertyOp27
 70
     1
102
RTVSPropertyOp28
 70
     1
102
RTVSPropertyOp29
 70
     1
102
RTVSPropertyOp30
 70
     1
102
RTVSPropertyOp31
 70
     1
102
RTVSPropertyOp32
 70
     1
102
RTVSPropertyOp33
 70
     1
102
RTVSPropertyOp34
 70
     1
102
RTVSPropertyOp35
 70
     1
102
RTVSPropertyOp36
 70
     1
102
RTVSPropertyOp37
 70
     1
102
RTVSPropertyOp38
 70
     1
102
RTVSPropertyOp39
 70
     1
102
RTVSPropertyOp40
 70
     1
102
RTVSPropertyOp41
 70
     1
102
RTVSPropertyOp42
 70
     1
102
RTVSPropertyOp43
 70
     1
102
RTVSPropertyOp44
 70
     1
102
RTVSPropertyOp45
 70
     1
102
RTVSPropertyOp46
 70
     1
102
RTVSPropertyOp47
 70
     1
102
RTVSPropertyOp48
 70
     1
102
RTVSPropertyOp49
 70
     1
102
RTVSPropertyOp50
 70
     1
102
RTVSPropertyOp51
 70
     0
102
RTVSPropertyOp52
 70
     0
102
RTVSPropertyOp53
 70
     1
102
RTVSPropertyOp54
 70
     1
102
RTVSPropertyOp55
 70
     1
102
RTVSPropertyOp56
 70
     1
102
RTVSPropertyOp57
 70
     1
102
RTVSPost2010Prop28
280
     0
102
RTVSPost2010PropOp28
 70
     1
102
RTVSPost2010Prop29
280
     1
102
RTVSPost2010PropOp29
 70
     1
102
RTVSPost2010Prop30
280
     1
102
RTVSPost2010PropOp30
 70
     1
102
RTVSPost2010Prop31
280
     0
102
RTVSPost2010PropOp31
 70
     1
102
RTVSPost2010Prop32
280
     0
102
RTVSPost2010PropOp32
 70
     1
102
RTVSPost2010Prop33
280
     0
102
RTVSPost2010PropOp33
 70
     1
102
RTVSPost2010Prop34
280
     0
102
RTVSPost2010PropOp34
 70
     1
102
RTVSPost2010Prop35
280
     0
102
RTVSPost2010PropOp35
 70
     1
102
RTVSPost2010Prop36
280
     0
102
RTVSPost2010PropOp36
 70
     1
102
RTVSPost2010Prop37
 90
       50
102
RTVSPost2010PropOp37
 70
     1
102
RTVSPost2010Prop38
140
0.0
102
RTVSPost2010PropOp38
 70
     1
102
RTVSPost2010Prop39
140
1.0
102
RTVSPost2010PropOp39
 70
     1
102
RTVSPost2010Prop40
 90
        0
102
RTVSPost2010PropOp40
 70
     1
102
RTVSPost2010Prop41ColorIndex
 90
       18
102
RTVSPost2010Prop41ColorRGB
 90
        0
102
RTVSPost2010PropOp41
 70
     1
102
RTVSPost2010Prop42
 90
       50
102
RTVSPost2010PropOp42
 70
     1
102
RTVSPost2010Prop43
 90
        3
102
RTVSPost2010PropOp43
 70
     1
102
RTVSPost2010Prop44ColorIndex
 90
        5
102
RTVSPost2010Prop44ColorRGB
 90
      255
102
RTVSPost2010PropOp44
 70
     1
102
RTVSPost2010Prop45
280
     0
102
RTVSPost2010PropOp45
 70
     1
102
RTVSPost2010Prop46
 90
       50
102
RTVSPost2010PropOp46
 70
     1
102
RTVSPost2010Prop47
 90
       50
102
RTVSPost2010PropOp47
 70
     1
102
RTVSPost2010Prop48
 90
       50
102
RTVSPost2010PropOp48
 70
     1
102
RTVSPost2010Prop49
280
     0
102
RTVSPost2010PropOp49
 70
     1
102
RTVSPost2010Prop50
 90
       50
102
RTVSPost2010PropOp50
 70
     1
102
RTVSPost2010Prop51ColorIndex
 90
      256
102
RTVSPost2010Prop51ColorRGB
 90
-16777216
102
RTVSPost2010PropOp51
 70
     0
102
RTVSPost2010Prop52
140
1.0
102
RTVSPost2010PropOp52
 70
     0
102
RTVSPost2010Prop53
 90
        2
102
RTVSPost2010PropOp53
 70
     1
102
RTVSPost2010Prop54
  1
strokes_ogs.tif
102
RTVSPost2010PropOp54
 70
     1
102
RTVSPost2010Prop55
280
     0
102
RTVSPost2010PropOp55
 70
     1
102
RTVSPost2010Prop56
140
1.0
102
RTVSPost2010PropOp56
 70
     1
102
RTVSPost2010Prop57
140
1.0
102
RTVSPost2010PropOp57
 70
     1
  0
XRECORD
  5
3DB
102
{ACAD_REACTORS
330
3DA
102
}
330
3DA
100
AcDbXrecord
280
     1
102
RTVSPropertyOp0
 70
     1
102
RTVSPropertyOp1
 70
     1
102
RTVSPropertyOp2
 70
     1
102
RTVSPropertyOp3
 70
     1
102
RTVSPropertyOp4
 70
     1
102
RTVSPropertyOp5
 70
     1
102
RTVSPropertyOp6
 70
     1
102
RTVSPropertyOp7
 70
     1
102
RTVSPropertyOp8
 70
     1
102
RTVSPropertyOp9
 70
     1
102
RTVSPropertyOp10
 70
     1
102
RTVSPropertyOp11
 70
     1
102
RTVSPropertyOp12
 70
     1
102
RTVSPropertyOp13
 70
     1
102
RTVSPropertyOp14
 70
     1
102
RTVSPropertyOp15
 70
     1
102
RTVSPropertyOp16
 70
     1
102
RTVSPropertyOp17
 70
     1
102
RTVSPropertyOp18
 70
     1
102
RTVSPropertyOp19
 70
     1
102
RTVSPropertyOp20
 70
     1
102
RTVSPropertyOp21
 70
     1
102
RTVSPropertyOp22
 70
     1
102
RTVSPropertyOp23
 70
     1
102
RTVSPropertyOp24
 70
     1
102
RTVSPropertyOp25
 70
     1
102
RTVSPropertyOp26
 70
     1
102
RTVSPropertyOp27
 70
     1
102
RTVSPropertyOp28
 70
     1
102
RTVSPropertyOp29
 70
     1
102
RTVSPropertyOp30
 70
     1
102
RTVSPropertyOp31
 70
     1
102
RTVSPropertyOp32
 70
     1
102
RTVSPropertyOp33
 70
     1
102
RTVSPropertyOp34
 70
     1
102
RTVSPropertyOp35
 70
     1
102
RTVSPropertyOp36
 70
     1
102
RTVSPropertyOp37
 70
     1
102
RTVSPropertyOp38
 70
     1
102
RTVSPropertyOp39
 70
     1
102
RTVSPropertyOp40
 70
     1
102
RTVSPropertyOp41
 70
     1
102
RTVSPropertyOp42
 70
     1
102
RTVSPropertyOp43
 70
     1
102
RTVSPropertyOp44
 70
     1
102
RTVSPropertyOp45
 70
     1
102
RTVSPropertyOp46
 70
     1
102
RTVSPropertyOp47
 70
     1
102
RTVSPropertyOp48
 70
     1
102
RTVSPropertyOp49
 70
     1
102
RTVSPropertyOp50
 70
     1
102
RTVSPropertyOp51
 70
     0
102
RTVSPropertyOp52
 70
     0
102
RTVSPropertyOp53
 70
     1
102
RTVSPropertyOp54
 70
     1
102
RTVSPropertyOp55
 70
     1
102
RTVSPropertyOp56
 70
     1
102
RTVSPropertyOp57
 70
     1
102
RTVSPost2010Prop28
280
     0
102
RTVSPost2010PropOp28
 70
     1
102
RTVSPost2010Prop29
280
     1
102
RTVSPost2010PropOp29
 70
     1
102
RTVSPost2010Prop30
280
     1
102
RTVSPost2010PropOp30
 70
     1
102
RTVSPost2010Prop31
280
     0
102
RTVSPost2010PropOp31
 70
     1
102
RTVSPost2010Prop32
280
     0
102
RTVSPost2010PropOp32
 70
     1
102
RTVSPost2010Prop33
280
     0
102
RTVSPost2010PropOp33
 70
     1
102
RTVSPost2010Prop34
280
     0
102
RTVSPost2010PropOp34
 70
     1
102
RTVSPost2010Prop35
280
     0
102
RTVSPost2010PropOp35
 70
     1
102
RTVSPost2010Prop36
280
     0
102
RTVSPost2010PropOp36
 70
     1
102
RTVSPost2010Prop37
 90
       50
102
RTVSPost2010PropOp37
 70
     1
102
RTVSPost2010Prop38
140
0.0
102
RTVSPost2010PropOp38
 70
     1
102
RTVSPost2010Prop39
140
1.0
102
RTVSPost2010PropOp39
 70
     1
102
RTVSPost2010Prop40
 90
        0
102
RTVSPost2010PropOp40
 70
     1
102
RTVSPost2010Prop41ColorIndex
 90
       18
102
RTVSPost2010Prop41ColorRGB
 90
        0
102
RTVSPost2010PropOp41
 70
     1
102
RTVSPost2010Prop42
 90
       50
102
RTVSPost2010PropOp42
 70
     1
102
RTVSPost2010Prop43
 90
        3
102
RTVSPost2010PropOp43
 70
     1
102
RTVSPost2010Prop44ColorIndex
 90
        5
102
RTVSPost2010Prop44ColorRGB
 90
      255
102
RTVSPost2010PropOp44
 70
     1
102
RTVSPost2010Prop45
280
     0
102
RTVSPost2010PropOp45
 70
     1
102
RTVSPost2010Prop46
 90
       50
102
RTVSPost2010PropOp46
 70
     1
102
RTVSPost2010Prop47
 90
       50
102
RTVSPost2010PropOp47
 70
     1
102
RTVSPost2010Prop48
 90
       50
102
RTVSPost2010PropOp48
 70
     1
102
RTVSPost2010Prop49
280
     0
102
RTVSPost2010PropOp49
 70
     1
102
RTVSPost2010Prop50
 90
       50
102
RTVSPost2010PropOp50
 70
     1
102
RTVSPost2010Prop51ColorIndex
 90
      256
102
RTVSPost2010Prop51ColorRGB
 90
-16777216
102
RTVSPost2010PropOp51
 70
     0
102
RTVSPost2010Prop52
140
1.0
102
RTVSPost2010PropOp52
 70
     0
102
RTVSPost2010Prop53
 90
        2
102
RTVSPost2010PropOp53
 70
     1
102
RTVSPost2010Prop54
  1
strokes_ogs.tif
102
RTVSPost2010PropOp54
 70
     1
102
RTVSPost2010Prop55
280
     0
102
RTVSPost2010PropOp55
 70
     1
102
RTVSPost2010Prop56
140
1.0
102
RTVSPost2010PropOp56
 70
     1
102
RTVSPost2010Prop57
140
1.0
102
RTVSPost2010PropOp57
 70
     1
  0
XRECORD
  5
3D9
102
{ACAD_REACTORS
330
3D8
102
}
330
3D8
100
AcDbXrecord
280
     1
102
RTVSPropertyOp0
 70
     1
102
RTVSPropertyOp1
 70
     1
102
RTVSPropertyOp2
 70
     1
102
RTVSPropertyOp3
 70
     1
102
RTVSPropertyOp4
 70
     1
102
RTVSPropertyOp5
 70
     1
102
RTVSPropertyOp6
 70
     1
102
RTVSPropertyOp7
 70
     1
102
RTVSPropertyOp8
 70
     1
102
RTVSPropertyOp9
 70
     1
102
RTVSPropertyOp10
 70
     1
102
RTVSPropertyOp11
 70
     1
102
RTVSPropertyOp12
 70
     1
102
RTVSPropertyOp13
 70
     1
102
RTVSPropertyOp14
 70
     1
102
RTVSPropertyOp15
 70
     1
102
RTVSPropertyOp16
 70
     1
102
RTVSPropertyOp17
 70
     1
102
RTVSPropertyOp18
 70
     1
102
RTVSPropertyOp19
 70
     1
102
RTVSPropertyOp20
 70
     1
102
RTVSPropertyOp21
 70
     1
102
RTVSPropertyOp22
 70
     1
102
RTVSPropertyOp23
 70
     1
102
RTVSPropertyOp24
 70
     1
102
RTVSPropertyOp25
 70
     1
102
RTVSPropertyOp26
 70
     1
102
RTVSPropertyOp27
 70
     1
102
RTVSPropertyOp28
 70
     1
102
RTVSPropertyOp29
 70
     1
102
RTVSPropertyOp30
 70
     1
102
RTVSPropertyOp31
 70
     1
102
RTVSPropertyOp32
 70
     1
102
RTVSPropertyOp33
 70
     1
102
RTVSPropertyOp34
 70
     1
102
RTVSPropertyOp35
 70
     1
102
RTVSPropertyOp36
 70
     1
102
RTVSPropertyOp37
 70
     1
102
RTVSPropertyOp38
 70
     1
102
RTVSPropertyOp39
 70
     1
102
RTVSPropertyOp40
 70
     1
102
RTVSPropertyOp41
 70
     1
102
RTVSPropertyOp42
 70
     1
102
RTVSPropertyOp43
 70
     1
102
RTVSPropertyOp44
 70
     1
102
RTVSPropertyOp45
 70
     1
102
RTVSPropertyOp46
 70
     1
102
RTVSPropertyOp47
 70
     1
102
RTVSPropertyOp48
 70
     1
102
RTVSPropertyOp49
 70
     1
102
RTVSPropertyOp50
 70
     1
102
RTVSPropertyOp51
 70
     0
102
RTVSPropertyOp52
 70
     0
102
RTVSPropertyOp53
 70
     1
102
RTVSPropertyOp54
 70
     1
102
RTVSPropertyOp55
 70
     1
102
RTVSPropertyOp56
 70
     1
102
RTVSPropertyOp57
 70
     1
102
RTVSPost2010Prop28
280
     0
102
RTVSPost2010PropOp28
 70
     1
102
RTVSPost2010Prop29
280
     1
102
RTVSPost2010PropOp29
 70
     1
102
RTVSPost2010Prop30
280
     1
102
RTVSPost2010PropOp30
 70
     1
102
RTVSPost2010Prop31
280
     0
102
RTVSPost2010PropOp31
 70
     1
102
RTVSPost2010Prop32
280
     0
102
RTVSPost2010PropOp32
 70
     1
102
RTVSPost2010Prop33
280
     0
102
RTVSPost2010PropOp33
 70
     1
102
RTVSPost2010Prop34
280
     0
102
RTVSPost2010PropOp34
 70
     1
102
RTVSPost2010Prop35
280
     0
102
RTVSPost2010PropOp35
 70
     1
102
RTVSPost2010Prop36
280
     0
102
RTVSPost2010PropOp36
 70
     1
102
RTVSPost2010Prop37
 90
       50
102
RTVSPost2010PropOp37
 70
     1
102
RTVSPost2010Prop38
140
0.0
102
RTVSPost2010PropOp38
 70
     1
102
RTVSPost2010Prop39
140
1.0
102
RTVSPost2010PropOp39
 70
     1
102
RTVSPost2010Prop40
 90
        0
102
RTVSPost2010PropOp40
 70
     1
102
RTVSPost2010Prop41ColorIndex
 90
       18
102
RTVSPost2010Prop41ColorRGB
 90
        0
102
RTVSPost2010PropOp41
 70
     1
102
RTVSPost2010Prop42
 90
       50
102
RTVSPost2010PropOp42
 70
     1
102
RTVSPost2010Prop43
 90
        3
102
RTVSPost2010PropOp43
 70
     1
102
RTVSPost2010Prop44ColorIndex
 90
        5
102
RTVSPost2010Prop44ColorRGB
 90
      255
102
RTVSPost2010PropOp44
 70
     1
102
RTVSPost2010Prop45
280
     0
102
RTVSPost2010PropOp45
 70
     1
102
RTVSPost2010Prop46
 90
       50
102
RTVSPost2010PropOp46
 70
     1
102
RTVSPost2010Prop47
 90
       50
102
RTVSPost2010PropOp47
 70
     1
102
RTVSPost2010Prop48
 90
       50
102
RTVSPost2010PropOp48
 70
     1
102
RTVSPost2010Prop49
280
     0
102
RTVSPost2010PropOp49
 70
     1
102
RTVSPost2010Prop50
 90
       50
102
RTVSPost2010PropOp50
 70
     1
102
RTVSPost2010Prop51ColorIndex
 90
      256
102
RTVSPost2010Prop51ColorRGB
 90
-16777216
102
RTVSPost2010PropOp51
 70
     0
102
RTVSPost2010Prop52
140
1.0
102
RTVSPost2010PropOp52
 70
     0
102
RTVSPost2010Prop53
 90
        2
102
RTVSPost2010PropOp53
 70
     1
102
RTVSPost2010Prop54
  1
strokes_ogs.tif
102
RTVSPost2010PropOp54
 70
     1
102
RTVSPost2010Prop55
280
     0
102
RTVSPost2010PropOp55
 70
     1
102
RTVSPost2010Prop56
140
1.0
102
RTVSPost2010PropOp56
 70
     1
102
RTVSPost2010Prop57
140
1.0
102
RTVSPost2010PropOp57
 70
     1
  0
XRECORD
  5
3D3
102
{ACAD_REACTORS
330
3D2
102
}
330
3D2
100
AcDbXrecord
280
     1
102
RTVSPropertyOp0
 70
     1
102
RTVSPropertyOp1
 70
     1
102
RTVSPropertyOp2
 70
     1
102
RTVSPropertyOp3
 70
     1
102
RTVSPropertyOp4
 70
     1
102
RTVSPropertyOp5
 70
     1
102
RTVSPropertyOp6
 70
     1
102
RTVSPropertyOp7
 70
     1
102
RTVSPropertyOp8
 70
     1
102
RTVSPropertyOp9
 70
     1
102
RTVSPropertyOp10
 70
     1
102
RTVSPropertyOp11
 70
     1
102
RTVSPropertyOp12
 70
     1
102
RTVSPropertyOp13
 70
     1
102
RTVSPropertyOp14
 70
     1
102
RTVSPropertyOp15
 70
     1
102
RTVSPropertyOp16
 70
     1
102
RTVSPropertyOp17
 70
     1
102
RTVSPropertyOp18
 70
     1
102
RTVSPropertyOp19
 70
     1
102
RTVSPropertyOp20
 70
     1
102
RTVSPropertyOp21
 70
     1
102
RTVSPropertyOp22
 70
     1
102
RTVSPropertyOp23
 70
     1
102
RTVSPropertyOp24
 70
     1
102
RTVSPropertyOp25
 70
     1
102
RTVSPropertyOp26
 70
     1
102
RTVSPropertyOp27
 70
     1
102
RTVSPropertyOp28
 70
     1
102
RTVSPropertyOp29
 70
     1
102
RTVSPropertyOp30
 70
     1
102
RTVSPropertyOp31
 70
     1
102
RTVSPropertyOp32
 70
     1
102
RTVSPropertyOp33
 70
     1
102
RTVSPropertyOp34
 70
     1
102
RTVSPropertyOp35
 70
     1
102
RTVSPropertyOp36
 70
     1
102
RTVSPropertyOp37
 70
     1
102
RTVSPropertyOp38
 70
     1
102
RTVSPropertyOp39
 70
     1
102
RTVSPropertyOp40
 70
     1
102
RTVSPropertyOp41
 70
     1
102
RTVSPropertyOp42
 70
     1
102
RTVSPropertyOp43
 70
     1
102
RTVSPropertyOp44
 70
     1
102
RTVSPropertyOp45
 70
     1
102
RTVSPropertyOp46
 70
     1
102
RTVSPropertyOp47
 70
     1
102
RTVSPropertyOp48
 70
     1
102
RTVSPropertyOp49
 70
     1
102
RTVSPropertyOp50
 70
     1
102
RTVSPropertyOp51
 70
     0
102
RTVSPropertyOp52
 70
     0
102
RTVSPropertyOp53
 70
     1
102
RTVSPropertyOp54
 70
     1
102
RTVSPropertyOp55
 70
     1
102
RTVSPropertyOp56
 70
     1
102
RTVSPropertyOp57
 70
     1
102
RTVSPost2010Prop28
280
     0
102
RTVSPost2010PropOp28
 70
     1
102
RTVSPost2010Prop29
280
     1
102
RTVSPost2010PropOp29
 70
     1
102
RTVSPost2010Prop30
280
     1
102
RTVSPost2010PropOp30
 70
     1
102
RTVSPost2010Prop31
280
     0
102
RTVSPost2010PropOp31
 70
     1
102
RTVSPost2010Prop32
280
     0
102
RTVSPost2010PropOp32
 70
     1
102
RTVSPost2010Prop33
280
     0
102
RTVSPost2010PropOp33
 70
     1
102
RTVSPost2010Prop34
280
     0
102
RTVSPost2010PropOp34
 70
     1
102
RTVSPost2010Prop35
280
     0
102
RTVSPost2010PropOp35
 70
     1
102
RTVSPost2010Prop36
280
     0
102
RTVSPost2010PropOp36
 70
     1
102
RTVSPost2010Prop37
 90
       50
102
RTVSPost2010PropOp37
 70
     1
102
RTVSPost2010Prop38
140
0.0
102
RTVSPost2010PropOp38
 70
     1
102
RTVSPost2010Prop39
140
1.0
102
RTVSPost2010PropOp39
 70
     1
102
RTVSPost2010Prop40
 90
        0
102
RTVSPost2010PropOp40
 70
     1
102
RTVSPost2010Prop41ColorIndex
 90
       18
102
RTVSPost2010Prop41ColorRGB
 90
        0
102
RTVSPost2010PropOp41
 70
     1
102
RTVSPost2010Prop42
 90
       50
102
RTVSPost2010PropOp42
 70
     1
102
RTVSPost2010Prop43
 90
        3
102
RTVSPost2010PropOp43
 70
     1
102
RTVSPost2010Prop44ColorIndex
 90
        5
102
RTVSPost2010Prop44ColorRGB
 90
      255
102
RTVSPost2010PropOp44
 70
     1
102
RTVSPost2010Prop45
280
     0
102
RTVSPost2010PropOp45
 70
     1
102
RTVSPost2010Prop46
 90
       50
102
RTVSPost2010PropOp46
 70
     1
102
RTVSPost2010Prop47
 90
       50
102
RTVSPost2010PropOp47
 70
     1
102
RTVSPost2010Prop48
 90
       50
102
RTVSPost2010PropOp48
 70
     1
102
RTVSPost2010Prop49
280
     0
102
RTVSPost2010PropOp49
 70
     1
102
RTVSPost2010Prop50
 90
       50
102
RTVSPost2010PropOp50
 70
     1
102
RTVSPost2010Prop51ColorIndex
 90
      256
102
RTVSPost2010Prop51ColorRGB
 90
-16777216
102
RTVSPost2010PropOp51
 70
     0
102
RTVSPost2010Prop52
140
1.0
102
RTVSPost2010PropOp52
 70
     0
102
RTVSPost2010Prop53
 90
        2
102
RTVSPost2010PropOp53
 70
     1
102
RTVSPost2010Prop54
  1
strokes_ogs.tif
102
RTVSPost2010PropOp54
 70
     1
102
RTVSPost2010Prop55
280
     0
102
RTVSPost2010PropOp55
 70
     1
102
RTVSPost2010Prop56
140
1.0
102
RTVSPost2010PropOp56
 70
     1
102
RTVSPost2010Prop57
140
1.0
102
RTVSPost2010PropOp57
 70
     1
  0
XRECORD
  5
3D5
102
{ACAD_REACTORS
330
3D4
102
}
330
3D4
100
AcDbXrecord
280
     1
102
RTVSPropertyOp0
 70
     1
102
RTVSPropertyOp1
 70
     1
102
RTVSPropertyOp2
 70
     1
102
RTVSPropertyOp3
 70
     1
102
RTVSPropertyOp4
 70
     1
102
RTVSPropertyOp5
 70
     1
102
RTVSPropertyOp6
 70
     1
102
RTVSPropertyOp7
 70
     1
102
RTVSPropertyOp8
 70
     1
102
RTVSPropertyOp9
 70
     1
102
RTVSPropertyOp10
 70
     1
102
RTVSPropertyOp11
 70
     1
102
RTVSPropertyOp12
 70
     1
102
RTVSPropertyOp13
 70
     1
102
RTVSPropertyOp14
 70
     1
102
RTVSPropertyOp15
 70
     1
102
RTVSPropertyOp16
 70
     1
102
RTVSPropertyOp17
 70
     1
102
RTVSPropertyOp18
 70
     1
102
RTVSPropertyOp19
 70
     1
102
RTVSPropertyOp20
 70
     1
102
RTVSPropertyOp21
 70
     1
102
RTVSPropertyOp22
 70
     1
102
RTVSPropertyOp23
 70
     1
102
RTVSPropertyOp24
 70
     1
102
RTVSPropertyOp25
 70
     1
102
RTVSPropertyOp26
 70
     1
102
RTVSPropertyOp27
 70
     1
102
RTVSPropertyOp28
 70
     1
102
RTVSPropertyOp29
 70
     1
102
RTVSPropertyOp30
 70
     1
102
RTVSPropertyOp31
 70
     1
102
RTVSPropertyOp32
 70
     1
102
RTVSPropertyOp33
 70
     1
102
RTVSPropertyOp34
 70
     1
102
RTVSPropertyOp35
 70
     1
102
RTVSPropertyOp36
 70
     1
102
RTVSPropertyOp37
 70
     1
102
RTVSPropertyOp38
 70
     1
102
RTVSPropertyOp39
 70
     1
102
RTVSPropertyOp40
 70
     1
102
RTVSPropertyOp41
 70
     1
102
RTVSPropertyOp42
 70
     1
102
RTVSPropertyOp43
 70
     1
102
RTVSPropertyOp44
 70
     1
102
RTVSPropertyOp45
 70
     1
102
RTVSPropertyOp46
 70
     1
102
RTVSPropertyOp47
 70
     1
102
RTVSPropertyOp48
 70
     1
102
RTVSPropertyOp49
 70
     1
102
RTVSPropertyOp50
 70
     1
102
RTVSPropertyOp51
 70
     0
102
RTVSPropertyOp52
 70
     0
102
RTVSPropertyOp53
 70
     1
102
RTVSPropertyOp54
 70
     1
102
RTVSPropertyOp55
 70
     1
102
RTVSPropertyOp56
 70
     1
102
RTVSPropertyOp57
 70
     1
102
RTVSPost2010Prop28
280
     0
102
RTVSPost2010PropOp28
 70
     1
102
RTVSPost2010Prop29
280
     1
102
RTVSPost2010PropOp29
 70
     1
102
RTVSPost2010Prop30
280
     1
102
RTVSPost2010PropOp30
 70
     1
102
RTVSPost2010Prop31
280
     0
102
RTVSPost2010PropOp31
 70
     1
102
RTVSPost2010Prop32
280
     0
102
RTVSPost2010PropOp32
 70
     1
102
RTVSPost2010Prop33
280
     0
102
RTVSPost2010PropOp33
 70
     1
102
RTVSPost2010Prop34
280
     0
102
RTVSPost2010PropOp34
 70
     1
102
RTVSPost2010Prop35
280
     0
102
RTVSPost2010PropOp35
 70
     1
102
RTVSPost2010Prop36
280
     0
102
RTVSPost2010PropOp36
 70
     1
102
RTVSPost2010Prop37
 90
       50
102
RTVSPost2010PropOp37
 70
     1
102
RTVSPost2010Prop38
140
0.0
102
RTVSPost2010PropOp38
 70
     1
102
RTVSPost2010Prop39
140
1.0
102
RTVSPost2010PropOp39
 70
     1
102
RTVSPost2010Prop40
 90
        0
102
RTVSPost2010PropOp40
 70
     1
102
RTVSPost2010Prop41ColorIndex
 90
       18
102
RTVSPost2010Prop41ColorRGB
 90
        0
102
RTVSPost2010PropOp41
 70
     1
102
RTVSPost2010Prop42
 90
       50
102
RTVSPost2010PropOp42
 70
     1
102
RTVSPost2010Prop43
 90
        3
102
RTVSPost2010PropOp43
 70
     1
102
RTVSPost2010Prop44ColorIndex
 90
        5
102
RTVSPost2010Prop44ColorRGB
 90
      255
102
RTVSPost2010PropOp44
 70
     1
102
RTVSPost2010Prop45
280
     0
102
RTVSPost2010PropOp45
 70
     1
102
RTVSPost2010Prop46
 90
       50
102
RTVSPost2010PropOp46
 70
     1
102
RTVSPost2010Prop47
 90
       50
102
RTVSPost2010PropOp47
 70
     1
102
RTVSPost2010Prop48
 90
       50
102
RTVSPost2010PropOp48
 70
     1
102
RTVSPost2010Prop49
280
     0
102
RTVSPost2010PropOp49
 70
     1
102
RTVSPost2010Prop50
 90
       50
102
RTVSPost2010PropOp50
 70
     1
102
RTVSPost2010Prop51ColorIndex
 90
      256
102
RTVSPost2010Prop51ColorRGB
 90
-16777216
102
RTVSPost2010PropOp51
 70
     0
102
RTVSPost2010Prop52
140
1.0
102
RTVSPost2010PropOp52
 70
     0
102
RTVSPost2010Prop53
 90
        2
102
RTVSPost2010PropOp53
 70
     1
102
RTVSPost2010Prop54
  1
strokes_ogs.tif
102
RTVSPost2010PropOp54
 70
     1
102
RTVSPost2010Prop55
280
     0
102
RTVSPost2010PropOp55
 70
     1
102
RTVSPost2010Prop56
140
1.0
102
RTVSPost2010PropOp56
 70
     1
102
RTVSPost2010Prop57
140
1.0
102
RTVSPost2010PropOp57
 70
     1
  0
XRECORD
  5
3C5
102
{ACAD_REACTORS
330
3C4
102
}
330
3C4
100
AcDbXrecord
280
     1
102
RTVSPropertyOp0
 70
     1
102
RTVSPropertyOp1
 70
     1
102
RTVSPropertyOp2
 70
     1
102
RTVSPropertyOp3
 70
     1
102
RTVSPropertyOp4
 70
     1
102
RTVSPropertyOp5
 70
     1
102
RTVSPropertyOp6
 70
     1
102
RTVSPropertyOp7
 70
     1
102
RTVSPropertyOp8
 70
     1
102
RTVSPropertyOp9
 70
     1
102
RTVSPropertyOp10
 70
     1
102
RTVSPropertyOp11
 70
     1
102
RTVSPropertyOp12
 70
     1
102
RTVSPropertyOp13
 70
     1
102
RTVSPropertyOp14
 70
     1
102
RTVSPropertyOp15
 70
     1
102
RTVSPropertyOp16
 70
     1
102
RTVSPropertyOp17
 70
     1
102
RTVSPropertyOp18
 70
     1
102
RTVSPropertyOp19
 70
     1
102
RTVSPropertyOp20
 70
     1
102
RTVSPropertyOp21
 70
     1
102
RTVSPropertyOp22
 70
     1
102
RTVSPropertyOp23
 70
     1
102
RTVSPropertyOp24
 70
     1
102
RTVSPropertyOp25
 70
     1
102
RTVSPropertyOp26
 70
     1
102
RTVSPropertyOp27
 70
     1
102
RTVSPropertyOp28
 70
     1
102
RTVSPropertyOp29
 70
     1
102
RTVSPropertyOp30
 70
     1
102
RTVSPropertyOp31
 70
     1
102
RTVSPropertyOp32
 70
     1
102
RTVSPropertyOp33
 70
     1
102
RTVSPropertyOp34
 70
     1
102
RTVSPropertyOp35
 70
     1
102
RTVSPropertyOp36
 70
     1
102
RTVSPropertyOp37
 70
     1
102
RTVSPropertyOp38
 70
     1
102
RTVSPropertyOp39
 70
     1
102
RTVSPropertyOp40
 70
     1
102
RTVSPropertyOp41
 70
     1
102
RTVSPropertyOp42
 70
     1
102
RTVSPropertyOp43
 70
     1
102
RTVSPropertyOp44
 70
     1
102
RTVSPropertyOp45
 70
     1
102
RTVSPropertyOp46
 70
     1
102
RTVSPropertyOp47
 70
     1
102
RTVSPropertyOp48
 70
     1
102
RTVSPropertyOp49
 70
     1
102
RTVSPropertyOp50
 70
     1
102
RTVSPropertyOp51
 70
     0
102
RTVSPropertyOp52
 70
     0
102
RTVSPropertyOp53
 70
     1
102
RTVSPropertyOp54
 70
     1
102
RTVSPropertyOp55
 70
     1
102
RTVSPropertyOp56
 70
     1
102
RTVSPropertyOp57
 70
     1
102
RTVSPost2010Prop28
280
     0
102
RTVSPost2010PropOp28
 70
     1
102
RTVSPost2010Prop29
280
     1
102
RTVSPost2010PropOp29
 70
     1
102
RTVSPost2010Prop30
280
     1
102
RTVSPost2010PropOp30
 70
     1
102
RTVSPost2010Prop31
280
     0
102
RTVSPost2010PropOp31
 70
     1
102
RTVSPost2010Prop32
280
     0
102
RTVSPost2010PropOp32
 70
     1
102
RTVSPost2010Prop33
280
     0
102
RTVSPost2010PropOp33
 70
     1
102
RTVSPost2010Prop34
280
     0
102
RTVSPost2010PropOp34
 70
     1
102
RTVSPost2010Prop35
280
     0
102
RTVSPost2010PropOp35
 70
     1
102
RTVSPost2010Prop36
280
     0
102
RTVSPost2010PropOp36
 70
     1
102
RTVSPost2010Prop37
 90
       50
102
RTVSPost2010PropOp37
 70
     1
102
RTVSPost2010Prop38
140
0.0
102
RTVSPost2010PropOp38
 70
     1
102
RTVSPost2010Prop39
140
1.0
102
RTVSPost2010PropOp39
 70
     1
102
RTVSPost2010Prop40
 90
        0
102
RTVSPost2010PropOp40
 70
     1
102
RTVSPost2010Prop41ColorIndex
 90
       18
102
RTVSPost2010Prop41ColorRGB
 90
        0
102
RTVSPost2010PropOp41
 70
     1
102
RTVSPost2010Prop42
 90
       50
102
RTVSPost2010PropOp42
 70
     1
102
RTVSPost2010Prop43
 90
        3
102
RTVSPost2010PropOp43
 70
     1
102
RTVSPost2010Prop44ColorIndex
 90
        5
102
RTVSPost2010Prop44ColorRGB
 90
      255
102
RTVSPost2010PropOp44
 70
     1
102
RTVSPost2010Prop45
280
     0
102
RTVSPost2010PropOp45
 70
     1
102
RTVSPost2010Prop46
 90
       50
102
RTVSPost2010PropOp46
 70
     1
102
RTVSPost2010Prop47
 90
       50
102
RTVSPost2010PropOp47
 70
     1
102
RTVSPost2010Prop48
 90
       50
102
RTVSPost2010PropOp48
 70
     1
102
RTVSPost2010Prop49
280
     0
102
RTVSPost2010PropOp49
 70
     1
102
RTVSPost2010Prop50
 90
       50
102
RTVSPost2010PropOp50
 70
     1
102
RTVSPost2010Prop51ColorIndex
 90
      256
102
RTVSPost2010Prop51ColorRGB
 90
-16777216
102
RTVSPost2010PropOp51
 70
     0
102
RTVSPost2010Prop52
140
1.0
102
RTVSPost2010PropOp52
 70
     0
102
RTVSPost2010Prop53
 90
        2
102
RTVSPost2010PropOp53
 70
     1
102
RTVSPost2010Prop54
  1
strokes_ogs.tif
102
RTVSPost2010PropOp54
 70
     1
102
RTVSPost2010Prop55
280
     0
102
RTVSPost2010PropOp55
 70
     1
102
RTVSPost2010Prop56
140
1.0
102
RTVSPost2010PropOp56
 70
     1
102
RTVSPost2010Prop57
140
1.0
102
RTVSPost2010PropOp57
 70
     1
  0
XRECORD
  5
3B7
102
{ACAD_REACTORS
330
3B6
102
}
330
3B6
100
AcDbXrecord
280
     1
102
RTVSPropertyOp0
 70
     1
102
RTVSPropertyOp1
 70
     1
102
RTVSPropertyOp2
 70
     1
102
RTVSPropertyOp3
 70
     1
102
RTVSPropertyOp4
 70
     1
102
RTVSPropertyOp5
 70
     1
102
RTVSPropertyOp6
 70
     1
102
RTVSPropertyOp7
 70
     1
102
RTVSPropertyOp8
 70
     1
102
RTVSPropertyOp9
 70
     1
102
RTVSPropertyOp10
 70
     1
102
RTVSPropertyOp11
 70
     1
102
RTVSPropertyOp12
 70
     1
102
RTVSPropertyOp13
 70
     1
102
RTVSPropertyOp14
 70
     1
102
RTVSPropertyOp15
 70
     1
102
RTVSPropertyOp16
 70
     1
102
RTVSPropertyOp17
 70
     1
102
RTVSPropertyOp18
 70
     1
102
RTVSPropertyOp19
 70
     1
102
RTVSPropertyOp20
 70
     1
102
RTVSPropertyOp21
 70
     1
102
RTVSPropertyOp22
 70
     1
102
RTVSPropertyOp23
 70
     1
102
RTVSPropertyOp24
 70
     1
102
RTVSPropertyOp25
 70
     1
102
RTVSPropertyOp26
 70
     1
102
RTVSPropertyOp27
 70
     1
102
RTVSPropertyOp28
 70
     1
102
RTVSPropertyOp29
 70
     1
102
RTVSPropertyOp30
 70
     1
102
RTVSPropertyOp31
 70
     1
102
RTVSPropertyOp32
 70
     1
102
RTVSPropertyOp33
 70
     1
102
RTVSPropertyOp34
 70
     1
102
RTVSPropertyOp35
 70
     1
102
RTVSPropertyOp36
 70
     1
102
RTVSPropertyOp37
 70
     1
102
RTVSPropertyOp38
 70
     1
102
RTVSPropertyOp39
 70
     1
102
RTVSPropertyOp40
 70
     1
102
RTVSPropertyOp41
 70
     1
102
RTVSPropertyOp42
 70
     1
102
RTVSPropertyOp43
 70
     1
102
RTVSPropertyOp44
 70
     1
102
RTVSPropertyOp45
 70
     1
102
RTVSPropertyOp46
 70
     1
102
RTVSPropertyOp47
 70
     1
102
RTVSPropertyOp48
 70
     1
102
RTVSPropertyOp49
 70
     1
102
RTVSPropertyOp50
 70
     1
102
RTVSPropertyOp51
 70
     0
102
RTVSPropertyOp52
 70
     0
102
RTVSPropertyOp53
 70
     1
102
RTVSPropertyOp54
 70
     1
102
RTVSPropertyOp55
 70
     1
102
RTVSPropertyOp56
 70
     1
102
RTVSPropertyOp57
 70
     1
102
RTVSPost2010Prop28
280
     0
102
RTVSPost2010PropOp28
 70
     1
102
RTVSPost2010Prop29
280
     1
102
RTVSPost2010PropOp29
 70
     1
102
RTVSPost2010Prop30
280
     1
102
RTVSPost2010PropOp30
 70
     1
102
RTVSPost2010Prop31
280
     0
102
RTVSPost2010PropOp31
 70
     1
102
RTVSPost2010Prop32
280
     0
102
RTVSPost2010PropOp32
 70
     1
102
RTVSPost2010Prop33
280
     0
102
RTVSPost2010PropOp33
 70
     1
102
RTVSPost2010Prop34
280
     0
102
RTVSPost2010PropOp34
 70
     1
102
RTVSPost2010Prop35
280
     0
102
RTVSPost2010PropOp35
 70
     1
102
RTVSPost2010Prop36
280
     0
102
RTVSPost2010PropOp36
 70
     1
102
RTVSPost2010Prop37
 90
       50
102
RTVSPost2010PropOp37
 70
     1
102
RTVSPost2010Prop38
140
0.0
102
RTVSPost2010PropOp38
 70
     1
102
RTVSPost2010Prop39
140
1.0
102
RTVSPost2010PropOp39
 70
     1
102
RTVSPost2010Prop40
 90
        0
102
RTVSPost2010PropOp40
 70
     1
102
RTVSPost2010Prop41ColorIndex
 90
       18
102
RTVSPost2010Prop41ColorRGB
 90
        0
102
RTVSPost2010PropOp41
 70
     1
102
RTVSPost2010Prop42
 90
       50
102
RTVSPost2010PropOp42
 70
     1
102
RTVSPost2010Prop43
 90
        3
102
RTVSPost2010PropOp43
 70
     1
102
RTVSPost2010Prop44ColorIndex
 90
        5
102
RTVSPost2010Prop44ColorRGB
 90
      255
102
RTVSPost2010PropOp44
 70
     1
102
RTVSPost2010Prop45
280
     0
102
RTVSPost2010PropOp45
 70
     1
102
RTVSPost2010Prop46
 90
       50
102
RTVSPost2010PropOp46
 70
     1
102
RTVSPost2010Prop47
 90
       50
102
RTVSPost2010PropOp47
 70
     1
102
RTVSPost2010Prop48
 90
       50
102
RTVSPost2010PropOp48
 70
     1
102
RTVSPost2010Prop49
280
     0
102
RTVSPost2010PropOp49
 70
     1
102
RTVSPost2010Prop50
 90
       50
102
RTVSPost2010PropOp50
 70
     1
102
RTVSPost2010Prop51ColorIndex
 90
      256
102
RTVSPost2010Prop51ColorRGB
 90
-16777216
102
RTVSPost2010PropOp51
 70
     0
102
RTVSPost2010Prop52
140
1.0
102
RTVSPost2010PropOp52
 70
     0
102
RTVSPost2010Prop53
 90
        2
102
RTVSPost2010PropOp53
 70
     1
102
RTVSPost2010Prop54
  1
strokes_ogs.tif
102
RTVSPost2010PropOp54
 70
     1
102
RTVSPost2010Prop55
280
     0
102
RTVSPost2010PropOp55
 70
     1
102
RTVSPost2010Prop56
140
1.0
102
RTVSPost2010PropOp56
 70
     1
102
RTVSPost2010Prop57
140
1.0
102
RTVSPost2010PropOp57
 70
     1
  0
XRECORD
  5
3D7
102
{ACAD_REACTORS
330
3D6
102
}
330
3D6
100
AcDbXrecord
280
     1
102
RTVSPropertyOp0
 70
     1
102
RTVSPropertyOp1
 70
     1
102
RTVSPropertyOp2
 70
     1
102
RTVSPropertyOp3
 70
     1
102
RTVSPropertyOp4
 70
     1
102
RTVSPropertyOp5
 70
     1
102
RTVSPropertyOp6
 70
     1
102
RTVSPropertyOp7
 70
     1
102
RTVSPropertyOp8
 70
     1
102
RTVSPropertyOp9
 70
     1
102
RTVSPropertyOp10
 70
     1
102
RTVSPropertyOp11
 70
     1
102
RTVSPropertyOp12
 70
     1
102
RTVSPropertyOp13
 70
     1
102
RTVSPropertyOp14
 70
     1
102
RTVSPropertyOp15
 70
     1
102
RTVSPropertyOp16
 70
     1
102
RTVSPropertyOp17
 70
     1
102
RTVSPropertyOp18
 70
     1
102
RTVSPropertyOp19
 70
     1
102
RTVSPropertyOp20
 70
     1
102
RTVSPropertyOp21
 70
     1
102
RTVSPropertyOp22
 70
     1
102
RTVSPropertyOp23
 70
     1
102
RTVSPropertyOp24
 70
     1
102
RTVSPropertyOp25
 70
     1
102
RTVSPropertyOp26
 70
     1
102
RTVSPropertyOp27
 70
     1
102
RTVSPropertyOp28
 70
     1
102
RTVSPropertyOp29
 70
     1
102
RTVSPropertyOp30
 70
     1
102
RTVSPropertyOp31
 70
     1
102
RTVSPropertyOp32
 70
     1
102
RTVSPropertyOp33
 70
     1
102
RTVSPropertyOp34
 70
     1
102
RTVSPropertyOp35
 70
     1
102
RTVSPropertyOp36
 70
     1
102
RTVSPropertyOp37
 70
     1
102
RTVSPropertyOp38
 70
     1
102
RTVSPropertyOp39
 70
     1
102
RTVSPropertyOp40
 70
     1
102
RTVSPropertyOp41
 70
     1
102
RTVSPropertyOp42
 70
     1
102
RTVSPropertyOp43
 70
     1
102
RTVSPropertyOp44
 70
     1
102
RTVSPropertyOp45
 70
     1
102
RTVSPropertyOp46
 70
     1
102
RTVSPropertyOp47
 70
     1
102
RTVSPropertyOp48
 70
     1
102
RTVSPropertyOp49
 70
     1
102
RTVSPropertyOp50
 70
     1
102
RTVSPropertyOp51
 70
     0
102
RTVSPropertyOp52
 70
     0
102
RTVSPropertyOp53
 70
     1
102
RTVSPropertyOp54
 70
     1
102
RTVSPropertyOp55
 70
     1
102
RTVSPropertyOp56
 70
     1
102
RTVSPropertyOp57
 70
     1
102
RTVSPost2010Prop28
280
     0
102
RTVSPost2010PropOp28
 70
     1
102
RTVSPost2010Prop29
280
     1
102
RTVSPost2010PropOp29
 70
     1
102
RTVSPost2010Prop30
280
     1
102
RTVSPost2010PropOp30
 70
     1
102
RTVSPost2010Prop31
280
     0
102
RTVSPost2010PropOp31
 70
     1
102
RTVSPost2010Prop32
280
     0
102
RTVSPost2010PropOp32
 70
     1
102
RTVSPost2010Prop33
280
     0
102
RTVSPost2010PropOp33
 70
     1
102
RTVSPost2010Prop34
280
     0
102
RTVSPost2010PropOp34
 70
     1
102
RTVSPost2010Prop35
280
     0
102
RTVSPost2010PropOp35
 70
     1
102
RTVSPost2010Prop36
280
     0
102
RTVSPost2010PropOp36
 70
     1
102
RTVSPost2010Prop37
 90
       50
102
RTVSPost2010PropOp37
 70
     1
102
RTVSPost2010Prop38
140
0.0
102
RTVSPost2010PropOp38
 70
     1
102
RTVSPost2010Prop39
140
1.0
102
RTVSPost2010PropOp39
 70
     1
102
RTVSPost2010Prop40
 90
        0
102
RTVSPost2010PropOp40
 70
     1
102
RTVSPost2010Prop41ColorIndex
 90
       18
102
RTVSPost2010Prop41ColorRGB
 90
        0
102
RTVSPost2010PropOp41
 70
     1
102
RTVSPost2010Prop42
 90
       50
102
RTVSPost2010PropOp42
 70
     1
102
RTVSPost2010Prop43
 90
        3
102
RTVSPost2010PropOp43
 70
     1
102
RTVSPost2010Prop44ColorIndex
 90
        5
102
RTVSPost2010Prop44ColorRGB
 90
      255
102
RTVSPost2010PropOp44
 70
     1
102
RTVSPost2010Prop45
280
     0
102
RTVSPost2010PropOp45
 70
     1
102
RTVSPost2010Prop46
 90
       50
102
RTVSPost2010PropOp46
 70
     1
102
RTVSPost2010Prop47
 90
       50
102
RTVSPost2010PropOp47
 70
     1
102
RTVSPost2010Prop48
 90
       50
102
RTVSPost2010PropOp48
 70
     1
102
RTVSPost2010Prop49
280
     0
102
RTVSPost2010PropOp49
 70
     1
102
RTVSPost2010Prop50
 90
       50
102
RTVSPost2010PropOp50
 70
     1
102
RTVSPost2010Prop51ColorIndex
 90
      256
102
RTVSPost2010Prop51ColorRGB
 90
-16777216
102
RTVSPost2010PropOp51
 70
     0
102
RTVSPost2010Prop52
140
1.0
102
RTVSPost2010PropOp52
 70
     0
102
RTVSPost2010Prop53
 90
        2
102
RTVSPost2010PropOp53
 70
     1
102
RTVSPost2010Prop54
  1
strokes_ogs.tif
102
RTVSPost2010PropOp54
 70
     1
102
RTVSPost2010Prop55
280
     0
102
RTVSPost2010PropOp55
 70
     1
102
RTVSPost2010Prop56
140
1.0
102
RTVSPost2010PropOp56
 70
     1
102
RTVSPost2010Prop57
140
1.0
102
RTVSPost2010PropOp57
 70
     1
  0
ENDSEC
  0
EOF
