  0
SECTION
  2
HEADER
  9
$ACADVER
  1
AC1018
  9
$ACADMAINTVER
 70
     0
  9
$DWGCODEPAGE
  3
ANSI_932
  9
$INSBASE
 10
0.0
 20
0.0
 30
0.0
  9
$EXTMIN
 10
-1050.0
 20
-742.5
 30
0.0
  9
$EXTMAX
 10
1050.0
 20
742.5
 30
0.0
  9
$LIMMIN
 10
-1050.0
 20
-742.5
  9
$LIMMAX
 10
1050.0
 20
742.5
  9
$ORTHOMODE
 70
     0
  9
$REGENMODE
 70
     1
  9
$FILLMODE
 70
     1
  9
$QTEXTMODE
 70
     0
  9
$MIRRTEXT
 70
     1
  9
$LTSCALE
 40
5.0
  9
$ATTMODE
 70
     1
  9
$TEXTSIZE
 40
2.5
  9
$TRACEWID
 40
1.0
  9
$TEXTSTYLE
  7
Standard
  9
$CLAYER
  8
0
  9
$CELTYPE
  6
ByLayer
  9
$CECOLOR
 62
   256
  9
$CELTSCALE
 40
1.0
  9
$DISPSILH
 70
     0
  9
$DIMSCALE
 40
1.0
  9
$DIMASZ
 40
2.5
  9
$DIMEXO
 40
0.625
  9
$DIMDLI
 40
3.75
  9
$DIMRND
 40
0.0
  9
$DIMDLE
 40
0.0
  9
$DIMEXE
 40
1.25
  9
$DIMTP
 40
0.0
  9
$DIMTM
 40
0.0
  9
$DIMTXT
 40
2.5
  9
$DIMCEN
 40
2.5
  9
$DIMTSZ
 40
0.0
  9
$DIMTOL
 70
     0
  9
$DIMLIM
 70
     0
  9
$DIMTIH
 70
     0
  9
$DIMTOH
 70
     0
  9
$DIMSE1
 70
     0
  9
$DIMSE2
 70
     0
  9
$DIMTAD
 70
     1
  9
$DIMZIN
 70
     8
  9
$DIMBLK
  1

  9
$DIMASO
 70
     1
  9
$DIMSHO
 70
     1
  9
$DIMPOST
  1

  9
$DIMAPOST
  1

  9
$DIMALT
 70
     0
  9
$DIMALTD
 70
     3
  9
$DIMALTF
 40
0.03937007874016
  9
$DIMLFAC
 40
1.0
  9
$DIMTOFL
 70
     1
  9
$DIMTVP
 40
0.0
  9
$DIMTIX
 70
     0
  9
$DIMSOXD
 70
     0
  9
$DIMSAH
 70
     0
  9
$DIMBLK1
  1

  9
$DIMBLK2
  1

  9
$DIMSTYLE
  2
ISO-25
  9
$DIMCLRD
 70
     0
  9
$DIMCLRE
 70
     0
  9
$DIMCLRT
 70
     0
  9
$DIMTFAC
 40
1.0
  9
$DIMGAP
 40
0.625
  9
$DIMJUST
 70
     0
  9
$DIMSD1
 70
     0
  9
$DIMSD2
 70
     0
  9
$DIMTOLJ
 70
     0
  9
$DIMTZIN
 70
     8
  9
$DIMALTZ
 70
     0
  9
$DIMALTTZ
 70
     0
  9
$DIMUPT
 70
     0
  9
$DIMDEC
 70
     2
  9
$DIMTDEC
 70
     2
  9
$DIMALTU
 70
     2
  9
$DIMALTTD
 70
     3
  9
$DIMTXSTY
  7
Standard
  9
$DIMAUNIT
 70
     0
  9
$DIMADEC
 70
     0
  9
$DIMALTRND
 40
0.0
  9
$DIMAZIN
 70
     0
  9
$DIMDSEP
 70
    44
  9
$DIMATFIT
 70
     3
  9
$DIMFRAC
 70
     0
  9
$DIMLDRBLK
  1

  9
$DIMLUNIT
 70
     2
  9
$DIMLWD
 70
    -2
  9
$DIMLWE
 70
    -2
  9
$DIMTMOVE
 70
     0
  9
$LUNITS
 70
     2
  9
$LUPREC
 70
     4
  9
$SKETCHINC
 40
1.0
  9
$FILLETRAD
 40
10.0
  9
$AUNITS
 70
     0
  9
$AUPREC
 70
     0
  9
$MENU
  1
.
  9
$ELEVATION
 40
0.0
  9
$PELEVATION
 40
0.0
  9
$THICKNESS
 40
0.0
  9
$LIMCHECK
 70
     0
  9
$CHAMFERA
 40
0.0
  9
$CHAMFERB
 40
0.0
  9
$CHAMFERC
 40
0.0
  9
$CHAMFERD
 40
0.0
  9
$SKPOLY
 70
     0
  9
$TDCREATE
 40
2459205.621478391
  9
$TDUCREATE
 40
2459205.246478391
  9
$TDUPDATE
 40
2459205.621478518
  9
$TDUUPDATE
 40
2459205.246478518
  9
$TDINDWG
 40
0.0000000116
  9
$TDUSRTIMER
 40
0.0000000116
  9
$USRTIMER
 70
     1
  9
$ANGBASE
 50
0.0
  9
$ANGDIR
 70
     0
  9
$PDMODE
 70
     0
  9
$PDSIZE
 40
0.0
  9
$PLINEWID
 40
0.0
  9
$SPLFRAME
 70
     0
  9
$SPLINETYPE
 70
     6
  9
$SPLINESEGS
 70
     8
  9
$HANDSEED
  5
3CC
  9
$SURFTAB1
 70
     6
  9
$SURFTAB2
 70
     6
  9
$SURFTYPE
 70
     6
  9
$SURFU
 70
     6
  9
$SURFV
 70
     6
  9
$UCSBASE
  2

  9
$UCSNAME
  2

  9
$UCSORG
 10
0.0
 20
0.0
 30
0.0
  9
$UCSXDIR
 10
1.0
 20
0.0
 30
0.0
  9
$UCSYDIR
 10
0.0
 20
1.0
 30
0.0
  9
$UCSORTHOREF
  2

  9
$UCSORTHOVIEW
 70
     0
  9
$UCSORGTOP
 10
0.0
 20
0.0
 30
0.0
  9
$UCSORGBOTTOM
 10
0.0
 20
0.0
 30
0.0
  9
$UCSORGLEFT
 10
0.0
 20
0.0
 30
0.0
  9
$UCSORGRIGHT
 10
0.0
 20
0.0
 30
0.0
  9
$UCSORGFRONT
 10
0.0
 20
0.0
 30
0.0
  9
$UCSORGBACK
 10
0.0
 20
0.0
 30
0.0
  9
$PUCSBASE
  2

  9
$PUCSNAME
  2

  9
$PUCSORG
 10
0.0
 20
0.0
 30
0.0
  9
$PUCSXDIR
 10
1.0
 20
0.0
 30
0.0
  9
$PUCSYDIR
 10
0.0
 20
1.0
 30
0.0
  9
$PUCSORTHOREF
  2

  9
$PUCSORTHOVIEW
 70
     0
  9
$PUCSORGTOP
 10
0.0
 20
0.0
 30
0.0
  9
$PUCSORGBOTTOM
 10
0.0
 20
0.0
 30
0.0
  9
$PUCSORGLEFT
 10
0.0
 20
0.0
 30
0.0
  9
$PUCSORGRIGHT
 10
0.0
 20
0.0
 30
0.0
  9
$PUCSORGFRONT
 10
0.0
 20
0.0
 30
0.0
  9
$PUCSORGBACK
 10
0.0
 20
0.0
 30
0.0
  9
$USERI1
 70
     0
  9
$USERI2
 70
     0
  9
$USERI3
 70
     0
  9
$USERI4
 70
     0
  9
$USERI5
 70
     0
  9
$USERR1
 40
0.0
  9
$USERR2
 40
0.0
  9
$USERR3
 40
0.0
  9
$USERR4
 40
0.0
  9
$USERR5
 40
0.0
  9
$WORLDVIEW
 70
     1
  9
$SHADEDGE
 70
     3
  9
$SHADEDIF
 70
    70
  9
$TILEMODE
 70
     1
  9
$MAXACTVP
 70
    64
  9
$PINSBASE
 10
0.0
 20
0.0
 30
0.0
  9
$PLIMCHECK
 70
     0
  9
$PEXTMIN
 10
1.000000000000000E+20
 20
1.000000000000000E+20
 30
1.000000000000000E+20
  9
$PEXTMAX
 10
-1.000000000000000E+20
 20
-1.000000000000000E+20
 30
-1.000000000000000E+20
  9
$PLIMMIN
 10
0.0
 20
0.0
  9
$PLIMMAX
 10
420.0
 20
297.0
  9
$UNITMODE
 70
     0
  9
$VISRETAIN
 70
     1
  9
$PLINEGEN
 70
     0
  9
$PSLTSCALE
 70
     1
  9
$TREEDEPTH
 70
  3020
  9
$CMLSTYLE
  2
Standard
  9
$CMLJUST
 70
     0
  9
$CMLSCALE
 40
20.0
  9
$PROXYGRAPHICS
 70
     1
  9
$MEASUREMENT
 70
     1
  9
$CELWEIGHT
370
    -1
  9
$ENDCAPS
280
     0
  9
$JOINSTYLE
280
     0
  9
$LWDISPLAY
290
     0
  9
$INSUNITS
 70
     4
  9
$HYPERLINKBASE
  1

  9
$STYLESHEET
  1

  9
$XEDIT
290
     1
  9
$CEPSNTYPE
380
     0
  9
$PSTYLEMODE
290
     1
  9
$FINGERPRINTGUID
  2
{E6C4B9AC-3D5B-4FB6-A5D5-AD4524538D3C}
  9
$VERSIONGUID
  2
{FAEB1C32-E019-11D5-929B-00C0DF256EC4}
  9
$EXTNAMES
290
     1
  9
$PSVPSCALE
 40
0.0
  9
$OLESTARTUP
290
     0
  9
$SORTENTS
280
   127
  9
$INDEXCTL
280
     0
  9
$HIDETEXT
280
     1
  9
$XCLIPFRAME
290
     0
  9
$HALOGAP
280
     0
  9
$OBSCOLOR
 70
   257
  9
$OBSLTYPE
280
     0
  9
$INTERSECTIONDISPLAY
280
     0
  9
$INTERSECTIONCOLOR
 70
   257
  9
$DIMASSOC
280
     2
  9
$PROJECTNAME
  1

  0
ENDSEC
  0
SECTION
  2
CLASSES
  0
CLASS
  1
ACDBDICTIONARYWDFLT
  2
AcDbDictionaryWithDefault
  3
ObjectDBX Classes
 90
        0
 91
        4
280
     0
281
     0
  0
CLASS
  1
VISUALSTYLE
  2
AcDbVisualStyle
  3
ObjectDBX Classes
 90
     4095
 91
        4
280
     0
281
     0
  0
CLASS
  1
MATERIAL
  2
AcDbMaterial
  3
ObjectDBX Classes
 90
     1153
 91
        4
280
     0
281
     0
  0
CLASS
  1
SCALE
  2
AcDbScale
  3
ObjectDBX Classes
 90
     1153
 91
        4
280
     0
281
     0
  0
CLASS
  1
TABLESTYLE
  2
AcDbTableStyle
  3
ObjectDBX Classes
 90
     4095
 91
        4
280
     0
281
     0
  0
CLASS
  1
MLEADERSTYLE
  2
AcDbMLeaderStyle
  3
ACDB_MLEADERSTYLE_CLASS
 90
     4095
 91
        4
280
     0
281
     0
  0
CLASS
  1
SUN
  2
AcDbSun
  3
SCENEOE
 90
     1153
 91
        4
280
     0
281
     0
  0
CLASS
  1
DICTIONARYVAR
  2
AcDbDictionaryVar
  3
ObjectDBX Classes
 90
        0
 91
        4
280
     0
281
     0
  0
CLASS
  1
CELLSTYLEMAP
  2
AcDbCellStyleMap
  3
ObjectDBX Classes
 90
     1152
 91
        4
280
     0
281
     0
  0
ENDSEC
  0
SECTION
  2
TABLES
  0
TABLE
  2
VPORT
  5
8
102
{ACAD_XDICTIONARY
360
383
102
}
330
0
100
AcDbSymbolTable
 70
     1
  0
VPORT
  5
29
330
8
100
AcDbSymbolTableRecord
100
AcDbViewportTableRecord
  2
*Active
 70
     0
 10
0.0
 20
0.0
 11
1.0
 21
1.0
 12
0.0
 22
0.0
 13
0.0
 23
0.0
 14
10.0
 24
10.0
 15
10.0
 25
10.0
 16
0.0
 26
0.0
 36
1.0
 17
0.0
 27
0.0
 37
0.0
 40
1633.5
 41
1.414141414141414
 42
50.0
 43
0.0
 44
0.0
 50
0.0
 51
0.0
 71
     0
 72
 10000
 73
     1
 74
     3
 75
     0
 76
     0
 77
     0
 78
     0
281
     0
 65
     1
110
0.0
120
0.0
130
0.0
111
1.0
121
0.0
131
0.0
112
0.0
122
1.0
132
0.0
 79
     0
146
0.0
  0
ENDTAB
  0
TABLE
  2
LTYPE
  5
5
330
0
100
AcDbSymbolTable
 70
     3
  0
LTYPE
  5
14
330
5
100
AcDbSymbolTableRecord
100
AcDbLinetypeTableRecord
  2
ByBlock
 70
     0
  3

 72
    65
 73
     0
 40
0.0
  0
LTYPE
  5
15
330
5
100
AcDbSymbolTableRecord
100
AcDbLinetypeTableRecord
  2
ByLayer
 70
     0
  3

 72
    65
 73
     0
 40
0.0
  0
LTYPE
  5
16
330
5
100
AcDbSymbolTableRecord
100
AcDbLinetypeTableRecord
  2
Continuous
 70
     0
  3
Solid line
 72
    65
 73
     0
 40
0.0
  0
LTYPE
  5
6F
330
5
100
AcDbSymbolTableRecord
100
AcDbLinetypeTableRecord
  2
JWW_CENTER1
 70
     0
  3
-----  --  ----------  --  -----
 72
    65
 73
     4
 40
6.773333333333333
 49
4.233333333333333
 74
     0
 49
-0.8466666666666667
 74
     0
 49
0.8466666666666667
 74
     0
 49
-0.8466666666666667
 74
     0
  0
LTYPE
  5
70
330
5
100
AcDbSymbolTableRecord
100
AcDbLinetypeTableRecord
  2
JWW_DASHED1
 70
     0
  3
-  --  --  --  --  --  --  --  -
 72
    65
 73
     2
 40
1.693333333333333
 49
0.8466666666666667
 74
     0
 49
-0.8466666666666667
 74
     0
  0
ENDTAB
  0
TABLE
  2
LAYER
  5
2
330
0
100
AcDbSymbolTable
 70
    10
  0
LAYER
  5
10
330
2
100
AcDbSymbolTableRecord
100
AcDbLayerTableRecord
  2
0
 70
     0
 62
     7
  6
Continuous
370
    -3
390
F
  0
LAYER
  5
71
330
2
100
AcDbSymbolTableRecord
100
AcDbLayerTableRecord
  2
F-0ﾚｲﾔ
 70
     0
 62
     7
  6
Continuous
370
    -3
390
F
  0
LAYER
  5
72
330
2
100
AcDbSymbolTableRecord
100
AcDbLayerTableRecord
  2
1-4ﾚｲﾔ
 70
     0
 62
     7
  6
Continuous
370
    -3
390
F
  0
LAYER
  5
73
330
2
100
AcDbSymbolTableRecord
100
AcDbLayerTableRecord
  2
1-1ﾚｲﾔ
 70
     0
 62
     7
  6
Continuous
370
    -3
390
F
  0
LAYER
  5
74
330
2
100
AcDbSymbolTableRecord
100
AcDbLayerTableRecord
  2
1-0ﾚｲﾔ
 70
     0
 62
     7
  6
Continuous
370
    -3
390
F
  0
LAYER
  5
75
330
2
100
AcDbSymbolTableRecord
100
AcDbLayerTableRecord
  2
1-3ﾚｲﾔ
 70
     0
 62
     7
  6
Continuous
370
    -3
390
F
  0
LAYER
  5
76
330
2
100
AcDbSymbolTableRecord
100
AcDbLayerTableRecord
  2
1-2ﾚｲﾔ
 70
     0
 62
     7
  6
Continuous
370
    -3
390
F
  0
LAYER
  5
77
330
2
100
AcDbSymbolTableRecord
100
AcDbLayerTableRecord
  2
1-F
 70
     0
 62
     7
  6
Continuous
370
    -3
390
F
  0
LAYER
  5
78
330
2
100
AcDbSymbolTableRecord
100
AcDbLayerTableRecord
  2
1-E
 70
     0
 62
     7
  6
Continuous
370
    -3
390
F
  0
LAYER
  5
79
330
2
100
AcDbSymbolTableRecord
100
AcDbLayerTableRecord
  2
F-4ﾚｲﾔ
 70
     0
 62
     7
  6
Continuous
370
    -3
390
F
  0
ENDTAB
  0
TABLE
  2
STYLE
  5
3
330
0
100
AcDbSymbolTable
 70
     2
  0
STYLE
  5
11
330
3
100
AcDbSymbolTableRecord
100
AcDbTextStyleTableRecord
  2
Standard
 70
     0
 40
0.0
 41
1.0
 50
0.0
 71
     0
 42
2.5
  3
txt
  4

  0
STYLE
  5
6E
330
3
100
AcDbSymbolTableRecord
100
AcDbTextStyleTableRecord
  2
ＭＳ ゴシック
 70
     0
 40
1.0
 41
1.0
 50
0.0
 71
     0
 42
2.5
  3

  4

1001
ACAD
1000
MS Gothic
1071
    32817
  0
ENDTAB
  0
TABLE
  2
VIEW
  5
6
330
0
100
AcDbSymbolTable
 70
     0
  0
ENDTAB
  0
TABLE
  2
UCS
  5
7
330
0
100
AcDbSymbolTable
 70
     0
  0
ENDTAB
  0
TABLE
  2
APPID
  5
9
330
0
100
AcDbSymbolTable
 70
     2
  0
APPID
  5
12
330
9
100
AcDbSymbolTableRecord
100
AcDbRegAppTableRecord
  2
ACAD
 70
     0
  0
APPID
  5
3C2
330
9
100
AcDbSymbolTableRecord
100
AcDbRegAppTableRecord
  2
ACAD_MLEADERVER
 70
     0
  0
ENDTAB
  0
TABLE
  2
DIMSTYLE
  5
A
330
0
100
AcDbSymbolTable
 70
     1
100
AcDbDimStyleTable
  0
DIMSTYLE
105
27
330
A
100
AcDbSymbolTableRecord
100
AcDbDimStyleTableRecord
  2
ISO-25
 70
     0
 41
2.5
 42
0.625
 43
3.75
 44
1.25
 73
     0
 74
     0
 77
     1
 78
     8
140
2.5
141
2.5
143
0.03937007874016
147
0.625
171
     3
172
     1
178
     0
271
     2
272
     2
274
     3
278
    44
283
     0
284
     8
340
11
  0
ENDTAB
  0
TABLE
  2
BLOCK_RECORD
  5
1
330
0
100
AcDbSymbolTable
 70
     1
  0
BLOCK_RECORD
  5
1F
330
1
100
AcDbSymbolTableRecord
100
AcDbBlockTableRecord
  2
*Model_Space
340
22
  0
BLOCK_RECORD
  5
1B
330
1
100
AcDbSymbolTableRecord
100
AcDbBlockTableRecord
  2
*Paper_Space
340
1E
  0
BLOCK_RECORD
  5
23
330
1
100
AcDbSymbolTableRecord
100
AcDbBlockTableRecord
  2
*Paper_Space0
340
26
  0
ENDTAB
  0
ENDSEC
  0
SECTION
  2
BLOCKS
  0
BLOCK
  5
20
330
1F
100
AcDbEntity
  8
0
100
AcDbBlockBegin
  2
*Model_Space
 70
     0
 10
0.0
 20
0.0
 30
0.0
  3
*Model_Space
  1

  0
ENDBLK
  5
21
330
1F
100
AcDbEntity
  8
0
100
AcDbBlockEnd
  0
BLOCK
  5
1C
330
1B
100
AcDbEntity
 67
     1
  8
0
100
AcDbBlockBegin
  2
*Paper_Space
 70
     0
 10
0.0
 20
0.0
 30
0.0
  3
*Paper_Space
  1

  0
ENDBLK
  5
1D
330
1B
100
AcDbEntity
 67
     1
  8
0
100
AcDbBlockEnd
  0
BLOCK
  5
24
330
23
100
AcDbEntity
  8
0
100
AcDbBlockBegin
  2
*Paper_Space0
 70
     0
 10
0.0
 20
0.0
 30
0.0
  3
*Paper_Space0
  1

  0
ENDBLK
  5
25
330
23
100
AcDbEntity
  8
0
100
AcDbBlockEnd
  0
ENDSEC
  0
SECTION
  2
ENTITIES
  0
LINE
  5
7A
330
1F
100
AcDbEntity
  8
F-0ﾚｲﾔ
  6
Continuous
 62
     7
370
     9
100
AcDbLine
 10
-910.0001567118876
 20
528.4456985061234
 30
0.0
 11
-910.0001567118876
 21
688.4459789379224
 31
0.0
  0
LINE
  5
7B
330
1F
100
AcDbEntity
  8
F-0ﾚｲﾔ
  6
Continuous
 62
     7
370
     9
100
AcDbLine
 10
-450.0001237199112
 20
528.4456985061234
 30
0.0
 11
-450.0001237199112
 21
688.4459789379224
 31
0.0
  0
LINE
  5
7C
330
1F
100
AcDbEntity
  8
F-0ﾚｲﾔ
  6
Continuous
 62
     7
370
     9
100
AcDbLine
 10
-350.0000412399704
 20
528.4456985061234
 30
0.0
 11
-350.0000412399704
 21
688.4459789379224
 31
0.0
  0
LINE
  5
7D
330
1F
100
AcDbEntity
  8
F-0ﾚｲﾔ
  6
Continuous
 62
     7
370
     9
100
AcDbLine
 10
-85.0000329919763
 20
648.4458469700169
 30
0.0
 11
-450.0001237199112
 21
648.4458469700169
 31
0.0
  0
LINE
  5
7E
330
1F
100
AcDbEntity
  8
F-0ﾚｲﾔ
  6
Continuous
 62
     7
370
     9
100
AcDbLine
 10
-85.0000329919763
 20
608.4457150021115
 30
0.0
 11
-450.0001237199112
 21
608.4457150021115
 31
0.0
  0
LINE
  5
7F
330
1F
100
AcDbEntity
  8
F-0ﾚｲﾔ
  6
Continuous
 62
     7
370
     9
100
AcDbLine
 10
-85.0000329919763
 20
568.445830474029
 30
0.0
 11
-450.0001237199112
 21
568.445830474029
 31
0.0
  0
LINE
  5
80
330
1F
100
AcDbEntity
  8
F-0ﾚｲﾔ
  6
Continuous
 62
     7
370
     9
100
AcDbLine
 10
-85.0000329919763
 20
528.4456985061234
 30
0.0
 11
-85.0000329919763
 21
688.4459789379224
 31
0.0
  0
LINE
  5
81
330
1F
100
AcDbEntity
  8
F-0ﾚｲﾔ
  6
Continuous
 62
     7
370
     9
100
AcDbLine
 10
-85.0000329919763
 20
528.4456985061234
 30
0.0
 11
-960.0000742319468
 21
528.4456985061234
 31
0.0
  0
LINE
  5
82
330
1F
100
AcDbEntity
  8
1-4ﾚｲﾔ
  6
Continuous
 62
     7
370
     9
100
AcDbLine
 10
474.0770082216005
 20
1.242741765202737
 30
0.0
 11
514.0768927496833
 21
1.242741765202737
 31
0.0
  0
LINE
  5
83
330
1F
100
AcDbEntity
  8
1-4ﾚｲﾔ
  6
Continuous
 62
     7
370
     9
100
AcDbLine
 10
474.0770082216005
 20
1.242741765202737
 30
0.0
 11
486.4700317382812
 21
2.874359955658861
 31
0.0
  0
LINE
  5
84
330
1F
100
AcDbEntity
  8
1-4ﾚｲﾔ
  6
Continuous
 62
     7
370
     9
100
AcDbLine
 10
474.0770082216005
 20
1.242741765202737
 30
0.0
 11
486.4700317382812
 21
-0.3888764252533861
 31
0.0
  0
LINE
  5
85
330
1F
100
AcDbEntity
  8
1-4ﾚｲﾔ
  6
Continuous
 62
     7
370
     9
100
AcDbLine
 10
514.0768927496833
 20
1.242741765202737
 30
0.0
 11
501.6838692330026
 21
2.874359955658861
 31
0.0
  0
LINE
  5
86
330
1F
100
AcDbEntity
  8
1-4ﾚｲﾔ
  6
Continuous
 62
     7
370
     9
100
AcDbLine
 10
514.0768927496833
 20
1.242741765202737
 30
0.0
 11
501.6838692330026
 21
-0.3888764252533861
 31
0.0
  0
LINE
  5
87
330
1F
100
AcDbEntity
  8
1-4ﾚｲﾔ
  6
Continuous
 62
     7
370
     9
100
AcDbLine
 10
522.0769933752113
 20
1.242741765202737
 30
0.0
 11
514.0770164695948
 21
1.242741765202737
 31
0.0
  0
LINE
  5
88
330
1F
100
AcDbEntity
  8
1-4ﾚｲﾔ
  6
Continuous
 62
     7
370
     9
100
AcDbLine
 10
514.0770164695948
 20
1.242741765202737
 30
0.0
 11
501.6839929529138
 21
2.874359955658861
 31
0.0
  0
LINE
  5
89
330
1F
100
AcDbEntity
  8
1-4ﾚｲﾔ
  6
Continuous
 62
     7
370
     9
100
AcDbLine
 10
514.0770164695948
 20
1.242741765202737
 30
0.0
 11
501.6839929529138
 21
-0.3888764252533861
 31
0.0
  0
LINE
  5
8A
330
1F
100
AcDbEntity
  8
1-4ﾚｲﾔ
  6
Continuous
 62
     7
370
     9
100
AcDbLine
 10
530.0769702808279
 20
1.242741765202737
 30
0.0
 11
542.4699937975086
 21
2.874359955658861
 31
0.0
  0
LINE
  5
8B
330
1F
100
AcDbEntity
  8
1-4ﾚｲﾔ
  6
Continuous
 62
     7
370
     9
100
AcDbLine
 10
530.0769702808279
 20
1.242741765202737
 30
0.0
 11
542.4699937975086
 21
-0.3888764252533861
 31
0.0
  0
LINE
  5
8C
330
1F
100
AcDbEntity
  8
1-4ﾚｲﾔ
  6
Continuous
 62
     7
370
     9
100
AcDbLine
 10
488.9043447133659
 20
29.96629869615717
 30
0.0
 11
506.9623792493667
 21
29.96629869615717
 31
0.0
  0
LINE
  5
8D
330
1F
100
AcDbEntity
  8
1-4ﾚｲﾔ
  6
Continuous
 62
     7
370
     9
100
AcDbLine
 10
506.9623792493667
 20
29.96629869615717
 30
0.0
 11
519.0010689400339
 21
1.242741765202737
 31
0.0
  0
LINE
  5
8E
330
1F
100
AcDbEntity
  8
1-1ﾚｲﾔ
  6
Continuous
 62
     3
370
     9
100
AcDbLine
 10
-402.7028676625844
 20
35.06727063978047
 30
0.0
 11
-352.7027027027026
 21
35.06727063978047
 31
0.0
  0
LINE
  5
8F
330
1F
100
AcDbEntity
  8
1-1ﾚｲﾔ
  6
Continuous
 62
     3
370
     9
100
AcDbLine
 10
-402.7028676625844
 20
45.0668087521116
 30
0.0
 11
-352.7027027027026
 21
45.0668087521116
 31
0.0
  0
LINE
  5
90
330
1F
100
AcDbEntity
  8
1-1ﾚｲﾔ
  6
Continuous
 62
     3
370
     9
100
AcDbLine
 10
-404.2026622875317
 20
36.56725084459467
 30
0.0
 11
-352.7027027027026
 21
36.56725084459467
 31
0.0
  0
LINE
  5
91
330
1F
100
AcDbEntity
  8
1-1ﾚｲﾔ
  6
Continuous
 62
     3
370
     9
100
AcDbLine
 10
-404.2026622875317
 20
43.56732342694258
 30
0.0
 11
-352.7027027027026
 21
43.56732342694258
 31
0.0
  0
LINE
  5
92
330
1F
100
AcDbEntity
  8
1-1ﾚｲﾔ
  6
Continuous
 62
     3
370
     9
100
AcDbLine
 10
-407.7028841585727
 20
30.06750158361484
 30
0.0
 11
-407.7028841585727
 21
-19.93266337626679
 31
0.0
  0
LINE
  5
93
330
1F
100
AcDbEntity
  8
1-1ﾚｲﾔ
  6
Continuous
 62
     3
370
     9
100
AcDbLine
 10
-409.2026169235642
 20
31.56698690878386
 30
0.0
 11
-409.2026169235642
 21
-19.93266337626679
 31
0.0
  0
LINE
  5
94
330
1F
100
AcDbEntity
  8
1-1ﾚｲﾔ
  6
Continuous
 62
     3
370
     9
100
AcDbLine
 10
-417.7024841308594
 20
30.06750158361484
 30
0.0
 11
-417.7024841308594
 21
-19.93266337626679
 31
0.0
  0
LINE
  5
95
330
1F
100
AcDbEntity
  8
1-1ﾚｲﾔ
  6
Continuous
 62
     3
370
     9
100
AcDbLine
 10
-416.2026895059121
 20
31.56698690878386
 30
0.0
 11
-416.2026895059121
 21
-19.93266337626679
 31
0.0
  0
LINE
  5
96
330
1F
100
AcDbEntity
  8
1-1ﾚｲﾔ
  6
JWW_CENTER1
 62
     3
370
     9
100
AcDbLine
 10
-412.7026532147381
 20
180.7877989073057
 30
0.0
 11
-412.7026532147381
 21
-184.4561437658361
 31
0.0
  0
LINE
  5
97
330
1F
100
AcDbEntity
  8
1-1ﾚｲﾔ
  6
JWW_CENTER1
 62
     3
370
     9
100
AcDbLine
 10
-552.5514963510874
 20
40.06703969594597
 30
0.0
 11
-352.7027027027026
 21
40.06703969594597
 31
0.0
  0
LINE
  5
98
330
1F
100
AcDbEntity
  8
1-1ﾚｲﾔ
  6
Continuous
 62
     3
370
     9
100
AcDbLine
 10
-287.7029212745459
 20
50.0670726879224
 30
0.0
 11
-287.7029212745459
 21
131.8810705236487
 31
0.0
  0
LINE
  5
99
330
1F
100
AcDbEntity
  8
1-1ﾚｲﾔ
  6
Continuous
 62
     3
370
     9
100
AcDbLine
 10
-297.7025212468327
 20
50.0670726879224
 30
0.0
 11
-297.7025212468327
 21
135.7831965266048
 31
0.0
  0
LINE
  5
9A
330
1F
100
AcDbEntity
  8
1-1ﾚｲﾔ
  6
Continuous
 62
     3
370
     9
100
AcDbLine
 10
-302.7025377428209
 20
35.06727063978047
 30
0.0
 11
-352.7027027027026
 21
35.06727063978047
 31
0.0
  0
LINE
  5
9B
330
1F
100
AcDbEntity
  8
1-1ﾚｲﾔ
  6
Continuous
 62
     3
370
     9
100
AcDbLine
 10
-302.7025377428209
 20
45.0668087521116
 30
0.0
 11
-352.7027027027026
 21
45.0668087521116
 31
0.0
  0
LINE
  5
9C
330
1F
100
AcDbEntity
  8
1-1ﾚｲﾔ
  6
Continuous
 62
     3
370
     9
100
AcDbLine
 10
-301.2027431178737
 20
36.56725084459467
 30
0.0
 11
-352.7027027027026
 21
36.56725084459467
 31
0.0
  0
LINE
  5
9D
330
1F
100
AcDbEntity
  8
1-1ﾚｲﾔ
  6
Continuous
 62
     3
370
     9
100
AcDbLine
 10
-301.2027431178737
 20
43.56732342694258
 30
0.0
 11
-352.7027027027026
 21
43.56732342694258
 31
0.0
  0
LINE
  5
9E
330
1F
100
AcDbEntity
  8
1-1ﾚｲﾔ
  6
Continuous
 62
     3
370
     9
100
AcDbLine
 10
-297.7025212468327
 20
30.06750158361484
 30
0.0
 11
-297.7025212468327
 21
-19.93266337626679
 31
0.0
  0
LINE
  5
9F
330
1F
100
AcDbEntity
  8
1-1ﾚｲﾔ
  6
Continuous
 62
     3
370
     9
100
AcDbLine
 10
-296.2027884818411
 20
31.56698690878386
 30
0.0
 11
-296.2027884818411
 21
-19.93266337626679
 31
0.0
  0
LINE
  5
A0
330
1F
100
AcDbEntity
  8
1-1ﾚｲﾔ
  6
Continuous
 62
     3
370
     9
100
AcDbLine
 10
-287.7029212745459
 20
30.06750158361484
 30
0.0
 11
-287.7029212745459
 21
-19.93266337626679
 31
0.0
  0
LINE
  5
A1
330
1F
100
AcDbEntity
  8
1-1ﾚｲﾔ
  6
Continuous
 62
     3
370
     9
100
AcDbLine
 10
-289.2027158994932
 20
31.56698690878386
 30
0.0
 11
-289.2027158994932
 21
-19.93266337626679
 31
0.0
  0
LINE
  5
A2
330
1F
100
AcDbEntity
  8
1-1ﾚｲﾔ
  6
JWW_CENTER1
 62
     3
370
     9
100
AcDbLine
 10
-292.7027521906672
 20
180.7877989073057
 30
0.0
 11
-292.7027521906672
 21
-184.4561437658361
 31
0.0
  0
LINE
  5
A3
330
1F
100
AcDbEntity
  8
1-1ﾚｲﾔ
  6
JWW_CENTER1
 62
     3
370
     9
100
AcDbLine
 10
-152.8539709142736
 20
40.06703969594597
 30
0.0
 11
-352.7027027027026
 21
40.06703969594597
 31
0.0
  0
LINE
  5
A4
330
1F
100
AcDbEntity
  8
1-0ﾚｲﾔ
  6
Continuous
 62
     2
370
     9
100
AcDbLine
 10
539.0769752296242
 20
274.0676632442991
 30
0.0
 11
542.0770593591641
 21
272.0676071579392
 31
0.0
  0
LINE
  5
A5
330
1F
100
AcDbEntity
  8
1-0ﾚｲﾔ
  6
Continuous
 62
     2
370
     9
100
AcDbLine
 10
530.6297508445948
 20
153.2910486169764
 30
0.0
 11
531.8659601984797
 21
152.6726965002112
 31
0.0
  0
LINE
  5
A6
330
1F
100
AcDbEntity
  8
1-0ﾚｲﾔ
  6
Continuous
 62
     2
370
     9
100
AcDbLine
 10
540.1970115867823
 20
240.1805320945947
 30
0.0
 11
474.077131941512
 21
244.0675642683699
 31
0.0
  0
LINE
  5
A7
330
1F
100
AcDbEntity
  8
1-0ﾚｲﾔ
  6
Continuous
 62
     2
370
     9
100
AcDbLine
 10
542.0770593591641
 20
238.1841876055744
 30
0.0
 11
542.0770593591641
 21
216.8328527502112
 31
0.0
  0
LINE
  5
A8
330
1F
100
AcDbEntity
  8
1-0ﾚｲﾔ
  6
Continuous
 62
     2
370
     9
100
AcDbLine
 10
542.0770593591641
 20
261.6333172772383
 30
0.0
 11
542.0770593591641
 21
272.0676071579392
 31
0.0
  0
LINE
  5
A9
330
1F
100
AcDbEntity
  8
1-0ﾚｲﾔ
  6
Continuous
 62
     2
370
     9
100
AcDbLine
 10
539.0769752296242
 20
256.6177120724241
 30
0.0
 11
539.0769752296242
 21
283.162561365076
 31
0.0
  0
LINE
  5
AA
330
1F
100
AcDbEntity
  8
1-0ﾚｲﾔ
  6
Continuous
 62
     2
370
     9
100
AcDbLine
 10
536.5267366976352
 20
255.6502223659207
 30
0.0
 11
474.0768845016893
 21
251.067636850718
 31
0.0
  0
LINE
  5
AB
330
1F
100
AcDbEntity
  8
1-0ﾚｲﾔ
  6
Continuous
 62
     2
370
     9
100
AcDbLine
 10
530.9529072529563
 20
213.6767578125
 30
0.0
 11
540.3249379750846
 21
214.8483853726775
 31
0.0
  0
LINE
  5
AC
330
1F
100
AcDbEntity
  8
1-0ﾚｲﾔ
  6
Continuous
 62
     2
370
     9
100
AcDbLine
 10
534.0768350137248
 20
214.0672178526182
 30
0.0
 11
534.0768350137248
 21
206.251583614865
 31
0.0
  0
LINE
  5
AD
330
1F
100
AcDbEntity
  8
1-0ﾚｲﾔ
  6
JWW_CENTER1
 62
     2
370
     9
100
AcDbLine
 10
461.0619209908151
 20
-19.9325396563556
 30
0.0
 11
561.9383116026182
 21
-19.9325396563556
 31
0.0
  0
LINE
  5
AE
330
1F
100
AcDbEntity
  8
1-1ﾚｲﾔ
  6
Continuous
 62
     3
370
     9
100
AcDbLine
 10
474.0768845016893
 20
242.0675081820102
 30
0.0
 11
483.0770131703972
 21
241.067356418919
 31
0.0
  0
LINE
  5
AF
330
1F
100
AcDbEntity
  8
1-1ﾚｲﾔ
  6
Continuous
 62
     3
370
     9
100
AcDbLine
 10
514.0770164695948
 20
175.0674850876267
 30
0.0
 11
522.0769933752113
 21
145.2111486486487
 31
0.0
  0
LINE
  5
B0
330
1F
100
AcDbEntity
  8
1-1ﾚｲﾔ
  6
JWW_CENTER1
 62
     3
370
     9
100
AcDbLine
 10
504.837366052576
 20
40.06728713576862
 30
0.0
 11
547.7822793496623
 21
40.06728713576862
 31
0.0
  0
LINE
  5
B1
330
1F
100
AcDbEntity
  8
1-1ﾚｲﾔ
  6
Continuous
 62
     3
370
     9
100
AcDbLine
 10
483.0770131703972
 20
240.5051731418919
 30
0.0
 11
483.0770131703972
 21
241.067356418919
 31
0.0
  0
LINE
  5
B2
330
1F
100
AcDbEntity
  8
1-1ﾚｲﾔ
  6
Continuous
 62
     3
370
     9
100
AcDbLine
 10
510.057356550887
 20
223.8712785050676
 30
0.0
 11
482.5769372888513
 21
229.3674118454392
 31
0.0
  0
LINE
  5
B3
330
1F
100
AcDbEntity
  8
1-1ﾚｲﾔ
  6
Continuous
 62
     3
370
     9
100
AcDbLine
 10
519.4692250844596
 20
229.1276426573057
 30
0.0
 11
487.0964256492823
 21
235.6021530563767
 31
0.0
  0
LINE
  5
B4
330
1F
100
AcDbEntity
  8
1-1ﾚｲﾔ
  6
Continuous
 62
     3
370
     9
100
AcDbLine
 10
514.8928255648227
 20
43.72048867715378
 30
0.0
 11
517.9984427787165
 21
44.30271457981419
 31
0.0
  0
LINE
  5
B5
330
1F
100
AcDbEntity
  8
1-1ﾚｲﾔ
  6
Continuous
 62
     3
370
     9
100
AcDbLine
 10
514.8928255648227
 20
36.41433303420612
 30
0.0
 11
517.9984427787165
 21
35.83210713154571
 31
0.0
  0
LINE
  5
B6
330
1F
100
AcDbEntity
  8
1-1ﾚｲﾔ
  6
Continuous
 62
     3
370
     9
100
AcDbLine
 10
529.293946962099
 20
213.2415111644849
 30
0.0
 11
521.8601123706717
 21
214.893419420397
 31
0.0
  0
LINE
  5
B7
330
1F
100
AcDbEntity
  8
1-1ﾚｲﾔ
  6
Continuous
 62
     3
370
     9
100
AcDbLine
 10
530.0769702808279
 20
207.3695167335305
 30
0.0
 11
530.0769702808279
 21
212.2651136243667
 31
0.0
  0
LINE
  5
B8
330
1F
100
AcDbEntity
  8
1-0ﾚｲﾔ
  6
JWW_DASHED1
 62
     2
370
     9
100
AcDbLine
 10
542.0770593591641
 20
216.8573492926521
 30
0.0
 11
542.0770593591641
 21
-19.9325396563556
 31
0.0
  0
LINE
  5
B9
330
1F
100
AcDbEntity
  8
1-1ﾚｲﾔ
  6
Continuous
 62
     3
370
     9
100
AcDbLine
 10
522.0769933752113
 20
49.21686945734805
 30
0.0
 11
522.0769933752113
 21
145.2111486486487
 31
0.0
  0
LINE
  5
BA
330
1F
100
AcDbEntity
  8
1-0ﾚｲﾔ
  6
Continuous
 62
     2
370
     9
100
AcDbLine
 10
539.0769752296242
 20
-313.9326188370989
 30
0.0
 11
542.0770593591641
 21
-311.932562750739
 31
0.0
  0
LINE
  5
BB
330
1F
100
AcDbEntity
  8
1-0ﾚｲﾔ
  6
Continuous
 62
     2
370
     9
100
AcDbLine
 10
539.9775324641047
 20
-324.022596204603
 30
0.0
 11
549.0768845016894
 21
-324.9326798722551
 31
0.0
  0
LINE
  5
BC
330
1F
100
AcDbEntity
  8
1-0ﾚｲﾔ
  6
Continuous
 62
     2
370
     9
100
AcDbLine
 10
530.6297508445948
 20
-193.1560042097762
 30
0.0
 11
531.8659601984797
 21
-192.5378995328336
 31
0.0
  0
LINE
  5
BD
330
1F
100
AcDbEntity
  8
1-0ﾚｲﾔ
  6
Continuous
 62
     2
370
     9
100
AcDbLine
 10
540.1970115867823
 20
-280.0454876873944
 30
0.0
 11
474.0768845016893
 21
-283.9325198611697
 31
0.0
  0
LINE
  5
BE
330
1F
100
AcDbEntity
  8
1-0ﾚｲﾔ
  6
Continuous
 62
     2
370
     9
100
AcDbLine
 10
542.0770593591641
 20
-278.0491431983742
 30
0.0
 11
542.0770593591641
 21
-256.6979320629223
 31
0.0
  0
LINE
  5
BF
330
1F
100
AcDbEntity
  8
1-0ﾚｲﾔ
  6
Continuous
 62
     2
370
     9
100
AcDbLine
 10
542.0770593591641
 20
-301.4983965899493
 30
0.0
 11
542.0770593591641
 21
-311.932562750739
 31
0.0
  0
LINE
  5
C0
330
1F
100
AcDbEntity
  8
1-0ﾚｲﾔ
  6
Continuous
 62
     2
370
     9
100
AcDbLine
 10
536.5267366976352
 20
-295.5153016786317
 30
0.0
 11
474.0768845016893
 21
-290.9325924435177
 31
0.0
  0
LINE
  5
C1
330
1F
100
AcDbEntity
  8
1-0ﾚｲﾔ
  6
Continuous
 62
     2
370
     9
100
AcDbLine
 10
530.9529072529563
 20
-253.5418371252111
 30
0.0
 11
540.3249379750846
 21
-254.7133409654771
 31
0.0
  0
LINE
  5
C2
330
1F
100
AcDbEntity
  8
1-0ﾚｲﾔ
  6
Continuous
 62
     2
370
     9
100
AcDbLine
 10
549.0768845016894
 20
-244.9324159364442
 30
0.0
 11
530.998436180321
 21
-246.3596488334037
 31
0.0
  0
LINE
  5
C3
330
1F
100
AcDbEntity
  8
1-0ﾚｲﾔ
  6
Continuous
 62
     2
370
     9
100
AcDbLine
 10
534.0768350137248
 20
-253.9322971653294
 30
0.0
 11
534.0768350137248
 21
-246.116662927576
 31
0.0
  0
LINE
  5
C4
330
1F
100
AcDbEntity
  8
1-1ﾚｲﾔ
  6
Continuous
 62
     3
370
     9
100
AcDbLine
 10
474.0768845016893
 20
-281.9325874947213
 30
0.0
 11
483.0770131703972
 21
-280.93243573163
 31
0.0
  0
LINE
  5
C5
330
1F
100
AcDbEntity
  8
1-1ﾚｲﾔ
  6
Continuous
 62
     3
370
     9
100
AcDbLine
 10
514.0770164695948
 20
-214.9324406804265
 30
0.0
 11
522.0769933752113
 21
-185.0761042414484
 31
0.0
  0
LINE
  5
C6
330
1F
100
AcDbEntity
  8
1-1ﾚｲﾔ
  6
JWW_CENTER1
 62
     3
370
     9
100
AcDbLine
 10
504.837366052576
 20
-79.93249016839101
 30
0.0
 11
547.7822793496623
 21
-79.93249016839101
 31
0.0
  0
LINE
  5
C7
330
1F
100
AcDbEntity
  8
1-1ﾚｲﾔ
  6
Continuous
 62
     3
370
     9
100
AcDbLine
 10
483.0770131703972
 20
-280.370252454603
 30
0.0
 11
483.0770131703972
 21
-280.93243573163
 31
0.0
  0
LINE
  5
C8
330
1F
100
AcDbEntity
  8
1-1ﾚｲﾔ
  6
Continuous
 62
     3
370
     9
100
AcDbLine
 10
519.4692250844596
 20
-268.9927219700169
 30
0.0
 11
487.0964256492823
 21
-275.4672323690878
 31
0.0
  0
LINE
  5
C9
330
1F
100
AcDbEntity
  8
1-1ﾚｲﾔ
  6
Continuous
 62
     3
370
     9
100
AcDbLine
 10
514.8928255648227
 20
-83.58544426995351
 30
0.0
 11
517.9984427787165
 21
-84.16767017261392
 31
0.0
  0
LINE
  5
CA
330
1F
100
AcDbEntity
  8
1-1ﾚｲﾔ
  6
Continuous
 62
     3
370
     9
100
AcDbLine
 10
514.8928255648227
 20
-76.27941234691718
 30
0.0
 11
517.9984427787165
 21
-75.69718644425677
 31
0.0
  0
LINE
  5
CB
330
1F
100
AcDbEntity
  8
1-1ﾚｲﾔ
  6
Continuous
 62
     3
370
     9
100
AcDbLine
 10
529.293946962099
 20
-253.1064667572846
 30
0.0
 11
521.8601123706717
 21
-254.7583750131967
 31
0.0
  0
LINE
  5
CC
330
1F
100
AcDbEntity
  8
1-1ﾚｲﾔ
  6
Continuous
 62
     3
370
     9
100
AcDbLine
 10
530.0769702808279
 20
-247.2345960462415
 30
0.0
 11
530.0769702808279
 21
-252.1301929370777
 31
0.0
  0
LINE
  5
CD
330
1F
100
AcDbEntity
  8
1-0ﾚｲﾔ
  6
JWW_DASHED1
 62
     2
370
     9
100
AcDbLine
 10
542.0770593591641
 20
-256.7223048854518
 30
0.0
 11
542.0770593591641
 21
-19.9325396563556
 31
0.0
  0
LINE
  5
CE
330
1F
100
AcDbEntity
  8
1-1ﾚｲﾔ
  6
Continuous
 62
     3
370
     9
100
AcDbLine
 10
522.0769933752113
 20
-89.08207248997044
 30
0.0
 11
522.0769933752113
 21
-185.0761042414484
 31
0.0
  0
LINE
  5
CF
330
1F
100
AcDbEntity
  8
1-0ﾚｲﾔ
  6
Continuous
 62
     2
370
     9
100
AcDbLine
 10
542.0770593591641
 20
-23.52858259871198
 30
0.0
 11
542.0768119193415
 21
-16.33637299408775
 31
0.0
  0
LINE
  5
D0
330
1F
100
AcDbEntity
  8
1-0ﾚｲﾔ
  6
Continuous
 62
     2
370
     9
100
AcDbLine
 10
474.0768845016893
 20
251.067636850718
 30
0.0
 11
474.0768845016893
 21
-290.9325924435177
 31
0.0
  0
LINE
  5
D1
330
1F
100
AcDbEntity
  8
1-0ﾚｲﾔ
  6
Continuous
 62
     2
370
     9
100
AcDbLine
 10
549.0768845016894
 20
285.067600559544
 30
0.0
 11
549.0768845016894
 21
-324.9326798722551
 31
0.0
  0
LINE
  5
D2
330
1F
100
AcDbEntity
  8
1-1ﾚｲﾔ
  6
Continuous
 62
     3
370
     9
100
AcDbLine
 10
474.0768845016893
 20
242.0675081820102
 30
0.0
 11
474.0768845016893
 21
-281.9325874947213
 31
0.0
  0
LINE
  5
D3
330
1F
100
AcDbEntity
  8
1-1ﾚｲﾔ
  6
Continuous
 62
     3
370
     9
100
AcDbLine
 10
522.0769933752113
 20
30.91795225401185
 30
0.0
 11
522.0769933752113
 21
-70.78290784681158
 31
0.0
  0
LINE
  5
D4
330
1F
100
AcDbEntity
  8
1-1ﾚｲﾔ
  6
Continuous
 62
     3
370
     9
100
AcDbLine
 10
-296.2027884818411
 20
48.56709248310821
 30
0.0
 11
-296.2027884818411
 21
166.7025344436233
 31
0.0
  0
LINE
  5
D5
330
1F
100
AcDbEntity
  8
1-1ﾚｲﾔ
  6
Continuous
 62
     3
370
     9
100
AcDbLine
 10
-289.2027158994932
 20
48.56709248310821
 30
0.0
 11
-289.2027158994932
 21
164.4384600665119
 31
0.0
  0
LINE
  5
D6
330
1F
100
AcDbEntity
  8
1-1ﾚｲﾔ
  6
Continuous
 62
     3
370
     9
100
AcDbLine
 10
-416.2026895059121
 20
48.56709248310821
 30
0.0
 11
-416.2026895059121
 21
164.4384600665119
 31
0.0
  0
LINE
  5
D7
330
1F
100
AcDbEntity
  8
1-1ﾚｲﾔ
  6
Continuous
 62
     3
370
     9
100
AcDbLine
 10
-409.2026169235642
 20
48.56709248310821
 30
0.0
 11
-409.2026169235642
 21
166.7025344436233
 31
0.0
  0
LINE
  5
D8
330
1F
100
AcDbEntity
  8
1-1ﾚｲﾔ
  6
Continuous
 62
     3
370
     9
100
AcDbLine
 10
-421.2027060019003
 20
43.56732342694258
 30
0.0
 11
-537.0740117253483
 21
43.56732342694258
 31
0.0
  0
LINE
  5
D9
330
1F
100
AcDbEntity
  8
1-1ﾚｲﾔ
  6
Continuous
 62
     3
370
     9
100
AcDbLine
 10
-421.2027060019003
 20
36.56725084459467
 30
0.0
 11
-539.3380861024598
 21
36.56725084459467
 31
0.0
  0
LINE
  5
DA
330
1F
100
AcDbEntity
  8
1-1ﾚｲﾔ
  6
Continuous
 62
     3
370
     9
100
AcDbLine
 10
-284.2026994035051
 20
43.56732342694258
 30
0.0
 11
-168.3314555400126
 21
43.56732342694258
 31
0.0
  0
LINE
  5
DB
330
1F
100
AcDbEntity
  8
1-1ﾚｲﾔ
  6
Continuous
 62
     3
370
     9
100
AcDbLine
 10
-284.2026994035051
 20
36.56725084459467
 30
0.0
 11
-166.0673811629012
 21
36.56725084459467
 31
0.0
  0
LINE
  5
DC
330
1F
100
AcDbEntity
  8
1-1ﾚｲﾔ
  6
Continuous
 62
     3
370
     9
100
AcDbLine
 10
-282.7029047785578
 20
45.0668087521116
 30
0.0
 11
-200.8889688027871
 21
45.0668087521116
 31
0.0
  0
LINE
  5
DD
330
1F
100
AcDbEntity
  8
1-1ﾚｲﾔ
  6
Continuous
 62
     3
370
     9
100
AcDbLine
 10
-282.7029047785578
 20
35.06727063978047
 30
0.0
 11
-196.9869665197423
 21
35.06727063978047
 31
0.0
  0
LINE
  5
DE
330
1F
100
AcDbEntity
  8
1-1ﾚｲﾔ
  6
Continuous
 62
     3
370
     9
100
AcDbLine
 10
-407.7028841585727
 20
50.0670726879224
 30
0.0
 11
-407.7028841585727
 21
135.7831965266048
 31
0.0
  0
LINE
  5
DF
330
1F
100
AcDbEntity
  8
1-1ﾚｲﾔ
  6
Continuous
 62
     3
370
     9
100
AcDbLine
 10
-417.7024841308594
 20
50.0670726879224
 30
0.0
 11
-417.7024841308594
 21
131.8810705236487
 31
0.0
  0
LINE
  5
E0
330
1F
100
AcDbEntity
  8
1-1ﾚｲﾔ
  6
Continuous
 62
     3
370
     9
100
AcDbLine
 10
-422.7025006268475
 20
45.0668087521116
 30
0.0
 11
-504.5165603225296
 21
45.0668087521116
 31
0.0
  0
LINE
  5
E1
330
1F
100
AcDbEntity
  8
1-1ﾚｲﾔ
  6
Continuous
 62
     3
370
     9
100
AcDbLine
 10
-422.7025006268475
 20
35.06727063978047
 30
0.0
 11
-508.418438885663
 21
35.06727063978047
 31
0.0
  0
LINE
  5
E2
330
1F
100
AcDbEntity
  8
1-1ﾚｲﾔ
  6
Continuous
 62
     3
370
     9
100
AcDbLine
 10
-200.8889688027871
 20
45.0668087521116
 30
0.0
 11
-168.3314555400126
 21
43.56732342694258
 31
0.0
  0
LINE
  5
E3
330
1F
100
AcDbEntity
  8
1-1ﾚｲﾔ
  6
Continuous
 62
     3
370
     9
100
AcDbLine
 10
-196.9869665197423
 20
35.06727063978047
 30
0.0
 11
-166.0673811629012
 21
36.56725084459467
 31
0.0
  0
LINE
  5
E4
330
1F
100
AcDbEntity
  8
1-1ﾚｲﾔ
  6
Continuous
 62
     3
370
     9
100
AcDbLine
 10
-289.2027158994932
 20
164.4384600665119
 30
0.0
 11
-287.7029212745459
 21
131.8810705236487
 31
0.0
  0
LINE
  5
E5
330
1F
100
AcDbEntity
  8
1-1ﾚｲﾔ
  6
Continuous
 62
     3
370
     9
100
AcDbLine
 10
-296.2027884818411
 20
166.7025344436233
 30
0.0
 11
-297.7025212468327
 21
135.7831965266048
 31
0.0
  0
LINE
  5
E6
330
1F
100
AcDbEntity
  8
1-1ﾚｲﾔ
  6
Continuous
 62
     3
370
     9
100
AcDbLine
 10
-409.2026169235642
 20
166.7025344436233
 30
0.0
 11
-407.7028841585727
 21
135.7831965266048
 31
0.0
  0
LINE
  5
E7
330
1F
100
AcDbEntity
  8
1-1ﾚｲﾔ
  6
Continuous
 62
     3
370
     9
100
AcDbLine
 10
-417.7024841308594
 20
131.8810705236487
 30
0.0
 11
-416.2026895059121
 21
164.4384600665119
 31
0.0
  0
LINE
  5
E8
330
1F
100
AcDbEntity
  8
1-1ﾚｲﾔ
  6
Continuous
 62
     3
370
     9
100
AcDbLine
 10
-537.0740117253483
 20
43.56732342694258
 30
0.0
 11
-504.5165603225296
 21
45.0668087521116
 31
0.0
  0
LINE
  5
E9
330
1F
100
AcDbEntity
  8
1-1ﾚｲﾔ
  6
Continuous
 62
     3
370
     9
100
AcDbLine
 10
-539.3380861024598
 20
36.56725084459467
 30
0.0
 11
-508.418438885663
 21
35.06727063978047
 31
0.0
  0
LINE
  5
EA
330
1F
100
AcDbEntity
  8
1-1ﾚｲﾔ
  6
Continuous
 62
     3
370
     9
100
AcDbLine
 10
-219.706086854677
 20
-72.93266502586562
 30
0.0
 11
-194.9639603898332
 21
-71.43268482105142
 31
0.0
  0
LINE
  5
EB
330
1F
100
AcDbEntity
  8
1-1ﾚｲﾔ
  6
Continuous
 62
     3
370
     9
100
AcDbLine
 10
-225.234758531725
 20
-86.93281019056158
 30
0.0
 11
-201.5685622756546
 21
-88.43254295555312
 31
0.0
  0
LINE
  5
EC
330
1F
100
AcDbEntity
  8
1-0ﾚｲﾔ
  6
Continuous
 62
     2
370
     9
100
AcDbLine
 10
530.0769702808279
 20
154.1852961359798
 30
0.0
 11
530.0769702808279
 21
212.6845241237332
 31
0.0
  0
LINE
  5
ED
330
1F
100
AcDbEntity
  8
1-0ﾚｲﾔ
  6
Continuous
 62
     2
370
     9
100
AcDbLine
 10
530.0769702808279
 20
-194.0503754486908
 30
0.0
 11
530.0769702808279
 21
-252.5496034364442
 31
0.0
  0
LINE
  5
EE
330
1F
100
AcDbEntity
  8
1-1ﾚｲﾔ
  6
Continuous
 62
     3
370
     9
100
AcDbLine
 10
529.293946962099
 20
206.3933666332349
 30
0.0
 11
521.8601123706717
 21
204.7417058171453
 31
0.0
  0
LINE
  5
EF
330
1F
100
AcDbEntity
  8
1-0ﾚｲﾔ
  6
Continuous
 62
     2
370
     9
100
AcDbLine
 10
530.998436180321
 20
206.4945695206926
 30
0.0
 11
549.0768845016894
 21
205.0673366237332
 31
0.0
  0
LINE
  5
F0
330
1F
100
AcDbEntity
  8
1-1ﾚｲﾔ
  6
Continuous
 62
     3
370
     9
100
AcDbLine
 10
529.2938232421875
 20
-246.2585696658572
 30
0.0
 11
521.8601123706717
 21
-244.6065376900338
 31
0.0
  0
LINE
  5
F1
330
1F
100
AcDbEntity
  8
1-3ﾚｲﾔ
  6
Continuous
 62
     4
370
     9
100
AcDbLine
 10
-352.7027027027026
 20
233.5674553948481
 30
0.0
 11
-331.7027323954813
 21
231.0673234269426
 31
0.0
  0
LINE
  5
F2
330
1F
100
AcDbEntity
  8
1-3ﾚｲﾔ
  6
Continuous
 62
     4
370
     9
100
AcDbLine
 10
-352.7027027027026
 20
233.5674553948481
 30
0.0
 11
-373.702673009924
 21
231.0673234269426
 31
0.0
  0
LINE
  5
F3
330
1F
100
AcDbEntity
  8
1-3ﾚｲﾔ
  6
Continuous
 62
     4
370
     9
100
AcDbLine
 10
-333.560325003959
 20
161.4342931798987
 30
0.0
 11
-352.7027027027026
 21
160.0674355996622
 31
0.0
  0
LINE
  5
F4
330
1F
100
AcDbEntity
  8
1-3ﾚｲﾔ
  6
Continuous
 62
     4
370
     9
100
AcDbLine
 10
-371.8450804014464
 20
161.4342931798987
 30
0.0
 11
-352.7027027027026
 21
160.0674355996622
 31
0.0
  0
LINE
  5
F5
330
1F
100
AcDbEntity
  8
1-3ﾚｲﾔ
  6
Continuous
 62
     4
370
     9
100
AcDbLine
 10
-373.702673009924
 20
163.4296479096284
 30
0.0
 11
-373.702673009924
 21
231.0673234269426
 31
0.0
  0
LINE
  5
F6
330
1F
100
AcDbEntity
  8
1-3ﾚｲﾔ
  6
JWW_CENTER1
 62
     4
370
     9
100
AcDbLine
 10
-399.5240082611909
 20
195.5673795133025
 30
0.0
 11
-306.0130351298563
 21
195.5673795133025
 31
0.0
  0
LINE
  5
F7
330
1F
100
AcDbEntity
  8
1-3ﾚｲﾔ
  6
JWW_CENTER1
 62
     4
370
     9
100
AcDbLine
 10
-322.7027274466849
 20
210.1527198585305
 30
0.0
 11
-322.7027274466849
 21
182.1645540804477
 31
0.0
  0
LINE
  5
F8
330
1F
100
AcDbEntity
  8
1-3ﾚｲﾔ
  6
Continuous
 62
     4
370
     9
100
AcDbLine
 10
-331.7027323954813
 20
207.6105231207771
 30
0.0
 11
-320.7027332202807
 21
205.3652541701858
 31
0.0
  0
LINE
  5
F9
330
1F
100
AcDbEntity
  8
1-3ﾚｲﾔ
  6
Continuous
 62
     4
370
     9
100
AcDbLine
 10
-331.7027323954813
 20
183.5239884660051
 30
0.0
 11
-320.7027332202807
 21
185.7692574165964
 31
0.0
  0
LINE
  5
FA
330
1F
100
AcDbEntity
  8
1-3ﾚｲﾔ
  6
Continuous
 62
     4
370
     9
100
AcDbLine
 10
-331.7027323954813
 20
163.4296479096284
 30
0.0
 11
-331.7027323954813
 21
231.0673234269426
 31
0.0
  0
LINE
  5
FB
330
1F
100
AcDbEntity
  8
1-3ﾚｲﾔ
  6
JWW_CENTER1
 62
     4
370
     9
100
AcDbLine
 10
-382.7026779587204
 20
210.1527198585305
 30
0.0
 11
-382.7026779587204
 21
182.1645540804477
 31
0.0
  0
LINE
  5
FC
330
1F
100
AcDbEntity
  8
1-3ﾚｲﾔ
  6
Continuous
 62
     4
370
     9
100
AcDbLine
 10
-373.702673009924
 20
207.6105231207771
 30
0.0
 11
-384.7026721851245
 21
205.3652541701858
 31
0.0
  0
LINE
  5
FD
330
1F
100
AcDbEntity
  8
1-3ﾚｲﾔ
  6
Continuous
 62
     4
370
     9
100
AcDbLine
 10
-373.702673009924
 20
183.5239884660051
 30
0.0
 11
-384.7026721851245
 21
185.7692574165964
 31
0.0
  0
LINE
  5
FE
330
1F
100
AcDbEntity
  8
1-3ﾚｲﾔ
  6
Continuous
 62
     4
370
     9
100
AcDbLine
 10
512.5769125448693
 20
-251.4324126372466
 30
0.0
 11
512.5769125448693
 21
-219.4323812948691
 31
0.0
  0
LINE
  5
FF
330
1F
100
AcDbEntity
  8
1-3ﾚｲﾔ
  6
Continuous
 62
     4
370
     9
100
AcDbLine
 10
474.0768845016893
 20
-273.4324109876478
 30
0.0
 11
474.0768845016893
 21
-199.932391192462
 31
0.0
  0
LINE
  5
100
330
1F
100
AcDbEntity
  8
1-3ﾚｲﾔ
  6
Continuous
 62
     4
370
     9
100
AcDbLine
 10
481.035139754012
 20
-271.7952254011824
 30
0.0
 11
474.0768845016893
 21
-273.4324109876478
 31
0.0
  0
LINE
  5
101
330
1F
100
AcDbEntity
  8
1-3ﾚｲﾔ
  6
Continuous
 62
     4
370
     9
100
AcDbLine
 10
480.5768812024917
 20
-199.932391192462
 30
0.0
 11
474.0768845016893
 21
-199.932391192462
 31
0.0
  0
LINE
  5
102
330
1F
100
AcDbEntity
  8
1-3ﾚｲﾔ
  6
Continuous
 62
     4
370
     9
100
AcDbLine
 10
487.5769537848396
 20
-251.4324126372466
 30
0.0
 11
512.5769125448693
 21
-251.4324126372466
 31
0.0
  0
LINE
  5
103
330
1F
100
AcDbEntity
  8
1-3ﾚｲﾔ
  6
Continuous
 62
     4
370
     9
100
AcDbLine
 10
487.5769537848396
 20
-219.4323812948691
 30
0.0
 11
512.5769125448693
 21
-219.4323812948691
 31
0.0
  0
LINE
  5
104
330
1F
100
AcDbEntity
  8
1-3ﾚｲﾔ
  6
Continuous
 62
     4
370
     9
100
AcDbLine
 10
482.5769372888513
 20
-214.4324885187922
 30
0.0
 11
482.5769372888513
 21
-201.9324472788217
 31
0.0
  0
LINE
  5
105
330
1F
100
AcDbEntity
  8
1-0ﾚｲﾔ
  6
Continuous
 62
     4
370
     9
100
AcDbLine
 10
474.0768845016893
 20
-247.1823862436655
 30
0.0
 11
479.0769009976773
 21
-247.1823862436655
 31
0.0
  0
LINE
  5
106
330
1F
100
AcDbEntity
  8
1-0ﾚｲﾔ
  6
Continuous
 62
     4
370
     9
100
AcDbLine
 10
479.0769009976773
 20
-247.1823862436655
 30
0.0
 11
479.0769009976773
 21
-223.6824076884501
 31
0.0
  0
LINE
  5
107
330
1F
100
AcDbEntity
  8
1-0ﾚｲﾔ
  6
Continuous
 62
     4
370
     9
100
AcDbLine
 10
474.0768845016893
 20
-223.6824076884501
 30
0.0
 11
479.0769009976773
 21
-223.6824076884501
 31
0.0
  0
LINE
  5
108
330
1F
100
AcDbEntity
  8
1-0ﾚｲﾔ
  6
Continuous
 62
     4
370
     9
100
AcDbLine
 10
512.5769125448693
 20
-225.4324258340371
 30
0.0
 11
500.0768713048987
 21
-225.4324258340371
 31
0.0
  0
LINE
  5
109
330
1F
100
AcDbEntity
  8
1-0ﾚｲﾔ
  6
Continuous
 62
     4
370
     9
100
AcDbLine
 10
500.0768713048987
 20
-245.4323680980785
 30
0.0
 11
512.5769125448693
 21
-245.4323680980785
 31
0.0
  0
LINE
  5
10A
330
1F
100
AcDbEntity
  8
1-3ﾚｲﾔ
  6
JWW_DASHED1
 62
     4
370
     9
100
AcDbLine
 10
498.0770626583615
 20
-243.3324700432854
 30
0.0
 11
498.0770626583615
 21
-243.43243573163
 31
0.0
  0
LINE
  5
10B
330
1F
100
AcDbEntity
  8
1-3ﾚｲﾔ
  6
JWW_DASHED1
 62
     4
370
     9
100
AcDbLine
 10
498.0770626583615
 20
-227.5324476087415
 30
0.0
 11
498.0770626583615
 21
-227.4324819203969
 31
0.0
  0
LINE
  5
10C
330
1F
100
AcDbEntity
  8
1-0ﾚｲﾔ
  6
Continuous
 62
     4
370
     9
100
AcDbLine
 10
498.0770626583615
 20
-243.3324700432854
 30
0.0
 11
498.0770626583615
 21
-227.5324476087415
 31
0.0
  0
LINE
  5
10D
330
1F
100
AcDbEntity
  8
1-1ﾚｲﾔ
  6
Continuous
 62
     3
370
     9
100
AcDbLine
 10
512.5769125448693
 20
-219.4323812948691
 30
0.0
 11
512.5769125448693
 21
-251.4324126372466
 31
0.0
  0
LINE
  5
10E
330
1F
100
AcDbEntity
  8
1-1ﾚｲﾔ
  6
Continuous
 62
     3
370
     9
100
AcDbLine
 10
512.5769125448693
 20
-219.4323812948691
 30
0.0
 11
514.0770164695948
 21
-218.4324769716005
 31
0.0
  0
LINE
  5
10F
330
1F
100
AcDbEntity
  8
1-1ﾚｲﾔ
  6
Continuous
 62
     3
370
     9
100
AcDbLine
 10
512.5769125448693
 20
-251.4324126372466
 30
0.0
 11
514.0770164695948
 21
-252.4323169605152
 31
0.0
  0
LINE
  5
110
330
1F
100
AcDbEntity
  8
1-1ﾚｲﾔ
  6
Continuous
 62
     3
370
     9
100
AcDbLine
 10
514.0770164695948
 20
-252.4323169605152
 30
0.0
 11
514.0770164695948
 21
-258.8334614521748
 31
0.0
  0
LINE
  5
111
330
1F
100
AcDbEntity
  8
1-1ﾚｲﾔ
  6
Continuous
 62
     3
370
     9
100
AcDbLine
 10
510.057356550887
 20
-263.7363578177787
 30
0.0
 11
482.5769372888513
 21
-269.2324911581503
 31
0.0
  0
LINE
  5
112
330
1F
100
AcDbEntity
  8
1-3ﾚｲﾔ
  6
JWW_CENTER1
 62
     4
370
     9
100
AcDbLine
 10
469.4695550042232
 20
-235.4324588260135
 30
0.0
 11
523.7991745407519
 21
-235.4324588260135
 31
0.0
  0
LINE
  5
113
330
1F
100
AcDbEntity
  8
1-1ﾚｲﾔ
  6
Continuous
 62
     3
370
     9
100
AcDbLine
 10
521.07684161212
 20
215.8695695206926
 30
0.0
 11
521.07684161212
 21
227.1664346230997
 31
0.0
  0
LINE
  5
114
330
1F
100
AcDbEntity
  8
1-1ﾚｲﾔ
  6
Continuous
 62
     3
370
     9
100
AcDbLine
 10
521.07684161212
 20
-255.7346488334037
 30
0.0
 11
521.07684161212
 21
-267.0316376557221
 31
0.0
  0
LINE
  5
115
330
1F
100
AcDbEntity
  8
1-1ﾚｲﾔ
  6
Continuous
 62
     3
370
     9
100
AcDbLine
 10
-485.6993185507284
 20
-72.93266502586562
 30
0.0
 11
-510.4414450155722
 21
-71.43268482105142
 31
0.0
  0
LINE
  5
116
330
1F
100
AcDbEntity
  8
1-1ﾚｲﾔ
  6
Continuous
 62
     3
370
     9
100
AcDbLine
 10
-480.1706468736803
 20
-86.93281019056158
 30
0.0
 11
-503.8368431297508
 21
-88.43254295555312
 31
0.0
  0
LINE
  5
117
330
1F
100
AcDbEntity
  8
1-1ﾚｲﾔ
  6
Continuous
 62
     3
370
     9
100
AcDbLine
 10
-299.7027629130595
 20
-152.9293410842483
 30
0.0
 11
-301.2025575380068
 21
-177.6714056891364
 31
0.0
  0
LINE
  5
118
330
1F
100
AcDbEntity
  8
1-1ﾚｲﾔ
  6
Continuous
 62
     3
370
     9
100
AcDbLine
 10
-285.7026796083193
 20
-147.4005456872888
 30
0.0
 11
-284.202884983372
 21
-171.0668656632706
 31
0.0
  0
LINE
  5
119
330
1F
100
AcDbEntity
  8
1-1ﾚｲﾔ
  6
Continuous
 62
     3
370
     9
100
AcDbLine
 10
-405.7026424923458
 20
-152.9293410842483
 30
0.0
 11
-404.2028478673985
 21
-177.6714056891364
 31
0.0
  0
LINE
  5
11A
330
1F
100
AcDbEntity
  8
1-1ﾚｲﾔ
  6
Continuous
 62
     3
370
     9
100
AcDbLine
 10
-419.7027257970861
 20
-147.4005456872888
 30
0.0
 11
-421.2025204220333
 21
-171.0668656632706
 31
0.0
  0
LINE
  5
11B
330
1F
100
AcDbEntity
  8
1-1ﾚｲﾔ
  6
JWW_CENTER1
 62
     3
370
     9
100
AcDbLine
 10
-520.6585445919552
 20
-79.93261388830234
 30
0.0
 11
-189.6174662822001
 21
-79.93261388830234
 31
0.0
  0
LINE
  5
11C
330
1F
100
AcDbEntity
  8
1-3ﾚｲﾔ
  6
Continuous
 62
     4
370
     9
100
AcDbLine
 10
-340.2027233226879
 20
327.5671221758869
 30
0.0
 11
-365.2026820827174
 21
327.5671221758869
 31
0.0
  0
LINE
  5
11D
330
1F
100
AcDbEntity
  8
1-3ﾚｲﾔ
  6
Continuous
 62
     4
370
     9
100
AcDbLine
 10
-340.2027233226879
 20
327.5671221758869
 30
0.0
 11
-340.2027233226879
 21
270.0670561919341
 31
0.0
  0
LINE
  5
11E
330
1F
100
AcDbEntity
  8
1-3ﾚｲﾔ
  6
Continuous
 62
     4
370
     9
100
AcDbLine
 10
-365.2026820827174
 20
327.5671221758869
 30
0.0
 11
-365.2026820827174
 21
270.0670561919341
 31
0.0
  0
LINE
  5
11F
330
1F
100
AcDbEntity
  8
1-3ﾚｲﾔ
  6
Continuous
 62
     4
370
     9
100
AcDbLine
 10
-340.2027233226879
 20
-367.4324489284206
 30
0.0
 11
-365.2026820827174
 21
-367.4324489284206
 31
0.0
  0
LINE
  5
120
330
1F
100
AcDbEntity
  8
1-3ﾚｲﾔ
  6
Continuous
 62
     2
370
     9
100
AcDbLine
 10
-352.7027027027026
 20
277.5672046558277
 30
0.0
 11
-346.2027060019003
 21
273.8142848659207
 31
0.0
  0
LINE
  5
121
330
1F
100
AcDbEntity
  8
1-3ﾚｲﾔ
  6
Continuous
 62
     2
370
     9
100
AcDbLine
 10
-352.7027027027026
 20
277.5672046558277
 30
0.0
 11
-359.2026994035051
 21
273.8142848659207
 31
0.0
  0
LINE
  5
122
330
1F
100
AcDbEntity
  8
1-3ﾚｲﾔ
  6
Continuous
 62
     2
370
     9
100
AcDbLine
 10
-359.2026994035051
 20
273.8142848659207
 30
0.0
 11
-359.2026994035051
 21
266.3198275179477
 31
0.0
  0
LINE
  5
123
330
1F
100
AcDbEntity
  8
1-3ﾚｲﾔ
  6
Continuous
 62
     2
370
     9
100
AcDbLine
 10
-352.7027027027026
 20
262.5671551678633
 30
0.0
 11
-359.2026994035051
 21
266.3198275179477
 31
0.0
  0
LINE
  5
124
330
1F
100
AcDbEntity
  8
1-3ﾚｲﾔ
  6
Continuous
 62
     2
370
     9
100
AcDbLine
 10
-352.7027027027026
 20
262.5671551678633
 30
0.0
 11
-346.2027060019003
 21
266.3198275179477
 31
0.0
  0
LINE
  5
125
330
1F
100
AcDbEntity
  8
1-3ﾚｲﾔ
  6
Continuous
 62
     2
370
     9
100
AcDbLine
 10
-346.2027060019003
 20
273.8142848659207
 30
0.0
 11
-346.2027060019003
 21
266.3198275179477
 31
0.0
  0
LINE
  5
126
330
1F
100
AcDbEntity
  8
1-3ﾚｲﾔ
  6
Continuous
 62
     4
370
     9
100
AcDbLine
 10
-340.2027233226879
 20
-367.4324489284206
 30
0.0
 11
-340.2027233226879
 21
-324.6763322160051
 31
0.0
  0
LINE
  5
127
330
1F
100
AcDbEntity
  8
1-3ﾚｲﾔ
  6
Continuous
 62
     4
370
     9
100
AcDbLine
 10
-365.2026820827174
 20
-367.4324489284206
 30
0.0
 11
-365.2026820827174
 21
-324.6763322160051
 31
0.0
  0
LINE
  5
128
330
1F
100
AcDbEntity
  8
1-3ﾚｲﾔ
  6
Continuous
 62
     2
370
     9
100
AcDbLine
 10
-352.7027027027026
 20
-317.1227367504223
 30
0.0
 11
-346.4760032860008
 21
-313.5276835673563
 31
0.0
  0
LINE
  5
129
330
1F
100
AcDbEntity
  8
1-3ﾚｲﾔ
  6
Continuous
 62
     2
370
     9
100
AcDbLine
 10
-346.4760032860008
 20
-313.5276835673563
 30
0.0
 11
-346.4760032860008
 21
-306.3375772012246
 31
0.0
  0
LINE
  5
12A
330
1F
100
AcDbEntity
  8
1-3ﾚｲﾔ
  6
Continuous
 62
     2
370
     9
100
AcDbLine
 10
-346.4760032860008
 20
-306.3375772012246
 30
0.0
 11
-352.7027027027026
 21
-302.7425240181588
 31
0.0
  0
LINE
  5
12B
330
1F
100
AcDbEntity
  8
1-3ﾚｲﾔ
  6
Continuous
 62
     2
370
     9
100
AcDbLine
 10
-352.7027027027026
 20
-302.7425240181588
 30
0.0
 11
-358.9294021194046
 21
-306.3375772012246
 31
0.0
  0
LINE
  5
12C
330
1F
100
AcDbEntity
  8
1-3ﾚｲﾔ
  6
Continuous
 62
     2
370
     9
100
AcDbLine
 10
-358.9294021194046
 20
-306.3375772012246
 30
0.0
 11
-358.9294021194046
 21
-313.5276835673563
 31
0.0
  0
LINE
  5
12D
330
1F
100
AcDbEntity
  8
1-3ﾚｲﾔ
  6
Continuous
 62
     2
370
     9
100
AcDbLine
 10
-358.9294021194046
 20
-313.5276835673563
 30
0.0
 11
-352.7027027027026
 21
-317.1227367504223
 31
0.0
  0
LINE
  5
12E
330
1F
100
AcDbEntity
  8
1-0ﾚｲﾔ
  6
JWW_CENTER1
 62
     4
370
     9
100
AcDbLine
 10
-338.9826594172297
 20
270.0670561919341
 30
0.0
 11
-366.4499643686655
 21
270.0670561919341
 31
0.0
  0
LINE
  5
12F
330
1F
100
AcDbEntity
  8
1-3ﾚｲﾔ
  6
Continuous
 62
     4
370
     9
100
AcDbLine
 10
-5.202917150548956
 20
-7.432622136296345
 30
0.0
 11
-5.202917150548956
 21
-32.43270461623723
 31
0.0
  0
LINE
  5
130
330
1F
100
AcDbEntity
  8
1-3ﾚｲﾔ
  6
Continuous
 62
     4
370
     9
100
AcDbLine
 10
-5.202917150548956
 20
-7.432622136296345
 30
0.0
 11
-62.70298313450169
 21
-7.432622136296345
 31
0.0
  0
LINE
  5
131
330
1F
100
AcDbEntity
  8
1-3ﾚｲﾔ
  6
Continuous
 62
     4
370
     9
100
AcDbLine
 10
-5.202917150548956
 20
-32.43270461623723
 30
0.0
 11
-47.95903386296445
 21
-32.43270461623723
 31
0.0
  0
LINE
  5
132
330
1F
100
AcDbEntity
  8
1-3ﾚｲﾔ
  6
Continuous
 62
     2
370
     9
100
AcDbLine
 10
-55.2029583905194
 20
-19.93266337626679
 30
0.0
 11
-58.9557544605151
 21
-13.43266667546445
 31
0.0
  0
LINE
  5
133
330
1F
100
AcDbEntity
  8
1-3ﾚｲﾔ
  6
Continuous
 62
     2
370
     9
100
AcDbLine
 10
-58.9557544605151
 20
-13.43266667546445
 30
0.0
 11
-66.45021180848815
 21
-13.43266667546445
 31
0.0
  0
LINE
  5
134
330
1F
100
AcDbEntity
  8
1-3ﾚｲﾔ
  6
Continuous
 62
     2
370
     9
100
AcDbLine
 10
-70.20288415857252
 20
-19.93266337626679
 30
0.0
 11
-66.45021180848815
 21
-13.43266667546445
 31
0.0
  0
LINE
  5
135
330
1F
100
AcDbEntity
  8
1-3ﾚｲﾔ
  6
Continuous
 62
     2
370
     9
100
AcDbLine
 10
-55.51275304845859
 20
-19.93266337626679
 30
0.0
 11
-59.10780623152448
 21
-26.15936279296875
 31
0.0
  0
LINE
  5
136
330
1F
100
AcDbEntity
  8
1-3ﾚｲﾔ
  6
Continuous
 62
     2
370
     9
100
AcDbLine
 10
-59.10780623152448
 20
-26.15936279296875
 30
0.0
 11
-66.29778887774492
 21
-26.15936279296875
 31
0.0
  0
LINE
  5
137
330
1F
100
AcDbEntity
  8
1-3ﾚｲﾔ
  6
Continuous
 62
     2
370
     9
100
AcDbLine
 10
-66.29778887774492
 20
-26.15936279296875
 30
0.0
 11
-69.8928420608108
 21
-19.93266337626679
 31
0.0
  0
LINE
  5
138
330
1F
100
AcDbEntity
  8
1-3ﾚｲﾔ
  6
Continuous
 62
     4
370
     9
100
AcDbLine
 10
535.0769867768158
 20
327.5673696157095
 30
0.0
 11
539.0769752296242
 21
327.5673696157095
 31
0.0
  0
LINE
  5
139
330
1F
100
AcDbEntity
  8
1-3ﾚｲﾔ
  6
Continuous
 62
     4
370
     9
100
AcDbLine
 10
535.0769867768158
 20
257.5673861116977
 30
0.0
 11
535.0769867768158
 21
327.5673696157095
 31
0.0
  0
LINE
  5
13A
330
1F
100
AcDbEntity
  8
1-3ﾚｲﾔ
  6
Continuous
 62
     4
370
     9
100
AcDbLine
 10
535.0769867768158
 20
257.5673861116977
 30
0.0
 11
539.0769752296242
 21
257.5673861116977
 31
0.0
  0
LINE
  5
13B
330
1F
100
AcDbEntity
  8
1-3ﾚｲﾔ
  6
Continuous
 62
     4
370
     9
100
AcDbLine
 10
539.0769752296242
 20
257.5673861116977
 30
0.0
 11
539.0769752296242
 21
327.5673696157095
 31
0.0
  0
LINE
  5
13C
330
1F
100
AcDbEntity
  8
1-0ﾚｲﾔ
  6
Continuous
 62
     2
370
     9
100
AcDbLine
 10
539.0769752296242
 20
-296.3021603146115
 30
0.0
 11
539.0769752296242
 21
-323.0275169578758
 31
0.0
  0
LINE
  5
13D
330
1F
100
AcDbEntity
  8
1-3ﾚｲﾔ
  6
Continuous
 62
     2
370
     9
100
AcDbLine
 10
551.3769613729943
 20
262.8774447054477
 30
0.0
 11
551.3769613729943
 21
277.2574099978885
 31
0.0
  0
LINE
  5
13E
330
1F
100
AcDbEntity
  8
1-3ﾚｲﾔ
  6
Continuous
 62
     2
370
     9
100
AcDbLine
 10
556.0669357712206
 20
277.2574099978885
 30
0.0
 11
551.3769613729943
 21
277.2574099978885
 31
0.0
  0
LINE
  5
13F
330
1F
100
AcDbEntity
  8
1-3ﾚｲﾔ
  6
Continuous
 62
     2
370
     9
100
AcDbLine
 10
556.6769986539273
 20
264.4724418021538
 30
0.0
 11
556.6769986539273
 21
275.6624129011824
 31
0.0
  0
LINE
  5
140
330
1F
100
AcDbEntity
  8
1-3ﾚｲﾔ
  6
Continuous
 62
     2
370
     9
100
AcDbLine
 10
556.0669357712206
 20
262.8774447054477
 30
0.0
 11
551.3769613729943
 21
262.8774447054477
 31
0.0
  0
LINE
  5
141
330
1F
100
AcDbEntity
  8
1-3ﾚｲﾔ
  6
Continuous
 62
     2
370
     9
100
AcDbLine
 10
522.0536103119721
 20
274.0671683646538
 30
0.0
 11
521.3769861169762
 21
273.3909153293919
 31
0.0
  0
LINE
  5
142
330
1F
100
AcDbEntity
  8
1-3ﾚｲﾔ
  6
Continuous
 62
     2
370
     9
100
AcDbLine
 10
521.3769861169762
 20
273.3909153293919
 30
0.0
 11
521.3769861169762
 21
266.7439393739443
 31
0.0
  0
LINE
  5
143
330
1F
100
AcDbEntity
  8
1-3ﾚｲﾔ
  6
Continuous
 62
     2
370
     9
100
AcDbLine
 10
521.3769861169762
 20
266.7439393739443
 30
0.0
 11
522.0536103119721
 21
266.0671914590372
 31
0.0
  0
LINE
  5
144
330
1F
100
AcDbEntity
  8
1-3ﾚｲﾔ
  6
Continuous
 62
     2
370
     9
100
AcDbLine
 10
529.2985245988177
 20
262.5674026076858
 30
0.0
 11
535.0767393369932
 21
262.5674026076858
 31
0.0
  0
LINE
  5
145
330
1F
100
AcDbEntity
  8
1-3ﾚｲﾔ
  6
Continuous
 62
     2
370
     9
100
AcDbLine
 10
529.2985245988177
 20
277.5674520956504
 30
0.0
 11
535.0767393369932
 21
277.5674520956504
 31
0.0
  0
LINE
  5
146
330
1F
100
AcDbEntity
  8
1-3ﾚｲﾔ
  6
Continuous
 62
     2
370
     9
100
AcDbLine
 10
535.0767393369932
 20
262.5674026076858
 30
0.0
 11
535.0767393369932
 21
277.5674520956504
 31
0.0
  0
LINE
  5
147
330
1F
100
AcDbEntity
  8
1-3ﾚｲﾔ
  6
Continuous
 62
     2
370
     9
100
AcDbLine
 10
529.2985245988177
 20
266.3200749577703
 30
0.0
 11
535.0767393369932
 21
266.3200749577703
 31
0.0
  0
LINE
  5
148
330
1F
100
AcDbEntity
  8
1-3ﾚｲﾔ
  6
Continuous
 62
     2
370
     9
100
AcDbLine
 10
529.2985245988177
 20
273.8145323057433
 30
0.0
 11
535.0767393369932
 21
273.8145323057433
 31
0.0
  0
LINE
  5
149
330
1F
100
AcDbEntity
  8
1-3ﾚｲﾔ
  6
Continuous
 62
     2
370
     9
100
AcDbLine
 10
528.5767426361908
 20
264.4437387827281
 30
0.0
 11
528.5767426361908
 21
275.6911159206082
 31
0.0
  0
LINE
  5
14A
330
1F
100
AcDbEntity
  8
1-3ﾚｲﾔ
  6
Continuous
 62
     2
370
     9
100
AcDbLine
 10
522.0536103119721
 20
266.0671914590372
 30
0.0
 11
522.0536103119721
 21
274.0671683646538
 31
0.0
  0
LINE
  5
14B
330
1F
100
AcDbEntity
  8
1-0ﾚｲﾔ
  6
Continuous
 62
     2
370
     9
100
AcDbLine
 10
556.0670594911318
 20
274.0671683646538
 30
0.0
 11
551.3769613729943
 21
274.0671683646538
 31
0.0
  0
LINE
  5
14C
330
1F
100
AcDbEntity
  8
1-0ﾚｲﾔ
  6
Continuous
 62
     2
370
     9
100
AcDbLine
 10
556.0670594911318
 20
266.0674388988599
 30
0.0
 11
551.3769613729943
 21
266.0674388988599
 31
0.0
  0
LINE
  5
14D
330
1F
100
AcDbEntity
  8
1-1ﾚｲﾔ
  6
JWW_CENTER1
 62
     3
370
     9
100
AcDbLine
 10
-728.7238559207401
 20
-19.93266337626679
 30
0.0
 11
20.37642195418087
 21
-19.93266337626679
 31
0.0
  0
LINE
  5
14E
330
1F
100
AcDbEntity
  8
1-1ﾚｲﾔ
  6
JWW_CENTER1
 62
     3
370
     9
100
AcDbLine
 10
-352.7027027027026
 20
-400.4812539590372
 30
0.0
 11
-352.7027027027026
 21
355.2875580658784
 31
0.0
  0
LINE
  5
14F
330
1F
100
AcDbEntity
  8
1-3ﾚｲﾔ
  6
Continuous
 62
     7
370
     9
100
AcDbLine
 10
-326.455461656725
 20
-241.9327029666385
 30
0.0
 11
-330.2068349477406
 21
-235.4351806640625
 31
0.0
  0
LINE
  5
150
330
1F
100
AcDbEntity
  8
1-3ﾚｲﾔ
  6
Continuous
 62
     7
370
     9
100
AcDbLine
 10
-330.2068349477406
 20
-235.4351806640625
 30
0.0
 11
-326.4526160987647
 21
-228.9327095650338
 31
0.0
  0
LINE
  5
151
330
1F
100
AcDbEntity
  8
1-3ﾚｲﾔ
  6
Continuous
 62
     7
370
     9
100
AcDbLine
 10
-318.9499932366448
 20
-241.9327029666385
 30
0.0
 11
-326.455461656725
 21
-241.9327029666385
 31
0.0
  0
LINE
  5
152
330
1F
100
AcDbEntity
  8
1-3ﾚｲﾔ
  6
Continuous
 62
     7
370
     9
100
AcDbLine
 10
-318.9499932366448
 20
-241.9327029666385
 30
0.0
 11
-315.1986199456292
 21
-235.4351806640625
 31
0.0
  0
LINE
  5
153
330
1F
100
AcDbEntity
  8
1-3ﾚｲﾔ
  6
Continuous
 62
     7
370
     9
100
AcDbLine
 10
-315.1986199456292
 20
-235.4351806640625
 30
0.0
 11
-318.9528387946051
 21
-228.9327095650338
 31
0.0
  0
LINE
  5
154
330
1F
100
AcDbEntity
  8
1-3ﾚｲﾔ
  6
Continuous
 62
     7
370
     9
100
AcDbLine
 10
-318.9528387946051
 20
-228.9327095650338
 30
0.0
 11
-326.4526160987647
 21
-228.9327095650338
 31
0.0
  0
LINE
  5
155
330
1F
100
AcDbEntity
  8
1-3ﾚｲﾔ
  6
JWW_CENTER1
 62
     4
370
     9
100
AcDbLine
 10
-331.9235724371832
 20
-235.4327062658361
 30
0.0
 11
-313.6257068530932
 21
-235.4327062658361
 31
0.0
  0
LINE
  5
156
330
1F
100
AcDbEntity
  8
1-3ﾚｲﾔ
  6
JWW_CENTER1
 62
     4
370
     9
100
AcDbLine
 10
-322.7027274466849
 20
-242.9236994562922
 30
0.0
 11
-322.7027274466849
 21
-226.9630885768581
 31
0.0
  0
LINE
  5
157
330
1F
100
AcDbEntity
  8
1-3ﾚｲﾔ
  6
Continuous
 62
     7
370
     9
100
AcDbLine
 10
-378.9499437486803
 20
-241.9327029666385
 30
0.0
 11
-375.1985704576647
 21
-235.4351806640625
 31
0.0
  0
LINE
  5
158
330
1F
100
AcDbEntity
  8
1-3ﾚｲﾔ
  6
Continuous
 62
     7
370
     9
100
AcDbLine
 10
-375.1985704576647
 20
-235.4351806640625
 30
0.0
 11
-378.9527893066406
 21
-228.9327095650338
 31
0.0
  0
LINE
  5
159
330
1F
100
AcDbEntity
  8
1-3ﾚｲﾔ
  6
Continuous
 62
     7
370
     9
100
AcDbLine
 10
-386.4554121687605
 20
-241.9327029666385
 30
0.0
 11
-378.9499437486803
 21
-241.9327029666385
 31
0.0
  0
LINE
  5
15A
330
1F
100
AcDbEntity
  8
1-3ﾚｲﾔ
  6
Continuous
 62
     7
370
     9
100
AcDbLine
 10
-386.4554121687605
 20
-241.9327029666385
 30
0.0
 11
-390.2067854597761
 21
-235.4351806640625
 31
0.0
  0
LINE
  5
15B
330
1F
100
AcDbEntity
  8
1-3ﾚｲﾔ
  6
Continuous
 62
     7
370
     9
100
AcDbLine
 10
-390.2067854597761
 20
-235.4351806640625
 30
0.0
 11
-386.4525666108003
 21
-228.9327095650338
 31
0.0
  0
LINE
  5
15C
330
1F
100
AcDbEntity
  8
1-3ﾚｲﾔ
  6
Continuous
 62
     7
370
     9
100
AcDbLine
 10
-386.4525666108003
 20
-228.9327095650338
 30
0.0
 11
-378.9527893066406
 21
-228.9327095650338
 31
0.0
  0
LINE
  5
15D
330
1F
100
AcDbEntity
  8
1-3ﾚｲﾔ
  6
JWW_CENTER1
 62
     4
370
     9
100
AcDbLine
 10
-373.4818329682221
 20
-235.4327062658361
 30
0.0
 11
-391.779698552312
 21
-235.4327062658361
 31
0.0
  0
LINE
  5
15E
330
1F
100
AcDbEntity
  8
1-3ﾚｲﾔ
  6
JWW_CENTER1
 62
     4
370
     9
100
AcDbLine
 10
-382.7026779587204
 20
-242.9236994562922
 30
0.0
 11
-382.7026779587204
 21
-226.9630885768581
 31
0.0
  0
LINE
  5
15F
330
1F
100
AcDbEntity
  8
1-2ﾚｲﾔ
  6
Continuous
 62
     6
370
     9
100
AcDbLine
 10
-341.3010468354096
 20
197.0676071579392
 30
0.0
 11
-364.1046060098183
 21
197.0676071579392
 31
0.0
  0
LINE
  5
160
330
1F
100
AcDbEntity
  8
1-2ﾚｲﾔ
  6
Continuous
 62
     6
370
     9
100
AcDbLine
 10
-341.3010468354096
 20
194.0671518686656
 30
0.0
 11
-364.1046060098183
 21
194.0671518686656
 31
0.0
  0
LINE
  5
161
330
1F
100
AcDbEntity
  8
1-2ﾚｲﾔ
  6
Continuous
 62
     4
370
     9
100
AcDbLine
 10
479.8768739442568
 20
-228.2324548669763
 30
0.0
 11
479.8768739442568
 21
-242.6324627850506
 31
0.0
  0
LINE
  5
162
330
1F
100
AcDbEntity
  8
1-2ﾚｲﾔ
  6
Continuous
 62
     4
370
     9
100
AcDbLine
 10
479.0769009976773
 20
-227.4324819203969
 30
0.0
 11
479.8768739442568
 21
-228.2324548669763
 31
0.0
  0
LINE
  5
163
330
1F
100
AcDbEntity
  8
1-2ﾚｲﾔ
  6
Continuous
 62
     4
370
     9
100
AcDbLine
 10
479.8768739442568
 20
-242.6324627850506
 30
0.0
 11
479.0769009976773
 21
-243.43243573163
 31
0.0
  0
LINE
  5
164
330
1F
100
AcDbEntity
  8
1-0ﾚｲﾔ
  6
Continuous
 62
     4
370
     9
100
AcDbLine
 10
474.0768845016893
 20
-223.9323219093117
 30
0.0
 11
477.0768449113177
 21
-223.9323219093117
 31
0.0
  0
LINE
  5
165
330
1F
100
AcDbEntity
  8
1-0ﾚｲﾔ
  6
Continuous
 62
     4
370
     9
100
AcDbLine
 10
474.0768845016893
 20
-246.932472022804
 30
0.0
 11
477.0768449113177
 21
-246.932472022804
 31
0.0
  0
LINE
  5
166
330
1F
100
AcDbEntity
  8
1-0ﾚｲﾔ
  6
Continuous
 62
     6
370
     9
100
AcDbLine
 10
477.0768449113177
 20
-224.4323977908572
 30
0.0
 11
479.0769009976773
 21
-224.4323977908572
 31
0.0
  0
LINE
  5
167
330
1F
100
AcDbEntity
  8
1-0ﾚｲﾔ
  6
Continuous
 62
     6
370
     9
100
AcDbLine
 10
477.0768449113177
 20
-246.4323961412584
 30
0.0
 11
479.0769009976773
 21
-246.4323961412584
 31
0.0
  0
LINE
  5
168
330
1F
100
AcDbEntity
  8
1-0ﾚｲﾔ
  6
Continuous
 62
     6
370
     9
100
AcDbLine
 10
479.0769009976773
 20
-242.1824934675887
 30
0.0
 11
477.0768449113177
 21
-242.1824934675887
 31
0.0
  0
LINE
  5
169
330
1F
100
AcDbEntity
  8
1-0ﾚｲﾔ
  6
Continuous
 62
     6
370
     9
100
AcDbLine
 10
479.0769009976773
 20
-228.682300464527
 30
0.0
 11
477.0768449113177
 21
-228.682300464527
 31
0.0
  0
LINE
  5
16A
330
1F
100
AcDbEntity
  8
1-0ﾚｲﾔ
  6
Continuous
 62
     4
370
     9
100
AcDbLine
 10
474.0768845016893
 20
-233.932354901288
 30
0.0
 11
476.076940588049
 21
-233.932354901288
 31
0.0
  0
LINE
  5
16B
330
1F
100
AcDbEntity
  8
1-0ﾚｲﾔ
  6
Continuous
 62
     4
370
     9
100
AcDbLine
 10
474.0768845016893
 20
-236.9324390308277
 30
0.0
 11
476.076940588049
 21
-236.9324390308277
 31
0.0
  0
LINE
  5
16C
330
1F
100
AcDbEntity
  8
1-0ﾚｲﾔ
  6
Continuous
 62
     4
370
     9
100
AcDbLine
 10
476.076940588049
 20
-233.932354901288
 30
0.0
 11
476.076940588049
 21
-236.9324390308277
 31
0.0
  0
LINE
  5
16D
330
1F
100
AcDbEntity
  8
1-0ﾚｲﾔ
  6
Continuous
 62
     4
370
     9
100
AcDbLine
 10
485.9943286792654
 20
-243.43243573163
 30
0.0
 11
485.9943286792654
 21
-227.4324819203969
 31
0.0
  0
LINE
  5
16E
330
1F
100
AcDbEntity
  8
1-0ﾚｲﾔ
  6
Continuous
 62
     4
370
     9
100
AcDbLine
 10
477.0768449113177
 20
-223.9323219093117
 30
0.0
 11
477.0768449113177
 21
-246.932472022804
 31
0.0
  0
LINE
  5
16F
330
1F
100
AcDbEntity
  8
1-0ﾚｲﾔ
  6
Continuous
 62
     4
370
     9
100
AcDbLine
 10
487.0766304634714
 20
-242.6324627850506
 30
0.0
 11
487.0766304634714
 21
-228.2324548669763
 31
0.0
  0
LINE
  5
170
330
1F
100
AcDbEntity
  8
1-0ﾚｲﾔ
  6
Continuous
 62
     4
370
     9
100
AcDbLine
 10
485.9943286792654
 20
-227.4324819203969
 30
0.0
 11
487.0766304634714
 21
-228.2324548669763
 31
0.0
  0
LINE
  5
171
330
1F
100
AcDbEntity
  8
1-0ﾚｲﾔ
  6
Continuous
 62
     4
370
     9
100
AcDbLine
 10
487.0766304634714
 20
-242.6324627850506
 30
0.0
 11
485.9943286792654
 21
-243.43243573163
 31
0.0
  0
LINE
  5
172
330
1F
100
AcDbEntity
  8
1-0ﾚｲﾔ
  6
Continuous
 62
     4
370
     9
100
AcDbLine
 10
479.8768739442568
 20
-228.2324548669763
 30
0.0
 11
498.0770626583615
 21
-228.2324548669763
 31
0.0
  0
LINE
  5
173
330
1F
100
AcDbEntity
  8
1-0ﾚｲﾔ
  6
Continuous
 62
     4
370
     9
100
AcDbLine
 10
479.0769009976773
 20
-227.4324819203969
 30
0.0
 11
498.0770626583615
 21
-227.4324819203969
 31
0.0
  0
LINE
  5
174
330
1F
100
AcDbEntity
  8
1-0ﾚｲﾔ
  6
Continuous
 62
     4
370
     9
100
AcDbLine
 10
479.0769009976773
 20
-243.43243573163
 30
0.0
 11
498.0770626583615
 21
-243.43243573163
 31
0.0
  0
LINE
  5
175
330
1F
100
AcDbEntity
  8
1-0ﾚｲﾔ
  6
Continuous
 62
     4
370
     9
100
AcDbLine
 10
479.8768739442568
 20
-242.6324627850506
 30
0.0
 11
498.0770626583615
 21
-242.6324627850506
 31
0.0
  0
LINE
  5
176
330
1F
100
AcDbEntity
  8
1-3ﾚｲﾔ
  6
Continuous
 62
     4
370
     9
100
AcDbLine
 10
482.5769372888513
 20
-256.4323054133234
 30
0.0
 11
482.5769372888513
 21
-269.8483688766892
 31
0.0
  0
LINE
  5
177
330
1F
100
AcDbEntity
  8
1-3ﾚｲﾔ
  6
Continuous
 62
     4
370
     9
100
AcDbLine
 10
512.5769125448693
 20
211.5673333245356
 30
0.0
 11
512.5769125448693
 21
179.5674257020693
 31
0.0
  0
LINE
  5
178
330
1F
100
AcDbEntity
  8
1-3ﾚｲﾔ
  6
Continuous
 62
     4
370
     9
100
AcDbLine
 10
474.0768845016893
 20
233.5672079550254
 30
0.0
 11
474.0768845016893
 21
160.0674355996622
 31
0.0
  0
LINE
  5
179
330
1F
100
AcDbEntity
  8
1-3ﾚｲﾔ
  6
Continuous
 62
     4
370
     9
100
AcDbLine
 10
481.035139754012
 20
231.9301460884714
 30
0.0
 11
474.0768845016893
 21
233.5672079550254
 31
0.0
  0
LINE
  5
17A
330
1F
100
AcDbEntity
  8
1-3ﾚｲﾔ
  6
Continuous
 62
     4
370
     9
100
AcDbLine
 10
480.5768812024917
 20
160.0674355996622
 30
0.0
 11
474.0768845016893
 21
160.0674355996622
 31
0.0
  0
LINE
  5
17B
330
1F
100
AcDbEntity
  8
1-3ﾚｲﾔ
  6
Continuous
 62
     4
370
     9
100
AcDbLine
 10
487.5769537848396
 20
211.5673333245356
 30
0.0
 11
512.5769125448693
 21
211.5673333245356
 31
0.0
  0
LINE
  5
17C
330
1F
100
AcDbEntity
  8
1-3ﾚｲﾔ
  6
Continuous
 62
     4
370
     9
100
AcDbLine
 10
487.5769537848396
 20
179.5674257020693
 30
0.0
 11
512.5769125448693
 21
179.5674257020693
 31
0.0
  0
LINE
  5
17D
330
1F
100
AcDbEntity
  8
1-3ﾚｲﾔ
  6
Continuous
 62
     4
370
     9
100
AcDbLine
 10
482.5769372888513
 20
174.5674092060811
 30
0.0
 11
482.5769372888513
 21
162.067491686022
 31
0.0
  0
LINE
  5
17E
330
1F
100
AcDbEntity
  8
1-1ﾚｲﾔ
  6
Continuous
 62
     3
370
     9
100
AcDbLine
 10
512.5769125448693
 20
179.5674257020693
 30
0.0
 11
512.5769125448693
 21
211.5673333245356
 31
0.0
  0
LINE
  5
17F
330
1F
100
AcDbEntity
  8
1-3ﾚｲﾔ
  6
JWW_CENTER1
 62
     4
370
     9
100
AcDbLine
 10
469.4695550042232
 20
195.5673795133025
 30
0.0
 11
528.6971221099029
 21
195.5673795133025
 31
0.0
  0
LINE
  5
180
330
1F
100
AcDbEntity
  8
1-3ﾚｲﾔ
  6
Continuous
 62
     4
370
     9
100
AcDbLine
 10
482.5769372888513
 20
216.5673498205237
 30
0.0
 11
482.5769372888513
 21
229.9832895639781
 31
0.0
  0
LINE
  5
181
330
1F
100
AcDbEntity
  8
1-3ﾚｲﾔ
  6
Continuous
 62
     2
370
     9
100
AcDbLine
 10
-371.0875433844488
 20
-309.9323829444679
 30
0.0
 11
-352.7027027027026
 21
-291.5476041226773
 31
0.0
  0
LINE
  5
182
330
1F
100
AcDbEntity
  8
1-3ﾚｲﾔ
  6
Continuous
 62
     2
370
     9
100
AcDbLine
 10
-352.7027027027026
 20
-291.5476041226773
 30
0.0
 11
-334.3179238809121
 21
-309.9323829444679
 31
0.0
  0
LINE
  5
183
330
1F
100
AcDbEntity
  8
1-3ﾚｲﾔ
  6
Continuous
 62
     2
370
     9
100
AcDbLine
 10
-334.3179238809121
 20
-309.9323829444679
 30
0.0
 11
-352.7027645626583
 21
-328.3171617662584
 31
0.0
  0
LINE
  5
184
330
1F
100
AcDbEntity
  8
1-3ﾚｲﾔ
  6
Continuous
 62
     2
370
     9
100
AcDbLine
 10
-352.7027645626583
 20
-328.3171617662584
 30
0.0
 11
-371.0875433844488
 21
-309.9323829444679
 31
0.0
  0
LINE
  5
185
330
1F
100
AcDbEntity
  8
1-0ﾚｲﾔ
  6
JWW_CENTER1
 62
     4
370
     9
100
AcDbLine
 10
-328.1932933910473
 20
-309.9323829444679
 30
0.0
 11
-375.7310609559755
 21
-309.9323829444679
 31
0.0
  0
LINE
  5
186
330
1F
100
AcDbEntity
  8
1-3ﾚｲﾔ
  6
Continuous
 62
     2
370
     9
100
AcDbLine
 10
-62.70298313450169
 20
-38.31744219805742
 30
0.0
 11
-81.08788567620351
 21
-19.93266337626679
 31
0.0
  0
LINE
  5
187
330
1F
100
AcDbEntity
  8
1-3ﾚｲﾔ
  6
Continuous
 62
     2
370
     9
100
AcDbLine
 10
-44.31820431271106
 20
-19.93278709617812
 30
0.0
 11
-62.70298313450169
 21
-38.31744219805742
 31
0.0
  0
LINE
  5
188
330
1F
100
AcDbEntity
  8
1-0ﾚｲﾔ
  6
Continuous
 62
     2
370
     9
100
AcDbLine
 10
551.3769613729943
 20
283.0672970333616
 30
0.0
 11
551.3769613729943
 21
257.0673102301521
 31
0.0
  0
LINE
  5
189
330
1F
100
AcDbEntity
  8
1-0ﾚｲﾔ
  6
Continuous
 62
     2
370
     9
100
AcDbLine
 10
549.0768845016894
 20
283.0672970333616
 30
0.0
 11
551.3769613729943
 21
283.0672970333616
 31
0.0
  0
LINE
  5
18A
330
1F
100
AcDbEntity
  8
1-0ﾚｲﾔ
  6
Continuous
 62
     2
370
     9
100
AcDbLine
 10
549.0768845016894
 20
257.0673102301521
 30
0.0
 11
551.3769613729943
 21
257.0673102301521
 31
0.0
  0
LINE
  5
18B
330
1F
100
AcDbEntity
  8
1-0ﾚｲﾔ
  6
Continuous
 62
     2
370
     9
100
AcDbLine
 10
539.9775324641047
 20
284.1575168918919
 30
0.0
 11
549.0768845016894
 21
285.067600559544
 31
0.0
  0
LINE
  5
18C
330
1F
100
AcDbEntity
  8
1-3ﾚｲﾔ
  6
Continuous
 62
     2
370
     9
100
AcDbLine
 10
528.5767426361908
 20
273.3909153293919
 30
0.0
 11
521.3769861169762
 21
273.3909153293919
 31
0.0
  0
LINE
  5
18D
330
1F
100
AcDbEntity
  8
1-3ﾚｲﾔ
  6
Continuous
 62
     2
370
     9
100
AcDbLine
 10
528.5767426361908
 20
274.0671683646538
 30
0.0
 11
522.0536103119721
 21
274.0671683646538
 31
0.0
  0
LINE
  5
18E
330
1F
100
AcDbEntity
  8
1-3ﾚｲﾔ
  6
Continuous
 62
     2
370
     9
100
AcDbLine
 10
528.5767426361908
 20
266.7439393739443
 30
0.0
 11
521.3769861169762
 21
266.7439393739443
 31
0.0
  0
LINE
  5
18F
330
1F
100
AcDbEntity
  8
1-3ﾚｲﾔ
  6
Continuous
 62
     2
370
     9
100
AcDbLine
 10
528.5767426361908
 20
266.0671914590372
 30
0.0
 11
522.0536103119721
 21
266.0671914590372
 31
0.0
  0
LINE
  5
190
330
1F
100
AcDbEntity
  8
1-3ﾚｲﾔ
  6
Continuous
 62
     4
370
     9
100
AcDbLine
 10
535.0769867768158
 20
-367.4323252085093
 30
0.0
 11
539.0769752296242
 21
-367.4323252085093
 31
0.0
  0
LINE
  5
191
330
1F
100
AcDbEntity
  8
1-3ﾚｲﾔ
  6
Continuous
 62
     4
370
     9
100
AcDbLine
 10
535.0769867768158
 20
-297.4324654244088
 30
0.0
 11
535.0769867768158
 21
-367.4323252085093
 31
0.0
  0
LINE
  5
192
330
1F
100
AcDbEntity
  8
1-3ﾚｲﾔ
  6
Continuous
 62
     4
370
     9
100
AcDbLine
 10
535.0769867768158
 20
-297.4324654244088
 30
0.0
 11
539.0769752296242
 21
-297.4324654244088
 31
0.0
  0
LINE
  5
193
330
1F
100
AcDbEntity
  8
1-3ﾚｲﾔ
  6
Continuous
 62
     4
370
     9
100
AcDbLine
 10
539.0769752296242
 20
-297.4324654244088
 30
0.0
 11
539.0769752296242
 21
-367.4323252085093
 31
0.0
  0
LINE
  5
194
330
1F
100
AcDbEntity
  8
1-3ﾚｲﾔ
  6
Continuous
 62
     2
370
     9
100
AcDbLine
 10
551.3769613729943
 20
-302.7422765783361
 30
0.0
 11
551.3769613729943
 21
-317.1223655906883
 31
0.0
  0
LINE
  5
195
330
1F
100
AcDbEntity
  8
1-3ﾚｲﾔ
  6
Continuous
 62
     2
370
     9
100
AcDbLine
 10
556.0669357712206
 20
-317.1223655906883
 30
0.0
 11
551.3769613729943
 21
-317.1223655906883
 31
0.0
  0
LINE
  5
196
330
1F
100
AcDbEntity
  8
1-3ﾚｲﾔ
  6
Continuous
 62
     2
370
     9
100
AcDbLine
 10
556.6769986539273
 20
-304.3373973949535
 30
0.0
 11
556.6769986539273
 21
-315.5272447740709
 31
0.0
  0
LINE
  5
197
330
1F
100
AcDbEntity
  8
1-3ﾚｲﾔ
  6
Continuous
 62
     2
370
     9
100
AcDbLine
 10
556.0669357712206
 20
-302.7422765783361
 30
0.0
 11
551.3769613729943
 21
-302.7422765783361
 31
0.0
  0
LINE
  5
198
330
1F
100
AcDbEntity
  8
1-3ﾚｲﾔ
  6
Continuous
 62
     2
370
     9
100
AcDbLine
 10
527.0536268079604
 20
-313.9322476773648
 30
0.0
 11
526.3770026129646
 21
-313.2557472022804
 31
0.0
  0
LINE
  5
199
330
1F
100
AcDbEntity
  8
1-3ﾚｲﾔ
  6
Continuous
 62
     2
370
     9
100
AcDbLine
 10
526.3770026129646
 20
-313.2557472022804
 30
0.0
 11
526.3770026129646
 21
-306.6088949667441
 31
0.0
  0
LINE
  5
19A
330
1F
100
AcDbEntity
  8
1-3ﾚｲﾔ
  6
Continuous
 62
     2
370
     9
100
AcDbLine
 10
526.3770026129646
 20
-306.6088949667441
 30
0.0
 11
527.0536268079604
 21
-305.9322707717483
 31
0.0
  0
LINE
  5
19B
330
1F
100
AcDbEntity
  8
1-0ﾚｲﾔ
  6
JWW_CENTER1
 62
     4
370
     9
100
AcDbLine
 10
522.427491883974
 20
-309.9323829444679
 30
0.0
 11
559.3951251055745
 21
-309.9323829444679
 31
0.0
  0
LINE
  5
19C
330
1F
100
AcDbEntity
  8
1-3ﾚｲﾔ
  6
Continuous
 62
     2
370
     9
100
AcDbLine
 10
529.2985245988177
 20
-302.4323582004856
 30
0.0
 11
535.0767393369932
 21
-302.4323582004856
 31
0.0
  0
LINE
  5
19D
330
1F
100
AcDbEntity
  8
1-3ﾚｲﾔ
  6
Continuous
 62
     2
370
     9
100
AcDbLine
 10
529.2985245988177
 20
-317.4322839685388
 30
0.0
 11
535.0767393369932
 21
-317.4322839685388
 31
0.0
  0
LINE
  5
19E
330
1F
100
AcDbEntity
  8
1-3ﾚｲﾔ
  6
Continuous
 62
     2
370
     9
100
AcDbLine
 10
535.0767393369932
 20
-302.4323582004856
 30
0.0
 11
535.0767393369932
 21
-317.4322839685388
 31
0.0
  0
LINE
  5
19F
330
1F
100
AcDbEntity
  8
1-3ﾚｲﾔ
  6
Continuous
 62
     2
370
     9
100
AcDbLine
 10
529.2985245988177
 20
-306.1851542704813
 30
0.0
 11
535.0767393369932
 21
-306.1851542704813
 31
0.0
  0
LINE
  5
1A0
330
1F
100
AcDbEntity
  8
1-3ﾚｲﾔ
  6
Continuous
 62
     2
370
     9
100
AcDbLine
 10
529.2985245988177
 20
-313.6796116184544
 30
0.0
 11
535.0767393369932
 21
-313.6796116184544
 31
0.0
  0
LINE
  5
1A1
330
1F
100
AcDbEntity
  8
1-3ﾚｲﾔ
  6
Continuous
 62
     2
370
     9
100
AcDbLine
 10
528.5767426361908
 20
-304.3088180954392
 30
0.0
 11
528.5767426361908
 21
-315.5559477934966
 31
0.0
  0
LINE
  5
1A2
330
1F
100
AcDbEntity
  8
1-3ﾚｲﾔ
  6
Continuous
 62
     2
370
     9
100
AcDbLine
 10
527.0536268079604
 20
-305.9322707717483
 30
0.0
 11
527.0536268079604
 21
-313.9322476773648
 31
0.0
  0
LINE
  5
1A3
330
1F
100
AcDbEntity
  8
1-0ﾚｲﾔ
  6
Continuous
 62
     2
370
     9
100
AcDbLine
 10
556.0670594911318
 20
-313.9322476773648
 30
0.0
 11
551.3769613729943
 21
-313.9322476773648
 31
0.0
  0
LINE
  5
1A4
330
1F
100
AcDbEntity
  8
1-0ﾚｲﾔ
  6
Continuous
 62
     2
370
     9
100
AcDbLine
 10
556.0670594911318
 20
-305.9323944916596
 30
0.0
 11
551.3769613729943
 21
-305.9323944916596
 31
0.0
  0
LINE
  5
1A5
330
1F
100
AcDbEntity
  8
1-3ﾚｲﾔ
  6
Continuous
 62
     2
370
     9
100
AcDbLine
 10
528.5767426361908
 20
-313.2557472022804
 30
0.0
 11
526.3770026129646
 21
-313.2557472022804
 31
0.0
  0
LINE
  5
1A6
330
1F
100
AcDbEntity
  8
1-3ﾚｲﾔ
  6
Continuous
 62
     2
370
     9
100
AcDbLine
 10
528.5767426361908
 20
-313.9322476773648
 30
0.0
 11
527.0536268079604
 21
-313.9322476773648
 31
0.0
  0
LINE
  5
1A7
330
1F
100
AcDbEntity
  8
1-3ﾚｲﾔ
  6
Continuous
 62
     2
370
     9
100
AcDbLine
 10
528.5767426361908
 20
-306.6088949667441
 30
0.0
 11
526.3770026129646
 21
-306.6088949667441
 31
0.0
  0
LINE
  5
1A8
330
1F
100
AcDbEntity
  8
1-3ﾚｲﾔ
  6
Continuous
 62
     2
370
     9
100
AcDbLine
 10
528.5767426361908
 20
-305.9322707717483
 30
0.0
 11
527.0536268079604
 21
-305.9322707717483
 31
0.0
  0
LINE
  5
1A9
330
1F
100
AcDbEntity
  8
1-0ﾚｲﾔ
  6
Continuous
 62
     2
370
     9
100
AcDbLine
 10
551.3769613729943
 20
-322.9323763460726
 30
0.0
 11
551.3769613729943
 21
-296.9323895428631
 31
0.0
  0
LINE
  5
1AA
330
1F
100
AcDbEntity
  8
1-0ﾚｲﾔ
  6
Continuous
 62
     2
370
     9
100
AcDbLine
 10
549.0768845016894
 20
-322.9323763460726
 30
0.0
 11
551.3769613729943
 21
-322.9323763460726
 31
0.0
  0
LINE
  5
1AB
330
1F
100
AcDbEntity
  8
1-0ﾚｲﾔ
  6
Continuous
 62
     2
370
     9
100
AcDbLine
 10
549.0768845016894
 20
-296.9323895428631
 30
0.0
 11
551.3769613729943
 21
-296.9323895428631
 31
0.0
  0
LINE
  5
1AC
330
1F
100
AcDbEntity
  8
1-0ﾚｲﾔ
  6
JWW_CENTER1
 62
     4
370
     9
100
AcDbLine
 10
516.4398193359375
 20
270.0673036317568
 30
0.0
 11
559.3951251055745
 21
270.0673036317568
 31
0.0
  0
LINE
  5
1AD
330
1F
100
AcDbEntity
  8
1-1ﾚｲﾔ
  6
Continuous
 62
     3
370
     9
100
AcDbLine
 10
512.5769125448693
 20
179.5674257020693
 30
0.0
 11
514.0770164695948
 21
178.5675213788008
 31
0.0
  0
LINE
  5
1AE
330
1F
100
AcDbEntity
  8
1-1ﾚｲﾔ
  6
Continuous
 62
     3
370
     9
100
AcDbLine
 10
512.5769125448693
 20
211.5673333245356
 30
0.0
 11
514.0770164695948
 21
212.5674850876267
 31
0.0
  0
LINE
  5
1AF
330
1F
100
AcDbEntity
  8
1-1ﾚｲﾔ
  6
Continuous
 62
     3
370
     9
100
AcDbLine
 10
514.0770164695948
 20
218.968505859375
 30
0.0
 11
514.0770164695948
 21
212.5674850876267
 31
0.0
  0
LINE
  5
1B0
330
1F
100
AcDbEntity
  8
1-1ﾚｲﾔ
  6
Continuous
 62
     3
370
     9
100
AcDbLine
 10
514.0770164695948
 20
178.5675213788008
 30
0.0
 11
514.0770164695948
 21
-218.4324769716005
 31
0.0
  0
LINE
  5
1B1
330
1F
100
AcDbEntity
  8
1-3ﾚｲﾔ
  6
Continuous
 62
     4
370
     9
100
AcDbLine
 10
507.5770197687922
 20
211.5673333245356
 30
0.0
 11
507.5770197687922
 21
179.5674257020693
 31
0.0
  0
LINE
  5
1B2
330
1F
100
AcDbEntity
  8
1-3ﾚｲﾔ
  6
Continuous
 62
     4
370
     9
100
AcDbLine
 10
480.0349879909206
 20
229.6655768317146
 30
0.0
 11
474.0768845016893
 21
231.0673234269426
 31
0.0
  0
LINE
  5
1B3
330
1F
100
AcDbEntity
  8
1-3ﾚｲﾔ
  6
Continuous
 62
     4
370
     9
100
AcDbLine
 10
479.5769768792232
 20
161.5671683646538
 30
0.0
 11
474.0768845016893
 21
161.5671683646538
 31
0.0
  0
LINE
  5
1B4
330
1F
100
AcDbEntity
  8
1-3ﾚｲﾔ
  6
Continuous
 62
     4
370
     9
100
AcDbLine
 10
481.5770329655828
 20
163.5672244510135
 30
0.0
 11
481.5770329655828
 21
227.7187203072214
 31
0.0
  0
LINE
  5
1B5
330
1F
100
AcDbEntity
  8
1-3ﾚｲﾔ
  6
JWW_DASHED1
 62
     4
370
     9
100
AcDbLine
 10
474.0768845016893
 20
207.3173069309544
 30
0.0
 11
479.0769009976773
 21
207.3173069309544
 31
0.0
  0
LINE
  5
1B6
330
1F
100
AcDbEntity
  8
1-3ﾚｲﾔ
  6
JWW_DASHED1
 62
     4
370
     9
100
AcDbLine
 10
479.0769009976773
 20
207.3173069309544
 30
0.0
 11
479.0769009976773
 21
183.8172046558277
 31
0.0
  0
LINE
  5
1B7
330
1F
100
AcDbEntity
  8
1-3ﾚｲﾔ
  6
JWW_DASHED1
 62
     4
370
     9
100
AcDbLine
 10
474.0768845016893
 20
183.8172046558277
 30
0.0
 11
479.0769009976773
 21
183.8172046558277
 31
0.0
  0
LINE
  5
1B8
330
1F
100
AcDbEntity
  8
1-3ﾚｲﾔ
  6
JWW_DASHED1
 62
     4
370
     9
100
AcDbLine
 10
512.5769125448693
 20
185.567346521326
 30
0.0
 11
500.0768713048987
 21
185.567346521326
 31
0.0
  0
LINE
  5
1B9
330
1F
100
AcDbEntity
  8
1-3ﾚｲﾔ
  6
JWW_DASHED1
 62
     4
370
     9
100
AcDbLine
 10
496.0768828520904
 20
189.5672112542231
 30
0.0
 11
479.0769009976773
 21
189.5672112542231
 31
0.0
  0
LINE
  5
1BA
330
1F
100
AcDbEntity
  8
1-3ﾚｲﾔ
  6
JWW_DASHED1
 62
     4
370
     9
100
AcDbLine
 10
500.0768713048987
 20
205.5674125052788
 30
0.0
 11
512.5769125448693
 21
205.5674125052788
 31
0.0
  0
LINE
  5
1BB
330
1F
100
AcDbEntity
  8
1-3ﾚｲﾔ
  6
JWW_DASHED1
 62
     4
370
     9
100
AcDbLine
 10
498.0770626583615
 20
203.4673907305744
 30
0.0
 11
498.0770626583615
 21
203.567356418919
 31
0.0
  0
LINE
  5
1BC
330
1F
100
AcDbEntity
  8
1-3ﾚｲﾔ
  6
JWW_DASHED1
 62
     4
370
     9
100
AcDbLine
 10
496.1769722603464
 20
201.5673003325591
 30
0.0
 11
479.0769009976773
 21
201.5673003325591
 31
0.0
  0
LINE
  5
1BD
330
1F
100
AcDbEntity
  8
1-3ﾚｲﾔ
  6
JWW_DASHED1
 62
     4
370
     9
100
AcDbLine
 10
498.0770626583615
 20
187.6673682960305
 30
0.0
 11
498.0770626583615
 21
187.5674026076858
 31
0.0
  0
LINE
  5
1BE
330
1F
100
AcDbEntity
  8
1-3ﾚｲﾔ
  6
JWW_DASHED1
 62
     4
370
     9
100
AcDbLine
 10
498.0770626583615
 20
203.4673907305744
 30
0.0
 11
498.0770626583615
 21
187.6673682960305
 31
0.0
  0
LINE
  5
1BF
330
1F
100
AcDbEntity
  8
1-3ﾚｲﾔ
  6
Continuous
 62
     2
370
     9
100
AcDbLine
 10
521.07684161212
 20
188.3772731471707
 30
0.0
 11
521.07684161212
 21
202.7574858794341
 31
0.0
  0
LINE
  5
1C0
330
1F
100
AcDbEntity
  8
1-3ﾚｲﾔ
  6
Continuous
 62
     2
370
     9
100
AcDbLine
 10
525.7668160103464
 20
202.7574858794341
 30
0.0
 11
521.07684161212
 21
202.7574858794341
 31
0.0
  0
LINE
  5
1C1
330
1F
100
AcDbEntity
  8
1-3ﾚｲﾔ
  6
Continuous
 62
     2
370
     9
100
AcDbLine
 10
526.3768788930533
 20
189.9722702438767
 30
0.0
 11
526.3768788930533
 21
201.1622413429055
 31
0.0
  0
LINE
  5
1C2
330
1F
100
AcDbEntity
  8
1-3ﾚｲﾔ
  6
Continuous
 62
     2
370
     9
100
AcDbLine
 10
525.7668160103464
 20
188.3772731471707
 30
0.0
 11
521.07684161212
 21
188.3772731471707
 31
0.0
  0
LINE
  5
1C3
330
1F
100
AcDbEntity
  8
1-3ﾚｲﾔ
  6
Continuous
 62
     2
370
     9
100
AcDbLine
 10
505.753635715794
 20
199.5672442461994
 30
0.0
 11
505.076887800887
 21
198.890743771115
 31
0.0
  0
LINE
  5
1C4
330
1F
100
AcDbEntity
  8
1-3ﾚｲﾔ
  6
Continuous
 62
     2
370
     9
100
AcDbLine
 10
505.076887800887
 20
198.890743771115
 30
0.0
 11
505.076887800887
 21
192.2437678156673
 31
0.0
  0
LINE
  5
1C5
330
1F
100
AcDbEntity
  8
1-3ﾚｲﾔ
  6
Continuous
 62
     2
370
     9
100
AcDbLine
 10
505.076887800887
 20
192.2437678156673
 30
0.0
 11
505.753635715794
 21
191.5672673405828
 31
0.0
  0
LINE
  5
1C6
330
1F
100
AcDbEntity
  8
1-3ﾚｲﾔ
  6
Continuous
 62
     2
370
     9
100
AcDbLine
 10
505.753635715794
 20
191.5672673405828
 30
0.0
 11
505.753635715794
 21
199.5672442461994
 31
0.0
  0
LINE
  5
1C7
330
1F
100
AcDbEntity
  8
1-0ﾚｲﾔ
  6
Continuous
 62
     2
370
     9
100
AcDbLine
 10
525.7669397302575
 20
199.5672442461994
 30
0.0
 11
521.07684161212
 21
199.5672442461994
 31
0.0
  0
LINE
  5
1C8
330
1F
100
AcDbEntity
  8
1-0ﾚｲﾔ
  6
Continuous
 62
     2
370
     9
100
AcDbLine
 10
525.7669397302575
 20
191.5675147804055
 30
0.0
 11
521.07684161212
 21
191.5675147804055
 31
0.0
  0
LINE
  5
1C9
330
1F
100
AcDbEntity
  8
1-3ﾚｲﾔ
  6
Continuous
 62
     2
370
     9
100
AcDbLine
 10
507.5770197687922
 20
198.890743771115
 30
0.0
 11
505.076887800887
 21
198.890743771115
 31
0.0
  0
LINE
  5
1CA
330
1F
100
AcDbEntity
  8
1-3ﾚｲﾔ
  6
Continuous
 62
     2
370
     9
100
AcDbLine
 10
507.5770197687922
 20
199.5672442461994
 30
0.0
 11
505.753635715794
 21
199.5672442461994
 31
0.0
  0
LINE
  5
1CB
330
1F
100
AcDbEntity
  8
1-3ﾚｲﾔ
  6
Continuous
 62
     2
370
     9
100
AcDbLine
 10
507.5770197687922
 20
192.2437678156673
 30
0.0
 11
505.076887800887
 21
192.2437678156673
 31
0.0
  0
LINE
  5
1CC
330
1F
100
AcDbEntity
  8
1-3ﾚｲﾔ
  6
Continuous
 62
     2
370
     9
100
AcDbLine
 10
507.5770197687922
 20
191.5672673405828
 30
0.0
 11
505.753635715794
 21
191.5672673405828
 31
0.0
  0
LINE
  5
1CD
330
1F
100
AcDbEntity
  8
1-3ﾚｲﾔ
  6
JWW_DASHED1
 62
     2
370
     9
100
AcDbLine
 10
507.5770197687922
 20
199.5672442461994
 30
0.0
 11
521.07684161212
 21
199.5672442461994
 31
0.0
  0
LINE
  5
1CE
330
1F
100
AcDbEntity
  8
1-3ﾚｲﾔ
  6
JWW_DASHED1
 62
     2
370
     9
100
AcDbLine
 10
507.5770197687922
 20
191.5672673405828
 30
0.0
 11
521.07684161212
 21
191.5672673405828
 31
0.0
  0
LINE
  5
1CF
330
1F
100
AcDbEntity
  8
1-3ﾚｲﾔ
  6
JWW_DASHED1
 62
     2
370
     9
100
AcDbLine
 10
507.5770197687922
 20
198.890743771115
 30
0.0
 11
521.07684161212
 21
198.890743771115
 31
0.0
  0
LINE
  5
1D0
330
1F
100
AcDbEntity
  8
1-3ﾚｲﾔ
  6
JWW_DASHED1
 62
     2
370
     9
100
AcDbLine
 10
507.5770197687922
 20
192.2437678156673
 30
0.0
 11
521.07684161212
 21
192.2437678156673
 31
0.0
  0
LINE
  5
1D1
330
1F
100
AcDbEntity
  8
1-0ﾚｲﾔ
  6
Continuous
 62
     2
370
     9
100
AcDbLine
 10
-616.7022498878273
 20
-19.43258749472122
 30
0.0
 11
-623.6649590569574
 21
-15.41280385610222
 31
0.0
  0
LINE
  5
1D2
330
1F
100
AcDbEntity
  8
1-0ﾚｲﾔ
  6
Continuous
 62
     2
370
     9
100
AcDbLine
 10
-616.7005487390466
 20
-18.85630014780403
 30
0.0
 11
-623.6547830942515
 21
-14.84121786581497
 31
0.0
  0
LINE
  5
1D3
330
1F
100
AcDbEntity
  8
1-1ﾚｲﾔ
  6
Continuous
 62
     3
370
     9
100
AcDbLine
 10
-614.7005235826647
 20
-18.85432062922291
 30
0.0
 11
-603.5909085660367
 21
-12.440185546875
 31
0.0
  0
LINE
  5
1D4
330
1F
100
AcDbEntity
  8
1-1ﾚｲﾔ
  6
Continuous
 62
     3
370
     9
100
AcDbLine
 10
-614.7022865914009
 20
-19.43258749472122
 30
0.0
 11
-603.6077654039537
 21
-13.02723652607682
 31
0.0
  0
LINE
  5
1D5
330
1F
100
AcDbEntity
  8
1-0ﾚｲﾔ
  6
Continuous
 62
     2
370
     9
100
AcDbLine
 10
-374.7027010531039
 20
257.029451937289
 30
0.0
 11
-374.7027010531039
 21
269.0723481049409
 31
0.0
  0
LINE
  5
1D6
330
1F
100
AcDbEntity
  8
1-0ﾚｲﾔ
  6
Continuous
 62
     2
370
     9
100
AcDbLine
 10
-372.702644966744
 20
256.9747677364866
 30
0.0
 11
-372.702644966744
 21
271.2371991131758
 31
0.0
  0
LINE
  5
1D7
330
1F
100
AcDbEntity
  8
1-0ﾚｲﾔ
  6
Continuous
 62
     2
370
     9
100
AcDbLine
 10
-330.7027043523015
 20
257.029451937289
 30
0.0
 11
-330.7027043523015
 21
269.0723481049409
 31
0.0
  0
LINE
  5
1D8
330
1F
100
AcDbEntity
  8
1-0ﾚｲﾔ
  6
Continuous
 62
     2
370
     9
100
AcDbLine
 10
-332.7027604386614
 20
256.9747677364866
 30
0.0
 11
-332.7027604386614
 21
271.2371991131758
 31
0.0
  0
LINE
  5
1D9
330
1F
100
AcDbEntity
  8
1-0ﾚｲﾔ
  6
Continuous
 62
     2
370
     9
100
AcDbLine
 10
-75.74058738914687
 20
2.067334974134383
 30
0.0
 11
-63.69769122149492
 21
2.067334974134383
 31
0.0
  0
LINE
  5
1DA
330
1F
100
AcDbEntity
  8
1-0ﾚｲﾔ
  6
Continuous
 62
     2
370
     9
100
AcDbLine
 10
-75.79539530986054
 20
0.0672788877744779
 30
0.0
 11
-61.53271649334883
 21
0.0672788877744779
 31
0.0
  0
LINE
  5
1DB
330
1F
100
AcDbEntity
  8
1-0ﾚｲﾔ
  6
Continuous
 62
     2
370
     9
100
AcDbLine
 10
-629.6648489462362
 20
2.067334974134383
 30
0.0
 11
-641.7077760438661
 21
2.067334974134383
 31
0.0
  0
LINE
  5
1DC
330
1F
100
AcDbEntity
  8
1-0ﾚｲﾔ
  6
Continuous
 62
     2
370
     9
100
AcDbLine
 10
-629.6100719555004
 20
0.0672788877744779
 30
0.0
 11
-643.8727198420344
 21
0.0672788877744779
 31
0.0
  0
LINE
  5
1DD
330
1F
100
AcDbEntity
  8
1-0ﾚｲﾔ
  6
JWW_DASHED1
 62
     2
370
     9
100
AcDbLine
 10
-360.2026655867293
 20
-309.9326303842905
 30
0.0
 11
-360.2026655867293
 21
-320.8172607421875
 31
0.0
  0
LINE
  5
1DE
330
1F
100
AcDbEntity
  8
1-0ﾚｲﾔ
  6
Continuous
 62
     2
370
     9
100
AcDbLine
 10
-345.202739818676
 20
-320.8172607421875
 30
0.0
 11
-345.202739818676
 21
-322.8131103515625
 31
0.0
  0
LINE
  5
1DF
330
1F
100
AcDbEntity
  8
1-0ﾚｲﾔ
  6
JWW_DASHED1
 62
     2
370
     9
100
AcDbLine
 10
-345.202739818676
 20
-309.9326303842905
 30
0.0
 11
-345.202739818676
 21
-320.8172607421875
 31
0.0
  0
LINE
  5
1E0
330
1F
100
AcDbEntity
  8
1-0ﾚｲﾔ
  6
Continuous
 62
     2
370
     9
100
AcDbLine
 10
-360.2026655867293
 20
-320.8172607421875
 30
0.0
 11
-360.2026655867293
 21
-322.7836650126688
 31
0.0
  0
LINE
  5
1E1
330
1F
100
AcDbEntity
  8
1-0ﾚｲﾔ
  6
JWW_DASHED1
 62
     2
370
     9
100
AcDbLine
 10
-345.202739818676
 20
270.0673036317568
 30
0.0
 11
-345.202739818676
 21
282.9480310388515
 31
0.0
  0
LINE
  5
1E2
330
1F
100
AcDbEntity
  8
1-0ﾚｲﾔ
  6
JWW_DASHED1
 62
     2
370
     9
100
AcDbLine
 10
-360.2026655867293
 20
270.0673036317568
 30
0.0
 11
-360.2026655867293
 21
282.9183382601352
 31
0.0
  0
LINE
  5
1E3
330
1F
100
AcDbEntity
  8
1-0ﾚｲﾔ
  6
JWW_DASHED1
 62
     2
370
     9
100
AcDbLine
 10
-62.70273569467903
 20
-27.43256440033775
 30
0.0
 11
-51.81810533678203
 21
-27.43256440033775
 31
0.0
  0
LINE
  5
1E4
330
1F
100
AcDbEntity
  8
1-0ﾚｲﾔ
  6
Continuous
 62
     2
370
     9
100
AcDbLine
 10
-51.81810533678203
 20
-27.43256440033775
 30
0.0
 11
-49.85157734638932
 21
-27.43256440033775
 31
0.0
  0
LINE
  5
1E5
330
1F
100
AcDbEntity
  8
1-0ﾚｲﾔ
  6
JWW_DASHED1
 62
     2
370
     9
100
AcDbLine
 10
-62.70273569467903
 20
-12.43276235219597
 30
0.0
 11
-49.85157734638932
 21
-12.43276235219597
 31
0.0
  0
LINE
  5
1E6
330
1F
100
AcDbEntity
  8
1-3ﾚｲﾔ
  6
Continuous
 62
     4
370
     9
100
AcDbLine
 10
-700.2024573248787
 20
-7.432622136296345
 30
0.0
 11
-700.2024573248787
 21
-32.43270461623723
 31
0.0
  0
LINE
  5
1E7
330
1F
100
AcDbEntity
  8
1-3ﾚｲﾔ
  6
Continuous
 62
     4
370
     9
100
AcDbLine
 10
-700.2024573248787
 20
-7.432622136296345
 30
0.0
 11
-642.7024841308594
 21
-7.432622136296345
 31
0.0
  0
LINE
  5
1E8
330
1F
100
AcDbEntity
  8
1-3ﾚｲﾔ
  6
Continuous
 62
     4
370
     9
100
AcDbLine
 10
-700.2024573248787
 20
-32.43270461623723
 30
0.0
 11
-657.4464334023967
 21
-32.43270461623723
 31
0.0
  0
LINE
  5
1E9
330
1F
100
AcDbEntity
  8
1-3ﾚｲﾔ
  6
Continuous
 62
     2
370
     9
100
AcDbLine
 10
-650.2024470148859
 20
-19.93266337626679
 30
0.0
 11
-646.4497128048458
 21
-13.43266667546445
 31
0.0
  0
LINE
  5
1EA
330
1F
100
AcDbEntity
  8
1-3ﾚｲﾔ
  6
Continuous
 62
     2
370
     9
100
AcDbLine
 10
-646.4497128048458
 20
-13.43266667546445
 30
0.0
 11
-638.9552554568728
 21
-13.43266667546445
 31
0.0
  0
LINE
  5
1EB
330
1F
100
AcDbEntity
  8
1-3ﾚｲﾔ
  6
Continuous
 62
     2
370
     9
100
AcDbLine
 10
-635.2025212468327
 20
-19.93266337626679
 30
0.0
 11
-638.9552554568728
 21
-13.43266667546445
 31
0.0
  0
LINE
  5
1EC
330
1F
100
AcDbEntity
  8
1-3ﾚｲﾔ
  6
Continuous
 62
     2
370
     9
100
AcDbLine
 10
-649.8926523569468
 20
-19.93266337626679
 30
0.0
 11
-646.2976610338364
 21
-26.15936279296875
 31
0.0
  0
LINE
  5
1ED
330
1F
100
AcDbEntity
  8
1-3ﾚｲﾔ
  6
Continuous
 62
     2
370
     9
100
AcDbLine
 10
-646.2976610338364
 20
-26.15936279296875
 30
0.0
 11
-639.1075855976826
 21
-26.15936279296875
 31
0.0
  0
LINE
  5
1EE
330
1F
100
AcDbEntity
  8
1-3ﾚｲﾔ
  6
Continuous
 62
     2
370
     9
100
AcDbLine
 10
-639.1075855976826
 20
-26.15936279296875
 30
0.0
 11
-635.5125942745724
 21
-19.93266337626679
 31
0.0
  0
LINE
  5
1EF
330
1F
100
AcDbEntity
  8
1-3ﾚｲﾔ
  6
Continuous
 62
     2
370
     9
100
AcDbLine
 10
-642.7024841308594
 20
-38.31744219805742
 30
0.0
 11
-624.3175506591797
 21
-19.93266337626679
 31
0.0
  0
LINE
  5
1F0
330
1F
100
AcDbEntity
  8
1-3ﾚｲﾔ
  6
Continuous
 62
     2
370
     9
100
AcDbLine
 10
-661.0872320226722
 20
-19.93278709617812
 30
0.0
 11
-642.7024841308594
 21
-38.31744219805742
 31
0.0
  0
LINE
  5
1F1
330
1F
100
AcDbEntity
  8
1-0ﾚｲﾔ
  6
JWW_DASHED1
 62
     2
370
     9
100
AcDbLine
 10
-642.7026387807484
 20
-27.43256440033775
 30
0.0
 11
-653.5872691386454
 21
-27.43256440033775
 31
0.0
  0
LINE
  5
1F2
330
1F
100
AcDbEntity
  8
1-0ﾚｲﾔ
  6
Continuous
 62
     2
370
     9
100
AcDbLine
 10
-653.5872691386454
 20
-27.43256440033775
 30
0.0
 11
-655.5537971290382
 21
-27.43256440033775
 31
0.0
  0
LINE
  5
1F3
330
1F
100
AcDbEntity
  8
1-0ﾚｲﾔ
  6
JWW_DASHED1
 62
     2
370
     9
100
AcDbLine
 10
-642.7026387807484
 20
-12.43276235219597
 30
0.0
 11
-655.5537971290382
 21
-12.43276235219597
 31
0.0
  0
LINE
  5
1F4
330
1F
100
AcDbEntity
  8
1-0ﾚｲﾔ
  6
JWW_CENTER1
 62
     4
370
     9
100
AcDbLine
 10
-62.70298313450169
 20
-3.554250356313275
 30
0.0
 11
-62.70298313450169
 21
-42.87008749472122
 31
0.0
  0
LINE
  5
1F5
330
1F
100
AcDbEntity
  8
1-0ﾚｲﾔ
  6
JWW_CENTER1
 62
     4
370
     9
100
AcDbLine
 10
-642.7024841308594
 20
-2.904473382073434
 30
0.0
 11
-642.7024841308594
 21
-44.12027719858528
 31
0.0
  0
LINE
  5
1F6
330
1F
100
AcDbEntity
  8
1-4ﾚｲﾔ
  6
Continuous
 62
     7
370
     9
100
AcDbLine
 10
466.5769834776182
 20
241.0676038587417
 30
0.0
 11
374.4051546663852
 21
241.0676038587417
 31
0.0
  0
LINE
  5
1F7
330
1F
100
AcDbEntity
  8
1-4ﾚｲﾔ
  6
Continuous
 62
     7
370
     9
100
AcDbLine
 10
375.9051348711995
 20
241.0676038587417
 30
0.0
 11
374.2735166807432
 21
228.6745803420608
 31
0.0
  0
LINE
  5
1F8
330
1F
100
AcDbEntity
  8
1-4ﾚｲﾔ
  6
Continuous
 62
     7
370
     9
100
AcDbLine
 10
375.9051348711995
 20
241.0676038587417
 30
0.0
 11
377.5367530616555
 21
228.6745803420608
 31
0.0
  0
LINE
  5
1F9
330
1F
100
AcDbEntity
  8
1-4ﾚｲﾔ
  6
Continuous
 62
     7
370
     9
100
AcDbLine
 10
375.9051348711995
 20
241.0676038587417
 30
0.0
 11
375.9051348711995
 21
243.0676599451014
 31
0.0
  0
LINE
  5
1FA
330
1F
100
AcDbEntity
  8
1-4ﾚｲﾔ
  6
Continuous
 62
     7
370
     9
100
AcDbLine
 10
466.5769834776182
 20
243.0676599451014
 30
0.0
 11
374.4051546663852
 21
243.0676599451014
 31
0.0
  0
LINE
  5
1FB
330
1F
100
AcDbEntity
  8
1-4ﾚｲﾔ
  6
Continuous
 62
     7
370
     9
100
AcDbLine
 10
466.5769834776182
 20
251.067636850718
 30
0.0
 11
333.2706348316091
 21
251.067636850718
 31
0.0
  0
LINE
  5
1FC
330
1F
100
AcDbEntity
  8
1-4ﾚｲﾔ
  6
Continuous
 62
     7
370
     9
100
AcDbLine
 10
375.9051348711995
 20
251.067636850718
 30
0.0
 11
374.2735166807432
 21
263.4606603673987
 31
0.0
  0
LINE
  5
1FD
330
1F
100
AcDbEntity
  8
1-4ﾚｲﾔ
  6
Continuous
 62
     7
370
     9
100
AcDbLine
 10
375.9051348711995
 20
251.067636850718
 30
0.0
 11
377.5367530616555
 21
263.4606603673987
 31
0.0
  0
LINE
  5
1FE
330
1F
100
AcDbEntity
  8
1-4ﾚｲﾔ
  6
Continuous
 62
     7
370
     9
100
AcDbLine
 10
375.9051348711995
 20
243.0676599451014
 30
0.0
 11
375.9051348711995
 21
274.8109724714949
 31
0.0
  0
LINE
  5
1FF
330
1F
100
AcDbEntity
  8
1-4ﾚｲﾔ
  6
Continuous
 62
     7
370
     9
100
AcDbLine
 10
334.7707387563347
 20
251.067636850718
 30
0.0
 11
333.1391205658784
 21
238.6746133340372
 31
0.0
  0
LINE
  5
200
330
1F
100
AcDbEntity
  8
1-4ﾚｲﾔ
  6
Continuous
 62
     7
370
     9
100
AcDbLine
 10
334.7707387563347
 20
251.067636850718
 30
0.0
 11
336.4022332268792
 21
238.6746133340372
 31
0.0
  0
LINE
  5
201
330
1F
100
AcDbEntity
  8
1-4ﾚｲﾔ
  6
Continuous
 62
     7
370
     9
100
AcDbLine
 10
375.9051348711995
 20
-19.9325396563556
 30
0.0
 11
375.9051348711995
 21
241.0676038587417
 31
0.0
  0
LINE
  5
202
330
1F
100
AcDbEntity
  8
1-4ﾚｲﾔ
  6
Continuous
 62
     7
370
     9
100
AcDbLine
 10
334.7707387563347
 20
-19.9325396563556
 30
0.0
 11
334.7707387563347
 21
251.067636850718
 31
0.0
  0
LINE
  5
203
330
1F
100
AcDbEntity
  8
1-4ﾚｲﾔ
  6
Continuous
 62
     7
370
     9
100
AcDbLine
 10
466.5769834776182
 20
-280.9326831714527
 30
0.0
 11
374.4051546663852
 21
-280.9326831714527
 31
0.0
  0
LINE
  5
204
330
1F
100
AcDbEntity
  8
1-4ﾚｲﾔ
  6
Continuous
 62
     7
370
     9
100
AcDbLine
 10
375.9051348711995
 20
-280.9326831714527
 30
0.0
 11
374.2735166807432
 21
-268.5396596547719
 31
0.0
  0
LINE
  5
205
330
1F
100
AcDbEntity
  8
1-4ﾚｲﾔ
  6
Continuous
 62
     7
370
     9
100
AcDbLine
 10
375.9051348711995
 20
-280.9326831714527
 30
0.0
 11
377.5367530616555
 21
-268.5396596547719
 31
0.0
  0
LINE
  5
206
330
1F
100
AcDbEntity
  8
1-4ﾚｲﾔ
  6
Continuous
 62
     7
370
     9
100
AcDbLine
 10
375.9051348711995
 20
-280.9326831714527
 30
0.0
 11
375.9051348711995
 21
-282.9327392578125
 31
0.0
  0
LINE
  5
207
330
1F
100
AcDbEntity
  8
1-4ﾚｲﾔ
  6
Continuous
 62
     7
370
     9
100
AcDbLine
 10
466.5769834776182
 20
-282.9327392578125
 30
0.0
 11
374.4051546663852
 21
-282.9327392578125
 31
0.0
  0
LINE
  5
208
330
1F
100
AcDbEntity
  8
1-4ﾚｲﾔ
  6
Continuous
 62
     7
370
     9
100
AcDbLine
 10
466.5769834776182
 20
-290.9327161634291
 30
0.0
 11
333.2706348316091
 21
-290.9327161634291
 31
0.0
  0
LINE
  5
209
330
1F
100
AcDbEntity
  8
1-4ﾚｲﾔ
  6
Continuous
 62
     7
370
     9
100
AcDbLine
 10
375.9051348711995
 20
-290.9327161634291
 30
0.0
 11
374.2735166807432
 21
-303.3257396801098
 31
0.0
  0
LINE
  5
20A
330
1F
100
AcDbEntity
  8
1-4ﾚｲﾔ
  6
Continuous
 62
     7
370
     9
100
AcDbLine
 10
375.9051348711995
 20
-290.9327161634291
 30
0.0
 11
377.5367530616555
 21
-303.3257396801098
 31
0.0
  0
LINE
  5
20B
330
1F
100
AcDbEntity
  8
1-4ﾚｲﾔ
  6
Continuous
 62
     7
370
     9
100
AcDbLine
 10
375.9051348711995
 20
-282.9327392578125
 30
0.0
 11
375.9051348711995
 21
-314.676051784206
 31
0.0
  0
LINE
  5
20C
330
1F
100
AcDbEntity
  8
1-4ﾚｲﾔ
  6
Continuous
 62
     7
370
     9
100
AcDbLine
 10
334.7707387563347
 20
-290.9327161634291
 30
0.0
 11
333.1391205658784
 21
-278.5396926467483
 31
0.0
  0
LINE
  5
20D
330
1F
100
AcDbEntity
  8
1-4ﾚｲﾔ
  6
Continuous
 62
     7
370
     9
100
AcDbLine
 10
334.7707387563347
 20
-290.9327161634291
 30
0.0
 11
336.4022332268792
 21
-278.5396926467483
 31
0.0
  0
LINE
  5
20E
330
1F
100
AcDbEntity
  8
1-4ﾚｲﾔ
  6
Continuous
 62
     7
370
     9
100
AcDbLine
 10
375.9051348711995
 20
-19.9325396563556
 30
0.0
 11
375.9051348711995
 21
-280.9326831714527
 31
0.0
  0
LINE
  5
20F
330
1F
100
AcDbEntity
  8
1-4ﾚｲﾔ
  6
Continuous
 62
     7
370
     9
100
AcDbLine
 10
334.7707387563347
 20
-19.9325396563556
 30
0.0
 11
334.7707387563347
 21
-290.9327161634291
 31
0.0
  0
LINE
  5
210
330
1F
100
AcDbEntity
  8
1-4ﾚｲﾔ
  6
Continuous
 62
     7
370
     9
100
AcDbLine
 10
556.5769092456717
 20
205.0675840635557
 30
0.0
 11
637.9863429713894
 21
205.0675840635557
 31
0.0
  0
LINE
  5
211
330
1F
100
AcDbEntity
  8
1-4ﾚｲﾔ
  6
Continuous
 62
     7
370
     9
100
AcDbLine
 10
636.4863627665752
 20
205.0675840635557
 30
0.0
 11
634.8547445761193
 21
192.674560546875
 31
0.0
  0
LINE
  5
212
330
1F
100
AcDbEntity
  8
1-4ﾚｲﾔ
  6
Continuous
 62
     7
370
     9
100
AcDbLine
 10
636.4863627665752
 20
205.0675840635557
 30
0.0
 11
638.1179809570312
 21
192.674560546875
 31
0.0
  0
LINE
  5
213
330
1F
100
AcDbEntity
  8
1-4ﾚｲﾔ
  6
Continuous
 62
     7
370
     9
100
AcDbLine
 10
556.5769092456717
 20
285.067600559544
 30
0.0
 11
670.4187754038219
 21
285.067600559544
 31
0.0
  0
LINE
  5
214
330
1F
100
AcDbEntity
  8
1-4ﾚｲﾔ
  6
Continuous
 62
     7
370
     9
100
AcDbLine
 10
668.9187951990078
 20
285.067600559544
 30
0.0
 11
667.2871770085516
 21
272.6745770428633
 31
0.0
  0
LINE
  5
215
330
1F
100
AcDbEntity
  8
1-4ﾚｲﾔ
  6
Continuous
 62
     7
370
     9
100
AcDbLine
 10
668.9187951990078
 20
285.067600559544
 30
0.0
 11
670.5504133894638
 21
272.6745770428633
 31
0.0
  0
LINE
  5
216
330
1F
100
AcDbEntity
  8
1-4ﾚｲﾔ
  6
Continuous
 62
     7
370
     9
100
AcDbLine
 10
636.4863627665752
 20
-19.9325396563556
 30
0.0
 11
636.4863627665752
 21
205.0675840635557
 31
0.0
  0
LINE
  5
217
330
1F
100
AcDbEntity
  8
1-4ﾚｲﾔ
  6
Continuous
 62
     7
370
     9
100
AcDbLine
 10
668.9187951990078
 20
-19.9325396563556
 30
0.0
 11
668.9187951990078
 21
285.067600559544
 31
0.0
  0
LINE
  5
218
330
1F
100
AcDbEntity
  8
1-4ﾚｲﾔ
  6
Continuous
 62
     7
370
     9
100
AcDbLine
 10
556.5769092456717
 20
-244.9326633762669
 30
0.0
 11
637.9863429713894
 21
-244.9326633762669
 31
0.0
  0
LINE
  5
219
330
1F
100
AcDbEntity
  8
1-4ﾚｲﾔ
  6
Continuous
 62
     7
370
     9
100
AcDbLine
 10
636.4863627665752
 20
-244.9326633762669
 30
0.0
 11
634.8547445761193
 21
-232.5396398595861
 31
0.0
  0
LINE
  5
21A
330
1F
100
AcDbEntity
  8
1-4ﾚｲﾔ
  6
Continuous
 62
     7
370
     9
100
AcDbLine
 10
636.4863627665752
 20
-244.9326633762669
 30
0.0
 11
638.1179809570312
 21
-232.5396398595861
 31
0.0
  0
LINE
  5
21B
330
1F
100
AcDbEntity
  8
1-4ﾚｲﾔ
  6
Continuous
 62
     7
370
     9
100
AcDbLine
 10
556.5769092456717
 20
-324.9326798722551
 30
0.0
 11
670.4187754038219
 21
-324.9326798722551
 31
0.0
  0
LINE
  5
21C
330
1F
100
AcDbEntity
  8
1-4ﾚｲﾔ
  6
Continuous
 62
     7
370
     9
100
AcDbLine
 10
668.9187951990078
 20
-324.9326798722551
 30
0.0
 11
667.2871770085516
 21
-312.5396563555743
 31
0.0
  0
LINE
  5
21D
330
1F
100
AcDbEntity
  8
1-4ﾚｲﾔ
  6
Continuous
 62
     7
370
     9
100
AcDbLine
 10
668.9187951990078
 20
-324.9326798722551
 30
0.0
 11
670.5504133894638
 21
-312.5396563555743
 31
0.0
  0
LINE
  5
21E
330
1F
100
AcDbEntity
  8
1-4ﾚｲﾔ
  6
Continuous
 62
     7
370
     9
100
AcDbLine
 10
636.4863627665752
 20
-19.9325396563556
 30
0.0
 11
636.4863627665752
 21
-244.9326633762669
 31
0.0
  0
LINE
  5
21F
330
1F
100
AcDbEntity
  8
1-4ﾚｲﾔ
  6
Continuous
 62
     7
370
     9
100
AcDbLine
 10
668.9187951990078
 20
-19.9325396563556
 30
0.0
 11
668.9187951990078
 21
-324.9326798722551
 31
0.0
  0
LINE
  5
220
330
1F
100
AcDbEntity
  8
1-4ﾚｲﾔ
  6
Continuous
 62
     7
370
     9
100
AcDbLine
 10
474.0768845016893
 20
-413.8963276631123
 30
0.0
 11
549.0770082216005
 21
-413.8963276631123
 31
0.0
  0
LINE
  5
221
330
1F
100
AcDbEntity
  8
1-4ﾚｲﾔ
  6
Continuous
 62
     7
370
     9
100
AcDbLine
 10
474.0768845016893
 20
-298.4324934675886
 30
0.0
 11
474.0768845016893
 21
-415.3963078679265
 31
0.0
  0
LINE
  5
222
330
1F
100
AcDbEntity
  8
1-4ﾚｲﾔ
  6
Continuous
 62
     7
370
     9
100
AcDbLine
 10
549.0770082216005
 20
-332.4324571764146
 30
0.0
 11
549.0770082216005
 21
-415.3963078679265
 31
0.0
  0
LINE
  5
223
330
1F
100
AcDbEntity
  8
1-4ﾚｲﾔ
  6
Continuous
 62
     7
370
     9
100
AcDbLine
 10
474.0768845016893
 20
-413.8963276631123
 30
0.0
 11
486.4700317382812
 21
-412.2647094726562
 31
0.0
  0
LINE
  5
224
330
1F
100
AcDbEntity
  8
1-4ﾚｲﾔ
  6
Continuous
 62
     7
370
     9
100
AcDbLine
 10
474.0768845016893
 20
-413.8963276631123
 30
0.0
 11
486.4700317382812
 21
-415.5279458535684
 31
0.0
  0
LINE
  5
225
330
1F
100
AcDbEntity
  8
1-4ﾚｲﾔ
  6
Continuous
 62
     7
370
     9
100
AcDbLine
 10
549.0770082216005
 20
-413.8963276631123
 30
0.0
 11
536.6839847049198
 21
-415.5279458535684
 31
0.0
  0
LINE
  5
226
330
1F
100
AcDbEntity
  8
1-4ﾚｲﾔ
  6
Continuous
 62
     7
370
     9
100
AcDbLine
 10
549.0770082216005
 20
-413.8963276631123
 30
0.0
 11
536.6839847049198
 21
-412.2647094726562
 31
0.0
  0
LINE
  5
227
330
1F
100
AcDbEntity
  8
1-F
  6
Continuous
 62
     7
370
     9
100
AcDbLine
 10
-418.3304245407516
 20
161.5669209248311
 30
0.0
 11
-418.3304245407516
 21
233.5674553948481
 31
0.0
  0
LINE
  5
228
330
1F
100
AcDbEntity
  8
1-F
  6
Continuous
 62
     7
370
     9
100
AcDbLine
 10
-383.7027060019003
 20
161.5669209248311
 30
0.0
 11
-419.8304047455658
 21
161.5669209248311
 31
0.0
  0
LINE
  5
229
330
1F
100
AcDbEntity
  8
1-F
  6
Continuous
 62
     7
370
     9
100
AcDbLine
 10
-362.7027356946791
 20
233.5674553948481
 30
0.0
 11
-419.8304047455658
 21
233.5674553948481
 31
0.0
  0
LINE
  5
22A
330
1F
100
AcDbEntity
  8
1-F
  6
Continuous
 62
     7
370
     9
100
AcDbLine
 10
-418.3304245407516
 20
161.5669209248311
 30
0.0
 11
-419.9619808712521
 21
173.9599444415119
 31
0.0
  0
LINE
  5
22B
330
1F
100
AcDbEntity
  8
1-F
  6
Continuous
 62
     7
370
     9
100
AcDbLine
 10
-418.3304245407516
 20
161.5669209248311
 30
0.0
 11
-416.6988682102512
 21
173.9599444415119
 31
0.0
  0
LINE
  5
22C
330
1F
100
AcDbEntity
  8
1-F
  6
Continuous
 62
     7
370
     9
100
AcDbLine
 10
-418.3304245407516
 20
233.5674553948481
 30
0.0
 11
-419.9619808712521
 21
221.1744318781673
 31
0.0
  0
LINE
  5
22D
330
1F
100
AcDbEntity
  8
1-F
  6
Continuous
 62
     7
370
     9
100
AcDbLine
 10
-418.3304245407516
 20
233.5674553948481
 30
0.0
 11
-416.6988682102512
 21
221.1744318781673
 31
0.0
  0
LINE
  5
22E
330
1F
100
AcDbEntity
  8
1-F
  6
Continuous
 62
     7
370
     9
100
AcDbLine
 10
-373.702673009924
 20
109.9329108160896
 30
0.0
 11
-331.7027323954813
 21
109.9329108160896
 31
0.0
  0
LINE
  5
22F
330
1F
100
AcDbEntity
  8
1-F
  6
Continuous
 62
     7
370
     9
100
AcDbLine
 10
-373.702673009924
 20
153.4296149176521
 30
0.0
 11
-373.702673009924
 21
108.4329306112754
 31
0.0
  0
LINE
  5
230
330
1F
100
AcDbEntity
  8
1-F
  6
Continuous
 62
     7
370
     9
100
AcDbLine
 10
-331.7027323954813
 20
153.4296149176521
 30
0.0
 11
-331.7027323954813
 21
108.4329306112754
 31
0.0
  0
LINE
  5
231
330
1F
100
AcDbEntity
  8
1-F
  6
Continuous
 62
     7
370
     9
100
AcDbLine
 10
-373.702673009924
 20
109.9329108160896
 30
0.0
 11
-361.3095876332875
 21
111.5645290065457
 31
0.0
  0
LINE
  5
232
330
1F
100
AcDbEntity
  8
1-F
  6
Continuous
 62
     7
370
     9
100
AcDbLine
 10
-373.702673009924
 20
109.9329108160896
 30
0.0
 11
-361.3095876332875
 21
108.3012926256335
 31
0.0
  0
LINE
  5
233
330
1F
100
AcDbEntity
  8
1-F
  6
Continuous
 62
     7
370
     9
100
AcDbLine
 10
-331.7027323954813
 20
109.9329108160896
 30
0.0
 11
-344.0958177721178
 21
111.5645290065457
 31
0.0
  0
LINE
  5
234
330
1F
100
AcDbEntity
  8
1-F
  6
Continuous
 62
     7
370
     9
100
AcDbLine
 10
-331.7027323954813
 20
109.9329108160896
 30
0.0
 11
-344.0958177721178
 21
108.3012926256335
 31
0.0
  0
LINE
  5
235
330
1F
100
AcDbEntity
  8
1-F
  6
Continuous
 62
     7
370
     9
100
AcDbLine
 10
-642.7024841308594
 20
-448.0307749155405
 30
0.0
 11
-62.70298313450169
 21
-448.0307749155405
 31
0.0
  0
LINE
  5
236
330
1F
100
AcDbEntity
  8
1-F
  6
Continuous
 62
     7
370
     9
100
AcDbLine
 10
-642.7024841308594
 20
-54.12031019056158
 30
0.0
 11
-642.7024841308594
 21
-449.5307551203547
 31
0.0
  0
LINE
  5
237
330
1F
100
AcDbEntity
  8
1-F
  6
Continuous
 62
     7
370
     9
100
AcDbLine
 10
-62.70298313450169
 20
-52.87012048669766
 30
0.0
 11
-62.70298313450169
 21
-449.5307551203547
 31
0.0
  0
LINE
  5
238
330
1F
100
AcDbEntity
  8
1-F
  6
Continuous
 62
     7
370
     9
100
AcDbLine
 10
-642.7024841308594
 20
-448.0307749155405
 30
0.0
 11
-630.3094606141785
 21
-446.3991567250844
 31
0.0
  0
LINE
  5
239
330
1F
100
AcDbEntity
  8
1-F
  6
Continuous
 62
     7
370
     9
100
AcDbLine
 10
-642.7024841308594
 20
-448.0307749155405
 30
0.0
 11
-630.3094606141785
 21
-449.6623931059966
 31
0.0
  0
LINE
  5
23A
330
1F
100
AcDbEntity
  8
1-F
  6
Continuous
 62
     7
370
     9
100
AcDbLine
 10
-62.70298313450169
 20
-448.0307749155405
 30
0.0
 11
-75.09606851113801
 21
-446.3991567250844
 31
0.0
  0
LINE
  5
23B
330
1F
100
AcDbEntity
  8
1-F
  6
Continuous
 62
     7
370
     9
100
AcDbLine
 10
-62.70298313450169
 20
-448.0307749155405
 30
0.0
 11
-75.09606851113801
 21
-449.6623931059966
 31
0.0
  0
LINE
  5
23C
330
1F
100
AcDbEntity
  8
1-E
  6
Continuous
 62
     7
370
     9
100
AcDbLine
 10
474.0770082216005
 20
237.0981742240288
 30
0.0
 11
341.3839391759925
 21
375.044885583826
 31
0.0
  0
LINE
  5
23D
330
1F
100
AcDbEntity
  8
1-E
  6
Continuous
 62
     7
370
     9
100
AcDbLine
 10
353.5098514041385
 20
433.9419968063767
 30
0.0
 11
496.9059299778294
 21
252.7428044499578
 31
0.0
  0
LINE
  5
23E
330
1F
100
AcDbEntity
  8
1-E
  6
Continuous
 62
     7
370
     9
100
AcDbLine
 10
618.4337719066724
 20
427.0948420344173
 30
0.0
 11
796.7032767630915
 21
427.0948420344173
 31
0.0
  0
LINE
  5
23F
330
1F
100
AcDbEntity
  8
1-E
  6
Continuous
 62
     7
370
     9
100
AcDbLine
 10
618.4337719066724
 20
427.0948420344173
 30
0.0
 11
539.0770989495356
 21
327.5676170555322
 31
0.0
  0
LINE
  5
240
330
1F
100
AcDbEntity
  8
1-E
  6
Continuous
 62
     7
370
     9
100
AcDbLine
 10
111.9639216242611
 20
433.9419968063767
 30
0.0
 11
353.5098514041385
 21
433.9419968063767
 31
0.0
  0
LINE
  5
241
330
1F
100
AcDbEntity
  8
1-E
  6
Continuous
 62
     7
370
     9
100
AcDbLine
 10
309.1192709433068
 20
-99.38620902396536
 30
0.0
 11
474.0768845016893
 21
-211.122114851668
 31
0.0
  0
LINE
  5
242
330
1F
100
AcDbEntity
  8
1-E
  6
Continuous
 62
     7
370
     9
100
AcDbLine
 10
379.8294067382812
 20
-358.0113014014992
 30
0.0
 11
474.0768845016893
 21
-240.3641819309544
 31
0.0
  0
LINE
  5
243
330
1F
100
AcDbEntity
  8
1-E
  6
Continuous
 62
     7
370
     9
100
AcDbLine
 10
309.1192709433068
 20
-99.38620902396536
 30
0.0
 11
93.40655352618256
 21
-99.38620902396536
 31
0.0
  0
LINE
  5
244
330
1F
100
AcDbEntity
  8
1-E
  6
Continuous
 62
     7
370
     9
100
AcDbLine
 10
379.8294067382812
 20
-358.0113014014992
 30
0.0
 11
176.1201188370988
 21
-358.0113014014992
 31
0.0
  0
LINE
  5
245
330
1F
100
AcDbEntity
  8
1-F
  6
Continuous
 62
     7
370
     9
100
AcDbLine
 10
539.0770989495356
 20
327.5676170555322
 30
0.0
 11
545.5274839658995
 21
338.2747093406884
 31
0.0
  0
LINE
  5
246
330
1F
100
AcDbEntity
  8
1-F
  6
Continuous
 62
     7
370
     9
100
AcDbLine
 10
539.0770989495356
 20
327.5676170555322
 30
0.0
 11
548.0789596970019
 21
336.2403828388937
 31
0.0
  0
LINE
  5
247
330
1F
100
AcDbEntity
  8
1-F
  6
Continuous
 62
     7
370
     9
100
AcDbLine
 10
496.9059299778294
 20
252.7428044499578
 30
0.0
 11
487.9358652475719
 21
261.4484178697741
 31
0.0
  0
LINE
  5
248
330
1F
100
AcDbEntity
  8
1-F
  6
Continuous
 62
     7
370
     9
100
AcDbLine
 10
496.9059299778294
 20
252.7428044499578
 30
0.0
 11
490.4946404534419
 21
263.4734035182645
 31
0.0
  0
LINE
  5
249
330
1F
100
AcDbEntity
  8
1-F
  6
Continuous
 62
     7
370
     9
100
AcDbLine
 10
474.0770082216005
 20
237.0981742240288
 30
0.0
 11
464.3096923828125
 21
244.8987146326014
 31
0.0
  0
LINE
  5
24A
330
1F
100
AcDbEntity
  8
1-F
  6
Continuous
 62
     7
370
     9
100
AcDbLine
 10
474.0770082216005
 20
237.0981742240288
 30
0.0
 11
466.661360457137
 21
247.1609332110431
 31
0.0
  0
LINE
  5
24B
330
1F
100
AcDbEntity
  8
1-F
  6
Continuous
 62
     7
370
     9
100
AcDbLine
 10
474.0768845016893
 20
-240.3641819309544
 30
0.0
 11
467.6018792229732
 21
-251.0564278267526
 31
0.0
  0
LINE
  5
24C
330
1F
100
AcDbEntity
  8
1-F
  6
Continuous
 62
     7
370
     9
100
AcDbLine
 10
474.0768845016893
 20
-240.3641819309544
 30
0.0
 11
465.0551048485011
 21
-249.0162246291702
 31
0.0
  0
LINE
  5
24D
330
1F
100
AcDbEntity
  8
1-F
  6
Continuous
 62
     7
370
     9
100
AcDbLine
 10
474.0768845016893
 20
-211.122114851668
 30
0.0
 11
462.901141192462
 21
-205.5227372453019
 31
0.0
  0
LINE
  5
24E
330
1F
100
AcDbEntity
  8
1-F
  6
Continuous
 62
     7
370
     9
100
AcDbLine
 10
474.0768845016893
 20
-211.122114851668
 30
0.0
 11
464.7312061206716
 21
-202.8210655418602
 31
0.0
  0
LINE
  5
24F
330
1F
100
AcDbEntity
  8
1-1ﾚｲﾔ
  6
Continuous
 62
     3
370
     9
100
AcDbLine
 10
537.2612618111276
 20
-72.77956163561015
 30
0.0
 11
533.339835502006
 21
-72.04429420264987
 31
0.0
  0
LINE
  5
250
330
1F
100
AcDbEntity
  8
1-1ﾚｲﾔ
  6
Continuous
 62
     3
370
     9
100
AcDbLine
 10
537.2612618111276
 20
-87.08541870117188
 30
0.0
 11
533.339835502006
 21
-87.82068613413216
 31
0.0
  0
LINE
  5
251
330
1F
100
AcDbEntity
  8
1-1ﾚｲﾔ
  6
Continuous
 62
     3
370
     9
100
AcDbLine
 10
521.07684161212
 20
179.8534661370356
 30
0.0
 11
521.07684161212
 21
203.7655557168497
 31
0.0
  0
LINE
  5
252
330
1F
100
AcDbEntity
  8
1-1ﾚｲﾔ
  6
Continuous
 62
     3
370
     9
100
AcDbLine
 10
537.2612618111276
 20
47.22021566854949
 30
0.0
 11
533.339835502006
 21
47.95548310150977
 31
0.0
  0
LINE
  5
253
330
1F
100
AcDbEntity
  8
1-1ﾚｲﾔ
  6
Continuous
 62
     3
370
     9
100
AcDbLine
 10
537.2612618111276
 20
32.91435860298776
 30
0.0
 11
533.339835502006
 21
32.17909117002748
 31
0.0
  0
LINE
  5
254
330
1F
100
AcDbEntity
  8
1-1ﾚｲﾔ
  6
Continuous
 62
     3
370
     9
100
AcDbLine
 10
530.0769702808279
 20
-68.11278472075585
 30
0.0
 11
530.0769702808279
 21
28.24758168813347
 31
0.0
  0
LINE
  5
255
330
1F
100
AcDbEntity
  8
1-1ﾚｲﾔ
  6
Continuous
 62
     3
370
     9
100
AcDbLine
 10
530.0769702808279
 20
51.88699258340378
 30
0.0
 11
530.0769702808279
 21
146.2645618335621
 31
0.0
  0
LINE
  5
256
330
1F
100
AcDbEntity
  8
1-0ﾚｲﾔ
  6
Continuous
 62
     2
370
     9
100
AcDbLine
 10
538.2896217139992
 20
-11.48568643105989
 30
0.0
 11
538.0769471864443
 21
-11.43254872914909
 31
0.0
  0
LINE
  5
257
330
1F
100
AcDbEntity
  8
1-0ﾚｲﾔ
  6
Continuous
 62
     2
370
     9
100
AcDbLine
 10
538.2896217139992
 20
-28.37926916173984
 30
0.0
 11
538.0769471864443
 21
-28.43240686365078
 31
0.0
  0
LINE
  5
258
330
1F
100
AcDbEntity
  8
1-1ﾚｲﾔ
  6
Continuous
 62
     3
370
     9
100
AcDbLine
 10
521.07684161212
 20
-219.7184217298353
 30
0.0
 11
521.07684161212
 21
-243.6303875897381
 31
0.0
  0
LINE
  5
259
330
1F
100
AcDbEntity
  8
1-1ﾚｲﾔ
  6
Continuous
 62
     3
370
     9
100
AcDbLine
 10
530.0769702808279
 20
-91.75219561602617
 30
0.0
 11
530.0769702808279
 21
-186.1295174263618
 31
0.0
  0
LINE
  5
25A
330
1F
100
AcDbEntity
  8
1-1ﾚｲﾔ
  6
Continuous
 62
     3
370
     9
100
AcDbLine
 10
521.07684161212
 20
-219.7184217298353
 30
0.0
 11
538.0769471864443
 21
-156.2732428473395
 31
0.0
  0
LINE
  5
25B
330
1F
100
AcDbEntity
  8
1-1ﾚｲﾔ
  6
Continuous
 62
     3
370
     9
100
AcDbLine
 10
538.0769471864443
 20
-156.2732428473395
 30
0.0
 11
538.0769471864443
 21
116.4082872545397
 31
0.0
  0
LINE
  5
25C
330
1F
100
AcDbEntity
  8
1-1ﾚｲﾔ
  6
Continuous
 62
     3
370
     9
100
AcDbLine
 10
521.07684161212
 20
179.8534661370356
 30
0.0
 11
538.0769471864443
 21
116.4082872545397
 31
0.0
  0
LINE
  5
25D
330
1F
100
AcDbEntity
  8
1-0ﾚｲﾔ
  6
Continuous
 62
     2
370
     9
100
AcDbLine
 10
534.0768350137248
 20
149.0952115445525
 30
0.0
 11
534.0768350137248
 21
131.3368884937184
 31
0.0
  0
LINE
  5
25E
330
1F
100
AcDbEntity
  8
1-0ﾚｲﾔ
  6
Continuous
 62
     2
370
     9
100
AcDbLine
 10
534.0768350137248
 20
-188.9602908572635
 30
0.0
 11
534.0768350137248
 21
-171.2019678064294
 31
0.0
  0
LINE
  5
25F
330
1F
100
AcDbEntity
  8
1-4ﾚｲﾔ
  6
Continuous
 62
     7
370
     9
100
AcDbLine
 10
567.6128490551099
 20
1.242741765202737
 30
0.0
 11
522.0769933752113
 21
1.242741765202737
 31
0.0
  0
LINE
  5
260
330
1F
100
AcDbEntity
  8
1-1ﾚｲﾔ
  6
Continuous
 62
     3
370
     9
100
AcDbLine
 10
-279.2027447674725
 20
-71.43268482105142
 30
0.0
 11
-194.9639603898332
 21
-71.43268482105142
 31
0.0
  0
LINE
  5
261
330
1F
100
AcDbEntity
  8
1-1ﾚｲﾔ
  6
Continuous
 62
     3
370
     9
100
AcDbLine
 10
-284.2027612634607
 20
-66.4327920449746
 30
0.0
 11
-284.2027612634607
 21
-19.93266337626679
 31
0.0
  0
LINE
  5
262
330
1F
100
AcDbEntity
  8
1-1ﾚｲﾔ
  6
Continuous
 62
     3
370
     9
100
AcDbLine
 10
-280.7027249722867
 20
-72.93266502586562
 30
0.0
 11
-219.706086854677
 21
-72.93266502586562
 31
0.0
  0
LINE
  5
263
330
1F
100
AcDbEntity
  8
1-1ﾚｲﾔ
  6
Continuous
 62
     3
370
     9
100
AcDbLine
 10
-285.7026796083193
 20
-67.93264852987747
 30
0.0
 11
-285.7026796083193
 21
-19.93266337626679
 31
0.0
  0
LINE
  5
264
330
1F
100
AcDbEntity
  8
1-1ﾚｲﾔ
  6
Continuous
 62
     3
370
     9
100
AcDbLine
 10
-304.7027794090477
 20
-72.93266502586562
 30
0.0
 11
-352.7027027027026
 21
-72.93266502586562
 31
0.0
  0
LINE
  5
265
330
1F
100
AcDbEntity
  8
1-1ﾚｲﾔ
  6
Continuous
 62
     3
370
     9
100
AcDbLine
 10
-299.7027629130595
 20
-67.93264852987747
 30
0.0
 11
-299.7027629130595
 21
-19.93266337626679
 31
0.0
  0
LINE
  5
266
330
1F
100
AcDbEntity
  8
1-1ﾚｲﾔ
  6
Continuous
 62
     3
370
     9
100
AcDbLine
 10
-301.2024338180954
 20
-66.4327920449746
 30
0.0
 11
-301.2024338180954
 21
-19.93266337626679
 31
0.0
  0
LINE
  5
267
330
1F
100
AcDbEntity
  8
1-1ﾚｲﾔ
  6
Continuous
 62
     3
370
     9
100
AcDbLine
 10
-306.2023884541279
 20
-71.43268482105142
 30
0.0
 11
-352.7027027027026
 21
-71.43268482105142
 31
0.0
  0
LINE
  5
268
330
1F
100
AcDbEntity
  8
1-1ﾚｲﾔ
  6
Continuous
 62
     3
370
     9
100
AcDbLine
 10
-306.2023884541279
 20
-88.43254295555312
 30
0.0
 11
-352.7027027027026
 21
-88.43254295555312
 31
0.0
  0
LINE
  5
269
330
1F
100
AcDbEntity
  8
1-1ﾚｲﾔ
  6
Continuous
 62
     3
370
     9
100
AcDbLine
 10
-304.7027794090477
 20
-86.93281019056158
 30
0.0
 11
-352.7027027027026
 21
-86.93281019056158
 31
0.0
  0
LINE
  5
26A
330
1F
100
AcDbEntity
  8
1-1ﾚｲﾔ
  6
Continuous
 62
     3
370
     9
100
AcDbLine
 10
-299.7027629130595
 20
-91.93257924672722
 30
0.0
 11
-299.7027629130595
 21
-152.9290936444256
 31
0.0
  0
LINE
  5
26B
330
1F
100
AcDbEntity
  8
1-1ﾚｲﾔ
  6
Continuous
 62
     3
370
     9
100
AcDbLine
 10
-285.7026796083193
 20
-91.93257924672722
 30
0.0
 11
-285.7026796083193
 21
-147.4005456872888
 31
0.0
  0
LINE
  5
26C
330
1F
100
AcDbEntity
  8
1-1ﾚｲﾔ
  6
Continuous
 62
     3
370
     9
100
AcDbLine
 10
-280.7027249722867
 20
-86.93281019056158
 30
0.0
 11
-225.234758531725
 21
-86.93281019056158
 31
0.0
  0
LINE
  5
26D
330
1F
100
AcDbEntity
  8
1-1ﾚｲﾔ
  6
Continuous
 62
     3
370
     9
100
AcDbLine
 10
-279.2027447674725
 20
-88.43254295555312
 30
0.0
 11
-201.5685622756546
 21
-88.43254295555312
 31
0.0
  0
LINE
  5
26E
330
1F
100
AcDbEntity
  8
1-1ﾚｲﾔ
  6
Continuous
 62
     3
370
     9
100
AcDbLine
 10
-284.2027612634607
 20
-93.43255945154141
 30
0.0
 11
-284.202884983372
 21
-171.0668656632706
 31
0.0
  0
LINE
  5
26F
330
1F
100
AcDbEntity
  8
1-1ﾚｲﾔ
  6
Continuous
 62
     3
370
     9
100
AcDbLine
 10
-301.2024338180954
 20
-93.43255945154141
 30
0.0
 11
-301.2025575380068
 21
-177.6714056891364
 31
0.0
  0
LINE
  5
270
330
1F
100
AcDbEntity
  8
1-1ﾚｲﾔ
  6
Continuous
 62
     3
370
     9
100
AcDbLine
 10
-421.2026441419447
 20
-66.4327920449746
 30
0.0
 11
-421.2026441419447
 21
-19.93266337626679
 31
0.0
  0
LINE
  5
271
330
1F
100
AcDbEntity
  8
1-1ﾚｲﾔ
  6
Continuous
 62
     3
370
     9
100
AcDbLine
 10
-424.7026804331186
 20
-72.93266502586562
 30
0.0
 11
-485.6992566907728
 21
-72.93266502586562
 31
0.0
  0
LINE
  5
272
330
1F
100
AcDbEntity
  8
1-1ﾚｲﾔ
  6
Continuous
 62
     3
370
     9
100
AcDbLine
 10
-419.7027257970861
 20
-67.93264852987747
 30
0.0
 11
-419.7027257970861
 21
-19.93266337626679
 31
0.0
  0
LINE
  5
273
330
1F
100
AcDbEntity
  8
1-1ﾚｲﾔ
  6
Continuous
 62
     3
370
     9
100
AcDbLine
 10
-405.7026424923458
 20
-67.93264852987747
 30
0.0
 11
-405.7026424923458
 21
-19.93266337626679
 31
0.0
  0
LINE
  5
274
330
1F
100
AcDbEntity
  8
1-1ﾚｲﾔ
  6
Continuous
 62
     3
370
     9
100
AcDbLine
 10
-400.7026259963577
 20
-72.93266502586562
 30
0.0
 11
-352.7027027027026
 21
-72.93266502586562
 31
0.0
  0
LINE
  5
275
330
1F
100
AcDbEntity
  8
1-1ﾚｲﾔ
  6
Continuous
 62
     3
370
     9
100
AcDbLine
 10
-399.2030169512775
 20
-71.43268482105142
 30
0.0
 11
-352.7027027027026
 21
-71.43268482105142
 31
0.0
  0
LINE
  5
276
330
1F
100
AcDbEntity
  8
1-1ﾚｲﾔ
  6
Continuous
 62
     3
370
     9
100
AcDbLine
 10
-404.2029715873099
 20
-66.4327920449746
 30
0.0
 11
-404.2029715873099
 21
-19.93266337626679
 31
0.0
  0
LINE
  5
277
330
1F
100
AcDbEntity
  8
1-1ﾚｲﾔ
  6
Continuous
 62
     3
370
     9
100
AcDbLine
 10
-399.2030169512775
 20
-88.43254295555312
 30
0.0
 11
-352.7027027027026
 21
-88.43254295555312
 31
0.0
  0
LINE
  5
278
330
1F
100
AcDbEntity
  8
1-1ﾚｲﾔ
  6
Continuous
 62
     3
370
     9
100
AcDbLine
 10
-405.7026424923458
 20
-91.93257924672722
 30
0.0
 11
-405.7026424923458
 21
-152.9290936444256
 31
0.0
  0
LINE
  5
279
330
1F
100
AcDbEntity
  8
1-1ﾚｲﾔ
  6
Continuous
 62
     3
370
     9
100
AcDbLine
 10
-400.7026259963577
 20
-86.93281019056158
 30
0.0
 11
-352.7027027027026
 21
-86.93281019056158
 31
0.0
  0
LINE
  5
27A
330
1F
100
AcDbEntity
  8
1-1ﾚｲﾔ
  6
Continuous
 62
     3
370
     9
100
AcDbLine
 10
-419.7027257970861
 20
-91.93257924672722
 30
0.0
 11
-419.7027257970861
 21
-147.4005456872888
 31
0.0
  0
LINE
  5
27B
330
1F
100
AcDbEntity
  8
1-1ﾚｲﾔ
  6
Continuous
 62
     3
370
     9
100
AcDbLine
 10
-424.7026804331186
 20
-86.93281019056158
 30
0.0
 11
-480.1706468736803
 21
-86.93281019056158
 31
0.0
  0
LINE
  5
27C
330
1F
100
AcDbEntity
  8
1-1ﾚｲﾔ
  6
Continuous
 62
     3
370
     9
100
AcDbLine
 10
-426.2026606379328
 20
-71.43268482105142
 30
0.0
 11
-510.4414450155722
 21
-71.43268482105142
 31
0.0
  0
LINE
  5
27D
330
1F
100
AcDbEntity
  8
1-1ﾚｲﾔ
  6
Continuous
 62
     3
370
     9
100
AcDbLine
 10
-426.2026606379328
 20
-88.43254295555312
 30
0.0
 11
-503.8368431297508
 21
-88.43254295555312
 31
0.0
  0
LINE
  5
27E
330
1F
100
AcDbEntity
  8
1-1ﾚｲﾔ
  6
Continuous
 62
     3
370
     9
100
AcDbLine
 10
-421.2026441419447
 20
-93.43255945154141
 30
0.0
 11
-421.2025204220333
 21
-171.0668656632706
 31
0.0
  0
LINE
  5
27F
330
1F
100
AcDbEntity
  8
1-1ﾚｲﾔ
  6
Continuous
 62
     3
370
     9
100
AcDbLine
 10
-404.2029715873099
 20
-93.43255945154141
 30
0.0
 11
-404.2028478673985
 21
-177.6714056891364
 31
0.0
  0
LINE
  5
280
330
1F
100
AcDbEntity
  8
1-E
  6
Continuous
 62
     7
370
     9
100
AcDbLine
 10
341.3839391759925
 20
375.044885583826
 30
0.0
 11
87.27177800358959
 21
375.044885583826
 31
0.0
  0
ARC
  5
281
330
1F
100
AcDbEntity
  8
1-1ﾚｲﾔ
  6
Continuous
 62
     3
370
     9
100
AcDbCircle
 10
-422.7025006268475
 20
50.0670726879224
 30
0.0
 40
4.99999958115655
100
AcDbArc
 50
270.0
 51
0.0
  0
ARC
  5
282
330
1F
100
AcDbEntity
  8
1-1ﾚｲﾔ
  6
Continuous
 62
     3
370
     9
100
AcDbCircle
 10
-421.2027060019003
 20
48.56709248310821
 30
0.0
 40
4.99999958115655
100
AcDbArc
 50
270.0
 51
0.0
  0
ARC
  5
283
330
1F
100
AcDbEntity
  8
1-1ﾚｲﾔ
  6
Continuous
 62
     3
370
     9
100
AcDbCircle
 10
-402.7028676625844
 20
50.0670726879224
 30
0.0
 40
4.99999958115655
100
AcDbArc
 50
180.0
 51
270.0
  0
ARC
  5
284
330
1F
100
AcDbEntity
  8
1-1ﾚｲﾔ
  6
Continuous
 62
     3
370
     9
100
AcDbCircle
 10
-404.2026622875317
 20
48.56709248310821
 30
0.0
 40
4.99999958115655
100
AcDbArc
 50
180.0
 51
270.0
  0
ARC
  5
285
330
1F
100
AcDbEntity
  8
1-1ﾚｲﾔ
  6
Continuous
 62
     3
370
     9
100
AcDbCircle
 10
-402.7028676625844
 20
30.06750158361484
 30
0.0
 40
4.99999958115655
100
AcDbArc
 50
90.0
 51
180.0
  0
ARC
  5
286
330
1F
100
AcDbEntity
  8
1-1ﾚｲﾔ
  6
Continuous
 62
     3
370
     9
100
AcDbCircle
 10
-404.2026622875317
 20
31.56698690878386
 30
0.0
 40
4.99999958115655
100
AcDbArc
 50
90.0
 51
180.0
  0
ARC
  5
287
330
1F
100
AcDbEntity
  8
1-1ﾚｲﾔ
  6
Continuous
 62
     3
370
     9
100
AcDbCircle
 10
-422.7025006268475
 20
30.06750158361484
 30
0.0
 40
4.99999958115655
100
AcDbArc
 50
0.0
 51
90.0
  0
ARC
  5
288
330
1F
100
AcDbEntity
  8
1-1ﾚｲﾔ
  6
Continuous
 62
     3
370
     9
100
AcDbCircle
 10
-421.2027060019003
 20
31.56698690878386
 30
0.0
 40
4.99999958115655
100
AcDbArc
 50
0.0
 51
90.0
  0
ARC
  5
289
330
1F
100
AcDbEntity
  8
1-1ﾚｲﾔ
  6
Continuous
 62
     3
370
     9
100
AcDbCircle
 10
-426.2026606379328
 20
-66.4327920449746
 30
0.0
 40
4.99999958115655
100
AcDbArc
 50
270.0
 51
0.0
  0
ARC
  5
28A
330
1F
100
AcDbEntity
  8
1-1ﾚｲﾔ
  6
Continuous
 62
     3
370
     9
100
AcDbCircle
 10
-424.7026804331186
 20
-67.93264852987747
 30
0.0
 40
4.99999958115655
100
AcDbArc
 50
270.0
 51
0.0
  0
ARC
  5
28B
330
1F
100
AcDbEntity
  8
1-1ﾚｲﾔ
  6
Continuous
 62
     3
370
     9
100
AcDbCircle
 10
-399.2030169512775
 20
-66.4327920449746
 30
0.0
 40
4.99999958115655
100
AcDbArc
 50
180.0
 51
270.0
  0
ARC
  5
28C
330
1F
100
AcDbEntity
  8
1-1ﾚｲﾔ
  6
Continuous
 62
     3
370
     9
100
AcDbCircle
 10
-400.7026259963577
 20
-67.93264852987747
 30
0.0
 40
4.99999958115655
100
AcDbArc
 50
180.0
 51
270.0
  0
ARC
  5
28D
330
1F
100
AcDbEntity
  8
1-1ﾚｲﾔ
  6
Continuous
 62
     3
370
     9
100
AcDbCircle
 10
-399.2030169512775
 20
-93.43255945154141
 30
0.0
 40
4.99999958115655
100
AcDbArc
 50
90.0
 51
180.0
  0
ARC
  5
28E
330
1F
100
AcDbEntity
  8
1-1ﾚｲﾔ
  6
Continuous
 62
     3
370
     9
100
AcDbCircle
 10
-400.7026259963577
 20
-91.93257924672722
 30
0.0
 40
4.99999958115655
100
AcDbArc
 50
90.0
 51
180.0
  0
ARC
  5
28F
330
1F
100
AcDbEntity
  8
1-1ﾚｲﾔ
  6
Continuous
 62
     3
370
     9
100
AcDbCircle
 10
-426.2026606379328
 20
-93.43255945154141
 30
0.0
 40
4.99999958115655
100
AcDbArc
 50
0.0
 51
90.0
  0
ARC
  5
290
330
1F
100
AcDbEntity
  8
1-1ﾚｲﾔ
  6
Continuous
 62
     3
370
     9
100
AcDbCircle
 10
-424.7026804331186
 20
-91.93257924672722
 30
0.0
 40
4.99999958115655
100
AcDbArc
 50
0.0
 51
90.0
  0
ARC
  5
291
330
1F
100
AcDbEntity
  8
1-1ﾚｲﾔ
  6
Continuous
 62
     3
370
     9
100
AcDbCircle
 10
-282.7029047785578
 20
50.0670726879224
 30
0.0
 40
4.99999958115655
100
AcDbArc
 50
180.0
 51
270.0
  0
ARC
  5
292
330
1F
100
AcDbEntity
  8
1-1ﾚｲﾔ
  6
Continuous
 62
     3
370
     9
100
AcDbCircle
 10
-284.2026994035051
 20
48.56709248310821
 30
0.0
 40
4.99999958115655
100
AcDbArc
 50
180.0
 51
270.0
  0
ARC
  5
293
330
1F
100
AcDbEntity
  8
1-1ﾚｲﾔ
  6
Continuous
 62
     3
370
     9
100
AcDbCircle
 10
-302.7025377428209
 20
50.0670726879224
 30
0.0
 40
4.99999958115655
100
AcDbArc
 50
270.0
 51
0.0
  0
ARC
  5
294
330
1F
100
AcDbEntity
  8
1-1ﾚｲﾔ
  6
Continuous
 62
     3
370
     9
100
AcDbCircle
 10
-301.2027431178737
 20
48.56709248310821
 30
0.0
 40
4.99999958115655
100
AcDbArc
 50
270.0
 51
0.0
  0
ARC
  5
295
330
1F
100
AcDbEntity
  8
1-1ﾚｲﾔ
  6
Continuous
 62
     3
370
     9
100
AcDbCircle
 10
-302.7025377428209
 20
30.06750158361484
 30
0.0
 40
4.99999958115655
100
AcDbArc
 50
0.0
 51
90.0
  0
ARC
  5
296
330
1F
100
AcDbEntity
  8
1-1ﾚｲﾔ
  6
Continuous
 62
     3
370
     9
100
AcDbCircle
 10
-301.2027431178737
 20
31.56698690878386
 30
0.0
 40
4.99999958115655
100
AcDbArc
 50
0.0
 51
90.0
  0
ARC
  5
297
330
1F
100
AcDbEntity
  8
1-1ﾚｲﾔ
  6
Continuous
 62
     3
370
     9
100
AcDbCircle
 10
-282.7029047785578
 20
30.06750158361484
 30
0.0
 40
4.99999958115655
100
AcDbArc
 50
90.0
 51
180.0
  0
ARC
  5
298
330
1F
100
AcDbEntity
  8
1-1ﾚｲﾔ
  6
Continuous
 62
     3
370
     9
100
AcDbCircle
 10
-284.2026994035051
 20
31.56698690878386
 30
0.0
 40
4.99999958115655
100
AcDbArc
 50
90.0
 51
180.0
  0
ARC
  5
299
330
1F
100
AcDbEntity
  8
1-1ﾚｲﾔ
  6
Continuous
 62
     3
370
     9
100
AcDbCircle
 10
-279.2027447674725
 20
-66.4327920449746
 30
0.0
 40
4.99999958115655
100
AcDbArc
 50
180.0
 51
270.0
  0
ARC
  5
29A
330
1F
100
AcDbEntity
  8
1-1ﾚｲﾔ
  6
Continuous
 62
     3
370
     9
100
AcDbCircle
 10
-280.7027249722867
 20
-67.93264852987747
 30
0.0
 40
4.99999958115655
100
AcDbArc
 50
180.0
 51
270.0
  0
ARC
  5
29B
330
1F
100
AcDbEntity
  8
1-1ﾚｲﾔ
  6
Continuous
 62
     3
370
     9
100
AcDbCircle
 10
-306.2023884541279
 20
-66.4327920449746
 30
0.0
 40
4.99999958115655
100
AcDbArc
 50
270.0
 51
0.0
  0
ARC
  5
29C
330
1F
100
AcDbEntity
  8
1-1ﾚｲﾔ
  6
Continuous
 62
     3
370
     9
100
AcDbCircle
 10
-304.7027794090477
 20
-67.93264852987747
 30
0.0
 40
4.99999958115655
100
AcDbArc
 50
270.0
 51
0.0
  0
ARC
  5
29D
330
1F
100
AcDbEntity
  8
1-1ﾚｲﾔ
  6
Continuous
 62
     3
370
     9
100
AcDbCircle
 10
-306.2023884541279
 20
-93.43255945154141
 30
0.0
 40
4.99999958115655
100
AcDbArc
 50
0.0
 51
90.0
  0
ARC
  5
29E
330
1F
100
AcDbEntity
  8
1-1ﾚｲﾔ
  6
Continuous
 62
     3
370
     9
100
AcDbCircle
 10
-304.7027794090477
 20
-91.93257924672722
 30
0.0
 40
4.99999958115655
100
AcDbArc
 50
0.0
 51
90.0
  0
ARC
  5
29F
330
1F
100
AcDbEntity
  8
1-1ﾚｲﾔ
  6
Continuous
 62
     3
370
     9
100
AcDbCircle
 10
-279.2027447674725
 20
-93.43255945154141
 30
0.0
 40
4.99999958115655
100
AcDbArc
 50
90.0
 51
180.0
  0
ARC
  5
2A0
330
1F
100
AcDbEntity
  8
1-1ﾚｲﾔ
  6
Continuous
 62
     3
370
     9
100
AcDbCircle
 10
-280.7027249722867
 20
-91.93257924672722
 30
0.0
 40
4.99999958115655
100
AcDbArc
 50
90.0
 51
180.0
  0
ARC
  5
2A1
330
1F
100
AcDbEntity
  8
1-0ﾚｲﾔ
  6
Continuous
 62
     2
370
     9
100
AcDbCircle
 10
540.0770032728042
 20
283.162561365076
 30
0.0
 40
0.9999999524773778
100
AcDbArc
 50
95.7113037109375
 51
180.0
  0
ARC
  5
2A2
330
1F
100
AcDbEntity
  8
1-0ﾚｲﾔ
  6
Continuous
 62
     2
370
     9
100
AcDbCircle
 10
530.0769702808279
 20
149.0952115445525
 30
0.0
 40
3.999999809909511
100
AcDbArc
 50
0.0
 51
63.43319702148438
  0
ARC
  5
2A3
330
1F
100
AcDbEntity
  8
1-0ﾚｲﾔ
  6
Continuous
 62
     2
370
     9
100
AcDbCircle
 10
540.0768795528927
 20
216.8328527502112
 30
0.0
 40
1.999999904954756
100
AcDbArc
 50
277.1243133544922
 51
0.0
  0
ARC
  5
2A4
330
1F
100
AcDbEntity
  8
1-0ﾚｲﾔ
  6
Continuous
 62
     2
370
     9
100
AcDbCircle
 10
531.0769983240075
 20
212.6845241237332
 30
0.0
 40
0.9999999524773778
100
AcDbArc
 50
97.12466430664062
 51
180.0
  0
ARC
  5
2A5
330
1F
100
AcDbEntity
  8
1-0ﾚｲﾔ
  6
Continuous
 62
     2
370
     9
100
AcDbCircle
 10
531.0769983240075
 20
154.1852961359798
 30
0.0
 40
0.9999999524773778
100
AcDbArc
 50
180.0
 51
243.4336853027344
  0
ARC
  5
2A6
330
1F
100
AcDbEntity
  8
1-0ﾚｲﾔ
  6
Continuous
 62
     2
370
     9
100
AcDbCircle
 10
540.0768795528927
 20
238.1841876055744
 30
0.0
 40
1.999999904954756
100
AcDbArc
 50
0.0
 51
86.5579833984375
  0
ARC
  5
2A7
330
1F
100
AcDbEntity
  8
1-0ﾚｲﾔ
  6
Continuous
 62
     2
370
     9
100
AcDbCircle
 10
536.0770148199958
 20
261.6333172772383
 30
0.0
 40
5.999999110763138
100
AcDbArc
 50
274.2998962402344
 51
0.0000000000000127
  0
ARC
  5
2A8
330
1F
100
AcDbEntity
  8
1-1ﾚｲﾔ
  6
Continuous
 62
     3
370
     9
100
AcDbCircle
 10
488.076905946474
 20
240.5051731418919
 30
0.0
 40
5.000000064437454
100
AcDbArc
 50
180.0
 51
258.6900634765626
  0
ARC
  5
2A9
330
1F
100
AcDbEntity
  8
1-1ﾚｲﾔ
  6
Continuous
 62
     3
370
     9
100
AcDbCircle
 10
509.076876253695
 20
218.968505859375
 30
0.0
 40
5.000000064437454
100
AcDbArc
 50
0.0
 51
78.6900634765625
  0
ARC
  5
2AA
330
1F
100
AcDbEntity
  8
1-1ﾚｲﾔ
  6
Continuous
 62
     3
370
     9
100
AcDbCircle
 10
519.0770329655828
 20
227.1664346230997
 30
0.0
 40
1.999999904954756
100
AcDbArc
 50
0.0
 51
78.69027709960938
  0
ARC
  5
2AB
330
1F
100
AcDbEntity
  8
1-1ﾚｲﾔ
  6
Continuous
 62
     3
370
     9
100
AcDbCircle
 10
517.0768531593117
 20
49.21711689717071
 30
0.0
 40
5.000000064437454
100
AcDbArc
 50
280.6194458007812
 51
0.0
  0
ARC
  5
2AC
330
1F
100
AcDbEntity
  8
1-1ﾚｲﾔ
  6
Continuous
 62
     3
370
     9
100
AcDbCircle
 10
517.0768531593117
 20
30.91795225401185
 30
0.0
 40
5.000000064437454
100
AcDbArc
 50
0.0
 51
79.38055419921875
  0
ARC
  5
2AD
330
1F
100
AcDbEntity
  8
1-1ﾚｲﾔ
  6
Continuous
 62
     3
370
     9
100
AcDbCircle
 10
515.0769207928633
 20
42.73765770164701
 30
0.0
 40
0.9999999524773778
100
AcDbArc
 50
100.6180877685547
 51
180.0
  0
ARC
  5
2AE
330
1F
100
AcDbEntity
  8
1-1ﾚｲﾔ
  6
Continuous
 62
     3
370
     9
100
AcDbCircle
 10
515.0769207928633
 20
37.39741144953555
 30
0.0
 40
0.9999999524773778
100
AcDbArc
 50
180.0
 51
259.3819122314453
  0
ARC
  5
2AF
330
1F
100
AcDbEntity
  8
1-1ﾚｲﾔ
  6
Continuous
 62
     3
370
     9
100
AcDbCircle
 10
522.0769933752113
 20
215.8695695206926
 30
0.0
 40
0.9999999524773778
100
AcDbArc
 50
180.0
 51
257.4716491699219
  0
ARC
  5
2B0
330
1F
100
AcDbEntity
  8
1-1ﾚｲﾔ
  6
Continuous
 62
     3
370
     9
100
AcDbCircle
 10
529.0768185177365
 20
212.2651136243667
 30
0.0
 40
0.9999999524773778
100
AcDbArc
 50
0.0
 51
77.47164916992189
  0
ARC
  5
2B1
330
1F
100
AcDbEntity
  8
1-1ﾚｲﾔ
  6
Continuous
 62
     3
370
     9
100
AcDbCircle
 10
529.0768185177365
 20
207.3695167335305
 30
0.0
 40
0.9999999524773778
100
AcDbArc
 50
282.5283508300781
 51
0.0000000000000127
  0
ARC
  5
2B2
330
1F
100
AcDbEntity
  8
1-0ﾚｲﾔ
  6
Continuous
 62
     2
370
     9
100
AcDbCircle
 10
540.0770032728042
 20
-323.0275169578758
 30
0.0
 40
0.9999999524773778
100
AcDbArc
 50
180.0
 51
264.2886962890625
  0
ARC
  5
2B3
330
1F
100
AcDbEntity
  8
1-0ﾚｲﾔ
  6
Continuous
 62
     2
370
     9
100
AcDbCircle
 10
540.0768795528927
 20
-256.6979320629223
 30
0.0
 40
1.999999904954756
100
AcDbArc
 50
0.0
 51
82.87568664550781
  0
ARC
  5
2B4
330
1F
100
AcDbEntity
  8
1-0ﾚｲﾔ
  6
Continuous
 62
     2
370
     9
100
AcDbCircle
 10
531.0769983240075
 20
-252.5496034364442
 30
0.0
 40
0.9999999524773778
100
AcDbArc
 50
180.0
 51
262.8753356933594
  0
ARC
  5
2B5
330
1F
100
AcDbEntity
  8
1-0ﾚｲﾔ
  6
Continuous
 62
     2
370
     9
100
AcDbCircle
 10
531.0769983240075
 20
-247.3565838788006
 30
0.0
 40
0.9999999524773778
100
AcDbArc
 50
94.51409912109375
 51
180.0
  0
ARC
  5
2B6
330
1F
100
AcDbEntity
  8
1-0ﾚｲﾔ
  6
Continuous
 62
     2
370
     9
100
AcDbCircle
 10
537.0767954233531
 20
-23.52858259871198
 30
0.0
 40
5.000000064437454
100
AcDbArc
 50
284.0362396240234
 51
0.0000000000000254
  0
ARC
  5
2B7
330
1F
100
AcDbEntity
  8
1-0ﾚｲﾔ
  6
Continuous
 62
     2
370
     9
100
AcDbCircle
 10
540.0768795528927
 20
-278.0491431983742
 30
0.0
 40
1.999999904954756
100
AcDbArc
 50
273.4420166015625
 51
0.0000000000000254
  0
ARC
  5
2B8
330
1F
100
AcDbEntity
  8
1-0ﾚｲﾔ
  6
Continuous
 62
     2
370
     9
100
AcDbCircle
 10
536.0770148199958
 20
-301.4983965899493
 30
0.0
 40
5.999999110763138
100
AcDbArc
 50
0.0
 51
85.70010375976564
  0
ARC
  5
2B9
330
1F
100
AcDbEntity
  8
1-1ﾚｲﾔ
  6
Continuous
 62
     3
370
     9
100
AcDbCircle
 10
488.076905946474
 20
-280.370252454603
 30
0.0
 40
5.000000064437454
100
AcDbArc
 50
101.3099365234375
 51
180.0
  0
ARC
  5
2BA
330
1F
100
AcDbEntity
  8
1-1ﾚｲﾔ
  6
Continuous
 62
     3
370
     9
100
AcDbCircle
 10
509.076876253695
 20
-258.8334614521748
 30
0.0
 40
5.000000064437454
100
AcDbArc
 50
281.3099365234376
 51
0.0000000000000127
  0
ARC
  5
2BB
330
1F
100
AcDbEntity
  8
1-1ﾚｲﾔ
  6
Continuous
 62
     3
370
     9
100
AcDbCircle
 10
519.0770329655828
 20
-267.0316376557221
 30
0.0
 40
1.999999904954756
100
AcDbArc
 50
281.3097229003907
 51
0.0000000000000382
  0
ARC
  5
2BC
330
1F
100
AcDbEntity
  8
1-1ﾚｲﾔ
  6
Continuous
 62
     3
370
     9
100
AcDbCircle
 10
517.0768531593117
 20
-89.08207248997044
 30
0.0
 40
5.000000064437454
100
AcDbArc
 50
0.0
 51
79.38055419921875
  0
ARC
  5
2BD
330
1F
100
AcDbEntity
  8
1-1ﾚｲﾔ
  6
Continuous
 62
     3
370
     9
100
AcDbCircle
 10
517.0768531593117
 20
-70.78290784681158
 30
0.0
 40
5.000000064437454
100
AcDbArc
 50
280.6194458007812
 51
0.0
  0
ARC
  5
2BE
330
1F
100
AcDbEntity
  8
1-1ﾚｲﾔ
  6
Continuous
 62
     3
370
     9
100
AcDbCircle
 10
515.0769207928633
 20
-82.60248957453541
 30
0.0
 40
0.9999999524773778
100
AcDbArc
 50
180.0
 51
259.3819122314453
  0
ARC
  5
2BF
330
1F
100
AcDbEntity
  8
1-1ﾚｲﾔ
  6
Continuous
 62
     3
370
     9
100
AcDbCircle
 10
515.0769207928633
 20
-77.26249076224661
 30
0.0
 40
0.9999999524773778
100
AcDbArc
 50
100.6180877685547
 51
180.0
  0
ARC
  5
2C0
330
1F
100
AcDbEntity
  8
1-1ﾚｲﾔ
  6
Continuous
 62
     3
370
     9
100
AcDbCircle
 10
522.0769933752113
 20
-255.7346488334037
 30
0.0
 40
0.9999999524773778
100
AcDbArc
 50
102.5283508300781
 51
180.0
  0
ARC
  5
2C1
330
1F
100
AcDbEntity
  8
1-1ﾚｲﾔ
  6
Continuous
 62
     3
370
     9
100
AcDbCircle
 10
529.0768185177365
 20
-252.1301929370777
 30
0.0
 40
0.9999999524773778
100
AcDbArc
 50
282.5283508300781
 51
0.0000000000000127
  0
ARC
  5
2C2
330
1F
100
AcDbEntity
  8
1-1ﾚｲﾔ
  6
Continuous
 62
     3
370
     9
100
AcDbCircle
 10
529.0768185177365
 20
-247.2345960462415
 30
0.0
 40
0.9999999524773778
100
AcDbArc
 50
0.0
 51
77.47164916992189
  0
ARC
  5
2C3
330
1F
100
AcDbEntity
  8
1-1ﾚｲﾔ
  6
Continuous
 62
     3
370
     9
100
AcDbCircle
 10
519.0770329655828
 20
-267.0315139358108
 30
0.0
 40
1.999999904954756
100
AcDbArc
 50
281.3097229003907
 51
0.0000000000000382
  0
ARC
  5
2C4
330
1F
100
AcDbEntity
  8
1-1ﾚｲﾔ
  6
Continuous
 62
     3
370
     9
100
AcDbCircle
 10
-352.7027027027026
 20
-19.93266337626679
 30
0.0
 40
194.9999938140045
100
AcDbArc
 50
19.00437927246093
 51
70.99557495117186
  0
ARC
  5
2C5
330
1F
100
AcDbEntity
  8
1-1ﾚｲﾔ
  6
Continuous
 62
     3
370
     9
100
AcDbCircle
 10
-352.7027027027026
 20
-19.93266337626679
 30
0.0
 40
165.1435955150707
100
AcDbArc
 50
23.17837524414063
 51
66.82157897949219
  0
ARC
  5
2C6
330
1F
100
AcDbEntity
  8
1-1ﾚｲﾔ
  6
Continuous
 62
     3
370
     9
100
AcDbCircle
 10
-352.7027027027026
 20
-19.93266337626679
 30
0.0
 40
194.9999938140045
100
AcDbArc
 50
0.0
 51
16.84254455566407
  0
ARC
  5
2C7
330
1F
100
AcDbEntity
  8
1-1ﾚｲﾔ
  6
Continuous
 62
     3
370
     9
100
AcDbCircle
 10
-352.7027027027026
 20
-19.93266337626679
 30
0.0
 40
165.1435955150707
100
AcDbArc
 50
0.0
 51
19.45361328125
  0
ARC
  5
2C8
330
1F
100
AcDbEntity
  8
1-1ﾚｲﾔ
  6
Continuous
 62
     3
370
     9
100
AcDbCircle
 10
-352.7027027027026
 20
-19.93266337626679
 30
0.0
 40
165.1435955150707
100
AcDbArc
 50
70.54634094238283
 51
156.8216400146484
  0
ARC
  5
2C9
330
1F
100
AcDbEntity
  8
1-1ﾚｲﾔ
  6
Continuous
 62
     3
370
     9
100
AcDbCircle
 10
-352.7027027027026
 20
-19.93266337626679
 30
0.0
 40
165.1435955150707
100
AcDbArc
 50
160.54638671875
 51
180.0
  0
ARC
  5
2CA
330
1F
100
AcDbEntity
  8
1-1ﾚｲﾔ
  6
Continuous
 62
     3
370
     9
100
AcDbCircle
 10
-352.7027027027026
 20
-19.93266337626679
 30
0.0
 40
194.9999938140045
100
AcDbArc
 50
163.157455444336
 51
180.0
  0
ARC
  5
2CB
330
1F
100
AcDbEntity
  8
1-1ﾚｲﾔ
  6
Continuous
 62
     3
370
     9
100
AcDbCircle
 10
-352.7027027027026
 20
-19.93266337626679
 30
0.0
 40
192.0576559530722
100
AcDbArc
 50
180.0
 51
0.0
  0
ARC
  5
2CC
330
1F
100
AcDbEntity
  8
1-1ﾚｲﾔ
  6
Continuous
 62
     3
370
     9
100
AcDbCircle
 10
-352.7027027027026
 20
-19.93266337626679
 30
0.0
 40
143.5412020296664
100
AcDbArc
 50
332.6259918212891
 51
337.901626586914
  0
ARC
  5
2CD
330
1F
100
AcDbEntity
  8
1-0ﾚｲﾔ
  6
Continuous
 62
     2
370
     9
100
AcDbCircle
 10
-352.7027027027026
 20
-19.93266337626679
 30
0.0
 40
270.9999290672508
100
AcDbArc
 50
0.0
 51
180.0
  0
ARC
  5
2CE
330
1F
100
AcDbEntity
  8
1-0ﾚｲﾔ
  6
Continuous
 62
     2
370
     9
100
AcDbCircle
 10
-352.7027027027026
 20
-19.93266337626679
 30
0.0
 40
264.000011134792
100
AcDbArc
 50
0.0
 51
180.0
  0
ARC
  5
2CF
330
1F
100
AcDbEntity
  8
1-0ﾚｲﾔ
  6
Continuous
 62
     2
370
     9
100
AcDbCircle
 10
-352.7027027027026
 20
-19.93266337626679
 30
0.0
 40
225.0
100
AcDbArc
 50
180.0
 51
0.0
  0
ARC
  5
2D0
330
1F
100
AcDbEntity
  8
1-1ﾚｲﾔ
  6
Continuous
 62
     3
370
     9
100
AcDbCircle
 10
-352.7027027027026
 20
-19.93266337626679
 30
0.0
 40
262.0000478383657
100
AcDbArc
 50
0.0
 51
180.0
  0
ARC
  5
2D1
330
1F
100
AcDbEntity
  8
1-0ﾚｲﾔ
  6
Continuous
 62
     2
370
     9
100
AcDbCircle
 10
531.0769983240075
 20
207.4915045660896
 30
0.0
 40
0.9999999524773778
100
AcDbArc
 50
180.0
 51
265.490249633789
  0
ARC
  5
2D2
330
1F
100
AcDbEntity
  8
1-3ﾚｲﾔ
  6
Continuous
 62
     4
370
     9
100
AcDbCircle
 10
-333.7027266218855
 20
163.4296479096284
 30
0.0
 40
1.999999904954756
100
AcDbArc
 50
274.0828857421875
 51
0.0
  0
ARC
  5
2D3
330
1F
100
AcDbEntity
  8
1-3ﾚｲﾔ
  6
Continuous
 62
     4
370
     9
100
AcDbCircle
 10
-371.7026787835198
 20
163.4296479096284
 30
0.0
 40
1.999999904954756
100
AcDbArc
 50
180.0
 51
265.9171142578125
  0
CIRCLE
  5
2D4
330
1F
100
AcDbEntity
  8
1-3ﾚｲﾔ
  6
Continuous
 62
     4
370
     9
100
AcDbCircle
 10
-352.7027027027026
 20
195.5673795133025
 30
0.0
 40
11.74999990978757
  0
ARC
  5
2D5
330
1F
100
AcDbEntity
  8
1-3ﾚｲﾔ
  6
Continuous
 62
     4
370
     9
100
AcDbCircle
 10
-322.7027274466849
 20
195.5673795133025
 30
0.0
 40
9.9999991623131
100
AcDbArc
 50
281.5367431640625
 51
78.4632568359375
  0
ARC
  5
2D6
330
1F
100
AcDbEntity
  8
1-3ﾚｲﾔ
  6
Continuous
 62
     4
370
     9
100
AcDbCircle
 10
-382.7026779587204
 20
195.5673795133025
 30
0.0
 40
9.9999991623131
100
AcDbArc
 50
101.5367431640626
 51
258.4632568359375
  0
ARC
  5
2D7
330
1F
100
AcDbEntity
  8
1-1ﾚｲﾔ
  6
Continuous
 62
     3
370
     9
100
AcDbCircle
 10
-352.7027027027026
 20
-19.93266337626679
 30
0.0
 40
243.0000717575486
100
AcDbArc
 50
0.0
 51
85.04234313964844
  0
ARC
  5
2D8
330
1F
100
AcDbEntity
  8
1-1ﾚｲﾔ
  6
Continuous
 62
     3
370
     9
100
AcDbCircle
 10
-352.7027027027026
 20
-19.93266337626679
 30
0.0
 40
243.0000717575486
100
AcDbArc
 50
94.9576568603515
 51
180.0
  0
ARC
  5
2D9
330
1F
100
AcDbEntity
  8
1-1ﾚｲﾔ
  6
Continuous
 62
     3
370
     9
100
AcDbCircle
 10
-352.7027027027026
 20
-19.93266337626679
 30
0.0
 40
251.0000486631651
100
AcDbArc
 50
0.0
 51
85.20072937011719
  0
ARC
  5
2DA
330
1F
100
AcDbEntity
  8
1-1ﾚｲﾔ
  6
Continuous
 62
     3
370
     9
100
AcDbCircle
 10
-352.7027027027026
 20
-19.93266337626679
 30
0.0
 40
251.0000486631651
100
AcDbArc
 50
94.79927062988281
 51
180.0
  0
ARC
  5
2DB
330
1F
100
AcDbEntity
  8
1-1ﾚｲﾔ
  6
Continuous
 62
     3
370
     9
100
AcDbCircle
 10
-352.7027027027026
 20
-19.93266337626679
 30
0.0
 40
194.9999938140045
100
AcDbArc
 50
73.15740966796876
 51
83.81771850585938
  0
ARC
  5
2DC
330
1F
100
AcDbEntity
  8
1-1ﾚｲﾔ
  6
Continuous
 62
     3
370
     9
100
AcDbCircle
 10
-352.7027027027026
 20
-19.93266337626679
 30
0.0
 40
194.9999938140045
100
AcDbArc
 50
96.18228149414062
 51
160.9956207275391
  0
ARC
  5
2DD
330
1F
100
AcDbEntity
  8
1-3ﾚｲﾔ
  6
Continuous
 62
     4
370
     9
100
AcDbCircle
 10
480.5768812024917
 20
-269.8483688766892
 30
0.0
 40
1.999999904954756
100
AcDbArc
 50
283.2415008544922
 51
0.0
  0
ARC
  5
2DE
330
1F
100
AcDbEntity
  8
1-3ﾚｲﾔ
  6
Continuous
 62
     4
370
     9
100
AcDbCircle
 10
480.5768812024917
 20
-201.9324472788217
 30
0.0
 40
1.999999904954756
100
AcDbArc
 50
0.0
 51
90.0
  0
ARC
  5
2DF
330
1F
100
AcDbEntity
  8
1-3ﾚｲﾔ
  6
Continuous
 62
     4
370
     9
100
AcDbCircle
 10
487.5769537848396
 20
-256.4323054133234
 30
0.0
 40
4.99999958115655
100
AcDbArc
 50
90.0
 51
180.0
  0
ARC
  5
2E0
330
1F
100
AcDbEntity
  8
1-3ﾚｲﾔ
  6
Continuous
 62
     4
370
     9
100
AcDbCircle
 10
487.5769537848396
 20
-214.4324885187922
 30
0.0
 40
4.99999958115655
100
AcDbArc
 50
180.0
 51
270.0
  0
ARC
  5
2E1
330
1F
100
AcDbEntity
  8
1-0ﾚｲﾔ
  6
Continuous
 62
     4
370
     9
100
AcDbCircle
 10
500.0768713048987
 20
-243.43243573163
 30
0.0
 40
1.999999904954756
100
AcDbArc
 50
180.0
 51
270.0
  0
ARC
  5
2E2
330
1F
100
AcDbEntity
  8
1-0ﾚｲﾔ
  6
Continuous
 62
     4
370
     9
100
AcDbCircle
 10
500.0768713048987
 20
-227.4324819203969
 30
0.0
 40
1.999999904954756
100
AcDbArc
 50
90.0
 51
180.0
  0
ARC
  5
2E3
330
1F
100
AcDbEntity
  8
1-1ﾚｲﾔ
  6
Continuous
 62
     3
370
     9
100
AcDbCircle
 10
522.0769933752113
 20
203.7655557168497
 30
0.0
 40
0.9999999524773778
100
AcDbArc
 50
102.5283508300781
 51
180.0
  0
ARC
  5
2E4
330
1F
100
AcDbEntity
  8
1-1ﾚｲﾔ
  6
Continuous
 62
     3
370
     9
100
AcDbCircle
 10
522.0769933752113
 20
-243.6303875897381
 30
0.0
 40
0.9999999524773778
100
AcDbArc
 50
180.0
 51
257.4716491699219
  0
ARC
  5
2E5
330
1F
100
AcDbEntity
  8
1-1ﾚｲﾔ
  6
Continuous
 62
     3
370
     9
100
AcDbCircle
 10
-352.7027027027026
 20
-19.93266337626679
 30
0.0
 40
143.5412020296664
100
AcDbArc
 50
202.0983734130859
 51
207.3740081787109
  0
ARC
  5
2E6
330
1F
100
AcDbEntity
  8
1-1ﾚｲﾔ
  6
Continuous
 62
     3
370
     9
100
AcDbCircle
 10
-352.7027027027026
 20
-19.93266337626679
 30
0.0
 40
143.5412020296664
100
AcDbArc
 50
292.0983734130859
 51
297.3740081787109
  0
ARC
  5
2E7
330
1F
100
AcDbEntity
  8
1-1ﾚｲﾔ
  6
Continuous
 62
     3
370
     9
100
AcDbCircle
 10
-352.7027027027026
 20
-19.93266337626679
 30
0.0
 40
143.5412020296664
100
AcDbArc
 50
242.6259918212891
 51
247.9016265869141
  0
ARC
  5
2E8
330
1F
100
AcDbEntity
  8
1-3ﾚｲﾔ
  6
Continuous
 62
     4
370
     9
100
AcDbCircle
 10
-352.7027027027026
 20
270.0670561919341
 30
0.0
 40
12.50000741030719
100
AcDbArc
 50
180.0
 51
0.0
  0
CIRCLE
  5
2E9
330
1F
100
AcDbEntity
  8
1-3ﾚｲﾔ
  6
Continuous
 62
     2
370
     9
100
AcDbCircle
 10
-352.7027027027026
 20
270.0616125158362
 30
0.0
 40
6.500000567049594
  0
CIRCLE
  5
2EA
330
1F
100
AcDbEntity
  8
1-3ﾚｲﾔ
  6
Continuous
 62
     2
370
     9
100
AcDbCircle
 10
-352.7027027027026
 20
270.0670561919341
 30
0.0
 40
3.999999809909511
  0
CIRCLE
  5
2EB
330
1F
100
AcDbEntity
  8
1-3ﾚｲﾔ
  6
Continuous
 62
     2
370
     9
100
AcDbCircle
 10
-352.7027027027026
 20
270.0670561919341
 30
0.0
 40
3.323499818105955
  0
CIRCLE
  5
2EC
330
1F
100
AcDbEntity
  8
1-3ﾚｲﾔ
  6
Continuous
 62
     2
370
     9
100
AcDbCircle
 10
-352.7027027027026
 20
-309.9326303842905
 30
0.0
 40
6.226724064027941
  0
CIRCLE
  5
2ED
330
1F
100
AcDbEntity
  8
1-3ﾚｲﾔ
  6
JWW_DASHED1
 62
     2
370
     9
100
AcDbCircle
 10
-352.7027027027026
 20
-309.9323829444679
 30
0.0
 40
4.499999574712805
  0
ARC
  5
2EE
330
1F
100
AcDbEntity
  8
1-0ﾚｲﾔ
  6
Continuous
 62
     2
370
     9
100
AcDbCircle
 10
-352.7027027027026
 20
-19.93266337626679
 30
0.0
 40
303.9999575228305
100
AcDbArc
 50
92.35658264160155
 51
177.6434173583984
  0
ARC
  5
2EF
330
1F
100
AcDbEntity
  8
1-3ﾚｲﾔ
  6
Continuous
 62
     4
370
     9
100
AcDbCircle
 10
-62.70298313450169
 20
-19.93266337626679
 30
0.0
 40
12.50000741030719
100
AcDbArc
 50
90.0
 51
180.0
  0
ARC
  5
2F0
330
1F
100
AcDbEntity
  8
1-0ﾚｲﾔ
  6
Continuous
 62
     2
370
     9
100
AcDbCircle
 10
-352.7027027027026
 20
-19.93266337626679
 30
0.0
 40
275.7799097009607
100
AcDbArc
 50
0.0
 51
3.701995849609318
  0
ARC
  5
2F1
330
1F
100
AcDbEntity
  8
1-3ﾚｲﾔ
  6
Continuous
 62
     2
370
     9
100
AcDbCircle
 10
-62.7084268105996
 20
-19.93266337626679
 30
0.0
 40
6.500000567049594
100
AcDbArc
 50
0.0
 51
180.0
  0
ARC
  5
2F2
330
1F
100
AcDbEntity
  8
1-3ﾚｲﾔ
  6
Continuous
 62
     2
370
     9
100
AcDbCircle
 10
-62.70298313450169
 20
-19.93266337626679
 30
0.0
 40
3.323499818105955
100
AcDbArc
 50
0.0
 51
180.0
  0
ARC
  5
2F3
330
1F
100
AcDbEntity
  8
1-3ﾚｲﾔ
  6
Continuous
 62
     2
370
     9
100
AcDbCircle
 10
-62.70298313450169
 20
-19.93266337626679
 30
0.0
 40
3.999999809909511
100
AcDbArc
 50
0.0
 51
180.0
  0
CIRCLE
  5
2F4
330
1F
100
AcDbEntity
  8
1-3ﾚｲﾔ
  6
Continuous
 62
     2
370
     9
100
AcDbCircle
 10
-62.70273569467903
 20
-19.93266337626679
 30
0.0
 40
6.226724064027941
  0
ARC
  5
2F5
330
1F
100
AcDbEntity
  8
1-0ﾚｲﾔ
  6
Continuous
 62
     2
370
     9
100
AcDbCircle
 10
-352.7027027027026
 20
-19.93266337626679
 30
0.0
 40
304.9999855660104
100
AcDbArc
 50
2.348846435546874
 51
87.65115356445312
  0
ARC
  5
2F6
330
1F
100
AcDbEntity
  8
1-0ﾚｲﾔ
  6
Continuous
 62
     2
370
     9
100
AcDbCircle
 10
-352.7027027027026
 20
-19.93266337626679
 30
0.0
 40
303.9999575228305
100
AcDbArc
 50
2.356582641601568
 51
87.64341735839845
  0
ARC
  5
2F7
330
1F
100
AcDbEntity
  8
1-3ﾚｲﾔ
  6
Continuous
 62
     2
370
     9
100
AcDbCircle
 10
554.287101127006
 20
275.6624129011824
 30
0.0
 40
2.389999982473013
100
AcDbArc
 50
318.1361083984374
 51
41.86389160156251
  0
ARC
  5
2F8
330
1F
100
AcDbEntity
  8
1-3ﾚｲﾔ
  6
Continuous
 62
     2
370
     9
100
AcDbCircle
 10
554.287101127006
 20
264.4724418021538
 30
0.0
 40
2.389999982473013
100
AcDbArc
 50
318.1361083984374
 51
41.86389160156251
  0
ARC
  5
2F9
330
1F
100
AcDbEntity
  8
1-3ﾚｲﾔ
  6
Continuous
 62
     2
370
     9
100
AcDbCircle
 10
543.2588319520693
 20
270.0673036317568
 30
0.0
 40
13.41822759525196
100
AcDbArc
 50
342.6564025878906
 51
17.34359741210938
  0
ARC
  5
2FA
330
1F
100
AcDbEntity
  8
1-3ﾚｲﾔ
  6
Continuous
 62
     2
370
     9
100
AcDbCircle
 10
531.3770191089529
 20
264.4437387827281
 30
0.0
 40
2.800172809008006
100
AcDbArc
 50
137.9255676269531
 51
222.0746307373047
  0
ARC
  5
2FB
330
1F
100
AcDbEntity
  8
1-3ﾚｲﾔ
  6
Continuous
 62
     2
370
     9
100
AcDbCircle
 10
538.6661014041385
 20
270.0673036317568
 30
0.0
 40
10.08940902916161
100
AcDbArc
 50
158.1978607177734
 51
201.8021392822266
  0
ARC
  5
2FC
330
1F
100
AcDbEntity
  8
1-3ﾚｲﾔ
  6
Continuous
 62
     2
370
     9
100
AcDbCircle
 10
531.3770191089529
 20
275.6911159206082
 30
0.0
 40
2.800189240558728
100
AcDbArc
 50
137.9257202148438
 51
222.0742797851562
  0
CIRCLE
  5
2FD
330
1F
100
AcDbEntity
  8
1-3ﾚｲﾔ
  6
Continuous
 62
     7
370
     9
100
AcDbCircle
 10
-322.7027274466849
 20
195.5671320734798
 30
0.0
 40
3.999999809909511
  0
CIRCLE
  5
2FE
330
1F
100
AcDbEntity
  8
1-3ﾚｲﾔ
  6
Continuous
 62
     7
370
     9
100
AcDbCircle
 10
-322.7027274466849
 20
195.5671320734798
 30
0.0
 40
3.593999389055613
  0
CIRCLE
  5
2FF
330
1F
100
AcDbEntity
  8
1-3ﾚｲﾔ
  6
Continuous
 62
     7
370
     9
100
AcDbCircle
 10
-382.7026779587204
 20
195.5671320734798
 30
0.0
 40
3.999999809909511
  0
CIRCLE
  5
300
330
1F
100
AcDbEntity
  8
1-3ﾚｲﾔ
  6
Continuous
 62
     7
370
     9
100
AcDbCircle
 10
-382.7026779587204
 20
195.5671320734798
 30
0.0
 40
3.593999389055613
  0
CIRCLE
  5
301
330
1F
100
AcDbEntity
  8
1-3ﾚｲﾔ
  6
Continuous
 62
     7
370
     9
100
AcDbCircle
 10
-322.7027274466849
 20
-235.4327062658361
 30
0.0
 40
6.499999600487786
  0
CIRCLE
  5
302
330
1F
100
AcDbEntity
  8
1-3ﾚｲﾔ
  6
Continuous
 62
     7
370
     9
100
AcDbCircle
 10
-382.7026779587204
 20
-235.4327062658361
 30
0.0
 40
6.499999600487786
  0
CIRCLE
  5
303
330
1F
100
AcDbEntity
  8
1-2ﾚｲﾔ
  6
Continuous
 62
     4
370
     9
100
AcDbCircle
 10
-352.7027027027026
 20
195.5673795133025
 30
0.0
 40
11.74999990978757
  0
CIRCLE
  5
304
330
1F
100
AcDbEntity
  8
1-2ﾚｲﾔ
  6
Continuous
 62
     6
370
     9
100
AcDbCircle
 10
-352.7027027027026
 20
195.5673795133025
 30
0.0
 40
11.49999966492524
  0
ARC
  5
305
330
1F
100
AcDbEntity
  8
1-3ﾚｲﾔ
  6
Continuous
 62
     4
370
     9
100
AcDbCircle
 10
480.5768812024917
 20
229.9832895639781
 30
0.0
 40
1.999999904954756
100
AcDbArc
 50
0.0
 51
76.75849914550781
  0
ARC
  5
306
330
1F
100
AcDbEntity
  8
1-3ﾚｲﾔ
  6
Continuous
 62
     4
370
     9
100
AcDbCircle
 10
480.5768812024917
 20
162.067491686022
 30
0.0
 40
1.999999904954756
100
AcDbArc
 50
270.0
 51
0.0
  0
ARC
  5
307
330
1F
100
AcDbEntity
  8
1-3ﾚｲﾔ
  6
Continuous
 62
     4
370
     9
100
AcDbCircle
 10
487.5769537848396
 20
216.5673498205237
 30
0.0
 40
4.99999958115655
100
AcDbArc
 50
180.0
 51
270.0
  0
ARC
  5
308
330
1F
100
AcDbEntity
  8
1-3ﾚｲﾔ
  6
Continuous
 62
     4
370
     9
100
AcDbCircle
 10
487.5769537848396
 20
174.5674092060811
 30
0.0
 40
4.99999958115655
100
AcDbArc
 50
90.0
 51
180.0
  0
ARC
  5
309
330
1F
100
AcDbEntity
  8
1-3ﾚｲﾔ
  6
Continuous
 62
     2
370
     9
100
AcDbCircle
 10
554.287101127006
 20
-315.5272447740709
 30
0.0
 40
2.389999982473013
100
AcDbArc
 50
318.1361083984374
 51
41.86389160156253
  0
ARC
  5
30A
330
1F
100
AcDbEntity
  8
1-3ﾚｲﾔ
  6
Continuous
 62
     2
370
     9
100
AcDbCircle
 10
554.287101127006
 20
-304.3373973949535
 30
0.0
 40
2.389999982473013
100
AcDbArc
 50
318.1361083984374
 51
41.86389160156253
  0
ARC
  5
30B
330
1F
100
AcDbEntity
  8
1-3ﾚｲﾔ
  6
Continuous
 62
     2
370
     9
100
AcDbCircle
 10
543.2588319520693
 20
-309.9323829444679
 30
0.0
 40
13.41822759525196
100
AcDbArc
 50
342.6564025878906
 51
17.34359741210941
  0
ARC
  5
30C
330
1F
100
AcDbEntity
  8
1-3ﾚｲﾔ
  6
Continuous
 62
     2
370
     9
100
AcDbCircle
 10
531.3770191089529
 20
-304.3088180954392
 30
0.0
 40
2.800172809008006
100
AcDbArc
 50
137.9253692626953
 51
222.0744323730469
  0
ARC
  5
30D
330
1F
100
AcDbEntity
  8
1-3ﾚｲﾔ
  6
Continuous
 62
     2
370
     9
100
AcDbCircle
 10
538.6661014041385
 20
-309.9323829444679
 30
0.0
 40
10.08940902916161
100
AcDbArc
 50
158.1978607177735
 51
201.8021392822266
  0
ARC
  5
30E
330
1F
100
AcDbEntity
  8
1-3ﾚｲﾔ
  6
Continuous
 62
     2
370
     9
100
AcDbCircle
 10
531.3770191089529
 20
-315.5559477934966
 30
0.0
 40
2.800189240558728
100
AcDbArc
 50
137.9257202148438
 51
222.0742797851563
  0
ARC
  5
30F
330
1F
100
AcDbEntity
  8
1-3ﾚｲﾔ
  6
Continuous
 62
     4
370
     9
100
AcDbCircle
 10
479.5769768792232
 20
227.7187203072214
 30
0.0
 40
1.999999904954756
100
AcDbArc
 50
0.0
 51
76.75898742675781
  0
ARC
  5
310
330
1F
100
AcDbEntity
  8
1-3ﾚｲﾔ
  6
Continuous
 62
     4
370
     9
100
AcDbCircle
 10
479.5769768792232
 20
163.5672244510135
 30
0.0
 40
1.999999904954756
100
AcDbArc
 50
270.0
 51
0.0
  0
ARC
  5
311
330
1F
100
AcDbEntity
  8
1-3ﾚｲﾔ
  6
JWW_DASHED1
 62
     4
370
     9
100
AcDbCircle
 10
500.0768713048987
 20
203.567356418919
 30
0.0
 40
1.999999904954756
100
AcDbArc
 50
90.0
 51
180.0
  0
ARC
  5
312
330
1F
100
AcDbEntity
  8
1-3ﾚｲﾔ
  6
JWW_DASHED1
 62
     4
370
     9
100
AcDbCircle
 10
496.1769722603464
 20
203.4673907305744
 30
0.0
 40
1.899999903666007
100
AcDbArc
 50
270.0
 51
0.0
  0
ARC
  5
313
330
1F
100
AcDbEntity
  8
1-3ﾚｲﾔ
  6
JWW_DASHED1
 62
     4
370
     9
100
AcDbCircle
 10
500.0768713048987
 20
187.5674026076858
 30
0.0
 40
1.999999904954756
100
AcDbArc
 50
180.0
 51
270.0
  0
ARC
  5
314
330
1F
100
AcDbEntity
  8
1-3ﾚｲﾔ
  6
JWW_DASHED1
 62
     4
370
     9
100
AcDbCircle
 10
496.1769722603464
 20
187.6673682960305
 30
0.0
 40
1.899999903666007
100
AcDbArc
 50
0.0
 51
90.0
  0
ARC
  5
315
330
1F
100
AcDbEntity
  8
1-3ﾚｲﾔ
  6
Continuous
 62
     2
370
     9
100
AcDbCircle
 10
523.9869813661318
 20
201.1622413429055
 30
0.0
 40
2.389999982473013
100
AcDbArc
 50
318.1361083984374
 51
41.86389160156251
  0
ARC
  5
316
330
1F
100
AcDbEntity
  8
1-3ﾚｲﾔ
  6
Continuous
 62
     2
370
     9
100
AcDbCircle
 10
523.9869813661318
 20
189.9722702438767
 30
0.0
 40
2.389999982473013
100
AcDbArc
 50
318.1361083984374
 51
41.86389160156251
  0
ARC
  5
317
330
1F
100
AcDbEntity
  8
1-3ﾚｲﾔ
  6
Continuous
 62
     2
370
     9
100
AcDbCircle
 10
512.9588359111065
 20
195.5673795133025
 30
0.0
 40
13.41822759525196
100
AcDbArc
 50
342.6564025878906
 51
17.34359741210938
  0
ARC
  5
318
330
1F
100
AcDbEntity
  8
1-0ﾚｲﾔ
  6
Continuous
 62
     2
370
     9
100
AcDbCircle
 10
-376.7027571394636
 20
269.0723481049409
 30
0.0
 40
1.999999904954756
100
AcDbArc
 50
0.0
 51
94.74702453613281
  0
ARC
  5
319
330
1F
100
AcDbEntity
  8
1-0ﾚｲﾔ
  6
Continuous
 62
     2
370
     9
100
AcDbCircle
 10
-376.7027571394636
 20
257.029451937289
 30
0.0
 40
1.999999904954756
100
AcDbArc
 50
274.952133178711
 51
0.0000000000000127
  0
ARC
  5
31A
330
1F
100
AcDbEntity
  8
1-0ﾚｲﾔ
  6
Continuous
 62
     2
370
     9
100
AcDbCircle
 10
-374.7027010531039
 20
256.9747677364866
 30
0.0
 40
1.999999904954756
100
AcDbArc
 50
274.5419158935547
 51
0.0
  0
ARC
  5
31B
330
1F
100
AcDbEntity
  8
1-0ﾚｲﾔ
  6
Continuous
 62
     2
370
     9
100
AcDbCircle
 10
-374.7027010531039
 20
271.2371991131758
 30
0.0
 40
1.999999904954756
100
AcDbArc
 50
0.0
 51
94.32196044921876
  0
ARC
  5
31C
330
1F
100
AcDbEntity
  8
1-0ﾚｲﾔ
  6
Continuous
 62
     2
370
     9
100
AcDbCircle
 10
-328.7026482659417
 20
269.0723481049409
 30
0.0
 40
1.999999904954756
100
AcDbArc
 50
85.25297546386719
 51
180.0
  0
ARC
  5
31D
330
1F
100
AcDbEntity
  8
1-0ﾚｲﾔ
  6
Continuous
 62
     2
370
     9
100
AcDbCircle
 10
-328.7026482659417
 20
257.029451937289
 30
0.0
 40
1.999999904954756
100
AcDbArc
 50
180.0
 51
265.047866821289
  0
ARC
  5
31E
330
1F
100
AcDbEntity
  8
1-0ﾚｲﾔ
  6
Continuous
 62
     2
370
     9
100
AcDbCircle
 10
-330.7027043523015
 20
256.9747677364866
 30
0.0
 40
1.999999904954756
100
AcDbArc
 50
180.0
 51
265.4580841064453
  0
ARC
  5
31F
330
1F
100
AcDbEntity
  8
1-0ﾚｲﾔ
  6
Continuous
 62
     2
370
     9
100
AcDbCircle
 10
-330.7027043523015
 20
271.2371991131758
 30
0.0
 40
1.999999904954756
100
AcDbArc
 50
85.67803955078125
 51
180.0
  0
ARC
  5
320
330
1F
100
AcDbEntity
  8
1-0ﾚｲﾔ
  6
Continuous
 62
     2
370
     9
100
AcDbCircle
 10
-352.7027027027026
 20
-19.93266337626679
 30
0.0
 40
276.0000383531725
100
AcDbArc
 50
0.0
 51
85.04742431640625
  0
ARC
  5
321
330
1F
100
AcDbEntity
  8
1-0ﾚｲﾔ
  6
Continuous
 62
     2
370
     9
100
AcDbCircle
 10
-352.7027027027026
 20
-19.93266337626679
 30
0.0
 40
275.7799097009607
100
AcDbArc
 50
85.45744323730469
 51
94.54255676269531
  0
ARC
  5
322
330
1F
100
AcDbEntity
  8
1-0ﾚｲﾔ
  6
Continuous
 62
     2
370
     9
100
AcDbCircle
 10
-63.69769122149492
 20
4.067391060494145
 30
0.0
 40
1.999999904954756
100
AcDbArc
 50
270.0
 51
4.747024536132805
  0
ARC
  5
323
330
1F
100
AcDbEntity
  8
1-0ﾚｲﾔ
  6
Continuous
 62
     2
370
     9
100
AcDbCircle
 10
-75.74058738914687
 20
4.067391060494145
 30
0.0
 40
1.999999904954756
100
AcDbArc
 50
184.952133178711
 51
270.0
  0
ARC
  5
324
330
1F
100
AcDbEntity
  8
1-0ﾚｲﾔ
  6
Continuous
 62
     2
370
     9
100
AcDbCircle
 10
-75.79539530986054
 20
2.067334974134383
 30
0.0
 40
1.999999904954756
100
AcDbArc
 50
184.5419158935547
 51
270.0
  0
ARC
  5
325
330
1F
100
AcDbEntity
  8
1-0ﾚｲﾔ
  6
Continuous
 62
     2
370
     9
100
AcDbCircle
 10
-61.53271649334883
 20
2.067334974134383
 30
0.0
 40
1.999999904954756
100
AcDbArc
 50
270.0
 51
4.321960449218757
  0
ARC
  5
326
330
1F
100
AcDbEntity
  8
1-0ﾚｲﾔ
  6
Continuous
 62
     2
370
     9
100
AcDbCircle
 10
-641.7077760438661
 20
4.067391060494145
 30
0.0
 40
1.999999904954756
100
AcDbArc
 50
175.2529754638672
 51
270.0
  0
ARC
  5
327
330
1F
100
AcDbEntity
  8
1-0ﾚｲﾔ
  6
Continuous
 62
     2
370
     9
100
AcDbCircle
 10
-629.6648489462362
 20
4.067391060494145
 30
0.0
 40
1.999999904954756
100
AcDbArc
 50
270.0
 51
355.047866821289
  0
ARC
  5
328
330
1F
100
AcDbEntity
  8
1-0ﾚｲﾔ
  6
Continuous
 62
     2
370
     9
100
AcDbCircle
 10
-629.6100719555004
 20
2.067334974134383
 30
0.0
 40
1.999999904954756
100
AcDbArc
 50
270.0
 51
355.4580841064454
  0
ARC
  5
329
330
1F
100
AcDbEntity
  8
1-0ﾚｲﾔ
  6
Continuous
 62
     2
370
     9
100
AcDbCircle
 10
-643.8727198420344
 20
2.067334974134383
 30
0.0
 40
1.999999904954756
100
AcDbArc
 50
175.6780395507813
 51
270.0
  0
ARC
  5
32A
330
1F
100
AcDbEntity
  8
1-0ﾚｲﾔ
  6
Continuous
 62
     2
370
     9
100
AcDbCircle
 10
-352.7027027027026
 20
-19.93266337626679
 30
0.0
 40
293.9999863908098
100
AcDbArc
 50
94.32090759277344
 51
175.6790924072266
  0
ARC
  5
32B
330
1F
100
AcDbEntity
  8
1-0ﾚｲﾔ
  6
Continuous
 62
     2
370
     9
100
AcDbCircle
 10
-352.7027027027026
 20
-19.93266337626679
 30
0.0
 40
291.9998993744721
100
AcDbArc
 50
94.74716186523438
 51
175.2528381347657
  0
ARC
  5
32C
330
1F
100
AcDbEntity
  8
1-0ﾚｲﾔ
  6
Continuous
 62
     2
370
     9
100
AcDbCircle
 10
-352.7027027027026
 20
-19.93266337626679
 30
0.0
 40
276.0000383531725
100
AcDbArc
 50
94.95257568359382
 51
175.0474243164063
  0
ARC
  5
32D
330
1F
100
AcDbEntity
  8
1-0ﾚｲﾔ
  6
Continuous
 62
     2
370
     9
100
AcDbCircle
 10
-352.7027027027026
 20
-19.93266337626679
 30
0.0
 40
275.7799097009607
100
AcDbArc
 50
175.4574432373047
 51
180.0
  0
ARC
  5
32E
330
1F
100
AcDbEntity
  8
1-0ﾚｲﾔ
  6
Continuous
 62
     2
370
     9
100
AcDbCircle
 10
-352.7027027027026
 20
-19.93266337626679
 30
0.0
 40
291.9998993744721
100
AcDbArc
 50
4.747161865234373
 51
85.25283813476562
  0
ARC
  5
32F
330
1F
100
AcDbEntity
  8
1-0ﾚｲﾔ
  6
Continuous
 62
     2
370
     9
100
AcDbCircle
 10
-352.7027027027026
 20
-19.93266337626679
 30
0.0
 40
293.9999863908098
100
AcDbArc
 50
4.320907592773433
 51
85.67909240722655
  0
ARC
  5
330
330
1F
100
AcDbEntity
  8
1-0ﾚｲﾔ
  6
JWW_DASHED1
 62
     2
370
     9
100
AcDbCircle
 10
-352.7027027027026
 20
-309.9326303842905
 30
0.0
 40
7.499999613375278
100
AcDbArc
 50
0.0
 51
180.0
  0
ARC
  5
331
330
1F
100
AcDbEntity
  8
1-0ﾚｲﾔ
  6
Continuous
 62
     2
370
     9
100
AcDbCircle
 10
-362.2027216730891
 20
-322.7836650126688
 30
0.0
 40
1.999999904954756
100
AcDbArc
 50
268.2026367187501
 51
0.0000000000000509
  0
ARC
  5
332
330
1F
100
AcDbEntity
  8
1-0ﾚｲﾔ
  6
Continuous
 62
     2
370
     9
100
AcDbCircle
 10
-343.2026837323162
 20
-322.7836650126688
 30
0.0
 40
1.999999904954756
100
AcDbArc
 50
180.0
 51
271.79736328125
  0
ARC
  5
333
330
1F
100
AcDbEntity
  8
1-0ﾚｲﾔ
  6
JWW_DASHED1
 62
     2
370
     9
100
AcDbCircle
 10
-352.7027027027026
 20
270.0673036317568
 30
0.0
 40
7.499999613375278
100
AcDbArc
 50
180.0
 51
0.0
  0
ARC
  5
334
330
1F
100
AcDbEntity
  8
1-0ﾚｲﾔ
  6
JWW_DASHED1
 62
     2
370
     9
100
AcDbCircle
 10
-362.2027216730891
 20
282.9183382601352
 30
0.0
 40
1.999999904954756
100
AcDbArc
 50
0.0
 51
91.79728698730469
  0
ARC
  5
335
330
1F
100
AcDbEntity
  8
1-0ﾚｲﾔ
  6
JWW_DASHED1
 62
     2
370
     9
100
AcDbCircle
 10
-352.7027027027026
 20
-19.93266337626679
 30
0.0
 40
304.9999855660104
100
AcDbArc
 50
91.79670715332031
 51
92.34884643554686
  0
ARC
  5
336
330
1F
100
AcDbEntity
  8
1-0ﾚｲﾔ
  6
Continuous
 62
     2
370
     9
100
AcDbCircle
 10
-352.7027027027026
 20
-19.93266337626679
 30
0.0
 40
304.9999855660104
100
AcDbArc
 50
92.34884643554686
 51
177.6511535644532
  0
ARC
  5
337
330
1F
100
AcDbEntity
  8
1-0ﾚｲﾔ
  6
JWW_DASHED1
 62
     2
370
     9
100
AcDbCircle
 10
-343.2026837323162
 20
282.9183382601352
 30
0.0
 40
1.999999904954756
100
AcDbArc
 50
88.20271301269533
 51
180.0
  0
ARC
  5
338
330
1F
100
AcDbEntity
  8
1-0ﾚｲﾔ
  6
JWW_DASHED1
 62
     2
370
     9
100
AcDbCircle
 10
-352.7027027027026
 20
-19.93266337626679
 30
0.0
 40
304.9999855660104
100
AcDbArc
 50
87.65115356445311
 51
88.20329284667967
  0
ARC
  5
339
330
1F
100
AcDbEntity
  8
1-0ﾚｲﾔ
  6
JWW_DASHED1
 62
     2
370
     9
100
AcDbCircle
 10
-62.70273569467903
 20
-19.93266337626679
 30
0.0
 40
7.499999613375278
100
AcDbArc
 50
90.0
 51
270.0
  0
ARC
  5
33A
330
1F
100
AcDbEntity
  8
1-0ﾚｲﾔ
  6
Continuous
 62
     2
370
     9
100
AcDbCircle
 10
-49.85157734638932
 20
-29.43262048669766
 30
0.0
 40
1.999999904954756
100
AcDbArc
 50
358.2026367187501
 51
90.00000000000006
  0
ARC
  5
33B
330
1F
100
AcDbEntity
  8
1-0ﾚｲﾔ
  6
Continuous
 62
     2
370
     9
100
AcDbCircle
 10
-352.7027027027026
 20
-19.93266337626679
 30
0.0
 40
304.9999855660104
100
AcDbArc
 50
271.7966918945313
 51
358.2033081054687
  0
ARC
  5
33C
330
1F
100
AcDbEntity
  8
1-0ﾚｲﾔ
  6
JWW_DASHED1
 62
     2
370
     9
100
AcDbCircle
 10
-49.85157734638932
 20
-10.43270626583606
 30
0.0
 40
1.999999904954756
100
AcDbArc
 50
270.0
 51
1.797286987304689
  0
ARC
  5
33D
330
1F
100
AcDbEntity
  8
1-0ﾚｲﾔ
  6
JWW_DASHED1
 62
     2
370
     9
100
AcDbCircle
 10
-352.7027027027026
 20
-19.93266337626679
 30
0.0
 40
304.9999855660104
100
AcDbArc
 50
1.79669189453125
 51
2.348846435546875
  0
ARC
  5
33E
330
1F
100
AcDbEntity
  8
1-3ﾚｲﾔ
  6
Continuous
 62
     4
370
     9
100
AcDbCircle
 10
-642.7024841308594
 20
-19.93266337626679
 30
0.0
 40
12.50000741030719
100
AcDbArc
 50
0.0
 51
90.0
  0
ARC
  5
33F
330
1F
100
AcDbEntity
  8
1-3ﾚｲﾔ
  6
Continuous
 62
     2
370
     9
100
AcDbCircle
 10
-642.6969785948057
 20
-19.93266337626679
 30
0.0
 40
6.500000567049594
100
AcDbArc
 50
0.0
 51
180.0
  0
ARC
  5
340
330
1F
100
AcDbEntity
  8
1-3ﾚｲﾔ
  6
Continuous
 62
     2
370
     9
100
AcDbCircle
 10
-642.7024841308594
 20
-19.93266337626679
 30
0.0
 40
3.323499818105955
100
AcDbArc
 50
0.0
 51
180.0
  0
ARC
  5
341
330
1F
100
AcDbEntity
  8
1-3ﾚｲﾔ
  6
Continuous
 62
     2
370
     9
100
AcDbCircle
 10
-642.7024841308594
 20
-19.93266337626679
 30
0.0
 40
3.999999809909511
100
AcDbArc
 50
0.0
 51
180.0
  0
CIRCLE
  5
342
330
1F
100
AcDbEntity
  8
1-3ﾚｲﾔ
  6
Continuous
 62
     2
370
     9
100
AcDbCircle
 10
-642.7026387807484
 20
-19.93266337626679
 30
0.0
 40
6.226724064027941
  0
ARC
  5
343
330
1F
100
AcDbEntity
  8
1-0ﾚｲﾔ
  6
JWW_DASHED1
 62
     2
370
     9
100
AcDbCircle
 10
-642.7026387807484
 20
-19.93266337626679
 30
0.0
 40
7.499999613375278
100
AcDbArc
 50
270.0
 51
90.0
  0
ARC
  5
344
330
1F
100
AcDbEntity
  8
1-0ﾚｲﾔ
  6
Continuous
 62
     2
370
     9
100
AcDbCircle
 10
-655.5537971290382
 20
-29.43262048669766
 30
0.0
 40
1.999999904954756
100
AcDbArc
 50
90.0
 51
181.79736328125
  0
ARC
  5
345
330
1F
100
AcDbEntity
  8
1-0ﾚｲﾔ
  6
JWW_DASHED1
 62
     2
370
     9
100
AcDbCircle
 10
-655.5537971290382
 20
-10.43270626583606
 30
0.0
 40
1.999999904954756
100
AcDbArc
 50
178.2027130126953
 51
270.0
  0
ARC
  5
346
330
1F
100
AcDbEntity
  8
1-0ﾚｲﾔ
  6
JWW_DASHED1
 62
     2
370
     9
100
AcDbCircle
 10
-352.7027027027026
 20
-19.93266337626679
 30
0.0
 40
304.9999855660104
100
AcDbArc
 50
177.6511535644532
 51
178.2033081054688
  0
ARC
  5
347
330
1F
100
AcDbEntity
  8
1-0ﾚｲﾔ
  6
Continuous
 62
     2
370
     9
100
AcDbCircle
 10
-352.7027027027026
 20
-19.93266337626679
 30
0.0
 40
304.9999855660104
100
AcDbArc
 50
181.7966918945313
 51
268.2032928466797
  0
ARC
  5
348
330
1F
100
AcDbEntity
  8
1-1ﾚｲﾔ
  6
Continuous
 62
     3
370
     9
100
AcDbCircle
 10
534.0769587336359
 20
-68.11278472075585
 30
0.0
 40
3.999999809909511
100
AcDbArc
 50
180.0
 51
259.3808288574219
  0
ARC
  5
349
330
1F
100
AcDbEntity
  8
1-1ﾚｲﾔ
  6
Continuous
 62
     3
370
     9
100
AcDbCircle
 10
534.0769587336359
 20
-91.75219561602617
 30
0.0
 40
3.999999809909511
100
AcDbArc
 50
100.6191711425781
 51
180.0
  0
ARC
  5
34A
330
1F
100
AcDbEntity
  8
1-1ﾚｲﾔ
  6
Continuous
 62
     3
370
     9
100
AcDbCircle
 10
537.0769191432644
 20
-73.76239261111692
 30
0.0
 40
0.9999999524773778
100
AcDbArc
 50
0.0
 51
79.37686157226564
  0
ARC
  5
34B
330
1F
100
AcDbEntity
  8
1-1ﾚｲﾔ
  6
Continuous
 62
     3
370
     9
100
AcDbCircle
 10
537.0769191432644
 20
-86.1025877256651
 30
0.0
 40
0.9999999524773778
100
AcDbArc
 50
280.6231384277344
 51
0.0
  0
ARC
  5
34C
330
1F
100
AcDbEntity
  8
1-1ﾚｲﾔ
  6
Continuous
 62
     3
370
     9
100
AcDbCircle
 10
534.0769587336359
 20
51.88699258340378
 30
0.0
 40
3.999999809909511
100
AcDbArc
 50
180.0
 51
259.3808288574219
  0
ARC
  5
34D
330
1F
100
AcDbEntity
  8
1-1ﾚｲﾔ
  6
Continuous
 62
     3
370
     9
100
AcDbCircle
 10
534.0769587336359
 20
28.24758168813347
 30
0.0
 40
3.999999809909511
100
AcDbArc
 50
100.6191711425781
 51
180.0
  0
ARC
  5
34E
330
1F
100
AcDbEntity
  8
1-1ﾚｲﾔ
  6
Continuous
 62
     3
370
     9
100
AcDbCircle
 10
537.0769191432644
 20
46.23738469304271
 30
0.0
 40
0.9999999524773778
100
AcDbArc
 50
0.0
 51
79.37686157226564
  0
ARC
  5
34F
330
1F
100
AcDbEntity
  8
1-1ﾚｲﾔ
  6
Continuous
 62
     3
370
     9
100
AcDbCircle
 10
537.0769191432644
 20
33.89718957849453
 30
0.0
 40
0.9999999524773778
100
AcDbArc
 50
280.6231384277344
 51
0.0
  0
ARC
  5
350
330
1F
100
AcDbEntity
  8
1-0ﾚｲﾔ
  6
Continuous
 62
     2
370
     9
100
AcDbCircle
 10
537.0767954233531
 20
-16.33637299408775
 30
0.0
 40
5.000000064437454
100
AcDbArc
 50
0.0
 51
75.96376037597658
  0
ARC
  5
351
330
1F
100
AcDbEntity
  8
1-0ﾚｲﾔ
  6
Continuous
 62
     2
370
     9
100
AcDbCircle
 10
530.0769702808279
 20
-188.9602908572635
 30
0.0
 40
3.999999809909511
100
AcDbArc
 50
296.5668029785156
 51
0.0000000000000127
  0
ARC
  5
352
330
1F
100
AcDbEntity
  8
1-0ﾚｲﾔ
  6
Continuous
 62
     2
370
     9
100
AcDbCircle
 10
531.0769983240075
 20
-194.0503754486908
 30
0.0
 40
0.9999999524773778
100
AcDbArc
 50
116.5663146972656
 51
180.0
  0
ARC
  5
353
330
1F
100
AcDbEntity
  8
1-1ﾚｲﾔ
  6
Continuous
 62
     3
370
     9
100
AcDbCircle
 10
-352.7027027027026
 20
-19.93266337626679
 30
0.0
 40
165.9330213392103
100
AcDbArc
 50
341.9186859130859
 51
0.0
  0
ARC
  5
354
330
1F
100
AcDbEntity
  8
1-1ﾚｲﾔ
  6
Continuous
 62
     3
370
     9
100
AcDbCircle
 10
-352.7027027027026
 20
-19.93266337626679
 30
0.0
 40
165.9330213392103
100
AcDbArc
 50
294.3818511962891
 51
335.6181182861328
  0
ARC
  5
355
330
1F
100
AcDbEntity
  8
1-1ﾚｲﾔ
  6
Continuous
 62
     3
370
     9
100
AcDbCircle
 10
-352.7027027027026
 20
-19.93266337626679
 30
0.0
 40
165.9330213392103
100
AcDbArc
 50
180.0
 51
198.0813140869141
  0
ARC
  5
356
330
1F
100
AcDbEntity
  8
1-1ﾚｲﾔ
  6
Continuous
 62
     3
370
     9
100
AcDbCircle
 10
-352.7027027027026
 20
-19.93266337626679
 30
0.0
 40
165.9330213392103
100
AcDbArc
 50
204.3818817138672
 51
245.6181488037109
  0
ARC
  5
357
330
1F
100
AcDbEntity
  8
1-1ﾚｲﾔ
  6
Continuous
 62
     3
370
     9
100
AcDbCircle
 10
-352.7027027027026
 20
-19.93266337626679
 30
0.0
 40
165.9330213392103
100
AcDbArc
 50
251.9186553955078
 51
288.0813446044922
  0
TEXT
  5
358
330
1F
100
AcDbEntity
  8
F-4ﾚｲﾔ
  6
Continuous
 62
     2
370
     9
100
AcDbText
 10
-443.750051549963
 20
661.2658799619933
 30
0.0
 40
15.24
  1
適用荷重
 41
1.09375
  7
ＭＳ ゴシック
100
AcDbText
  0
TEXT
  5
359
330
1F
100
AcDbEntity
  8
F-4ﾚｲﾔ
  6
Continuous
 62
     2
370
     9
100
AcDbText
 10
-443.750051549963
 20
621.2657479940881
 30
0.0
 40
15.24
  1
破壊荷重
 41
1.09375
  7
ＭＳ ゴシック
100
AcDbText
  0
TEXT
  5
35A
330
1F
100
AcDbEntity
  8
F-4ﾚｲﾔ
  6
Continuous
 62
     2
370
     9
100
AcDbText
 10
-443.750051549963
 20
581.2658634660053
 30
0.0
 40
15.24
  1
接触圧子
 41
1.09375
  7
ＭＳ ゴシック
100
AcDbText
  0
TEXT
  5
35B
330
1F
100
AcDbEntity
  8
F-4ﾚｲﾔ
  6
Continuous
 62
     2
370
     9
100
AcDbText
 10
-443.750051549963
 20
541.2657314980999
 30
0.0
 40
15.24
  1
標準質量
 41
1.09375
  7
ＭＳ ゴシック
100
AcDbText
  0
TEXT
  5
35C
330
1F
100
AcDbEntity
  8
F-4ﾚｲﾔ
  6
Continuous
 62
     2
370
     9
100
AcDbText
 10
-947.0381845010295
 20
641.2658139780407
 30
0.0
 40
15.24
  1
備
 41
0.9999999999999998
  7
ＭＳ ゴシック
100
AcDbText
  0
TEXT
  5
35D
330
1F
100
AcDbEntity
  8
F-4ﾚｲﾔ
  6
Continuous
 62
     2
370
     9
100
AcDbText
 10
-947.0381845010295
 20
561.2657974820523
 30
0.0
 40
15.24
  1
考
 41
0.9999999999999998
  7
ＭＳ ゴシック
100
AcDbText
  0
TEXT
  5
35E
330
1F
100
AcDbEntity
  8
1-4ﾚｲﾔ
  6
Continuous
 62
     2
370
     9
100
AcDbText
 10
483.4518886256864
 20
9.062758261190886
 30
0.0
 40
15.24
  1
40
 41
1.0625
  7
ＭＳ ゴシック
100
AcDbText
  0
TEXT
  5
35F
330
1F
100
AcDbEntity
  8
F-4ﾚｲﾔ
  6
Continuous
 62
     2
370
     9
100
AcDbText
 10
452.499991752006
 20
-681.1863471407504
 30
0.0
 40
15.24
  1
１：５
 41
1.083333333333333
  7
ＭＳ ゴシック
100
AcDbText
  0
TEXT
  5
360
330
1F
100
AcDbEntity
  8
1-4ﾚｲﾔ
  6
Continuous
 62
     2
370
     9
100
AcDbText
 10
368.6595499234586
 20
227.0768469733161
 30
0.0
 40
15.24
  1
2
 50
90.0
 41
0.9999999999999998
  7
ＭＳ ゴシック
100
AcDbText
  0
TEXT
  5
361
330
1F
100
AcDbEntity
  8
1-4ﾚｲﾔ
  6
Continuous
 62
     2
370
     9
100
AcDbText
 10
368.4234923326649
 20
255.880821846627
 30
0.0
 40
15.24
  1
8
 50
90.0
 41
0.9999999999999998
  7
ＭＳ ゴシック
100
AcDbText
  0
TEXT
  5
362
330
1F
100
AcDbEntity
  8
1-4ﾚｲﾔ
  6
Continuous
 62
     2
370
     9
100
AcDbText
 10
368.6595499234586
 20
-276.941972680994
 30
0.0
 40
15.24
  1
2
 50
90.0
 41
0.9999999999999998
  7
ＭＳ ゴシック
100
AcDbText
  0
TEXT
  5
363
330
1F
100
AcDbEntity
  8
1-4ﾚｲﾔ
  6
Continuous
 62
     2
370
     9
100
AcDbText
 10
368.4234923326649
 20
-305.7459475543048
 30
0.0
 40
15.24
  1
8
 50
90.0
 41
0.9999999999999998
  7
ＭＳ ゴシック
100
AcDbText
  0
TEXT
  5
364
330
1F
100
AcDbEntity
  8
1-F
  6
Continuous
 62
     2
370
     9
100
AcDbText
 10
326.9507222603464
 20
-36.18253965635553
 30
0.0
 40
15.24
  1
542
 50
90.0
 41
1.083333333333333
  7
ＭＳ ゴシック
100
AcDbText
  0
TEXT
  5
365
330
1F
100
AcDbEntity
  8
1-F
  6
Continuous
 62
     2
370
     9
100
AcDbText
 10
368.0851183752112
 20
-36.18253965635553
 30
0.0
 40
15.24
  1
522
 50
90.0
 41
1.083333333333333
  7
ＭＳ ゴシック
100
AcDbText
  0
TEXT
  5
366
330
1F
100
AcDbEntity
  8
1-4ﾚｲﾔ
  6
Continuous
 62
     2
370
     9
100
AcDbText
 10
500.9519463616449
 20
-406.0763111671242
 30
0.0
 40
15.24
  1
75
 41
1.0625
  7
ＭＳ ゴシック
100
AcDbText
  0
TEXT
  5
367
330
1F
100
AcDbEntity
  8
1-4ﾚｲﾔ
  6
Continuous
 62
     2
370
     9
100
AcDbText
 10
628.6663462705869
 20
-36.18253965635553
 30
0.0
 40
15.24
  1
450
 50
90.0
 41
1.083333333333333
  7
ＭＳ ゴシック
100
AcDbText
  0
TEXT
  5
368
330
1F
100
AcDbEntity
  8
1-4ﾚｲﾔ
  6
Continuous
 62
     2
370
     9
100
AcDbText
 10
661.0987787030195
 20
-36.18253965635553
 30
0.0
 40
15.24
  1
610
 50
90.0
 41
1.083333333333333
  7
ＭＳ ゴシック
100
AcDbText
  0
TEXT
  5
369
330
1F
100
AcDbEntity
  8
1-F
  6
Continuous
 62
     2
370
     9
100
AcDbText
 10
-426.1504410367398
 20
183.8031047099346
 30
0.0
 40
15.24
  1
72
 50
90.0
 41
1.0625
  7
ＭＳ ゴシック
100
AcDbText
  0
TEXT
  5
36A
330
1F
100
AcDbEntity
  8
1-F
  6
Continuous
 62
     2
370
     9
100
AcDbText
 10
-363.3277027027027
 20
117.7529273120777
 30
0.0
 40
15.24
  1
42
 41
1.0625
  7
ＭＳ ゴシック
100
AcDbText
  0
TEXT
  5
36B
330
1F
100
AcDbEntity
  8
1-F
  6
Continuous
 62
     2
370
     9
100
AcDbText
 10
-368.9527027027027
 20
-440.2107584195523
 30
0.0
 40
15.24
  1
580
 41
1.083333333333333
  7
ＭＳ ゴシック
100
AcDbText
  0
TEXT
  5
36C
330
1F
100
AcDbEntity
  8
1-E
  6
Continuous
 62
     4
370
     9
100
AcDbText
 10
115.5953722400931
 20
438.4137593697479
 30
0.0
 40
13.335
  1
枠：ＦＣ２００，樹脂系塗装
 50
0.0000607162925714
 41
1.026373626373626
  7
ＭＳ ゴシック
100
AcDbText
  0
TEXT
  5
36D
330
1F
100
AcDbEntity
  8
1-E
  6
Continuous
 62
     4
370
     9
100
AcDbText
 10
620.2555557466649
 20
436.6133872202417
 30
0.0
 40
13.335
  1
アンカ－：ＳＳ４００
 50
0.0000789819258853
 41
1.025714285714286
  7
ＭＳ ゴシック
100
AcDbText
  0
TEXT
  5
36E
330
1F
100
AcDbEntity
  8
1-E
  6
Continuous
 62
     4
370
     9
100
AcDbText
 10
94.49481531091641
 20
-94.37020257073476
 30
0.0
 40
13.335
  1
把手ボックス：ＦＣ２００
 41
1.026190476190476
  7
ＭＳ ゴシック
100
AcDbText
  0
TEXT
  5
36F
330
1F
100
AcDbEntity
  8
1-E
  6
Continuous
 62
     4
370
     9
100
AcDbText
 10
155.4416833826014
 20
-119.4019573479729
 30
0.0
 40
13.335
  1
樹脂系塗装
 41
1.022857142857143
  7
ＭＳ ゴシック
100
AcDbText
  0
TEXT
  5
370
330
1F
100
AcDbEntity
  8
F-4ﾚｲﾔ
  6
Continuous
 62
     2
370
     9
100
AcDbText
 10
-265.000142277898
 20
661.2658799619933
 30
0.0
 40
15.24
  1
Ｔ－２０
 41
1.09375
  7
ＭＳ ゴシック
100
AcDbText
  0
TEXT
  5
371
330
1F
100
AcDbEntity
  8
F-4ﾚｲﾔ
  6
Continuous
 62
     3
370
     9
100
AcDbText
 10
-347.0000804179423
 20
621.2657479940881
 30
0.0
 40
15.24
  1
２００ｋＮ（２０，４０９ｋｇｆ）以上
 41
0.6986111111111111
  7
ＭＳ ゴシック
100
AcDbText
  0
TEXT
  5
372
330
1F
100
AcDbEntity
  8
F-4ﾚｲﾔ
  6
Continuous
 62
     2
370
     9
100
AcDbText
 10
-287.5000804179423
 20
581.2658634660053
 30
0.0
 40
15.24
  1
φ３３０ｍｍ
 41
1.104166666666667
  7
ＭＳ ゴシック
100
AcDbText
  0
TEXT
  5
373
330
1F
100
AcDbEntity
  8
1-4ﾚｲﾔ
  6
Continuous
 62
     2
370
     9
100
AcDbText
 10
492.0801276129646
 20
35.10283031566733
 30
0.0
 40
15.24
  1
8
 41
0.9999999999999998
  7
ＭＳ ゴシック
100
AcDbText
  0
TEXT
  5
374
330
1F
100
AcDbEntity
  8
1-4ﾚｲﾔ
  6
Continuous
 62
     2
370
     9
100
AcDbText
 10
554.0960940799199
 20
9.062758261190886
 30
0.0
 40
15.24
  1
8
 41
0.9999999999999998
  7
ＭＳ ゴシック
100
AcDbText
  0
TEXT
  5
375
330
1F
100
AcDbEntity
  8
F-4ﾚｲﾔ
  6
Continuous
 62
     2
370
     9
100
AcDbText
 10
-287.5002041378536
 20
541.2657314980999
 30
0.0
 40
15.24
  1
３７．０ｋｇ
 41
1.104166666666667
  7
ＭＳ ゴシック
100
AcDbText
  0
TEXT
  5
376
330
1F
100
AcDbEntity
  8
1-E
  6
Continuous
 62
     4
370
     9
100
AcDbText
 10
88.07401167867559
 20
383.4765513486801
 30
0.0
 40
13.335
  1
蓋：ＦＣＤ５００，樹脂系塗装
 50
359.9999436292089
 41
1.026530612244898
  7
ＭＳ ゴシック
100
AcDbText
  0
TEXT
  5
377
330
1F
100
AcDbEntity
  8
1-E
  6
Continuous
 62
     4
370
     9
100
AcDbText
 10
644.8802605706293
 20
408.5843938714105
 30
0.0
 40
13.335
  1
電気亜鉛めっき
 41
1.024489795918367
  7
ＭＳ ゴシック
100
AcDbText
  0
LWPOLYLINE
  5
378
330
1F
100
AcDbEntity
  8
1-4ﾚｲﾔ
  6
Continuous
 62
     7
370
     9
100
AcDbPolyline
 90
        4
 70
     1
 43
1.0
 10
522.5769933752111
 20
1.242741765202737
 42
0.4142135623731
 10
522.0769933752113
 20
1.742741765202737
 42
0.4142135623731
 10
521.5769933752113
 20
1.242741765202737
 42
0.4142135623731
 10
522.0769933752113
 20
0.7427417652027373
 42
0.4142135623731
  0
LWPOLYLINE
  5
379
330
1F
100
AcDbEntity
  8
1-4ﾚｲﾔ
  6
Continuous
 62
     7
370
     9
100
AcDbPolyline
 90
        4
 70
     1
 43
1.0
 10
376.4051348711995
 20
243.0676599451014
 42
0.4142135623731
 10
375.9051348711995
 20
243.5676599451014
 42
0.4142135623731
 10
375.4051348711995
 20
243.0676599451014
 42
0.4142135623731
 10
375.9051348711995
 20
242.5676599451014
 42
0.4142135623731
  0
LWPOLYLINE
  5
37A
330
1F
100
AcDbEntity
  8
1-4ﾚｲﾔ
  6
Continuous
 62
     7
370
     9
100
AcDbPolyline
 90
        4
 70
     1
 43
1.0
 10
376.4051348711995
 20
-282.9327392578125
 42
0.4142135623731
 10
375.9051348711995
 20
-282.4327392578125
 42
0.4142135623731
 10
375.4051348711995
 20
-282.9327392578125
 42
0.4142135623731
 10
375.9051348711995
 20
-283.4327392578125
 42
0.4142135623731
  0
TEXT
  5
37B
330
1F
100
AcDbEntity
  8
F-4ﾚｲﾔ
  6
Continuous
 62
     2
370
     9
100
AcDbText
 10
-172.7305766764343
 20
-687.3803690119929
 30
0.0
 40
15.24
  1
カラー舗装用鉄蓋　ＭＲＯＲ－Ｓ－４５５５
 41
0.8987499999999998
  7
ＭＳ ゴシック
100
AcDbText
  0
TEXT
  5
37C
330
1F
100
AcDbEntity
  8
F-4ﾚｲﾔ
  6
Continuous
 62
     2
370
     9
100
AcDbText
 10
-424.5051717235974
 20
-662.2918987890829
 30
0.0
 40
15.24
  1
タイル用　鋳鉄目地　一般型　充填深さ４０ｍｍ
 41
0.8988636363636364
  7
ＭＳ ゴシック
100
AcDbText
  0
TEXT
  5
37D
330
1F
100
AcDbEntity
  8
1-E
  6
Continuous
 62
     4
370
     9
100
AcDbText
 10
177.9222024235018
 20
-377.2632636055865
 30
0.0
 40
13.335
  1
パッキン：クロロプレン
 41
1.025974025974026
  7
ＭＳ ゴシック
100
AcDbText
  0
TEXT
  5
37E
330
1F
100
AcDbEntity
  8
F-4ﾚｲﾔ
  6
Continuous
 62
     4
370
     0
100
AcDbText
 10
-903.7449629185716
 20
538.0509526906372
 30
0.0
 40
15.24
  1
公道を除く敷地周辺道路、敷地内道路、屋内に御使用下さい。
 41
0.7499999999999999
  7
ＭＳ ゴシック
100
AcDbText
  0
TEXT
  5
37F
330
1F
100
AcDbEntity
  8
F-4ﾚｲﾔ
  6
Continuous
 62
     2
370
     9
100
AcDbText
 10
-895.0001113479202
 20
661.2658799619933
 30
0.0
 40
15.24
  1
一般型・鋳鉄目地
 41
1.109375
  7
ＭＳ ゴシック
100
AcDbText
  0
TEXT
  5
380
330
1F
100
AcDbEntity
  8
1-E
  6
Continuous
 62
     4
370
     9
100
AcDbText
 10
179.3851037927577
 20
-351.2176872624578
 30
0.0
 40
13.335
  1
キャップ：ＳＣＳ１３
 41
1.025714285714286
  7
ＭＳ ゴシック
100
AcDbText
  0
LINE
  5
381
330
1F
100
AcDbEntity
  8
F-0ﾚｲﾔ
  6
Continuous
 62
     7
370
     9
100
AcDbLine
 10
-85.0000329919763
 20
688.4459789379224
 30
0.0
 11
-960.0000742319468
 21
688.4459789379224
 31
0.0
  0
LINE
  5
382
330
1F
100
AcDbEntity
  8
F-0ﾚｲﾔ
  6
Continuous
 62
     7
370
     9
100
AcDbLine
 10
-960.0000742319468
 20
528.4456985061234
 30
0.0
 11
-960.0000742319468
 21
688.4459789379224
 31
0.0
  0
ENDSEC
  0
SECTION
  2
OBJECTS
  0
DICTIONARY
  5
C
330
0
100
AcDbDictionary
281
     1
  3
ACAD_DETAILVIEWSTYLE
350
3C8
  3
ACAD_GROUP
350
D
  3
ACAD_LAYOUT
350
1A
  3
ACAD_MATERIAL
350
43
  3
ACAD_MLEADERSTYLE
350
6B
  3
ACAD_MLINESTYLE
350
17
  3
ACAD_PLOTSETTINGS
350
19
  3
ACAD_PLOTSTYLENAME
350
E
  3
ACAD_SCALELIST
350
47
  3
ACAD_SECTIONVIEWSTYLE
350
3C9
  3
ACAD_TABLESTYLE
350
69
  3
ACAD_VISUALSTYLE
350
2A
  3
ACDB_RECOMPOSE_DATA
350
3C5
  3
AcDbVariableDictionary
350
385
  0
DICTIONARY
  5
383
330
8
100
AcDbDictionary
280
     1
281
     1
  3
ACAD_XREC_ROUNDTRIP
360
384
  0
DICTIONARY
  5
3C8
102
{ACAD_REACTORS
330
C
102
}
330
C
100
AcDbDictionary
281
     1
  0
DICTIONARY
  5
D
102
{ACAD_REACTORS
330
C
102
}
330
C
100
AcDbDictionary
281
     1
  0
DICTIONARY
  5
1A
102
{ACAD_REACTORS
330
C
102
}
330
C
100
AcDbDictionary
281
     1
  3
Layout1
350
1E
  3
Layout2
350
26
  3
Model
350
22
  0
DICTIONARY
  5
43
102
{ACAD_REACTORS
330
C
102
}
330
C
100
AcDbDictionary
281
     1
  3
ByBlock
350
45
  3
ByLayer
350
44
  3
Global
350
46
  0
DICTIONARY
  5
6B
102
{ACAD_REACTORS
330
C
102
}
330
C
100
AcDbDictionary
281
     1
  3
Standard
350
6C
  0
DICTIONARY
  5
17
102
{ACAD_REACTORS
330
C
102
}
330
C
100
AcDbDictionary
281
     1
  3
Standard
350
18
  0
DICTIONARY
  5
19
102
{ACAD_REACTORS
330
C
102
}
330
C
100
AcDbDictionary
281
     1
  0
ACDBDICTIONARYWDFLT
  5
E
102
{ACAD_REACTORS
330
C
102
}
330
C
100
AcDbDictionary
281
     1
  3
Normal
350
F
100
AcDbDictionaryWithDefault
340
F
  0
DICTIONARY
  5
47
102
{ACAD_REACTORS
330
C
102
}
330
C
100
AcDbDictionary
281
     1
  3
A0
350
48
  3
A1
350
49
  3
A2
350
4A
  3
A3
350
4B
  3
A4
350
4C
  3
A5
350
4D
  3
A6
350
4E
  3
A7
350
4F
  3
A8
350
50
  3
A9
350
51
  3
B0
350
52
  3
B1
350
53
  3
B2
350
54
  3
B3
350
55
  3
B4
350
56
  3
B5
350
57
  3
B6
350
58
  3
B7
350
59
  3
B8
350
5A
  3
B9
350
5B
  3
C0
350
5C
  3
C1
350
5D
  3
C2
350
5E
  3
C3
350
5F
  3
C4
350
60
  3
C5
350
61
  3
C6
350
62
  3
C7
350
63
  3
C8
350
64
  3
C9
350
65
  3
D0
350
66
  3
D1
350
67
  3
D2
350
68
  0
DICTIONARY
  5
3C9
102
{ACAD_REACTORS
330
C
102
}
330
C
100
AcDbDictionary
281
     1
  0
DICTIONARY
  5
69
102
{ACAD_REACTORS
330
C
102
}
330
C
100
AcDbDictionary
281
     1
  3
Standard
350
6A
  0
DICTIONARY
  5
2A
102
{ACAD_REACTORS
330
C
102
}
330
C
100
AcDbDictionary
281
     1
  3
2dWireframe
350
2F
  3
Basic
350
32
  3
Brighten
350
36
  3
ColorChange
350
3A
  3
Conceptual
350
34
  3
Dim
350
35
  3
EdgeColorOff
350
3D
  3
Facepattern
350
39
  3
Flat
350
2B
  3
FlatWithEdges
350
2C
  3
Gouraud
350
2D
  3
GouraudWithEdges
350
2E
  3
Hidden
350
31
  3
JitterOff
350
3B
  3
Linepattern
350
38
  3
OverhangOff
350
3C
  3
Realistic
350
33
  3
Shaded
350
42
  3
Shaded with edges
350
41
  3
Shades of Gray
350
3E
  3
Sketchy
350
3F
  3
Thicken
350
37
  3
Wireframe
350
30
  3
X-Ray
350
40
  0
XRECORD
  5
3C5
102
{ACAD_REACTORS
330
C
102
}
330
C
100
AcDbXrecord
280
     1
 90
        1
330
6A
  0
DICTIONARY
  5
385
102
{ACAD_REACTORS
330
C
102
}
330
C
100
AcDbDictionary
281
     1
  3
CANNOSCALE
350
386
  3
CENTEREXE
350
3CA
  3
CENTERLTYPEFILE
350
3CB
  3
CMLEADERSTYLE
350
3C7
  3
CTABLESTYLE
350
3C6
  3
MSLTSCALE
350
387
  3
XCLIPFRAME
350
388
  0
XRECORD
  5
384
102
{ACAD_REACTORS
330
383
102
}
330
383
100
AcDbXrecord
280
     1
102
VTR_0.000_0.000_1.000_1.000_VISUALSTYLE
340
2F
102
VTR_0.000_0.000_1.000_1.000_GRIDDISPLAY
 70
     3
102
VTR_0.000_0.000_1.000_1.000_GRIDMAJOR
 70
     5
102
VTR_0.000_0.000_1.000_1.000_DEFAULTLIGHTING
280
     1
102
VTR_0.000_0.000_1.000_1.000_DEFAULTLIGHTINGTYPE
 70
     1
102
VTR_0.000_0.000_1.000_1.000_BRIGHTNESS
141
0.0
102
VTR_0.000_0.000_1.000_1.000_CONTRAST
142
0.0
  0
LAYOUT
  5
1E
102
{ACAD_REACTORS
330
1A
102
}
330
1A
100
AcDbPlotSettings
  1

  2
none_device
  4

  6

 40
0.0
 41
0.0
 42
0.0
 43
0.0
 44
0.0
 45
0.0
 46
0.0
 47
0.0
 48
0.0
 49
0.0
140
0.0
141
0.0
142
1.0
143
1.0
 70
   688
 72
     1
 73
     0
 74
     5
  7

 75
    16
 76
     0
 77
     5
 78
   300
147
1.0
148
0.0
149
0.0
100
AcDbLayout
  1
Layout1
 70
     1
 71
     1
 10
0.0
 20
0.0
 11
420.0
 21
297.0
 12
0.0
 22
0.0
 32
0.0
 14
1.000000000000000E+20
 24
1.000000000000000E+20
 34
1.000000000000000E+20
 15
-1.000000000000000E+20
 25
-1.000000000000000E+20
 35
-1.000000000000000E+20
146
0.0
 13
0.0
 23
0.0
 33
0.0
 16
1.0
 26
0.0
 36
0.0
 17
0.0
 27
1.0
 37
0.0
 76
     0
330
1B
  0
LAYOUT
  5
26
102
{ACAD_REACTORS
330
1A
102
}
330
1A
100
AcDbPlotSettings
  1

  2
none_device
  4

  6

 40
0.0
 41
0.0
 42
0.0
 43
0.0
 44
0.0
 45
0.0
 46
0.0
 47
0.0
 48
0.0
 49
0.0
140
0.0
141
0.0
142
1.0
143
1.0
 70
   688
 72
     1
 73
     0
 74
     5
  7

 75
    16
 76
     0
 77
     5
 78
   300
147
1.0
148
0.0
149
0.0
100
AcDbLayout
  1
Layout2
 70
     1
 71
     2
 10
0.0
 20
0.0
 11
0.0
 21
0.0
 12
0.0
 22
0.0
 32
0.0
 14
0.0
 24
0.0
 34
0.0
 15
0.0
 25
0.0
 35
0.0
146
0.0
 13
0.0
 23
0.0
 33
0.0
 16
1.0
 26
0.0
 36
0.0
 17
0.0
 27
1.0
 37
0.0
 76
     0
330
23
  0
LAYOUT
  5
22
102
{ACAD_REACTORS
330
1A
102
}
330
1A
100
AcDbPlotSettings
  1

  2
none_device
  4
Letter_(8.50_x_11.00_Inches)
  6

 40
6.35
 41
6.35
 42
6.35000508
 43
6.35000508
 44
215.9
 45
279.4
 46
0.0
 47
0.0
 48
0.0
 49
0.0
140
0.0
141
0.0
142
1.0
143
1.0
 70
  1712
 72
     1
 73
     0
 74
     0
  7

 75
     0
 76
     0
 77
     5
 78
   300
147
1.0
148
0.0
149
0.0
100
AcDbLayout
  1
Model
 70
     1
 71
     0
 10
-1050.0
 20
-742.5
 11
1050.0
 21
742.5
 12
0.0
 22
0.0
 32
0.0
 14
-1050.0
 24
-742.5
 34
0.0
 15
1050.0
 25
742.5
 35
0.0
146
0.0
 13
0.0
 23
0.0
 33
0.0
 16
1.0
 26
0.0
 36
0.0
 17
0.0
 27
1.0
 37
0.0
 76
     0
330
1F
331
29
  0
MATERIAL
  5
45
102
{ACAD_REACTORS
330
43
102
}
102
{ACAD_XDICTIONARY
360
3BB
102
}
330
43
100
AcDbMaterial
  1
ByBlock
  0
MATERIAL
  5
44
102
{ACAD_REACTORS
330
43
102
}
102
{ACAD_XDICTIONARY
360
3B9
102
}
330
43
100
AcDbMaterial
  1
ByLayer
  0
MATERIAL
  5
46
102
{ACAD_REACTORS
330
43
102
}
102
{ACAD_XDICTIONARY
360
3BD
102
}
330
43
100
AcDbMaterial
  1
Global
  0
MLEADERSTYLE
  5
6C
102
{ACAD_REACTORS
330
6B
102
}
102
{ACAD_XDICTIONARY
360
3C3
102
}
330
6B
100
AcDbMLeaderStyle
170
     2
171
     1
172
     0
 90
        2
 40
0.0
 41
0.0
173
     1
 91
-1056964608
340
14
 92
       -2
290
     1
 42
2.0
291
     1
 43
8.0
  3
Standard
341
0
 44
4.0
300

342
11
174
     1
178
     6
175
     1
176
     0
 93
-1056964608
 45
4.0
292
     0
297
     0
 46
4.0
343
0
 94
-1056964608
 47
1.0
 49
1.0
140
1.0
293
     1
141
0.0
294
     1
177
     0
142
1.0
295
     0
296
     0
143
3.75
1001
ACAD_MLEADERVER
1070
     2
  0
MLINESTYLE
  5
18
102
{ACAD_REACTORS
330
17
102
}
330
17
100
AcDbMlineStyle
  2
Standard
 70
     0
  3

 62
   256
 51
90.0
 52
90.0
 71
     2
 49
0.5
 62
   256
  6
BYLAYER
 49
-0.5
 62
   256
  6
BYLAYER
  0
ACDBPLACEHOLDER
  5
F
102
{ACAD_REACTORS
330
E
102
}
330
E
  0
SCALE
  5
48
102
{ACAD_REACTORS
330
47
102
}
330
47
100
AcDbScale
 70
     0
300
1:1
140
1.0
141
1.0
290
     1
  0
SCALE
  5
49
102
{ACAD_REACTORS
330
47
102
}
330
47
100
AcDbScale
 70
     0
300
1:2
140
1.0
141
2.0
290
     0
  0
SCALE
  5
4A
102
{ACAD_REACTORS
330
47
102
}
330
47
100
AcDbScale
 70
     0
300
1:4
140
1.0
141
4.0
290
     0
  0
SCALE
  5
4B
102
{ACAD_REACTORS
330
47
102
}
330
47
100
AcDbScale
 70
     0
300
1:5
140
1.0
141
5.0
290
     0
  0
SCALE
  5
4C
102
{ACAD_REACTORS
330
47
102
}
330
47
100
AcDbScale
 70
     0
300
1:8
140
1.0
141
8.0
290
     0
  0
SCALE
  5
4D
102
{ACAD_REACTORS
330
47
102
}
330
47
100
AcDbScale
 70
     0
300
1:10
140
1.0
141
10.0
290
     0
  0
SCALE
  5
4E
102
{ACAD_REACTORS
330
47
102
}
330
47
100
AcDbScale
 70
     0
300
1:16
140
1.0
141
16.0
290
     0
  0
SCALE
  5
4F
102
{ACAD_REACTORS
330
47
102
}
330
47
100
AcDbScale
 70
     0
300
1:20
140
1.0
141
20.0
290
     0
  0
SCALE
  5
50
102
{ACAD_REACTORS
330
47
102
}
330
47
100
AcDbScale
 70
     0
300
1:30
140
1.0
141
30.0
290
     0
  0
SCALE
  5
51
102
{ACAD_REACTORS
330
47
102
}
330
47
100
AcDbScale
 70
     0
300
1:40
140
1.0
141
40.0
290
     0
  0
SCALE
  5
52
102
{ACAD_REACTORS
330
47
102
}
330
47
100
AcDbScale
 70
     0
300
1:50
140
1.0
141
50.0
290
     0
  0
SCALE
  5
53
102
{ACAD_REACTORS
330
47
102
}
330
47
100
AcDbScale
 70
     0
300
1:100
140
1.0
141
100.0
290
     0
  0
SCALE
  5
54
102
{ACAD_REACTORS
330
47
102
}
330
47
100
AcDbScale
 70
     0
300
2:1
140
2.0
141
1.0
290
     0
  0
SCALE
  5
55
102
{ACAD_REACTORS
330
47
102
}
330
47
100
AcDbScale
 70
     0
300
4:1
140
4.0
141
1.0
290
     0
  0
SCALE
  5
56
102
{ACAD_REACTORS
330
47
102
}
330
47
100
AcDbScale
 70
     0
300
8:1
140
8.0
141
1.0
290
     0
  0
SCALE
  5
57
102
{ACAD_REACTORS
330
47
102
}
330
47
100
AcDbScale
 70
     0
300
10:1
140
10.0
141
1.0
290
     0
  0
SCALE
  5
58
102
{ACAD_REACTORS
330
47
102
}
330
47
100
AcDbScale
 70
     0
300
100:1
140
100.0
141
1.0
290
     0
  0
SCALE
  5
59
102
{ACAD_REACTORS
330
47
102
}
330
47
100
AcDbScale
 70
     0
300
1/128" = 1'-0"
140
0.0078125
141
12.0
290
     0
  0
SCALE
  5
5A
102
{ACAD_REACTORS
330
47
102
}
330
47
100
AcDbScale
 70
     0
300
1/64" = 1'-0"
140
0.015625
141
12.0
290
     0
  0
SCALE
  5
5B
102
{ACAD_REACTORS
330
47
102
}
330
47
100
AcDbScale
 70
     0
300
1/32" = 1'-0"
140
0.03125
141
12.0
290
     0
  0
SCALE
  5
5C
102
{ACAD_REACTORS
330
47
102
}
330
47
100
AcDbScale
 70
     0
300
1/16" = 1'-0"
140
0.0625
141
12.0
290
     0
  0
SCALE
  5
5D
102
{ACAD_REACTORS
330
47
102
}
330
47
100
AcDbScale
 70
     0
300
3/32" = 1'-0"
140
0.09375
141
12.0
290
     0
  0
SCALE
  5
5E
102
{ACAD_REACTORS
330
47
102
}
330
47
100
AcDbScale
 70
     0
300
1/8" = 1'-0"
140
0.125
141
12.0
290
     0
  0
SCALE
  5
5F
102
{ACAD_REACTORS
330
47
102
}
330
47
100
AcDbScale
 70
     0
300
3/16" = 1'-0"
140
0.1875
141
12.0
290
     0
  0
SCALE
  5
60
102
{ACAD_REACTORS
330
47
102
}
330
47
100
AcDbScale
 70
     0
300
1/4" = 1'-0"
140
0.25
141
12.0
290
     0
  0
SCALE
  5
61
102
{ACAD_REACTORS
330
47
102
}
330
47
100
AcDbScale
 70
     0
300
3/8" = 1'-0"
140
0.375
141
12.0
290
     0
  0
SCALE
  5
62
102
{ACAD_REACTORS
330
47
102
}
330
47
100
AcDbScale
 70
     0
300
1/2" = 1'-0"
140
0.5
141
12.0
290
     0
  0
SCALE
  5
63
102
{ACAD_REACTORS
330
47
102
}
330
47
100
AcDbScale
 70
     0
300
3/4" = 1'-0"
140
0.75
141
12.0
290
     0
  0
SCALE
  5
64
102
{ACAD_REACTORS
330
47
102
}
330
47
100
AcDbScale
 70
     0
300
1" = 1'-0"
140
1.0
141
12.0
290
     0
  0
SCALE
  5
65
102
{ACAD_REACTORS
330
47
102
}
330
47
100
AcDbScale
 70
     0
300
1-1/2" = 1'-0"
140
1.5
141
12.0
290
     0
  0
SCALE
  5
66
102
{ACAD_REACTORS
330
47
102
}
330
47
100
AcDbScale
 70
     0
300
3" = 1'-0"
140
3.0
141
12.0
290
     0
  0
SCALE
  5
67
102
{ACAD_REACTORS
330
47
102
}
330
47
100
AcDbScale
 70
     0
300
6" = 1'-0"
140
6.0
141
12.0
290
     0
  0
SCALE
  5
68
102
{ACAD_REACTORS
330
47
102
}
330
47
100
AcDbScale
 70
     0
300
1'-0" = 1'-0"
140
12.0
141
12.0
290
     0
  0
TABLESTYLE
  5
6A
102
{ACAD_REACTORS
330
69
102
}
102
{ACAD_XDICTIONARY
360
3BF
102
}
330
69
100
AcDbTableStyle
  3
Standard
 70
     0
 71
     0
 40
0.06
 41
0.06
280
     0
281
     0
  7
Standard
140
4.5
170
     2
 62
     0
 63
   257
283
     0
274
    -2
284
     1
 64
     0
275
    -2
285
     1
 65
     0
276
    -2
286
     1
 66
     0
277
    -2
287
     1
 67
     0
278
    -2
288
     1
 68
     0
279
    -2
289
     1
 69
     0
  7
Standard
140
6.0
170
     5
 62
     0
 63
   257
283
     0
274
    -2
284
     1
 64
     0
275
    -2
285
     1
 65
     0
276
    -2
286
     1
 66
     0
277
    -2
287
     1
 67
     0
278
    -2
288
     1
 68
     0
279
    -2
289
     1
 69
     0
  7
Standard
140
4.5
170
     5
 62
     0
 63
   257
283
     0
274
    -2
284
     1
 64
     0
275
    -2
285
     1
 65
     0
276
    -2
286
     1
 66
     0
277
    -2
287
     1
 67
     0
278
    -2
288
     1
 68
     0
279
    -2
289
     1
 69
     0
  0
VISUALSTYLE
  5
2F
102
{ACAD_REACTORS
330
2A
102
}
102
{ACAD_XDICTIONARY
360
391
102
}
330
2A
100
AcDbVisualStyle
  2
2dWireframe
 70
     4
 71
     0
 72
     2
 73
     0
 90
        0
 40
0.6
 41
30.0
 62
     5
 63
     7
421
 16777215
 74
     1
 91
        4
 64
     7
 65
   257
 75
     1
175
     1
 42
1.0
 92
        0
 66
   257
 43
1.0
 76
     1
 77
     6
 78
     2
 67
     7
 79
     5
170
     0
171
     0
290
     0
174
     0
 93
        1
 44
0.0
173
     0
291
     0
 45
0.0
1001
ACAD
1000
AcDbSavedByObjectVersion
1070
     0
  0
VISUALSTYLE
  5
32
102
{ACAD_REACTORS
330
2A
102
}
102
{ACAD_XDICTIONARY
360
397
102
}
330
2A
100
AcDbVisualStyle
  2
Basic
 70
     7
 71
     1
 72
     0
 73
     1
 90
        0
 40
0.6
 41
30.0
 62
     5
 63
     7
421
 16777215
 74
     0
 91
        4
 64
     7
 65
   257
 75
     1
175
     1
 42
1.0
 92
        8
 66
     7
 43
1.0
 76
     1
 77
     6
 78
     2
 67
     7
 79
     5
170
     0
171
     0
290
     0
174
     0
 93
        1
 44
0.0
173
     0
291
     1
 45
0.0
1001
ACAD
1000
AcDbSavedByObjectVersion
1070
     0
  0
VISUALSTYLE
  5
36
102
{ACAD_REACTORS
330
2A
102
}
102
{ACAD_XDICTIONARY
360
39F
102
}
330
2A
100
AcDbVisualStyle
  2
Brighten
 70
    12
 71
     2
 72
     2
 73
     0
 90
        0
 40
0.6
 41
30.0
 62
     5
 63
     7
421
 16777215
 74
     1
 91
        4
 64
     7
 65
   257
 75
     1
175
     1
 42
1.0
 92
        8
 66
     7
 43
1.0
 76
     1
 77
     6
 78
     2
 67
     7
 79
     5
170
     0
171
     0
290
     0
174
     0
 93
        1
 44
50.0
173
     0
291
     1
 45
0.0
1001
ACAD
1000
AcDbSavedByObjectVersion
1070
     0
  0
VISUALSTYLE
  5
3A
102
{ACAD_REACTORS
330
2A
102
}
102
{ACAD_XDICTIONARY
360
3A7
102
}
330
2A
100
AcDbVisualStyle
  2
ColorChange
 70
    16
 71
     2
 72
     2
 73
     3
 90
        0
 40
0.6
 41
30.0
 62
     5
 63
     8
421
  8421504
 74
     1
 91
        4
 64
     7
 65
   257
 75
     1
175
     1
 42
1.0
 92
        8
 66
     8
424
  8421504
 43
1.0
 76
     1
 77
     6
 78
     2
 67
     7
 79
     5
170
     0
171
     0
290
     0
174
     0
 93
        1
 44
0.0
173
     0
291
     1
 45
0.0
1001
ACAD
1000
AcDbSavedByObjectVersion
1070
     0
  0
VISUALSTYLE
  5
34
102
{ACAD_REACTORS
330
2A
102
}
102
{ACAD_XDICTIONARY
360
39B
102
}
330
2A
100
AcDbVisualStyle
  2
Conceptual
 70
     9
 71
     3
 72
     2
 73
     0
 90
        0
 40
0.6
 41
30.0
 62
     5
 63
     7
421
 16777215
 74
     2
 91
        2
 64
     7
 65
   257
 75
     1
175
     1
 42
179.0
 92
        8
 66
     7
 43
1.0
 76
     1
 77
     6
 78
     2
 67
     7
 79
     3
170
     0
171
     0
290
     0
174
     0
 93
        1
 44
0.0
173
     0
291
     0
 45
0.0
1001
ACAD
1000
AcDbSavedByObjectVersion
1070
     0
  0
VISUALSTYLE
  5
35
102
{ACAD_REACTORS
330
2A
102
}
102
{ACAD_XDICTIONARY
360
39D
102
}
330
2A
100
AcDbVisualStyle
  2
Dim
 70
    11
 71
     2
 72
     2
 73
     0
 90
        0
 40
0.6
 41
30.0
 62
     5
 63
     7
421
 16777215
 74
     1
 91
        4
 64
     7
 65
   257
 75
     1
175
     1
 42
1.0
 92
        8
 66
     7
 43
1.0
 76
     1
 77
     6
 78
     2
 67
     7
 79
     5
170
     0
171
     0
290
     0
174
     0
 93
        1
 44
-50.0
173
     0
291
     1
 45
0.0
1001
ACAD
1000
AcDbSavedByObjectVersion
1070
     0
  0
VISUALSTYLE
  5
3D
102
{ACAD_REACTORS
330
2A
102
}
102
{ACAD_XDICTIONARY
360
3AD
102
}
330
2A
100
AcDbVisualStyle
  2
EdgeColorOff
 70
    22
 71
     2
 72
     2
 73
     0
 90
        0
 40
0.6
 41
30.0
 62
     5
 63
     7
421
 16777215
 74
     1
 91
        4
 64
     7
 65
   257
 75
     1
175
     1
 42
1.0
 92
        8
 66
     7
 43
1.0
 76
     1
 77
     6
 78
     2
 67
     7
 79
     5
170
     0
171
     0
290
     0
174
     0
 93
        1
 44
0.0
173
     0
291
     1
 45
0.0
1001
ACAD
1000
AcDbSavedByObjectVersion
1070
     0
  0
VISUALSTYLE
  5
39
102
{ACAD_REACTORS
330
2A
102
}
102
{ACAD_XDICTIONARY
360
3A5
102
}
330
2A
100
AcDbVisualStyle
  2
Facepattern
 70
    15
 71
     2
 72
     2
 73
     0
 90
        0
 40
0.6
 41
30.0
 62
     5
 63
     7
421
 16777215
 74
     1
 91
        4
 64
     7
 65
   257
 75
     1
175
     1
 42
1.0
 92
        8
 66
     7
 43
1.0
 76
     1
 77
     6
 78
     2
 67
     7
 79
     5
170
     0
171
     0
290
     0
174
     0
 93
        1
 44
0.0
173
     0
291
     1
 45
0.0
1001
ACAD
1000
AcDbSavedByObjectVersion
1070
     0
  0
VISUALSTYLE
  5
2B
102
{ACAD_REACTORS
330
2A
102
}
102
{ACAD_XDICTIONARY
360
389
102
}
330
2A
100
AcDbVisualStyle
  2
Flat
 70
     0
 71
     2
 72
     1
 73
     1
 90
        2
 40
0.6
 41
30.0
 62
     5
 63
     7
421
 16777215
 74
     0
 91
        0
 64
     7
 65
   257
 75
     1
175
     1
 42
1.0
 92
        8
 66
     7
 43
1.0
 76
     1
 77
     6
 78
     2
 67
     7
 79
     5
170
     0
171
     0
290
     0
174
     0
 93
       13
 44
0.0
173
     0
291
     1
 45
0.0
1001
ACAD
1000
AcDbSavedByObjectVersion
1070
     0
  0
VISUALSTYLE
  5
2C
102
{ACAD_REACTORS
330
2A
102
}
102
{ACAD_XDICTIONARY
360
38B
102
}
330
2A
100
AcDbVisualStyle
  2
FlatWithEdges
 70
     1
 71
     2
 72
     1
 73
     1
 90
        2
 40
0.6
 41
30.0
 62
     5
 63
     7
421
 16777215
 74
     1
 91
        0
 64
     7
 65
   257
 75
     1
175
     1
 42
1.0
 92
        0
 66
   257
 43
1.0
 76
     1
 77
     6
 78
     2
 67
     7
 79
     5
170
     0
171
     0
290
     0
174
     0
 93
       13
 44
0.0
173
     0
291
     1
 45
0.0
1001
ACAD
1000
AcDbSavedByObjectVersion
1070
     0
  0
VISUALSTYLE
  5
2D
102
{ACAD_REACTORS
330
2A
102
}
102
{ACAD_XDICTIONARY
360
38D
102
}
330
2A
100
AcDbVisualStyle
  2
Gouraud
 70
     2
 71
     2
 72
     2
 73
     1
 90
        2
 40
0.6
 41
30.0
 62
     5
 63
     7
421
 16777215
 74
     0
 91
        0
 64
     7
 65
   257
 75
     1
175
     1
 42
1.0
 92
        0
 66
     7
 43
1.0
 76
     1
 77
     6
 78
     2
 67
     7
 79
     5
170
     0
171
     0
290
     0
174
     0
 93
       13
 44
0.0
173
     0
291
     1
 45
0.0
1001
ACAD
1000
AcDbSavedByObjectVersion
1070
     0
  0
VISUALSTYLE
  5
2E
102
{ACAD_REACTORS
330
2A
102
}
102
{ACAD_XDICTIONARY
360
38F
102
}
330
2A
100
AcDbVisualStyle
  2
GouraudWithEdges
 70
     3
 71
     2
 72
     2
 73
     1
 90
        2
 40
0.6
 41
30.0
 62
     5
 63
     7
421
 16777215
 74
     1
 91
        0
 64
     7
 65
   257
 75
     1
175
     1
 42
1.0
 92
        0
 66
   257
 43
1.0
 76
     1
 77
     6
 78
     2
 67
     7
 79
     5
170
     0
171
     0
290
     0
174
     0
 93
       13
 44
0.0
173
     0
291
     1
 45
0.0
1001
ACAD
1000
AcDbSavedByObjectVersion
1070
     0
  0
VISUALSTYLE
  5
31
102
{ACAD_REACTORS
330
2A
102
}
102
{ACAD_XDICTIONARY
360
395
102
}
330
2A
100
AcDbVisualStyle
  2
Hidden
 70
     6
 71
     1
 72
     2
 73
     2
 90
        0
 40
0.6
 41
30.0
 62
     5
 63
     7
421
 16777215
 74
     2
 91
        2
 64
     7
 65
   257
 75
     2
175
     1
 42
40.0
 92
        0
 66
   257
 43
1.0
 76
     1
 77
     6
 78
     2
 67
     7
 79
     3
170
     0
171
     0
290
     0
174
     0
 93
        1
 44
0.0
173
     0
291
     0
 45
0.0
1001
ACAD
1000
AcDbSavedByObjectVersion
1070
     0
  0
VISUALSTYLE
  5
3B
102
{ACAD_REACTORS
330
2A
102
}
102
{ACAD_XDICTIONARY
360
3A9
102
}
330
2A
100
AcDbVisualStyle
  2
JitterOff
 70
    20
 71
     2
 72
     2
 73
     0
 90
        0
 40
0.6
 41
30.0
 62
     5
 63
     7
421
 16777215
 74
     1
 91
        4
 64
     7
 65
   257
 75
     1
175
     1
 42
1.0
 92
       10
 66
     7
 43
1.0
 76
     1
 77
     6
 78
     2
 67
     7
 79
     5
170
     0
171
     0
290
     0
174
     0
 93
        1
 44
0.0
173
     0
291
     1
 45
0.0
1001
ACAD
1000
AcDbSavedByObjectVersion
1070
     0
  0
VISUALSTYLE
  5
38
102
{ACAD_REACTORS
330
2A
102
}
102
{ACAD_XDICTIONARY
360
3A3
102
}
330
2A
100
AcDbVisualStyle
  2
Linepattern
 70
    14
 71
     2
 72
     2
 73
     0
 90
        0
 40
0.6
 41
30.0
 62
     5
 63
     7
421
 16777215
 74
     1
 91
        4
 64
     7
 65
   257
 75
     7
175
     7
 42
1.0
 92
        8
 66
     7
 43
1.0
 76
     1
 77
     6
 78
     2
 67
     7
 79
     5
170
     0
171
     0
290
     0
174
     0
 93
        1
 44
0.0
173
     0
291
     1
 45
0.0
1001
ACAD
1000
AcDbSavedByObjectVersion
1070
     0
  0
VISUALSTYLE
  5
3C
102
{ACAD_REACTORS
330
2A
102
}
102
{ACAD_XDICTIONARY
360
3AB
102
}
330
2A
100
AcDbVisualStyle
  2
OverhangOff
 70
    21
 71
     2
 72
     2
 73
     0
 90
        0
 40
0.6
 41
30.0
 62
     5
 63
     7
421
 16777215
 74
     1
 91
        4
 64
     7
 65
   257
 75
     1
175
     1
 42
1.0
 92
        9
 66
     7
 43
1.0
 76
     1
 77
     6
 78
     2
 67
     7
 79
     5
170
     0
171
     0
290
     0
174
     0
 93
        1
 44
0.0
173
     0
291
     1
 45
0.0
1001
ACAD
1000
AcDbSavedByObjectVersion
1070
     0
  0
VISUALSTYLE
  5
33
102
{ACAD_REACTORS
330
2A
102
}
102
{ACAD_XDICTIONARY
360
399
102
}
330
2A
100
AcDbVisualStyle
  2
Realistic
 70
     8
 71
     2
 72
     3
 73
     0
 90
        2
 40
0.6
 41
30.0
 62
     5
 63
     7
421
 16777215
 74
     0
 91
        0
 64
     7
 65
   257
 75
     1
175
     1
 42
1.0
 92
        8
 66
   257
 43
1.0
 76
     1
 77
     6
 78
     2
 67
     7
 79
     3
170
     0
171
     0
290
     0
174
     0
 93
       13
 44
0.0
173
     0
291
     0
 45
0.0
1001
ACAD
1000
AcDbSavedByObjectVersion
1070
     0
  0
VISUALSTYLE
  5
42
102
{ACAD_REACTORS
330
2A
102
}
102
{ACAD_XDICTIONARY
360
3B7
102
}
330
2A
100
AcDbVisualStyle
  2
Shaded
 70
    27
 71
     2
 72
     2
 73
     1
 90
        2
 40
0.6
 41
30.0
 62
     5
 63
     7
421
 16777215
 74
     0
 91
        4
 64
     7
 65
   257
 75
     1
175
     1
 42
1.0
 92
        8
 66
   257
 43
1.0
 76
     1
 77
     6
 78
     2
 67
     8
425
  7895160
 79
     3
170
     0
171
     0
290
     0
174
     0
 93
        5
 44
0.0
173
     0
291
     0
 45
0.0
1001
ACAD
1000
AcDbSavedByObjectVersion
1070
     0
  0
VISUALSTYLE
  5
41
102
{ACAD_REACTORS
330
2A
102
}
102
{ACAD_XDICTIONARY
360
3B5
102
}
330
2A
100
AcDbVisualStyle
  2
Shaded with edges
 70
    26
 71
     2
 72
     2
 73
     1
 90
        2
 40
0.6
 41
30.0
 62
     5
 63
     7
421
 16777215
 74
     1
 91
       10
 64
     7
 65
   257
 75
     2
175
     1
 42
1.0
 92
        8
 66
   257
 43
1.0
 76
     1
 77
     6
 78
     2
 67
     7
 79
     3
170
     0
171
     0
290
     0
174
     0
 93
        5
 44
0.0
173
     0
291
     0
 45
0.0
1001
ACAD
1000
AcDbSavedByObjectVersion
1070
     0
  0
VISUALSTYLE
  5
3E
102
{ACAD_REACTORS
330
2A
102
}
102
{ACAD_XDICTIONARY
360
3AF
102
}
330
2A
100
AcDbVisualStyle
  2
Shades of Gray
 70
    23
 71
     2
 72
     2
 73
     3
 90
        0
 40
0.6
 41
30.0
 62
     5
 63
     7
421
 16777215
 74
     2
 91
        2
 64
     7
 65
     7
 75
     1
175
     1
 42
40.0
 92
        8
 66
     7
 43
1.0
 76
     1
 77
     6
 78
     2
 67
     7
 79
     3
170
     0
171
     0
290
     0
174
     0
 93
        1
 44
0.0
173
     0
291
     0
 45
0.0
1001
ACAD
1000
AcDbSavedByObjectVersion
1070
     0
  0
VISUALSTYLE
  5
3F
102
{ACAD_REACTORS
330
2A
102
}
102
{ACAD_XDICTIONARY
360
3B1
102
}
330
2A
100
AcDbVisualStyle
  2
Sketchy
 70
    24
 71
     1
 72
     2
 73
     2
 90
        0
 40
0.6
 41
30.0
 62
     5
 63
     7
421
 16777215
 74
     2
 91
        2
 64
     7
 65
     7
 75
     1
175
     1
 42
40.0
 92
       11
 66
     7
 43
1.0
 76
     1
 77
     6
 78
     2
 67
     7
 79
     6
170
     0
171
     0
290
     0
174
     0
 93
        1
 44
0.0
173
     0
291
     0
 45
0.0
1001
ACAD
1000
AcDbSavedByObjectVersion
1070
     0
  0
VISUALSTYLE
  5
37
102
{ACAD_REACTORS
330
2A
102
}
102
{ACAD_XDICTIONARY
360
3A1
102
}
330
2A
100
AcDbVisualStyle
  2
Thicken
 70
    13
 71
     2
 72
     2
 73
     0
 90
        0
 40
0.6
 41
30.0
 62
     5
 63
     7
421
 16777215
 74
     1
 91
        4
 64
     7
 65
   257
 75
     1
175
     1
 42
1.0
 92
       12
 66
     7
 43
1.0
 76
     1
 77
     6
 78
     2
 67
     7
 79
     5
170
     0
171
     0
290
     0
174
     0
 93
        1
 44
0.0
173
     0
291
     1
 45
0.0
1001
ACAD
1000
AcDbSavedByObjectVersion
1070
     0
  0
VISUALSTYLE
  5
30
102
{ACAD_REACTORS
330
2A
102
}
102
{ACAD_XDICTIONARY
360
393
102
}
330
2A
100
AcDbVisualStyle
  2
Wireframe
 70
     5
 71
     0
 72
     2
 73
     0
 90
        0
 40
0.6
 41
30.0
 62
     5
 63
     7
421
 16777215
 74
     1
 91
        4
 64
     7
 65
   257
 75
     1
175
     1
 42
1.0
 92
        0
 66
   257
 43
1.0
 76
     1
 77
     6
 78
     2
 67
     7
 79
     3
170
     0
171
     0
290
     0
174
     0
 93
        1
 44
0.0
173
     0
291
     0
 45
0.0
1001
ACAD
1000
AcDbSavedByObjectVersion
1070
     0
  0
VISUALSTYLE
  5
40
102
{ACAD_REACTORS
330
2A
102
}
102
{ACAD_XDICTIONARY
360
3B3
102
}
330
2A
100
AcDbVisualStyle
  2
X-Ray
 70
    25
 71
     2
 72
     2
 73
     1
 90
        1
 40
0.5
 41
30.0
 62
     5
 63
     7
421
 16777215
 74
     1
 91
        0
 64
     7
 65
   257
 75
     1
175
     1
 42
1.0
 92
        8
 66
     7
 43
1.0
 76
     1
 77
     6
 78
     2
 67
     7
 79
     3
170
     0
171
     0
290
     0
174
     0
 93
       13
 44
0.0
173
     0
291
     0
 45
0.0
1001
ACAD
1000
AcDbSavedByObjectVersion
1070
     0
  0
DICTIONARYVAR
  5
386
102
{ACAD_REACTORS
330
385
102
}
330
385
100
DictionaryVariables
280
     0
  1
1:1
  0
DICTIONARYVAR
  5
3CA
102
{ACAD_REACTORS
330
385
102
}
330
385
100
DictionaryVariables
280
     0
  1
3.500000
  0
DICTIONARYVAR
  5
3CB
102
{ACAD_REACTORS
330
385
102
}
330
385
100
DictionaryVariables
280
     0
  1
acadiso.lin
  0
DICTIONARYVAR
  5
3C7
102
{ACAD_REACTORS
330
385
102
}
330
385
100
DictionaryVariables
280
     0
  1
Standard
  0
DICTIONARYVAR
  5
3C6
102
{ACAD_REACTORS
330
385
102
}
330
385
100
DictionaryVariables
280
     0
  1
Standard
  0
DICTIONARYVAR
  5
387
102
{ACAD_REACTORS
330
385
102
}
330
385
100
DictionaryVariables
280
     0
  1
1
  0
DICTIONARYVAR
  5
388
102
{ACAD_REACTORS
330
385
102
}
330
385
100
DictionaryVariables
280
     0
  1
2
  0
DICTIONARY
  5
3BB
330
45
100
AcDbDictionary
280
     1
281
     1
  3
ACAD_XREC_ROUNDTRIP
360
3BC
  0
DICTIONARY
  5
3B9
330
44
100
AcDbDictionary
280
     1
281
     1
  3
ACAD_XREC_ROUNDTRIP
360
3BA
  0
DICTIONARY
  5
3BD
330
46
100
AcDbDictionary
280
     1
281
     1
  3
ACAD_XREC_ROUNDTRIP
360
3BE
  0
DICTIONARY
  5
3C3
330
6C
100
AcDbDictionary
280
     1
281
     1
  3
ACAD_XREC_ROUNDTRIP
360
3C4
  0
DICTIONARY
  5
3BF
330
6A
100
AcDbDictionary
280
     1
281
     1
  3
ACAD_ROUNDTRIP_2008_TABLESTYLE_CELLSTYLEMAP
360
3C1
  3
ACAD_XREC_ROUNDTRIP
360
3C0
  0
DICTIONARY
  5
391
330
2F
100
AcDbDictionary
280
     1
281
     1
  3
ACAD_XREC_ROUNDTRIP
360
392
  0
DICTIONARY
  5
397
330
32
100
AcDbDictionary
280
     1
281
     1
  3
ACAD_XREC_ROUNDTRIP
360
398
  0
DICTIONARY
  5
39F
330
36
100
AcDbDictionary
280
     1
281
     1
  3
ACAD_XREC_ROUNDTRIP
360
3A0
  0
DICTIONARY
  5
3A7
330
3A
100
AcDbDictionary
280
     1
281
     1
  3
ACAD_XREC_ROUNDTRIP
360
3A8
  0
DICTIONARY
  5
39B
330
34
100
AcDbDictionary
280
     1
281
     1
  3
ACAD_XREC_ROUNDTRIP
360
39C
  0
DICTIONARY
  5
39D
330
35
100
AcDbDictionary
280
     1
281
     1
  3
ACAD_XREC_ROUNDTRIP
360
39E
  0
DICTIONARY
  5
3AD
330
3D
100
AcDbDictionary
280
     1
281
     1
  3
ACAD_XREC_ROUNDTRIP
360
3AE
  0
DICTIONARY
  5
3A5
330
39
100
AcDbDictionary
280
     1
281
     1
  3
ACAD_XREC_ROUNDTRIP
360
3A6
  0
DICTIONARY
  5
389
330
2B
100
AcDbDictionary
280
     1
281
     1
  3
ACAD_XREC_ROUNDTRIP
360
38A
  0
DICTIONARY
  5
38B
330
2C
100
AcDbDictionary
280
     1
281
     1
  3
ACAD_XREC_ROUNDTRIP
360
38C
  0
DICTIONARY
  5
38D
330
2D
100
AcDbDictionary
280
     1
281
     1
  3
ACAD_XREC_ROUNDTRIP
360
38E
  0
DICTIONARY
  5
38F
330
2E
100
AcDbDictionary
280
     1
281
     1
  3
ACAD_XREC_ROUNDTRIP
360
390
  0
DICTIONARY
  5
395
330
31
100
AcDbDictionary
280
     1
281
     1
  3
ACAD_XREC_ROUNDTRIP
360
396
  0
DICTIONARY
  5
3A9
330
3B
100
AcDbDictionary
280
     1
281
     1
  3
ACAD_XREC_ROUNDTRIP
360
3AA
  0
DICTIONARY
  5
3A3
330
38
100
AcDbDictionary
280
     1
281
     1
  3
ACAD_XREC_ROUNDTRIP
360
3A4
  0
DICTIONARY
  5
3AB
330
3C
100
AcDbDictionary
280
     1
281
     1
  3
ACAD_XREC_ROUNDTRIP
360
3AC
  0
DICTIONARY
  5
399
330
33
100
AcDbDictionary
280
     1
281
     1
  3
ACAD_XREC_ROUNDTRIP
360
39A
  0
DICTIONARY
  5
3B7
330
42
100
AcDbDictionary
280
     1
281
     1
  3
ACAD_XREC_ROUNDTRIP
360
3B8
  0
DICTIONARY
  5
3B5
330
41
100
AcDbDictionary
280
     1
281
     1
  3
ACAD_XREC_ROUNDTRIP
360
3B6
  0
DICTIONARY
  5
3AF
330
3E
100
AcDbDictionary
280
     1
281
     1
  3
ACAD_XREC_ROUNDTRIP
360
3B0
  0
DICTIONARY
  5
3B1
330
3F
100
AcDbDictionary
280
     1
281
     1
  3
ACAD_XREC_ROUNDTRIP
360
3B2
  0
DICTIONARY
  5
3A1
330
37
100
AcDbDictionary
280
     1
281
     1
  3
ACAD_XREC_ROUNDTRIP
360
3A2
  0
DICTIONARY
  5
393
330
30
100
AcDbDictionary
280
     1
281
     1
  3
ACAD_XREC_ROUNDTRIP
360
394
  0
DICTIONARY
  5
3B3
330
40
100
AcDbDictionary
280
     1
281
     1
  3
ACAD_XREC_ROUNDTRIP
360
3B4
  0
XRECORD
  5
3BC
102
{ACAD_REACTORS
330
3BB
102
}
330
3BB
100
AcDbXrecord
280
     1
102
MATERIAL
148
0.0
149
0.0
149
0.0
 93
        0
 94
      127
282
     0
 72
     1
 77
     1
171
     1
175
     1
179
     1
273
     0
  0
XRECORD
  5
3BA
102
{ACAD_REACTORS
330
3B9
102
}
330
3B9
100
AcDbXrecord
280
     1
102
MATERIAL
148
0.0
149
0.0
149
0.0
 93
        0
 94
      127
282
     0
 72
     1
 77
     1
171
     1
175
     1
179
     1
273
     0
  0
XRECORD
  5
3BE
102
{ACAD_REACTORS
330
3BD
102
}
330
3BD
100
AcDbXrecord
280
     1
102
MATERIAL
148
0.0
149
0.0
149
0.0
 93
        0
 94
      127
282
     0
 72
     1
 77
     1
171
     1
175
     1
179
     1
273
     0
  0
XRECORD
  5
3C4
102
{ACAD_REACTORS
330
3C3
102
}
330
3C3
100
AcDbXrecord
280
     1
102
ACAD_ROUNDTRIP_2010_MLEADER_STYLE
  0
CELLSTYLEMAP
  5
3C1
102
{ACAD_REACTORS
330
3BF
102
}
330
3BF
100
AcDbCellStyleMap
 90
        3
300
CELLSTYLE
  1
TABLEFORMAT_BEGIN
 90
        5
170
     1
 91
        0
 92
    32768
 62
   257
 93
        1
300
CONTENTFORMAT
  1
CONTENTFORMAT_BEGIN
 90
        0
 91
        0
 92
        4
 93
        0
300

 40
0.0
140
1.0
 94
        5
 62
     0
340
11
144
6.0
309
CONTENTFORMAT_END
171
     1
301
MARGIN
  1
CELLMARGIN_BEGIN
 40
1.5
 40
1.5
 40
1.5
 40
1.5
 40
1.5
 40
1.5
309
CELLMARGIN_END
 94
        6
 95
        1
302
GRIDFORMAT
  1
GRIDFORMAT_BEGIN
 90
        0
 91
        1
 62
     0
 92
       -2
340
14
 93
        0
 40
0.045
309
GRIDFORMAT_END
 95
        2
302
GRIDFORMAT
  1
GRIDFORMAT_BEGIN
 90
        0
 91
        1
 62
     0
 92
       -2
340
14
 93
        0
 40
0.045
309
GRIDFORMAT_END
 95
        4
302
GRIDFORMAT
  1
GRIDFORMAT_BEGIN
 90
        0
 91
        1
 62
     0
 92
       -2
340
14
 93
        0
 40
0.045
309
GRIDFORMAT_END
 95
        8
302
GRIDFORMAT
  1
GRIDFORMAT_BEGIN
 90
        0
 91
        1
 62
     0
 92
       -2
340
14
 93
        0
 40
0.045
309
GRIDFORMAT_END
 95
       16
302
GRIDFORMAT
  1
GRIDFORMAT_BEGIN
 90
        0
 91
        1
 62
     0
 92
       -2
340
14
 93
        0
 40
0.045
309
GRIDFORMAT_END
 95
       32
302
GRIDFORMAT
  1
GRIDFORMAT_BEGIN
 90
        0
 91
        1
 62
     0
 92
       -2
340
14
 93
        0
 40
0.045
309
GRIDFORMAT_END
309
TABLEFORMAT_END
  1
CELLSTYLE_BEGIN
 90
        1
 91
        1
300
_TITLE
309
CELLSTYLE_END
300
CELLSTYLE
  1
TABLEFORMAT_BEGIN
 90
        5
170
     1
 91
        0
 92
        0
 62
   257
 93
        1
300
CONTENTFORMAT
  1
CONTENTFORMAT_BEGIN
 90
        0
 91
        0
 92
        4
 93
        0
300

 40
0.0
140
1.0
 94
        5
 62
     0
340
11
144
4.5
309
CONTENTFORMAT_END
171
     1
301
MARGIN
  1
CELLMARGIN_BEGIN
 40
1.5
 40
1.5
 40
1.5
 40
1.5
 40
1.5
 40
1.5
309
CELLMARGIN_END
 94
        6
 95
        1
302
GRIDFORMAT
  1
GRIDFORMAT_BEGIN
 90
        0
 91
        1
 62
     0
 92
       -2
340
14
 93
        0
 40
0.045
309
GRIDFORMAT_END
 95
        2
302
GRIDFORMAT
  1
GRIDFORMAT_BEGIN
 90
        0
 91
        1
 62
     0
 92
       -2
340
14
 93
        0
 40
0.045
309
GRIDFORMAT_END
 95
        4
302
GRIDFORMAT
  1
GRIDFORMAT_BEGIN
 90
        0
 91
        1
 62
     0
 92
       -2
340
14
 93
        0
 40
0.045
309
GRIDFORMAT_END
 95
        8
302
GRIDFORMAT
  1
GRIDFORMAT_BEGIN
 90
        0
 91
        1
 62
     0
 92
       -2
340
14
 93
        0
 40
0.045
309
GRIDFORMAT_END
 95
       16
302
GRIDFORMAT
  1
GRIDFORMAT_BEGIN
 90
        0
 91
        1
 62
     0
 92
       -2
340
14
 93
        0
 40
0.045
309
GRIDFORMAT_END
 95
       32
302
GRIDFORMAT
  1
GRIDFORMAT_BEGIN
 90
        0
 91
        1
 62
     0
 92
       -2
340
14
 93
        0
 40
0.045
309
GRIDFORMAT_END
309
TABLEFORMAT_END
  1
CELLSTYLE_BEGIN
 90
        2
 91
        1
300
_HEADER
309
CELLSTYLE_END
300
CELLSTYLE
  1
TABLEFORMAT_BEGIN
 90
        5
170
     1
 91
        0
 92
        0
 62
   257
 93
        1
300
CONTENTFORMAT
  1
CONTENTFORMAT_BEGIN
 90
        0
 91
        0
 92
        4
 93
        0
300

 40
0.0
140
1.0
 94
        2
 62
     0
340
11
144
4.5
309
CONTENTFORMAT_END
171
     1
301
MARGIN
  1
CELLMARGIN_BEGIN
 40
1.5
 40
1.5
 40
1.5
 40
1.5
 40
1.5
 40
1.5
309
CELLMARGIN_END
 94
        6
 95
        1
302
GRIDFORMAT
  1
GRIDFORMAT_BEGIN
 90
        0
 91
        1
 62
     0
 92
       -2
340
14
 93
        0
 40
0.045
309
GRIDFORMAT_END
 95
        2
302
GRIDFORMAT
  1
GRIDFORMAT_BEGIN
 90
        0
 91
        1
 62
     0
 92
       -2
340
14
 93
        0
 40
0.045
309
GRIDFORMAT_END
 95
        4
302
GRIDFORMAT
  1
GRIDFORMAT_BEGIN
 90
        0
 91
        1
 62
     0
 92
       -2
340
14
 93
        0
 40
0.045
309
GRIDFORMAT_END
 95
        8
302
GRIDFORMAT
  1
GRIDFORMAT_BEGIN
 90
        0
 91
        1
 62
     0
 92
       -2
340
14
 93
        0
 40
0.045
309
GRIDFORMAT_END
 95
       16
302
GRIDFORMAT
  1
GRIDFORMAT_BEGIN
 90
        0
 91
        1
 62
     0
 92
       -2
340
14
 93
        0
 40
0.045
309
GRIDFORMAT_END
 95
       32
302
GRIDFORMAT
  1
GRIDFORMAT_BEGIN
 90
        0
 91
        1
 62
     0
 92
       -2
340
14
 93
        0
 40
0.045
309
GRIDFORMAT_END
309
TABLEFORMAT_END
  1
CELLSTYLE_BEGIN
 90
        3
 91
        2
300
_DATA
309
CELLSTYLE_END
  0
XRECORD
  5
3C0
102
{ACAD_REACTORS
330
3BF
102
}
330
3BF
100
AcDbXrecord
280
     1
102
ACAD_ROUNDTRIP_PRE2007_TABLESTYLE
 90
        4
 91
        0
  1

 92
        4
 93
        0
  2

 94
        4
 95
        0
  3

  0
XRECORD
  5
392
102
{ACAD_REACTORS
330
391
102
}
330
391
100
AcDbXrecord
280
     1
102
RTVSPropertyOp0
 70
     1
102
RTVSPropertyOp1
 70
     1
102
RTVSPropertyOp2
 70
     1
102
RTVSPropertyOp3
 70
     1
102
RTVSPropertyOp4
 70
     1
102
RTVSPropertyOp5
 70
     1
102
RTVSPropertyOp6
 70
     1
102
RTVSPropertyOp7
 70
     1
102
RTVSPropertyOp8
 70
     1
102
RTVSPropertyOp9
 70
     1
102
RTVSPropertyOp10
 70
     1
102
RTVSPropertyOp11
 70
     1
102
RTVSPropertyOp12
 70
     1
102
RTVSPropertyOp13
 70
     1
102
RTVSPropertyOp14
 70
     1
102
RTVSPropertyOp15
 70
     1
102
RTVSPropertyOp16
 70
     1
102
RTVSPropertyOp17
 70
     1
102
RTVSPropertyOp18
 70
     1
102
RTVSPropertyOp19
 70
     1
102
RTVSPropertyOp20
 70
     1
102
RTVSPropertyOp21
 70
     1
102
RTVSPropertyOp22
 70
     1
102
RTVSPropertyOp23
 70
     1
102
RTVSPropertyOp24
 70
     1
102
RTVSPropertyOp25
 70
     1
102
RTVSPropertyOp26
 70
     1
102
RTVSPropertyOp27
 70
     1
102
RTVSPropertyOp28
 70
     1
102
RTVSPropertyOp29
 70
     1
102
RTVSPropertyOp30
 70
     1
102
RTVSPropertyOp31
 70
     1
102
RTVSPropertyOp32
 70
     1
102
RTVSPropertyOp33
 70
     1
102
RTVSPropertyOp34
 70
     1
102
RTVSPropertyOp35
 70
     1
102
RTVSPropertyOp36
 70
     1
102
RTVSPropertyOp37
 70
     1
102
RTVSPropertyOp38
 70
     1
102
RTVSPropertyOp39
 70
     1
102
RTVSPropertyOp40
 70
     1
102
RTVSPropertyOp41
 70
     1
102
RTVSPropertyOp42
 70
     1
102
RTVSPropertyOp43
 70
     1
102
RTVSPropertyOp44
 70
     1
102
RTVSPropertyOp45
 70
     1
102
RTVSPropertyOp46
 70
     1
102
RTVSPropertyOp47
 70
     1
102
RTVSPropertyOp48
 70
     1
102
RTVSPropertyOp49
 70
     1
102
RTVSPropertyOp50
 70
     1
102
RTVSPropertyOp51
 70
     0
102
RTVSPropertyOp52
 70
     0
102
RTVSPropertyOp53
 70
     1
102
RTVSPropertyOp54
 70
     1
102
RTVSPropertyOp55
 70
     1
102
RTVSPropertyOp56
 70
     1
102
RTVSPropertyOp57
 70
     1
102
RTVSPost2010Prop28
280
     1
102
RTVSPost2010PropOp28
 70
     1
102
RTVSPost2010Prop29
280
     1
102
RTVSPost2010PropOp29
 70
     1
102
RTVSPost2010Prop30
280
     0
102
RTVSPost2010PropOp30
 70
     1
102
RTVSPost2010Prop31
280
     0
102
RTVSPost2010PropOp31
 70
     1
102
RTVSPost2010Prop32
280
     0
102
RTVSPost2010PropOp32
 70
     1
102
RTVSPost2010Prop33
280
     0
102
RTVSPost2010PropOp33
 70
     1
102
RTVSPost2010Prop34
280
     0
102
RTVSPost2010PropOp34
 70
     1
102
RTVSPost2010Prop35
280
     0
102
RTVSPost2010PropOp35
 70
     1
102
RTVSPost2010Prop36
280
     0
102
RTVSPost2010PropOp36
 70
     1
102
RTVSPost2010Prop37
 90
       50
102
RTVSPost2010PropOp37
 70
     1
102
RTVSPost2010Prop38
140
0.0
102
RTVSPost2010PropOp38
 70
     1
102
RTVSPost2010Prop39
140
1.0
102
RTVSPost2010PropOp39
 70
     1
102
RTVSPost2010Prop40
 90
        0
102
RTVSPost2010PropOp40
 70
     1
102
RTVSPost2010Prop41ColorIndex
 90
       18
102
RTVSPost2010Prop41ColorRGB
 90
        0
102
RTVSPost2010PropOp41
 70
     1
102
RTVSPost2010Prop42
 90
       50
102
RTVSPost2010PropOp42
 70
     1
102
RTVSPost2010Prop43
 90
        3
102
RTVSPost2010PropOp43
 70
     1
102
RTVSPost2010Prop44ColorIndex
 90
        5
102
RTVSPost2010Prop44ColorRGB
 90
      255
102
RTVSPost2010PropOp44
 70
     1
102
RTVSPost2010Prop45
280
     0
102
RTVSPost2010PropOp45
 70
     1
102
RTVSPost2010Prop46
 90
       50
102
RTVSPost2010PropOp46
 70
     1
102
RTVSPost2010Prop47
 90
       50
102
RTVSPost2010PropOp47
 70
     1
102
RTVSPost2010Prop48
 90
       50
102
RTVSPost2010PropOp48
 70
     1
102
RTVSPost2010Prop49
280
     0
102
RTVSPost2010PropOp49
 70
     1
102
RTVSPost2010Prop50
 90
       50
102
RTVSPost2010PropOp50
 70
     1
102
RTVSPost2010Prop51ColorIndex
 90
      256
102
RTVSPost2010Prop51ColorRGB
 90
-16777216
102
RTVSPost2010PropOp51
 70
     0
102
RTVSPost2010Prop52
140
1.0
102
RTVSPost2010PropOp52
 70
     0
102
RTVSPost2010Prop53
 90
        2
102
RTVSPost2010PropOp53
 70
     1
102
RTVSPost2010Prop54
  1
strokes_ogs.tif
102
RTVSPost2010PropOp54
 70
     1
102
RTVSPost2010Prop55
280
     0
102
RTVSPost2010PropOp55
 70
     1
102
RTVSPost2010Prop56
140
1.0
102
RTVSPost2010PropOp56
 70
     1
102
RTVSPost2010Prop57
140
1.0
102
RTVSPost2010PropOp57
 70
     1
  0
XRECORD
  5
398
102
{ACAD_REACTORS
330
397
102
}
330
397
100
AcDbXrecord
280
     1
102
RTVSPropertyOp0
 70
     1
102
RTVSPropertyOp1
 70
     1
102
RTVSPropertyOp2
 70
     1
102
RTVSPropertyOp3
 70
     1
102
RTVSPropertyOp4
 70
     1
102
RTVSPropertyOp5
 70
     1
102
RTVSPropertyOp6
 70
     1
102
RTVSPropertyOp7
 70
     1
102
RTVSPropertyOp8
 70
     1
102
RTVSPropertyOp9
 70
     1
102
RTVSPropertyOp10
 70
     1
102
RTVSPropertyOp11
 70
     1
102
RTVSPropertyOp12
 70
     1
102
RTVSPropertyOp13
 70
     1
102
RTVSPropertyOp14
 70
     1
102
RTVSPropertyOp15
 70
     1
102
RTVSPropertyOp16
 70
     1
102
RTVSPropertyOp17
 70
     1
102
RTVSPropertyOp18
 70
     1
102
RTVSPropertyOp19
 70
     1
102
RTVSPropertyOp20
 70
     1
102
RTVSPropertyOp21
 70
     1
102
RTVSPropertyOp22
 70
     1
102
RTVSPropertyOp23
 70
     1
102
RTVSPropertyOp24
 70
     1
102
RTVSPropertyOp25
 70
     1
102
RTVSPropertyOp26
 70
     1
102
RTVSPropertyOp27
 70
     1
102
RTVSPropertyOp28
 70
     1
102
RTVSPropertyOp29
 70
     1
102
RTVSPropertyOp30
 70
     1
102
RTVSPropertyOp31
 70
     1
102
RTVSPropertyOp32
 70
     1
102
RTVSPropertyOp33
 70
     1
102
RTVSPropertyOp34
 70
     1
102
RTVSPropertyOp35
 70
     1
102
RTVSPropertyOp36
 70
     1
102
RTVSPropertyOp37
 70
     1
102
RTVSPropertyOp38
 70
     1
102
RTVSPropertyOp39
 70
     1
102
RTVSPropertyOp40
 70
     1
102
RTVSPropertyOp41
 70
     1
102
RTVSPropertyOp42
 70
     1
102
RTVSPropertyOp43
 70
     1
102
RTVSPropertyOp44
 70
     1
102
RTVSPropertyOp45
 70
     1
102
RTVSPropertyOp46
 70
     1
102
RTVSPropertyOp47
 70
     1
102
RTVSPropertyOp48
 70
     1
102
RTVSPropertyOp49
 70
     1
102
RTVSPropertyOp50
 70
     1
102
RTVSPropertyOp51
 70
     0
102
RTVSPropertyOp52
 70
     0
102
RTVSPropertyOp53
 70
     1
102
RTVSPropertyOp54
 70
     1
102
RTVSPropertyOp55
 70
     1
102
RTVSPropertyOp56
 70
     1
102
RTVSPropertyOp57
 70
     1
102
RTVSPost2010Prop28
280
     0
102
RTVSPost2010PropOp28
 70
     1
102
RTVSPost2010Prop29
280
     1
102
RTVSPost2010PropOp29
 70
     1
102
RTVSPost2010Prop30
280
     1
102
RTVSPost2010PropOp30
 70
     1
102
RTVSPost2010Prop31
280
     0
102
RTVSPost2010PropOp31
 70
     1
102
RTVSPost2010Prop32
280
     0
102
RTVSPost2010PropOp32
 70
     1
102
RTVSPost2010Prop33
280
     0
102
RTVSPost2010PropOp33
 70
     1
102
RTVSPost2010Prop34
280
     0
102
RTVSPost2010PropOp34
 70
     1
102
RTVSPost2010Prop35
280
     0
102
RTVSPost2010PropOp35
 70
     1
102
RTVSPost2010Prop36
280
     0
102
RTVSPost2010PropOp36
 70
     1
102
RTVSPost2010Prop37
 90
       50
102
RTVSPost2010PropOp37
 70
     1
102
RTVSPost2010Prop38
140
0.0
102
RTVSPost2010PropOp38
 70
     1
102
RTVSPost2010Prop39
140
1.0
102
RTVSPost2010PropOp39
 70
     1
102
RTVSPost2010Prop40
 90
        0
102
RTVSPost2010PropOp40
 70
     1
102
RTVSPost2010Prop41ColorIndex
 90
       18
102
RTVSPost2010Prop41ColorRGB
 90
        0
102
RTVSPost2010PropOp41
 70
     1
102
RTVSPost2010Prop42
 90
       50
102
RTVSPost2010PropOp42
 70
     1
102
RTVSPost2010Prop43
 90
        3
102
RTVSPost2010PropOp43
 70
     1
102
RTVSPost2010Prop44ColorIndex
 90
        5
102
RTVSPost2010Prop44ColorRGB
 90
      255
102
RTVSPost2010PropOp44
 70
     1
102
RTVSPost2010Prop45
280
     0
102
RTVSPost2010PropOp45
 70
     1
102
RTVSPost2010Prop46
 90
       50
102
RTVSPost2010PropOp46
 70
     1
102
RTVSPost2010Prop47
 90
       50
102
RTVSPost2010PropOp47
 70
     1
102
RTVSPost2010Prop48
 90
       50
102
RTVSPost2010PropOp48
 70
     1
102
RTVSPost2010Prop49
280
     0
102
RTVSPost2010PropOp49
 70
     1
102
RTVSPost2010Prop50
 90
       50
102
RTVSPost2010PropOp50
 70
     1
102
RTVSPost2010Prop51ColorIndex
 90
      256
102
RTVSPost2010Prop51ColorRGB
 90
-16777216
102
RTVSPost2010PropOp51
 70
     0
102
RTVSPost2010Prop52
140
1.0
102
RTVSPost2010PropOp52
 70
     0
102
RTVSPost2010Prop53
 90
        2
102
RTVSPost2010PropOp53
 70
     1
102
RTVSPost2010Prop54
  1
strokes_ogs.tif
102
RTVSPost2010PropOp54
 70
     1
102
RTVSPost2010Prop55
280
     0
102
RTVSPost2010PropOp55
 70
     1
102
RTVSPost2010Prop56
140
1.0
102
RTVSPost2010PropOp56
 70
     1
102
RTVSPost2010Prop57
140
1.0
102
RTVSPost2010PropOp57
 70
     1
  0
XRECORD
  5
3A0
102
{ACAD_REACTORS
330
39F
102
}
330
39F
100
AcDbXrecord
280
     1
102
RTVSPropertyOp0
 70
     1
102
RTVSPropertyOp1
 70
     1
102
RTVSPropertyOp2
 70
     1
102
RTVSPropertyOp3
 70
     1
102
RTVSPropertyOp4
 70
     1
102
RTVSPropertyOp5
 70
     1
102
RTVSPropertyOp6
 70
     1
102
RTVSPropertyOp7
 70
     1
102
RTVSPropertyOp8
 70
     1
102
RTVSPropertyOp9
 70
     1
102
RTVSPropertyOp10
 70
     1
102
RTVSPropertyOp11
 70
     1
102
RTVSPropertyOp12
 70
     1
102
RTVSPropertyOp13
 70
     1
102
RTVSPropertyOp14
 70
     1
102
RTVSPropertyOp15
 70
     1
102
RTVSPropertyOp16
 70
     1
102
RTVSPropertyOp17
 70
     1
102
RTVSPropertyOp18
 70
     1
102
RTVSPropertyOp19
 70
     1
102
RTVSPropertyOp20
 70
     1
102
RTVSPropertyOp21
 70
     1
102
RTVSPropertyOp22
 70
     1
102
RTVSPropertyOp23
 70
     1
102
RTVSPropertyOp24
 70
     1
102
RTVSPropertyOp25
 70
     1
102
RTVSPropertyOp26
 70
     1
102
RTVSPropertyOp27
 70
     1
102
RTVSPropertyOp28
 70
     1
102
RTVSPropertyOp29
 70
     1
102
RTVSPropertyOp30
 70
     1
102
RTVSPropertyOp31
 70
     1
102
RTVSPropertyOp32
 70
     1
102
RTVSPropertyOp33
 70
     1
102
RTVSPropertyOp34
 70
     1
102
RTVSPropertyOp35
 70
     1
102
RTVSPropertyOp36
 70
     1
102
RTVSPropertyOp37
 70
     1
102
RTVSPropertyOp38
 70
     1
102
RTVSPropertyOp39
 70
     1
102
RTVSPropertyOp40
 70
     1
102
RTVSPropertyOp41
 70
     1
102
RTVSPropertyOp42
 70
     1
102
RTVSPropertyOp43
 70
     1
102
RTVSPropertyOp44
 70
     1
102
RTVSPropertyOp45
 70
     1
102
RTVSPropertyOp46
 70
     1
102
RTVSPropertyOp47
 70
     1
102
RTVSPropertyOp48
 70
     1
102
RTVSPropertyOp49
 70
     1
102
RTVSPropertyOp50
 70
     1
102
RTVSPropertyOp51
 70
     0
102
RTVSPropertyOp52
 70
     0
102
RTVSPropertyOp53
 70
     1
102
RTVSPropertyOp54
 70
     1
102
RTVSPropertyOp55
 70
     1
102
RTVSPropertyOp56
 70
     1
102
RTVSPropertyOp57
 70
     1
102
RTVSPost2010Prop28
280
     0
102
RTVSPost2010PropOp28
 70
     1
102
RTVSPost2010Prop29
280
     1
102
RTVSPost2010PropOp29
 70
     1
102
RTVSPost2010Prop30
280
     1
102
RTVSPost2010PropOp30
 70
     1
102
RTVSPost2010Prop31
280
     0
102
RTVSPost2010PropOp31
 70
     1
102
RTVSPost2010Prop32
280
     0
102
RTVSPost2010PropOp32
 70
     1
102
RTVSPost2010Prop33
280
     0
102
RTVSPost2010PropOp33
 70
     1
102
RTVSPost2010Prop34
280
     0
102
RTVSPost2010PropOp34
 70
     1
102
RTVSPost2010Prop35
280
     0
102
RTVSPost2010PropOp35
 70
     1
102
RTVSPost2010Prop36
280
     0
102
RTVSPost2010PropOp36
 70
     1
102
RTVSPost2010Prop37
 90
       50
102
RTVSPost2010PropOp37
 70
     1
102
RTVSPost2010Prop38
140
0.0
102
RTVSPost2010PropOp38
 70
     1
102
RTVSPost2010Prop39
140
1.0
102
RTVSPost2010PropOp39
 70
     1
102
RTVSPost2010Prop40
 90
        0
102
RTVSPost2010PropOp40
 70
     1
102
RTVSPost2010Prop41ColorIndex
 90
       18
102
RTVSPost2010Prop41ColorRGB
 90
        0
102
RTVSPost2010PropOp41
 70
     1
102
RTVSPost2010Prop42
 90
       50
102
RTVSPost2010PropOp42
 70
     1
102
RTVSPost2010Prop43
 90
        3
102
RTVSPost2010PropOp43
 70
     1
102
RTVSPost2010Prop44ColorIndex
 90
        5
102
RTVSPost2010Prop44ColorRGB
 90
      255
102
RTVSPost2010PropOp44
 70
     1
102
RTVSPost2010Prop45
280
     0
102
RTVSPost2010PropOp45
 70
     1
102
RTVSPost2010Prop46
 90
       50
102
RTVSPost2010PropOp46
 70
     1
102
RTVSPost2010Prop47
 90
       50
102
RTVSPost2010PropOp47
 70
     1
102
RTVSPost2010Prop48
 90
       50
102
RTVSPost2010PropOp48
 70
     1
102
RTVSPost2010Prop49
280
     0
102
RTVSPost2010PropOp49
 70
     1
102
RTVSPost2010Prop50
 90
       50
102
RTVSPost2010PropOp50
 70
     1
102
RTVSPost2010Prop51ColorIndex
 90
      256
102
RTVSPost2010Prop51ColorRGB
 90
-16777216
102
RTVSPost2010PropOp51
 70
     0
102
RTVSPost2010Prop52
140
1.0
102
RTVSPost2010PropOp52
 70
     0
102
RTVSPost2010Prop53
 90
        2
102
RTVSPost2010PropOp53
 70
     1
102
RTVSPost2010Prop54
  1
strokes_ogs.tif
102
RTVSPost2010PropOp54
 70
     1
102
RTVSPost2010Prop55
280
     0
102
RTVSPost2010PropOp55
 70
     1
102
RTVSPost2010Prop56
140
1.0
102
RTVSPost2010PropOp56
 70
     1
102
RTVSPost2010Prop57
140
1.0
102
RTVSPost2010PropOp57
 70
     1
  0
XRECORD
  5
3A8
102
{ACAD_REACTORS
330
3A7
102
}
330
3A7
100
AcDbXrecord
280
     1
102
RTVSPropertyOp0
 70
     1
102
RTVSPropertyOp1
 70
     1
102
RTVSPropertyOp2
 70
     1
102
RTVSPropertyOp3
 70
     1
102
RTVSPropertyOp4
 70
     1
102
RTVSPropertyOp5
 70
     1
102
RTVSPropertyOp6
 70
     1
102
RTVSPropertyOp7
 70
     1
102
RTVSPropertyOp8
 70
     1
102
RTVSPropertyOp9
 70
     1
102
RTVSPropertyOp10
 70
     1
102
RTVSPropertyOp11
 70
     1
102
RTVSPropertyOp12
 70
     1
102
RTVSPropertyOp13
 70
     1
102
RTVSPropertyOp14
 70
     1
102
RTVSPropertyOp15
 70
     1
102
RTVSPropertyOp16
 70
     1
102
RTVSPropertyOp17
 70
     1
102
RTVSPropertyOp18
 70
     1
102
RTVSPropertyOp19
 70
     1
102
RTVSPropertyOp20
 70
     1
102
RTVSPropertyOp21
 70
     1
102
RTVSPropertyOp22
 70
     1
102
RTVSPropertyOp23
 70
     1
102
RTVSPropertyOp24
 70
     1
102
RTVSPropertyOp25
 70
     1
102
RTVSPropertyOp26
 70
     1
102
RTVSPropertyOp27
 70
     1
102
RTVSPropertyOp28
 70
     1
102
RTVSPropertyOp29
 70
     1
102
RTVSPropertyOp30
 70
     1
102
RTVSPropertyOp31
 70
     1
102
RTVSPropertyOp32
 70
     1
102
RTVSPropertyOp33
 70
     1
102
RTVSPropertyOp34
 70
     1
102
RTVSPropertyOp35
 70
     1
102
RTVSPropertyOp36
 70
     1
102
RTVSPropertyOp37
 70
     1
102
RTVSPropertyOp38
 70
     1
102
RTVSPropertyOp39
 70
     1
102
RTVSPropertyOp40
 70
     1
102
RTVSPropertyOp41
 70
     1
102
RTVSPropertyOp42
 70
     1
102
RTVSPropertyOp43
 70
     1
102
RTVSPropertyOp44
 70
     1
102
RTVSPropertyOp45
 70
     1
102
RTVSPropertyOp46
 70
     1
102
RTVSPropertyOp47
 70
     1
102
RTVSPropertyOp48
 70
     1
102
RTVSPropertyOp49
 70
     1
102
RTVSPropertyOp50
 70
     1
102
RTVSPropertyOp51
 70
     0
102
RTVSPropertyOp52
 70
     0
102
RTVSPropertyOp53
 70
     1
102
RTVSPropertyOp54
 70
     1
102
RTVSPropertyOp55
 70
     1
102
RTVSPropertyOp56
 70
     1
102
RTVSPropertyOp57
 70
     1
102
RTVSPost2010Prop28
280
     0
102
RTVSPost2010PropOp28
 70
     1
102
RTVSPost2010Prop29
280
     1
102
RTVSPost2010PropOp29
 70
     1
102
RTVSPost2010Prop30
280
     1
102
RTVSPost2010PropOp30
 70
     1
102
RTVSPost2010Prop31
280
     0
102
RTVSPost2010PropOp31
 70
     1
102
RTVSPost2010Prop32
280
     0
102
RTVSPost2010PropOp32
 70
     1
102
RTVSPost2010Prop33
280
     0
102
RTVSPost2010PropOp33
 70
     1
102
RTVSPost2010Prop34
280
     0
102
RTVSPost2010PropOp34
 70
     1
102
RTVSPost2010Prop35
280
     0
102
RTVSPost2010PropOp35
 70
     1
102
RTVSPost2010Prop36
280
     0
102
RTVSPost2010PropOp36
 70
     1
102
RTVSPost2010Prop37
 90
       50
102
RTVSPost2010PropOp37
 70
     1
102
RTVSPost2010Prop38
140
0.0
102
RTVSPost2010PropOp38
 70
     1
102
RTVSPost2010Prop39
140
1.0
102
RTVSPost2010PropOp39
 70
     1
102
RTVSPost2010Prop40
 90
        0
102
RTVSPost2010PropOp40
 70
     1
102
RTVSPost2010Prop41ColorIndex
 90
       18
102
RTVSPost2010Prop41ColorRGB
 90
        0
102
RTVSPost2010PropOp41
 70
     1
102
RTVSPost2010Prop42
 90
       50
102
RTVSPost2010PropOp42
 70
     1
102
RTVSPost2010Prop43
 90
        3
102
RTVSPost2010PropOp43
 70
     1
102
RTVSPost2010Prop44ColorIndex
 90
        5
102
RTVSPost2010Prop44ColorRGB
 90
      255
102
RTVSPost2010PropOp44
 70
     1
102
RTVSPost2010Prop45
280
     0
102
RTVSPost2010PropOp45
 70
     1
102
RTVSPost2010Prop46
 90
       50
102
RTVSPost2010PropOp46
 70
     1
102
RTVSPost2010Prop47
 90
       50
102
RTVSPost2010PropOp47
 70
     1
102
RTVSPost2010Prop48
 90
       50
102
RTVSPost2010PropOp48
 70
     1
102
RTVSPost2010Prop49
280
     0
102
RTVSPost2010PropOp49
 70
     1
102
RTVSPost2010Prop50
 90
       50
102
RTVSPost2010PropOp50
 70
     1
102
RTVSPost2010Prop51ColorIndex
 90
      256
102
RTVSPost2010Prop51ColorRGB
 90
-16777216
102
RTVSPost2010PropOp51
 70
     0
102
RTVSPost2010Prop52
140
1.0
102
RTVSPost2010PropOp52
 70
     0
102
RTVSPost2010Prop53
 90
        2
102
RTVSPost2010PropOp53
 70
     1
102
RTVSPost2010Prop54
  1
strokes_ogs.tif
102
RTVSPost2010PropOp54
 70
     1
102
RTVSPost2010Prop55
280
     0
102
RTVSPost2010PropOp55
 70
     1
102
RTVSPost2010Prop56
140
1.0
102
RTVSPost2010PropOp56
 70
     1
102
RTVSPost2010Prop57
140
1.0
102
RTVSPost2010PropOp57
 70
     1
  0
XRECORD
  5
39C
102
{ACAD_REACTORS
330
39B
102
}
330
39B
100
AcDbXrecord
280
     1
102
RTVSPropertyOp0
 70
     1
102
RTVSPropertyOp1
 70
     1
102
RTVSPropertyOp2
 70
     1
102
RTVSPropertyOp3
 70
     1
102
RTVSPropertyOp4
 70
     1
102
RTVSPropertyOp5
 70
     1
102
RTVSPropertyOp6
 70
     1
102
RTVSPropertyOp7
 70
     1
102
RTVSPropertyOp8
 70
     1
102
RTVSPropertyOp9
 70
     1
102
RTVSPropertyOp10
 70
     1
102
RTVSPropertyOp11
 70
     1
102
RTVSPropertyOp12
 70
     1
102
RTVSPropertyOp13
 70
     1
102
RTVSPropertyOp14
 70
     1
102
RTVSPropertyOp15
 70
     1
102
RTVSPropertyOp16
 70
     1
102
RTVSPropertyOp17
 70
     1
102
RTVSPropertyOp18
 70
     1
102
RTVSPropertyOp19
 70
     1
102
RTVSPropertyOp20
 70
     1
102
RTVSPropertyOp21
 70
     1
102
RTVSPropertyOp22
 70
     1
102
RTVSPropertyOp23
 70
     1
102
RTVSPropertyOp24
 70
     1
102
RTVSPropertyOp25
 70
     1
102
RTVSPropertyOp26
 70
     1
102
RTVSPropertyOp27
 70
     1
102
RTVSPropertyOp28
 70
     1
102
RTVSPropertyOp29
 70
     1
102
RTVSPropertyOp30
 70
     1
102
RTVSPropertyOp31
 70
     1
102
RTVSPropertyOp32
 70
     1
102
RTVSPropertyOp33
 70
     1
102
RTVSPropertyOp34
 70
     1
102
RTVSPropertyOp35
 70
     1
102
RTVSPropertyOp36
 70
     1
102
RTVSPropertyOp37
 70
     1
102
RTVSPropertyOp38
 70
     1
102
RTVSPropertyOp39
 70
     1
102
RTVSPropertyOp40
 70
     1
102
RTVSPropertyOp41
 70
     1
102
RTVSPropertyOp42
 70
     1
102
RTVSPropertyOp43
 70
     1
102
RTVSPropertyOp44
 70
     1
102
RTVSPropertyOp45
 70
     1
102
RTVSPropertyOp46
 70
     1
102
RTVSPropertyOp47
 70
     1
102
RTVSPropertyOp48
 70
     1
102
RTVSPropertyOp49
 70
     1
102
RTVSPropertyOp50
 70
     1
102
RTVSPropertyOp51
 70
     0
102
RTVSPropertyOp52
 70
     0
102
RTVSPropertyOp53
 70
     1
102
RTVSPropertyOp54
 70
     1
102
RTVSPropertyOp55
 70
     1
102
RTVSPropertyOp56
 70
     1
102
RTVSPropertyOp57
 70
     1
102
RTVSPost2010Prop28
280
     0
102
RTVSPost2010PropOp28
 70
     1
102
RTVSPost2010Prop29
280
     1
102
RTVSPost2010PropOp29
 70
     1
102
RTVSPost2010Prop30
280
     1
102
RTVSPost2010PropOp30
 70
     1
102
RTVSPost2010Prop31
280
     0
102
RTVSPost2010PropOp31
 70
     1
102
RTVSPost2010Prop32
280
     0
102
RTVSPost2010PropOp32
 70
     1
102
RTVSPost2010Prop33
280
     0
102
RTVSPost2010PropOp33
 70
     1
102
RTVSPost2010Prop34
280
     0
102
RTVSPost2010PropOp34
 70
     1
102
RTVSPost2010Prop35
280
     0
102
RTVSPost2010PropOp35
 70
     1
102
RTVSPost2010Prop36
280
     0
102
RTVSPost2010PropOp36
 70
     1
102
RTVSPost2010Prop37
 90
       50
102
RTVSPost2010PropOp37
 70
     1
102
RTVSPost2010Prop38
140
0.0
102
RTVSPost2010PropOp38
 70
     1
102
RTVSPost2010Prop39
140
1.0
102
RTVSPost2010PropOp39
 70
     1
102
RTVSPost2010Prop40
 90
        0
102
RTVSPost2010PropOp40
 70
     1
102
RTVSPost2010Prop41ColorIndex
 90
       18
102
RTVSPost2010Prop41ColorRGB
 90
        0
102
RTVSPost2010PropOp41
 70
     1
102
RTVSPost2010Prop42
 90
       50
102
RTVSPost2010PropOp42
 70
     1
102
RTVSPost2010Prop43
 90
        3
102
RTVSPost2010PropOp43
 70
     1
102
RTVSPost2010Prop44ColorIndex
 90
        5
102
RTVSPost2010Prop44ColorRGB
 90
      255
102
RTVSPost2010PropOp44
 70
     1
102
RTVSPost2010Prop45
280
     0
102
RTVSPost2010PropOp45
 70
     1
102
RTVSPost2010Prop46
 90
       50
102
RTVSPost2010PropOp46
 70
     1
102
RTVSPost2010Prop47
 90
       50
102
RTVSPost2010PropOp47
 70
     1
102
RTVSPost2010Prop48
 90
       50
102
RTVSPost2010PropOp48
 70
     1
102
RTVSPost2010Prop49
280
     0
102
RTVSPost2010PropOp49
 70
     1
102
RTVSPost2010Prop50
 90
       50
102
RTVSPost2010PropOp50
 70
     1
102
RTVSPost2010Prop51ColorIndex
 90
      256
102
RTVSPost2010Prop51ColorRGB
 90
-16777216
102
RTVSPost2010PropOp51
 70
     0
102
RTVSPost2010Prop52
140
1.0
102
RTVSPost2010PropOp52
 70
     0
102
RTVSPost2010Prop53
 90
        2
102
RTVSPost2010PropOp53
 70
     1
102
RTVSPost2010Prop54
  1
strokes_ogs.tif
102
RTVSPost2010PropOp54
 70
     1
102
RTVSPost2010Prop55
280
     0
102
RTVSPost2010PropOp55
 70
     1
102
RTVSPost2010Prop56
140
1.0
102
RTVSPost2010PropOp56
 70
     1
102
RTVSPost2010Prop57
140
1.0
102
RTVSPost2010PropOp57
 70
     1
  0
XRECORD
  5
39E
102
{ACAD_REACTORS
330
39D
102
}
330
39D
100
AcDbXrecord
280
     1
102
RTVSPropertyOp0
 70
     1
102
RTVSPropertyOp1
 70
     1
102
RTVSPropertyOp2
 70
     1
102
RTVSPropertyOp3
 70
     1
102
RTVSPropertyOp4
 70
     1
102
RTVSPropertyOp5
 70
     1
102
RTVSPropertyOp6
 70
     1
102
RTVSPropertyOp7
 70
     1
102
RTVSPropertyOp8
 70
     1
102
RTVSPropertyOp9
 70
     1
102
RTVSPropertyOp10
 70
     1
102
RTVSPropertyOp11
 70
     1
102
RTVSPropertyOp12
 70
     1
102
RTVSPropertyOp13
 70
     1
102
RTVSPropertyOp14
 70
     1
102
RTVSPropertyOp15
 70
     1
102
RTVSPropertyOp16
 70
     1
102
RTVSPropertyOp17
 70
     1
102
RTVSPropertyOp18
 70
     1
102
RTVSPropertyOp19
 70
     1
102
RTVSPropertyOp20
 70
     1
102
RTVSPropertyOp21
 70
     1
102
RTVSPropertyOp22
 70
     1
102
RTVSPropertyOp23
 70
     1
102
RTVSPropertyOp24
 70
     1
102
RTVSPropertyOp25
 70
     1
102
RTVSPropertyOp26
 70
     1
102
RTVSPropertyOp27
 70
     1
102
RTVSPropertyOp28
 70
     1
102
RTVSPropertyOp29
 70
     1
102
RTVSPropertyOp30
 70
     1
102
RTVSPropertyOp31
 70
     1
102
RTVSPropertyOp32
 70
     1
102
RTVSPropertyOp33
 70
     1
102
RTVSPropertyOp34
 70
     1
102
RTVSPropertyOp35
 70
     1
102
RTVSPropertyOp36
 70
     1
102
RTVSPropertyOp37
 70
     1
102
RTVSPropertyOp38
 70
     1
102
RTVSPropertyOp39
 70
     1
102
RTVSPropertyOp40
 70
     1
102
RTVSPropertyOp41
 70
     1
102
RTVSPropertyOp42
 70
     1
102
RTVSPropertyOp43
 70
     1
102
RTVSPropertyOp44
 70
     1
102
RTVSPropertyOp45
 70
     1
102
RTVSPropertyOp46
 70
     1
102
RTVSPropertyOp47
 70
     1
102
RTVSPropertyOp48
 70
     1
102
RTVSPropertyOp49
 70
     1
102
RTVSPropertyOp50
 70
     1
102
RTVSPropertyOp51
 70
     0
102
RTVSPropertyOp52
 70
     0
102
RTVSPropertyOp53
 70
     1
102
RTVSPropertyOp54
 70
     1
102
RTVSPropertyOp55
 70
     1
102
RTVSPropertyOp56
 70
     1
102
RTVSPropertyOp57
 70
     1
102
RTVSPost2010Prop28
280
     0
102
RTVSPost2010PropOp28
 70
     1
102
RTVSPost2010Prop29
280
     1
102
RTVSPost2010PropOp29
 70
     1
102
RTVSPost2010Prop30
280
     1
102
RTVSPost2010PropOp30
 70
     1
102
RTVSPost2010Prop31
280
     0
102
RTVSPost2010PropOp31
 70
     1
102
RTVSPost2010Prop32
280
     0
102
RTVSPost2010PropOp32
 70
     1
102
RTVSPost2010Prop33
280
     0
102
RTVSPost2010PropOp33
 70
     1
102
RTVSPost2010Prop34
280
     0
102
RTVSPost2010PropOp34
 70
     1
102
RTVSPost2010Prop35
280
     0
102
RTVSPost2010PropOp35
 70
     1
102
RTVSPost2010Prop36
280
     0
102
RTVSPost2010PropOp36
 70
     1
102
RTVSPost2010Prop37
 90
       50
102
RTVSPost2010PropOp37
 70
     1
102
RTVSPost2010Prop38
140
0.0
102
RTVSPost2010PropOp38
 70
     1
102
RTVSPost2010Prop39
140
1.0
102
RTVSPost2010PropOp39
 70
     1
102
RTVSPost2010Prop40
 90
        0
102
RTVSPost2010PropOp40
 70
     1
102
RTVSPost2010Prop41ColorIndex
 90
       18
102
RTVSPost2010Prop41ColorRGB
 90
        0
102
RTVSPost2010PropOp41
 70
     1
102
RTVSPost2010Prop42
 90
       50
102
RTVSPost2010PropOp42
 70
     1
102
RTVSPost2010Prop43
 90
        3
102
RTVSPost2010PropOp43
 70
     1
102
RTVSPost2010Prop44ColorIndex
 90
        5
102
RTVSPost2010Prop44ColorRGB
 90
      255
102
RTVSPost2010PropOp44
 70
     1
102
RTVSPost2010Prop45
280
     0
102
RTVSPost2010PropOp45
 70
     1
102
RTVSPost2010Prop46
 90
       50
102
RTVSPost2010PropOp46
 70
     1
102
RTVSPost2010Prop47
 90
       50
102
RTVSPost2010PropOp47
 70
     1
102
RTVSPost2010Prop48
 90
       50
102
RTVSPost2010PropOp48
 70
     1
102
RTVSPost2010Prop49
280
     0
102
RTVSPost2010PropOp49
 70
     1
102
RTVSPost2010Prop50
 90
       50
102
RTVSPost2010PropOp50
 70
     1
102
RTVSPost2010Prop51ColorIndex
 90
      256
102
RTVSPost2010Prop51ColorRGB
 90
-16777216
102
RTVSPost2010PropOp51
 70
     0
102
RTVSPost2010Prop52
140
1.0
102
RTVSPost2010PropOp52
 70
     0
102
RTVSPost2010Prop53
 90
        2
102
RTVSPost2010PropOp53
 70
     1
102
RTVSPost2010Prop54
  1
strokes_ogs.tif
102
RTVSPost2010PropOp54
 70
     1
102
RTVSPost2010Prop55
280
     0
102
RTVSPost2010PropOp55
 70
     1
102
RTVSPost2010Prop56
140
1.0
102
RTVSPost2010PropOp56
 70
     1
102
RTVSPost2010Prop57
140
1.0
102
RTVSPost2010PropOp57
 70
     1
  0
XRECORD
  5
3AE
102
{ACAD_REACTORS
330
3AD
102
}
330
3AD
100
AcDbXrecord
280
     1
102
RTVSPropertyOp0
 70
     0
102
RTVSPropertyOp1
 70
     0
102
RTVSPropertyOp2
 70
     0
102
RTVSPropertyOp3
 70
     0
102
RTVSPropertyOp4
 70
     0
102
RTVSPropertyOp5
 70
     0
102
RTVSPropertyOp6
 70
     0
102
RTVSPropertyOp7
 70
     0
102
RTVSPropertyOp8
 70
     0
102
RTVSPropertyOp9
 70
     0
102
RTVSPropertyOp10
 70
     0
102
RTVSPropertyOp11
 70
     0
102
RTVSPropertyOp12
 70
     0
102
RTVSPropertyOp13
 70
     0
102
RTVSPropertyOp14
 70
     2
102
RTVSPropertyOp15
 70
     0
102
RTVSPropertyOp16
 70
     0
102
RTVSPropertyOp17
 70
     0
102
RTVSPropertyOp18
 70
     0
102
RTVSPropertyOp19
 70
     0
102
RTVSPropertyOp20
 70
     0
102
RTVSPropertyOp21
 70
     0
102
RTVSPropertyOp22
 70
     0
102
RTVSPropertyOp23
 70
     0
102
RTVSPropertyOp24
 70
     0
102
RTVSPropertyOp25
 70
     0
102
RTVSPropertyOp26
 70
     0
102
RTVSPropertyOp27
 70
     0
102
RTVSPropertyOp28
 70
     0
102
RTVSPropertyOp29
 70
     0
102
RTVSPropertyOp30
 70
     0
102
RTVSPropertyOp31
 70
     0
102
RTVSPropertyOp32
 70
     0
102
RTVSPropertyOp33
 70
     0
102
RTVSPropertyOp34
 70
     0
102
RTVSPropertyOp35
 70
     0
102
RTVSPropertyOp36
 70
     0
102
RTVSPropertyOp37
 70
     0
102
RTVSPropertyOp38
 70
     0
102
RTVSPropertyOp39
 70
     0
102
RTVSPropertyOp40
 70
     0
102
RTVSPropertyOp41
 70
     0
102
RTVSPropertyOp42
 70
     0
102
RTVSPropertyOp43
 70
     0
102
RTVSPropertyOp44
 70
     0
102
RTVSPropertyOp45
 70
     0
102
RTVSPropertyOp46
 70
     0
102
RTVSPropertyOp47
 70
     0
102
RTVSPropertyOp48
 70
     0
102
RTVSPropertyOp49
 70
     0
102
RTVSPropertyOp50
 70
     0
102
RTVSPropertyOp51
 70
     0
102
RTVSPropertyOp52
 70
     0
102
RTVSPropertyOp53
 70
     0
102
RTVSPropertyOp54
 70
     0
102
RTVSPropertyOp55
 70
     0
102
RTVSPropertyOp56
 70
     0
102
RTVSPropertyOp57
 70
     0
102
RTVSPost2010Prop28
280
     0
102
RTVSPost2010PropOp28
 70
     0
102
RTVSPost2010Prop29
280
     1
102
RTVSPost2010PropOp29
 70
     0
102
RTVSPost2010Prop30
280
     1
102
RTVSPost2010PropOp30
 70
     0
102
RTVSPost2010Prop31
280
     0
102
RTVSPost2010PropOp31
 70
     0
102
RTVSPost2010Prop32
280
     0
102
RTVSPost2010PropOp32
 70
     0
102
RTVSPost2010Prop33
280
     0
102
RTVSPost2010PropOp33
 70
     0
102
RTVSPost2010Prop34
280
     0
102
RTVSPost2010PropOp34
 70
     0
102
RTVSPost2010Prop35
280
     0
102
RTVSPost2010PropOp35
 70
     0
102
RTVSPost2010Prop36
280
     0
102
RTVSPost2010PropOp36
 70
     0
102
RTVSPost2010Prop37
 90
       50
102
RTVSPost2010PropOp37
 70
     0
102
RTVSPost2010Prop38
140
0.0
102
RTVSPost2010PropOp38
 70
     0
102
RTVSPost2010Prop39
140
1.0
102
RTVSPost2010PropOp39
 70
     0
102
RTVSPost2010Prop40
 90
        0
102
RTVSPost2010PropOp40
 70
     0
102
RTVSPost2010Prop41ColorIndex
 90
       18
102
RTVSPost2010Prop41ColorRGB
 90
        0
102
RTVSPost2010PropOp41
 70
     0
102
RTVSPost2010Prop42
 90
       50
102
RTVSPost2010PropOp42
 70
     0
102
RTVSPost2010Prop43
 90
        3
102
RTVSPost2010PropOp43
 70
     0
102
RTVSPost2010Prop44ColorIndex
 90
        5
102
RTVSPost2010Prop44ColorRGB
 90
      255
102
RTVSPost2010PropOp44
 70
     0
102
RTVSPost2010Prop45
280
     0
102
RTVSPost2010PropOp45
 70
     0
102
RTVSPost2010Prop46
 90
       50
102
RTVSPost2010PropOp46
 70
     0
102
RTVSPost2010Prop47
 90
       50
102
RTVSPost2010PropOp47
 70
     0
102
RTVSPost2010Prop48
 90
       50
102
RTVSPost2010PropOp48
 70
     0
102
RTVSPost2010Prop49
280
     0
102
RTVSPost2010PropOp49
 70
     0
102
RTVSPost2010Prop50
 90
       50
102
RTVSPost2010PropOp50
 70
     0
102
RTVSPost2010Prop51ColorIndex
 90
      256
102
RTVSPost2010Prop51ColorRGB
 90
-16777216
102
RTVSPost2010PropOp51
 70
     0
102
RTVSPost2010Prop52
140
1.0
102
RTVSPost2010PropOp52
 70
     0
102
RTVSPost2010Prop53
 90
        2
102
RTVSPost2010PropOp53
 70
     0
102
RTVSPost2010Prop54
  1
strokes_ogs.tif
102
RTVSPost2010PropOp54
 70
     0
102
RTVSPost2010Prop55
280
     0
102
RTVSPost2010PropOp55
 70
     0
102
RTVSPost2010Prop56
140
1.0
102
RTVSPost2010PropOp56
 70
     0
102
RTVSPost2010Prop57
140
1.0
102
RTVSPost2010PropOp57
 70
     0
  0
XRECORD
  5
3A6
102
{ACAD_REACTORS
330
3A5
102
}
330
3A5
100
AcDbXrecord
280
     1
102
RTVSPropertyOp0
 70
     1
102
RTVSPropertyOp1
 70
     1
102
RTVSPropertyOp2
 70
     1
102
RTVSPropertyOp3
 70
     1
102
RTVSPropertyOp4
 70
     1
102
RTVSPropertyOp5
 70
     1
102
RTVSPropertyOp6
 70
     1
102
RTVSPropertyOp7
 70
     1
102
RTVSPropertyOp8
 70
     1
102
RTVSPropertyOp9
 70
     1
102
RTVSPropertyOp10
 70
     1
102
RTVSPropertyOp11
 70
     1
102
RTVSPropertyOp12
 70
     1
102
RTVSPropertyOp13
 70
     1
102
RTVSPropertyOp14
 70
     1
102
RTVSPropertyOp15
 70
     1
102
RTVSPropertyOp16
 70
     1
102
RTVSPropertyOp17
 70
     1
102
RTVSPropertyOp18
 70
     1
102
RTVSPropertyOp19
 70
     1
102
RTVSPropertyOp20
 70
     1
102
RTVSPropertyOp21
 70
     1
102
RTVSPropertyOp22
 70
     1
102
RTVSPropertyOp23
 70
     1
102
RTVSPropertyOp24
 70
     1
102
RTVSPropertyOp25
 70
     1
102
RTVSPropertyOp26
 70
     1
102
RTVSPropertyOp27
 70
     1
102
RTVSPropertyOp28
 70
     1
102
RTVSPropertyOp29
 70
     1
102
RTVSPropertyOp30
 70
     1
102
RTVSPropertyOp31
 70
     1
102
RTVSPropertyOp32
 70
     1
102
RTVSPropertyOp33
 70
     1
102
RTVSPropertyOp34
 70
     1
102
RTVSPropertyOp35
 70
     1
102
RTVSPropertyOp36
 70
     1
102
RTVSPropertyOp37
 70
     1
102
RTVSPropertyOp38
 70
     1
102
RTVSPropertyOp39
 70
     1
102
RTVSPropertyOp40
 70
     1
102
RTVSPropertyOp41
 70
     1
102
RTVSPropertyOp42
 70
     1
102
RTVSPropertyOp43
 70
     1
102
RTVSPropertyOp44
 70
     1
102
RTVSPropertyOp45
 70
     1
102
RTVSPropertyOp46
 70
     1
102
RTVSPropertyOp47
 70
     1
102
RTVSPropertyOp48
 70
     1
102
RTVSPropertyOp49
 70
     1
102
RTVSPropertyOp50
 70
     1
102
RTVSPropertyOp51
 70
     0
102
RTVSPropertyOp52
 70
     0
102
RTVSPropertyOp53
 70
     1
102
RTVSPropertyOp54
 70
     1
102
RTVSPropertyOp55
 70
     1
102
RTVSPropertyOp56
 70
     1
102
RTVSPropertyOp57
 70
     1
102
RTVSPost2010Prop28
280
     0
102
RTVSPost2010PropOp28
 70
     1
102
RTVSPost2010Prop29
280
     1
102
RTVSPost2010PropOp29
 70
     1
102
RTVSPost2010Prop30
280
     1
102
RTVSPost2010PropOp30
 70
     1
102
RTVSPost2010Prop31
280
     0
102
RTVSPost2010PropOp31
 70
     1
102
RTVSPost2010Prop32
280
     0
102
RTVSPost2010PropOp32
 70
     1
102
RTVSPost2010Prop33
280
     0
102
RTVSPost2010PropOp33
 70
     1
102
RTVSPost2010Prop34
280
     0
102
RTVSPost2010PropOp34
 70
     1
102
RTVSPost2010Prop35
280
     0
102
RTVSPost2010PropOp35
 70
     1
102
RTVSPost2010Prop36
280
     0
102
RTVSPost2010PropOp36
 70
     1
102
RTVSPost2010Prop37
 90
       50
102
RTVSPost2010PropOp37
 70
     1
102
RTVSPost2010Prop38
140
0.0
102
RTVSPost2010PropOp38
 70
     1
102
RTVSPost2010Prop39
140
1.0
102
RTVSPost2010PropOp39
 70
     1
102
RTVSPost2010Prop40
 90
        0
102
RTVSPost2010PropOp40
 70
     1
102
RTVSPost2010Prop41ColorIndex
 90
       18
102
RTVSPost2010Prop41ColorRGB
 90
        0
102
RTVSPost2010PropOp41
 70
     1
102
RTVSPost2010Prop42
 90
       50
102
RTVSPost2010PropOp42
 70
     1
102
RTVSPost2010Prop43
 90
        3
102
RTVSPost2010PropOp43
 70
     1
102
RTVSPost2010Prop44ColorIndex
 90
        5
102
RTVSPost2010Prop44ColorRGB
 90
      255
102
RTVSPost2010PropOp44
 70
     1
102
RTVSPost2010Prop45
280
     0
102
RTVSPost2010PropOp45
 70
     1
102
RTVSPost2010Prop46
 90
       50
102
RTVSPost2010PropOp46
 70
     1
102
RTVSPost2010Prop47
 90
       50
102
RTVSPost2010PropOp47
 70
     1
102
RTVSPost2010Prop48
 90
       50
102
RTVSPost2010PropOp48
 70
     1
102
RTVSPost2010Prop49
280
     0
102
RTVSPost2010PropOp49
 70
     1
102
RTVSPost2010Prop50
 90
       50
102
RTVSPost2010PropOp50
 70
     1
102
RTVSPost2010Prop51ColorIndex
 90
      256
102
RTVSPost2010Prop51ColorRGB
 90
-16777216
102
RTVSPost2010PropOp51
 70
     0
102
RTVSPost2010Prop52
140
1.0
102
RTVSPost2010PropOp52
 70
     0
102
RTVSPost2010Prop53
 90
        2
102
RTVSPost2010PropOp53
 70
     1
102
RTVSPost2010Prop54
  1
strokes_ogs.tif
102
RTVSPost2010PropOp54
 70
     1
102
RTVSPost2010Prop55
280
     0
102
RTVSPost2010PropOp55
 70
     1
102
RTVSPost2010Prop56
140
1.0
102
RTVSPost2010PropOp56
 70
     1
102
RTVSPost2010Prop57
140
1.0
102
RTVSPost2010PropOp57
 70
     1
  0
XRECORD
  5
38A
102
{ACAD_REACTORS
330
389
102
}
330
389
100
AcDbXrecord
280
     1
102
RTVSPropertyOp0
 70
     1
102
RTVSPropertyOp1
 70
     1
102
RTVSPropertyOp2
 70
     1
102
RTVSPropertyOp3
 70
     1
102
RTVSPropertyOp4
 70
     1
102
RTVSPropertyOp5
 70
     1
102
RTVSPropertyOp6
 70
     1
102
RTVSPropertyOp7
 70
     1
102
RTVSPropertyOp8
 70
     1
102
RTVSPropertyOp9
 70
     1
102
RTVSPropertyOp10
 70
     1
102
RTVSPropertyOp11
 70
     1
102
RTVSPropertyOp12
 70
     1
102
RTVSPropertyOp13
 70
     1
102
RTVSPropertyOp14
 70
     1
102
RTVSPropertyOp15
 70
     1
102
RTVSPropertyOp16
 70
     1
102
RTVSPropertyOp17
 70
     1
102
RTVSPropertyOp18
 70
     1
102
RTVSPropertyOp19
 70
     1
102
RTVSPropertyOp20
 70
     1
102
RTVSPropertyOp21
 70
     1
102
RTVSPropertyOp22
 70
     1
102
RTVSPropertyOp23
 70
     1
102
RTVSPropertyOp24
 70
     1
102
RTVSPropertyOp25
 70
     1
102
RTVSPropertyOp26
 70
     1
102
RTVSPropertyOp27
 70
     1
102
RTVSPropertyOp28
 70
     1
102
RTVSPropertyOp29
 70
     1
102
RTVSPropertyOp30
 70
     1
102
RTVSPropertyOp31
 70
     1
102
RTVSPropertyOp32
 70
     1
102
RTVSPropertyOp33
 70
     1
102
RTVSPropertyOp34
 70
     1
102
RTVSPropertyOp35
 70
     1
102
RTVSPropertyOp36
 70
     1
102
RTVSPropertyOp37
 70
     1
102
RTVSPropertyOp38
 70
     1
102
RTVSPropertyOp39
 70
     1
102
RTVSPropertyOp40
 70
     1
102
RTVSPropertyOp41
 70
     1
102
RTVSPropertyOp42
 70
     1
102
RTVSPropertyOp43
 70
     1
102
RTVSPropertyOp44
 70
     1
102
RTVSPropertyOp45
 70
     1
102
RTVSPropertyOp46
 70
     1
102
RTVSPropertyOp47
 70
     1
102
RTVSPropertyOp48
 70
     1
102
RTVSPropertyOp49
 70
     1
102
RTVSPropertyOp50
 70
     1
102
RTVSPropertyOp51
 70
     0
102
RTVSPropertyOp52
 70
     0
102
RTVSPropertyOp53
 70
     1
102
RTVSPropertyOp54
 70
     1
102
RTVSPropertyOp55
 70
     1
102
RTVSPropertyOp56
 70
     1
102
RTVSPropertyOp57
 70
     1
102
RTVSPost2010Prop28
280
     0
102
RTVSPost2010PropOp28
 70
     1
102
RTVSPost2010Prop29
280
     1
102
RTVSPost2010PropOp29
 70
     1
102
RTVSPost2010Prop30
280
     1
102
RTVSPost2010PropOp30
 70
     1
102
RTVSPost2010Prop31
280
     0
102
RTVSPost2010PropOp31
 70
     1
102
RTVSPost2010Prop32
280
     0
102
RTVSPost2010PropOp32
 70
     1
102
RTVSPost2010Prop33
280
     0
102
RTVSPost2010PropOp33
 70
     1
102
RTVSPost2010Prop34
280
     0
102
RTVSPost2010PropOp34
 70
     1
102
RTVSPost2010Prop35
280
     0
102
RTVSPost2010PropOp35
 70
     1
102
RTVSPost2010Prop36
280
     0
102
RTVSPost2010PropOp36
 70
     1
102
RTVSPost2010Prop37
 90
       50
102
RTVSPost2010PropOp37
 70
     1
102
RTVSPost2010Prop38
140
0.0
102
RTVSPost2010PropOp38
 70
     1
102
RTVSPost2010Prop39
140
1.0
102
RTVSPost2010PropOp39
 70
     1
102
RTVSPost2010Prop40
 90
        0
102
RTVSPost2010PropOp40
 70
     1
102
RTVSPost2010Prop41ColorIndex
 90
       18
102
RTVSPost2010Prop41ColorRGB
 90
        0
102
RTVSPost2010PropOp41
 70
     1
102
RTVSPost2010Prop42
 90
       50
102
RTVSPost2010PropOp42
 70
     1
102
RTVSPost2010Prop43
 90
        3
102
RTVSPost2010PropOp43
 70
     1
102
RTVSPost2010Prop44ColorIndex
 90
        5
102
RTVSPost2010Prop44ColorRGB
 90
      255
102
RTVSPost2010PropOp44
 70
     1
102
RTVSPost2010Prop45
280
     0
102
RTVSPost2010PropOp45
 70
     1
102
RTVSPost2010Prop46
 90
       50
102
RTVSPost2010PropOp46
 70
     1
102
RTVSPost2010Prop47
 90
       50
102
RTVSPost2010PropOp47
 70
     1
102
RTVSPost2010Prop48
 90
       50
102
RTVSPost2010PropOp48
 70
     1
102
RTVSPost2010Prop49
280
     0
102
RTVSPost2010PropOp49
 70
     1
102
RTVSPost2010Prop50
 90
       50
102
RTVSPost2010PropOp50
 70
     1
102
RTVSPost2010Prop51ColorIndex
 90
      256
102
RTVSPost2010Prop51ColorRGB
 90
-16777216
102
RTVSPost2010PropOp51
 70
     0
102
RTVSPost2010Prop52
140
1.0
102
RTVSPost2010PropOp52
 70
     0
102
RTVSPost2010Prop53
 90
        2
102
RTVSPost2010PropOp53
 70
     1
102
RTVSPost2010Prop54
  1
strokes_ogs.tif
102
RTVSPost2010PropOp54
 70
     1
102
RTVSPost2010Prop55
280
     0
102
RTVSPost2010PropOp55
 70
     1
102
RTVSPost2010Prop56
140
1.0
102
RTVSPost2010PropOp56
 70
     1
102
RTVSPost2010Prop57
140
1.0
102
RTVSPost2010PropOp57
 70
     1
  0
XRECORD
  5
38C
102
{ACAD_REACTORS
330
38B
102
}
330
38B
100
AcDbXrecord
280
     1
102
RTVSPropertyOp0
 70
     1
102
RTVSPropertyOp1
 70
     1
102
RTVSPropertyOp2
 70
     1
102
RTVSPropertyOp3
 70
     1
102
RTVSPropertyOp4
 70
     1
102
RTVSPropertyOp5
 70
     1
102
RTVSPropertyOp6
 70
     1
102
RTVSPropertyOp7
 70
     1
102
RTVSPropertyOp8
 70
     1
102
RTVSPropertyOp9
 70
     1
102
RTVSPropertyOp10
 70
     1
102
RTVSPropertyOp11
 70
     1
102
RTVSPropertyOp12
 70
     1
102
RTVSPropertyOp13
 70
     1
102
RTVSPropertyOp14
 70
     1
102
RTVSPropertyOp15
 70
     1
102
RTVSPropertyOp16
 70
     1
102
RTVSPropertyOp17
 70
     1
102
RTVSPropertyOp18
 70
     1
102
RTVSPropertyOp19
 70
     1
102
RTVSPropertyOp20
 70
     1
102
RTVSPropertyOp21
 70
     1
102
RTVSPropertyOp22
 70
     1
102
RTVSPropertyOp23
 70
     1
102
RTVSPropertyOp24
 70
     1
102
RTVSPropertyOp25
 70
     1
102
RTVSPropertyOp26
 70
     1
102
RTVSPropertyOp27
 70
     1
102
RTVSPropertyOp28
 70
     1
102
RTVSPropertyOp29
 70
     1
102
RTVSPropertyOp30
 70
     1
102
RTVSPropertyOp31
 70
     1
102
RTVSPropertyOp32
 70
     1
102
RTVSPropertyOp33
 70
     1
102
RTVSPropertyOp34
 70
     1
102
RTVSPropertyOp35
 70
     1
102
RTVSPropertyOp36
 70
     1
102
RTVSPropertyOp37
 70
     1
102
RTVSPropertyOp38
 70
     1
102
RTVSPropertyOp39
 70
     1
102
RTVSPropertyOp40
 70
     1
102
RTVSPropertyOp41
 70
     1
102
RTVSPropertyOp42
 70
     1
102
RTVSPropertyOp43
 70
     1
102
RTVSPropertyOp44
 70
     1
102
RTVSPropertyOp45
 70
     1
102
RTVSPropertyOp46
 70
     1
102
RTVSPropertyOp47
 70
     1
102
RTVSPropertyOp48
 70
     1
102
RTVSPropertyOp49
 70
     1
102
RTVSPropertyOp50
 70
     1
102
RTVSPropertyOp51
 70
     0
102
RTVSPropertyOp52
 70
     0
102
RTVSPropertyOp53
 70
     1
102
RTVSPropertyOp54
 70
     1
102
RTVSPropertyOp55
 70
     1
102
RTVSPropertyOp56
 70
     1
102
RTVSPropertyOp57
 70
     1
102
RTVSPost2010Prop28
280
     0
102
RTVSPost2010PropOp28
 70
     1
102
RTVSPost2010Prop29
280
     1
102
RTVSPost2010PropOp29
 70
     1
102
RTVSPost2010Prop30
280
     1
102
RTVSPost2010PropOp30
 70
     1
102
RTVSPost2010Prop31
280
     0
102
RTVSPost2010PropOp31
 70
     1
102
RTVSPost2010Prop32
280
     0
102
RTVSPost2010PropOp32
 70
     1
102
RTVSPost2010Prop33
280
     0
102
RTVSPost2010PropOp33
 70
     1
102
RTVSPost2010Prop34
280
     0
102
RTVSPost2010PropOp34
 70
     1
102
RTVSPost2010Prop35
280
     0
102
RTVSPost2010PropOp35
 70
     1
102
RTVSPost2010Prop36
280
     0
102
RTVSPost2010PropOp36
 70
     1
102
RTVSPost2010Prop37
 90
       50
102
RTVSPost2010PropOp37
 70
     1
102
RTVSPost2010Prop38
140
0.0
102
RTVSPost2010PropOp38
 70
     1
102
RTVSPost2010Prop39
140
1.0
102
RTVSPost2010PropOp39
 70
     1
102
RTVSPost2010Prop40
 90
        0
102
RTVSPost2010PropOp40
 70
     1
102
RTVSPost2010Prop41ColorIndex
 90
       18
102
RTVSPost2010Prop41ColorRGB
 90
        0
102
RTVSPost2010PropOp41
 70
     1
102
RTVSPost2010Prop42
 90
       50
102
RTVSPost2010PropOp42
 70
     1
102
RTVSPost2010Prop43
 90
        3
102
RTVSPost2010PropOp43
 70
     1
102
RTVSPost2010Prop44ColorIndex
 90
        5
102
RTVSPost2010Prop44ColorRGB
 90
      255
102
RTVSPost2010PropOp44
 70
     1
102
RTVSPost2010Prop45
280
     0
102
RTVSPost2010PropOp45
 70
     1
102
RTVSPost2010Prop46
 90
       50
102
RTVSPost2010PropOp46
 70
     1
102
RTVSPost2010Prop47
 90
       50
102
RTVSPost2010PropOp47
 70
     1
102
RTVSPost2010Prop48
 90
       50
102
RTVSPost2010PropOp48
 70
     1
102
RTVSPost2010Prop49
280
     0
102
RTVSPost2010PropOp49
 70
     1
102
RTVSPost2010Prop50
 90
       50
102
RTVSPost2010PropOp50
 70
     1
102
RTVSPost2010Prop51ColorIndex
 90
      256
102
RTVSPost2010Prop51ColorRGB
 90
-16777216
102
RTVSPost2010PropOp51
 70
     0
102
RTVSPost2010Prop52
140
1.0
102
RTVSPost2010PropOp52
 70
     0
102
RTVSPost2010Prop53
 90
        2
102
RTVSPost2010PropOp53
 70
     1
102
RTVSPost2010Prop54
  1
strokes_ogs.tif
102
RTVSPost2010PropOp54
 70
     1
102
RTVSPost2010Prop55
280
     0
102
RTVSPost2010PropOp55
 70
     1
102
RTVSPost2010Prop56
140
1.0
102
RTVSPost2010PropOp56
 70
     1
102
RTVSPost2010Prop57
140
1.0
102
RTVSPost2010PropOp57
 70
     1
  0
XRECORD
  5
38E
102
{ACAD_REACTORS
330
38D
102
}
330
38D
100
AcDbXrecord
280
     1
102
RTVSPropertyOp0
 70
     1
102
RTVSPropertyOp1
 70
     1
102
RTVSPropertyOp2
 70
     1
102
RTVSPropertyOp3
 70
     1
102
RTVSPropertyOp4
 70
     1
102
RTVSPropertyOp5
 70
     1
102
RTVSPropertyOp6
 70
     1
102
RTVSPropertyOp7
 70
     1
102
RTVSPropertyOp8
 70
     1
102
RTVSPropertyOp9
 70
     1
102
RTVSPropertyOp10
 70
     1
102
RTVSPropertyOp11
 70
     1
102
RTVSPropertyOp12
 70
     1
102
RTVSPropertyOp13
 70
     1
102
RTVSPropertyOp14
 70
     1
102
RTVSPropertyOp15
 70
     1
102
RTVSPropertyOp16
 70
     1
102
RTVSPropertyOp17
 70
     1
102
RTVSPropertyOp18
 70
     1
102
RTVSPropertyOp19
 70
     1
102
RTVSPropertyOp20
 70
     1
102
RTVSPropertyOp21
 70
     1
102
RTVSPropertyOp22
 70
     1
102
RTVSPropertyOp23
 70
     1
102
RTVSPropertyOp24
 70
     1
102
RTVSPropertyOp25
 70
     1
102
RTVSPropertyOp26
 70
     1
102
RTVSPropertyOp27
 70
     1
102
RTVSPropertyOp28
 70
     1
102
RTVSPropertyOp29
 70
     1
102
RTVSPropertyOp30
 70
     1
102
RTVSPropertyOp31
 70
     1
102
RTVSPropertyOp32
 70
     1
102
RTVSPropertyOp33
 70
     1
102
RTVSPropertyOp34
 70
     1
102
RTVSPropertyOp35
 70
     1
102
RTVSPropertyOp36
 70
     1
102
RTVSPropertyOp37
 70
     1
102
RTVSPropertyOp38
 70
     1
102
RTVSPropertyOp39
 70
     1
102
RTVSPropertyOp40
 70
     1
102
RTVSPropertyOp41
 70
     1
102
RTVSPropertyOp42
 70
     1
102
RTVSPropertyOp43
 70
     1
102
RTVSPropertyOp44
 70
     1
102
RTVSPropertyOp45
 70
     1
102
RTVSPropertyOp46
 70
     1
102
RTVSPropertyOp47
 70
     1
102
RTVSPropertyOp48
 70
     1
102
RTVSPropertyOp49
 70
     1
102
RTVSPropertyOp50
 70
     1
102
RTVSPropertyOp51
 70
     0
102
RTVSPropertyOp52
 70
     0
102
RTVSPropertyOp53
 70
     1
102
RTVSPropertyOp54
 70
     1
102
RTVSPropertyOp55
 70
     1
102
RTVSPropertyOp56
 70
     1
102
RTVSPropertyOp57
 70
     1
102
RTVSPost2010Prop28
280
     0
102
RTVSPost2010PropOp28
 70
     1
102
RTVSPost2010Prop29
280
     1
102
RTVSPost2010PropOp29
 70
     1
102
RTVSPost2010Prop30
280
     1
102
RTVSPost2010PropOp30
 70
     1
102
RTVSPost2010Prop31
280
     0
102
RTVSPost2010PropOp31
 70
     1
102
RTVSPost2010Prop32
280
     0
102
RTVSPost2010PropOp32
 70
     1
102
RTVSPost2010Prop33
280
     0
102
RTVSPost2010PropOp33
 70
     1
102
RTVSPost2010Prop34
280
     0
102
RTVSPost2010PropOp34
 70
     1
102
RTVSPost2010Prop35
280
     0
102
RTVSPost2010PropOp35
 70
     1
102
RTVSPost2010Prop36
280
     0
102
RTVSPost2010PropOp36
 70
     1
102
RTVSPost2010Prop37
 90
       50
102
RTVSPost2010PropOp37
 70
     1
102
RTVSPost2010Prop38
140
0.0
102
RTVSPost2010PropOp38
 70
     1
102
RTVSPost2010Prop39
140
1.0
102
RTVSPost2010PropOp39
 70
     1
102
RTVSPost2010Prop40
 90
        0
102
RTVSPost2010PropOp40
 70
     1
102
RTVSPost2010Prop41ColorIndex
 90
       18
102
RTVSPost2010Prop41ColorRGB
 90
        0
102
RTVSPost2010PropOp41
 70
     1
102
RTVSPost2010Prop42
 90
       50
102
RTVSPost2010PropOp42
 70
     1
102
RTVSPost2010Prop43
 90
        3
102
RTVSPost2010PropOp43
 70
     1
102
RTVSPost2010Prop44ColorIndex
 90
        5
102
RTVSPost2010Prop44ColorRGB
 90
      255
102
RTVSPost2010PropOp44
 70
     1
102
RTVSPost2010Prop45
280
     0
102
RTVSPost2010PropOp45
 70
     1
102
RTVSPost2010Prop46
 90
       50
102
RTVSPost2010PropOp46
 70
     1
102
RTVSPost2010Prop47
 90
       50
102
RTVSPost2010PropOp47
 70
     1
102
RTVSPost2010Prop48
 90
       50
102
RTVSPost2010PropOp48
 70
     1
102
RTVSPost2010Prop49
280
     0
102
RTVSPost2010PropOp49
 70
     1
102
RTVSPost2010Prop50
 90
       50
102
RTVSPost2010PropOp50
 70
     1
102
RTVSPost2010Prop51ColorIndex
 90
      256
102
RTVSPost2010Prop51ColorRGB
 90
-16777216
102
RTVSPost2010PropOp51
 70
     0
102
RTVSPost2010Prop52
140
1.0
102
RTVSPost2010PropOp52
 70
     0
102
RTVSPost2010Prop53
 90
        2
102
RTVSPost2010PropOp53
 70
     1
102
RTVSPost2010Prop54
  1
strokes_ogs.tif
102
RTVSPost2010PropOp54
 70
     1
102
RTVSPost2010Prop55
280
     0
102
RTVSPost2010PropOp55
 70
     1
102
RTVSPost2010Prop56
140
1.0
102
RTVSPost2010PropOp56
 70
     1
102
RTVSPost2010Prop57
140
1.0
102
RTVSPost2010PropOp57
 70
     1
  0
XRECORD
  5
390
102
{ACAD_REACTORS
330
38F
102
}
330
38F
100
AcDbXrecord
280
     1
102
RTVSPropertyOp0
 70
     1
102
RTVSPropertyOp1
 70
     1
102
RTVSPropertyOp2
 70
     1
102
RTVSPropertyOp3
 70
     1
102
RTVSPropertyOp4
 70
     1
102
RTVSPropertyOp5
 70
     1
102
RTVSPropertyOp6
 70
     1
102
RTVSPropertyOp7
 70
     1
102
RTVSPropertyOp8
 70
     1
102
RTVSPropertyOp9
 70
     1
102
RTVSPropertyOp10
 70
     1
102
RTVSPropertyOp11
 70
     1
102
RTVSPropertyOp12
 70
     1
102
RTVSPropertyOp13
 70
     1
102
RTVSPropertyOp14
 70
     1
102
RTVSPropertyOp15
 70
     1
102
RTVSPropertyOp16
 70
     1
102
RTVSPropertyOp17
 70
     1
102
RTVSPropertyOp18
 70
     1
102
RTVSPropertyOp19
 70
     1
102
RTVSPropertyOp20
 70
     1
102
RTVSPropertyOp21
 70
     1
102
RTVSPropertyOp22
 70
     1
102
RTVSPropertyOp23
 70
     1
102
RTVSPropertyOp24
 70
     1
102
RTVSPropertyOp25
 70
     1
102
RTVSPropertyOp26
 70
     1
102
RTVSPropertyOp27
 70
     1
102
RTVSPropertyOp28
 70
     1
102
RTVSPropertyOp29
 70
     1
102
RTVSPropertyOp30
 70
     1
102
RTVSPropertyOp31
 70
     1
102
RTVSPropertyOp32
 70
     1
102
RTVSPropertyOp33
 70
     1
102
RTVSPropertyOp34
 70
     1
102
RTVSPropertyOp35
 70
     1
102
RTVSPropertyOp36
 70
     1
102
RTVSPropertyOp37
 70
     1
102
RTVSPropertyOp38
 70
     1
102
RTVSPropertyOp39
 70
     1
102
RTVSPropertyOp40
 70
     1
102
RTVSPropertyOp41
 70
     1
102
RTVSPropertyOp42
 70
     1
102
RTVSPropertyOp43
 70
     1
102
RTVSPropertyOp44
 70
     1
102
RTVSPropertyOp45
 70
     1
102
RTVSPropertyOp46
 70
     1
102
RTVSPropertyOp47
 70
     1
102
RTVSPropertyOp48
 70
     1
102
RTVSPropertyOp49
 70
     1
102
RTVSPropertyOp50
 70
     1
102
RTVSPropertyOp51
 70
     0
102
RTVSPropertyOp52
 70
     0
102
RTVSPropertyOp53
 70
     1
102
RTVSPropertyOp54
 70
     1
102
RTVSPropertyOp55
 70
     1
102
RTVSPropertyOp56
 70
     1
102
RTVSPropertyOp57
 70
     1
102
RTVSPost2010Prop28
280
     0
102
RTVSPost2010PropOp28
 70
     1
102
RTVSPost2010Prop29
280
     1
102
RTVSPost2010PropOp29
 70
     1
102
RTVSPost2010Prop30
280
     1
102
RTVSPost2010PropOp30
 70
     1
102
RTVSPost2010Prop31
280
     0
102
RTVSPost2010PropOp31
 70
     1
102
RTVSPost2010Prop32
280
     0
102
RTVSPost2010PropOp32
 70
     1
102
RTVSPost2010Prop33
280
     0
102
RTVSPost2010PropOp33
 70
     1
102
RTVSPost2010Prop34
280
     0
102
RTVSPost2010PropOp34
 70
     1
102
RTVSPost2010Prop35
280
     0
102
RTVSPost2010PropOp35
 70
     1
102
RTVSPost2010Prop36
280
     0
102
RTVSPost2010PropOp36
 70
     1
102
RTVSPost2010Prop37
 90
       50
102
RTVSPost2010PropOp37
 70
     1
102
RTVSPost2010Prop38
140
0.0
102
RTVSPost2010PropOp38
 70
     1
102
RTVSPost2010Prop39
140
1.0
102
RTVSPost2010PropOp39
 70
     1
102
RTVSPost2010Prop40
 90
        0
102
RTVSPost2010PropOp40
 70
     1
102
RTVSPost2010Prop41ColorIndex
 90
       18
102
RTVSPost2010Prop41ColorRGB
 90
        0
102
RTVSPost2010PropOp41
 70
     1
102
RTVSPost2010Prop42
 90
       50
102
RTVSPost2010PropOp42
 70
     1
102
RTVSPost2010Prop43
 90
        3
102
RTVSPost2010PropOp43
 70
     1
102
RTVSPost2010Prop44ColorIndex
 90
        5
102
RTVSPost2010Prop44ColorRGB
 90
      255
102
RTVSPost2010PropOp44
 70
     1
102
RTVSPost2010Prop45
280
     0
102
RTVSPost2010PropOp45
 70
     1
102
RTVSPost2010Prop46
 90
       50
102
RTVSPost2010PropOp46
 70
     1
102
RTVSPost2010Prop47
 90
       50
102
RTVSPost2010PropOp47
 70
     1
102
RTVSPost2010Prop48
 90
       50
102
RTVSPost2010PropOp48
 70
     1
102
RTVSPost2010Prop49
280
     0
102
RTVSPost2010PropOp49
 70
     1
102
RTVSPost2010Prop50
 90
       50
102
RTVSPost2010PropOp50
 70
     1
102
RTVSPost2010Prop51ColorIndex
 90
      256
102
RTVSPost2010Prop51ColorRGB
 90
-16777216
102
RTVSPost2010PropOp51
 70
     0
102
RTVSPost2010Prop52
140
1.0
102
RTVSPost2010PropOp52
 70
     0
102
RTVSPost2010Prop53
 90
        2
102
RTVSPost2010PropOp53
 70
     1
102
RTVSPost2010Prop54
  1
strokes_ogs.tif
102
RTVSPost2010PropOp54
 70
     1
102
RTVSPost2010Prop55
280
     0
102
RTVSPost2010PropOp55
 70
     1
102
RTVSPost2010Prop56
140
1.0
102
RTVSPost2010PropOp56
 70
     1
102
RTVSPost2010Prop57
140
1.0
102
RTVSPost2010PropOp57
 70
     1
  0
XRECORD
  5
396
102
{ACAD_REACTORS
330
395
102
}
330
395
100
AcDbXrecord
280
     1
102
RTVSPropertyOp0
 70
     1
102
RTVSPropertyOp1
 70
     1
102
RTVSPropertyOp2
 70
     1
102
RTVSPropertyOp3
 70
     1
102
RTVSPropertyOp4
 70
     1
102
RTVSPropertyOp5
 70
     1
102
RTVSPropertyOp6
 70
     1
102
RTVSPropertyOp7
 70
     1
102
RTVSPropertyOp8
 70
     1
102
RTVSPropertyOp9
 70
     1
102
RTVSPropertyOp10
 70
     1
102
RTVSPropertyOp11
 70
     1
102
RTVSPropertyOp12
 70
     1
102
RTVSPropertyOp13
 70
     1
102
RTVSPropertyOp14
 70
     1
102
RTVSPropertyOp15
 70
     1
102
RTVSPropertyOp16
 70
     1
102
RTVSPropertyOp17
 70
     1
102
RTVSPropertyOp18
 70
     1
102
RTVSPropertyOp19
 70
     1
102
RTVSPropertyOp20
 70
     1
102
RTVSPropertyOp21
 70
     1
102
RTVSPropertyOp22
 70
     1
102
RTVSPropertyOp23
 70
     1
102
RTVSPropertyOp24
 70
     1
102
RTVSPropertyOp25
 70
     1
102
RTVSPropertyOp26
 70
     1
102
RTVSPropertyOp27
 70
     1
102
RTVSPropertyOp28
 70
     1
102
RTVSPropertyOp29
 70
     1
102
RTVSPropertyOp30
 70
     1
102
RTVSPropertyOp31
 70
     1
102
RTVSPropertyOp32
 70
     1
102
RTVSPropertyOp33
 70
     1
102
RTVSPropertyOp34
 70
     1
102
RTVSPropertyOp35
 70
     1
102
RTVSPropertyOp36
 70
     1
102
RTVSPropertyOp37
 70
     1
102
RTVSPropertyOp38
 70
     1
102
RTVSPropertyOp39
 70
     1
102
RTVSPropertyOp40
 70
     1
102
RTVSPropertyOp41
 70
     1
102
RTVSPropertyOp42
 70
     1
102
RTVSPropertyOp43
 70
     1
102
RTVSPropertyOp44
 70
     1
102
RTVSPropertyOp45
 70
     1
102
RTVSPropertyOp46
 70
     1
102
RTVSPropertyOp47
 70
     1
102
RTVSPropertyOp48
 70
     1
102
RTVSPropertyOp49
 70
     1
102
RTVSPropertyOp50
 70
     1
102
RTVSPropertyOp51
 70
     0
102
RTVSPropertyOp52
 70
     0
102
RTVSPropertyOp53
 70
     1
102
RTVSPropertyOp54
 70
     1
102
RTVSPropertyOp55
 70
     1
102
RTVSPropertyOp56
 70
     1
102
RTVSPropertyOp57
 70
     1
102
RTVSPost2010Prop28
280
     0
102
RTVSPost2010PropOp28
 70
     1
102
RTVSPost2010Prop29
280
     1
102
RTVSPost2010PropOp29
 70
     1
102
RTVSPost2010Prop30
280
     1
102
RTVSPost2010PropOp30
 70
     1
102
RTVSPost2010Prop31
280
     0
102
RTVSPost2010PropOp31
 70
     1
102
RTVSPost2010Prop32
280
     0
102
RTVSPost2010PropOp32
 70
     1
102
RTVSPost2010Prop33
280
     0
102
RTVSPost2010PropOp33
 70
     1
102
RTVSPost2010Prop34
280
     0
102
RTVSPost2010PropOp34
 70
     1
102
RTVSPost2010Prop35
280
     0
102
RTVSPost2010PropOp35
 70
     1
102
RTVSPost2010Prop36
280
     0
102
RTVSPost2010PropOp36
 70
     1
102
RTVSPost2010Prop37
 90
       50
102
RTVSPost2010PropOp37
 70
     1
102
RTVSPost2010Prop38
140
0.0
102
RTVSPost2010PropOp38
 70
     1
102
RTVSPost2010Prop39
140
1.0
102
RTVSPost2010PropOp39
 70
     1
102
RTVSPost2010Prop40
 90
        0
102
RTVSPost2010PropOp40
 70
     1
102
RTVSPost2010Prop41ColorIndex
 90
       18
102
RTVSPost2010Prop41ColorRGB
 90
        0
102
RTVSPost2010PropOp41
 70
     1
102
RTVSPost2010Prop42
 90
       50
102
RTVSPost2010PropOp42
 70
     1
102
RTVSPost2010Prop43
 90
        3
102
RTVSPost2010PropOp43
 70
     1
102
RTVSPost2010Prop44ColorIndex
 90
        5
102
RTVSPost2010Prop44ColorRGB
 90
      255
102
RTVSPost2010PropOp44
 70
     1
102
RTVSPost2010Prop45
280
     0
102
RTVSPost2010PropOp45
 70
     1
102
RTVSPost2010Prop46
 90
       50
102
RTVSPost2010PropOp46
 70
     1
102
RTVSPost2010Prop47
 90
       50
102
RTVSPost2010PropOp47
 70
     1
102
RTVSPost2010Prop48
 90
       50
102
RTVSPost2010PropOp48
 70
     1
102
RTVSPost2010Prop49
280
     0
102
RTVSPost2010PropOp49
 70
     1
102
RTVSPost2010Prop50
 90
       50
102
RTVSPost2010PropOp50
 70
     1
102
RTVSPost2010Prop51ColorIndex
 90
      256
102
RTVSPost2010Prop51ColorRGB
 90
-16777216
102
RTVSPost2010PropOp51
 70
     0
102
RTVSPost2010Prop52
140
1.0
102
RTVSPost2010PropOp52
 70
     0
102
RTVSPost2010Prop53
 90
        2
102
RTVSPost2010PropOp53
 70
     1
102
RTVSPost2010Prop54
  1
strokes_ogs.tif
102
RTVSPost2010PropOp54
 70
     1
102
RTVSPost2010Prop55
280
     0
102
RTVSPost2010PropOp55
 70
     1
102
RTVSPost2010Prop56
140
1.0
102
RTVSPost2010PropOp56
 70
     1
102
RTVSPost2010Prop57
140
1.0
102
RTVSPost2010PropOp57
 70
     1
  0
XRECORD
  5
3AA
102
{ACAD_REACTORS
330
3A9
102
}
330
3A9
100
AcDbXrecord
280
     1
102
RTVSPropertyOp0
 70
     0
102
RTVSPropertyOp1
 70
     0
102
RTVSPropertyOp2
 70
     0
102
RTVSPropertyOp3
 70
     0
102
RTVSPropertyOp4
 70
     0
102
RTVSPropertyOp5
 70
     0
102
RTVSPropertyOp6
 70
     0
102
RTVSPropertyOp7
 70
     0
102
RTVSPropertyOp8
 70
     0
102
RTVSPropertyOp9
 70
     0
102
RTVSPropertyOp10
 70
     0
102
RTVSPropertyOp11
 70
     0
102
RTVSPropertyOp12
 70
     0
102
RTVSPropertyOp13
 70
     0
102
RTVSPropertyOp14
 70
     2
102
RTVSPropertyOp15
 70
     0
102
RTVSPropertyOp16
 70
     0
102
RTVSPropertyOp17
 70
     0
102
RTVSPropertyOp18
 70
     0
102
RTVSPropertyOp19
 70
     0
102
RTVSPropertyOp20
 70
     0
102
RTVSPropertyOp21
 70
     0
102
RTVSPropertyOp22
 70
     0
102
RTVSPropertyOp23
 70
     0
102
RTVSPropertyOp24
 70
     0
102
RTVSPropertyOp25
 70
     0
102
RTVSPropertyOp26
 70
     0
102
RTVSPropertyOp27
 70
     0
102
RTVSPropertyOp28
 70
     0
102
RTVSPropertyOp29
 70
     0
102
RTVSPropertyOp30
 70
     0
102
RTVSPropertyOp31
 70
     0
102
RTVSPropertyOp32
 70
     0
102
RTVSPropertyOp33
 70
     0
102
RTVSPropertyOp34
 70
     0
102
RTVSPropertyOp35
 70
     0
102
RTVSPropertyOp36
 70
     0
102
RTVSPropertyOp37
 70
     0
102
RTVSPropertyOp38
 70
     0
102
RTVSPropertyOp39
 70
     0
102
RTVSPropertyOp40
 70
     0
102
RTVSPropertyOp41
 70
     0
102
RTVSPropertyOp42
 70
     0
102
RTVSPropertyOp43
 70
     0
102
RTVSPropertyOp44
 70
     0
102
RTVSPropertyOp45
 70
     0
102
RTVSPropertyOp46
 70
     0
102
RTVSPropertyOp47
 70
     0
102
RTVSPropertyOp48
 70
     0
102
RTVSPropertyOp49
 70
     0
102
RTVSPropertyOp50
 70
     0
102
RTVSPropertyOp51
 70
     0
102
RTVSPropertyOp52
 70
     0
102
RTVSPropertyOp53
 70
     0
102
RTVSPropertyOp54
 70
     0
102
RTVSPropertyOp55
 70
     0
102
RTVSPropertyOp56
 70
     0
102
RTVSPropertyOp57
 70
     0
102
RTVSPost2010Prop28
280
     0
102
RTVSPost2010PropOp28
 70
     0
102
RTVSPost2010Prop29
280
     1
102
RTVSPost2010PropOp29
 70
     0
102
RTVSPost2010Prop30
280
     1
102
RTVSPost2010PropOp30
 70
     0
102
RTVSPost2010Prop31
280
     0
102
RTVSPost2010PropOp31
 70
     0
102
RTVSPost2010Prop32
280
     0
102
RTVSPost2010PropOp32
 70
     0
102
RTVSPost2010Prop33
280
     0
102
RTVSPost2010PropOp33
 70
     0
102
RTVSPost2010Prop34
280
     0
102
RTVSPost2010PropOp34
 70
     0
102
RTVSPost2010Prop35
280
     0
102
RTVSPost2010PropOp35
 70
     0
102
RTVSPost2010Prop36
280
     0
102
RTVSPost2010PropOp36
 70
     0
102
RTVSPost2010Prop37
 90
       50
102
RTVSPost2010PropOp37
 70
     0
102
RTVSPost2010Prop38
140
0.0
102
RTVSPost2010PropOp38
 70
     0
102
RTVSPost2010Prop39
140
1.0
102
RTVSPost2010PropOp39
 70
     0
102
RTVSPost2010Prop40
 90
        0
102
RTVSPost2010PropOp40
 70
     0
102
RTVSPost2010Prop41ColorIndex
 90
       18
102
RTVSPost2010Prop41ColorRGB
 90
        0
102
RTVSPost2010PropOp41
 70
     0
102
RTVSPost2010Prop42
 90
       50
102
RTVSPost2010PropOp42
 70
     0
102
RTVSPost2010Prop43
 90
        3
102
RTVSPost2010PropOp43
 70
     0
102
RTVSPost2010Prop44ColorIndex
 90
        5
102
RTVSPost2010Prop44ColorRGB
 90
      255
102
RTVSPost2010PropOp44
 70
     0
102
RTVSPost2010Prop45
280
     0
102
RTVSPost2010PropOp45
 70
     0
102
RTVSPost2010Prop46
 90
       50
102
RTVSPost2010PropOp46
 70
     0
102
RTVSPost2010Prop47
 90
       50
102
RTVSPost2010PropOp47
 70
     0
102
RTVSPost2010Prop48
 90
       50
102
RTVSPost2010PropOp48
 70
     0
102
RTVSPost2010Prop49
280
     0
102
RTVSPost2010PropOp49
 70
     0
102
RTVSPost2010Prop50
 90
       50
102
RTVSPost2010PropOp50
 70
     0
102
RTVSPost2010Prop51ColorIndex
 90
      256
102
RTVSPost2010Prop51ColorRGB
 90
-16777216
102
RTVSPost2010PropOp51
 70
     0
102
RTVSPost2010Prop52
140
1.0
102
RTVSPost2010PropOp52
 70
     0
102
RTVSPost2010Prop53
 90
        2
102
RTVSPost2010PropOp53
 70
     0
102
RTVSPost2010Prop54
  1
strokes_ogs.tif
102
RTVSPost2010PropOp54
 70
     0
102
RTVSPost2010Prop55
280
     0
102
RTVSPost2010PropOp55
 70
     0
102
RTVSPost2010Prop56
140
1.0
102
RTVSPost2010PropOp56
 70
     0
102
RTVSPost2010Prop57
140
1.0
102
RTVSPost2010PropOp57
 70
     0
  0
XRECORD
  5
3A4
102
{ACAD_REACTORS
330
3A3
102
}
330
3A3
100
AcDbXrecord
280
     1
102
RTVSPropertyOp0
 70
     1
102
RTVSPropertyOp1
 70
     1
102
RTVSPropertyOp2
 70
     1
102
RTVSPropertyOp3
 70
     1
102
RTVSPropertyOp4
 70
     1
102
RTVSPropertyOp5
 70
     1
102
RTVSPropertyOp6
 70
     1
102
RTVSPropertyOp7
 70
     1
102
RTVSPropertyOp8
 70
     1
102
RTVSPropertyOp9
 70
     1
102
RTVSPropertyOp10
 70
     1
102
RTVSPropertyOp11
 70
     1
102
RTVSPropertyOp12
 70
     1
102
RTVSPropertyOp13
 70
     1
102
RTVSPropertyOp14
 70
     1
102
RTVSPropertyOp15
 70
     1
102
RTVSPropertyOp16
 70
     1
102
RTVSPropertyOp17
 70
     1
102
RTVSPropertyOp18
 70
     1
102
RTVSPropertyOp19
 70
     1
102
RTVSPropertyOp20
 70
     1
102
RTVSPropertyOp21
 70
     1
102
RTVSPropertyOp22
 70
     1
102
RTVSPropertyOp23
 70
     1
102
RTVSPropertyOp24
 70
     1
102
RTVSPropertyOp25
 70
     1
102
RTVSPropertyOp26
 70
     1
102
RTVSPropertyOp27
 70
     1
102
RTVSPropertyOp28
 70
     1
102
RTVSPropertyOp29
 70
     1
102
RTVSPropertyOp30
 70
     1
102
RTVSPropertyOp31
 70
     1
102
RTVSPropertyOp32
 70
     1
102
RTVSPropertyOp33
 70
     1
102
RTVSPropertyOp34
 70
     1
102
RTVSPropertyOp35
 70
     1
102
RTVSPropertyOp36
 70
     1
102
RTVSPropertyOp37
 70
     1
102
RTVSPropertyOp38
 70
     1
102
RTVSPropertyOp39
 70
     1
102
RTVSPropertyOp40
 70
     1
102
RTVSPropertyOp41
 70
     1
102
RTVSPropertyOp42
 70
     1
102
RTVSPropertyOp43
 70
     1
102
RTVSPropertyOp44
 70
     1
102
RTVSPropertyOp45
 70
     1
102
RTVSPropertyOp46
 70
     1
102
RTVSPropertyOp47
 70
     1
102
RTVSPropertyOp48
 70
     1
102
RTVSPropertyOp49
 70
     1
102
RTVSPropertyOp50
 70
     1
102
RTVSPropertyOp51
 70
     0
102
RTVSPropertyOp52
 70
     0
102
RTVSPropertyOp53
 70
     1
102
RTVSPropertyOp54
 70
     1
102
RTVSPropertyOp55
 70
     1
102
RTVSPropertyOp56
 70
     1
102
RTVSPropertyOp57
 70
     1
102
RTVSPost2010Prop28
280
     0
102
RTVSPost2010PropOp28
 70
     1
102
RTVSPost2010Prop29
280
     1
102
RTVSPost2010PropOp29
 70
     1
102
RTVSPost2010Prop30
280
     1
102
RTVSPost2010PropOp30
 70
     1
102
RTVSPost2010Prop31
280
     0
102
RTVSPost2010PropOp31
 70
     1
102
RTVSPost2010Prop32
280
     0
102
RTVSPost2010PropOp32
 70
     1
102
RTVSPost2010Prop33
280
     0
102
RTVSPost2010PropOp33
 70
     1
102
RTVSPost2010Prop34
280
     0
102
RTVSPost2010PropOp34
 70
     1
102
RTVSPost2010Prop35
280
     0
102
RTVSPost2010PropOp35
 70
     1
102
RTVSPost2010Prop36
280
     0
102
RTVSPost2010PropOp36
 70
     1
102
RTVSPost2010Prop37
 90
       50
102
RTVSPost2010PropOp37
 70
     1
102
RTVSPost2010Prop38
140
0.0
102
RTVSPost2010PropOp38
 70
     1
102
RTVSPost2010Prop39
140
1.0
102
RTVSPost2010PropOp39
 70
     1
102
RTVSPost2010Prop40
 90
        0
102
RTVSPost2010PropOp40
 70
     1
102
RTVSPost2010Prop41ColorIndex
 90
       18
102
RTVSPost2010Prop41ColorRGB
 90
        0
102
RTVSPost2010PropOp41
 70
     1
102
RTVSPost2010Prop42
 90
       50
102
RTVSPost2010PropOp42
 70
     1
102
RTVSPost2010Prop43
 90
        3
102
RTVSPost2010PropOp43
 70
     1
102
RTVSPost2010Prop44ColorIndex
 90
        5
102
RTVSPost2010Prop44ColorRGB
 90
      255
102
RTVSPost2010PropOp44
 70
     1
102
RTVSPost2010Prop45
280
     0
102
RTVSPost2010PropOp45
 70
     1
102
RTVSPost2010Prop46
 90
       50
102
RTVSPost2010PropOp46
 70
     1
102
RTVSPost2010Prop47
 90
       50
102
RTVSPost2010PropOp47
 70
     1
102
RTVSPost2010Prop48
 90
       50
102
RTVSPost2010PropOp48
 70
     1
102
RTVSPost2010Prop49
280
     0
102
RTVSPost2010PropOp49
 70
     1
102
RTVSPost2010Prop50
 90
       50
102
RTVSPost2010PropOp50
 70
     1
102
RTVSPost2010Prop51ColorIndex
 90
      256
102
RTVSPost2010Prop51ColorRGB
 90
-16777216
102
RTVSPost2010PropOp51
 70
     0
102
RTVSPost2010Prop52
140
1.0
102
RTVSPost2010PropOp52
 70
     0
102
RTVSPost2010Prop53
 90
        2
102
RTVSPost2010PropOp53
 70
     1
102
RTVSPost2010Prop54
  1
strokes_ogs.tif
102
RTVSPost2010PropOp54
 70
     1
102
RTVSPost2010Prop55
280
     0
102
RTVSPost2010PropOp55
 70
     1
102
RTVSPost2010Prop56
140
1.0
102
RTVSPost2010PropOp56
 70
     1
102
RTVSPost2010Prop57
140
1.0
102
RTVSPost2010PropOp57
 70
     1
  0
XRECORD
  5
3AC
102
{ACAD_REACTORS
330
3AB
102
}
330
3AB
100
AcDbXrecord
280
     1
102
RTVSPropertyOp0
 70
     0
102
RTVSPropertyOp1
 70
     0
102
RTVSPropertyOp2
 70
     0
102
RTVSPropertyOp3
 70
     0
102
RTVSPropertyOp4
 70
     0
102
RTVSPropertyOp5
 70
     0
102
RTVSPropertyOp6
 70
     0
102
RTVSPropertyOp7
 70
     0
102
RTVSPropertyOp8
 70
     0
102
RTVSPropertyOp9
 70
     0
102
RTVSPropertyOp10
 70
     0
102
RTVSPropertyOp11
 70
     0
102
RTVSPropertyOp12
 70
     0
102
RTVSPropertyOp13
 70
     0
102
RTVSPropertyOp14
 70
     2
102
RTVSPropertyOp15
 70
     0
102
RTVSPropertyOp16
 70
     0
102
RTVSPropertyOp17
 70
     0
102
RTVSPropertyOp18
 70
     0
102
RTVSPropertyOp19
 70
     0
102
RTVSPropertyOp20
 70
     0
102
RTVSPropertyOp21
 70
     0
102
RTVSPropertyOp22
 70
     0
102
RTVSPropertyOp23
 70
     0
102
RTVSPropertyOp24
 70
     0
102
RTVSPropertyOp25
 70
     0
102
RTVSPropertyOp26
 70
     0
102
RTVSPropertyOp27
 70
     0
102
RTVSPropertyOp28
 70
     0
102
RTVSPropertyOp29
 70
     0
102
RTVSPropertyOp30
 70
     0
102
RTVSPropertyOp31
 70
     0
102
RTVSPropertyOp32
 70
     0
102
RTVSPropertyOp33
 70
     0
102
RTVSPropertyOp34
 70
     0
102
RTVSPropertyOp35
 70
     0
102
RTVSPropertyOp36
 70
     0
102
RTVSPropertyOp37
 70
     0
102
RTVSPropertyOp38
 70
     0
102
RTVSPropertyOp39
 70
     0
102
RTVSPropertyOp40
 70
     0
102
RTVSPropertyOp41
 70
     0
102
RTVSPropertyOp42
 70
     0
102
RTVSPropertyOp43
 70
     0
102
RTVSPropertyOp44
 70
     0
102
RTVSPropertyOp45
 70
     0
102
RTVSPropertyOp46
 70
     0
102
RTVSPropertyOp47
 70
     0
102
RTVSPropertyOp48
 70
     0
102
RTVSPropertyOp49
 70
     0
102
RTVSPropertyOp50
 70
     0
102
RTVSPropertyOp51
 70
     0
102
RTVSPropertyOp52
 70
     0
102
RTVSPropertyOp53
 70
     0
102
RTVSPropertyOp54
 70
     0
102
RTVSPropertyOp55
 70
     0
102
RTVSPropertyOp56
 70
     0
102
RTVSPropertyOp57
 70
     0
102
RTVSPost2010Prop28
280
     0
102
RTVSPost2010PropOp28
 70
     0
102
RTVSPost2010Prop29
280
     1
102
RTVSPost2010PropOp29
 70
     0
102
RTVSPost2010Prop30
280
     1
102
RTVSPost2010PropOp30
 70
     0
102
RTVSPost2010Prop31
280
     0
102
RTVSPost2010PropOp31
 70
     0
102
RTVSPost2010Prop32
280
     0
102
RTVSPost2010PropOp32
 70
     0
102
RTVSPost2010Prop33
280
     0
102
RTVSPost2010PropOp33
 70
     0
102
RTVSPost2010Prop34
280
     0
102
RTVSPost2010PropOp34
 70
     0
102
RTVSPost2010Prop35
280
     0
102
RTVSPost2010PropOp35
 70
     0
102
RTVSPost2010Prop36
280
     0
102
RTVSPost2010PropOp36
 70
     0
102
RTVSPost2010Prop37
 90
       50
102
RTVSPost2010PropOp37
 70
     0
102
RTVSPost2010Prop38
140
0.0
102
RTVSPost2010PropOp38
 70
     0
102
RTVSPost2010Prop39
140
1.0
102
RTVSPost2010PropOp39
 70
     0
102
RTVSPost2010Prop40
 90
        0
102
RTVSPost2010PropOp40
 70
     0
102
RTVSPost2010Prop41ColorIndex
 90
       18
102
RTVSPost2010Prop41ColorRGB
 90
        0
102
RTVSPost2010PropOp41
 70
     0
102
RTVSPost2010Prop42
 90
       50
102
RTVSPost2010PropOp42
 70
     0
102
RTVSPost2010Prop43
 90
        3
102
RTVSPost2010PropOp43
 70
     0
102
RTVSPost2010Prop44ColorIndex
 90
        5
102
RTVSPost2010Prop44ColorRGB
 90
      255
102
RTVSPost2010PropOp44
 70
     0
102
RTVSPost2010Prop45
280
     0
102
RTVSPost2010PropOp45
 70
     0
102
RTVSPost2010Prop46
 90
       50
102
RTVSPost2010PropOp46
 70
     0
102
RTVSPost2010Prop47
 90
       50
102
RTVSPost2010PropOp47
 70
     0
102
RTVSPost2010Prop48
 90
       50
102
RTVSPost2010PropOp48
 70
     0
102
RTVSPost2010Prop49
280
     0
102
RTVSPost2010PropOp49
 70
     0
102
RTVSPost2010Prop50
 90
       50
102
RTVSPost2010PropOp50
 70
     0
102
RTVSPost2010Prop51ColorIndex
 90
      256
102
RTVSPost2010Prop51ColorRGB
 90
-16777216
102
RTVSPost2010PropOp51
 70
     0
102
RTVSPost2010Prop52
140
1.0
102
RTVSPost2010PropOp52
 70
     0
102
RTVSPost2010Prop53
 90
        2
102
RTVSPost2010PropOp53
 70
     0
102
RTVSPost2010Prop54
  1
strokes_ogs.tif
102
RTVSPost2010PropOp54
 70
     0
102
RTVSPost2010Prop55
280
     0
102
RTVSPost2010PropOp55
 70
     0
102
RTVSPost2010Prop56
140
1.0
102
RTVSPost2010PropOp56
 70
     0
102
RTVSPost2010Prop57
140
1.0
102
RTVSPost2010PropOp57
 70
     0
  0
XRECORD
  5
39A
102
{ACAD_REACTORS
330
399
102
}
330
399
100
AcDbXrecord
280
     1
102
RTVSPropertyOp0
 70
     1
102
RTVSPropertyOp1
 70
     1
102
RTVSPropertyOp2
 70
     1
102
RTVSPropertyOp3
 70
     1
102
RTVSPropertyOp4
 70
     1
102
RTVSPropertyOp5
 70
     1
102
RTVSPropertyOp6
 70
     1
102
RTVSPropertyOp7
 70
     1
102
RTVSPropertyOp8
 70
     1
102
RTVSPropertyOp9
 70
     1
102
RTVSPropertyOp10
 70
     1
102
RTVSPropertyOp11
 70
     1
102
RTVSPropertyOp12
 70
     1
102
RTVSPropertyOp13
 70
     1
102
RTVSPropertyOp14
 70
     1
102
RTVSPropertyOp15
 70
     1
102
RTVSPropertyOp16
 70
     1
102
RTVSPropertyOp17
 70
     1
102
RTVSPropertyOp18
 70
     1
102
RTVSPropertyOp19
 70
     1
102
RTVSPropertyOp20
 70
     1
102
RTVSPropertyOp21
 70
     1
102
RTVSPropertyOp22
 70
     1
102
RTVSPropertyOp23
 70
     1
102
RTVSPropertyOp24
 70
     1
102
RTVSPropertyOp25
 70
     1
102
RTVSPropertyOp26
 70
     1
102
RTVSPropertyOp27
 70
     1
102
RTVSPropertyOp28
 70
     1
102
RTVSPropertyOp29
 70
     1
102
RTVSPropertyOp30
 70
     1
102
RTVSPropertyOp31
 70
     1
102
RTVSPropertyOp32
 70
     1
102
RTVSPropertyOp33
 70
     1
102
RTVSPropertyOp34
 70
     1
102
RTVSPropertyOp35
 70
     1
102
RTVSPropertyOp36
 70
     1
102
RTVSPropertyOp37
 70
     1
102
RTVSPropertyOp38
 70
     1
102
RTVSPropertyOp39
 70
     1
102
RTVSPropertyOp40
 70
     1
102
RTVSPropertyOp41
 70
     1
102
RTVSPropertyOp42
 70
     1
102
RTVSPropertyOp43
 70
     1
102
RTVSPropertyOp44
 70
     1
102
RTVSPropertyOp45
 70
     1
102
RTVSPropertyOp46
 70
     1
102
RTVSPropertyOp47
 70
     1
102
RTVSPropertyOp48
 70
     1
102
RTVSPropertyOp49
 70
     1
102
RTVSPropertyOp50
 70
     1
102
RTVSPropertyOp51
 70
     0
102
RTVSPropertyOp52
 70
     0
102
RTVSPropertyOp53
 70
     1
102
RTVSPropertyOp54
 70
     1
102
RTVSPropertyOp55
 70
     1
102
RTVSPropertyOp56
 70
     1
102
RTVSPropertyOp57
 70
     1
102
RTVSPost2010Prop28
280
     0
102
RTVSPost2010PropOp28
 70
     1
102
RTVSPost2010Prop29
280
     1
102
RTVSPost2010PropOp29
 70
     1
102
RTVSPost2010Prop30
280
     1
102
RTVSPost2010PropOp30
 70
     1
102
RTVSPost2010Prop31
280
     0
102
RTVSPost2010PropOp31
 70
     1
102
RTVSPost2010Prop32
280
     0
102
RTVSPost2010PropOp32
 70
     1
102
RTVSPost2010Prop33
280
     0
102
RTVSPost2010PropOp33
 70
     1
102
RTVSPost2010Prop34
280
     0
102
RTVSPost2010PropOp34
 70
     1
102
RTVSPost2010Prop35
280
     0
102
RTVSPost2010PropOp35
 70
     1
102
RTVSPost2010Prop36
280
     0
102
RTVSPost2010PropOp36
 70
     1
102
RTVSPost2010Prop37
 90
       50
102
RTVSPost2010PropOp37
 70
     1
102
RTVSPost2010Prop38
140
0.0
102
RTVSPost2010PropOp38
 70
     1
102
RTVSPost2010Prop39
140
1.0
102
RTVSPost2010PropOp39
 70
     1
102
RTVSPost2010Prop40
 90
        0
102
RTVSPost2010PropOp40
 70
     1
102
RTVSPost2010Prop41ColorIndex
 90
       18
102
RTVSPost2010Prop41ColorRGB
 90
        0
102
RTVSPost2010PropOp41
 70
     1
102
RTVSPost2010Prop42
 90
       50
102
RTVSPost2010PropOp42
 70
     1
102
RTVSPost2010Prop43
 90
        3
102
RTVSPost2010PropOp43
 70
     1
102
RTVSPost2010Prop44ColorIndex
 90
        5
102
RTVSPost2010Prop44ColorRGB
 90
      255
102
RTVSPost2010PropOp44
 70
     1
102
RTVSPost2010Prop45
280
     0
102
RTVSPost2010PropOp45
 70
     1
102
RTVSPost2010Prop46
 90
       50
102
RTVSPost2010PropOp46
 70
     1
102
RTVSPost2010Prop47
 90
       50
102
RTVSPost2010PropOp47
 70
     1
102
RTVSPost2010Prop48
 90
       50
102
RTVSPost2010PropOp48
 70
     1
102
RTVSPost2010Prop49
280
     0
102
RTVSPost2010PropOp49
 70
     1
102
RTVSPost2010Prop50
 90
       50
102
RTVSPost2010PropOp50
 70
     1
102
RTVSPost2010Prop51ColorIndex
 90
      256
102
RTVSPost2010Prop51ColorRGB
 90
-16777216
102
RTVSPost2010PropOp51
 70
     0
102
RTVSPost2010Prop52
140
1.0
102
RTVSPost2010PropOp52
 70
     0
102
RTVSPost2010Prop53
 90
        2
102
RTVSPost2010PropOp53
 70
     1
102
RTVSPost2010Prop54
  1
strokes_ogs.tif
102
RTVSPost2010PropOp54
 70
     1
102
RTVSPost2010Prop55
280
     0
102
RTVSPost2010PropOp55
 70
     1
102
RTVSPost2010Prop56
140
1.0
102
RTVSPost2010PropOp56
 70
     1
102
RTVSPost2010Prop57
140
1.0
102
RTVSPost2010PropOp57
 70
     1
  0
XRECORD
  5
3B8
102
{ACAD_REACTORS
330
3B7
102
}
330
3B7
100
AcDbXrecord
280
     1
102
RTVSPropertyOp0
 70
     1
102
RTVSPropertyOp1
 70
     1
102
RTVSPropertyOp2
 70
     1
102
RTVSPropertyOp3
 70
     1
102
RTVSPropertyOp4
 70
     1
102
RTVSPropertyOp5
 70
     1
102
RTVSPropertyOp6
 70
     1
102
RTVSPropertyOp7
 70
     1
102
RTVSPropertyOp8
 70
     1
102
RTVSPropertyOp9
 70
     1
102
RTVSPropertyOp10
 70
     1
102
RTVSPropertyOp11
 70
     1
102
RTVSPropertyOp12
 70
     1
102
RTVSPropertyOp13
 70
     1
102
RTVSPropertyOp14
 70
     1
102
RTVSPropertyOp15
 70
     1
102
RTVSPropertyOp16
 70
     1
102
RTVSPropertyOp17
 70
     1
102
RTVSPropertyOp18
 70
     1
102
RTVSPropertyOp19
 70
     1
102
RTVSPropertyOp20
 70
     1
102
RTVSPropertyOp21
 70
     1
102
RTVSPropertyOp22
 70
     1
102
RTVSPropertyOp23
 70
     1
102
RTVSPropertyOp24
 70
     1
102
RTVSPropertyOp25
 70
     1
102
RTVSPropertyOp26
 70
     1
102
RTVSPropertyOp27
 70
     1
102
RTVSPropertyOp28
 70
     1
102
RTVSPropertyOp29
 70
     1
102
RTVSPropertyOp30
 70
     1
102
RTVSPropertyOp31
 70
     1
102
RTVSPropertyOp32
 70
     1
102
RTVSPropertyOp33
 70
     1
102
RTVSPropertyOp34
 70
     1
102
RTVSPropertyOp35
 70
     1
102
RTVSPropertyOp36
 70
     1
102
RTVSPropertyOp37
 70
     1
102
RTVSPropertyOp38
 70
     1
102
RTVSPropertyOp39
 70
     1
102
RTVSPropertyOp40
 70
     1
102
RTVSPropertyOp41
 70
     1
102
RTVSPropertyOp42
 70
     1
102
RTVSPropertyOp43
 70
     1
102
RTVSPropertyOp44
 70
     1
102
RTVSPropertyOp45
 70
     1
102
RTVSPropertyOp46
 70
     1
102
RTVSPropertyOp47
 70
     1
102
RTVSPropertyOp48
 70
     1
102
RTVSPropertyOp49
 70
     1
102
RTVSPropertyOp50
 70
     1
102
RTVSPropertyOp51
 70
     0
102
RTVSPropertyOp52
 70
     0
102
RTVSPropertyOp53
 70
     1
102
RTVSPropertyOp54
 70
     1
102
RTVSPropertyOp55
 70
     1
102
RTVSPropertyOp56
 70
     1
102
RTVSPropertyOp57
 70
     1
102
RTVSPost2010Prop28
280
     0
102
RTVSPost2010PropOp28
 70
     1
102
RTVSPost2010Prop29
280
     1
102
RTVSPost2010PropOp29
 70
     1
102
RTVSPost2010Prop30
280
     1
102
RTVSPost2010PropOp30
 70
     1
102
RTVSPost2010Prop31
280
     0
102
RTVSPost2010PropOp31
 70
     1
102
RTVSPost2010Prop32
280
     0
102
RTVSPost2010PropOp32
 70
     1
102
RTVSPost2010Prop33
280
     0
102
RTVSPost2010PropOp33
 70
     1
102
RTVSPost2010Prop34
280
     0
102
RTVSPost2010PropOp34
 70
     1
102
RTVSPost2010Prop35
280
     0
102
RTVSPost2010PropOp35
 70
     1
102
RTVSPost2010Prop36
280
     0
102
RTVSPost2010PropOp36
 70
     1
102
RTVSPost2010Prop37
 90
       50
102
RTVSPost2010PropOp37
 70
     1
102
RTVSPost2010Prop38
140
0.0
102
RTVSPost2010PropOp38
 70
     1
102
RTVSPost2010Prop39
140
1.0
102
RTVSPost2010PropOp39
 70
     1
102
RTVSPost2010Prop40
 90
        0
102
RTVSPost2010PropOp40
 70
     1
102
RTVSPost2010Prop41ColorIndex
 90
       18
102
RTVSPost2010Prop41ColorRGB
 90
        0
102
RTVSPost2010PropOp41
 70
     1
102
RTVSPost2010Prop42
 90
       50
102
RTVSPost2010PropOp42
 70
     1
102
RTVSPost2010Prop43
 90
        3
102
RTVSPost2010PropOp43
 70
     1
102
RTVSPost2010Prop44ColorIndex
 90
        5
102
RTVSPost2010Prop44ColorRGB
 90
      255
102
RTVSPost2010PropOp44
 70
     1
102
RTVSPost2010Prop45
280
     0
102
RTVSPost2010PropOp45
 70
     1
102
RTVSPost2010Prop46
 90
       50
102
RTVSPost2010PropOp46
 70
     1
102
RTVSPost2010Prop47
 90
       50
102
RTVSPost2010PropOp47
 70
     1
102
RTVSPost2010Prop48
 90
       50
102
RTVSPost2010PropOp48
 70
     1
102
RTVSPost2010Prop49
280
     0
102
RTVSPost2010PropOp49
 70
     1
102
RTVSPost2010Prop50
 90
       50
102
RTVSPost2010PropOp50
 70
     1
102
RTVSPost2010Prop51ColorIndex
 90
      256
102
RTVSPost2010Prop51ColorRGB
 90
-16777216
102
RTVSPost2010PropOp51
 70
     0
102
RTVSPost2010Prop52
140
1.0
102
RTVSPost2010PropOp52
 70
     0
102
RTVSPost2010Prop53
 90
        2
102
RTVSPost2010PropOp53
 70
     1
102
RTVSPost2010Prop54
  1
strokes_ogs.tif
102
RTVSPost2010PropOp54
 70
     1
102
RTVSPost2010Prop55
280
     0
102
RTVSPost2010PropOp55
 70
     1
102
RTVSPost2010Prop56
140
1.0
102
RTVSPost2010PropOp56
 70
     1
102
RTVSPost2010Prop57
140
1.0
102
RTVSPost2010PropOp57
 70
     1
  0
XRECORD
  5
3B6
102
{ACAD_REACTORS
330
3B5
102
}
330
3B5
100
AcDbXrecord
280
     1
102
RTVSPropertyOp0
 70
     1
102
RTVSPropertyOp1
 70
     1
102
RTVSPropertyOp2
 70
     1
102
RTVSPropertyOp3
 70
     1
102
RTVSPropertyOp4
 70
     1
102
RTVSPropertyOp5
 70
     1
102
RTVSPropertyOp6
 70
     1
102
RTVSPropertyOp7
 70
     1
102
RTVSPropertyOp8
 70
     1
102
RTVSPropertyOp9
 70
     1
102
RTVSPropertyOp10
 70
     1
102
RTVSPropertyOp11
 70
     1
102
RTVSPropertyOp12
 70
     1
102
RTVSPropertyOp13
 70
     1
102
RTVSPropertyOp14
 70
     1
102
RTVSPropertyOp15
 70
     1
102
RTVSPropertyOp16
 70
     1
102
RTVSPropertyOp17
 70
     1
102
RTVSPropertyOp18
 70
     1
102
RTVSPropertyOp19
 70
     1
102
RTVSPropertyOp20
 70
     1
102
RTVSPropertyOp21
 70
     1
102
RTVSPropertyOp22
 70
     1
102
RTVSPropertyOp23
 70
     1
102
RTVSPropertyOp24
 70
     1
102
RTVSPropertyOp25
 70
     1
102
RTVSPropertyOp26
 70
     1
102
RTVSPropertyOp27
 70
     1
102
RTVSPropertyOp28
 70
     1
102
RTVSPropertyOp29
 70
     1
102
RTVSPropertyOp30
 70
     1
102
RTVSPropertyOp31
 70
     1
102
RTVSPropertyOp32
 70
     1
102
RTVSPropertyOp33
 70
     1
102
RTVSPropertyOp34
 70
     1
102
RTVSPropertyOp35
 70
     1
102
RTVSPropertyOp36
 70
     1
102
RTVSPropertyOp37
 70
     1
102
RTVSPropertyOp38
 70
     1
102
RTVSPropertyOp39
 70
     1
102
RTVSPropertyOp40
 70
     1
102
RTVSPropertyOp41
 70
     1
102
RTVSPropertyOp42
 70
     1
102
RTVSPropertyOp43
 70
     1
102
RTVSPropertyOp44
 70
     1
102
RTVSPropertyOp45
 70
     1
102
RTVSPropertyOp46
 70
     1
102
RTVSPropertyOp47
 70
     1
102
RTVSPropertyOp48
 70
     1
102
RTVSPropertyOp49
 70
     1
102
RTVSPropertyOp50
 70
     1
102
RTVSPropertyOp51
 70
     0
102
RTVSPropertyOp52
 70
     0
102
RTVSPropertyOp53
 70
     1
102
RTVSPropertyOp54
 70
     1
102
RTVSPropertyOp55
 70
     1
102
RTVSPropertyOp56
 70
     1
102
RTVSPropertyOp57
 70
     1
102
RTVSPost2010Prop28
280
     0
102
RTVSPost2010PropOp28
 70
     1
102
RTVSPost2010Prop29
280
     1
102
RTVSPost2010PropOp29
 70
     1
102
RTVSPost2010Prop30
280
     1
102
RTVSPost2010PropOp30
 70
     1
102
RTVSPost2010Prop31
280
     0
102
RTVSPost2010PropOp31
 70
     1
102
RTVSPost2010Prop32
280
     0
102
RTVSPost2010PropOp32
 70
     1
102
RTVSPost2010Prop33
280
     0
102
RTVSPost2010PropOp33
 70
     1
102
RTVSPost2010Prop34
280
     0
102
RTVSPost2010PropOp34
 70
     1
102
RTVSPost2010Prop35
280
     0
102
RTVSPost2010PropOp35
 70
     1
102
RTVSPost2010Prop36
280
     0
102
RTVSPost2010PropOp36
 70
     1
102
RTVSPost2010Prop37
 90
       50
102
RTVSPost2010PropOp37
 70
     1
102
RTVSPost2010Prop38
140
0.0
102
RTVSPost2010PropOp38
 70
     1
102
RTVSPost2010Prop39
140
1.0
102
RTVSPost2010PropOp39
 70
     1
102
RTVSPost2010Prop40
 90
        0
102
RTVSPost2010PropOp40
 70
     1
102
RTVSPost2010Prop41ColorIndex
 90
       18
102
RTVSPost2010Prop41ColorRGB
 90
        0
102
RTVSPost2010PropOp41
 70
     1
102
RTVSPost2010Prop42
 90
       50
102
RTVSPost2010PropOp42
 70
     1
102
RTVSPost2010Prop43
 90
        3
102
RTVSPost2010PropOp43
 70
     1
102
RTVSPost2010Prop44ColorIndex
 90
        5
102
RTVSPost2010Prop44ColorRGB
 90
      255
102
RTVSPost2010PropOp44
 70
     1
102
RTVSPost2010Prop45
280
     0
102
RTVSPost2010PropOp45
 70
     1
102
RTVSPost2010Prop46
 90
       50
102
RTVSPost2010PropOp46
 70
     1
102
RTVSPost2010Prop47
 90
       50
102
RTVSPost2010PropOp47
 70
     1
102
RTVSPost2010Prop48
 90
       50
102
RTVSPost2010PropOp48
 70
     1
102
RTVSPost2010Prop49
280
     0
102
RTVSPost2010PropOp49
 70
     1
102
RTVSPost2010Prop50
 90
       50
102
RTVSPost2010PropOp50
 70
     1
102
RTVSPost2010Prop51ColorIndex
 90
      256
102
RTVSPost2010Prop51ColorRGB
 90
-16777216
102
RTVSPost2010PropOp51
 70
     0
102
RTVSPost2010Prop52
140
1.0
102
RTVSPost2010PropOp52
 70
     0
102
RTVSPost2010Prop53
 90
        2
102
RTVSPost2010PropOp53
 70
     1
102
RTVSPost2010Prop54
  1
strokes_ogs.tif
102
RTVSPost2010PropOp54
 70
     1
102
RTVSPost2010Prop55
280
     0
102
RTVSPost2010PropOp55
 70
     1
102
RTVSPost2010Prop56
140
1.0
102
RTVSPost2010PropOp56
 70
     1
102
RTVSPost2010Prop57
140
1.0
102
RTVSPost2010PropOp57
 70
     1
  0
XRECORD
  5
3B0
102
{ACAD_REACTORS
330
3AF
102
}
330
3AF
100
AcDbXrecord
280
     1
102
RTVSPropertyOp0
 70
     1
102
RTVSPropertyOp1
 70
     1
102
RTVSPropertyOp2
 70
     1
102
RTVSPropertyOp3
 70
     1
102
RTVSPropertyOp4
 70
     1
102
RTVSPropertyOp5
 70
     1
102
RTVSPropertyOp6
 70
     1
102
RTVSPropertyOp7
 70
     1
102
RTVSPropertyOp8
 70
     1
102
RTVSPropertyOp9
 70
     1
102
RTVSPropertyOp10
 70
     1
102
RTVSPropertyOp11
 70
     1
102
RTVSPropertyOp12
 70
     1
102
RTVSPropertyOp13
 70
     1
102
RTVSPropertyOp14
 70
     1
102
RTVSPropertyOp15
 70
     1
102
RTVSPropertyOp16
 70
     1
102
RTVSPropertyOp17
 70
     1
102
RTVSPropertyOp18
 70
     1
102
RTVSPropertyOp19
 70
     1
102
RTVSPropertyOp20
 70
     1
102
RTVSPropertyOp21
 70
     1
102
RTVSPropertyOp22
 70
     1
102
RTVSPropertyOp23
 70
     1
102
RTVSPropertyOp24
 70
     1
102
RTVSPropertyOp25
 70
     1
102
RTVSPropertyOp26
 70
     1
102
RTVSPropertyOp27
 70
     1
102
RTVSPropertyOp28
 70
     1
102
RTVSPropertyOp29
 70
     1
102
RTVSPropertyOp30
 70
     1
102
RTVSPropertyOp31
 70
     1
102
RTVSPropertyOp32
 70
     1
102
RTVSPropertyOp33
 70
     1
102
RTVSPropertyOp34
 70
     1
102
RTVSPropertyOp35
 70
     1
102
RTVSPropertyOp36
 70
     1
102
RTVSPropertyOp37
 70
     1
102
RTVSPropertyOp38
 70
     1
102
RTVSPropertyOp39
 70
     1
102
RTVSPropertyOp40
 70
     1
102
RTVSPropertyOp41
 70
     1
102
RTVSPropertyOp42
 70
     1
102
RTVSPropertyOp43
 70
     1
102
RTVSPropertyOp44
 70
     1
102
RTVSPropertyOp45
 70
     1
102
RTVSPropertyOp46
 70
     1
102
RTVSPropertyOp47
 70
     1
102
RTVSPropertyOp48
 70
     1
102
RTVSPropertyOp49
 70
     1
102
RTVSPropertyOp50
 70
     1
102
RTVSPropertyOp51
 70
     0
102
RTVSPropertyOp52
 70
     0
102
RTVSPropertyOp53
 70
     1
102
RTVSPropertyOp54
 70
     1
102
RTVSPropertyOp55
 70
     1
102
RTVSPropertyOp56
 70
     1
102
RTVSPropertyOp57
 70
     1
102
RTVSPost2010Prop28
280
     0
102
RTVSPost2010PropOp28
 70
     1
102
RTVSPost2010Prop29
280
     1
102
RTVSPost2010PropOp29
 70
     1
102
RTVSPost2010Prop30
280
     1
102
RTVSPost2010PropOp30
 70
     1
102
RTVSPost2010Prop31
280
     0
102
RTVSPost2010PropOp31
 70
     1
102
RTVSPost2010Prop32
280
     0
102
RTVSPost2010PropOp32
 70
     1
102
RTVSPost2010Prop33
280
     0
102
RTVSPost2010PropOp33
 70
     1
102
RTVSPost2010Prop34
280
     0
102
RTVSPost2010PropOp34
 70
     1
102
RTVSPost2010Prop35
280
     0
102
RTVSPost2010PropOp35
 70
     1
102
RTVSPost2010Prop36
280
     0
102
RTVSPost2010PropOp36
 70
     1
102
RTVSPost2010Prop37
 90
       50
102
RTVSPost2010PropOp37
 70
     1
102
RTVSPost2010Prop38
140
0.0
102
RTVSPost2010PropOp38
 70
     1
102
RTVSPost2010Prop39
140
1.0
102
RTVSPost2010PropOp39
 70
     1
102
RTVSPost2010Prop40
 90
        0
102
RTVSPost2010PropOp40
 70
     1
102
RTVSPost2010Prop41ColorIndex
 90
       18
102
RTVSPost2010Prop41ColorRGB
 90
        0
102
RTVSPost2010PropOp41
 70
     1
102
RTVSPost2010Prop42
 90
       50
102
RTVSPost2010PropOp42
 70
     1
102
RTVSPost2010Prop43
 90
        3
102
RTVSPost2010PropOp43
 70
     1
102
RTVSPost2010Prop44ColorIndex
 90
        5
102
RTVSPost2010Prop44ColorRGB
 90
      255
102
RTVSPost2010PropOp44
 70
     1
102
RTVSPost2010Prop45
280
     0
102
RTVSPost2010PropOp45
 70
     1
102
RTVSPost2010Prop46
 90
       50
102
RTVSPost2010PropOp46
 70
     1
102
RTVSPost2010Prop47
 90
       50
102
RTVSPost2010PropOp47
 70
     1
102
RTVSPost2010Prop48
 90
       50
102
RTVSPost2010PropOp48
 70
     1
102
RTVSPost2010Prop49
280
     0
102
RTVSPost2010PropOp49
 70
     1
102
RTVSPost2010Prop50
 90
       50
102
RTVSPost2010PropOp50
 70
     1
102
RTVSPost2010Prop51ColorIndex
 90
      256
102
RTVSPost2010Prop51ColorRGB
 90
-16777216
102
RTVSPost2010PropOp51
 70
     0
102
RTVSPost2010Prop52
140
1.0
102
RTVSPost2010PropOp52
 70
     0
102
RTVSPost2010Prop53
 90
        2
102
RTVSPost2010PropOp53
 70
     1
102
RTVSPost2010Prop54
  1
strokes_ogs.tif
102
RTVSPost2010PropOp54
 70
     1
102
RTVSPost2010Prop55
280
     0
102
RTVSPost2010PropOp55
 70
     1
102
RTVSPost2010Prop56
140
1.0
102
RTVSPost2010PropOp56
 70
     1
102
RTVSPost2010Prop57
140
1.0
102
RTVSPost2010PropOp57
 70
     1
  0
XRECORD
  5
3B2
102
{ACAD_REACTORS
330
3B1
102
}
330
3B1
100
AcDbXrecord
280
     1
102
RTVSPropertyOp0
 70
     1
102
RTVSPropertyOp1
 70
     1
102
RTVSPropertyOp2
 70
     1
102
RTVSPropertyOp3
 70
     1
102
RTVSPropertyOp4
 70
     1
102
RTVSPropertyOp5
 70
     1
102
RTVSPropertyOp6
 70
     1
102
RTVSPropertyOp7
 70
     1
102
RTVSPropertyOp8
 70
     1
102
RTVSPropertyOp9
 70
     1
102
RTVSPropertyOp10
 70
     1
102
RTVSPropertyOp11
 70
     1
102
RTVSPropertyOp12
 70
     1
102
RTVSPropertyOp13
 70
     1
102
RTVSPropertyOp14
 70
     1
102
RTVSPropertyOp15
 70
     1
102
RTVSPropertyOp16
 70
     1
102
RTVSPropertyOp17
 70
     1
102
RTVSPropertyOp18
 70
     1
102
RTVSPropertyOp19
 70
     1
102
RTVSPropertyOp20
 70
     1
102
RTVSPropertyOp21
 70
     1
102
RTVSPropertyOp22
 70
     1
102
RTVSPropertyOp23
 70
     1
102
RTVSPropertyOp24
 70
     1
102
RTVSPropertyOp25
 70
     1
102
RTVSPropertyOp26
 70
     1
102
RTVSPropertyOp27
 70
     1
102
RTVSPropertyOp28
 70
     1
102
RTVSPropertyOp29
 70
     1
102
RTVSPropertyOp30
 70
     1
102
RTVSPropertyOp31
 70
     1
102
RTVSPropertyOp32
 70
     1
102
RTVSPropertyOp33
 70
     1
102
RTVSPropertyOp34
 70
     1
102
RTVSPropertyOp35
 70
     1
102
RTVSPropertyOp36
 70
     1
102
RTVSPropertyOp37
 70
     1
102
RTVSPropertyOp38
 70
     1
102
RTVSPropertyOp39
 70
     1
102
RTVSPropertyOp40
 70
     1
102
RTVSPropertyOp41
 70
     1
102
RTVSPropertyOp42
 70
     1
102
RTVSPropertyOp43
 70
     1
102
RTVSPropertyOp44
 70
     1
102
RTVSPropertyOp45
 70
     1
102
RTVSPropertyOp46
 70
     1
102
RTVSPropertyOp47
 70
     1
102
RTVSPropertyOp48
 70
     1
102
RTVSPropertyOp49
 70
     1
102
RTVSPropertyOp50
 70
     1
102
RTVSPropertyOp51
 70
     0
102
RTVSPropertyOp52
 70
     0
102
RTVSPropertyOp53
 70
     1
102
RTVSPropertyOp54
 70
     1
102
RTVSPropertyOp55
 70
     1
102
RTVSPropertyOp56
 70
     1
102
RTVSPropertyOp57
 70
     1
102
RTVSPost2010Prop28
280
     0
102
RTVSPost2010PropOp28
 70
     1
102
RTVSPost2010Prop29
280
     1
102
RTVSPost2010PropOp29
 70
     1
102
RTVSPost2010Prop30
280
     1
102
RTVSPost2010PropOp30
 70
     1
102
RTVSPost2010Prop31
280
     0
102
RTVSPost2010PropOp31
 70
     1
102
RTVSPost2010Prop32
280
     0
102
RTVSPost2010PropOp32
 70
     1
102
RTVSPost2010Prop33
280
     0
102
RTVSPost2010PropOp33
 70
     1
102
RTVSPost2010Prop34
280
     0
102
RTVSPost2010PropOp34
 70
     1
102
RTVSPost2010Prop35
280
     0
102
RTVSPost2010PropOp35
 70
     1
102
RTVSPost2010Prop36
280
     0
102
RTVSPost2010PropOp36
 70
     1
102
RTVSPost2010Prop37
 90
       50
102
RTVSPost2010PropOp37
 70
     1
102
RTVSPost2010Prop38
140
0.0
102
RTVSPost2010PropOp38
 70
     1
102
RTVSPost2010Prop39
140
1.0
102
RTVSPost2010PropOp39
 70
     1
102
RTVSPost2010Prop40
 90
        0
102
RTVSPost2010PropOp40
 70
     1
102
RTVSPost2010Prop41ColorIndex
 90
       18
102
RTVSPost2010Prop41ColorRGB
 90
        0
102
RTVSPost2010PropOp41
 70
     1
102
RTVSPost2010Prop42
 90
       50
102
RTVSPost2010PropOp42
 70
     1
102
RTVSPost2010Prop43
 90
        3
102
RTVSPost2010PropOp43
 70
     1
102
RTVSPost2010Prop44ColorIndex
 90
        5
102
RTVSPost2010Prop44ColorRGB
 90
      255
102
RTVSPost2010PropOp44
 70
     1
102
RTVSPost2010Prop45
280
     0
102
RTVSPost2010PropOp45
 70
     1
102
RTVSPost2010Prop46
 90
       50
102
RTVSPost2010PropOp46
 70
     1
102
RTVSPost2010Prop47
 90
       50
102
RTVSPost2010PropOp47
 70
     1
102
RTVSPost2010Prop48
 90
       50
102
RTVSPost2010PropOp48
 70
     1
102
RTVSPost2010Prop49
280
     0
102
RTVSPost2010PropOp49
 70
     1
102
RTVSPost2010Prop50
 90
       50
102
RTVSPost2010PropOp50
 70
     1
102
RTVSPost2010Prop51ColorIndex
 90
      256
102
RTVSPost2010Prop51ColorRGB
 90
-16777216
102
RTVSPost2010PropOp51
 70
     0
102
RTVSPost2010Prop52
140
1.0
102
RTVSPost2010PropOp52
 70
     0
102
RTVSPost2010Prop53
 90
        2
102
RTVSPost2010PropOp53
 70
     1
102
RTVSPost2010Prop54
  1
strokes_ogs.tif
102
RTVSPost2010PropOp54
 70
     1
102
RTVSPost2010Prop55
280
     0
102
RTVSPost2010PropOp55
 70
     1
102
RTVSPost2010Prop56
140
1.0
102
RTVSPost2010PropOp56
 70
     1
102
RTVSPost2010Prop57
140
1.0
102
RTVSPost2010PropOp57
 70
     1
  0
XRECORD
  5
3A2
102
{ACAD_REACTORS
330
3A1
102
}
330
3A1
100
AcDbXrecord
280
     1
102
RTVSPropertyOp0
 70
     1
102
RTVSPropertyOp1
 70
     1
102
RTVSPropertyOp2
 70
     1
102
RTVSPropertyOp3
 70
     1
102
RTVSPropertyOp4
 70
     1
102
RTVSPropertyOp5
 70
     1
102
RTVSPropertyOp6
 70
     1
102
RTVSPropertyOp7
 70
     1
102
RTVSPropertyOp8
 70
     1
102
RTVSPropertyOp9
 70
     1
102
RTVSPropertyOp10
 70
     1
102
RTVSPropertyOp11
 70
     1
102
RTVSPropertyOp12
 70
     1
102
RTVSPropertyOp13
 70
     1
102
RTVSPropertyOp14
 70
     1
102
RTVSPropertyOp15
 70
     1
102
RTVSPropertyOp16
 70
     1
102
RTVSPropertyOp17
 70
     1
102
RTVSPropertyOp18
 70
     1
102
RTVSPropertyOp19
 70
     1
102
RTVSPropertyOp20
 70
     1
102
RTVSPropertyOp21
 70
     1
102
RTVSPropertyOp22
 70
     1
102
RTVSPropertyOp23
 70
     1
102
RTVSPropertyOp24
 70
     1
102
RTVSPropertyOp25
 70
     1
102
RTVSPropertyOp26
 70
     1
102
RTVSPropertyOp27
 70
     1
102
RTVSPropertyOp28
 70
     1
102
RTVSPropertyOp29
 70
     1
102
RTVSPropertyOp30
 70
     1
102
RTVSPropertyOp31
 70
     1
102
RTVSPropertyOp32
 70
     1
102
RTVSPropertyOp33
 70
     1
102
RTVSPropertyOp34
 70
     1
102
RTVSPropertyOp35
 70
     1
102
RTVSPropertyOp36
 70
     1
102
RTVSPropertyOp37
 70
     1
102
RTVSPropertyOp38
 70
     1
102
RTVSPropertyOp39
 70
     1
102
RTVSPropertyOp40
 70
     1
102
RTVSPropertyOp41
 70
     1
102
RTVSPropertyOp42
 70
     1
102
RTVSPropertyOp43
 70
     1
102
RTVSPropertyOp44
 70
     1
102
RTVSPropertyOp45
 70
     1
102
RTVSPropertyOp46
 70
     1
102
RTVSPropertyOp47
 70
     1
102
RTVSPropertyOp48
 70
     1
102
RTVSPropertyOp49
 70
     1
102
RTVSPropertyOp50
 70
     1
102
RTVSPropertyOp51
 70
     0
102
RTVSPropertyOp52
 70
     0
102
RTVSPropertyOp53
 70
     1
102
RTVSPropertyOp54
 70
     1
102
RTVSPropertyOp55
 70
     1
102
RTVSPropertyOp56
 70
     1
102
RTVSPropertyOp57
 70
     1
102
RTVSPost2010Prop28
280
     0
102
RTVSPost2010PropOp28
 70
     1
102
RTVSPost2010Prop29
280
     1
102
RTVSPost2010PropOp29
 70
     1
102
RTVSPost2010Prop30
280
     1
102
RTVSPost2010PropOp30
 70
     1
102
RTVSPost2010Prop31
280
     0
102
RTVSPost2010PropOp31
 70
     1
102
RTVSPost2010Prop32
280
     0
102
RTVSPost2010PropOp32
 70
     1
102
RTVSPost2010Prop33
280
     0
102
RTVSPost2010PropOp33
 70
     1
102
RTVSPost2010Prop34
280
     0
102
RTVSPost2010PropOp34
 70
     1
102
RTVSPost2010Prop35
280
     0
102
RTVSPost2010PropOp35
 70
     1
102
RTVSPost2010Prop36
280
     0
102
RTVSPost2010PropOp36
 70
     1
102
RTVSPost2010Prop37
 90
       50
102
RTVSPost2010PropOp37
 70
     1
102
RTVSPost2010Prop38
140
0.0
102
RTVSPost2010PropOp38
 70
     1
102
RTVSPost2010Prop39
140
1.0
102
RTVSPost2010PropOp39
 70
     1
102
RTVSPost2010Prop40
 90
        0
102
RTVSPost2010PropOp40
 70
     1
102
RTVSPost2010Prop41ColorIndex
 90
       18
102
RTVSPost2010Prop41ColorRGB
 90
        0
102
RTVSPost2010PropOp41
 70
     1
102
RTVSPost2010Prop42
 90
       50
102
RTVSPost2010PropOp42
 70
     1
102
RTVSPost2010Prop43
 90
        3
102
RTVSPost2010PropOp43
 70
     1
102
RTVSPost2010Prop44ColorIndex
 90
        5
102
RTVSPost2010Prop44ColorRGB
 90
      255
102
RTVSPost2010PropOp44
 70
     1
102
RTVSPost2010Prop45
280
     0
102
RTVSPost2010PropOp45
 70
     1
102
RTVSPost2010Prop46
 90
       50
102
RTVSPost2010PropOp46
 70
     1
102
RTVSPost2010Prop47
 90
       50
102
RTVSPost2010PropOp47
 70
     1
102
RTVSPost2010Prop48
 90
       50
102
RTVSPost2010PropOp48
 70
     1
102
RTVSPost2010Prop49
280
     0
102
RTVSPost2010PropOp49
 70
     1
102
RTVSPost2010Prop50
 90
       50
102
RTVSPost2010PropOp50
 70
     1
102
RTVSPost2010Prop51ColorIndex
 90
      256
102
RTVSPost2010Prop51ColorRGB
 90
-16777216
102
RTVSPost2010PropOp51
 70
     0
102
RTVSPost2010Prop52
140
1.0
102
RTVSPost2010PropOp52
 70
     0
102
RTVSPost2010Prop53
 90
        2
102
RTVSPost2010PropOp53
 70
     1
102
RTVSPost2010Prop54
  1
strokes_ogs.tif
102
RTVSPost2010PropOp54
 70
     1
102
RTVSPost2010Prop55
280
     0
102
RTVSPost2010PropOp55
 70
     1
102
RTVSPost2010Prop56
140
1.0
102
RTVSPost2010PropOp56
 70
     1
102
RTVSPost2010Prop57
140
1.0
102
RTVSPost2010PropOp57
 70
     1
  0
XRECORD
  5
394
102
{ACAD_REACTORS
330
393
102
}
330
393
100
AcDbXrecord
280
     1
102
RTVSPropertyOp0
 70
     1
102
RTVSPropertyOp1
 70
     1
102
RTVSPropertyOp2
 70
     1
102
RTVSPropertyOp3
 70
     1
102
RTVSPropertyOp4
 70
     1
102
RTVSPropertyOp5
 70
     1
102
RTVSPropertyOp6
 70
     1
102
RTVSPropertyOp7
 70
     1
102
RTVSPropertyOp8
 70
     1
102
RTVSPropertyOp9
 70
     1
102
RTVSPropertyOp10
 70
     1
102
RTVSPropertyOp11
 70
     1
102
RTVSPropertyOp12
 70
     1
102
RTVSPropertyOp13
 70
     1
102
RTVSPropertyOp14
 70
     1
102
RTVSPropertyOp15
 70
     1
102
RTVSPropertyOp16
 70
     1
102
RTVSPropertyOp17
 70
     1
102
RTVSPropertyOp18
 70
     1
102
RTVSPropertyOp19
 70
     1
102
RTVSPropertyOp20
 70
     1
102
RTVSPropertyOp21
 70
     1
102
RTVSPropertyOp22
 70
     1
102
RTVSPropertyOp23
 70
     1
102
RTVSPropertyOp24
 70
     1
102
RTVSPropertyOp25
 70
     1
102
RTVSPropertyOp26
 70
     1
102
RTVSPropertyOp27
 70
     1
102
RTVSPropertyOp28
 70
     1
102
RTVSPropertyOp29
 70
     1
102
RTVSPropertyOp30
 70
     1
102
RTVSPropertyOp31
 70
     1
102
RTVSPropertyOp32
 70
     1
102
RTVSPropertyOp33
 70
     1
102
RTVSPropertyOp34
 70
     1
102
RTVSPropertyOp35
 70
     1
102
RTVSPropertyOp36
 70
     1
102
RTVSPropertyOp37
 70
     1
102
RTVSPropertyOp38
 70
     1
102
RTVSPropertyOp39
 70
     1
102
RTVSPropertyOp40
 70
     1
102
RTVSPropertyOp41
 70
     1
102
RTVSPropertyOp42
 70
     1
102
RTVSPropertyOp43
 70
     1
102
RTVSPropertyOp44
 70
     1
102
RTVSPropertyOp45
 70
     1
102
RTVSPropertyOp46
 70
     1
102
RTVSPropertyOp47
 70
     1
102
RTVSPropertyOp48
 70
     1
102
RTVSPropertyOp49
 70
     1
102
RTVSPropertyOp50
 70
     1
102
RTVSPropertyOp51
 70
     0
102
RTVSPropertyOp52
 70
     0
102
RTVSPropertyOp53
 70
     1
102
RTVSPropertyOp54
 70
     1
102
RTVSPropertyOp55
 70
     1
102
RTVSPropertyOp56
 70
     1
102
RTVSPropertyOp57
 70
     1
102
RTVSPost2010Prop28
280
     0
102
RTVSPost2010PropOp28
 70
     1
102
RTVSPost2010Prop29
280
     1
102
RTVSPost2010PropOp29
 70
     1
102
RTVSPost2010Prop30
280
     1
102
RTVSPost2010PropOp30
 70
     1
102
RTVSPost2010Prop31
280
     0
102
RTVSPost2010PropOp31
 70
     1
102
RTVSPost2010Prop32
280
     0
102
RTVSPost2010PropOp32
 70
     1
102
RTVSPost2010Prop33
280
     0
102
RTVSPost2010PropOp33
 70
     1
102
RTVSPost2010Prop34
280
     0
102
RTVSPost2010PropOp34
 70
     1
102
RTVSPost2010Prop35
280
     0
102
RTVSPost2010PropOp35
 70
     1
102
RTVSPost2010Prop36
280
     0
102
RTVSPost2010PropOp36
 70
     1
102
RTVSPost2010Prop37
 90
       50
102
RTVSPost2010PropOp37
 70
     1
102
RTVSPost2010Prop38
140
0.0
102
RTVSPost2010PropOp38
 70
     1
102
RTVSPost2010Prop39
140
1.0
102
RTVSPost2010PropOp39
 70
     1
102
RTVSPost2010Prop40
 90
        0
102
RTVSPost2010PropOp40
 70
     1
102
RTVSPost2010Prop41ColorIndex
 90
       18
102
RTVSPost2010Prop41ColorRGB
 90
        0
102
RTVSPost2010PropOp41
 70
     1
102
RTVSPost2010Prop42
 90
       50
102
RTVSPost2010PropOp42
 70
     1
102
RTVSPost2010Prop43
 90
        3
102
RTVSPost2010PropOp43
 70
     1
102
RTVSPost2010Prop44ColorIndex
 90
        5
102
RTVSPost2010Prop44ColorRGB
 90
      255
102
RTVSPost2010PropOp44
 70
     1
102
RTVSPost2010Prop45
280
     0
102
RTVSPost2010PropOp45
 70
     1
102
RTVSPost2010Prop46
 90
       50
102
RTVSPost2010PropOp46
 70
     1
102
RTVSPost2010Prop47
 90
       50
102
RTVSPost2010PropOp47
 70
     1
102
RTVSPost2010Prop48
 90
       50
102
RTVSPost2010PropOp48
 70
     1
102
RTVSPost2010Prop49
280
     0
102
RTVSPost2010PropOp49
 70
     1
102
RTVSPost2010Prop50
 90
       50
102
RTVSPost2010PropOp50
 70
     1
102
RTVSPost2010Prop51ColorIndex
 90
      256
102
RTVSPost2010Prop51ColorRGB
 90
-16777216
102
RTVSPost2010PropOp51
 70
     0
102
RTVSPost2010Prop52
140
1.0
102
RTVSPost2010PropOp52
 70
     0
102
RTVSPost2010Prop53
 90
        2
102
RTVSPost2010PropOp53
 70
     1
102
RTVSPost2010Prop54
  1
strokes_ogs.tif
102
RTVSPost2010PropOp54
 70
     1
102
RTVSPost2010Prop55
280
     0
102
RTVSPost2010PropOp55
 70
     1
102
RTVSPost2010Prop56
140
1.0
102
RTVSPost2010PropOp56
 70
     1
102
RTVSPost2010Prop57
140
1.0
102
RTVSPost2010PropOp57
 70
     1
  0
XRECORD
  5
3B4
102
{ACAD_REACTORS
330
3B3
102
}
330
3B3
100
AcDbXrecord
280
     1
102
RTVSPropertyOp0
 70
     1
102
RTVSPropertyOp1
 70
     1
102
RTVSPropertyOp2
 70
     1
102
RTVSPropertyOp3
 70
     1
102
RTVSPropertyOp4
 70
     1
102
RTVSPropertyOp5
 70
     1
102
RTVSPropertyOp6
 70
     1
102
RTVSPropertyOp7
 70
     1
102
RTVSPropertyOp8
 70
     1
102
RTVSPropertyOp9
 70
     1
102
RTVSPropertyOp10
 70
     1
102
RTVSPropertyOp11
 70
     1
102
RTVSPropertyOp12
 70
     1
102
RTVSPropertyOp13
 70
     1
102
RTVSPropertyOp14
 70
     1
102
RTVSPropertyOp15
 70
     1
102
RTVSPropertyOp16
 70
     1
102
RTVSPropertyOp17
 70
     1
102
RTVSPropertyOp18
 70
     1
102
RTVSPropertyOp19
 70
     1
102
RTVSPropertyOp20
 70
     1
102
RTVSPropertyOp21
 70
     1
102
RTVSPropertyOp22
 70
     1
102
RTVSPropertyOp23
 70
     1
102
RTVSPropertyOp24
 70
     1
102
RTVSPropertyOp25
 70
     1
102
RTVSPropertyOp26
 70
     1
102
RTVSPropertyOp27
 70
     1
102
RTVSPropertyOp28
 70
     1
102
RTVSPropertyOp29
 70
     1
102
RTVSPropertyOp30
 70
     1
102
RTVSPropertyOp31
 70
     1
102
RTVSPropertyOp32
 70
     1
102
RTVSPropertyOp33
 70
     1
102
RTVSPropertyOp34
 70
     1
102
RTVSPropertyOp35
 70
     1
102
RTVSPropertyOp36
 70
     1
102
RTVSPropertyOp37
 70
     1
102
RTVSPropertyOp38
 70
     1
102
RTVSPropertyOp39
 70
     1
102
RTVSPropertyOp40
 70
     1
102
RTVSPropertyOp41
 70
     1
102
RTVSPropertyOp42
 70
     1
102
RTVSPropertyOp43
 70
     1
102
RTVSPropertyOp44
 70
     1
102
RTVSPropertyOp45
 70
     1
102
RTVSPropertyOp46
 70
     1
102
RTVSPropertyOp47
 70
     1
102
RTVSPropertyOp48
 70
     1
102
RTVSPropertyOp49
 70
     1
102
RTVSPropertyOp50
 70
     1
102
RTVSPropertyOp51
 70
     0
102
RTVSPropertyOp52
 70
     0
102
RTVSPropertyOp53
 70
     1
102
RTVSPropertyOp54
 70
     1
102
RTVSPropertyOp55
 70
     1
102
RTVSPropertyOp56
 70
     1
102
RTVSPropertyOp57
 70
     1
102
RTVSPost2010Prop28
280
     0
102
RTVSPost2010PropOp28
 70
     1
102
RTVSPost2010Prop29
280
     1
102
RTVSPost2010PropOp29
 70
     1
102
RTVSPost2010Prop30
280
     1
102
RTVSPost2010PropOp30
 70
     1
102
RTVSPost2010Prop31
280
     0
102
RTVSPost2010PropOp31
 70
     1
102
RTVSPost2010Prop32
280
     0
102
RTVSPost2010PropOp32
 70
     1
102
RTVSPost2010Prop33
280
     0
102
RTVSPost2010PropOp33
 70
     1
102
RTVSPost2010Prop34
280
     0
102
RTVSPost2010PropOp34
 70
     1
102
RTVSPost2010Prop35
280
     0
102
RTVSPost2010PropOp35
 70
     1
102
RTVSPost2010Prop36
280
     0
102
RTVSPost2010PropOp36
 70
     1
102
RTVSPost2010Prop37
 90
       50
102
RTVSPost2010PropOp37
 70
     1
102
RTVSPost2010Prop38
140
0.0
102
RTVSPost2010PropOp38
 70
     1
102
RTVSPost2010Prop39
140
1.0
102
RTVSPost2010PropOp39
 70
     1
102
RTVSPost2010Prop40
 90
        0
102
RTVSPost2010PropOp40
 70
     1
102
RTVSPost2010Prop41ColorIndex
 90
       18
102
RTVSPost2010Prop41ColorRGB
 90
        0
102
RTVSPost2010PropOp41
 70
     1
102
RTVSPost2010Prop42
 90
       50
102
RTVSPost2010PropOp42
 70
     1
102
RTVSPost2010Prop43
 90
        3
102
RTVSPost2010PropOp43
 70
     1
102
RTVSPost2010Prop44ColorIndex
 90
        5
102
RTVSPost2010Prop44ColorRGB
 90
      255
102
RTVSPost2010PropOp44
 70
     1
102
RTVSPost2010Prop45
280
     0
102
RTVSPost2010PropOp45
 70
     1
102
RTVSPost2010Prop46
 90
       50
102
RTVSPost2010PropOp46
 70
     1
102
RTVSPost2010Prop47
 90
       50
102
RTVSPost2010PropOp47
 70
     1
102
RTVSPost2010Prop48
 90
       50
102
RTVSPost2010PropOp48
 70
     1
102
RTVSPost2010Prop49
280
     0
102
RTVSPost2010PropOp49
 70
     1
102
RTVSPost2010Prop50
 90
       50
102
RTVSPost2010PropOp50
 70
     1
102
RTVSPost2010Prop51ColorIndex
 90
      256
102
RTVSPost2010Prop51ColorRGB
 90
-16777216
102
RTVSPost2010PropOp51
 70
     0
102
RTVSPost2010Prop52
140
1.0
102
RTVSPost2010PropOp52
 70
     0
102
RTVSPost2010Prop53
 90
        2
102
RTVSPost2010PropOp53
 70
     1
102
RTVSPost2010Prop54
  1
strokes_ogs.tif
102
RTVSPost2010PropOp54
 70
     1
102
RTVSPost2010Prop55
280
     0
102
RTVSPost2010PropOp55
 70
     1
102
RTVSPost2010Prop56
140
1.0
102
RTVSPost2010PropOp56
 70
     1
102
RTVSPost2010Prop57
140
1.0
102
RTVSPost2010PropOp57
 70
     1
  0
ENDSEC
  0
EOF
