  0
SECTION
  2
HEADER
  9
$ACADVER
  1
AC1018
  9
$ACADMAINTVER
 70
     0
  9
$DWGCODEPAGE
  3
ANSI_932
  9
$INSBASE
 10
0.0
 20
0.0
 30
0.0
  9
$EXTMIN
 10
-1050.0
 20
-742.5
 30
0.0
  9
$EXTMAX
 10
1050.0
 20
742.5
 30
0.0
  9
$LIMMIN
 10
-1050.0
 20
-742.5
  9
$LIMMAX
 10
1050.0
 20
742.5
  9
$ORTHOMODE
 70
     0
  9
$REGENMODE
 70
     1
  9
$FILLMODE
 70
     1
  9
$QTEXTMODE
 70
     0
  9
$MIRRTEXT
 70
     1
  9
$LTSCALE
 40
5.0
  9
$ATTMODE
 70
     1
  9
$TEXTSIZE
 40
2.5
  9
$TRACEWID
 40
1.0
  9
$TEXTSTYLE
  7
Standard
  9
$CLAYER
  8
0
  9
$CELTYPE
  6
ByLayer
  9
$CECOLOR
 62
   256
  9
$CELTSCALE
 40
1.0
  9
$DISPSILH
 70
     0
  9
$DIMSCALE
 40
1.0
  9
$DIMASZ
 40
2.5
  9
$DIMEXO
 40
0.625
  9
$DIMDLI
 40
3.75
  9
$DIMRND
 40
0.0
  9
$DIMDLE
 40
0.0
  9
$DIMEXE
 40
1.25
  9
$DIMTP
 40
0.0
  9
$DIMTM
 40
0.0
  9
$DIMTXT
 40
2.5
  9
$DIMCEN
 40
2.5
  9
$DIMTSZ
 40
0.0
  9
$DIMTOL
 70
     0
  9
$DIMLIM
 70
     0
  9
$DIMTIH
 70
     0
  9
$DIMTOH
 70
     0
  9
$DIMSE1
 70
     0
  9
$DIMSE2
 70
     0
  9
$DIMTAD
 70
     1
  9
$DIMZIN
 70
     8
  9
$DIMBLK
  1

  9
$DIMASO
 70
     1
  9
$DIMSHO
 70
     1
  9
$DIMPOST
  1

  9
$DIMAPOST
  1

  9
$DIMALT
 70
     0
  9
$DIMALTD
 70
     3
  9
$DIMALTF
 40
0.03937007874016
  9
$DIMLFAC
 40
1.0
  9
$DIMTOFL
 70
     1
  9
$DIMTVP
 40
0.0
  9
$DIMTIX
 70
     0
  9
$DIMSOXD
 70
     0
  9
$DIMSAH
 70
     0
  9
$DIMBLK1
  1

  9
$DIMBLK2
  1

  9
$DIMSTYLE
  2
ISO-25
  9
$DIMCLRD
 70
     0
  9
$DIMCLRE
 70
     0
  9
$DIMCLRT
 70
     0
  9
$DIMTFAC
 40
1.0
  9
$DIMGAP
 40
0.625
  9
$DIMJUST
 70
     0
  9
$DIMSD1
 70
     0
  9
$DIMSD2
 70
     0
  9
$DIMTOLJ
 70
     0
  9
$DIMTZIN
 70
     8
  9
$DIMALTZ
 70
     0
  9
$DIMALTTZ
 70
     0
  9
$DIMUPT
 70
     0
  9
$DIMDEC
 70
     2
  9
$DIMTDEC
 70
     2
  9
$DIMALTU
 70
     2
  9
$DIMALTTD
 70
     3
  9
$DIMTXSTY
  7
Standard
  9
$DIMAUNIT
 70
     0
  9
$DIMADEC
 70
     0
  9
$DIMALTRND
 40
0.0
  9
$DIMAZIN
 70
     0
  9
$DIMDSEP
 70
    44
  9
$DIMATFIT
 70
     3
  9
$DIMFRAC
 70
     0
  9
$DIMLDRBLK
  1

  9
$DIMLUNIT
 70
     2
  9
$DIMLWD
 70
    -2
  9
$DIMLWE
 70
    -2
  9
$DIMTMOVE
 70
     0
  9
$LUNITS
 70
     2
  9
$LUPREC
 70
     4
  9
$SKETCHINC
 40
1.0
  9
$FILLETRAD
 40
10.0
  9
$AUNITS
 70
     0
  9
$AUPREC
 70
     0
  9
$MENU
  1
.
  9
$ELEVATION
 40
0.0
  9
$PELEVATION
 40
0.0
  9
$THICKNESS
 40
0.0
  9
$LIMCHECK
 70
     0
  9
$CHAMFERA
 40
10.0
  9
$CHAMFERB
 40
10.0
  9
$CHAMFERC
 40
20.0
  9
$CHAMFERD
 40
0.0
  9
$SKPOLY
 70
     0
  9
$TDCREATE
 40
2457542.403068114
  9
$TDUCREATE
 40
2457542.028068114
  9
$TDUPDATE
 40
2457542.403068125
  9
$TDUUPDATE
 40
2457542.028068125
  9
$TDINDWG
 40
0.0000000116
  9
$TDUSRTIMER
 40
0.0000000116
  9
$USRTIMER
 70
     1
  9
$ANGBASE
 50
0.0
  9
$ANGDIR
 70
     0
  9
$PDMODE
 70
     0
  9
$PDSIZE
 40
0.0
  9
$PLINEWID
 40
0.0
  9
$SPLFRAME
 70
     0
  9
$SPLINETYPE
 70
     6
  9
$SPLINESEGS
 70
     8
  9
$HANDSEED
  5
292
  9
$SURFTAB1
 70
     6
  9
$SURFTAB2
 70
     6
  9
$SURFTYPE
 70
     6
  9
$SURFU
 70
     6
  9
$SURFV
 70
     6
  9
$UCSBASE
  2

  9
$UCSNAME
  2

  9
$UCSORG
 10
0.0
 20
0.0
 30
0.0
  9
$UCSXDIR
 10
1.0
 20
0.0
 30
0.0
  9
$UCSYDIR
 10
0.0
 20
1.0
 30
0.0
  9
$UCSORTHOREF
  2

  9
$UCSORTHOVIEW
 70
     0
  9
$UCSORGTOP
 10
0.0
 20
0.0
 30
0.0
  9
$UCSORGBOTTOM
 10
0.0
 20
0.0
 30
0.0
  9
$UCSORGLEFT
 10
0.0
 20
0.0
 30
0.0
  9
$UCSORGRIGHT
 10
0.0
 20
0.0
 30
0.0
  9
$UCSORGFRONT
 10
0.0
 20
0.0
 30
0.0
  9
$UCSORGBACK
 10
0.0
 20
0.0
 30
0.0
  9
$PUCSBASE
  2

  9
$PUCSNAME
  2

  9
$PUCSORG
 10
0.0
 20
0.0
 30
0.0
  9
$PUCSXDIR
 10
1.0
 20
0.0
 30
0.0
  9
$PUCSYDIR
 10
0.0
 20
1.0
 30
0.0
  9
$PUCSORTHOREF
  2

  9
$PUCSORTHOVIEW
 70
     0
  9
$PUCSORGTOP
 10
0.0
 20
0.0
 30
0.0
  9
$PUCSORGBOTTOM
 10
0.0
 20
0.0
 30
0.0
  9
$PUCSORGLEFT
 10
0.0
 20
0.0
 30
0.0
  9
$PUCSORGRIGHT
 10
0.0
 20
0.0
 30
0.0
  9
$PUCSORGFRONT
 10
0.0
 20
0.0
 30
0.0
  9
$PUCSORGBACK
 10
0.0
 20
0.0
 30
0.0
  9
$USERI1
 70
     0
  9
$USERI2
 70
     0
  9
$USERI3
 70
     0
  9
$USERI4
 70
     0
  9
$USERI5
 70
     0
  9
$USERR1
 40
0.0
  9
$USERR2
 40
0.0
  9
$USERR3
 40
0.0
  9
$USERR4
 40
0.0
  9
$USERR5
 40
0.0
  9
$WORLDVIEW
 70
     1
  9
$SHADEDGE
 70
     3
  9
$SHADEDIF
 70
    70
  9
$TILEMODE
 70
     1
  9
$MAXACTVP
 70
    64
  9
$PINSBASE
 10
0.0
 20
0.0
 30
0.0
  9
$PLIMCHECK
 70
     0
  9
$PEXTMIN
 10
1.000000000000000E+20
 20
1.000000000000000E+20
 30
1.000000000000000E+20
  9
$PEXTMAX
 10
-1.000000000000000E+20
 20
-1.000000000000000E+20
 30
-1.000000000000000E+20
  9
$PLIMMIN
 10
0.0
 20
0.0
  9
$PLIMMAX
 10
420.0
 20
297.0
  9
$UNITMODE
 70
     0
  9
$VISRETAIN
 70
     1
  9
$PLINEGEN
 70
     0
  9
$PSLTSCALE
 70
     1
  9
$TREEDEPTH
 70
  3020
  9
$CMLSTYLE
  2
Standard
  9
$CMLJUST
 70
     0
  9
$CMLSCALE
 40
20.0
  9
$PROXYGRAPHICS
 70
     1
  9
$MEASUREMENT
 70
     1
  9
$CELWEIGHT
370
    -1
  9
$ENDCAPS
280
     0
  9
$JOINSTYLE
280
     0
  9
$LWDISPLAY
290
     0
  9
$INSUNITS
 70
     4
  9
$HYPERLINKBASE
  1

  9
$STYLESHEET
  1

  9
$XEDIT
290
     1
  9
$CEPSNTYPE
380
     0
  9
$PSTYLEMODE
290
     1
  9
$FINGERPRINTGUID
  2
{15C49886-C49D-4138-915A-14F9175FD66E}
  9
$VERSIONGUID
  2
{FAEB1C32-E019-11D5-929B-00C0DF256EC4}
  9
$EXTNAMES
290
     1
  9
$PSVPSCALE
 40
0.0
  9
$OLESTARTUP
290
     0
  9
$SORTENTS
280
   127
  9
$INDEXCTL
280
     0
  9
$HIDETEXT
280
     1
  9
$XCLIPFRAME
290
     0
  9
$HALOGAP
280
     0
  9
$OBSCOLOR
 70
   257
  9
$OBSLTYPE
280
     0
  9
$INTERSECTIONDISPLAY
280
     0
  9
$INTERSECTIONCOLOR
 70
   257
  9
$DIMASSOC
280
     2
  9
$PROJECTNAME
  1

  0
ENDSEC
  0
SECTION
  2
CLASSES
  0
CLASS
  1
ACDBDICTIONARYWDFLT
  2
AcDbDictionaryWithDefault
  3
ObjectDBX Classes
 90
        0
 91
        4
280
     0
281
     0
  0
CLASS
  1
VISUALSTYLE
  2
AcDbVisualStyle
  3
ObjectDBX Classes
 90
     4095
 91
        4
280
     0
281
     0
  0
ENDSEC
  0
SECTION
  2
TABLES
  0
TABLE
  2
VPORT
  5
8
330
0
100
AcDbSymbolTable
 70
     1
  0
VPORT
  5
29
330
8
100
AcDbSymbolTableRecord
100
AcDbViewportTableRecord
  2
*Active
 70
     0
 10
0.0
 20
0.0
 11
1.0
 21
1.0
 12
0.0
 22
0.0
 13
0.0
 23
0.0
 14
10.0
 24
10.0
 15
10.0
 25
10.0
 16
0.0
 26
0.0
 36
1.0
 17
0.0
 27
0.0
 37
0.0
 40
1633.5
 41
1.414141414141414
 42
50.0
 43
0.0
 44
0.0
 50
0.0
 51
0.0
 71
     0
 72
 10000
 73
     1
 74
     3
 75
     0
 76
     0
 77
     0
 78
     0
281
     0
 65
     1
110
0.0
120
0.0
130
0.0
111
1.0
121
0.0
131
0.0
112
0.0
122
1.0
132
0.0
 79
     0
146
0.0
  0
ENDTAB
  0
TABLE
  2
LTYPE
  5
5
330
0
100
AcDbSymbolTable
 70
     4
  0
LTYPE
  5
14
330
5
100
AcDbSymbolTableRecord
100
AcDbLinetypeTableRecord
  2
ByBlock
 70
     0
  3

 72
    65
 73
     0
 40
0.0
  0
LTYPE
  5
15
330
5
100
AcDbSymbolTableRecord
100
AcDbLinetypeTableRecord
  2
ByLayer
 70
     0
  3

 72
    65
 73
     0
 40
0.0
  0
LTYPE
  5
16
330
5
100
AcDbSymbolTableRecord
100
AcDbLinetypeTableRecord
  2
Continuous
 70
     0
  3
Solid line
 72
    65
 73
     0
 40
0.0
  0
LTYPE
  5
3C
330
5
100
AcDbSymbolTableRecord
100
AcDbLinetypeTableRecord
  2
JWW_HOJO
 70
     0
  3
  -   -   -   -   -   -   -   - 
 72
    65
 73
     2
 40
1.693333333333333
 49
-1.27
 74
     0
 49
0.4233333333333333
 74
     0
  0
LTYPE
  5
3D
330
5
100
AcDbSymbolTableRecord
100
AcDbLinetypeTableRecord
  2
JWW_CENTER1
 70
     0
  3
-----  --  ----------  --  -----
 72
    65
 73
     4
 40
6.773333333333333
 49
4.233333333333333
 74
     0
 49
-0.8466666666666667
 74
     0
 49
0.8466666666666667
 74
     0
 49
-0.8466666666666667
 74
     0
  0
LTYPE
  5
3E
330
5
100
AcDbSymbolTableRecord
100
AcDbLinetypeTableRecord
  2
JWW_DASHED1
 70
     0
  3
-  --  --  --  --  --  --  --  -
 72
    65
 73
     2
 40
1.693333333333333
 49
0.8466666666666667
 74
     0
 49
-0.8466666666666667
 74
     0
  0
ENDTAB
  0
TABLE
  2
LAYER
  5
2
330
0
100
AcDbSymbolTable
 70
     5
  0
LAYER
  5
10
330
2
100
AcDbSymbolTableRecord
100
AcDbLayerTableRecord
  2
0
 70
     0
 62
     7
  6
Continuous
370
    -3
390
F
  0
LAYER
  5
3F
330
2
100
AcDbSymbolTableRecord
100
AcDbLayerTableRecord
  2
通り芯
 70
     0
 62
     7
  6
Continuous
370
    -3
390
F
  0
LAYER
  5
40
330
2
100
AcDbSymbolTableRecord
100
AcDbLayerTableRecord
  2
躯体
 70
     0
 62
     7
  6
Continuous
370
    -3
390
F
  0
LAYER
  5
41
330
2
100
AcDbSymbolTableRecord
100
AcDbLayerTableRecord
  2
その他
 70
     0
 62
     7
  6
Continuous
370
    -3
390
F
  0
LAYER
  5
42
330
2
100
AcDbSymbolTableRecord
100
AcDbLayerTableRecord
  2
F-Fﾚｲﾔ
 70
     0
 62
     7
  6
Continuous
370
    -3
390
F
  0
ENDTAB
  0
TABLE
  2
STYLE
  5
3
330
0
100
AcDbSymbolTable
 70
     2
  0
STYLE
  5
11
330
3
100
AcDbSymbolTableRecord
100
AcDbTextStyleTableRecord
  2
Standard
 70
     0
 40
0.0
 41
1.0
 50
0.0
 71
     0
 42
2.5
  3
txt
  4

1001
ACAD
1000

1071
        0
  0
STYLE
  5
3B
330
3
100
AcDbSymbolTableRecord
100
AcDbTextStyleTableRecord
  2
ＭＳ ゴシック
 70
     0
 40
1.0
 41
1.0
 50
0.0
 71
     0
 42
10.0
  3

  4

1001
ACAD
1000
MS Gothic
1071
    32817
  0
ENDTAB
  0
TABLE
  2
VIEW
  5
6
330
0
100
AcDbSymbolTable
 70
     0
  0
ENDTAB
  0
TABLE
  2
UCS
  5
7
330
0
100
AcDbSymbolTable
 70
     0
  0
ENDTAB
  0
TABLE
  2
APPID
  5
9
330
0
100
AcDbSymbolTable
 70
     1
  0
APPID
  5
12
330
9
100
AcDbSymbolTableRecord
100
AcDbRegAppTableRecord
  2
ACAD
 70
     0
  0
ENDTAB
  0
TABLE
  2
DIMSTYLE
  5
A
330
0
100
AcDbSymbolTable
 70
     1
100
AcDbDimStyleTable
  0
DIMSTYLE
105
27
330
A
100
AcDbSymbolTableRecord
100
AcDbDimStyleTableRecord
  2
ISO-25
 70
     0
 41
2.5
 42
0.625
 43
3.75
 44
1.25
 73
     0
 74
     0
 77
     1
 78
     8
140
2.5
141
2.5
143
0.03937007874016
147
0.625
171
     3
172
     1
271
     2
272
     2
274
     3
278
    44
283
     0
284
     8
340
11
  0
ENDTAB
  0
TABLE
  2
BLOCK_RECORD
  5
1
330
0
100
AcDbSymbolTable
 70
     1
  0
BLOCK_RECORD
  5
1F
330
1
100
AcDbSymbolTableRecord
100
AcDbBlockTableRecord
  2
*Model_Space
340
22
  0
BLOCK_RECORD
  5
1B
330
1
100
AcDbSymbolTableRecord
100
AcDbBlockTableRecord
  2
*Paper_Space
340
1E
  0
BLOCK_RECORD
  5
23
330
1
100
AcDbSymbolTableRecord
100
AcDbBlockTableRecord
  2
*Paper_Space0
340
26
  0
ENDTAB
  0
ENDSEC
  0
SECTION
  2
BLOCKS
  0
BLOCK
  5
20
330
1F
100
AcDbEntity
  8
0
100
AcDbBlockBegin
  2
*Model_Space
 70
     0
 10
0.0
 20
0.0
 30
0.0
  3
*Model_Space
  1

  0
ENDBLK
  5
21
330
1F
100
AcDbEntity
  8
0
100
AcDbBlockEnd
  0
BLOCK
  5
1C
330
1B
100
AcDbEntity
 67
     1
  8
0
100
AcDbBlockBegin
  2
*Paper_Space
 70
     0
 10
0.0
 20
0.0
 30
0.0
  3
*Paper_Space
  1

  0
ENDBLK
  5
1D
330
1B
100
AcDbEntity
 67
     1
  8
0
100
AcDbBlockEnd
  0
BLOCK
  5
24
330
23
100
AcDbEntity
  8
0
100
AcDbBlockBegin
  2
*Paper_Space0
 70
     0
 10
0.0
 20
0.0
 30
0.0
  3
*Paper_Space0
  1

  0
ENDBLK
  5
25
330
23
100
AcDbEntity
  8
0
100
AcDbBlockEnd
  0
ENDSEC
  0
SECTION
  2
ENTITIES
  0
LINE
  5
43
330
1F
100
AcDbEntity
  8
通り芯
  6
JWW_HOJO
 62
     3
370
     9
100
AcDbLine
 10
346.8741339606208
 20
-307.7928017281197
 30
0.0
 11
347.1641334327492
 21
-307.7928017281197
 31
0.0
  0
LINE
  5
44
330
1F
100
AcDbEntity
  8
躯体
  6
Continuous
 62
     2
370
     9
100
AcDbLine
 10
305.2641585066513
 20
-188.2927600757495
 30
0.0
 11
336.264161805849
 21
-188.2927600757495
 31
0.0
  0
LINE
  5
45
330
1F
100
AcDbEntity
  8
躯体
  6
Continuous
 62
     2
370
     9
100
AcDbLine
 10
301.2642937737542
 20
352.7068844357053
 30
0.0
 11
301.2642937737542
 21
321.7071285763303
 31
0.0
  0
LINE
  5
46
330
1F
100
AcDbEntity
  8
躯体
  6
Continuous
 62
     2
370
     9
100
AcDbLine
 10
344.7642145930109
 20
-165.7928095637141
 30
0.0
 11
371.4723741686024
 21
-165.7928095637141
 31
0.0
  0
LINE
  5
47
330
1F
100
AcDbEntity
  8
躯体
  6
Continuous
 62
     2
370
     9
100
AcDbLine
 10
344.7642145930109
 20
-169.7929217364336
 30
0.0
 11
371.4723741686024
 21
-169.7929217364336
 31
0.0
  0
LINE
  5
48
330
1F
100
AcDbEntity
  8
躯体
  6
Continuous
 62
     2
370
     9
100
AcDbLine
 10
372.4725259316935
 20
-164.7929052404455
 30
0.0
 11
395.4725523252745
 21
-164.7929052404455
 31
0.0
  0
LINE
  5
49
330
1F
100
AcDbEntity
  8
躯体
  6
Continuous
 62
     2
370
     9
100
AcDbLine
 10
372.4725259316935
 20
-170.7928260597023
 30
0.0
 11
395.4725523252745
 21
-170.7928260597023
 31
0.0
  0
LINE
  5
4A
330
1F
100
AcDbEntity
  8
躯体
  6
Continuous
 62
     2
370
     9
100
AcDbLine
 10
396.4724566485432
 20
-165.7928095637141
 30
0.0
 11
415.7351519610432
 21
-165.7928095637141
 31
0.0
  0
LINE
  5
4B
330
1F
100
AcDbEntity
  8
躯体
  6
Continuous
 62
     2
370
     9
100
AcDbLine
 10
396.4724566485432
 20
-169.7929217364336
 30
0.0
 11
416.5249798748945
 21
-169.7929217364336
 31
0.0
  0
LINE
  5
4C
330
1F
100
AcDbEntity
  8
躯体
  6
Continuous
 62
     2
370
     9
100
AcDbLine
 10
395.5996126741977
 20
-174.7929382324219
 30
0.0
 11
372.4725259316935
 21
-174.7929382324219
 31
0.0
  0
LINE
  5
4D
330
1F
100
AcDbEntity
  8
躯体
  6
Continuous
 62
     2
370
     9
100
AcDbLine
 10
372.4725259316935
 20
-160.7927930677259
 30
0.0
 11
395.4725523252745
 21
-160.7927930677259
 31
0.0
  0
LINE
  5
4E
330
1F
100
AcDbEntity
  8
躯体
  6
Continuous
 62
     2
370
     9
100
AcDbLine
 10
440.1243055188979
 20
66.70721518026824
 30
0.0
 11
476.1243253140836
 21
66.70721518026824
 31
0.0
  0
LINE
  5
4F
330
1F
100
AcDbEntity
  8
躯体
  6
Continuous
 62
     2
370
     9
100
AcDbLine
 10
440.1243055188979
 20
62.70710300754857
 30
0.0
 11
476.1243253140836
 21
62.70710300754857
 31
0.0
  0
LINE
  5
50
330
1F
100
AcDbEntity
  8
躯体
  6
Continuous
 62
     2
370
     9
100
AcDbLine
 10
477.124477077175
 20
67.70724322344805
 30
0.0
 11
500.124503470756
 21
67.70724322344805
 31
0.0
  0
LINE
  5
51
330
1F
100
AcDbEntity
  8
躯体
  6
Continuous
 62
     2
370
     9
100
AcDbLine
 10
477.124477077175
 20
61.70719868428009
 30
0.0
 11
500.124503470756
 21
61.70719868428009
 31
0.0
  0
LINE
  5
52
330
1F
100
AcDbEntity
  8
躯体
  6
Continuous
 62
     2
370
     9
100
AcDbLine
 10
501.1245315139359
 20
66.70721518026824
 30
0.0
 11
521.077583931588
 21
66.70721518026824
 31
0.0
  0
LINE
  5
53
330
1F
100
AcDbEntity
  8
躯体
  6
Continuous
 62
     2
370
     9
100
AcDbLine
 10
501.1245315139359
 20
62.70710300754857
 30
0.0
 11
523.3096148516682
 21
62.70710300754857
 31
0.0
  0
LINE
  5
54
330
1F
100
AcDbEntity
  8
躯体
  6
Continuous
 62
     2
370
     9
100
AcDbLine
 10
500.2518112595018
 20
57.70721023147175
 30
0.0
 11
477.124477077175
 21
57.70721023147175
 31
0.0
  0
LINE
  5
55
330
1F
100
AcDbEntity
  8
躯体
  6
Continuous
 62
     2
370
     9
100
AcDbLine
 10
477.124477077175
 20
71.70723167625638
 30
0.0
 11
500.124503470756
 21
71.70723167625638
 31
0.0
  0
LINE
  5
56
330
1F
100
AcDbEntity
  8
躯体
  6
Continuous
 62
     2
370
     9
100
AcDbLine
 10
305.2641585066513
 20
317.7072638434333
 30
0.0
 11
336.264161805849
 21
317.7072638434333
 31
0.0
  0
LINE
  5
57
330
1F
100
AcDbEntity
  8
躯体
  6
Continuous
 62
     2
370
     9
100
AcDbLine
 10
320.7642838761615
 20
-160.7927930677259
 30
0.0
 11
343.7641865498313
 21
-160.7927930677259
 31
0.0
  0
LINE
  5
58
330
1F
100
AcDbEntity
  8
躯体
  6
Continuous
 62
     2
370
     9
100
AcDbLine
 10
338.2642178922086
 20
-174.7929382324219
 30
0.0
 11
338.2642178922086
 21
-186.292827709301
 31
0.0
  0
LINE
  5
59
330
1F
100
AcDbEntity
  8
通り芯
  6
Continuous
 62
     3
370
     9
100
AcDbLine
 10
293.6644270613388
 20
437.2070889859588
 30
0.0
 11
365.6644666517104
 21
437.2070889859588
 31
0.0
  0
LINE
  5
5A
330
1F
100
AcDbEntity
  8
躯体
  6
Continuous
 62
     2
370
     9
100
AcDbLine
 10
298.2643333641261
 20
314.707303433805
 30
0.0
 11
338.2642178922086
 21
314.707303433805
 31
0.0
  0
LINE
  5
5B
330
1F
100
AcDbEntity
  8
躯体
  6
Continuous
 62
     2
370
     9
100
AcDbLine
 10
298.2643333641261
 20
-185.2927996661211
 30
0.0
 11
338.2642178922086
 21
-185.2927996661211
 31
0.0
  0
LINE
  5
5C
330
1F
100
AcDbEntity
  8
通り芯
  6
Continuous
 62
     3
370
     9
100
AcDbLine
 10
298.2643333641261
 20
-185.2927996661211
 30
0.0
 11
292.2644125448693
 21
-185.2927996661211
 31
0.0
  0
LINE
  5
5D
330
1F
100
AcDbEntity
  8
躯体
  6
Continuous
 62
     2
370
     9
100
AcDbLine
 10
352.2643630569047
 20
-253.2928198737067
 30
0.0
 11
361.264368005701
 21
-253.2928198737067
 31
0.0
  0
LINE
  5
5E
330
1F
100
AcDbEntity
  8
躯体
  6
JWW_CENTER1
 62
     2
370
     9
100
AcDbLine
 10
318.264151908256
 20
-153.4502637708509
 30
0.0
 11
318.264151908256
 21
-185.7078799685916
 31
0.0
  0
LINE
  5
5F
330
1F
100
AcDbEntity
  8
躯体
  6
Continuous
 62
     2
370
     9
100
AcDbLine
 10
305.2641585066513
 20
317.7072638434333
 30
0.0
 11
305.2641585066513
 21
326.7071450723185
 31
0.0
  0
LINE
  5
60
330
1F
100
AcDbEntity
  8
躯体
  6
Continuous
 62
     2
370
     9
100
AcDbLine
 10
352.2643630569047
 20
382.7069834116344
 30
0.0
 11
361.264368005701
 21
382.7069834116344
 31
0.0
  0
LINE
  5
61
330
1F
100
AcDbEntity
  8
躯体
  6
JWW_CENTER1
 62
     2
370
     9
100
AcDbLine
 10
356.7643036713471
 20
157.7399547680005
 30
0.0
 11
356.7643036713471
 21
-31.64999059728672
 31
0.0
  0
LINE
  5
62
330
1F
100
AcDbEntity
  8
躯体
  6
Continuous
 62
     2
370
     9
100
AcDbLine
 10
356.7643036713471
 20
154.7070848619616
 30
0.0
 11
298.2379810230154
 21
154.7070848619616
 31
0.0
  0
LINE
  5
63
330
1F
100
AcDbEntity
  8
躯体
  6
Continuous
 62
     2
370
     9
100
AcDbLine
 10
298.2379810230154
 20
141.7070914603569
 30
0.0
 11
350.2641832506336
 21
141.7070914603569
 31
0.0
  0
LINE
  5
64
330
1F
100
AcDbEntity
  8
躯体
  6
JWW_CENTER1
 62
     2
370
     9
100
AcDbLine
 10
296.0553143475508
 20
148.2072118810706
 30
0.0
 11
370.2184728673987
 21
148.2072118810706
 31
0.0
  0
LINE
  5
65
330
1F
100
AcDbEntity
  8
躯体
  6
Continuous
 62
     2
370
     9
100
AcDbLine
 10
298.2643333641261
 20
-25.29276667414479
 30
0.0
 11
356.7643036713471
 21
-25.29276667414479
 31
0.0
  0
LINE
  5
66
330
1F
100
AcDbEntity
  8
躯体
  6
Continuous
 62
     2
370
     9
100
AcDbLine
 10
298.2643333641261
 20
-12.2927732725401
 30
0.0
 11
350.2641832506336
 21
-12.2927732725401
 31
0.0
  0
LINE
  5
67
330
1F
100
AcDbEntity
  8
躯体
  6
JWW_CENTER1
 62
     2
370
     9
100
AcDbLine
 10
296.2323575406461
 20
-18.79289369325377
 30
0.0
 11
371.9402828732052
 21
-18.79289369325377
 31
0.0
  0
LINE
  5
68
330
1F
100
AcDbEntity
  8
躯体
  6
Continuous
 62
     2
370
     9
100
AcDbLine
 10
350.2641832506336
 20
148.2072118810706
 30
0.0
 11
350.2641832506336
 21
-18.79289369325377
 31
0.0
  0
LINE
  5
69
330
1F
100
AcDbEntity
  8
躯体
  6
Continuous
 62
     2
370
     9
100
AcDbLine
 10
363.2641766522383
 20
148.2072118810706
 30
0.0
 11
363.2641766522383
 21
-18.79289369325377
 31
0.0
  0
LINE
  5
6A
330
1F
100
AcDbEntity
  8
躯体
  6
Continuous
 62
     2
370
     9
100
AcDbLine
 10
338.2642178922086
 20
-25.29276667414479
 30
0.0
 11
338.2642178922086
 21
-160.7927930677259
 31
0.0
  0
LINE
  5
6B
330
1F
100
AcDbEntity
  8
躯体
  6
Continuous
 62
     2
370
     9
100
AcDbLine
 10
338.2642178922086
 20
141.7070914603569
 30
0.0
 11
338.2642178922086
 21
-12.2927732725401
 31
0.0
  0
LINE
  5
6C
330
1F
100
AcDbEntity
  8
躯体
  6
Continuous
 62
     2
370
     9
100
AcDbLine
 10
299.2643614073057
 20
354.7071879618878
 30
0.0
 11
298.2643333641261
 21
354.7071879618878
 31
0.0
  0
LINE
  5
6D
330
1F
100
AcDbEntity
  8
躯体
  6
JWW_CENTER1
 62
     2
370
     9
100
AcDbLine
 10
285.5469162399706
 20
336.2071021827492
 30
0.0
 11
305.0384933884081
 21
336.2071021827492
 31
0.0
  0
LINE
  5
6E
330
1F
100
AcDbEntity
  8
躯体
  6
Continuous
 62
     2
370
     9
100
AcDbLine
 10
297.2644290408573
 20
353.7072836386192
 30
0.0
 11
298.2643333641261
 21
353.7072836386192
 31
0.0
  0
LINE
  5
6F
330
1F
100
AcDbEntity
  8
躯体
  6
Continuous
 62
     2
370
     9
100
AcDbLine
 10
297.2644290408573
 20
318.707168166702
 30
0.0
 11
298.2643333641261
 21
318.707168166702
 31
0.0
  0
LINE
  5
70
330
1F
100
AcDbEntity
  8
躯体
  6
Continuous
 62
     2
370
     9
100
AcDbLine
 10
304.4641855600719
 20
323.7071846626901
 30
0.0
 11
304.4641855600719
 21
348.7070197028083
 31
0.0
  0
LINE
  5
71
330
1F
100
AcDbEntity
  8
躯体
  6
Continuous
 62
     2
370
     9
100
AcDbLine
 10
298.2643333641261
 20
313.1073575406463
 30
0.0
 11
298.2643333641261
 21
354.7071879618878
 31
0.0
  0
LINE
  5
72
330
1F
100
AcDbEntity
  8
躯体
  6
JWW_CENTER1
 62
     2
370
     9
100
AcDbLine
 10
310.2641750026393
 20
300.6074400205871
 30
0.0
 11
338.2642178922086
 21
300.6074400205871
 31
0.0
  0
LINE
  5
73
330
1F
100
AcDbEntity
  8
躯体
  6
JWW_CENTER1
 62
     2
370
     9
100
AcDbLine
 10
324.2643201673354
 20
314.3606402422931
 30
0.0
 11
324.2643201673354
 21
286.3508853396854
 31
0.0
  0
LINE
  5
74
330
1F
100
AcDbEntity
  8
躯体
  6
Continuous
 62
     2
370
     9
100
AcDbLine
 10
301.2642937737542
 20
-215.2928986420502
 30
0.0
 11
315.2643152185388
 21
-215.2928986420502
 31
0.0
  0
LINE
  5
75
330
1F
100
AcDbEntity
  8
躯体
  6
Continuous
 62
     2
370
     9
100
AcDbLine
 10
338.2642178922086
 20
315.7072077570735
 30
0.0
 11
338.2642178922086
 21
313.1073575406463
 31
0.0
  0
LINE
  5
76
330
1F
100
AcDbEntity
  8
躯体
  6
JWW_CENTER1
 62
     2
370
     9
100
AcDbLine
 10
286.1078623178844
 20
-205.2928656500739
 30
0.0
 11
317.5854244747677
 21
-205.2928656500739
 31
0.0
  0
LINE
  5
77
330
1F
100
AcDbEntity
  8
躯体
  6
Continuous
 62
     2
370
     9
100
AcDbLine
 10
292.2644125448693
 20
-212.7928903940561
 30
0.0
 11
298.2643333641261
 21
-209.2928541028822
 31
0.0
  0
LINE
  5
78
330
1F
100
AcDbEntity
  8
躯体
  6
Continuous
 62
     2
370
     9
100
AcDbLine
 10
315.2643152185388
 20
-209.2928541028822
 30
0.0
 11
298.2643333641261
 21
-209.2928541028822
 31
0.0
  0
LINE
  5
79
330
1F
100
AcDbEntity
  8
躯体
  6
Continuous
 62
     2
370
     9
100
AcDbLine
 10
298.2643333641261
 20
-201.2928771972656
 30
0.0
 11
315.2643152185388
 21
-201.2928771972656
 31
0.0
  0
LINE
  5
7A
330
1F
100
AcDbEntity
  8
通り芯
  6
Continuous
 62
     3
370
     9
100
AcDbLine
 10
292.2644125448693
 20
-196.2928607012774
 30
0.0
 11
298.2643333641261
 21
-199.7928969924514
 31
0.0
  0
LINE
  5
7B
330
1F
100
AcDbEntity
  8
躯体
  6
Continuous
 62
     2
370
     9
100
AcDbLine
 10
292.2644125448693
 20
-197.7928409060916
 30
0.0
 11
298.2643333641261
 21
-201.2928771972656
 31
0.0
  0
LINE
  5
7C
330
1F
100
AcDbEntity
  8
躯体
  6
Continuous
 62
     2
370
     9
100
AcDbLine
 10
292.2644125448693
 20
-197.7744066393053
 30
0.0
 11
292.2644125448693
 21
-212.7928903940561
 31
0.0
  0
LINE
  5
7D
330
1F
100
AcDbEntity
  8
躯体
  6
Continuous
 62
     2
370
     9
100
AcDbLine
 10
301.2642937737542
 20
-195.2928326580975
 30
0.0
 11
315.2643152185388
 21
-195.2928326580975
 31
0.0
  0
LINE
  5
7E
330
1F
100
AcDbEntity
  8
躯体
  6
Continuous
 62
     2
370
     9
100
AcDbLine
 10
315.2643152185388
 20
-215.2928986420502
 30
0.0
 11
315.2643152185388
 21
-195.2928326580975
 31
0.0
  0
LINE
  5
7F
330
1F
100
AcDbEntity
  8
躯体
  6
JWW_DASHED1
 62
     2
370
     9
100
AcDbLine
 10
305.2641585066513
 20
-195.2928326580975
 30
0.0
 11
305.2641585066513
 21
-197.292765024546
 31
0.0
  0
LINE
  5
80
330
1F
100
AcDbEntity
  8
躯体
  6
JWW_DASHED1
 62
     2
370
     9
100
AcDbLine
 10
315.2643152185388
 20
-197.292765024546
 30
0.0
 11
305.2641585066513
 21
-197.292765024546
 31
0.0
  0
LINE
  5
81
330
1F
100
AcDbEntity
  8
通り芯
  6
Continuous
 62
     3
370
     9
100
AcDbLine
 10
292.2644125448693
 20
-214.2928705988703
 30
0.0
 11
298.2643333641261
 21
-210.7929580276077
 31
0.0
  0
LINE
  5
82
330
1F
100
AcDbEntity
  8
躯体
  6
Continuous
 62
     2
370
     9
100
AcDbLine
 10
315.2643152185388
 20
-208.2929497796135
 30
0.0
 11
298.2643333641261
 21
-208.2929497796135
 31
0.0
  0
LINE
  5
83
330
1F
100
AcDbEntity
  8
躯体
  6
Continuous
 62
     2
370
     9
100
AcDbLine
 10
298.2643333641261
 20
-202.2927815205342
 30
0.0
 11
315.2643152185388
 21
-202.2927815205342
 31
0.0
  0
LINE
  5
84
330
1F
100
AcDbEntity
  8
通り芯
  6
Continuous
 62
     3
370
     9
100
AcDbLine
 10
298.2643333641261
 20
-209.218374716269
 30
0.0
 11
298.2643333641261
 21
-185.2927996661211
 31
0.0
  0
LINE
  5
85
330
1F
100
AcDbEntity
  8
躯体
  6
Continuous
 62
     2
370
     9
100
AcDbLine
 10
298.2643333641261
 20
2.51551035288216
 30
0.0
 11
298.2643333641261
 21
-225.2927769841374
 31
0.0
  0
LINE
  5
86
330
1F
100
AcDbEntity
  8
躯体
  6
Continuous
 62
     2
370
     9
100
AcDbLine
 10
308.2643663561024
 20
-201.2928771972656
 30
0.0
 11
308.2643663561024
 21
-209.2928541028822
 31
0.0
  0
LINE
  5
87
330
1F
100
AcDbEntity
  8
通り芯
  6
Continuous
 62
     3
370
     9
100
AcDbLine
 10
290.6642192118878
 20
434.2071285763303
 30
0.0
 11
290.6642192118878
 21
-304.79271759858
 31
0.0
  0
LINE
  5
88
330
1F
100
AcDbEntity
  8
通り芯
  6
Continuous
 62
     3
370
     9
100
AcDbLine
 10
292.2644125448693
 20
-185.2927996661211
 30
0.0
 11
292.2644125448693
 21
-286.7928314208984
 31
0.0
  0
LINE
  5
89
330
1F
100
AcDbEntity
  8
通り芯
  6
Continuous
 62
     3
370
     9
100
AcDbLine
 10
293.6641796215162
 20
435.7071087811445
 30
0.0
 11
365.6644666517104
 21
435.7071087811445
 31
0.0
  0
LINE
  5
8A
330
1F
100
AcDbEntity
  8
通り芯
  6
Continuous
 62
     3
370
     9
100
AcDbLine
 10
292.1643231366133
 20
434.2071285763303
 30
0.0
 11
292.1643231366133
 21
-304.79271759858
 31
0.0
  0
LINE
  5
8B
330
1F
100
AcDbEntity
  8
通り芯
  6
Continuous
 62
     3
370
     9
100
AcDbLine
 10
293.7641453098607
 20
164.707117853938
 30
0.0
 11
293.7641453098607
 21
-35.29279966612123
 31
0.0
  0
LINE
  5
8C
330
1F
100
AcDbEntity
  8
通り芯
  6
Continuous
 62
     3
370
     9
100
AcDbLine
 10
292.1643231366133
 20
164.707117853938
 30
0.0
 11
293.7641453098607
 21
164.707117853938
 31
0.0
  0
LINE
  5
8D
330
1F
100
AcDbEntity
  8
通り芯
  6
Continuous
 62
     3
370
     9
100
AcDbLine
 10
292.1643231366133
 20
-35.29279966612123
 30
0.0
 11
293.7641453098607
 21
-35.29279966612123
 31
0.0
  0
LINE
  5
8E
330
1F
100
AcDbEntity
  8
通り芯
  6
Continuous
 62
     3
370
     9
100
AcDbLine
 10
293.7641453098607
 20
142.2071673419025
 30
0.0
 11
296.7642294394005
 21
142.2071673419025
 31
0.0
  0
LINE
  5
8F
330
1F
100
AcDbEntity
  8
通り芯
  6
Continuous
 62
     3
370
     9
100
AcDbLine
 10
293.7641453098607
 20
-12.79272543417434
 30
0.0
 11
296.7642294394005
 21
-12.79272543417434
 31
0.0
  0
LINE
  5
90
330
1F
100
AcDbEntity
  8
躯体
  6
Continuous
 62
     2
370
     9
100
AcDbLine
 10
292.2644125448693
 20
348.707267142631
 30
0.0
 11
292.2644125448693
 21
323.7071846626901
 31
0.0
  0
LINE
  5
91
330
1F
100
AcDbEntity
  8
躯体
  6
Continuous
 62
     2
370
     9
100
AcDbLine
 10
298.2643333641261
 20
349.2070955843539
 30
0.0
 11
301.2642937737542
 21
349.2070955843539
 31
0.0
  0
LINE
  5
92
330
1F
100
AcDbEntity
  8
躯体
  6
Continuous
 62
     2
370
     9
100
AcDbLine
 10
298.2643333641261
 20
323.2071087811445
 30
0.0
 11
301.2642937737542
 21
323.2071087811445
 31
0.0
  0
LINE
  5
93
330
1F
100
AcDbEntity
  8
躯体
  6
Continuous
 62
     2
370
     9
100
AcDbLine
 10
460.324426599451
 20
46.7071491963155
 30
0.0
 11
455.9243279534419
 21
46.7071491963155
 31
0.0
  0
LINE
  5
94
330
1F
100
AcDbEntity
  8
躯体
  6
Continuous
 62
     2
370
     9
100
AcDbLine
 10
461.1242758261193
 20
47.50712214289493
 30
0.0
 11
455.1243550068625
 21
47.50712214289493
 31
0.0
  0
LINE
  5
95
330
1F
100
AcDbEntity
  8
躯体
  6
Continuous
 62
     2
370
     9
100
AcDbLine
 10
461.1242758261193
 20
47.50712214289493
 30
0.0
 11
460.324426599451
 21
46.7071491963155
 31
0.0
  0
LINE
  5
96
330
1F
100
AcDbEntity
  8
躯体
  6
Continuous
 62
     2
370
     9
100
AcDbLine
 10
455.9243279534419
 20
46.7071491963155
 30
0.0
 11
455.1243550068625
 21
47.50712214289493
 31
0.0
  0
LINE
  5
97
330
1F
100
AcDbEntity
  8
躯体
  6
Continuous
 62
     2
370
     9
100
AcDbLine
 10
463.8744457347974
 20
70.2743076633763
 30
0.0
 11
463.8744457347974
 21
66.70721518026824
 31
0.0
  0
LINE
  5
98
330
1F
100
AcDbEntity
  8
躯体
  6
Continuous
 62
     2
370
     9
100
AcDbLine
 10
463.1245793523016
 20
70.70732735298776
 30
0.0
 11
463.8744457347974
 21
70.2743076633763
 31
0.0
  0
LINE
  5
99
330
1F
100
AcDbEntity
  8
躯体
  6
Continuous
 62
     2
370
     9
100
AcDbLine
 10
463.1245793523016
 20
70.70732735298776
 30
0.0
 11
453.1245463603253
 21
70.70732735298776
 31
0.0
  0
LINE
  5
9A
330
1F
100
AcDbEntity
  8
躯体
  6
Continuous
 62
     2
370
     9
100
AcDbLine
 10
453.1245463603253
 20
70.70732735298776
 30
0.0
 11
452.3745562579182
 21
70.2743076633763
 31
0.0
  0
LINE
  5
9B
330
1F
100
AcDbEntity
  8
躯体
  6
Continuous
 62
     2
370
     9
100
AcDbLine
 10
452.3745562579182
 20
58.70711455474037
 30
0.0
 11
463.8744457347974
 21
58.70711455474037
 31
0.0
  0
LINE
  5
9C
330
1F
100
AcDbEntity
  8
躯体
  6
Continuous
 62
     2
370
     9
100
AcDbLine
 10
439.124277475718
 20
67.70724322344805
 30
0.0
 11
416.1243748020482
 21
67.70724322344805
 31
0.0
  0
LINE
  5
9D
330
1F
100
AcDbEntity
  8
躯体
  6
Continuous
 62
     2
370
     9
100
AcDbLine
 10
439.124277475718
 20
61.70719868428009
 30
0.0
 11
416.1243748020482
 21
61.70719868428009
 31
0.0
  0
LINE
  5
9E
330
1F
100
AcDbEntity
  8
躯体
  6
Continuous
 62
     2
370
     9
100
AcDbLine
 10
415.124223038957
 20
66.70721518026824
 30
0.0
 11
395.1712943412164
 21
66.70721518026824
 31
0.0
  0
LINE
  5
9F
330
1F
100
AcDbEntity
  8
躯体
  6
Continuous
 62
     2
370
     9
100
AcDbLine
 10
415.124223038957
 20
62.70710300754857
 30
0.0
 11
392.9392634211359
 21
62.70710300754857
 31
0.0
  0
LINE
  5
A0
330
1F
100
AcDbEntity
  8
躯体
  6
Continuous
 62
     2
370
     9
100
AcDbLine
 10
415.9970670133023
 20
57.70721023147175
 30
0.0
 11
439.124277475718
 21
57.70721023147175
 31
0.0
  0
LINE
  5
A1
330
1F
100
AcDbEntity
  8
躯体
  6
Continuous
 62
     2
370
     9
100
AcDbLine
 10
439.124277475718
 20
71.70723167625638
 30
0.0
 11
416.1243748020482
 21
71.70723167625638
 31
0.0
  0
LINE
  5
A2
330
1F
100
AcDbEntity
  8
躯体
  6
JWW_CENTER1
 62
     2
370
     9
100
AcDbLine
 10
458.1245628563136
 20
42.4715980323586
 30
0.0
 11
458.1245628563136
 21
75.34855610615509
 31
0.0
  0
LINE
  5
A3
330
1F
100
AcDbEntity
  8
躯体
  6
Continuous
 62
     2
370
     9
100
AcDbLine
 10
452.3745562579182
 20
70.2743076633763
 30
0.0
 11
452.3745562579182
 21
66.70721518026824
 31
0.0
  0
LINE
  5
A4
330
1F
100
AcDbEntity
  8
躯体
  6
JWW_CENTER1
 62
     2
370
     9
100
AcDbLine
 10
532.3186513539908
 20
64.70715909390847
 30
0.0
 11
525.1953537399706
 21
64.70715909390847
 31
0.0
  0
LINE
  5
A5
330
1F
100
AcDbEntity
  8
躯体
  6
Continuous
 62
     2
370
     9
100
AcDbLine
 10
463.8744457347974
 20
55.14002207163216
 30
0.0
 11
463.8744457347974
 21
58.70711455474037
 31
0.0
  0
LINE
  5
A6
330
1F
100
AcDbEntity
  8
躯体
  6
Continuous
 62
     2
370
     9
100
AcDbLine
 10
463.1245793523016
 20
54.7070023820207
 30
0.0
 11
463.8744457347974
 21
55.14002207163216
 31
0.0
  0
LINE
  5
A7
330
1F
100
AcDbEntity
  8
躯体
  6
Continuous
 62
     2
370
     9
100
AcDbLine
 10
463.1245793523016
 20
54.7070023820207
 30
0.0
 11
453.1245463603253
 21
54.7070023820207
 31
0.0
  0
LINE
  5
A8
330
1F
100
AcDbEntity
  8
躯体
  6
Continuous
 62
     2
370
     9
100
AcDbLine
 10
453.1245463603253
 20
54.7070023820207
 30
0.0
 11
452.3745562579182
 21
55.14002207163216
 31
0.0
  0
LINE
  5
A9
330
1F
100
AcDbEntity
  8
躯体
  6
Continuous
 62
     2
370
     9
100
AcDbLine
 10
452.3745562579182
 20
55.14002207163216
 30
0.0
 11
452.3745562579182
 21
58.70711455474037
 31
0.0
  0
LINE
  5
AA
330
1F
100
AcDbEntity
  8
躯体
  6
Continuous
 62
     2
370
     9
100
AcDbLine
 10
455.9243279534419
 20
54.7070023820207
 30
0.0
 11
455.9243279534419
 21
46.7071491963155
 31
0.0
  0
LINE
  5
AB
330
1F
100
AcDbEntity
  8
躯体
  6
Continuous
 62
     2
370
     9
100
AcDbLine
 10
461.1242758261193
 20
54.7070023820207
 30
0.0
 11
461.1242758261193
 21
47.50712214289493
 31
0.0
  0
LINE
  5
AC
330
1F
100
AcDbEntity
  8
躯体
  6
Continuous
 62
     2
370
     9
100
AcDbLine
 10
460.324426599451
 20
54.7070023820207
 30
0.0
 11
460.324426599451
 21
46.7071491963155
 31
0.0
  0
LINE
  5
AD
330
1F
100
AcDbEntity
  8
躯体
  6
Continuous
 62
     2
370
     9
100
AcDbLine
 10
455.1243550068625
 20
58.70711455474037
 30
0.0
 11
455.1243550068625
 21
55.13989835172097
 31
0.0
  0
LINE
  5
AE
330
1F
100
AcDbEntity
  8
躯体
  6
Continuous
 62
     2
370
     9
100
AcDbLine
 10
455.1243550068625
 20
54.7070023820207
 30
0.0
 11
455.1243550068625
 21
47.50712214289493
 31
0.0
  0
LINE
  5
AF
330
1F
100
AcDbEntity
  8
躯体
  6
Continuous
 62
     2
370
     9
100
AcDbLine
 10
461.1242758261193
 20
58.70711455474037
 30
0.0
 11
461.1242758261193
 21
55.14014579154349
 31
0.0
  0
LINE
  5
B0
330
1F
100
AcDbEntity
  8
躯体
  6
Continuous
 62
     2
370
     9
100
AcDbLine
 10
455.1243550068625
 20
70.2743076633763
 30
0.0
 11
455.1243550068625
 21
66.70721518026824
 31
0.0
  0
LINE
  5
B1
330
1F
100
AcDbEntity
  8
躯体
  6
Continuous
 62
     2
370
     9
100
AcDbLine
 10
461.1242758261193
 20
70.27418394346498
 30
0.0
 11
461.1242758261193
 21
66.70721518026824
 31
0.0
  0
LINE
  5
B2
330
1F
100
AcDbEntity
  8
通り芯
  6
Continuous
 62
     3
370
     9
100
AcDbLine
 10
323.7639968459672
 20
94.17823172904349
 30
0.0
 11
323.7639968459672
 21
35.20713599952501
 31
0.0
  0
LINE
  5
B3
330
1F
100
AcDbEntity
  8
通り芯
  6
Continuous
 62
     3
370
     9
100
AcDbLine
 10
326.7642046954182
 20
35.20713599952501
 30
0.0
 11
326.7642046954182
 21
94.18590236354518
 31
0.0
  0
LINE
  5
B4
330
1F
100
AcDbEntity
  8
通り芯
  6
Continuous
 62
     3
370
     9
100
AcDbLine
 10
296.7642294394005
 20
2.342797356682951
 30
0.0
 11
296.7642294394005
 21
-12.79272543417434
 31
0.0
  0
LINE
  5
B5
330
1F
100
AcDbEntity
  8
通り芯
  6
Continuous
 62
     3
370
     9
100
AcDbLine
 10
296.7642294394005
 20
142.2071673419025
 30
0.0
 11
296.7642294394005
 21
127.0503647262986
 31
0.0
  0
LINE
  5
B6
330
1F
100
AcDbEntity
  8
躯体
  6
Continuous
 62
     2
370
     9
100
AcDbLine
 10
298.2643333641261
 20
5.546648180162634
 30
0.0
 11
298.2643333641261
 21
123.8388432683172
 31
0.0
  0
LINE
  5
B7
330
1F
100
AcDbEntity
  8
通り芯
  6
Continuous
 62
     3
370
     9
100
AcDbLine
 10
350.6644171637458
 20
313.1073575406463
 30
0.0
 11
350.6644171637458
 21
311.1073014542864
 31
0.0
  0
LINE
  5
B8
330
1F
100
AcDbEntity
  8
通り芯
  6
Continuous
 62
     3
370
     9
100
AcDbLine
 10
292.1643231366133
 20
245.2070865115604
 30
0.0
 11
293.6639321816935
 21
245.2070865115604
 31
0.0
  0
LINE
  5
B9
330
1F
100
AcDbEntity
  8
通り芯
  6
Continuous
 62
     3
370
     9
100
AcDbLine
 10
293.6641796215162
 20
309.1072453679266
 30
0.0
 11
293.6641796215162
 21
245.2070865115604
 31
0.0
  0
LINE
  5
BA
330
1F
100
AcDbEntity
  8
通り芯
  6
Continuous
 62
     3
370
     9
100
AcDbLine
 10
292.1643231366133
 20
305.2070988835516
 30
0.0
 11
293.6641796215162
 21
305.2070988835516
 31
0.0
  0
LINE
  5
BB
330
1F
100
AcDbEntity
  8
通り芯
  6
Continuous
 62
     3
370
     9
100
AcDbLine
 10
293.6641796215162
 20
265.2071524955131
 30
0.0
 11
295.6642357078761
 21
265.2071524955131
 31
0.0
  0
LINE
  5
BC
330
1F
100
AcDbEntity
  8
躯体
  6
Continuous
 62
     2
370
     9
100
AcDbLine
 10
298.2643333641261
 20
126.8776517300994
 30
0.0
 11
298.2643333641261
 21
288.0864282556483
 31
0.0
  0
LINE
  5
BD
330
1F
100
AcDbEntity
  8
通り芯
  6
Continuous
 62
     3
370
     9
100
AcDbLine
 10
295.6642357078761
 20
288.7770328006229
 30
0.0
 11
295.6642357078761
 21
265.2071524955131
 31
0.0
  0
LINE
  5
BE
330
1F
100
AcDbEntity
  8
通り芯
  6
Continuous
 62
     3
370
     9
100
AcDbLine
 10
295.6642357078761
 20
309.1072453679266
 30
0.0
 11
295.6642357078761
 21
295.7051622545397
 31
0.0
  0
LINE
  5
BF
330
1F
100
AcDbEntity
  8
通り芯
  6
Continuous
 62
     3
370
     9
100
AcDbLine
 10
297.664044354413
 20
311.1073014542864
 30
0.0
 11
350.6644171637458
 21
311.1073014542864
 31
0.0
  0
LINE
  5
C0
330
1F
100
AcDbEntity
  8
躯体
  6
Continuous
 62
     2
370
     9
100
AcDbLine
 10
298.2643333641261
 20
296.1958354228253
 30
0.0
 11
298.2643333641261
 21
311.1073014542864
 31
0.0
  0
LINE
  5
C1
330
1F
100
AcDbEntity
  8
躯体
  6
Continuous
 62
     2
370
     9
100
AcDbLine
 10
338.2642178922086
 20
311.1073014542864
 30
0.0
 11
338.2642178922086
 21
154.7070848619616
 31
0.0
  0
LINE
  5
C2
330
1F
100
AcDbEntity
  8
躯体
  6
Continuous
 62
     2
370
     9
100
AcDbLine
 10
310.2641750026393
 20
314.707303433805
 30
0.0
 11
310.2641750026393
 21
313.1073575406463
 31
0.0
  0
LINE
  5
C3
330
1F
100
AcDbEntity
  8
通り芯
  6
Continuous
 62
     3
370
     9
100
AcDbLine
 10
297.6642917942357
 20
313.1073575406463
 30
0.0
 11
350.6644171637458
 21
313.1073575406463
 31
0.0
  0
LINE
  5
C4
330
1F
100
AcDbEntity
  8
躯体
  6
Continuous
 62
     2
370
     9
100
AcDbLine
 10
352.2643630569047
 20
365.7073727169553
 30
0.0
 11
352.2643630569047
 21
382.7069834116344
 31
0.0
  0
LINE
  5
C5
330
1F
100
AcDbEntity
  8
躯体
  6
Continuous
 62
     2
370
     9
100
AcDbLine
 10
320.7642838761615
 20
326.7071450723185
 30
0.0
 11
305.2641585066513
 21
326.7071450723185
 31
0.0
  0
LINE
  5
C6
330
1F
100
AcDbEntity
  8
躯体
  6
Continuous
 62
     2
370
     9
100
AcDbLine
 10
327.9644115551099
 20
330.3071470518371
 30
0.0
 11
350.4643620671453
 21
360.3072460277662
 31
0.0
  0
LINE
  5
C7
330
1F
100
AcDbEntity
  8
躯体
  6
Continuous
 62
     2
370
     9
100
AcDbLine
 10
357.4442683039484
 20
354.0937846415753
 30
0.0
 11
328.9922765783362
 21
317.7072638434333
 31
0.0
  0
LINE
  5
C8
330
1F
100
AcDbEntity
  8
躯体
  6
Continuous
 62
     2
370
     9
100
AcDbLine
 10
361.264368005701
 20
365.1810682142104
 30
0.0
 11
361.264368005701
 21
382.7069834116344
 31
0.0
  0
LINE
  5
C9
330
1F
100
AcDbEntity
  8
躯体
  6
Continuous
 62
     2
370
     9
100
AcDbLine
 10
357.4442683039484
 20
-224.6792499439136
 30
0.0
 11
328.9922765783362
 21
-188.2927600757495
 31
0.0
  0
LINE
  5
CA
330
1F
100
AcDbEntity
  8
躯体
  6
Continuous
 62
     2
370
     9
100
AcDbLine
 10
361.264368005701
 20
-235.7669046762827
 30
0.0
 11
361.264368005701
 21
-253.2928198737067
 31
0.0
  0
LINE
  5
CB
330
1F
100
AcDbEntity
  8
躯体
  6
Continuous
 62
     2
370
     9
100
AcDbLine
 10
320.7645313159841
 20
-197.292765024546
 30
0.0
 11
315.2643152185388
 21
-197.292765024546
 31
0.0
  0
LINE
  5
CC
330
1F
100
AcDbEntity
  8
躯体
  6
Continuous
 62
     2
370
     9
100
AcDbLine
 10
350.4643620671453
 20
-230.8928350500158
 30
0.0
 11
327.9644115551099
 21
-200.8927670040646
 31
0.0
  0
LINE
  5
CD
330
1F
100
AcDbEntity
  8
躯体
  6
Continuous
 62
     2
370
     9
100
AcDbLine
 10
352.2643630569047
 20
-236.2928380192937
 30
0.0
 11
352.2643630569047
 21
-253.2928198737067
 31
0.0
  0
LINE
  5
CE
330
1F
100
AcDbEntity
  8
躯体
  6
Continuous
 62
     2
370
     9
100
AcDbLine
 10
338.2642178922086
 20
-170.7928260597023
 30
0.0
 11
338.2642178922086
 21
-164.7929052404455
 31
0.0
  0
LINE
  5
CF
330
1F
100
AcDbEntity
  8
躯体
  6
Continuous
 62
     2
370
     9
100
AcDbLine
 10
315.3775189373945
 20
-172.7927584261507
 30
0.0
 11
321.1510323189401
 21
-172.7927584261507
 31
0.0
  0
LINE
  5
D0
330
1F
100
AcDbEntity
  8
躯体
  6
Continuous
 62
     2
370
     9
100
AcDbLine
 10
321.1510323189401
 20
-172.7927584261507
 30
0.0
 11
324.0376652898016
 21
-167.7928656500739
 31
0.0
  0
LINE
  5
D1
330
1F
100
AcDbEntity
  8
躯体
  6
Continuous
 62
     2
370
     9
100
AcDbLine
 10
324.0376652898016
 20
-167.7928656500739
 30
0.0
 11
321.1510323189401
 21
-162.7928491540857
 31
0.0
  0
LINE
  5
D2
330
1F
100
AcDbEntity
  8
躯体
  6
Continuous
 62
     2
370
     9
100
AcDbLine
 10
321.1510323189401
 20
-162.7928491540857
 30
0.0
 11
315.3775189373945
 21
-162.7928491540857
 31
0.0
  0
LINE
  5
D3
330
1F
100
AcDbEntity
  8
躯体
  6
Continuous
 62
     2
370
     9
100
AcDbLine
 10
315.3775189373945
 20
-162.7928491540857
 30
0.0
 11
312.4906385267104
 21
-167.7928656500739
 31
0.0
  0
LINE
  5
D4
330
1F
100
AcDbEntity
  8
躯体
  6
Continuous
 62
     2
370
     9
100
AcDbLine
 10
312.4906385267104
 20
-167.7928656500739
 30
0.0
 11
315.3775189373945
 21
-172.7927584261507
 31
0.0
  0
LINE
  5
D5
330
1F
100
AcDbEntity
  8
躯体
  6
Continuous
 62
     2
370
     9
100
AcDbLine
 10
343.7641865498313
 20
-164.7929052404455
 30
0.0
 11
322.3053390915331
 21
-164.7929052404455
 31
0.0
  0
LINE
  5
D6
330
1F
100
AcDbEntity
  8
躯体
  6
Continuous
 62
     2
370
     9
100
AcDbLine
 10
343.7641865498313
 20
-174.7929382324219
 30
0.0
 11
320.7642838761615
 21
-174.7929382324219
 31
0.0
  0
LINE
  5
D7
330
1F
100
AcDbEntity
  8
躯体
  6
Continuous
 62
     2
370
     9
100
AcDbLine
 10
330.7640694283151
 20
-167.7938554093644
 30
0.0
 11
330.7640694283151
 21
-170.7928260597023
 31
0.0
  0
LINE
  5
D8
330
1F
100
AcDbEntity
  8
躯体
  6
Continuous
 62
     2
370
     9
100
AcDbLine
 10
343.7641865498313
 20
-170.7928260597023
 30
0.0
 11
322.3053390915331
 21
-170.7928260597023
 31
0.0
  0
LINE
  5
D9
330
1F
100
AcDbEntity
  8
躯体
  6
JWW_CENTER1
 62
     2
370
     9
100
AcDbLine
 10
308.3556716506547
 20
-167.7928656500739
 30
0.0
 11
328.737784720756
 21
-167.7928656500739
 31
0.0
  0
LINE
  5
DA
330
1F
100
AcDbEntity
  8
躯体
  6
JWW_CENTER1
 62
     2
370
     9
100
AcDbLine
 10
532.3186513539908
 20
-167.7928656500739
 30
0.0
 11
418.6216612119932
 21
-167.7928656500739
 31
0.0
  0
LINE
  5
DB
330
1F
100
AcDbEntity
  8
躯体
  6
JWW_CENTER1
 62
     2
370
     9
100
AcDbLine
 10
562.3187503299198
 20
-137.7928903940561
 30
0.0
 11
562.3187503299198
 21
34.70718383789062
 31
0.0
  0
LINE
  5
DC
330
1F
100
AcDbEntity
  8
通り芯
  6
Continuous
 62
     3
370
     9
100
AcDbLine
 10
364.1642390070734
 20
-307.7928017281197
 30
0.0
 11
293.6644270613388
 21
-307.7928017281197
 31
0.0
  0
LINE
  5
DD
330
1F
100
AcDbEntity
  8
通り芯
  6
Continuous
 62
     3
370
     9
100
AcDbLine
 10
364.1642390070734
 20
-306.2926978033942
 30
0.0
 11
293.6641796215162
 21
-306.2926978033942
 31
0.0
  0
LINE
  5
DE
330
1F
100
AcDbEntity
  8
通り芯
  6
Continuous
 62
     3
370
     9
100
AcDbLine
 10
354.1642060150971
 20
-304.7928413184914
 30
0.0
 11
354.1642060150971
 21
-306.2926978033942
 31
0.0
  0
LINE
  5
DF
330
1F
100
AcDbEntity
  8
通り芯
  6
Continuous
 62
     3
370
     9
100
AcDbLine
 10
365.6642192118878
 20
-304.7928413184914
 30
0.0
 11
309.1644287109375
 21
-304.7928413184914
 31
0.0
  0
LINE
  5
E0
330
1F
100
AcDbEntity
  8
通り芯
  6
Continuous
 62
     3
370
     9
100
AcDbLine
 10
365.6644666517104
 20
-306.2926978033942
 30
0.0
 11
365.6644666517104
 21
-304.7928413184914
 31
0.0
  0
LINE
  5
E1
330
1F
100
AcDbEntity
  8
通り芯
  6
JWW_CENTER1
 62
     3
370
     9
100
AcDbLine
 10
365.6642192118878
 20
-294.2928561648807
 30
0.0
 11
365.6642192118878
 21
-304.7928413184914
 31
0.0
  0
LINE
  5
E2
330
1F
100
AcDbEntity
  8
通り芯
  6
Continuous
 62
     3
370
     9
100
AcDbLine
 10
309.1644287109375
 20
-304.7928413184914
 30
0.0
 11
309.1644287109375
 21
-306.2926978033942
 31
0.0
  0
LINE
  5
E3
330
1F
100
AcDbEntity
  8
通り芯
  6
Continuous
 62
     3
370
     9
100
AcDbLine
 10
298.2643333641261
 20
-292.7927522401552
 30
0.0
 11
366.0282031909841
 21
-292.7927522401552
 31
0.0
  0
LINE
  5
E4
330
1F
100
AcDbEntity
  8
通り芯
  6
JWW_CENTER1
 62
     3
370
     9
100
AcDbLine
 10
357.1343499260979
 20
-298.7927967793232
 30
0.0
 11
373.9728772962417
 21
-298.7927967793232
 31
0.0
  0
LINE
  5
E5
330
1F
100
AcDbEntity
  8
通り芯
  6
Continuous
 62
     3
370
     9
100
AcDbLine
 10
298.2643333641261
 20
-286.7928314208984
 30
0.0
 11
298.2643333641261
 21
-210.7183549210831
 31
0.0
  0
LINE
  5
E6
330
1F
100
AcDbEntity
  8
躯体
  6
Continuous
 62
     2
370
     9
100
AcDbLine
 10
301.2642937737542
 20
-201.2928771972656
 30
0.0
 11
301.2642937737542
 21
-192.2927485285578
 31
0.0
  0
LINE
  5
E7
330
1F
100
AcDbEntity
  8
躯体
  6
Continuous
 62
     2
370
     9
100
AcDbLine
 10
301.2642937737542
 20
-223.2927518277555
 30
0.0
 11
301.2642937737542
 21
-209.2928541028822
 31
0.0
  0
LINE
  5
E8
330
1F
100
AcDbEntity
  8
躯体
  6
Continuous
 62
     2
370
     9
100
AcDbLine
 10
305.7642343881969
 20
-167.7928656500739
 30
0.0
 11
305.7642343881969
 21
-185.2927996661211
 31
0.0
  0
LINE
  5
E9
330
1F
100
AcDbEntity
  8
躯体
  6
Continuous
 62
     2
370
     9
100
AcDbLine
 10
330.7640694283151
 20
-174.7929382324219
 30
0.0
 11
330.7640694283151
 21
-185.2927996661211
 31
0.0
  0
LINE
  5
EA
330
1F
100
AcDbEntity
  8
通り芯
  6
Continuous
 62
     3
370
     9
100
AcDbLine
 10
330.6642274598818
 20
-295.7928363696948
 30
0.0
 11
360.46798293655
 21
-295.7928363696948
 31
0.0
  0
LINE
  5
EB
330
1F
100
AcDbEntity
  8
通り芯
  6
Continuous
 62
     3
370
     9
100
AcDbLine
 10
330.6642274598818
 20
-292.7927522401552
 30
0.0
 11
330.6642274598818
 21
-295.7928363696948
 31
0.0
  0
LINE
  5
EC
330
1F
100
AcDbEntity
  8
通り芯
  6
Continuous
 62
     3
370
     9
100
AcDbLine
 10
330.6642274598818
 20
-301.792880908863
 30
0.0
 11
360.46798293655
 21
-301.792880908863
 31
0.0
  0
LINE
  5
ED
330
1F
100
AcDbEntity
  8
通り芯
  6
Continuous
 62
     3
370
     9
100
AcDbLine
 10
330.6642274598818
 20
-301.792880908863
 30
0.0
 11
330.6642274598818
 21
-304.7928413184914
 31
0.0
  0
LINE
  5
EE
330
1F
100
AcDbEntity
  8
通り芯
  6
Continuous
 62
     3
370
     9
100
AcDbLine
 10
355.7643993480787
 20
-286.7928314208984
 30
0.0
 11
298.2643333641261
 21
-286.7928314208984
 31
0.0
  0
LINE
  5
EF
330
1F
100
AcDbEntity
  8
通り芯
  6
Continuous
 62
     3
370
     9
100
AcDbLine
 10
355.7643993480787
 20
-286.7928314208984
 30
0.0
 11
355.7643993480787
 21
-292.7927522401552
 31
0.0
  0
LINE
  5
F0
330
1F
100
AcDbEntity
  8
躯体
  6
Continuous
 62
     2
370
     9
100
AcDbLine
 10
305.2641585066513
 20
-188.2927600757495
 30
0.0
 11
305.2641585066513
 21
-195.2928326580975
 31
0.0
  0
LINE
  5
F1
330
1F
100
AcDbEntity
  8
通り芯
  6
JWW_CENTER1
 62
     3
370
     9
100
AcDbLine
 10
297.6642917942357
 20
287.2285543905723
 30
0.0
 11
297.6642917942357
 21
297.4444167678421
 31
0.0
  0
LINE
  5
F2
330
1F
100
AcDbEntity
  8
通り芯
  6
JWW_CENTER1
 62
     3
370
     9
100
AcDbLine
 10
292.8523295634503
 20
292.2411903175148
 30
0.0
 11
303.5257700327281
 21
292.2411903175148
 31
0.0
  0
LINE
  5
F3
330
1F
100
AcDbEntity
  8
躯体
  6
Continuous
 62
     2
370
     9
100
AcDbLine
 10
299.2643614073057
 20
-225.2927769841374
 30
0.0
 11
298.2643333641261
 21
-225.2927769841374
 31
0.0
  0
LINE
  5
F4
330
1F
100
AcDbEntity
  8
通り芯
  6
Continuous
 62
     3
370
     9
100
AcDbLine
 10
365.6644666517104
 20
-294.2928561648807
 30
0.0
 11
365.6644666517104
 21
-169.7929217364336
 31
0.0
  0
LINE
  5
F5
330
1F
100
AcDbEntity
  8
通り芯
  6
Continuous
 62
     3
370
     9
100
AcDbLine
 10
365.6644666517104
 20
437.2070889859588
 30
0.0
 11
365.6644666517104
 21
-165.7928095637141
 31
0.0
  0
LINE
  5
F6
330
1F
100
AcDbEntity
  8
通り芯
  6
JWW_CENTER1
 62
     3
370
     9
100
AcDbLine
 10
265.6642604518581
 20
64.70715909390847
 30
0.0
 11
373.5477756809544
 21
64.70715909390847
 31
0.0
  0
LINE
  5
F7
330
1F
100
AcDbEntity
  8
その他
  6
Continuous
 62
     7
370
     9
100
AcDbLine
 10
215.6642192118878
 20
-307.7928017281197
 30
0.0
 11
215.6642192118878
 21
437.2070889859588
 31
0.0
  0
LINE
  5
F8
330
1F
100
AcDbEntity
  8
その他
  6
Continuous
 62
     7
370
     9
100
AcDbLine
 10
288.6644105653505
 20
-307.7928017281197
 30
0.0
 11
214.1642390070736
 21
-307.7928017281197
 31
0.0
  0
LINE
  5
F9
330
1F
100
AcDbEntity
  8
その他
  6
Continuous
 62
     7
370
     9
100
AcDbLine
 10
288.6644105653505
 20
437.2070889859588
 30
0.0
 11
214.1642390070736
 21
437.2070889859588
 31
0.0
  0
LINE
  5
FA
330
1F
100
AcDbEntity
  8
その他
  6
Continuous
 62
     7
370
     9
100
AcDbLine
 10
215.6642192118878
 20
-307.7928017281197
 30
0.0
 11
213.7063516152872
 21
-292.9211735081028
 31
0.0
  0
LINE
  5
FB
330
1F
100
AcDbEntity
  8
その他
  6
Continuous
 62
     7
370
     9
100
AcDbLine
 10
215.6642192118878
 20
-307.7928017281197
 30
0.0
 11
217.6222105283996
 21
-292.9211735081028
 31
0.0
  0
LINE
  5
FC
330
1F
100
AcDbEntity
  8
その他
  6
Continuous
 62
     7
370
     9
100
AcDbLine
 10
215.6642192118878
 20
437.2070889859588
 30
0.0
 11
213.7063516152872
 21
422.3354607659418
 31
0.0
  0
LINE
  5
FD
330
1F
100
AcDbEntity
  8
その他
  6
Continuous
 62
     7
370
     9
100
AcDbLine
 10
215.6642192118878
 20
437.2070889859588
 30
0.0
 11
217.6222105283996
 21
422.3354607659418
 31
0.0
  0
LINE
  5
FE
330
1F
100
AcDbEntity
  8
その他
  6
Continuous
 62
     7
370
     9
100
AcDbLine
 10
600.1953537399706
 20
-185.2927996661211
 30
0.0
 11
600.1953537399706
 21
314.707303433805
 31
0.0
  0
LINE
  5
FF
330
1F
100
AcDbEntity
  8
その他
  6
Continuous
 62
     7
370
     9
100
AcDbLine
 10
343.2642343881969
 20
-185.2927996661211
 30
0.0
 11
601.6953339447846
 21
-185.2927996661211
 31
0.0
  0
LINE
  5
100
330
1F
100
AcDbEntity
  8
その他
  6
Continuous
 62
     7
370
     9
100
AcDbLine
 10
343.2642343881969
 20
314.707303433805
 30
0.0
 11
601.6953339447846
 21
314.707303433805
 31
0.0
  0
LINE
  5
101
330
1F
100
AcDbEntity
  8
その他
  6
Continuous
 62
     7
370
     9
100
AcDbLine
 10
600.1953537399706
 20
-185.2927996661211
 30
0.0
 11
598.2372387035474
 21
-170.4211714461043
 31
0.0
  0
LINE
  5
102
330
1F
100
AcDbEntity
  8
その他
  6
Continuous
 62
     7
370
     9
100
AcDbLine
 10
600.1953537399706
 20
-185.2927996661211
 30
0.0
 11
602.153221336571
 21
-170.4211714461043
 31
0.0
  0
LINE
  5
103
330
1F
100
AcDbEntity
  8
その他
  6
Continuous
 62
     7
370
     9
100
AcDbLine
 10
600.1953537399706
 20
314.707303433805
 30
0.0
 11
598.2372387035474
 21
299.8354277739654
 31
0.0
  0
LINE
  5
104
330
1F
100
AcDbEntity
  8
その他
  6
Continuous
 62
     7
370
     9
100
AcDbLine
 10
600.1953537399706
 20
314.707303433805
 30
0.0
 11
602.153221336571
 21
299.8354277739654
 31
0.0
  0
LINE
  5
105
330
1F
100
AcDbEntity
  8
その他
  6
Continuous
 62
     7
370
     9
100
AcDbLine
 10
292.1643231366133
 20
204.707126101932
 30
0.0
 11
307.0360750765414
 21
206.6649936985326
 31
0.0
  0
LINE
  5
106
330
1F
100
AcDbEntity
  8
その他
  6
Continuous
 62
     7
370
     9
100
AcDbLine
 10
292.1643231366133
 20
204.707126101932
 30
0.0
 11
307.0360750765414
 21
202.7493822252428
 31
0.0
  0
LINE
  5
107
330
1F
100
AcDbEntity
  8
その他
  6
Continuous
 62
     7
370
     9
100
AcDbLine
 10
290.6639717720651
 20
204.707126101932
 30
0.0
 11
275.7925909918708
 21
206.6649936985326
 31
0.0
  0
LINE
  5
108
330
1F
100
AcDbEntity
  8
その他
  6
Continuous
 62
     7
370
     9
100
AcDbLine
 10
290.6639717720651
 20
204.707126101932
 30
0.0
 11
275.7925909918708
 21
202.7493822252428
 31
0.0
  0
LINE
  5
109
330
1F
100
AcDbEntity
  8
その他
  6
Continuous
 62
     7
370
     9
100
AcDbLine
 10
322.2813374287375
 20
204.707126101932
 30
0.0
 11
244.5305489205026
 21
204.707126101932
 31
0.0
  0
LINE
  5
10A
330
1F
100
AcDbEntity
  8
その他
  6
Continuous
 62
     7
370
     9
100
AcDbLine
 10
430.4259016707138
 20
573.4603221996412
 30
0.0
 11
763.3319339236698
 21
573.4603221996412
 31
0.0
  0
LINE
  5
10B
330
1F
100
AcDbEntity
  8
その他
  6
Continuous
 62
     7
370
     9
100
AcDbLine
 10
779.7113367029141
 20
364.6710947397594
 30
0.0
 11
588.0172317092484
 21
364.6710947397594
 31
0.0
  0
LINE
  5
10C
330
1F
100
AcDbEntity
  8
その他
  6
Continuous
 62
     7
370
     9
100
AcDbLine
 10
290.6642192118878
 20
-382.7928017281197
 30
0.0
 11
365.6644666517104
 21
-382.7928017281197
 31
0.0
  0
LINE
  5
10D
330
1F
100
AcDbEntity
  8
その他
  6
Continuous
 62
     7
370
     9
100
AcDbLine
 10
290.6642192118878
 20
-309.7927340945682
 30
0.0
 11
290.6642192118878
 21
-384.2929056528452
 31
0.0
  0
LINE
  5
10E
330
1F
100
AcDbEntity
  8
その他
  6
Continuous
 62
     7
370
     9
100
AcDbLine
 10
365.6644666517104
 20
-311.2928380192937
 30
0.0
 11
365.6644666517104
 21
-384.2929056528452
 31
0.0
  0
LINE
  5
10F
330
1F
100
AcDbEntity
  8
その他
  6
Continuous
 62
     7
370
     9
100
AcDbLine
 10
290.6642192118878
 20
-382.7928017281197
 30
0.0
 11
305.5360948717274
 21
-380.8349341315192
 31
0.0
  0
LINE
  5
110
330
1F
100
AcDbEntity
  8
その他
  6
Continuous
 62
     7
370
     9
100
AcDbLine
 10
290.6642192118878
 20
-382.7928017281197
 30
0.0
 11
305.5360948717274
 21
-384.7506693247202
 31
0.0
  0
LINE
  5
111
330
1F
100
AcDbEntity
  8
その他
  6
Continuous
 62
     7
370
     9
100
AcDbLine
 10
365.6644666517104
 20
-382.7928017281197
 30
0.0
 11
350.7928384316935
 21
-380.8349341315192
 31
0.0
  0
LINE
  5
112
330
1F
100
AcDbEntity
  8
その他
  6
Continuous
 62
     7
370
     9
100
AcDbLine
 10
365.6644666517104
 20
-382.7928017281197
 30
0.0
 11
350.7928384316935
 21
-384.7506693247202
 31
0.0
  0
LINE
  5
113
330
1F
100
AcDbEntity
  8
その他
  6
Continuous
 62
     7
370
     9
100
AcDbLine
 10
430.4259016707138
 20
573.4603221996412
 30
0.0
 11
365.6644666517104
 21
437.2070889859588
 31
0.0
  0
LINE
  5
114
330
1F
100
AcDbEntity
  8
その他
  6
Continuous
 62
     7
370
     9
100
AcDbLine
 10
365.6644666517104
 20
437.2070889859588
 30
0.0
 11
369.5109186945734
 21
449.1007789405617
 31
0.0
  0
LINE
  5
115
330
1F
100
AcDbEntity
  8
その他
  6
Continuous
 62
     7
370
     9
100
AcDbLine
 10
365.6644666517104
 20
437.2070889859588
 30
0.0
 11
372.4581744219807
 21
447.6997746648016
 31
0.0
  0
LINE
  5
116
330
1F
100
AcDbEntity
  8
その他
  6
Continuous
 62
     7
370
     9
100
AcDbLine
 10
588.0172317092484
 20
364.6710947397594
 30
0.0
 11
324.846174910262
 21
76.86474361935183
 31
0.0
  0
LINE
  5
117
330
1F
100
AcDbEntity
  8
その他
  6
Continuous
 62
     7
370
     9
100
AcDbLine
 10
324.846174910262
 20
76.86474361935183
 30
0.0
 11
332.0051038587417
 21
87.11159783440678
 31
0.0
  0
LINE
  5
118
330
1F
100
AcDbEntity
  8
その他
  6
Continuous
 62
     7
370
     9
100
AcDbLine
 10
324.846174910262
 20
76.86474361935183
 30
0.0
 11
334.413311932538
 21
84.9096308527767
 31
0.0
  0
LINE
  5
119
330
1F
100
AcDbEntity
  8
その他
  6
Continuous
 62
     7
370
     9
100
AcDbLine
 10
549.8209360483531
 20
-325.9485749940614
 30
0.0
 11
820.8235869536529
 21
-325.9485749940614
 31
0.0
  0
LINE
  5
11A
330
1F
100
AcDbEntity
  8
その他
  6
Continuous
 62
     7
370
     9
100
AcDbLine
 10
568.5732867266682
 20
-224.0158637794289
 30
0.0
 11
866.94896801098
 21
-224.0158637794289
 31
0.0
  0
LINE
  5
11B
330
1F
100
AcDbEntity
  8
その他
  6
Continuous
 62
     7
370
     9
100
AcDbLine
 10
549.8209360483531
 20
-325.9485749940614
 30
0.0
 11
376.308585502006
 21
-173.6193311536634
 31
0.0
  0
LINE
  5
11C
330
1F
100
AcDbEntity
  8
その他
  6
Continuous
 62
     7
370
     9
100
AcDbLine
 10
338.2642178922086
 20
-91.04680654164909
 30
0.0
 11
568.5732867266682
 21
-224.0158637794289
 31
0.0
  0
LINE
  5
11D
330
1F
100
AcDbEntity
  8
その他
  6
Continuous
 62
     7
370
     9
100
AcDbLine
 10
338.2642178922086
 20
-91.04680654164909
 30
0.0
 11
349.8127292942357
 21
-95.83031319283151
 31
0.0
  0
LINE
  5
11E
330
1F
100
AcDbEntity
  8
その他
  6
Continuous
 62
     7
370
     9
100
AcDbLine
 10
338.2642178922086
 20
-91.04680654164909
 30
0.0
 11
348.1811111037797
 21
-98.6563234071474
 31
0.0
  0
LINE
  5
11F
330
1F
100
AcDbEntity
  8
その他
  6
Continuous
 62
     7
370
     9
100
AcDbLine
 10
376.308585502006
 20
-173.6193311536634
 30
0.0
 11
386.6983362146325
 21
-180.5695446117504
 31
0.0
  0
LINE
  5
120
330
1F
100
AcDbEntity
  8
その他
  6
Continuous
 62
     7
370
     9
100
AcDbLine
 10
376.308585502006
 20
-173.6193311536634
 30
0.0
 11
384.5453623178844
 21
-183.0217969739759
 31
0.0
  0
LINE
  5
121
330
1F
100
AcDbEntity
  8
躯体
  6
JWW_DASHED1
 62
     2
370
     9
100
AcDbLine
 10
-554.9999133960621
 20
382.7069834116344
 30
0.0
 11
-545.9999393772434
 21
382.7069834116344
 31
0.0
  0
LINE
  5
122
330
1F
100
AcDbEntity
  8
躯体
  6
JWW_DASHED1
 62
     2
370
     9
100
AcDbLine
 10
-198.9998894768792
 20
382.7069834116344
 30
0.0
 11
-189.9998845280827
 21
382.7069834116344
 31
0.0
  0
LINE
  5
123
330
1F
100
AcDbEntity
  8
躯体
  6
JWW_DASHED1
 62
     2
370
     9
100
AcDbLine
 10
-690.4999397896432
 20
-117.7928244101034
 30
0.0
 11
-690.4999397896432
 21
-108.7929431812183
 31
0.0
  0
LINE
  5
124
330
1F
100
AcDbEntity
  8
躯体
  6
JWW_DASHED1
 62
     2
370
     9
100
AcDbLine
 10
-690.4999397896432
 20
238.2070139292125
 30
0.0
 11
-690.4999397896432
 21
247.2071425979202
 31
0.0
  0
LINE
  5
125
330
1F
100
AcDbEntity
  8
躯体
  6
JWW_DASHED1
 62
     2
370
     9
100
AcDbLine
 10
-54.49991999445729
 20
247.2071425979202
 30
0.0
 11
-54.49991999445729
 21
238.2072613690352
 31
0.0
  0
LINE
  5
126
330
1F
100
AcDbEntity
  8
躯体
  6
JWW_DASHED1
 62
     2
370
     9
100
AcDbLine
 10
-54.49991999445729
 20
-108.7929431812183
 30
0.0
 11
-54.49991999445729
 21
-117.7928244101034
 31
0.0
  0
LINE
  5
127
330
1F
100
AcDbEntity
  8
躯体
  6
JWW_DASHED1
 62
     2
370
     9
100
AcDbLine
 10
-82.49996288402656
 20
354.7071879618878
 30
0.0
 11
-82.49996288402656
 21
-188.2927600757495
 31
0.0
  0
LINE
  5
128
330
1F
100
AcDbEntity
  8
躯体
  6
JWW_DASHED1
 62
     2
370
     9
100
AcDbLine
 10
-565.4998676196949
 20
154.7070848619616
 30
0.0
 11
-615.9998919512774
 21
154.7070848619616
 31
0.0
  0
LINE
  5
129
330
1F
100
AcDbEntity
  8
躯体
  6
JWW_DASHED1
 62
     2
370
     9
100
AcDbLine
 10
-565.4998676196949
 20
-25.29276667414479
 30
0.0
 11
-615.9998919512774
 21
-25.29276667414479
 31
0.0
  0
LINE
  5
12A
330
1F
100
AcDbEntity
  8
躯体
  6
JWW_DASHED1
 62
     2
370
     9
100
AcDbLine
 10
-552.4999670080236
 20
-12.2927732725401
 30
0.0
 11
-552.4999670080236
 21
141.7070914603569
 31
0.0
  0
LINE
  5
12B
330
1F
100
AcDbEntity
  8
躯体
  6
JWW_DASHED1
 62
     2
370
     9
100
AcDbLine
 10
-615.9998919512774
 20
141.7070914603569
 30
0.0
 11
-565.4998676196949
 21
141.7070914603569
 31
0.0
  0
LINE
  5
12C
330
1F
100
AcDbEntity
  8
躯体
  6
JWW_DASHED1
 62
     2
370
     9
100
AcDbLine
 10
-565.4998676196949
 20
141.7070914603569
 30
0.0
 11
-565.4998676196949
 21
-12.2927732725401
 31
0.0
  0
LINE
  5
12D
330
1F
100
AcDbEntity
  8
躯体
  6
JWW_DASHED1
 62
     2
370
     9
100
AcDbLine
 10
-615.9998919512774
 20
-12.2927732725401
 30
0.0
 11
-565.4998676196949
 21
-12.2927732725401
 31
0.0
  0
LINE
  5
12E
330
1F
100
AcDbEntity
  8
通り芯
  6
JWW_DASHED1
 62
     3
370
     9
100
AcDbLine
 10
-402.499905148068
 20
164.707117853938
 30
0.0
 11
-342.4999546360324
 21
164.707117853938
 31
0.0
  0
LINE
  5
12F
330
1F
100
AcDbEntity
  8
通り芯
  6
JWW_DASHED1
 62
     3
370
     9
100
AcDbLine
 10
-342.4999546360324
 20
164.707117853938
 30
0.0
 11
-342.4999546360324
 21
-35.29279966612123
 31
0.0
  0
LINE
  5
130
330
1F
100
AcDbEntity
  8
通り芯
  6
JWW_DASHED1
 62
     3
370
     9
100
AcDbLine
 10
-402.499905148068
 20
164.707117853938
 30
0.0
 11
-402.499905148068
 21
-35.29279966612123
 31
0.0
  0
LINE
  5
131
330
1F
100
AcDbEntity
  8
通り芯
  6
JWW_DASHED1
 62
     3
370
     9
100
AcDbLine
 10
-402.499905148068
 20
-35.29279966612123
 30
0.0
 11
-342.4999546360324
 21
-35.29279966612123
 31
0.0
  0
LINE
  5
132
330
1F
100
AcDbEntity
  8
通り芯
  6
JWW_DASHED1
 62
     3
370
     9
100
AcDbLine
 10
-379.9999546360324
 20
142.2071673419025
 30
0.0
 11
-364.999905148068
 21
142.2071673419025
 31
0.0
  0
LINE
  5
133
330
1F
100
AcDbEntity
  8
通り芯
  6
JWW_DASHED1
 62
     3
370
     9
100
AcDbLine
 10
-379.9999546360324
 20
142.2071673419025
 30
0.0
 11
-379.9999546360324
 21
-12.79272543417434
 31
0.0
  0
LINE
  5
134
330
1F
100
AcDbEntity
  8
通り芯
  6
JWW_DASHED1
 62
     3
370
     9
100
AcDbLine
 10
-364.999905148068
 20
142.2071673419025
 30
0.0
 11
-364.999905148068
 21
-12.79272543417434
 31
0.0
  0
LINE
  5
135
330
1F
100
AcDbEntity
  8
通り芯
  6
JWW_DASHED1
 62
     3
370
     9
100
AcDbLine
 10
-379.9999546360324
 20
-12.79272543417434
 30
0.0
 11
-364.999905148068
 21
-12.79272543417434
 31
0.0
  0
LINE
  5
136
330
1F
100
AcDbEntity
  8
通り芯
  6
JWW_DASHED1
 62
     3
370
     9
100
AcDbLine
 10
-379.9999546360324
 20
2.207200333878774
 30
0.0
 11
-364.999905148068
 21
2.207200333878774
 31
0.0
  0
LINE
  5
137
330
1F
100
AcDbEntity
  8
通り芯
  6
JWW_DASHED1
 62
     3
370
     9
100
AcDbLine
 10
-379.9999546360324
 20
127.207117853938
 30
0.0
 11
-364.999905148068
 21
127.207117853938
 31
0.0
  0
LINE
  5
138
330
1F
100
AcDbEntity
  8
躯体
  6
JWW_DASHED1
 62
     2
370
     9
100
AcDbLine
 10
-662.4999587600296
 20
-225.2927769841374
 30
0.0
 11
-82.49996288402656
 21
-225.2927769841374
 31
0.0
  0
LINE
  5
139
330
1F
100
AcDbEntity
  8
躯体
  6
JWW_CENTER1
 62
     2
370
     9
100
AcDbLine
 10
-155.6530720478779
 20
-205.2928656500739
 30
0.0
 11
-123.3859294169658
 21
-205.2928656500739
 31
0.0
  0
LINE
  5
13A
330
1F
100
AcDbEntity
  8
躯体
  6
JWW_CENTER1
 62
     2
370
     9
100
AcDbLine
 10
-139.999905148068
 20
-190.5824444745038
 30
0.0
 11
-139.999905148068
 21
-220.4256666028822
 31
0.0
  0
LINE
  5
13B
330
1F
100
AcDbEntity
  8
躯体
  6
JWW_CENTER1
 62
     2
370
     9
100
AcDbLine
 10
-114.599712474926
 20
-205.2928656500739
 30
0.0
 11
-85.36234675226979
 21
-205.2928656500739
 31
0.0
  0
LINE
  5
13C
330
1F
100
AcDbEntity
  8
躯体
  6
JWW_CENTER1
 62
     2
370
     9
100
AcDbLine
 10
-99.99983504011823
 20
-192.097271068676
 30
0.0
 11
-99.99983504011823
 21
-220.2741097115182
 31
0.0
  0
LINE
  5
13D
330
1F
100
AcDbEntity
  8
躯体
  6
JWW_DASHED1
 62
     2
370
     9
100
AcDbLine
 10
-119.499887002481
 20
-188.2927600757495
 30
0.0
 11
-625.4999109216637
 21
-188.2927600757495
 31
0.0
  0
LINE
  5
13E
330
1F
100
AcDbEntity
  8
通り芯
  6
JWW_DASHED1
 62
     3
370
     9
100
AcDbLine
 10
-402.499905148068
 20
245.2070865115604
 30
0.0
 11
-342.4999546360324
 21
245.2070865115604
 31
0.0
  0
LINE
  5
13F
330
1F
100
AcDbEntity
  8
通り芯
  6
JWW_DASHED1
 62
     3
370
     9
100
AcDbLine
 10
-402.499905148068
 20
305.2070988835516
 30
0.0
 11
-402.499905148068
 21
245.2070865115604
 31
0.0
  0
LINE
  5
140
330
1F
100
AcDbEntity
  8
通り芯
  6
JWW_DASHED1
 62
     3
370
     9
100
AcDbLine
 10
-402.499905148068
 20
305.2070988835516
 30
0.0
 11
-342.4999546360324
 21
305.2070988835516
 31
0.0
  0
LINE
  5
141
330
1F
100
AcDbEntity
  8
通り芯
  6
JWW_DASHED1
 62
     3
370
     9
100
AcDbLine
 10
-386.4999513368349
 20
265.2071524955131
 30
0.0
 11
-358.4999084472656
 21
265.2071524955131
 31
0.0
  0
LINE
  5
142
330
1F
100
AcDbEntity
  8
通り芯
  6
JWW_DASHED1
 62
     3
370
     9
100
AcDbLine
 10
-358.4999084472656
 20
314.707303433805
 30
0.0
 11
-358.4999084472656
 21
265.2071524955131
 31
0.0
  0
LINE
  5
143
330
1F
100
AcDbEntity
  8
通り芯
  6
JWW_DASHED1
 62
     3
370
     9
100
AcDbLine
 10
-386.4999513368349
 20
288.2071788890943
 30
0.0
 11
-358.4999084472656
 21
288.2071788890943
 31
0.0
  0
LINE
  5
144
330
1F
100
AcDbEntity
  8
通り芯
  6
JWW_DASHED1
 62
     3
370
     9
100
AcDbLine
 10
-386.4999513368349
 20
314.707303433805
 30
0.0
 11
-386.4999513368349
 21
265.2071524955131
 31
0.0
  0
LINE
  5
145
330
1F
100
AcDbEntity
  8
通り芯
  6
JWW_DASHED1
 62
     3
370
     9
100
AcDbLine
 10
-367.499913396062
 20
296.1745555980787
 30
0.0
 11
-367.499913396062
 21
288.2071788890943
 31
0.0
  0
LINE
  5
146
330
1F
100
AcDbEntity
  8
通り芯
  6
JWW_DASHED1
 62
     3
370
     9
100
AcDbLine
 10
-377.4999463880384
 20
296.1745555980787
 30
0.0
 11
-377.4999463880384
 21
288.2071788890943
 31
0.0
  0
LINE
  5
147
330
1F
100
AcDbEntity
  8
躯体
  6
JWW_DASHED1
 62
     2
370
     9
100
AcDbLine
 10
-376.4999183448584
 20
314.707303433805
 30
0.0
 11
-376.4999183448584
 21
293.707271266628
 31
0.0
  0
LINE
  5
148
330
1F
100
AcDbEntity
  8
躯体
  6
JWW_DASHED1
 62
     2
370
     9
100
AcDbLine
 10
-368.4999414392419
 20
314.707303433805
 30
0.0
 11
-368.4999414392419
 21
293.707271266628
 31
0.0
  0
LINE
  5
149
330
1F
100
AcDbEntity
  8
躯体
  6
JWW_CENTER1
 62
     2
370
     9
100
AcDbLine
 10
-592.4999133960621
 20
316.747939651077
 30
0.0
 11
-592.4999133960621
 21
356.8712966506546
 31
0.0
  0
LINE
  5
14A
330
1F
100
AcDbEntity
  8
躯体
  6
JWW_CENTER1
 62
     2
370
     9
100
AcDbLine
 10
-613.7466430664062
 20
336.2073496225719
 30
0.0
 11
-571.5914648932379
 21
336.2073496225719
 31
0.0
  0
LINE
  5
14B
330
1F
100
AcDbEntity
  8
躯体
  6
JWW_CENTER1
 62
     2
370
     9
100
AcDbLine
 10
-152.4999463880384
 20
357.302336821685
 30
0.0
 11
-152.4999463880384
 21
316.595269280511
 31
0.0
  0
LINE
  5
14C
330
1F
100
AcDbEntity
  8
躯体
  6
JWW_CENTER1
 62
     2
370
     9
100
AcDbLine
 10
-174.0700180466111
 20
336.2073496225719
 30
0.0
 11
-131.394319276552
 21
336.2073496225719
 31
0.0
  0
LINE
  5
14D
330
1F
100
AcDbEntity
  8
躯体
  6
JWW_DASHED1
 62
     2
370
     9
100
AcDbLine
 10
-554.9999133960621
 20
382.7069834116344
 30
0.0
 11
-554.9999133960621
 21
354.7071879618878
 31
0.0
  0
LINE
  5
14E
330
1F
100
AcDbEntity
  8
躯体
  6
JWW_DASHED1
 62
     2
370
     9
100
AcDbLine
 10
-545.9999393772434
 20
382.7069834116344
 30
0.0
 11
-545.9999393772434
 21
354.7071879618878
 31
0.0
  0
LINE
  5
14F
330
1F
100
AcDbEntity
  8
躯体
  6
JWW_CENTER1
 62
     2
370
     9
100
AcDbLine
 10
-550.4999109216637
 20
390.4956467087204
 30
0.0
 11
-550.4999109216637
 21
352.427029996305
 31
0.0
  0
LINE
  5
150
330
1F
100
AcDbEntity
  8
躯体
  6
JWW_DASHED1
 62
     2
370
     9
100
AcDbLine
 10
-198.9998894768792
 20
382.7069834116344
 30
0.0
 11
-198.9998894768792
 21
354.7071879618878
 31
0.0
  0
LINE
  5
151
330
1F
100
AcDbEntity
  8
躯体
  6
JWW_DASHED1
 62
     2
370
     9
100
AcDbLine
 10
-189.9998845280827
 20
382.7069834116344
 30
0.0
 11
-189.9998845280827
 21
354.7071879618878
 31
0.0
  0
LINE
  5
152
330
1F
100
AcDbEntity
  8
躯体
  6
JWW_DASHED1
 62
     2
370
     9
100
AcDbLine
 10
-662.4999587600296
 20
354.7071879618878
 30
0.0
 11
-82.49996288402656
 21
354.7071879618878
 31
0.0
  0
LINE
  5
153
330
1F
100
AcDbEntity
  8
躯体
  6
JWW_CENTER1
 62
     2
370
     9
100
AcDbLine
 10
-194.499887002481
 20
387.744610760663
 30
0.0
 11
-194.499887002481
 21
351.0361707532729
 31
0.0
  0
LINE
  5
154
330
1F
100
AcDbEntity
  8
躯体
  6
JWW_CENTER1
 62
     2
370
     9
100
AcDbLine
 10
-88.16423158387877
 20
242.7072019834776
 30
0.0
 11
-45.95087412241341
 21
242.7072019834776
 31
0.0
  0
LINE
  5
155
330
1F
100
AcDbEntity
  8
躯体
  6
JWW_DASHED1
 62
     2
370
     9
100
AcDbLine
 10
-54.49991999445729
 20
238.2072613690352
 30
0.0
 11
-82.49996288402656
 21
238.2072613690352
 31
0.0
  0
LINE
  5
156
330
1F
100
AcDbEntity
  8
躯体
  6
JWW_DASHED1
 62
     2
370
     9
100
AcDbLine
 10
-54.49991999445729
 20
247.2071425979202
 30
0.0
 11
-82.49996288402656
 21
247.2071425979202
 31
0.0
  0
LINE
  5
157
330
1F
100
AcDbEntity
  8
躯体
  6
JWW_DASHED1
 62
     2
370
     9
100
AcDbLine
 10
-54.49991999445729
 20
-117.7928244101034
 30
0.0
 11
-82.49996288402656
 21
-117.7928244101034
 31
0.0
  0
LINE
  5
158
330
1F
100
AcDbEntity
  8
躯体
  6
JWW_DASHED1
 62
     2
370
     9
100
AcDbLine
 10
-54.49991999445729
 20
-108.7929431812183
 30
0.0
 11
-82.49996288402656
 21
-108.7929431812183
 31
0.0
  0
LINE
  5
159
330
1F
100
AcDbEntity
  8
躯体
  6
JWW_CENTER1
 62
     2
370
     9
100
AcDbLine
 10
-87.02031728383645
 20
-113.2928837956609
 30
0.0
 11
-46.38760540936445
 21
-113.2928837956609
 31
0.0
  0
LINE
  5
15A
330
1F
100
AcDbEntity
  8
躯体
  6
JWW_DASHED1
 62
     2
370
     9
100
AcDbLine
 10
-690.4999397896432
 20
247.2071425979202
 30
0.0
 11
-662.4999587600296
 21
247.2071425979202
 31
0.0
  0
LINE
  5
15B
330
1F
100
AcDbEntity
  8
躯体
  6
JWW_DASHED1
 62
     2
370
     9
100
AcDbLine
 10
-690.4999397896432
 20
238.2070139292125
 30
0.0
 11
-662.4999587600296
 21
238.2070139292125
 31
0.0
  0
LINE
  5
15C
330
1F
100
AcDbEntity
  8
躯体
  6
JWW_CENTER1
 62
     2
370
     9
100
AcDbLine
 10
-700.1358960125897
 20
242.7072019834776
 30
0.0
 11
-655.7428411535316
 21
242.7072019834776
 31
0.0
  0
LINE
  5
15D
330
1F
100
AcDbEntity
  8
躯体
  6
JWW_DASHED1
 62
     2
370
     9
100
AcDbLine
 10
-690.4999397896432
 20
-117.7928244101034
 30
0.0
 11
-662.4999587600296
 21
-117.7928244101034
 31
0.0
  0
LINE
  5
15E
330
1F
100
AcDbEntity
  8
躯体
  6
JWW_DASHED1
 62
     2
370
     9
100
AcDbLine
 10
-690.4999397896432
 20
-108.7929431812183
 30
0.0
 11
-662.4999587600296
 21
-108.7929431812183
 31
0.0
  0
LINE
  5
15F
330
1F
100
AcDbEntity
  8
躯体
  6
JWW_CENTER1
 62
     2
370
     9
100
AcDbLine
 10
-696.3856052707981
 20
-113.2928837956609
 30
0.0
 11
-656.2631452405775
 21
-113.2928837956609
 31
0.0
  0
LINE
  5
160
330
1F
100
AcDbEntity
  8
躯体
  6
JWW_DASHED1
 62
     2
370
     9
100
AcDbLine
 10
-554.9999133960621
 20
-253.2928198737067
 30
0.0
 11
-545.9999393772434
 21
-253.2928198737067
 31
0.0
  0
LINE
  5
161
330
1F
100
AcDbEntity
  8
躯体
  6
JWW_DASHED1
 62
     2
370
     9
100
AcDbLine
 10
-554.9999133960621
 20
-225.2927769841374
 30
0.0
 11
-554.9999133960621
 21
-253.2928198737067
 31
0.0
  0
LINE
  5
162
330
1F
100
AcDbEntity
  8
躯体
  6
JWW_DASHED1
 62
     2
370
     9
100
AcDbLine
 10
-545.9999393772434
 20
-225.2927769841374
 30
0.0
 11
-545.9999393772434
 21
-253.2928198737067
 31
0.0
  0
LINE
  5
163
330
1F
100
AcDbEntity
  8
躯体
  6
JWW_DASHED1
 62
     2
370
     9
100
AcDbLine
 10
-198.9998894768792
 20
-253.2928198737067
 30
0.0
 11
-189.9998845280827
 21
-253.2928198737067
 31
0.0
  0
LINE
  5
164
330
1F
100
AcDbEntity
  8
躯体
  6
JWW_DASHED1
 62
     2
370
     9
100
AcDbLine
 10
-198.9998894768792
 20
-225.2927769841374
 30
0.0
 11
-198.9998894768792
 21
-253.2928198737067
 31
0.0
  0
LINE
  5
165
330
1F
100
AcDbEntity
  8
躯体
  6
JWW_DASHED1
 62
     2
370
     9
100
AcDbLine
 10
-189.9998845280827
 20
-225.2927769841374
 30
0.0
 11
-189.9998845280827
 21
-253.2928198737067
 31
0.0
  0
LINE
  5
166
330
1F
100
AcDbEntity
  8
躯体
  6
JWW_CENTER1
 62
     2
370
     9
100
AcDbLine
 10
-194.499887002481
 20
-219.0783567686339
 30
0.0
 11
-194.499887002481
 21
-259.5424074740023
 31
0.0
  0
LINE
  5
167
330
1F
100
AcDbEntity
  8
躯体
  6
JWW_DASHED1
 62
     2
370
     9
100
AcDbLine
 10
-639.1666927853146
 20
-204.292837606894
 30
0.0
 11
-639.1666927853146
 21
-206.2928936932538
 31
0.0
  0
LINE
  5
168
330
1F
100
AcDbEntity
  8
躯体
  6
JWW_DASHED1
 62
     2
370
     9
100
AcDbLine
 10
-643.9999657708245
 20
-211.1260120288745
 30
0.0
 11
-645.9998362773173
 21
-211.1260120288745
 31
0.0
  0
LINE
  5
169
330
1F
100
AcDbEntity
  8
躯体
  6
JWW_DASHED1
 62
     2
370
     9
100
AcDbLine
 10
-650.8331401928051
 20
-206.2928936932538
 30
0.0
 11
-650.8331401928051
 21
-204.292837606894
 31
0.0
  0
LINE
  5
16A
330
1F
100
AcDbEntity
  8
躯体
  6
JWW_DASHED1
 62
     2
370
     9
100
AcDbLine
 10
-645.9998362773173
 20
-199.4597192712732
 30
0.0
 11
-643.9999657708245
 21
-199.4597192712732
 31
0.0
  0
LINE
  5
16B
330
1F
100
AcDbEntity
  8
躯体
  6
JWW_DASHED1
 62
     2
370
     9
100
AcDbLine
 10
-599.1667154672983
 20
-204.292837606894
 30
0.0
 11
-599.1667154672983
 21
-206.2928936932538
 31
0.0
  0
LINE
  5
16C
330
1F
100
AcDbEntity
  8
躯体
  6
JWW_DASHED1
 62
     2
370
     9
100
AcDbLine
 10
-603.9998956628747
 20
-211.1260120288745
 30
0.0
 11
-605.9998589593012
 21
-211.1260120288745
 31
0.0
  0
LINE
  5
16D
330
1F
100
AcDbEntity
  8
躯体
  6
JWW_DASHED1
 62
     2
370
     9
100
AcDbLine
 10
-610.8331010148331
 20
-206.2928936932538
 30
0.0
 11
-610.8331010148331
 21
-204.292837606894
 31
0.0
  0
LINE
  5
16E
330
1F
100
AcDbEntity
  8
躯体
  6
JWW_DASHED1
 62
     2
370
     9
100
AcDbLine
 10
-605.9998589593012
 20
-199.4597192712732
 30
0.0
 11
-603.9998956628747
 21
-199.4597192712732
 31
0.0
  0
LINE
  5
16F
330
1F
100
AcDbEntity
  8
躯体
  6
JWW_DASHED1
 62
     2
370
     9
100
AcDbLine
 10
-134.1667587692673
 20
-204.292837606894
 30
0.0
 11
-134.1667587692673
 21
-206.2928936932538
 31
0.0
  0
LINE
  5
170
330
1F
100
AcDbEntity
  8
躯体
  6
JWW_DASHED1
 62
     2
370
     9
100
AcDbLine
 10
-138.999877104888
 20
-211.1260120288745
 30
0.0
 11
-140.9998713312922
 21
-211.1260120288745
 31
0.0
  0
LINE
  5
171
330
1F
100
AcDbEntity
  8
躯体
  6
JWW_DASHED1
 62
     2
370
     9
100
AcDbLine
 10
-145.8330515268686
 20
-206.2928936932538
 30
0.0
 11
-145.8330515268686
 21
-204.292837606894
 31
0.0
  0
LINE
  5
172
330
1F
100
AcDbEntity
  8
躯体
  6
JWW_DASHED1
 62
     2
370
     9
100
AcDbLine
 10
-140.9998713312922
 20
-199.4597192712732
 30
0.0
 11
-138.999877104888
 21
-199.4597192712732
 31
0.0
  0
LINE
  5
173
330
1F
100
AcDbEntity
  8
躯体
  6
JWW_DASHED1
 62
     2
370
     9
100
AcDbLine
 10
-94.16675052127317
 20
-204.292837606894
 30
0.0
 11
-94.16675052127317
 21
-206.2928936932538
 31
0.0
  0
LINE
  5
174
330
1F
100
AcDbEntity
  8
躯体
  6
JWW_DASHED1
 62
     2
370
     9
100
AcDbLine
 10
-98.9999925768052
 20
-211.1260120288745
 30
0.0
 11
-100.9999249432538
 21
-211.1260120288745
 31
0.0
  0
LINE
  5
175
330
1F
100
AcDbEntity
  8
躯体
  6
JWW_DASHED1
 62
     2
370
     9
100
AcDbLine
 10
-105.8330432788745
 20
-206.2928936932538
 30
0.0
 11
-105.8330432788745
 21
-204.292837606894
 31
0.0
  0
LINE
  5
176
330
1F
100
AcDbEntity
  8
躯体
  6
JWW_DASHED1
 62
     2
370
     9
100
AcDbLine
 10
-100.9999249432538
 20
-199.4597192712732
 30
0.0
 11
-98.9999925768052
 21
-199.4597192712732
 31
0.0
  0
LINE
  5
177
330
1F
100
AcDbEntity
  8
通り芯
  6
Continuous
 62
     3
370
     9
100
AcDbLine
 10
-744.9999216440561
 20
437.2070889859588
 30
0.0
 11
0.0
 21
437.2070889859588
 31
0.0
  0
LINE
  5
178
330
1F
100
AcDbEntity
  8
躯体
  6
JWW_DASHED1
 62
     2
370
     9
100
AcDbLine
 10
-662.4999587600296
 20
-188.2927600757495
 30
0.0
 11
-662.4999587600296
 21
354.7071879618878
 31
0.0
  0
LINE
  5
179
330
1F
100
AcDbEntity
  8
躯体
  6
JWW_DASHED1
 62
     2
370
     9
100
AcDbLine
 10
-622.4998886520798
 20
314.707303433805
 30
0.0
 11
-122.4999711320207
 21
314.707303433805
 31
0.0
  0
LINE
  5
17A
330
1F
100
AcDbEntity
  8
躯体
  6
JWW_DASHED1
 62
     2
370
     9
100
AcDbLine
 10
-625.4999109216637
 20
317.7072638434333
 30
0.0
 11
-119.499887002481
 21
317.7072638434333
 31
0.0
  0
LINE
  5
17B
330
1F
100
AcDbEntity
  8
通り芯
  6
Continuous
 62
     3
370
     9
100
AcDbLine
 10
-744.9999216440561
 20
-307.7928017281197
 30
0.0
 11
-744.9999216440561
 21
437.2070889859588
 31
0.0
  0
LINE
  5
17C
330
1F
100
AcDbEntity
  8
通り芯
  6
Continuous
 62
     3
370
     9
100
AcDbLine
 10
0.0
 20
-307.7928017281197
 30
0.0
 11
-744.9999216440561
 21
-307.7928017281197
 31
0.0
  0
LINE
  5
17D
330
1F
100
AcDbEntity
  8
通り芯
  6
Continuous
 62
     3
370
     9
100
AcDbLine
 10
0.0
 20
437.2070889859588
 30
0.0
 11
0.0
 21
-307.7928017281197
 31
0.0
  0
LINE
  5
17E
330
1F
100
AcDbEntity
  8
躯体
  6
JWW_DASHED1
 62
     2
370
     9
100
AcDbLine
 10
-625.4999109216637
 20
-188.2927600757495
 30
0.0
 11
-625.4999109216637
 21
317.7072638434333
 31
0.0
  0
LINE
  5
17F
330
1F
100
AcDbEntity
  8
躯体
  6
JWW_DASHED1
 62
     2
370
     9
100
AcDbLine
 10
-622.4998886520798
 20
-185.2927996661211
 30
0.0
 11
-622.4998886520798
 21
314.707303433805
 31
0.0
  0
LINE
  5
180
330
1F
100
AcDbEntity
  8
躯体
  6
JWW_DASHED1
 62
     2
370
     9
100
AcDbLine
 10
-122.4999711320207
 20
-185.2927996661211
 30
0.0
 11
-622.4998886520798
 21
-185.2927996661211
 31
0.0
  0
LINE
  5
181
330
1F
100
AcDbEntity
  8
躯体
  6
JWW_DASHED1
 62
     2
370
     9
100
AcDbLine
 10
-122.4999711320207
 20
314.707303433805
 30
0.0
 11
-122.4999711320207
 21
-185.2927996661211
 31
0.0
  0
LINE
  5
182
330
1F
100
AcDbEntity
  8
躯体
  6
JWW_DASHED1
 62
     2
370
     9
100
AcDbLine
 10
-119.499887002481
 20
317.7072638434333
 30
0.0
 11
-119.499887002481
 21
-188.2927600757495
 31
0.0
  0
LINE
  5
183
330
1F
100
AcDbEntity
  8
躯体
  6
JWW_CENTER1
 62
     2
370
     9
100
AcDbLine
 10
-550.4999727816195
 20
-218.8559083680848
 30
0.0
 11
-550.4999727816195
 21
-258.4940049454972
 31
0.0
  0
LINE
  5
184
330
1F
100
AcDbEntity
  8
通り芯
  6
JWW_DASHED1
 62
     3
370
     9
100
AcDbLine
 10
-743.4999414392419
 20
-306.2926978033942
 30
0.0
 11
-743.4999414392419
 21
435.7071087811445
 31
0.0
  0
LINE
  5
185
330
1F
100
AcDbEntity
  8
通り芯
  6
JWW_DASHED1
 62
     3
370
     9
100
AcDbLine
 10
-82.49996288402656
 20
-188.2927600757495
 30
0.0
 11
-82.49996288402656
 21
-304.7928413184914
 31
0.0
  0
LINE
  5
186
330
1F
100
AcDbEntity
  8
通り芯
  6
JWW_DASHED1
 62
     3
370
     9
100
AcDbLine
 10
-157.4999628840266
 20
-304.7928413184914
 30
0.0
 11
-157.4999628840266
 21
-188.2927600757495
 31
0.0
  0
LINE
  5
187
330
1F
100
AcDbEntity
  8
通り芯
  6
JWW_DASHED1
 62
     3
370
     9
100
AcDbLine
 10
-386.4999513368349
 20
296.2069702148438
 30
0.0
 11
-376.4999183448584
 21
296.2069702148438
 31
0.0
  0
LINE
  5
188
330
1F
100
AcDbEntity
  8
通り芯
  6
JWW_DASHED1
 62
     3
370
     9
100
AcDbLine
 10
-368.4999414392419
 20
296.2069702148438
 30
0.0
 11
-358.4999084472656
 21
296.2069702148438
 31
0.0
  0
LINE
  5
189
330
1F
100
AcDbEntity
  8
通り芯
  6
JWW_CENTER1
 62
     3
370
     9
100
AcDbLine
 10
-389.8883304080448
 20
292.2070436219911
 30
0.0
 11
-355.2436622413428
 21
292.2070436219911
 31
0.0
  0
LINE
  5
18A
330
1F
100
AcDbEntity
  8
躯体
  6
JWW_DASHED1
 62
     2
370
     9
100
AcDbLine
 10
-376.4999183448584
 20
293.707271266628
 30
0.0
 11
-368.4999414392419
 21
293.707271266628
 31
0.0
  0
LINE
  5
18B
330
1F
100
AcDbEntity
  8
通り芯
  6
JWW_DASHED1
 62
     3
370
     9
100
AcDbLine
 10
-386.4999513368349
 20
312.7072473474452
 30
0.0
 11
-358.4999084472656
 21
312.7072473474452
 31
0.0
  0
LINE
  5
18C
330
1F
100
AcDbEntity
  8
通り芯
  6
JWW_DASHED1
 62
     3
370
     9
100
AcDbLine
 10
-342.4999546360324
 20
305.2070988835516
 30
0.0
 11
-342.4999546360324
 21
245.2070865115604
 31
0.0
  0
LINE
  5
18D
330
1F
100
AcDbEntity
  8
通り芯
  6
JWW_DASHED1
 62
     3
370
     9
100
AcDbLine
 10
-44.99996288402656
 20
-304.7928413184914
 30
0.0
 11
-44.99996288402656
 21
-306.2926978033942
 31
0.0
  0
LINE
  5
18E
330
1F
100
AcDbEntity
  8
通り芯
  6
JWW_DASHED1
 62
     3
370
     9
100
AcDbLine
 10
-194.9998391641152
 20
-304.7928413184914
 30
0.0
 11
-194.9998391641152
 21
-306.2926978033942
 31
0.0
  0
LINE
  5
18F
330
1F
100
AcDbEntity
  8
通り芯
  6
JWW_DASHED1
 62
     3
370
     9
100
AcDbLine
 10
-699.9999278300517
 20
-304.7928413184914
 30
0.0
 11
-699.9999278300517
 21
-306.2926978033942
 31
0.0
  0
LINE
  5
190
330
1F
100
AcDbEntity
  8
通り芯
  6
JWW_DASHED1
 62
     3
370
     9
100
AcDbLine
 10
-549.9999278300517
 20
-304.7928413184914
 30
0.0
 11
-549.9999278300517
 21
-306.2926978033942
 31
0.0
  0
LINE
  5
191
330
1F
100
AcDbEntity
  8
躯体
  6
JWW_DASHED1
 62
     2
370
     9
100
AcDbLine
 10
-374.7499001992715
 20
-155.2928244101034
 30
0.0
 11
-374.7499001992715
 21
-185.2927996661211
 31
0.0
  0
LINE
  5
192
330
1F
100
AcDbEntity
  8
躯体
  6
JWW_DASHED1
 62
     2
370
     9
100
AcDbLine
 10
-374.7499001992715
 20
-155.2928244101034
 30
0.0
 11
-370.2499595848289
 21
-155.2928244101034
 31
0.0
  0
LINE
  5
193
330
1F
100
AcDbEntity
  8
躯体
  6
JWW_DASHED1
 62
     2
370
     9
100
AcDbLine
 10
-370.2499595848289
 20
-155.2928244101034
 30
0.0
 11
-370.2499595848289
 21
-185.2927996661211
 31
0.0
  0
LINE
  5
194
330
1F
100
AcDbEntity
  8
躯体
  6
JWW_CENTER1
 62
     2
370
     9
100
AcDbLine
 10
-379.9682204787796
 20
-167.7928656500739
 30
0.0
 11
-364.8509463748417
 21
-167.7928656500739
 31
0.0
  0
LINE
  5
195
330
1F
100
AcDbEntity
  8
躯体
  6
JWW_DASHED1
 62
     2
370
     9
100
AcDbLine
 10
-374.7499001992715
 20
-172.2929299844277
 30
0.0
 11
-370.2499595848289
 21
-172.2929299844277
 31
0.0
  0
LINE
  5
196
330
1F
100
AcDbEntity
  8
躯体
  6
JWW_DASHED1
 62
     2
370
     9
100
AcDbLine
 10
-374.7499001992715
 20
-163.29280131572
 30
0.0
 11
-370.2499595848289
 21
-163.29280131572
 31
0.0
  0
LINE
  5
197
330
1F
100
AcDbEntity
  8
通り芯
  6
JWW_CENTER1
 62
     3
370
     9
100
AcDbLine
 10
-159.0968157794023
 20
-298.7927967793232
 30
0.0
 11
-80.56918994800455
 21
-298.7927967793232
 31
0.0
  0
LINE
  5
198
330
1F
100
AcDbEntity
  8
通り芯
  6
JWW_DASHED1
 62
     3
370
     9
100
AcDbLine
 10
-122.4999711320207
 20
-185.2927996661211
 30
0.0
 11
-82.49996288402656
 21
-185.2927996661211
 31
0.0
  0
LINE
  5
199
330
1F
100
AcDbEntity
  8
通り芯
  6
JWW_DASHED1
 62
     3
370
     9
100
AcDbLine
 10
-157.4999628840266
 20
-286.7928314208984
 30
0.0
 11
-82.49996288402656
 21
-286.7928314208984
 31
0.0
  0
LINE
  5
19A
330
1F
100
AcDbEntity
  8
通り芯
  6
JWW_DASHED1
 62
     3
370
     9
100
AcDbLine
 10
-157.4999628840266
 20
-292.7927522401552
 30
0.0
 11
-82.49996288402656
 21
-292.7927522401552
 31
0.0
  0
LINE
  5
19B
330
1F
100
AcDbEntity
  8
通り芯
  6
JWW_DASHED1
 62
     3
370
     9
100
AcDbLine
 10
-157.4999628840266
 20
-295.7928363696948
 30
0.0
 11
-82.49996288402656
 21
-295.7928363696948
 31
0.0
  0
LINE
  5
19C
330
1F
100
AcDbEntity
  8
通り芯
  6
JWW_DASHED1
 62
     3
370
     9
100
AcDbLine
 10
-157.4999628840266
 20
-301.792880908863
 30
0.0
 11
-82.49996288402656
 21
-301.792880908863
 31
0.0
  0
LINE
  5
19D
330
1F
100
AcDbEntity
  8
躯体
  6
JWW_CENTER1
 62
     2
370
     9
100
AcDbLine
 10
-589.3468495961782
 20
-205.2928656500739
 30
0.0
 11
-621.6138685071791
 21
-205.2928656500739
 31
0.0
  0
LINE
  5
19E
330
1F
100
AcDbEntity
  8
躯体
  6
JWW_CENTER1
 62
     2
370
     9
100
AcDbLine
 10
-604.9999546360325
 20
-190.5824444745038
 30
0.0
 11
-604.9999546360325
 21
-220.4256666028822
 31
0.0
  0
LINE
  5
19F
330
1F
100
AcDbEntity
  8
躯体
  6
JWW_CENTER1
 62
     2
370
     9
100
AcDbLine
 10
-630.4002091691301
 20
-205.2928656500739
 30
0.0
 11
-659.6375130318307
 21
-205.2928656500739
 31
0.0
  0
LINE
  5
1A0
330
1F
100
AcDbEntity
  8
躯体
  6
JWW_CENTER1
 62
     2
370
     9
100
AcDbLine
 10
-644.9999319540486
 20
-192.097271068676
 30
0.0
 11
-644.9999319540486
 21
-220.2741097115182
 31
0.0
  0
LINE
  5
1A1
330
1F
100
AcDbEntity
  8
通り芯
  6
JWW_DASHED1
 62
     3
370
     9
100
AcDbLine
 10
-662.4999587600296
 20
-188.2927600757495
 30
0.0
 11
-662.4999587600296
 21
-304.7928413184914
 31
0.0
  0
LINE
  5
1A2
330
1F
100
AcDbEntity
  8
通り芯
  6
JWW_DASHED1
 62
     3
370
     9
100
AcDbLine
 10
-587.4999587600296
 20
-304.7928413184914
 30
0.0
 11
-587.4999587600296
 21
-188.2927600757495
 31
0.0
  0
LINE
  5
1A3
330
1F
100
AcDbEntity
  8
通り芯
  6
JWW_CENTER1
 62
     3
370
     9
100
AcDbLine
 10
-585.903044004698
 20
-298.7927967793232
 30
0.0
 11
-664.4306079761401
 21
-298.7927967793232
 31
0.0
  0
LINE
  5
1A4
330
1F
100
AcDbEntity
  8
通り芯
  6
JWW_DASHED1
 62
     3
370
     9
100
AcDbLine
 10
-622.4998886520798
 20
-185.2927996661211
 30
0.0
 11
-662.4999587600296
 21
-185.2927996661211
 31
0.0
  0
LINE
  5
1A5
330
1F
100
AcDbEntity
  8
通り芯
  6
JWW_DASHED1
 62
     3
370
     9
100
AcDbLine
 10
-587.4999587600296
 20
-286.7928314208984
 30
0.0
 11
-662.4999587600296
 21
-286.7928314208984
 31
0.0
  0
LINE
  5
1A6
330
1F
100
AcDbEntity
  8
通り芯
  6
JWW_DASHED1
 62
     3
370
     9
100
AcDbLine
 10
-587.4999587600296
 20
-292.7927522401552
 30
0.0
 11
-662.4999587600296
 21
-292.7927522401552
 31
0.0
  0
LINE
  5
1A7
330
1F
100
AcDbEntity
  8
通り芯
  6
JWW_DASHED1
 62
     3
370
     9
100
AcDbLine
 10
-587.4999587600296
 20
-295.7928363696948
 30
0.0
 11
-662.4999587600296
 21
-295.7928363696948
 31
0.0
  0
LINE
  5
1A8
330
1F
100
AcDbEntity
  8
通り芯
  6
JWW_DASHED1
 62
     3
370
     9
100
AcDbLine
 10
-587.4999587600296
 20
-301.792880908863
 30
0.0
 11
-662.4999587600296
 21
-301.792880908863
 31
0.0
  0
LINE
  5
1A9
330
1F
100
AcDbEntity
  8
通り芯
  6
JWW_DASHED1
 62
     3
370
     9
100
AcDbLine
 10
-637.4999381400444
 20
-292.7927522401552
 30
0.0
 11
-637.4999381400444
 21
-304.5927862218908
 31
0.0
  0
LINE
  5
1AA
330
1F
100
AcDbEntity
  8
通り芯
  6
JWW_DASHED1
 62
     3
370
     9
100
AcDbLine
 10
-612.4999793800148
 20
-292.7927522401552
 30
0.0
 11
-612.4999793800148
 21
-304.5927862218908
 31
0.0
  0
LINE
  5
1AB
330
1F
100
AcDbEntity
  8
通り芯
  6
JWW_DASHED1
 62
     3
370
     9
100
AcDbLine
 10
-132.4998804040857
 20
-292.7927522401552
 30
0.0
 11
-132.4998804040857
 21
-304.5927862218908
 31
0.0
  0
LINE
  5
1AC
330
1F
100
AcDbEntity
  8
通り芯
  6
JWW_DASHED1
 62
     3
370
     9
100
AcDbLine
 10
-107.4999216440561
 20
-292.7927522401552
 30
0.0
 11
-107.4999216440561
 21
-304.5927862218908
 31
0.0
  0
LINE
  5
1AD
330
1F
100
AcDbEntity
  8
通り芯
  6
JWW_DASHED1
 62
     3
370
     9
100
AcDbLine
 10
-743.4999414392419
 20
-304.7928413184914
 30
0.0
 11
-1.499980204814193
 21
-304.7928413184914
 31
0.0
  0
LINE
  5
1AE
330
1F
100
AcDbEntity
  8
通り芯
  6
JWW_DASHED1
 62
     3
370
     9
100
AcDbLine
 10
-1.499980204814193
 20
-306.2926978033942
 30
0.0
 11
-743.4999414392419
 21
-306.2926978033942
 31
0.0
  0
LINE
  5
1AF
330
1F
100
AcDbEntity
  8
通り芯
  6
JWW_DASHED1
 62
     3
370
     9
100
AcDbLine
 10
-743.4999414392419
 20
435.7071087811445
 30
0.0
 11
-1.499980204814193
 21
435.7071087811445
 31
0.0
  0
LINE
  5
1B0
330
1F
100
AcDbEntity
  8
通り芯
  6
JWW_DASHED1
 62
     3
370
     9
100
AcDbLine
 10
-1.499980204814193
 20
435.7071087811445
 30
0.0
 11
-1.499980204814193
 21
-306.2926978033942
 31
0.0
  0
LINE
  5
1B1
330
1F
100
AcDbEntity
  8
通り芯
  6
JWW_CENTER1
 62
     3
370
     9
100
AcDbLine
 10
-769.9999731940193
 20
64.70715909390847
 30
0.0
 11
24.99983504011837
 21
64.70715909390847
 31
0.0
  0
LINE
  5
1B2
330
1F
100
AcDbEntity
  8
通り芯
  6
JWW_CENTER1
 62
     3
370
     9
100
AcDbLine
 10
-372.4999298920503
 20
462.2071714658996
 30
0.0
 11
-372.4999298920503
 21
-332.7928842080605
 31
0.0
  0
LINE
  5
1B3
330
1F
100
AcDbEntity
  8
その他
  6
Continuous
 62
     7
370
     9
100
AcDbLine
 10
405.0263275971284
 20
339.5757479281039
 30
0.0
 11
361.264368005701
 21
365.1810682142104
 31
0.0
  0
LINE
  5
1B4
330
1F
100
AcDbEntity
  8
その他
  6
Continuous
 62
     7
370
     9
100
AcDbLine
 10
361.264368005701
 20
365.1810682142104
 30
0.0
 11
372.7849187077703
 21
360.3307528109164
 31
0.0
  0
LINE
  5
1B5
330
1F
100
AcDbEntity
  8
その他
  6
Continuous
 62
     7
370
     9
100
AcDbLine
 10
361.264368005701
 20
365.1810682142104
 30
0.0
 11
371.1369694890203
 21
357.5141453098607
 31
0.0
  0
LINE
  5
1B6
330
1F
100
AcDbEntity
  8
その他
  6
Continuous
 62
     7
370
     9
100
AcDbLine
 10
469.0586811787375
 20
449.0129378035263
 30
0.0
 11
690.2613459406675
 21
449.0129378035263
 31
0.0
  0
LINE
  5
1B7
330
1F
100
AcDbEntity
  8
その他
  6
Continuous
 62
     7
370
     9
100
AcDbLine
 10
469.0586811787375
 20
449.0129378035263
 30
0.0
 11
405.0263275971284
 21
339.5757479281039
 31
0.0
  0
LINE
  5
1B8
330
1F
100
AcDbEntity
  8
躯体
  6
Continuous
 62
     2
370
     9
100
AcDbLine
 10
416.5744678394216
 20
-164.964133597709
 30
0.0
 11
416.0100576039909
 21
-165.4634671597867
 31
0.0
  0
LINE
  5
1B9
330
1F
100
AcDbEntity
  8
躯体
  6
Continuous
 62
     2
370
     9
100
AcDbLine
 10
416.0100576039909
 20
-165.4634671597867
 30
0.0
 11
415.4723708694047
 21
-166.1079241778399
 31
0.0
  0
LINE
  5
1BA
330
1F
100
AcDbEntity
  8
躯体
  6
Continuous
 62
     2
370
     9
100
AcDbLine
 10
415.4723708694047
 20
-166.1079241778399
 30
0.0
 11
415.2506647883234
 21
-166.7492881981102
 31
0.0
  0
LINE
  5
1BB
330
1F
100
AcDbEntity
  8
躯体
  6
Continuous
 62
     2
370
     9
100
AcDbLine
 10
415.2506647883234
 20
-166.7492881981102
 30
0.0
 11
415.3151228621201
 21
-167.1192107329497
 31
0.0
  0
LINE
  5
1BC
330
1F
100
AcDbEntity
  8
躯体
  6
Continuous
 62
     2
370
     9
100
AcDbLine
 10
415.3151228621201
 20
-167.1192107329497
 30
0.0
 11
415.4607411977409
 21
-167.3848373825485
 31
0.0
  0
LINE
  5
1BD
330
1F
100
AcDbEntity
  8
躯体
  6
Continuous
 62
     2
370
     9
100
AcDbLine
 10
415.4607411977409
 20
-167.3848373825485
 30
0.0
 11
415.8432831635346
 21
-167.8408689756651
 31
0.0
  0
LINE
  5
1BE
330
1F
100
AcDbEntity
  8
躯体
  6
Continuous
 62
     2
370
     9
100
AcDbLine
 10
415.8432831635346
 20
-167.8408689756651
 30
0.0
 11
416.2763028531461
 21
-168.2949210502006
 31
0.0
  0
LINE
  5
1BF
330
1F
100
AcDbEntity
  8
躯体
  6
Continuous
 62
     2
370
     9
100
AcDbLine
 10
416.2763028531461
 20
-168.2949210502006
 30
0.0
 11
416.6238320840372
 21
-168.7474884858002
 31
0.0
  0
LINE
  5
1C0
330
1F
100
AcDbEntity
  8
躯体
  6
Continuous
 62
     2
370
     9
100
AcDbLine
 10
416.6238320840372
 20
-168.7474884858002
 30
0.0
 11
416.7327056059966
 21
-169.0094035380595
 31
0.0
  0
LINE
  5
1C1
330
1F
100
AcDbEntity
  8
躯体
  6
Continuous
 62
     2
370
     9
100
AcDbLine
 10
416.7327056059966
 20
-169.0094035380595
 30
0.0
 11
416.744087837838
 21
-169.295567692937
 31
0.0
  0
LINE
  5
1C2
330
1F
100
AcDbEntity
  8
躯体
  6
Continuous
 62
     2
370
     9
100
AcDbLine
 10
416.744087837838
 20
-169.295567692937
 30
0.0
 11
416.529062631968
 21
-169.7880966598922
 31
0.0
  0
LINE
  5
1C3
330
1F
100
AcDbEntity
  8
躯体
  6
Continuous
 62
     2
370
     9
100
AcDbLine
 10
416.529062631968
 20
-169.7880966598922
 30
0.0
 11
416.0919601852831
 21
-170.2801307472023
 31
0.0
  0
LINE
  5
1C4
330
1F
100
AcDbEntity
  8
躯体
  6
Continuous
 62
     2
370
     9
100
AcDbLine
 10
416.0919601852831
 20
-170.2801307472023
 30
0.0
 11
415.8860902528505
 21
-170.456926500475
 31
0.0
  0
LINE
  5
1C5
330
1F
100
AcDbEntity
  8
躯体
  6
Continuous
 62
     2
370
     9
100
AcDbLine
 10
521.942138671875
 20
67.99575805664062
 30
0.0
 11
521.8293061127533
 21
67.87871902053425
 31
0.0
  0
LINE
  5
1C6
330
1F
100
AcDbEntity
  8
躯体
  6
Continuous
 62
     2
370
     9
100
AcDbLine
 10
521.8293061127533
 20
67.87871902053425
 30
0.0
 11
521.113833865604
 21
66.86644270613385
 31
0.0
  0
LINE
  5
1C7
330
1F
100
AcDbEntity
  8
躯体
  6
Continuous
 62
     2
370
     9
100
AcDbLine
 10
521.113833865604
 20
66.86644270613385
 30
0.0
 11
520.9005407384925
 21
65.93297597524284
 31
0.0
  0
LINE
  5
1C8
330
1F
100
AcDbEntity
  8
躯体
  6
Continuous
 62
     2
370
     9
100
AcDbLine
 10
520.9005407384925
 20
65.93297597524284
 30
0.0
 11
521.083769927154
 21
65.43970468881966
 31
0.0
  0
LINE
  5
1C9
330
1F
100
AcDbEntity
  8
躯体
  6
Continuous
 62
     2
370
     9
100
AcDbLine
 10
521.083769927154
 20
65.43970468881966
 30
0.0
 11
521.3208172772383
 21
65.15811817066094
 31
0.0
  0
LINE
  5
1CA
330
1F
100
AcDbEntity
  8
躯体
  6
Continuous
 62
     2
370
     9
100
AcDbLine
 10
521.3208172772383
 20
65.15811817066094
 30
0.0
 11
521.8826293945312
 21
64.69676662135768
 31
0.0
  0
LINE
  5
1CB
330
1F
100
AcDbEntity
  8
躯体
  6
Continuous
 62
     2
370
     9
100
AcDbLine
 10
521.8826293945312
 20
64.69676662135768
 30
0.0
 11
522.5093944652662
 21
64.24605498442787
 31
0.0
  0
LINE
  5
1CC
330
1F
100
AcDbEntity
  8
躯体
  6
Continuous
 62
     2
370
     9
100
AcDbLine
 10
522.5093944652662
 20
64.24605498442787
 30
0.0
 11
523.051287676837
 21
63.78247647672097
 31
0.0
  0
LINE
  5
1CD
330
1F
100
AcDbEntity
  8
躯体
  6
Continuous
 62
     2
370
     9
100
AcDbLine
 10
523.051287676837
 20
63.78247647672097
 30
0.0
 11
523.2673026419977
 21
63.49866300015847
 31
0.0
  0
LINE
  5
1CE
330
1F
100
AcDbEntity
  8
躯体
  6
Continuous
 62
     2
370
     9
100
AcDbLine
 10
523.2673026419977
 20
63.49866300015847
 30
0.0
 11
523.4009201462206
 21
63.05859127560183
 31
0.0
  0
LINE
  5
1CF
330
1F
100
AcDbEntity
  8
躯体
  6
Continuous
 62
     2
370
     9
100
AcDbLine
 10
523.4009201462206
 20
63.05859127560183
 30
0.0
 11
523.1862661000846
 21
62.23139994853256
 31
0.0
  0
LINE
  5
1D0
330
1F
100
AcDbEntity
  8
躯体
  6
Continuous
 62
     2
370
     9
100
AcDbLine
 10
523.1862661000846
 20
62.23139994853256
 30
0.0
 11
522.5505931957349
 21
61.33950310784428
 31
0.0
  0
LINE
  5
1D1
330
1F
100
AcDbEntity
  8
躯体
  6
Continuous
 62
     2
370
     9
100
AcDbLine
 10
522.5505931957349
 20
61.33950310784428
 30
0.0
 11
522.2216219515415
 21
60.99692267340586
 31
0.0
  0
LINE
  5
1D2
330
1F
100
AcDbEntity
  8
躯体
  6
Continuous
 62
     2
370
     9
100
AcDbLine
 10
394.306368441195
 20
67.99575805664062
 30
0.0
 11
394.419695879962
 21
67.87871902053425
 31
0.0
  0
LINE
  5
1D3
330
1F
100
AcDbEntity
  8
躯体
  6
Continuous
 62
     2
370
     9
100
AcDbLine
 10
394.419695879962
 20
67.87871902053425
 30
0.0
 11
395.1347969673776
 21
66.86644270613385
 31
0.0
  0
LINE
  5
1D4
330
1F
100
AcDbEntity
  8
躯体
  6
Continuous
 62
     2
370
     9
100
AcDbLine
 10
395.1347969673776
 20
66.86644270613385
 30
0.0
 11
395.3483375343117
 21
65.93297597524284
 31
0.0
  0
LINE
  5
1D5
330
1F
100
AcDbEntity
  8
躯体
  6
Continuous
 62
     2
370
     9
100
AcDbLine
 10
395.3483375343117
 20
65.93297597524284
 30
0.0
 11
395.1649846257391
 21
65.43970468881966
 31
0.0
  0
LINE
  5
1D6
330
1F
100
AcDbEntity
  8
躯体
  6
Continuous
 62
     2
370
     9
100
AcDbLine
 10
395.1649846257391
 20
65.43970468881966
 30
0.0
 11
394.927689835832
 21
65.15811817066094
 31
0.0
  0
LINE
  5
1D7
330
1F
100
AcDbEntity
  8
躯体
  6
Continuous
 62
     2
370
     9
100
AcDbLine
 10
394.927689835832
 20
65.15811817066094
 30
0.0
 11
394.3661251583615
 21
64.69676662135768
 31
0.0
  0
LINE
  5
1D8
330
1F
100
AcDbEntity
  8
躯体
  6
Continuous
 62
     2
370
     9
100
AcDbLine
 10
394.3661251583615
 20
64.69676662135768
 30
0.0
 11
393.7392363677154
 21
64.24605498442787
 31
0.0
  0
LINE
  5
1D9
330
1F
100
AcDbEntity
  8
躯体
  6
Continuous
 62
     2
370
     9
100
AcDbLine
 10
393.7392363677154
 20
64.24605498442787
 30
0.0
 11
393.1975905959672
 21
63.78247647672097
 31
0.0
  0
LINE
  5
1DA
330
1F
100
AcDbEntity
  8
躯体
  6
Continuous
 62
     2
370
     9
100
AcDbLine
 10
393.1975905959672
 20
63.78247647672097
 30
0.0
 11
392.9815756308068
 21
63.49866300015847
 31
0.0
  0
LINE
  5
1DB
330
1F
100
AcDbEntity
  8
躯体
  6
Continuous
 62
     2
370
     9
100
AcDbLine
 10
392.9815756308068
 20
63.49866300015847
 30
0.0
 11
392.8482055664062
 21
63.05859127560183
 31
0.0
  0
LINE
  5
1DC
330
1F
100
AcDbEntity
  8
躯体
  6
Continuous
 62
     2
370
     9
100
AcDbLine
 10
392.8482055664062
 20
63.05859127560183
 30
0.0
 11
393.0626121727198
 21
62.23139994853256
 31
0.0
  0
LINE
  5
1DD
330
1F
100
AcDbEntity
  8
躯体
  6
Continuous
 62
     2
370
     9
100
AcDbLine
 10
393.0626121727198
 20
62.23139994853256
 30
0.0
 11
393.6984087969807
 21
61.33950310784428
 31
0.0
  0
LINE
  5
1DE
330
1F
100
AcDbEntity
  8
躯体
  6
Continuous
 62
     2
370
     9
100
AcDbLine
 10
393.6984087969807
 20
61.33950310784428
 30
0.0
 11
394.0272563212628
 21
60.99692267340586
 31
0.0
  0
LINE
  5
1DF
330
1F
100
AcDbEntity
  8
躯体
  6
JWW_CENTER1
 62
     2
370
     9
100
AcDbLine
 10
392.0333862304688
 20
64.70728281381966
 30
0.0
 11
389.2752982474664
 21
65.6259031553526
 31
0.0
  0
LINE
  5
1E0
330
1F
100
AcDbEntity
  8
躯体
  6
JWW_CENTER1
 62
     2
370
     9
100
AcDbLine
 10
389.2752982474664
 20
65.6259031553526
 30
0.0
 11
384.5094835436024
 21
67.21211613835521
 31
0.0
  0
LINE
  5
1E1
330
1F
100
AcDbEntity
  8
躯体
  6
JWW_CENTER1
 62
     2
370
     9
100
AcDbLine
 10
384.5094835436024
 20
67.21211613835521
 30
0.0
 11
379.7133574614654
 21
68.80476255674623
 31
0.0
  0
LINE
  5
1E2
330
1F
100
AcDbEntity
  8
躯体
  6
JWW_CENTER1
 62
     2
370
     9
100
AcDbLine
 10
379.7133574614654
 20
68.80476255674623
 30
0.0
 11
374.8687331740922
 21
70.40792516759922
 31
0.0
  0
LINE
  5
1E3
330
1F
100
AcDbEntity
  8
躯体
  6
JWW_CENTER1
 62
     2
370
     9
100
AcDbLine
 10
374.8687331740922
 20
70.40792516759922
 30
0.0
 11
372.0287426097974
 21
71.34411373653933
 31
0.0
  0
LINE
  5
1E4
330
1F
100
AcDbEntity
  8
躯体
  6
JWW_CENTER1
 62
     2
370
     9
100
AcDbLine
 10
372.0287426097974
 20
71.34411373653933
 30
0.0
 11
368.1720218142948
 21
72.59912851694466
 31
0.0
  0
LINE
  5
1E5
330
1F
100
AcDbEntity
  8
躯体
  6
JWW_CENTER1
 62
     2
370
     9
100
AcDbLine
 10
368.1720218142948
 20
72.59912851694466
 30
0.0
 11
361.4479683540964
 21
74.57085274361276
 31
0.0
  0
LINE
  5
1E6
330
1F
100
AcDbEntity
  8
躯体
  6
JWW_CENTER1
 62
     2
370
     9
100
AcDbLine
 10
361.4479683540964
 20
74.57085274361276
 30
0.0
 11
354.6870463603253
 21
75.97198073928425
 31
0.0
  0
LINE
  5
1E7
330
1F
100
AcDbEntity
  8
躯体
  6
JWW_CENTER1
 62
     2
370
     9
100
AcDbLine
 10
354.6870463603253
 20
75.97198073928425
 30
0.0
 11
347.9568069045609
 21
76.42293981603672
 31
0.0
  0
LINE
  5
1E8
330
1F
100
AcDbEntity
  8
躯体
  6
JWW_CENTER1
 62
     2
370
     9
100
AcDbLine
 10
347.9568069045609
 20
76.42293981603672
 30
0.0
 11
344.0935289537586
 21
76.09904108820743
 31
0.0
  0
LINE
  5
1E9
330
1F
100
AcDbEntity
  8
躯体
  6
JWW_CENTER1
 62
     2
370
     9
100
AcDbLine
 10
344.0935289537586
 20
76.09904108820743
 30
0.0
 11
341.9847230653505
 21
75.70895220782305
 31
0.0
  0
LINE
  5
1EA
330
1F
100
AcDbEntity
  8
躯体
  6
JWW_CENTER1
 62
     2
370
     9
100
AcDbLine
 10
341.9847230653505
 20
75.70895220782305
 30
0.0
 11
338.379648569468
 21
74.73973042256134
 31
0.0
  0
LINE
  5
1EB
330
1F
100
AcDbEntity
  8
躯体
  6
JWW_CENTER1
 62
     2
370
     9
100
AcDbLine
 10
338.379648569468
 20
74.73973042256134
 30
0.0
 11
334.8099579682221
 21
73.50760382574961
 31
0.0
  0
LINE
  5
1EC
330
1F
100
AcDbEntity
  8
躯体
  6
JWW_CENTER1
 62
     2
370
     9
100
AcDbLine
 10
334.8099579682221
 20
73.50760382574961
 30
0.0
 11
331.2726819837417
 21
72.14371552338477
 31
0.0
  0
LINE
  5
1ED
330
1F
100
AcDbEntity
  8
躯体
  6
JWW_CENTER1
 62
     2
370
     9
100
AcDbLine
 10
331.2726819837417
 20
72.14371552338477
 30
0.0
 11
329.2342727248734
 21
71.34411373653933
 31
0.0
  0
LINE
  5
1EE
330
1F
100
AcDbEntity
  8
躯体
  6
JWW_CENTER1
 62
     2
370
     9
100
AcDbLine
 10
329.2342727248734
 20
71.34411373653933
 30
0.0
 11
328.8894653320312
 21
71.21037251240509
 31
0.0
  0
LINE
  5
1EF
330
1F
100
AcDbEntity
  8
躯体
  6
JWW_CENTER1
 62
     2
370
     9
100
AcDbLine
 10
328.8894653320312
 20
71.21037251240509
 30
0.0
 11
328.2952385979729
 21
70.98087207691094
 31
0.0
  0
LINE
  5
1F0
330
1F
100
AcDbEntity
  8
躯体
  6
JWW_CENTER1
 62
     2
370
     9
100
AcDbLine
 10
328.2952385979729
 20
70.98087207691094
 30
0.0
 11
327.7015067435602
 21
70.75273256044142
 31
0.0
  0
LINE
  5
1F1
330
1F
100
AcDbEntity
  8
躯体
  6
JWW_CENTER1
 62
     2
370
     9
100
AcDbLine
 10
327.7015067435602
 20
70.75273256044142
 30
0.0
 11
327.108146048881
 21
70.52558280326224
 31
0.0
  0
LINE
  5
1F2
330
1F
100
AcDbEntity
  8
躯体
  6
JWW_CENTER1
 62
     2
370
     9
100
AcDbLine
 10
327.108146048881
 20
70.52558280326224
 30
0.0
 11
326.7642046954182
 21
70.39406853753178
 31
0.0
  0
LINE
  5
1F3
330
1F
100
AcDbEntity
  8
躯体
  6
JWW_CENTER1
 62
     2
370
     9
100
AcDbLine
 10
323.7639968459672
 20
69.31857134844805
 30
0.0
 11
322.9673643369932
 21
68.55633297482058
 31
0.0
  0
LINE
  5
1F4
330
1F
100
AcDbEntity
  8
躯体
  6
JWW_CENTER1
 62
     2
370
     9
100
AcDbLine
 10
322.9673643369932
 20
68.55633297482058
 30
0.0
 11
321.643808725718
 21
67.21904445338893
 31
0.0
  0
LINE
  5
1F5
330
1F
100
AcDbEntity
  8
躯体
  6
JWW_CENTER1
 62
     2
370
     9
100
AcDbLine
 10
321.643808725718
 20
67.21904445338893
 30
0.0
 11
320.460675213788
 21
65.81865877718542
 31
0.0
  0
LINE
  5
1F6
330
1F
100
AcDbEntity
  8
躯体
  6
JWW_CENTER1
 62
     2
370
     9
100
AcDbLine
 10
320.460675213788
 20
65.81865877718542
 30
0.0
 11
319.5067946975297
 21
64.31484325512045
 31
0.0
  0
LINE
  5
1F7
330
1F
100
AcDbEntity
  8
躯体
  6
JWW_CENTER1
 62
     2
370
     9
100
AcDbLine
 10
319.5067946975297
 20
64.31484325512045
 30
0.0
 11
319.0935701937289
 21
63.37939700564831
 31
0.0
  0
LINE
  5
1F8
330
1F
100
AcDbEntity
  8
躯体
  6
JWW_CENTER1
 62
     2
370
     9
100
AcDbLine
 10
319.0935701937289
 20
63.37939700564831
 30
0.0
 11
318.7476493216852
 21
62.14665180928009
 31
0.0
  0
LINE
  5
1F9
330
1F
100
AcDbEntity
  8
躯体
  6
JWW_CENTER1
 62
     2
370
     9
100
AcDbLine
 10
318.7476493216852
 20
62.14665180928009
 30
0.0
 11
318.5566257786107
 21
59.88764994853256
 31
0.0
  0
LINE
  5
1FA
330
1F
100
AcDbEntity
  8
躯体
  6
JWW_CENTER1
 62
     2
370
     9
100
AcDbLine
 10
318.5566257786107
 20
59.88764994853256
 30
0.0
 11
318.8128497149495
 21
57.56208677549623
 31
0.0
  0
LINE
  5
1FB
330
1F
100
AcDbEntity
  8
躯体
  6
JWW_CENTER1
 62
     2
370
     9
100
AcDbLine
 10
318.8128497149495
 20
57.56208677549623
 30
0.0
 11
319.4392436259503
 21
55.2914552430849
 31
0.0
  0
LINE
  5
1FC
330
1F
100
AcDbEntity
  8
躯体
  6
JWW_CENTER1
 62
     2
370
     9
100
AcDbLine
 10
319.4392436259503
 20
55.2914552430849
 30
0.0
 11
319.9420413455448
 21
54.04658549540756
 31
0.0
  0
LINE
  5
1FD
330
1F
100
AcDbEntity
  8
躯体
  6
JWW_CENTER1
 62
     2
370
     9
100
AcDbLine
 10
319.9420413455448
 20
54.04658549540756
 30
0.0
 11
322.2546139278927
 21
50.40167318808074
 31
0.0
  0
LINE
  5
1FE
330
1F
100
AcDbEntity
  8
躯体
  6
JWW_CENTER1
 62
     2
370
     9
100
AcDbLine
 10
322.2546139278927
 20
50.40167318808074
 30
0.0
 11
328.0664804819469
 21
45.94689034126901
 31
0.0
  0
LINE
  5
1FF
330
1F
100
AcDbEntity
  8
躯体
  6
JWW_CENTER1
 62
     2
370
     9
100
AcDbLine
 10
328.0664804819469
 20
45.94689034126901
 30
0.0
 11
335.5245641759925
 21
43.20835010425469
 31
0.0
  0
LINE
  5
200
330
1F
100
AcDbEntity
  8
躯体
  6
JWW_CENTER1
 62
     2
370
     9
100
AcDbLine
 10
335.5245641759925
 20
43.20835010425469
 30
0.0
 11
343.8583374023438
 21
41.48889077676316
 31
0.0
  0
LINE
  5
201
330
1F
100
AcDbEntity
  8
躯体
  6
JWW_CENTER1
 62
     2
370
     9
100
AcDbLine
 10
343.8583374023438
 20
41.48889077676316
 30
0.0
 11
348.7889470280828
 21
40.68372159390847
 31
0.0
  0
LINE
  5
202
330
1F
100
AcDbEntity
  8
躯体
  6
JWW_CENTER1
 62
     2
370
     9
100
AcDbLine
 10
348.7889470280828
 20
40.68372159390847
 30
0.0
 11
356.6759676546664
 21
39.35831018396328
 31
0.0
  0
LINE
  5
203
330
1F
100
AcDbEntity
  8
躯体
  6
JWW_CENTER1
 62
     2
370
     9
100
AcDbLine
 10
356.6759676546664
 20
39.35831018396328
 30
0.0
 11
369.6551761111698
 21
37.22191475533151
 31
0.0
  0
LINE
  5
204
330
1F
100
AcDbEntity
  8
躯体
  6
JWW_CENTER1
 62
     2
370
     9
100
AcDbLine
 10
369.6551761111698
 20
37.22191475533151
 30
0.0
 11
382.0160324509081
 21
35.76375188054271
 31
0.0
  0
LINE
  5
205
330
1F
100
AcDbEntity
  8
躯体
  6
JWW_CENTER1
 62
     2
370
     9
100
AcDbLine
 10
382.0160324509081
 20
35.76375188054271
 30
0.0
 11
393.9519108952703
 21
35.5541703507707
 31
0.0
  0
LINE
  5
206
330
1F
100
AcDbEntity
  8
躯体
  6
JWW_CENTER1
 62
     2
370
     9
100
AcDbLine
 10
393.9519108952703
 20
35.5541703507707
 30
0.0
 11
400.75588741818
 21
36.22918618691941
 31
0.0
  0
LINE
  5
207
330
1F
100
AcDbEntity
  8
躯体
  6
JWW_CENTER1
 62
     2
370
     9
100
AcDbLine
 10
400.75588741818
 20
36.22918618691941
 30
0.0
 11
408.0787452491555
 21
37.73770306561445
 31
0.0
  0
LINE
  5
208
330
1F
100
AcDbEntity
  8
躯体
  6
JWW_CENTER1
 62
     2
370
     9
100
AcDbLine
 10
408.0787452491555
 20
37.73770306561445
 30
0.0
 11
420.6118197054477
 21
41.98760573928425
 31
0.0
  0
LINE
  5
209
330
1F
100
AcDbEntity
  8
躯体
  6
JWW_CENTER1
 62
     2
370
     9
100
AcDbLine
 10
420.6118197054477
 20
41.98760573928425
 30
0.0
 11
433.0570530247044
 21
47.80318389067787
 31
0.0
  0
LINE
  5
20A
330
1F
100
AcDbEntity
  8
躯体
  6
JWW_CENTER1
 62
     2
370
     9
100
AcDbLine
 10
433.0570530247044
 20
47.80318389067787
 30
0.0
 11
445.448468182538
 21
54.57771507469388
 31
0.0
  0
LINE
  5
20B
330
1F
100
AcDbEntity
  8
躯体
  6
JWW_CENTER1
 62
     2
370
     9
100
AcDbLine
 10
445.448468182538
 20
54.57771507469388
 30
0.0
 11
452.6243467588682
 21
58.70711455474037
 31
0.0
  0
ARC
  5
20C
330
1F
100
AcDbEntity
  8
躯体
  6
Continuous
 62
     2
370
     9
100
AcDbCircle
 10
305.2641585066513
 20
-192.2927485285578
 30
0.0
 40
3.999999809909511
100
AcDbArc
 50
90.0
 51
180.0
  0
ARC
  5
20D
330
1F
100
AcDbEntity
  8
躯体
  6
Continuous
 62
     2
370
     9
100
AcDbCircle
 10
299.2643614073057
 20
-223.2927518277555
 30
0.0
 40
1.999999904954756
100
AcDbArc
 50
270.0
 51
0.0
  0
ARC
  5
20E
330
1F
100
AcDbEntity
  8
躯体
  6
Continuous
 62
     2
370
     9
100
AcDbCircle
 10
305.2641585066513
 20
321.7071285763303
 30
0.0
 40
3.999999809909511
100
AcDbArc
 50
180.0
 51
270.0
  0
ARC
  5
20F
330
1F
100
AcDbEntity
  8
躯体
  6
Continuous
 62
     2
370
     9
100
AcDbCircle
 10
299.2643614073057
 20
352.7068844357053
 30
0.0
 40
1.999999904954756
100
AcDbArc
 50
0.0
 51
90.0
  0
ARC
  5
210
330
1F
100
AcDbEntity
  8
躯体
  6
Continuous
 62
     2
370
     9
100
AcDbCircle
 10
336.264161805849
 20
315.7072077570735
 30
0.0
 40
1.999999904954756
100
AcDbArc
 50
0.0
 51
90.0
  0
ARC
  5
211
330
1F
100
AcDbEntity
  8
躯体
  6
JWW_CENTER1
 62
     2
370
     9
100
AcDbCircle
 10
532.3186513539908
 20
34.70718383789062
 30
0.0
 40
29.99999845350111
100
AcDbArc
 50
0.0
 51
90.0
  0
ARC
  5
212
330
1F
100
AcDbEntity
  8
躯体
  6
Continuous
 62
     2
370
     9
100
AcDbCircle
 10
336.264161805849
 20
-186.292827709301
 30
0.0
 40
1.999999904954756
100
AcDbArc
 50
270.0
 51
0.0
  0
ARC
  5
213
330
1F
100
AcDbEntity
  8
通り芯
  6
Continuous
 62
     3
370
     9
100
AcDbCircle
 10
293.6644270613388
 20
-304.79271759858
 30
0.0
 40
3.000000038662472
100
AcDbArc
 50
180.0
 51
270.0
  0
ARC
  5
214
330
1F
100
AcDbEntity
  8
通り芯
  6
Continuous
 62
     3
370
     9
100
AcDbCircle
 10
293.6644270613388
 20
434.2071285763303
 30
0.0
 40
3.000000038662472
100
AcDbArc
 50
90.0
 51
180.0
  0
ARC
  5
215
330
1F
100
AcDbEntity
  8
躯体
  6
Continuous
 62
     2
370
     9
100
AcDbCircle
 10
500.124503470756
 20
64.70715909390847
 30
0.0
 40
3.000013570527773
100
AcDbArc
 50
270.0
 51
318.1883544921875
  0
ARC
  5
216
330
1F
100
AcDbEntity
  8
躯体
  6
Continuous
 62
     2
370
     9
100
AcDbCircle
 10
500.124503470756
 20
64.70715909390847
 30
0.0
 40
3.000013570527773
100
AcDbArc
 50
41.8116455078125
 51
90.0
  0
ARC
  5
217
330
1F
100
AcDbEntity
  8
躯体
  6
Continuous
 62
     2
370
     9
100
AcDbCircle
 10
500.124503470756
 20
64.70715909390847
 30
0.0
 40
7.000006856145085
100
AcDbArc
 50
270.0
 51
343.3980560302734
  0
ARC
  5
218
330
1F
100
AcDbEntity
  8
躯体
  6
Continuous
 62
     2
370
     9
100
AcDbCircle
 10
500.124503470756
 20
64.70715909390847
 30
0.0
 40
7.000006856145085
100
AcDbArc
 50
16.60194396972656
 51
90.0
  0
ARC
  5
219
330
1F
100
AcDbEntity
  8
躯体
  6
Continuous
 62
     2
370
     9
100
AcDbCircle
 10
477.124477077175
 20
64.70715909390847
 30
0.0
 40
7.000006856145085
100
AcDbArc
 50
90.0
 51
163.3980560302734
  0
ARC
  5
21A
330
1F
100
AcDbEntity
  8
躯体
  6
Continuous
 62
     2
370
     9
100
AcDbCircle
 10
477.124477077175
 20
64.70715909390847
 30
0.0
 40
7.000006856145085
100
AcDbArc
 50
196.6019287109375
 51
270.0
  0
ARC
  5
21B
330
1F
100
AcDbEntity
  8
躯体
  6
Continuous
 62
     2
370
     9
100
AcDbCircle
 10
477.124477077175
 20
64.70715909390847
 30
0.0
 40
3.000013570527773
100
AcDbArc
 50
90.0
 51
138.1883544921875
  0
ARC
  5
21C
330
1F
100
AcDbEntity
  8
躯体
  6
Continuous
 62
     2
370
     9
100
AcDbCircle
 10
477.124477077175
 20
64.70715909390847
 30
0.0
 40
3.000013570527773
100
AcDbArc
 50
221.8116455078125
 51
270.0
  0
ARC
  5
21D
330
1F
100
AcDbEntity
  8
躯体
  6
Continuous
 62
     2
370
     9
100
AcDbCircle
 10
476.1243253140836
 20
64.70715909390847
 30
0.0
 40
1.999999904954756
100
AcDbArc
 50
270.0
 51
90.0
  0
ARC
  5
21E
330
1F
100
AcDbEntity
  8
躯体
  6
Continuous
 62
     2
370
     9
100
AcDbCircle
 10
440.1243055188979
 20
64.70715909390847
 30
0.0
 40
1.999999904954756
100
AcDbArc
 50
90.0
 51
270.0
  0
ARC
  5
21F
330
1F
100
AcDbEntity
  8
躯体
  6
Continuous
 62
     2
370
     9
100
AcDbCircle
 10
501.1245315139359
 20
64.70715909390847
 30
0.0
 40
1.999999904954756
100
AcDbArc
 50
90.0
 51
270.0
  0
ARC
  5
220
330
1F
100
AcDbEntity
  8
躯体
  6
Continuous
 62
     2
370
     9
100
AcDbCircle
 10
343.7641865498313
 20
-167.7928656500739
 30
0.0
 40
7.000006856145085
100
AcDbArc
 50
270.0
 51
343.3980560302734
  0
ARC
  5
221
330
1F
100
AcDbEntity
  8
躯体
  6
Continuous
 62
     2
370
     9
100
AcDbCircle
 10
343.7641865498313
 20
-167.7928656500739
 30
0.0
 40
7.000006856145085
100
AcDbArc
 50
16.60194396972656
 51
90.0
  0
ARC
  5
222
330
1F
100
AcDbEntity
  8
躯体
  6
Continuous
 62
     2
370
     9
100
AcDbCircle
 10
343.7641865498313
 20
-167.7928656500739
 30
0.0
 40
3.000013570527773
100
AcDbArc
 50
270.0
 51
318.1883544921875
  0
ARC
  5
223
330
1F
100
AcDbEntity
  8
躯体
  6
Continuous
 62
     2
370
     9
100
AcDbCircle
 10
343.7641865498313
 20
-167.7928656500739
 30
0.0
 40
3.000013570527773
100
AcDbArc
 50
41.8116455078125
 51
90.0
  0
ARC
  5
224
330
1F
100
AcDbEntity
  8
躯体
  6
Continuous
 62
     2
370
     9
100
AcDbCircle
 10
344.7642145930109
 20
-167.7928656500739
 30
0.0
 40
1.999999904954756
100
AcDbArc
 50
90.0
 51
270.0
  0
ARC
  5
225
330
1F
100
AcDbEntity
  8
躯体
  6
Continuous
 62
     2
370
     9
100
AcDbCircle
 10
371.4723741686024
 20
-167.7928656500739
 30
0.0
 40
1.999999904954756
100
AcDbArc
 50
270.0
 51
90.0
  0
ARC
  5
226
330
1F
100
AcDbEntity
  8
躯体
  6
Continuous
 62
     2
370
     9
100
AcDbCircle
 10
372.4725259316935
 20
-167.7928656500739
 30
0.0
 40
3.000013570527773
100
AcDbArc
 50
90.0
 51
138.1883544921875
  0
ARC
  5
227
330
1F
100
AcDbEntity
  8
躯体
  6
Continuous
 62
     2
370
     9
100
AcDbCircle
 10
372.4725259316935
 20
-167.7928656500739
 30
0.0
 40
3.000013570527773
100
AcDbArc
 50
221.8116455078125
 51
270.0
  0
ARC
  5
228
330
1F
100
AcDbEntity
  8
躯体
  6
Continuous
 62
     2
370
     9
100
AcDbCircle
 10
372.4725259316935
 20
-167.7928656500739
 30
0.0
 40
7.000006856145085
100
AcDbArc
 50
90.0
 51
163.3980560302734
  0
ARC
  5
229
330
1F
100
AcDbEntity
  8
躯体
  6
Continuous
 62
     2
370
     9
100
AcDbCircle
 10
372.4725259316935
 20
-167.7928656500739
 30
0.0
 40
7.000006856145085
100
AcDbArc
 50
196.6019287109375
 51
270.0
  0
ARC
  5
22A
330
1F
100
AcDbEntity
  8
躯体
  6
Continuous
 62
     2
370
     9
100
AcDbCircle
 10
395.4725523252745
 20
-167.7928656500739
 30
0.0
 40
7.000006856145085
100
AcDbArc
 50
270.0
 51
343.3980560302734
  0
ARC
  5
22B
330
1F
100
AcDbEntity
  8
躯体
  6
Continuous
 62
     2
370
     9
100
AcDbCircle
 10
395.4725523252745
 20
-167.7928656500739
 30
0.0
 40
7.000006856145085
100
AcDbArc
 50
16.60194396972656
 51
90.0
  0
ARC
  5
22C
330
1F
100
AcDbEntity
  8
躯体
  6
Continuous
 62
     2
370
     9
100
AcDbCircle
 10
395.4725523252745
 20
-167.7928656500739
 30
0.0
 40
3.000013570527773
100
AcDbArc
 50
270.0
 51
318.1883544921875
  0
ARC
  5
22D
330
1F
100
AcDbEntity
  8
躯体
  6
Continuous
 62
     2
370
     9
100
AcDbCircle
 10
395.4725523252745
 20
-167.7928656500739
 30
0.0
 40
3.000013570527773
100
AcDbArc
 50
41.8116455078125
 51
90.0
  0
ARC
  5
22E
330
1F
100
AcDbEntity
  8
躯体
  6
Continuous
 62
     2
370
     9
100
AcDbCircle
 10
396.4724566485432
 20
-167.7928656500739
 30
0.0
 40
1.999999904954756
100
AcDbArc
 50
90.0
 51
270.0
  0
ARC
  5
22F
330
1F
100
AcDbEntity
  8
躯体
  6
Continuous
 62
     2
370
     9
100
AcDbCircle
 10
356.7643036713471
 20
-18.79289369325377
 30
0.0
 40
6.499980269251643
100
AcDbArc
 50
180.0
 51
0.0
  0
ARC
  5
230
330
1F
100
AcDbEntity
  8
躯体
  6
Continuous
 62
     2
370
     9
100
AcDbCircle
 10
356.7643036713471
 20
148.2072118810706
 30
0.0
 40
6.499980269251643
100
AcDbArc
 50
0.0
 51
180.0
  0
ARC
  5
231
330
1F
100
AcDbEntity
  8
躯体
  6
Continuous
 62
     2
370
     9
100
AcDbCircle
 10
297.2644290408573
 20
348.707267142631
 30
0.0
 40
4.99999958115655
100
AcDbArc
 50
90.0
 51
180.0
  0
ARC
  5
232
330
1F
100
AcDbEntity
  8
躯体
  6
Continuous
 62
     2
370
     9
100
AcDbCircle
 10
297.2644290408573
 20
323.7071846626901
 30
0.0
 40
4.99999958115655
100
AcDbArc
 50
180.0
 51
270.0
  0
ARC
  5
233
330
1F
100
AcDbEntity
  8
躯体
  6
Continuous
 62
     2
370
     9
100
AcDbCircle
 10
301.4642251504435
 20
348.7070197028083
 30
0.0
 40
3.000000038662472
100
AcDbArc
 50
0.0
 51
90.0
  0
ARC
  5
234
330
1F
100
AcDbEntity
  8
躯体
  6
Continuous
 62
     2
370
     9
100
AcDbCircle
 10
301.4642251504435
 20
323.7071846626901
 30
0.0
 40
3.000000038662472
100
AcDbArc
 50
270.0
 51
0.0
  0
CIRCLE
  5
235
330
1F
100
AcDbEntity
  8
躯体
  6
Continuous
 62
     2
370
     9
100
AcDbCircle
 10
324.2643201673354
 20
300.6074400205871
 30
0.0
 40
10.50000158516136
  0
CIRCLE
  5
236
330
1F
100
AcDbEntity
  8
躯体
  6
Continuous
 62
     2
370
     9
100
AcDbCircle
 10
324.2643201673354
 20
300.6074400205871
 30
0.0
 40
7.999999619819023
  0
CIRCLE
  5
237
330
1F
100
AcDbEntity
  8
通り芯
  6
Continuous
 62
     3
370
     9
100
AcDbCircle
 10
297.6642917942357
 20
292.2411903175148
 30
0.0
 40
3.999999809909511
  0
ARC
  5
238
330
1F
100
AcDbEntity
  8
通り芯
  6
Continuous
 62
     3
370
     9
100
AcDbCircle
 10
293.6641796215162
 20
434.2071285763303
 30
0.0
 40
1.500000019331236
100
AcDbArc
 50
90.0
 51
180.0
  0
ARC
  5
239
330
1F
100
AcDbEntity
  8
通り芯
  6
Continuous
 62
     3
370
     9
100
AcDbCircle
 10
298.2643333641261
 20
-286.7928314208984
 30
0.0
 40
6.000000077324945
100
AcDbArc
 50
180.0
 51
270.0
  0
ARC
  5
23A
330
1F
100
AcDbEntity
  8
通り芯
  6
Continuous
 62
     3
370
     9
100
AcDbCircle
 10
297.6642917942357
 20
292.2411903175148
 30
0.0
 40
1.999999904954756
100
AcDbArc
 50
160.1545257568359
 51
160.1542205810547
  0
ARC
  5
23B
330
1F
100
AcDbEntity
  8
通り芯
  6
Continuous
 62
     3
370
     9
100
AcDbCircle
 10
293.6641796215162
 20
-304.79271759858
 30
0.0
 40
1.500000019331236
100
AcDbArc
 50
180.0
 51
270.0
  0
ARC
  5
23C
330
1F
100
AcDbEntity
  8
躯体
  6
Continuous
 62
     2
370
     9
100
AcDbCircle
 10
462.9882400100297
 20
66.50010804872267
 30
0.0
 40
4.209254400150196
100
AcDbArc
 50
88.14840698242188
 51
116.2836456298828
  0
ARC
  5
23D
330
1F
100
AcDbEntity
  8
躯体
  6
Continuous
 62
     2
370
     9
100
AcDbCircle
 10
458.1245628563136
 20
60.0979737977724
 30
0.0
 40
10.60943667953079
100
AcDbArc
 50
73.57440185546875
 51
106.4255981445312
  0
ARC
  5
23E
330
1F
100
AcDbEntity
  8
躯体
  6
Continuous
 62
     2
370
     9
100
AcDbCircle
 10
453.2603908229518
 20
66.50010804872267
 30
0.0
 40
4.209254400150196
100
AcDbArc
 50
63.71635437011719
 51
91.85159301757814
  0
ARC
  5
23F
330
1F
100
AcDbEntity
  8
躯体
  6
Continuous
 62
     2
370
     9
100
AcDbCircle
 10
452.6243467588682
 20
60.70717064110013
 30
0.0
 40
1.999999904954756
100
AcDbArc
 50
90.0
 51
270.0
  0
ARC
  5
240
330
1F
100
AcDbEntity
  8
躯体
  6
Continuous
 62
     2
370
     9
100
AcDbCircle
 10
463.6241603542018
 20
60.70717064110013
 30
0.0
 40
1.999999904954756
100
AcDbArc
 50
270.0
 51
90.0
  0
ARC
  5
241
330
1F
100
AcDbEntity
  8
躯体
  6
Continuous
 62
     2
370
     9
100
AcDbCircle
 10
416.1243748020482
 20
64.70715909390847
 30
0.0
 40
3.000013570527773
100
AcDbArc
 50
221.8116455078125
 51
270.0
  0
ARC
  5
242
330
1F
100
AcDbEntity
  8
躯体
  6
Continuous
 62
     2
370
     9
100
AcDbCircle
 10
416.1243748020482
 20
64.70715909390847
 30
0.0
 40
3.000013570527773
100
AcDbArc
 50
90.0
 51
138.1883544921875
  0
ARC
  5
243
330
1F
100
AcDbEntity
  8
躯体
  6
Continuous
 62
     2
370
     9
100
AcDbCircle
 10
416.1243748020482
 20
64.70715909390847
 30
0.0
 40
7.000006856145085
100
AcDbArc
 50
196.6019287109375
 51
270.0
  0
ARC
  5
244
330
1F
100
AcDbEntity
  8
躯体
  6
Continuous
 62
     2
370
     9
100
AcDbCircle
 10
416.1243748020482
 20
64.70715909390847
 30
0.0
 40
7.000006856145085
100
AcDbArc
 50
90.0
 51
163.3980560302734
  0
ARC
  5
245
330
1F
100
AcDbEntity
  8
躯体
  6
Continuous
 62
     2
370
     9
100
AcDbCircle
 10
439.124277475718
 20
64.70715909390847
 30
0.0
 40
7.000006856145085
100
AcDbArc
 50
16.60194396972656
 51
90.0
  0
ARC
  5
246
330
1F
100
AcDbEntity
  8
躯体
  6
Continuous
 62
     2
370
     9
100
AcDbCircle
 10
439.124277475718
 20
64.70715909390847
 30
0.0
 40
7.000006856145085
100
AcDbArc
 50
270.0
 51
343.3980560302734
  0
ARC
  5
247
330
1F
100
AcDbEntity
  8
躯体
  6
Continuous
 62
     2
370
     9
100
AcDbCircle
 10
439.124277475718
 20
64.70715909390847
 30
0.0
 40
3.000013570527773
100
AcDbArc
 50
41.8116455078125
 51
90.0
  0
ARC
  5
248
330
1F
100
AcDbEntity
  8
躯体
  6
Continuous
 62
     2
370
     9
100
AcDbCircle
 10
439.124277475718
 20
64.70715909390847
 30
0.0
 40
3.000013570527773
100
AcDbArc
 50
270.0
 51
318.1883544921875
  0
ARC
  5
249
330
1F
100
AcDbEntity
  8
躯体
  6
Continuous
 62
     2
370
     9
100
AcDbCircle
 10
415.124223038957
 20
64.70715909390847
 30
0.0
 40
1.999999904954756
100
AcDbArc
 50
270.0
 51
90.0
  0
ARC
  5
24A
330
1F
100
AcDbEntity
  8
躯体
  6
Continuous
 62
     2
370
     9
100
AcDbCircle
 10
462.9882400100297
 20
58.91409796637461
 30
0.0
 40
4.209254400150196
100
AcDbArc
 50
243.7163391113281
 51
271.8515930175781
  0
ARC
  5
24B
330
1F
100
AcDbEntity
  8
躯体
  6
Continuous
 62
     2
370
     9
100
AcDbCircle
 10
458.1245628563136
 20
65.31635593723607
 30
0.0
 40
10.60943667953079
100
AcDbArc
 50
253.5744018554688
 51
286.4255981445312
  0
ARC
  5
24C
330
1F
100
AcDbEntity
  8
躯体
  6
Continuous
 62
     2
370
     9
100
AcDbCircle
 10
453.2603908229518
 20
58.91409796637461
 30
0.0
 40
4.209254400150196
100
AcDbArc
 50
268.1484069824219
 51
296.2836456298828
  0
ARC
  5
24D
330
1F
100
AcDbEntity
  8
通り芯
  6
Continuous
 62
     3
370
     9
100
AcDbCircle
 10
293.7641453098607
 20
35.20713599952501
 30
0.0
 40
29.99999845350111
100
AcDbArc
 50
270.0
 51
0.0
  0
ARC
  5
24E
330
1F
100
AcDbEntity
  8
通り芯
  6
Continuous
 62
     3
370
     9
100
AcDbCircle
 10
293.7641453098607
 20
94.17823172904349
 30
0.0
 40
29.99999845350111
100
AcDbArc
 50
0.0
 51
90.0
  0
ARC
  5
24F
330
1F
100
AcDbEntity
  8
通り芯
  6
Continuous
 62
     3
370
     9
100
AcDbCircle
 10
293.7641453098607
 20
35.20713599952501
 30
0.0
 40
33.000001391849
100
AcDbArc
 50
275.1944580078125
 51
0.0000000000000127
  0
ARC
  5
250
330
1F
100
AcDbEntity
  8
通り芯
  6
Continuous
 62
     3
370
     9
100
AcDbCircle
 10
293.7641453098607
 20
94.18590236354518
 30
0.0
 40
33.000001391849
100
AcDbArc
 50
0.0
 51
84.8055419921875
  0
ARC
  5
251
330
1F
100
AcDbEntity
  8
通り芯
  6
Continuous
 62
     3
370
     9
100
AcDbCircle
 10
297.664044354413
 20
309.1072453679266
 30
0.0
 40
1.999999904954756
100
AcDbArc
 50
90.0
 51
180.0
  0
ARC
  5
252
330
1F
100
AcDbEntity
  8
通り芯
  6
Continuous
 62
     3
370
     9
100
AcDbCircle
 10
297.6642917942357
 20
309.1072453679266
 30
0.0
 40
3.999999809909511
100
AcDbArc
 50
90.0
 51
180.0
  0
ARC
  5
253
330
1F
100
AcDbEntity
  8
躯体
  6
Continuous
 62
     2
370
     9
100
AcDbCircle
 10
343.2644818280195
 20
365.7073727169553
 30
0.0
 40
8.99999914942561
100
AcDbArc
 50
323.1302947998047
 51
0.0
  0
ARC
  5
254
330
1F
100
AcDbEntity
  8
躯体
  6
Continuous
 62
     2
370
     9
100
AcDbCircle
 10
320.7642838761615
 20
335.7072737410263
 30
0.0
 40
8.99999914942561
100
AcDbArc
 50
270.0
 51
323.130859375
  0
ARC
  5
255
330
1F
100
AcDbEntity
  8
躯体
  6
Continuous
 62
     2
370
     9
100
AcDbCircle
 10
343.2644818280195
 20
365.1810682142104
 30
0.0
 40
17.99999829885122
100
AcDbArc
 50
321.9770812988281
 51
0.0000000000000064
  0
ARC
  5
256
330
1F
100
AcDbEntity
  8
躯体
  6
Continuous
 62
     2
370
     9
100
AcDbCircle
 10
343.2644818280195
 20
-235.7669046762827
 30
0.0
 40
17.99999829885122
100
AcDbArc
 50
0.0
 51
38.02310180664062
  0
ARC
  5
257
330
1F
100
AcDbEntity
  8
躯体
  6
Continuous
 62
     2
370
     9
100
AcDbCircle
 10
320.7645313159841
 20
-206.2927699733424
 30
0.0
 40
8.99999914942561
100
AcDbArc
 50
36.86970520019531
 51
90.0
  0
ARC
  5
258
330
1F
100
AcDbEntity
  8
躯体
  6
Continuous
 62
     2
370
     9
100
AcDbCircle
 10
343.2644818280195
 20
-236.2928380192937
 30
0.0
 40
8.99999914942561
100
AcDbArc
 50
0.0
 51
36.87008666992188
  0
CIRCLE
  5
259
330
1F
100
AcDbEntity
  8
躯体
  6
Continuous
 62
     2
370
     9
100
AcDbCircle
 10
318.264151908256
 20
-167.7928656500739
 30
0.0
 40
4.99999958115655
  0
ARC
  5
25A
330
1F
100
AcDbEntity
  8
躯体
  6
Continuous
 62
     2
370
     9
100
AcDbCircle
 10
320.7642838761615
 20
-167.7928656500739
 30
0.0
 40
7.000006856145085
100
AcDbArc
 50
90.0
 51
134.4158477783203
  0
ARC
  5
25B
330
1F
100
AcDbEntity
  8
躯体
  6
Continuous
 62
     2
370
     9
100
AcDbCircle
 10
320.7642838761615
 20
-167.7928656500739
 30
0.0
 40
7.000006856145085
100
AcDbArc
 50
225.5841522216797
 51
272.899658203125
  0
ARC
  5
25C
330
1F
100
AcDbEntity
  8
躯体
  6
Continuous
 62
     2
370
     9
100
AcDbCircle
 10
318.264151908256
 20
-167.7928656500739
 30
0.0
 40
12.49999967781273
100
AcDbArc
 50
359.9955749511719
 51
13.88652038574222
  0
ARC
  5
25D
330
1F
100
AcDbEntity
  8
躯体
  6
Continuous
 62
     2
370
     9
100
AcDbCircle
 10
318.264151908256
 20
-167.7928656500739
 30
0.0
 40
12.49999967781273
100
AcDbArc
 50
34.05599975585938
 51
180.0
  0
ARC
  5
25E
330
1F
100
AcDbEntity
  8
躯体
  6
JWW_CENTER1
 62
     2
370
     9
100
AcDbCircle
 10
532.3186513539908
 20
-137.7928903940561
 30
0.0
 40
29.99999845350111
100
AcDbArc
 50
270.0
 51
0.0
  0
ARC
  5
25F
330
1F
100
AcDbEntity
  8
通り芯
  6
Continuous
 62
     3
370
     9
100
AcDbCircle
 10
364.1642390070734
 20
-306.2926978033942
 30
0.0
 40
1.500000019331236
100
AcDbArc
 50
270.0
 51
90.0
  0
CIRCLE
  5
260
330
1F
100
AcDbEntity
  8
通り芯
  6
Continuous
 62
     3
370
     9
100
AcDbCircle
 10
365.6642192118878
 20
-298.7927967793232
 30
0.0
 40
3.000000038662472
  0
CIRCLE
  5
261
330
1F
100
AcDbEntity
  8
通り芯
  6
Continuous
 62
     3
370
     9
100
AcDbCircle
 10
365.6642192118878
 20
-298.7927967793232
 30
0.0
 40
6.000000077324945
  0
CIRCLE
  5
262
330
1F
100
AcDbEntity
  8
躯体
  6
JWW_DASHED1
 62
     2
370
     9
100
AcDbCircle
 10
-615.9998919512774
 20
-18.79276997334244
 30
0.0
 40
6.50000008376869
  0
CIRCLE
  5
263
330
1F
100
AcDbEntity
  8
躯体
  6
JWW_DASHED1
 62
     2
370
     9
100
AcDbCircle
 10
-615.9998919512774
 20
148.2070881611592
 30
0.0
 40
6.50000008376869
  0
ARC
  5
264
330
1F
100
AcDbEntity
  8
躯体
  6
JWW_DASHED1
 62
     2
370
     9
100
AcDbCircle
 10
-565.4998676196949
 20
141.7070914603569
 30
0.0
 40
13.00000016753738
100
AcDbArc
 50
0.0
 51
90.0
  0
ARC
  5
265
330
1F
100
AcDbEntity
  8
躯体
  6
JWW_DASHED1
 62
     2
370
     9
100
AcDbCircle
 10
-565.4998676196949
 20
-12.2927732725401
 30
0.0
 40
13.00000016753738
100
AcDbArc
 50
270.0
 51
0.0
  0
CIRCLE
  5
266
330
1F
100
AcDbEntity
  8
躯体
  6
JWW_DASHED1
 62
     2
370
     9
100
AcDbCircle
 10
-644.9999319540486
 20
-205.2928656500739
 30
0.0
 40
9.9999991623131
  0
CIRCLE
  5
267
330
1F
100
AcDbEntity
  8
躯体
  6
JWW_DASHED1
 62
     2
370
     9
100
AcDbCircle
 10
-604.9998927760769
 20
-205.2928656500739
 30
0.0
 40
9.9999991623131
  0
CIRCLE
  5
268
330
1F
100
AcDbEntity
  8
躯体
  6
JWW_DASHED1
 62
     2
370
     9
100
AcDbCircle
 10
-139.999905148068
 20
-205.2928656500739
 30
0.0
 40
9.9999991623131
  0
CIRCLE
  5
269
330
1F
100
AcDbEntity
  8
躯体
  6
JWW_DASHED1
 62
     2
370
     9
100
AcDbCircle
 10
-99.99983504011823
 20
-205.2928656500739
 30
0.0
 40
9.9999991623131
  0
CIRCLE
  5
26A
330
1F
100
AcDbEntity
  8
躯体
  6
JWW_DASHED1
 62
     2
370
     9
100
AcDbCircle
 10
-592.4999133960621
 20
336.2073496225719
 30
0.0
 40
17.49999974225019
  0
CIRCLE
  5
26B
330
1F
100
AcDbEntity
  8
躯体
  6
JWW_DASHED1
 62
     2
370
     9
100
AcDbCircle
 10
-152.4999463880384
 20
336.2073496225719
 30
0.0
 40
17.49999974225019
  0
CIRCLE
  5
26C
330
1F
100
AcDbEntity
  8
躯体
  6
JWW_DASHED1
 62
     2
370
     9
100
AcDbCircle
 10
-592.4999133960621
 20
336.2073496225719
 30
0.0
 40
15.50000164959882
  0
CIRCLE
  5
26D
330
1F
100
AcDbEntity
  8
躯体
  6
JWW_DASHED1
 62
     2
370
     9
100
AcDbCircle
 10
-152.4999463880384
 20
336.2073496225719
 30
0.0
 40
15.50000164959882
  0
ARC
  5
26E
330
1F
100
AcDbEntity
  8
躯体
  6
JWW_DASHED1
 62
     2
370
     9
100
AcDbCircle
 10
-639.6553555050411
 20
-199.9484129209776
 30
0.0
 40
4.371895822318825
100
AcDbArc
 50
173.5815582275391
 51
276.4184417724609
  0
ARC
  5
26F
330
1F
100
AcDbEntity
  8
躯体
  6
JWW_DASHED1
 62
     2
370
     9
100
AcDbCircle
 10
-639.6554792249525
 20
-210.6374420990815
 30
0.0
 40
4.371895822318825
100
AcDbArc
 50
83.58155822753905
 51
186.4184417724609
  0
ARC
  5
270
330
1F
100
AcDbEntity
  8
躯体
  6
JWW_DASHED1
 62
     2
370
     9
100
AcDbCircle
 10
-650.3443846831451
 20
-210.6373183791702
 30
0.0
 40
4.371895822318825
100
AcDbArc
 50
353.5815582275391
 51
96.41844177246095
  0
ARC
  5
271
330
1F
100
AcDbEntity
  8
躯体
  6
JWW_DASHED1
 62
     2
370
     9
100
AcDbCircle
 10
-650.3443228231893
 20
-199.9482892010663
 30
0.0
 40
4.371895822318825
100
AcDbArc
 50
263.5815582275391
 51
6.418441772460947
  0
ARC
  5
272
330
1F
100
AcDbEntity
  8
躯体
  6
JWW_DASHED1
 62
     2
370
     9
100
AcDbCircle
 10
-599.6553781870249
 20
-199.9484129209776
 30
0.0
 40
4.371895822318825
100
AcDbArc
 50
173.5815582275391
 51
276.4184417724609
  0
ARC
  5
273
330
1F
100
AcDbEntity
  8
躯体
  6
JWW_DASHED1
 62
     2
370
     9
100
AcDbCircle
 10
-599.6554400469805
 20
-210.6374420990815
 30
0.0
 40
4.371895822318825
100
AcDbArc
 50
83.58155822753905
 51
186.4184417724609
  0
ARC
  5
274
330
1F
100
AcDbEntity
  8
躯体
  6
JWW_DASHED1
 62
     2
370
     9
100
AcDbCircle
 10
-610.3444073651287
 20
-210.6373183791702
 30
0.0
 40
4.371895822318825
100
AcDbArc
 50
353.5815582275391
 51
96.41844177246095
  0
ARC
  5
275
330
1F
100
AcDbEntity
  8
躯体
  6
JWW_DASHED1
 62
     2
370
     9
100
AcDbCircle
 10
-610.3443455051731
 20
-199.9482892010663
 30
0.0
 40
4.371895822318825
100
AcDbArc
 50
263.5815582275391
 51
6.418441772460947
  0
ARC
  5
276
330
1F
100
AcDbEntity
  8
躯体
  6
JWW_DASHED1
 62
     2
370
     9
100
AcDbCircle
 10
-134.6552668391047
 20
-199.9484129209776
 30
0.0
 40
4.371895822318825
100
AcDbArc
 50
173.5815582275391
 51
276.4175262451172
  0
ARC
  5
277
330
1F
100
AcDbEntity
  8
躯体
  6
JWW_DASHED1
 62
     2
370
     9
100
AcDbCircle
 10
-134.655390559016
 20
-210.6374420990815
 30
0.0
 40
4.371895822318825
100
AcDbArc
 50
83.58155822753905
 51
186.4175262451172
  0
ARC
  5
278
330
1F
100
AcDbEntity
  8
躯体
  6
JWW_DASHED1
 62
     2
370
     9
100
AcDbCircle
 10
-145.3444815970755
 20
-210.6373183791702
 30
0.0
 40
4.371895822318825
100
AcDbArc
 50
353.5815582275391
 51
96.41752624511719
  0
ARC
  5
279
330
1F
100
AcDbEntity
  8
躯体
  6
JWW_DASHED1
 62
     2
370
     9
100
AcDbCircle
 10
-145.3443578771642
 20
-199.9482892010663
 30
0.0
 40
4.371895822318825
100
AcDbArc
 50
263.5815582275391
 51
6.41752624511719
  0
ARC
  5
27A
330
1F
100
AcDbEntity
  8
躯体
  6
JWW_DASHED1
 62
     2
370
     9
100
AcDbCircle
 10
-94.65538231102187
 20
-199.9484129209776
 30
0.0
 40
4.371895822318825
100
AcDbArc
 50
173.5815582275391
 51
276.4175262451172
  0
ARC
  5
27B
330
1F
100
AcDbEntity
  8
躯体
  6
JWW_DASHED1
 62
     2
370
     9
100
AcDbCircle
 10
-94.65538231102187
 20
-210.6374420990815
 30
0.0
 40
4.371895822318825
100
AcDbArc
 50
83.58155822753905
 51
186.4175262451172
  0
ARC
  5
27C
330
1F
100
AcDbEntity
  8
躯体
  6
JWW_DASHED1
 62
     2
370
     9
100
AcDbCircle
 10
-105.3443496291702
 20
-210.6373183791702
 30
0.0
 40
4.371895822318825
100
AcDbArc
 50
353.5815582275391
 51
96.41752624511719
  0
ARC
  5
27D
330
1F
100
AcDbEntity
  8
躯体
  6
JWW_DASHED1
 62
     2
370
     9
100
AcDbCircle
 10
-105.3443496291702
 20
-199.9482892010663
 30
0.0
 40
4.371895822318825
100
AcDbArc
 50
263.5815582275391
 51
6.41752624511719
  0
CIRCLE
  5
27E
330
1F
100
AcDbEntity
  8
通り芯
  6
JWW_DASHED1
 62
     3
370
     9
100
AcDbCircle
 10
-372.4999298920503
 20
274.7071096059439
 30
0.0
 40
1.999999904954756
  0
CIRCLE
  5
27F
330
1F
100
AcDbEntity
  8
通り芯
  6
JWW_DASHED1
 62
     3
370
     9
100
AcDbCircle
 10
-381.999887002481
 20
282.7070865115604
 30
0.0
 40
1.999999904954756
  0
CIRCLE
  5
280
330
1F
100
AcDbEntity
  8
通り芯
  6
JWW_DASHED1
 62
     3
370
     9
100
AcDbCircle
 10
-362.9999109216638
 20
282.7070865115604
 30
0.0
 40
1.999999904954756
  0
TEXT
  5
281
330
1F
100
AcDbEntity
  8
その他
  6
Continuous
 62
     2
370
     9
100
AcDbText
 10
593.6217271959459
 20
371.202939519109
 30
0.0
 40
15.24
  1
把手：ｔ＝３．０
 41
1.109375
  7
ＭＳ ゴシック
100
AcDbText
  0
TEXT
  5
282
330
1F
100
AcDbEntity
  8
その他
  6
Continuous
 62
     2
370
     9
100
AcDbText
 10
244.1638455905682
 20
210.0272580698498
 30
0.0
 40
15.24
  1
1.5
 50
359.9997818882303
 41
1.083333333333334
  7
ＭＳ ゴシック
100
AcDbText
  0
TEXT
  5
283
330
1F
100
AcDbEntity
  8
その他
  6
Continuous
 62
     2
370
     9
100
AcDbText
 10
617.1938839474241
 20
342.6365068755279
 30
0.0
 40
15.24
  1
ＳＵＳ３０４
 41
1.104166666666667
  7
ＭＳ ゴシック
100
AcDbText
  0
TEXT
  5
284
330
1F
100
AcDbEntity
  8
その他
  6
Continuous
 62
     2
370
     9
100
AcDbText
 10
317.539528511666
 20
-377.4727934801256
 30
0.0
 40
15.24
  1
75
 41
1.0625
  7
ＭＳ ゴシック
100
AcDbText
  0
TEXT
  5
285
330
1F
100
AcDbEntity
  8
その他
  6
Continuous
 62
     2
370
     9
100
AcDbText
 10
594.8752229741283
 20
37.20718990062018
 30
0.0
 40
15.24
  1
□500
 50
90.00000250447816
 41
1.1
  7
ＭＳ ゴシック
100
AcDbText
  0
TEXT
  5
286
330
1F
100
AcDbEntity
  8
その他
  6
Continuous
 62
     2
370
     9
100
AcDbText
 10
210.3443358858682
 20
37.20718990062018
 30
0.0
 40
15.24
  1
□745
 50
90.00000250447816
 41
1.1
  7
ＭＳ ゴシック
100
AcDbText
  0
TEXT
  5
287
330
1F
100
AcDbEntity
  8
その他
  6
Continuous
 62
     2
370
     9
100
AcDbText
 10
437.3297385491943
 20
579.9919195391822
 30
0.0
 40
15.24
  1
蓋：ＳＵＳ３０４，ｔ＝１．５
 50
0.0000453672186502
 41
1.116071428571429
  7
ＭＳ ゴシック
100
AcDbText
  0
TEXT
  5
288
330
1F
100
AcDbEntity
  8
その他
  6
Continuous
 62
     2
370
     9
100
AcDbText
 10
573.3994622168674
 20
-318.0939169228932
 30
0.0
 40
15.24
  1
鎖：φ４×５８０
 50
359.9999600640557
 41
1.109375
  7
ＭＳ ゴシック
100
AcDbText
  0
TEXT
  5
289
330
1F
100
AcDbEntity
  8
その他
  6
Continuous
 62
     2
370
     9
100
AcDbText
 10
578.9202262259819
 20
-216.3714367675781
 30
0.0
 40
15.24
  1
枠：Ｌ４０×４０×３
 41
1.1125
  7
ＭＳ ゴシック
100
AcDbText
  0
TEXT
  5
28A
330
1F
100
AcDbEntity
  8
その他
  6
Continuous
 62
     2
370
     9
100
AcDbText
 10
576.8893515097129
 20
-247.4643227901974
 30
0.0
 40
15.24
  1
ＳＳ４００，電気亜鉛めっき
 41
1.115384615384615
  7
ＭＳ ゴシック
100
AcDbText
  0
TEXT
  5
28B
330
1F
100
AcDbEntity
  8
その他
  6
Continuous
 62
     2
370
     9
100
AcDbText
 10
552.9249531513937
 20
-350.1668192930479
 30
0.0
 40
15.24
  1
ＳＷＲＭ，電気亜鉛めっき
 41
1.114583333333333
  7
ＭＳ ゴシック
100
AcDbText
  0
TEXT
  5
28C
330
1F
100
AcDbEntity
  8
その他
  6
Continuous
 62
     2
370
     9
100
AcDbText
 10
476.5530230547931
 20
548.7989131783152
 30
0.0
 40
15.24
  1
ヘアライン仕上
 41
1.107142857142857
  7
ＭＳ ゴシック
100
AcDbText
  0
TEXT
  5
28D
330
1F
100
AcDbEntity
  8
F-Fﾚｲﾔ
  6
Continuous
 62
     2
370
     9
100
AcDbText
 10
-454.646280649546
 20
-680.538541952597
 30
0.0
 40
15.24
  1
蓋ステンレス製　屋上点検口蓋　角型　ＭＲＳ－Ｈ－角－５００
 41
1.120689655172413
  7
ＭＳ ゴシック
100
AcDbText
  0
TEXT
  5
28E
330
1F
100
AcDbEntity
  8
その他
  6
Continuous
 62
     2
370
     9
100
AcDbText
 10
470.3777787492082
 20
460.2938950987121
 30
0.0
 40
15.24
  1
アンカー：ＳＳ４００
 41
1.1125
  7
ＭＳ ゴシック
100
AcDbText
  0
TEXT
  5
28F
330
1F
100
AcDbEntity
  8
その他
  6
Continuous
 62
     2
370
     9
100
AcDbText
 10
479.4671218459672
 20
425.8032582216005
 30
0.0
 40
15.24
  1
電気亜鉛めっき
 41
1.107142857142857
  7
ＭＳ ゴシック
100
AcDbText
  0
ENDSEC
  0
SECTION
  2
OBJECTS
  0
DICTIONARY
  5
C
330
0
100
AcDbDictionary
281
     1
  3
ACAD_GROUP
350
D
  3
ACAD_LAYOUT
350
1A
  3
ACAD_MLEADERSTYLE
350
291
  3
ACAD_MLINESTYLE
350
17
  3
ACAD_PLOTSETTINGS
350
19
  3
ACAD_PLOTSTYLENAME
350
E
  3
ACAD_TABLESTYLE
350
290
  3
ACAD_VISUALSTYLE
350
2A
  0
DICTIONARY
  5
D
102
{ACAD_REACTORS
330
C
102
}
330
C
100
AcDbDictionary
281
     1
  0
DICTIONARY
  5
1A
102
{ACAD_REACTORS
330
C
102
}
330
C
100
AcDbDictionary
281
     1
  3
Layout1
350
1E
  3
Layout2
350
26
  3
Model
350
22
  0
DICTIONARY
  5
291
102
{ACAD_REACTORS
330
C
102
}
330
C
100
AcDbDictionary
281
     1
  0
DICTIONARY
  5
17
102
{ACAD_REACTORS
330
C
102
}
330
C
100
AcDbDictionary
281
     1
  3
Standard
350
18
  0
DICTIONARY
  5
19
102
{ACAD_REACTORS
330
C
102
}
330
C
100
AcDbDictionary
281
     1
  0
ACDBDICTIONARYWDFLT
  5
E
102
{ACAD_REACTORS
330
C
102
}
330
C
100
AcDbDictionary
281
     1
  3
Normal
350
F
100
AcDbDictionaryWithDefault
340
F
  0
DICTIONARY
  5
290
102
{ACAD_REACTORS
330
C
102
}
330
C
100
AcDbDictionary
281
     1
  0
DICTIONARY
  5
2A
102
{ACAD_REACTORS
330
C
102
}
330
C
100
AcDbDictionary
281
     1
  3
2dWireframe
350
2F
  3
3D Hidden
350
31
  3
3dWireframe
350
30
  3
Basic
350
32
  3
Brighten
350
36
  3
ColorChange
350
3A
  3
Conceptual
350
34
  3
Dim
350
35
  3
Facepattern
350
39
  3
Flat
350
2B
  3
FlatWithEdges
350
2C
  3
Gouraud
350
2D
  3
GouraudWithEdges
350
2E
  3
Linepattern
350
38
  3
Realistic
350
33
  3
Thicken
350
37
  0
LAYOUT
  5
1E
102
{ACAD_REACTORS
330
1A
102
}
330
1A
100
AcDbPlotSettings
  1

  2
none_device
  4

  6

 40
0.0
 41
0.0
 42
0.0
 43
0.0
 44
0.0
 45
0.0
 46
0.0
 47
0.0
 48
0.0
 49
0.0
140
0.0
141
0.0
142
1.0
143
1.0
 70
   688
 72
     0
 73
     0
 74
     5
  7

 75
    16
 76
     0
 77
     5
 78
   300
147
1.0
148
0.0
149
0.0
100
AcDbLayout
  1
Layout1
 70
     1
 71
     1
 10
0.0
 20
0.0
 11
420.0
 21
297.0
 12
0.0
 22
0.0
 32
0.0
 14
1.000000000000000E+20
 24
1.000000000000000E+20
 34
1.000000000000000E+20
 15
-1.000000000000000E+20
 25
-1.000000000000000E+20
 35
-1.000000000000000E+20
146
0.0
 13
0.0
 23
0.0
 33
0.0
 16
1.0
 26
0.0
 36
0.0
 17
0.0
 27
1.0
 37
0.0
 76
     0
330
1B
  0
LAYOUT
  5
26
102
{ACAD_REACTORS
330
1A
102
}
330
1A
100
AcDbPlotSettings
  1

  2
none_device
  4

  6

 40
0.0
 41
0.0
 42
0.0
 43
0.0
 44
0.0
 45
0.0
 46
0.0
 47
0.0
 48
0.0
 49
0.0
140
0.0
141
0.0
142
1.0
143
1.0
 70
   688
 72
     0
 73
     0
 74
     5
  7

 75
    16
 76
     0
 77
     5
 78
   300
147
1.0
148
0.0
149
0.0
100
AcDbLayout
  1
Layout2
 70
     1
 71
     2
 10
0.0
 20
0.0
 11
0.0
 21
0.0
 12
0.0
 22
0.0
 32
0.0
 14
0.0
 24
0.0
 34
0.0
 15
0.0
 25
0.0
 35
0.0
146
0.0
 13
0.0
 23
0.0
 33
0.0
 16
1.0
 26
0.0
 36
0.0
 17
0.0
 27
1.0
 37
0.0
 76
     0
330
23
  0
LAYOUT
  5
22
102
{ACAD_REACTORS
330
1A
102
}
330
1A
100
AcDbPlotSettings
  1

  2
none_device
  4

  6

 40
0.0
 41
0.0
 42
0.0
 43
0.0
 44
0.0
 45
0.0
 46
0.0
 47
0.0
 48
0.0
 49
0.0
140
0.0
141
0.0
142
1.0
143
1.0
 70
  1712
 72
     0
 73
     0
 74
     0
  7

 75
     0
 76
     0
 77
     5
 78
   300
147
1.0
148
0.0
149
0.0
100
AcDbLayout
  1
Model
 70
     1
 71
     0
 10
-1050.0
 20
-742.5
 11
1050.0
 21
742.5
 12
0.0
 22
0.0
 32
0.0
 14
-1050.0
 24
-742.5
 34
0.0
 15
1050.0
 25
742.5
 35
0.0
146
0.0
 13
0.0
 23
0.0
 33
0.0
 16
1.0
 26
0.0
 36
0.0
 17
0.0
 27
1.0
 37
0.0
 76
     0
330
1F
331
29
  0
MLINESTYLE
  5
18
102
{ACAD_REACTORS
330
17
102
}
330
17
100
AcDbMlineStyle
  2
Standard
 70
     0
  3

 62
   256
 51
90.0
 52
90.0
 71
     2
 49
0.5
 62
   256
  6
BYLAYER
 49
-0.5
 62
   256
  6
BYLAYER
  0
ACDBPLACEHOLDER
  5
F
102
{ACAD_REACTORS
330
E
102
}
330
E
  0
VISUALSTYLE
  5
2F
102
{ACAD_REACTORS
330
2A
102
}
330
2A
100
AcDbVisualStyle
  2
2dWireframe
 70
     4
 71
     0
 72
     2
 73
     0
 90
        0
 40
-0.6
 41
-30.0
 62
     5
 63
     7
421
 16777215
 74
     1
 91
        4
 64
     7
 65
   257
 75
     1
175
     1
 42
1.0
 92
        0
 66
   257
 43
1.0
 76
     1
 77
     6
 78
     2
 67
     7
 79
     5
170
     0
171
     0
290
     0
174
     0
 93
        1
 44
0.0
173
     0
291
     0
 45
0.0
1001
ACAD
1000
AcDbSavedByObjectVersion
1070
     0
  0
VISUALSTYLE
  5
31
102
{ACAD_REACTORS
330
2A
102
}
330
2A
100
AcDbVisualStyle
  2
3D Hidden
 70
     6
 71
     1
 72
     2
 73
     2
 90
        0
 40
-0.6
 41
-30.0
 62
     5
 63
     7
421
 16777215
 74
     2
 91
        2
 64
     7
 65
   257
 75
     2
175
     1
 42
40.0
 92
        0
 66
   257
 43
1.0
 76
     1
 77
     6
 78
     2
 67
     7
 79
     3
170
     0
171
     0
290
     0
174
     0
 93
        1
 44
0.0
173
     0
291
     0
 45
0.0
1001
ACAD
1000
AcDbSavedByObjectVersion
1070
     0
  0
VISUALSTYLE
  5
30
102
{ACAD_REACTORS
330
2A
102
}
330
2A
100
AcDbVisualStyle
  2
3dWireframe
 70
     5
 71
     0
 72
     2
 73
     0
 90
        0
 40
-0.6
 41
-30.0
 62
     5
 63
     7
421
 16777215
 74
     1
 91
        4
 64
     7
 65
   257
 75
     1
175
     1
 42
1.0
 92
        0
 66
   257
 43
1.0
 76
     1
 77
     6
 78
     2
 67
     7
 79
     5
170
     0
171
     0
290
     0
174
     0
 93
        1
 44
0.0
173
     0
291
     0
 45
0.0
1001
ACAD
1000
AcDbSavedByObjectVersion
1070
     0
  0
VISUALSTYLE
  5
32
102
{ACAD_REACTORS
330
2A
102
}
330
2A
100
AcDbVisualStyle
  2
Basic
 70
     7
 71
     1
 72
     0
 73
     1
 90
        0
 40
-0.6
 41
-30.0
 62
     5
 63
     7
421
 16777215
 74
     0
 91
        4
 64
     7
 65
   257
 75
     1
175
     1
 42
1.0
 92
        8
 66
     7
 43
1.0
 76
     1
 77
     6
 78
     2
 67
     7
 79
     5
170
     0
171
     0
290
     0
174
     0
 93
        1
 44
0.0
173
     0
291
     1
 45
0.0
1001
ACAD
1000
AcDbSavedByObjectVersion
1070
     0
  0
VISUALSTYLE
  5
36
102
{ACAD_REACTORS
330
2A
102
}
330
2A
100
AcDbVisualStyle
  2
Brighten
 70
    12
 71
     2
 72
     2
 73
     0
 90
        0
 40
-0.6
 41
-30.0
 62
     5
 63
     7
421
 16777215
 74
     1
 91
        4
 64
     7
 65
   257
 75
     1
175
     1
 42
1.0
 92
        8
 66
     7
 43
1.0
 76
     1
 77
     6
 78
     2
 67
     7
 79
     5
170
     0
171
     0
290
     0
174
     0
 93
        1
 44
50.0
173
     0
291
     1
 45
0.0
1001
ACAD
1000
AcDbSavedByObjectVersion
1070
     0
  0
VISUALSTYLE
  5
3A
102
{ACAD_REACTORS
330
2A
102
}
330
2A
100
AcDbVisualStyle
  2
ColorChange
 70
    16
 71
     2
 72
     2
 73
     3
 90
        0
 40
-0.6
 41
-30.0
 62
     5
 63
     8
421
  8421504
 74
     1
 91
        4
 64
     7
 65
   257
 75
     1
175
     1
 42
1.0
 92
        8
 66
     8
424
  8421504
 43
1.0
 76
     1
 77
     6
 78
     2
 67
     7
 79
     5
170
     0
171
     0
290
     0
174
     0
 93
        1
 44
0.0
173
     0
291
     1
 45
0.0
1001
ACAD
1000
AcDbSavedByObjectVersion
1070
     0
  0
VISUALSTYLE
  5
34
102
{ACAD_REACTORS
330
2A
102
}
330
2A
100
AcDbVisualStyle
  2
Conceptual
 70
     9
 71
     3
 72
     2
 73
     0
 90
        0
 40
-0.6
 41
-30.0
 62
     5
 63
     7
421
 16777215
 74
     2
 91
        2
 64
     7
 65
   257
 75
     1
175
     1
 42
40.0
 92
        8
 66
     7
 43
1.0
 76
     1
 77
     6
 78
     2
 67
     7
 79
     3
170
     0
171
     0
290
     0
174
     0
 93
        1
 44
0.0
173
     0
291
     0
 45
0.0
1001
ACAD
1000
AcDbSavedByObjectVersion
1070
     0
  0
VISUALSTYLE
  5
35
102
{ACAD_REACTORS
330
2A
102
}
330
2A
100
AcDbVisualStyle
  2
Dim
 70
    11
 71
     2
 72
     2
 73
     0
 90
        0
 40
-0.6
 41
-30.0
 62
     5
 63
     7
421
 16777215
 74
     1
 91
        4
 64
     7
 65
   257
 75
     1
175
     1
 42
1.0
 92
        8
 66
     7
 43
1.0
 76
     1
 77
     6
 78
     2
 67
     7
 79
     5
170
     0
171
     0
290
     0
174
     0
 93
        1
 44
-50.0
173
     0
291
     1
 45
0.0
1001
ACAD
1000
AcDbSavedByObjectVersion
1070
     0
  0
VISUALSTYLE
  5
39
102
{ACAD_REACTORS
330
2A
102
}
330
2A
100
AcDbVisualStyle
  2
Facepattern
 70
    15
 71
     2
 72
     2
 73
     0
 90
        0
 40
-0.6
 41
-30.0
 62
     5
 63
     7
421
 16777215
 74
     1
 91
        4
 64
     7
 65
   257
 75
     1
175
     1
 42
1.0
 92
        8
 66
     7
 43
1.0
 76
     1
 77
     6
 78
     2
 67
     7
 79
     5
170
     0
171
     0
290
     0
174
     0
 93
        1
 44
0.0
173
     0
291
     1
 45
0.0
1001
ACAD
1000
AcDbSavedByObjectVersion
1070
     0
  0
VISUALSTYLE
  5
2B
102
{ACAD_REACTORS
330
2A
102
}
330
2A
100
AcDbVisualStyle
  2
Flat
 70
     0
 71
     2
 72
     1
 73
     1
 90
        2
 40
-0.6
 41
30.0
 62
     5
 63
     7
421
 16777215
 74
     0
 91
        4
 64
     7
 65
   257
 75
     1
175
     1
 42
1.0
 92
        8
 66
     7
 43
1.0
 76
     1
 77
     6
 78
     2
 67
     7
 79
     5
170
     0
171
     0
290
     0
174
     0
 93
       13
 44
0.0
173
     0
291
     1
 45
0.0
1001
ACAD
1000
AcDbSavedByObjectVersion
1070
     0
  0
VISUALSTYLE
  5
2C
102
{ACAD_REACTORS
330
2A
102
}
330
2A
100
AcDbVisualStyle
  2
FlatWithEdges
 70
     1
 71
     2
 72
     1
 73
     1
 90
        2
 40
-0.6
 41
30.0
 62
     5
 63
     7
421
 16777215
 74
     1
 91
        4
 64
     7
 65
   257
 75
     1
175
     1
 42
1.0
 92
        0
 66
   257
 43
1.0
 76
     1
 77
     6
 78
     2
 67
     7
 79
     5
170
     0
171
     0
290
     0
174
     0
 93
       13
 44
0.0
173
     0
291
     1
 45
0.0
1001
ACAD
1000
AcDbSavedByObjectVersion
1070
     0
  0
VISUALSTYLE
  5
2D
102
{ACAD_REACTORS
330
2A
102
}
330
2A
100
AcDbVisualStyle
  2
Gouraud
 70
     2
 71
     2
 72
     2
 73
     1
 90
        2
 40
-0.6
 41
30.0
 62
     5
 63
     7
421
 16777215
 74
     0
 91
        4
 64
     7
 65
   257
 75
     1
175
     1
 42
1.0
 92
        0
 66
     7
 43
1.0
 76
     1
 77
     6
 78
     2
 67
     7
 79
     5
170
     0
171
     0
290
     0
174
     0
 93
       13
 44
0.0
173
     0
291
     1
 45
0.0
1001
ACAD
1000
AcDbSavedByObjectVersion
1070
     0
  0
VISUALSTYLE
  5
2E
102
{ACAD_REACTORS
330
2A
102
}
330
2A
100
AcDbVisualStyle
  2
GouraudWithEdges
 70
     3
 71
     2
 72
     2
 73
     1
 90
        2
 40
-0.6
 41
30.0
 62
     5
 63
     7
421
 16777215
 74
     1
 91
        4
 64
     7
 65
   257
 75
     1
175
     1
 42
1.0
 92
        0
 66
   257
 43
1.0
 76
     1
 77
     6
 78
     2
 67
     7
 79
     5
170
     0
171
     0
290
     0
174
     0
 93
       13
 44
0.0
173
     0
291
     1
 45
0.0
1001
ACAD
1000
AcDbSavedByObjectVersion
1070
     0
  0
VISUALSTYLE
  5
38
102
{ACAD_REACTORS
330
2A
102
}
330
2A
100
AcDbVisualStyle
  2
Linepattern
 70
    14
 71
     2
 72
     2
 73
     0
 90
        0
 40
-0.6
 41
-30.0
 62
     5
 63
     7
421
 16777215
 74
     1
 91
        4
 64
     7
 65
   257
 75
     7
175
     7
 42
1.0
 92
        8
 66
     7
 43
1.0
 76
     1
 77
     6
 78
     2
 67
     7
 79
     5
170
     0
171
     0
290
     0
174
     0
 93
        1
 44
0.0
173
     0
291
     1
 45
0.0
1001
ACAD
1000
AcDbSavedByObjectVersion
1070
     0
  0
VISUALSTYLE
  5
33
102
{ACAD_REACTORS
330
2A
102
}
330
2A
100
AcDbVisualStyle
  2
Realistic
 70
     8
 71
     2
 72
     2
 73
     0
 90
        0
 40
-0.6
 41
-30.0
 62
     5
 63
     7
421
 16777215
 74
     1
 91
        0
 64
     7
 65
   257
 75
     1
175
     1
 42
1.0
 92
        8
 66
     8
424
  7895160
 43
1.0
 76
     1
 77
     6
 78
     2
 67
     7
 79
     5
170
     0
171
     0
290
     0
174
     0
 93
       13
 44
0.0
173
     0
291
     0
 45
0.0
1001
ACAD
1000
AcDbSavedByObjectVersion
1070
     0
  0
VISUALSTYLE
  5
37
102
{ACAD_REACTORS
330
2A
102
}
330
2A
100
AcDbVisualStyle
  2
Thicken
 70
    13
 71
     2
 72
     2
 73
     0
 90
        0
 40
-0.6
 41
-30.0
 62
     5
 63
     7
421
 16777215
 74
     1
 91
        4
 64
     7
 65
   257
 75
     1
175
     1
 42
1.0
 92
       12
 66
     7
 43
1.0
 76
     1
 77
     6
 78
     2
 67
     7
 79
     5
170
     0
171
     0
290
     0
174
     0
 93
        1
 44
0.0
173
     0
291
     1
 45
0.0
1001
ACAD
1000
AcDbSavedByObjectVersion
1070
     0
  0
ENDSEC
  0
EOF
