  0
SECTION
  2
HEADER
  9
$ACADVER
  1
AC1018
  9
$ACADMAINTVER
 70
     0
  9
$DWGCODEPAGE
  3
ANSI_932
  9
$INSBASE
 10
0.0
 20
0.0
 30
0.0
  9
$EXTMIN
 10
-1050.0
 20
-742.5
 30
0.0
  9
$EXTMAX
 10
1050.0
 20
742.5
 30
0.0
  9
$LIMMIN
 10
-1050.0
 20
-742.5
  9
$LIMMAX
 10
1050.0
 20
742.5
  9
$ORTHOMODE
 70
     0
  9
$REGENMODE
 70
     1
  9
$FILLMODE
 70
     1
  9
$QTEXTMODE
 70
     0
  9
$MIRRTEXT
 70
     1
  9
$LTSCALE
 40
5.0
  9
$ATTMODE
 70
     1
  9
$TEXTSIZE
 40
2.5
  9
$TRACEWID
 40
1.0
  9
$TEXTSTYLE
  7
Standard
  9
$CLAYER
  8
0
  9
$CELTYPE
  6
ByLayer
  9
$CECOLOR
 62
   256
  9
$CELTSCALE
 40
1.0
  9
$DISPSILH
 70
     0
  9
$DIMSCALE
 40
1.0
  9
$DIMASZ
 40
2.5
  9
$DIMEXO
 40
0.625
  9
$DIMDLI
 40
3.75
  9
$DIMRND
 40
0.0
  9
$DIMDLE
 40
0.0
  9
$DIMEXE
 40
1.25
  9
$DIMTP
 40
0.0
  9
$DIMTM
 40
0.0
  9
$DIMTXT
 40
2.5
  9
$DIMCEN
 40
2.5
  9
$DIMTSZ
 40
0.0
  9
$DIMTOL
 70
     0
  9
$DIMLIM
 70
     0
  9
$DIMTIH
 70
     0
  9
$DIMTOH
 70
     0
  9
$DIMSE1
 70
     0
  9
$DIMSE2
 70
     0
  9
$DIMTAD
 70
     1
  9
$DIMZIN
 70
     8
  9
$DIMBLK
  1

  9
$DIMASO
 70
     1
  9
$DIMSHO
 70
     1
  9
$DIMPOST
  1

  9
$DIMAPOST
  1

  9
$DIMALT
 70
     0
  9
$DIMALTD
 70
     3
  9
$DIMALTF
 40
0.03937007874016
  9
$DIMLFAC
 40
1.0
  9
$DIMTOFL
 70
     1
  9
$DIMTVP
 40
0.0
  9
$DIMTIX
 70
     0
  9
$DIMSOXD
 70
     0
  9
$DIMSAH
 70
     0
  9
$DIMBLK1
  1

  9
$DIMBLK2
  1

  9
$DIMSTYLE
  2
ISO-25
  9
$DIMCLRD
 70
     0
  9
$DIMCLRE
 70
     0
  9
$DIMCLRT
 70
     0
  9
$DIMTFAC
 40
1.0
  9
$DIMGAP
 40
0.625
  9
$DIMJUST
 70
     0
  9
$DIMSD1
 70
     0
  9
$DIMSD2
 70
     0
  9
$DIMTOLJ
 70
     0
  9
$DIMTZIN
 70
     8
  9
$DIMALTZ
 70
     0
  9
$DIMALTTZ
 70
     0
  9
$DIMUPT
 70
     0
  9
$DIMDEC
 70
     2
  9
$DIMTDEC
 70
     2
  9
$DIMALTU
 70
     2
  9
$DIMALTTD
 70
     3
  9
$DIMTXSTY
  7
Standard
  9
$DIMAUNIT
 70
     0
  9
$DIMADEC
 70
     0
  9
$DIMALTRND
 40
0.0
  9
$DIMAZIN
 70
     0
  9
$DIMDSEP
 70
    44
  9
$DIMATFIT
 70
     3
  9
$DIMFRAC
 70
     0
  9
$DIMLDRBLK
  1

  9
$DIMLUNIT
 70
     2
  9
$DIMLWD
 70
    -2
  9
$DIMLWE
 70
    -2
  9
$DIMTMOVE
 70
     0
  9
$LUNITS
 70
     2
  9
$LUPREC
 70
     4
  9
$SKETCHINC
 40
1.0
  9
$FILLETRAD
 40
10.0
  9
$AUNITS
 70
     0
  9
$AUPREC
 70
     0
  9
$MENU
  1
.
  9
$ELEVATION
 40
0.0
  9
$PELEVATION
 40
0.0
  9
$THICKNESS
 40
0.0
  9
$LIMCHECK
 70
     0
  9
$CHAMFERA
 40
10.0
  9
$CHAMFERB
 40
10.0
  9
$CHAMFERC
 40
20.0
  9
$CHAMFERD
 40
0.0
  9
$SKPOLY
 70
     0
  9
$TDCREATE
 40
2457542.403070671
  9
$TDUCREATE
 40
2457542.028070671
  9
$TDUPDATE
 40
2457542.403070683
  9
$TDUUPDATE
 40
2457542.028070683
  9
$TDINDWG
 40
0.0000000116
  9
$TDUSRTIMER
 40
0.0000000116
  9
$USRTIMER
 70
     1
  9
$ANGBASE
 50
0.0
  9
$ANGDIR
 70
     0
  9
$PDMODE
 70
     0
  9
$PDSIZE
 40
0.0
  9
$PLINEWID
 40
0.0
  9
$SPLFRAME
 70
     0
  9
$SPLINETYPE
 70
     6
  9
$SPLINESEGS
 70
     8
  9
$HANDSEED
  5
2C1
  9
$SURFTAB1
 70
     6
  9
$SURFTAB2
 70
     6
  9
$SURFTYPE
 70
     6
  9
$SURFU
 70
     6
  9
$SURFV
 70
     6
  9
$UCSBASE
  2

  9
$UCSNAME
  2

  9
$UCSORG
 10
0.0
 20
0.0
 30
0.0
  9
$UCSXDIR
 10
1.0
 20
0.0
 30
0.0
  9
$UCSYDIR
 10
0.0
 20
1.0
 30
0.0
  9
$UCSORTHOREF
  2

  9
$UCSORTHOVIEW
 70
     0
  9
$UCSORGTOP
 10
0.0
 20
0.0
 30
0.0
  9
$UCSORGBOTTOM
 10
0.0
 20
0.0
 30
0.0
  9
$UCSORGLEFT
 10
0.0
 20
0.0
 30
0.0
  9
$UCSORGRIGHT
 10
0.0
 20
0.0
 30
0.0
  9
$UCSORGFRONT
 10
0.0
 20
0.0
 30
0.0
  9
$UCSORGBACK
 10
0.0
 20
0.0
 30
0.0
  9
$PUCSBASE
  2

  9
$PUCSNAME
  2

  9
$PUCSORG
 10
0.0
 20
0.0
 30
0.0
  9
$PUCSXDIR
 10
1.0
 20
0.0
 30
0.0
  9
$PUCSYDIR
 10
0.0
 20
1.0
 30
0.0
  9
$PUCSORTHOREF
  2

  9
$PUCSORTHOVIEW
 70
     0
  9
$PUCSORGTOP
 10
0.0
 20
0.0
 30
0.0
  9
$PUCSORGBOTTOM
 10
0.0
 20
0.0
 30
0.0
  9
$PUCSORGLEFT
 10
0.0
 20
0.0
 30
0.0
  9
$PUCSORGRIGHT
 10
0.0
 20
0.0
 30
0.0
  9
$PUCSORGFRONT
 10
0.0
 20
0.0
 30
0.0
  9
$PUCSORGBACK
 10
0.0
 20
0.0
 30
0.0
  9
$USERI1
 70
     0
  9
$USERI2
 70
     0
  9
$USERI3
 70
     0
  9
$USERI4
 70
     0
  9
$USERI5
 70
     0
  9
$USERR1
 40
0.0
  9
$USERR2
 40
0.0
  9
$USERR3
 40
0.0
  9
$USERR4
 40
0.0
  9
$USERR5
 40
0.0
  9
$WORLDVIEW
 70
     1
  9
$SHADEDGE
 70
     3
  9
$SHADEDIF
 70
    70
  9
$TILEMODE
 70
     1
  9
$MAXACTVP
 70
    64
  9
$PINSBASE
 10
0.0
 20
0.0
 30
0.0
  9
$PLIMCHECK
 70
     0
  9
$PEXTMIN
 10
1.000000000000000E+20
 20
1.000000000000000E+20
 30
1.000000000000000E+20
  9
$PEXTMAX
 10
-1.000000000000000E+20
 20
-1.000000000000000E+20
 30
-1.000000000000000E+20
  9
$PLIMMIN
 10
0.0
 20
0.0
  9
$PLIMMAX
 10
420.0
 20
297.0
  9
$UNITMODE
 70
     0
  9
$VISRETAIN
 70
     1
  9
$PLINEGEN
 70
     0
  9
$PSLTSCALE
 70
     1
  9
$TREEDEPTH
 70
  3020
  9
$CMLSTYLE
  2
Standard
  9
$CMLJUST
 70
     0
  9
$CMLSCALE
 40
20.0
  9
$PROXYGRAPHICS
 70
     1
  9
$MEASUREMENT
 70
     1
  9
$CELWEIGHT
370
    -1
  9
$ENDCAPS
280
     0
  9
$JOINSTYLE
280
     0
  9
$LWDISPLAY
290
     0
  9
$INSUNITS
 70
     4
  9
$HYPERLINKBASE
  1

  9
$STYLESHEET
  1

  9
$XEDIT
290
     1
  9
$CEPSNTYPE
380
     0
  9
$PSTYLEMODE
290
     1
  9
$FINGERPRINTGUID
  2
{E57F603A-A793-4471-B1C3-D95CE3638B94}
  9
$VERSIONGUID
  2
{FAEB1C32-E019-11D5-929B-00C0DF256EC4}
  9
$EXTNAMES
290
     1
  9
$PSVPSCALE
 40
0.0
  9
$OLESTARTUP
290
     0
  9
$SORTENTS
280
   127
  9
$INDEXCTL
280
     0
  9
$HIDETEXT
280
     1
  9
$XCLIPFRAME
290
     0
  9
$HALOGAP
280
     0
  9
$OBSCOLOR
 70
   257
  9
$OBSLTYPE
280
     0
  9
$INTERSECTIONDISPLAY
280
     0
  9
$INTERSECTIONCOLOR
 70
   257
  9
$DIMASSOC
280
     2
  9
$PROJECTNAME
  1

  0
ENDSEC
  0
SECTION
  2
CLASSES
  0
CLASS
  1
ACDBDICTIONARYWDFLT
  2
AcDbDictionaryWithDefault
  3
ObjectDBX Classes
 90
        0
 91
        4
280
     0
281
     0
  0
CLASS
  1
VISUALSTYLE
  2
AcDbVisualStyle
  3
ObjectDBX Classes
 90
     4095
 91
        4
280
     0
281
     0
  0
ENDSEC
  0
SECTION
  2
TABLES
  0
TABLE
  2
VPORT
  5
8
330
0
100
AcDbSymbolTable
 70
     1
  0
VPORT
  5
29
330
8
100
AcDbSymbolTableRecord
100
AcDbViewportTableRecord
  2
*Active
 70
     0
 10
0.0
 20
0.0
 11
1.0
 21
1.0
 12
0.0
 22
0.0
 13
0.0
 23
0.0
 14
10.0
 24
10.0
 15
10.0
 25
10.0
 16
0.0
 26
0.0
 36
1.0
 17
0.0
 27
0.0
 37
0.0
 40
1633.5
 41
1.414141414141414
 42
50.0
 43
0.0
 44
0.0
 50
0.0
 51
0.0
 71
     0
 72
 10000
 73
     1
 74
     3
 75
     0
 76
     0
 77
     0
 78
     0
281
     0
 65
     1
110
0.0
120
0.0
130
0.0
111
1.0
121
0.0
131
0.0
112
0.0
122
1.0
132
0.0
 79
     0
146
0.0
  0
ENDTAB
  0
TABLE
  2
LTYPE
  5
5
330
0
100
AcDbSymbolTable
 70
     4
  0
LTYPE
  5
14
330
5
100
AcDbSymbolTableRecord
100
AcDbLinetypeTableRecord
  2
ByBlock
 70
     0
  3

 72
    65
 73
     0
 40
0.0
  0
LTYPE
  5
15
330
5
100
AcDbSymbolTableRecord
100
AcDbLinetypeTableRecord
  2
ByLayer
 70
     0
  3

 72
    65
 73
     0
 40
0.0
  0
LTYPE
  5
16
330
5
100
AcDbSymbolTableRecord
100
AcDbLinetypeTableRecord
  2
Continuous
 70
     0
  3
Solid line
 72
    65
 73
     0
 40
0.0
  0
LTYPE
  5
3C
330
5
100
AcDbSymbolTableRecord
100
AcDbLinetypeTableRecord
  2
JWW_HOJO
 70
     0
  3
  -   -   -   -   -   -   -   - 
 72
    65
 73
     2
 40
1.693333333333333
 49
-1.27
 74
     0
 49
0.4233333333333333
 74
     0
  0
LTYPE
  5
3D
330
5
100
AcDbSymbolTableRecord
100
AcDbLinetypeTableRecord
  2
JWW_CENTER1
 70
     0
  3
-----  --  ----------  --  -----
 72
    65
 73
     4
 40
6.773333333333333
 49
4.233333333333333
 74
     0
 49
-0.8466666666666667
 74
     0
 49
0.8466666666666667
 74
     0
 49
-0.8466666666666667
 74
     0
  0
LTYPE
  5
3E
330
5
100
AcDbSymbolTableRecord
100
AcDbLinetypeTableRecord
  2
JWW_DASHED1
 70
     0
  3
-  --  --  --  --  --  --  --  -
 72
    65
 73
     2
 40
1.693333333333333
 49
0.8466666666666667
 74
     0
 49
-0.8466666666666667
 74
     0
  0
ENDTAB
  0
TABLE
  2
LAYER
  5
2
330
0
100
AcDbSymbolTable
 70
     5
  0
LAYER
  5
10
330
2
100
AcDbSymbolTableRecord
100
AcDbLayerTableRecord
  2
0
 70
     0
 62
     7
  6
Continuous
370
    -3
390
F
  0
LAYER
  5
3F
330
2
100
AcDbSymbolTableRecord
100
AcDbLayerTableRecord
  2
その他
 70
     0
 62
     7
  6
Continuous
370
    -3
390
F
  0
LAYER
  5
40
330
2
100
AcDbSymbolTableRecord
100
AcDbLayerTableRecord
  2
通り芯
 70
     0
 62
     7
  6
Continuous
370
    -3
390
F
  0
LAYER
  5
41
330
2
100
AcDbSymbolTableRecord
100
AcDbLayerTableRecord
  2
躯体
 70
     0
 62
     7
  6
Continuous
370
    -3
390
F
  0
LAYER
  5
42
330
2
100
AcDbSymbolTableRecord
100
AcDbLayerTableRecord
  2
0-F
 70
     0
 62
     7
  6
Continuous
370
    -3
390
F
  0
ENDTAB
  0
TABLE
  2
STYLE
  5
3
330
0
100
AcDbSymbolTable
 70
     2
  0
STYLE
  5
11
330
3
100
AcDbSymbolTableRecord
100
AcDbTextStyleTableRecord
  2
Standard
 70
     0
 40
0.0
 41
1.0
 50
0.0
 71
     0
 42
2.5
  3
txt
  4

1001
ACAD
1000

1071
        0
  0
STYLE
  5
3B
330
3
100
AcDbSymbolTableRecord
100
AcDbTextStyleTableRecord
  2
ＭＳ ゴシック
 70
     0
 40
1.0
 41
1.0
 50
0.0
 71
     0
 42
10.0
  3

  4

1001
ACAD
1000
MS Gothic
1071
    32817
  0
ENDTAB
  0
TABLE
  2
VIEW
  5
6
330
0
100
AcDbSymbolTable
 70
     0
  0
ENDTAB
  0
TABLE
  2
UCS
  5
7
330
0
100
AcDbSymbolTable
 70
     0
  0
ENDTAB
  0
TABLE
  2
APPID
  5
9
330
0
100
AcDbSymbolTable
 70
     1
  0
APPID
  5
12
330
9
100
AcDbSymbolTableRecord
100
AcDbRegAppTableRecord
  2
ACAD
 70
     0
  0
ENDTAB
  0
TABLE
  2
DIMSTYLE
  5
A
330
0
100
AcDbSymbolTable
 70
     1
100
AcDbDimStyleTable
  0
DIMSTYLE
105
27
330
A
100
AcDbSymbolTableRecord
100
AcDbDimStyleTableRecord
  2
ISO-25
 70
     0
 41
2.5
 42
0.625
 43
3.75
 44
1.25
 73
     0
 74
     0
 77
     1
 78
     8
140
2.5
141
2.5
143
0.03937007874016
147
0.625
171
     3
172
     1
271
     2
272
     2
274
     3
278
    44
283
     0
284
     8
340
11
  0
ENDTAB
  0
TABLE
  2
BLOCK_RECORD
  5
1
330
0
100
AcDbSymbolTable
 70
     1
  0
BLOCK_RECORD
  5
1F
330
1
100
AcDbSymbolTableRecord
100
AcDbBlockTableRecord
  2
*Model_Space
340
22
  0
BLOCK_RECORD
  5
1B
330
1
100
AcDbSymbolTableRecord
100
AcDbBlockTableRecord
  2
*Paper_Space
340
1E
  0
BLOCK_RECORD
  5
23
330
1
100
AcDbSymbolTableRecord
100
AcDbBlockTableRecord
  2
*Paper_Space0
340
26
  0
ENDTAB
  0
ENDSEC
  0
SECTION
  2
BLOCKS
  0
BLOCK
  5
20
330
1F
100
AcDbEntity
  8
0
100
AcDbBlockBegin
  2
*Model_Space
 70
     0
 10
0.0
 20
0.0
 30
0.0
  3
*Model_Space
  1

  0
ENDBLK
  5
21
330
1F
100
AcDbEntity
  8
0
100
AcDbBlockEnd
  0
BLOCK
  5
1C
330
1B
100
AcDbEntity
 67
     1
  8
0
100
AcDbBlockBegin
  2
*Paper_Space
 70
     0
 10
0.0
 20
0.0
 30
0.0
  3
*Paper_Space
  1

  0
ENDBLK
  5
1D
330
1B
100
AcDbEntity
 67
     1
  8
0
100
AcDbBlockEnd
  0
BLOCK
  5
24
330
23
100
AcDbEntity
  8
0
100
AcDbBlockBegin
  2
*Paper_Space0
 70
     0
 10
0.0
 20
0.0
 30
0.0
  3
*Paper_Space0
  1

  0
ENDBLK
  5
25
330
23
100
AcDbEntity
  8
0
100
AcDbBlockEnd
  0
ENDSEC
  0
SECTION
  2
ENTITIES
  0
LINE
  5
43
330
1F
100
AcDbEntity
  8
その他
  6
Continuous
 62
     7
370
     9
100
AcDbLine
 10
920.2270920212206
 20
-320.6246597702439
 30
0.0
 11
622.0447849582981
 21
-320.6246597702439
 31
0.0
  0
LINE
  5
44
330
1F
100
AcDbEntity
  8
通り芯
  6
JWW_HOJO
 62
     3
370
     9
100
AcDbLine
 10
406.9412643845018
 20
-373.1081307900919
 30
0.0
 11
407.2312638566302
 21
-373.1081307900919
 31
0.0
  0
LINE
  5
45
330
1F
100
AcDbEntity
  8
躯体
  6
Continuous
 62
     2
370
     9
100
AcDbLine
 10
365.3315363703547
 20
-253.6080582077439
 30
0.0
 11
396.3315396695523
 21
-253.6080582077439
 31
0.0
  0
LINE
  5
46
330
1F
100
AcDbEntity
  8
躯体
  6
Continuous
 62
     2
370
     9
100
AcDbLine
 10
361.3316716374578
 20
387.3917615735854
 30
0.0
 11
361.3316716374578
 21
356.3920057142104
 31
0.0
  0
LINE
  5
47
330
1F
100
AcDbEntity
  8
躯体
  6
Continuous
 62
     2
370
     9
100
AcDbLine
 10
404.8315924567146
 20
-231.1081076957084
 30
0.0
 11
431.5397520323057
 21
-231.1081076957084
 31
0.0
  0
LINE
  5
48
330
1F
100
AcDbEntity
  8
躯体
  6
Continuous
 62
     2
370
     9
100
AcDbLine
 10
404.8315924567146
 20
-235.108219868428
 30
0.0
 11
431.5397520323057
 21
-235.108219868428
 31
0.0
  0
LINE
  5
49
330
1F
100
AcDbEntity
  8
躯体
  6
Continuous
 62
     2
370
     9
100
AcDbLine
 10
432.5396563555745
 20
-230.1080796525284
 30
0.0
 11
455.5399301889781
 21
-230.1080796525284
 31
0.0
  0
LINE
  5
4A
330
1F
100
AcDbEntity
  8
躯体
  6
Continuous
 62
     2
370
     9
100
AcDbLine
 10
432.5396563555745
 20
-236.1081241916966
 30
0.0
 11
455.5399301889781
 21
-236.1081241916966
 31
0.0
  0
LINE
  5
4B
330
1F
100
AcDbEntity
  8
躯体
  6
Continuous
 62
     2
370
     9
100
AcDbLine
 10
456.5398345122466
 20
-231.1081076957084
 30
0.0
 11
475.802282384924
 21
-231.1081076957084
 31
0.0
  0
LINE
  5
4C
330
1F
100
AcDbEntity
  8
躯体
  6
Continuous
 62
     2
370
     9
100
AcDbLine
 10
456.5398345122466
 20
-235.108219868428
 30
0.0
 11
476.5923577385982
 21
-235.108219868428
 31
0.0
  0
LINE
  5
4D
330
1F
100
AcDbEntity
  8
躯体
  6
Continuous
 62
     2
370
     9
100
AcDbLine
 10
455.6668668179898
 20
-240.1081126445048
 30
0.0
 11
432.5396563555745
 21
-240.1081126445048
 31
0.0
  0
LINE
  5
4E
330
1F
100
AcDbEntity
  8
躯体
  6
Continuous
 62
     2
370
     9
100
AcDbLine
 10
432.5396563555745
 20
-226.1080911997202
 30
0.0
 11
455.5399301889781
 21
-226.1080911997202
 31
0.0
  0
LINE
  5
4F
330
1F
100
AcDbEntity
  8
躯体
  6
Continuous
 62
     2
370
     9
100
AcDbLine
 10
476.1954642630914
 20
51.39192735826654
 30
0.0
 11
512.1957314980998
 21
51.39192735826654
 31
0.0
  0
LINE
  5
50
330
1F
100
AcDbEntity
  8
躯体
  6
Continuous
 62
     2
370
     9
100
AcDbLine
 10
476.1954642630914
 20
47.39181518554688
 30
0.0
 11
512.1957314980998
 21
47.39181518554688
 31
0.0
  0
LINE
  5
51
330
1F
100
AcDbEntity
  8
躯体
  6
Continuous
 62
     2
370
     9
100
AcDbLine
 10
513.1958832611908
 20
52.39183168153502
 30
0.0
 11
536.1954147751269
 21
52.39183168153502
 31
0.0
  0
LINE
  5
52
330
1F
100
AcDbEntity
  8
躯体
  6
Continuous
 62
     2
370
     9
100
AcDbLine
 10
513.1958832611908
 20
46.39191086227839
 30
0.0
 11
536.1954147751269
 21
46.39191086227839
 31
0.0
  0
LINE
  5
53
330
1F
100
AcDbEntity
  8
躯体
  6
Continuous
 62
     2
370
     9
100
AcDbLine
 10
537.1958139780406
 20
51.39192735826654
 30
0.0
 11
557.14861895587
 21
51.39192735826654
 31
0.0
  0
LINE
  5
54
330
1F
100
AcDbEntity
  8
躯体
  6
Continuous
 62
     2
370
     9
100
AcDbLine
 10
537.1958139780406
 20
47.39181518554688
 30
0.0
 11
559.3807735958615
 21
47.39181518554688
 31
0.0
  0
LINE
  5
55
330
1F
100
AcDbEntity
  8
躯体
  6
Continuous
 62
     2
370
     9
100
AcDbLine
 10
536.3228462837839
 20
42.39179868955873
 30
0.0
 11
513.1958832611908
 21
42.39179868955873
 31
0.0
  0
LINE
  5
56
330
1F
100
AcDbEntity
  8
躯体
  6
Continuous
 62
     2
370
     9
100
AcDbLine
 10
513.1958832611908
 20
56.39194385425469
 30
0.0
 11
536.1954147751269
 21
56.39194385425469
 31
0.0
  0
LINE
  5
57
330
1F
100
AcDbEntity
  8
躯体
  6
Continuous
 62
     2
370
     9
100
AcDbLine
 10
365.3315363703547
 20
352.3918935414907
 30
0.0
 11
396.3315396695523
 21
352.3918935414907
 31
0.0
  0
LINE
  5
58
330
1F
100
AcDbEntity
  8
躯体
  6
Continuous
 62
     2
370
     9
100
AcDbLine
 10
380.8319091796875
 20
-226.1080911997202
 30
0.0
 11
403.8314406936234
 21
-226.1080911997202
 31
0.0
  0
LINE
  5
59
330
1F
100
AcDbEntity
  8
躯体
  6
Continuous
 62
     2
370
     9
100
AcDbLine
 10
398.3313483160896
 20
-240.1081126445048
 30
0.0
 11
398.3313483160896
 21
-251.6081258412954
 31
0.0
  0
LINE
  5
5A
330
1F
100
AcDbEntity
  8
通り芯
  6
Continuous
 62
     3
370
     9
100
AcDbLine
 10
353.7315574852198
 20
471.8919661238388
 30
0.0
 11
425.7315970755914
 21
471.8919661238388
 31
0.0
  0
LINE
  5
5B
330
1F
100
AcDbEntity
  8
躯体
  6
Continuous
 62
     2
370
     9
100
AcDbLine
 10
358.3317112278294
 20
349.3919331318624
 30
0.0
 11
398.3313483160896
 21
349.3919331318624
 31
0.0
  0
LINE
  5
5C
330
1F
100
AcDbEntity
  8
躯体
  6
Continuous
 62
     2
370
     9
100
AcDbLine
 10
358.3317112278294
 20
-250.6080977981155
 30
0.0
 11
398.3313483160896
 21
-250.6080977981155
 31
0.0
  0
LINE
  5
5D
330
1F
100
AcDbEntity
  8
通り芯
  6
Continuous
 62
     3
370
     9
100
AcDbLine
 10
358.3317112278294
 20
-250.6080977981155
 30
0.0
 11
352.3317904085727
 21
-250.6080977981155
 31
0.0
  0
LINE
  5
5E
330
1F
100
AcDbEntity
  8
躯体
  6
Continuous
 62
     2
370
     9
100
AcDbLine
 10
412.3317409206081
 20
-318.6080252157675
 30
0.0
 11
421.3316221494932
 21
-318.6080252157675
 31
0.0
  0
LINE
  5
5F
330
1F
100
AcDbEntity
  8
躯体
  6
JWW_CENTER1
 62
     2
370
     9
100
AcDbLine
 10
378.331282332137
 20
-218.765592832823
 30
0.0
 11
378.331282332137
 21
-251.0231781005859
 31
0.0
  0
LINE
  5
60
330
1F
100
AcDbEntity
  8
躯体
  6
Continuous
 62
     2
370
     9
100
AcDbLine
 10
365.3315363703547
 20
352.3918935414907
 30
0.0
 11
365.3315363703547
 21
361.3917747703759
 31
0.0
  0
LINE
  5
61
330
1F
100
AcDbEntity
  8
躯体
  6
Continuous
 62
     2
370
     9
100
AcDbLine
 10
412.3317409206081
 20
417.3918605495145
 30
0.0
 11
421.3316221494932
 21
417.3918605495145
 31
0.0
  0
LINE
  5
62
330
1F
100
AcDbEntity
  8
躯体
  6
JWW_CENTER1
 62
     2
370
     9
100
AcDbLine
 10
416.8316815350508
 20
142.4247906659102
 30
0.0
 11
416.8316815350508
 21
-46.96515469937708
 31
0.0
  0
LINE
  5
63
330
1F
100
AcDbEntity
  8
躯体
  6
Continuous
 62
     2
370
     9
100
AcDbLine
 10
416.8316815350508
 20
139.3919207598712
 30
0.0
 11
358.3052351668076
 21
139.3919207598712
 31
0.0
  0
LINE
  5
64
330
1F
100
AcDbEntity
  8
躯体
  6
Continuous
 62
     2
370
     9
100
AcDbLine
 10
358.3052351668076
 20
126.3916799184439
 30
0.0
 11
410.3314373944258
 21
126.3916799184439
 31
0.0
  0
LINE
  5
65
330
1F
100
AcDbEntity
  8
躯体
  6
JWW_CENTER1
 62
     2
370
     9
100
AcDbLine
 10
356.1228159311656
 20
132.8919240590689
 30
0.0
 11
430.2857270111909
 21
132.8919240590689
 31
0.0
  0
LINE
  5
66
330
1F
100
AcDbEntity
  8
躯体
  6
Continuous
 62
     2
370
     9
100
AcDbLine
 10
358.3317112278294
 20
-40.60817821605781
 30
0.0
 11
416.8316815350508
 21
-40.60817821605781
 31
0.0
  0
LINE
  5
67
330
1F
100
AcDbEntity
  8
躯体
  6
Continuous
 62
     2
370
     9
100
AcDbLine
 10
358.3317112278294
 20
-27.60818481445312
 30
0.0
 11
410.3314373944258
 21
-27.60818481445312
 31
0.0
  0
LINE
  5
68
330
1F
100
AcDbEntity
  8
躯体
  6
JWW_CENTER1
 62
     2
370
     9
100
AcDbLine
 10
356.2997354043497
 20
-34.10818151525547
 30
0.0
 11
432.0076607369089
 21
-34.10818151525547
 31
0.0
  0
LINE
  5
69
330
1F
100
AcDbEntity
  8
躯体
  6
Continuous
 62
     2
370
     9
100
AcDbLine
 10
410.3314373944258
 20
132.8919240590689
 30
0.0
 11
410.3314373944258
 21
-34.10818151525547
 31
0.0
  0
LINE
  5
6A
330
1F
100
AcDbEntity
  8
躯体
  6
Continuous
 62
     2
370
     9
100
AcDbLine
 10
423.3316782358531
 20
132.8919240590689
 30
0.0
 11
423.3316782358531
 21
-34.10818151525547
 31
0.0
  0
LINE
  5
6B
330
1F
100
AcDbEntity
  8
躯体
  6
Continuous
 62
     2
370
     9
100
AcDbLine
 10
398.3313483160896
 20
-40.60817821605781
 30
0.0
 11
398.3313483160896
 21
-226.1080911997202
 31
0.0
  0
LINE
  5
6C
330
1F
100
AcDbEntity
  8
躯体
  6
Continuous
 62
     2
370
     9
100
AcDbLine
 10
398.3313483160896
 20
126.3916799184439
 30
0.0
 11
398.3313483160896
 21
-27.60818481445312
 31
0.0
  0
LINE
  5
6D
330
1F
100
AcDbEntity
  8
躯体
  6
Continuous
 62
     2
370
     9
100
AcDbLine
 10
359.3316155510979
 20
389.3920650997678
 30
0.0
 11
358.3317112278294
 21
389.3920650997678
 31
0.0
  0
LINE
  5
6E
330
1F
100
AcDbEntity
  8
躯体
  6
JWW_CENTER1
 62
     2
370
     9
100
AcDbLine
 10
345.6140466638513
 20
370.8917318808067
 30
0.0
 11
365.1058712521115
 21
370.8917318808067
 31
0.0
  0
LINE
  5
6F
330
1F
100
AcDbEntity
  8
躯体
  6
Continuous
 62
     2
370
     9
100
AcDbLine
 10
357.3318069045609
 20
388.3919133366766
 30
0.0
 11
358.3317112278294
 21
388.3919133366766
 31
0.0
  0
LINE
  5
70
330
1F
100
AcDbEntity
  8
躯体
  6
Continuous
 62
     2
370
     9
100
AcDbLine
 10
357.3318069045609
 20
353.392045304582
 30
0.0
 11
358.3317112278294
 21
353.392045304582
 31
0.0
  0
LINE
  5
71
330
1F
100
AcDbEntity
  8
躯体
  6
Continuous
 62
     2
370
     9
100
AcDbLine
 10
364.5315634237755
 20
358.3918143607475
 30
0.0
 11
364.5315634237755
 21
383.3916494008657
 31
0.0
  0
LINE
  5
72
330
1F
100
AcDbEntity
  8
躯体
  6
Continuous
 62
     2
370
     9
100
AcDbLine
 10
358.3317112278294
 20
347.7919872387037
 30
0.0
 11
358.3317112278294
 21
389.3920650997678
 31
0.0
  0
LINE
  5
73
330
1F
100
AcDbEntity
  8
躯体
  6
JWW_CENTER1
 62
     2
370
     9
100
AcDbLine
 10
370.331552866343
 20
335.2920697186445
 30
0.0
 11
398.3313483160896
 21
335.2920697186445
 31
0.0
  0
LINE
  5
74
330
1F
100
AcDbEntity
  8
躯体
  6
JWW_CENTER1
 62
     2
370
     9
100
AcDbLine
 10
384.3316980310388
 20
349.0452699403505
 30
0.0
 11
384.3316980310388
 21
321.0353294578759
 31
0.0
  0
LINE
  5
75
330
1F
100
AcDbEntity
  8
躯体
  6
Continuous
 62
     2
370
     9
100
AcDbLine
 10
361.3316716374578
 20
-280.6081967740445
 30
0.0
 11
375.3315693623313
 21
-280.6081967740445
 31
0.0
  0
LINE
  5
76
330
1F
100
AcDbEntity
  8
躯体
  6
Continuous
 62
     2
370
     9
100
AcDbLine
 10
398.3313483160896
 20
350.391837455131
 30
0.0
 11
398.3313483160896
 21
347.7919872387037
 31
0.0
  0
LINE
  5
77
330
1F
100
AcDbEntity
  8
躯体
  6
JWW_CENTER1
 62
     2
370
     9
100
AcDbLine
 10
346.175240181588
 20
-270.6081637820682
 30
0.0
 11
377.6525548986487
 21
-270.6081637820682
 31
0.0
  0
LINE
  5
78
330
1F
100
AcDbEntity
  8
躯体
  6
Continuous
 62
     2
370
     9
100
AcDbLine
 10
352.3317904085727
 20
-278.1083122459618
 30
0.0
 11
358.3317112278294
 21
-274.6081522348765
 31
0.0
  0
LINE
  5
79
330
1F
100
AcDbEntity
  8
躯体
  6
Continuous
 62
     2
370
     9
100
AcDbLine
 10
375.3315693623313
 20
-274.6081522348765
 30
0.0
 11
358.3317112278294
 21
-274.6081522348765
 31
0.0
  0
LINE
  5
7A
330
1F
100
AcDbEntity
  8
躯体
  6
Continuous
 62
     2
370
     9
100
AcDbLine
 10
358.3317112278294
 20
-266.6081753292599
 30
0.0
 11
375.3315693623313
 21
-266.6081753292599
 31
0.0
  0
LINE
  5
7B
330
1F
100
AcDbEntity
  8
通り芯
  6
Continuous
 62
     3
370
     9
100
AcDbLine
 10
352.3317904085727
 20
-261.6081588332718
 30
0.0
 11
358.3317112278294
 21
-265.1081951244457
 31
0.0
  0
LINE
  5
7C
330
1F
100
AcDbEntity
  8
躯体
  6
Continuous
 62
     2
370
     9
100
AcDbLine
 10
352.3317904085727
 20
-263.1081390380859
 30
0.0
 11
358.3317112278294
 21
-266.6081753292599
 31
0.0
  0
LINE
  5
7D
330
1F
100
AcDbEntity
  8
躯体
  6
Continuous
 62
     2
370
     9
100
AcDbLine
 10
352.3317904085727
 20
-263.0897047712996
 30
0.0
 11
352.3317904085727
 21
-278.1083122459618
 31
0.0
  0
LINE
  5
7E
330
1F
100
AcDbEntity
  8
躯体
  6
Continuous
 62
     2
370
     9
100
AcDbLine
 10
361.3316716374578
 20
-260.6081307900918
 30
0.0
 11
375.3315693623313
 21
-260.6081307900918
 31
0.0
  0
LINE
  5
7F
330
1F
100
AcDbEntity
  8
躯体
  6
Continuous
 62
     2
370
     9
100
AcDbLine
 10
375.3315693623313
 20
-280.6081967740445
 30
0.0
 11
375.3315693623313
 21
-260.6081307900918
 31
0.0
  0
LINE
  5
80
330
1F
100
AcDbEntity
  8
躯体
  6
JWW_DASHED1
 62
     2
370
     9
100
AcDbLine
 10
365.3315363703547
 20
-260.6081307900918
 30
0.0
 11
365.3315363703547
 21
-262.6081868764516
 31
0.0
  0
LINE
  5
81
330
1F
100
AcDbEntity
  8
躯体
  6
JWW_DASHED1
 62
     2
370
     9
100
AcDbLine
 10
375.3315693623313
 20
-262.6081868764516
 30
0.0
 11
365.3315363703547
 21
-262.6081868764516
 31
0.0
  0
LINE
  5
82
330
1F
100
AcDbEntity
  8
通り芯
  6
Continuous
 62
     3
370
     9
100
AcDbLine
 10
352.3317904085727
 20
-279.6081687308646
 30
0.0
 11
358.3317112278294
 21
-276.1081324396906
 31
0.0
  0
LINE
  5
83
330
1F
100
AcDbEntity
  8
躯体
  6
Continuous
 62
     2
370
     9
100
AcDbLine
 10
375.3315693623313
 20
-273.6081241916966
 30
0.0
 11
358.3317112278294
 21
-273.6081241916966
 31
0.0
  0
LINE
  5
84
330
1F
100
AcDbEntity
  8
躯体
  6
Continuous
 62
     2
370
     9
100
AcDbLine
 10
358.3317112278294
 20
-267.6082033724398
 30
0.0
 11
375.3315693623313
 21
-267.6082033724398
 31
0.0
  0
LINE
  5
85
330
1F
100
AcDbEntity
  8
通り芯
  6
Continuous
 62
     3
370
     9
100
AcDbLine
 10
358.3317112278294
 20
-274.533549128352
 30
0.0
 11
358.3317112278294
 21
-250.6080977981155
 31
0.0
  0
LINE
  5
86
330
1F
100
AcDbEntity
  8
躯体
  6
Continuous
 62
     2
370
     9
100
AcDbLine
 10
358.3317112278294
 20
-12.79990118903072
 30
0.0
 11
358.3317112278294
 21
-290.6082297660209
 31
0.0
  0
LINE
  5
87
330
1F
100
AcDbEntity
  8
躯体
  6
Continuous
 62
     2
370
     9
100
AcDbLine
 10
368.3317442198057
 20
-266.6081753292599
 30
0.0
 11
368.3317442198057
 21
-274.6081522348765
 31
0.0
  0
LINE
  5
88
330
1F
100
AcDbEntity
  8
通り芯
  6
Continuous
 62
     3
370
     9
100
AcDbLine
 10
350.7315970755914
 20
468.8920057142104
 30
0.0
 11
350.7315970755914
 21
-370.1081703804635
 31
0.0
  0
LINE
  5
89
330
1F
100
AcDbEntity
  8
通り芯
  6
Continuous
 62
     3
370
     9
100
AcDbLine
 10
352.3317904085727
 20
-250.6080977981155
 30
0.0
 11
352.3317904085727
 21
-352.1081604828706
 31
0.0
  0
LINE
  5
8A
330
1F
100
AcDbEntity
  8
通り芯
  6
Continuous
 62
     3
370
     9
100
AcDbLine
 10
353.7313100453972
 20
470.3919859190246
 30
0.0
 11
425.7315970755914
 21
470.3919859190246
 31
0.0
  0
LINE
  5
8B
330
1F
100
AcDbEntity
  8
通り芯
  6
Continuous
 62
     3
370
     9
100
AcDbLine
 10
352.2315772804055
 20
468.8920057142104
 30
0.0
 11
352.2315772804055
 21
-370.1081703804635
 31
0.0
  0
LINE
  5
8C
330
1F
100
AcDbEntity
  8
通り芯
  6
Continuous
 62
     3
370
     9
100
AcDbLine
 10
353.8315231735643
 20
149.3919537518477
 30
0.0
 11
353.8315231735643
 21
-50.60821120803411
 31
0.0
  0
LINE
  5
8D
330
1F
100
AcDbEntity
  8
通り芯
  6
Continuous
 62
     3
370
     9
100
AcDbLine
 10
352.2315772804055
 20
149.3919537518477
 30
0.0
 11
353.8315231735643
 21
149.3919537518477
 31
0.0
  0
LINE
  5
8E
330
1F
100
AcDbEntity
  8
通り芯
  6
Continuous
 62
     3
370
     9
100
AcDbLine
 10
352.2315772804055
 20
-50.60821120803411
 30
0.0
 11
353.8315231735643
 21
-50.60821120803411
 31
0.0
  0
LINE
  5
8F
330
1F
100
AcDbEntity
  8
通り芯
  6
Continuous
 62
     3
370
     9
100
AcDbLine
 10
353.8315231735643
 20
126.8917557999895
 30
0.0
 11
356.8314835831927
 21
126.8917557999895
 31
0.0
  0
LINE
  5
90
330
1F
100
AcDbEntity
  8
通り芯
  6
Continuous
 62
     3
370
     9
100
AcDbLine
 10
353.8315231735643
 20
-28.10801325617604
 30
0.0
 11
356.8314835831927
 21
-28.10801325617604
 31
0.0
  0
LINE
  5
91
330
1F
100
AcDbEntity
  8
躯体
  6
Continuous
 62
     2
370
     9
100
AcDbLine
 10
352.3317904085727
 20
383.3918968406884
 30
0.0
 11
352.3317904085727
 21
358.3918143607475
 31
0.0
  0
LINE
  5
92
330
1F
100
AcDbEntity
  8
躯体
  6
Continuous
 62
     2
370
     9
100
AcDbLine
 10
358.3317112278294
 20
383.8917252824114
 30
0.0
 11
361.3316716374578
 21
383.8917252824114
 31
0.0
  0
LINE
  5
93
330
1F
100
AcDbEntity
  8
躯体
  6
Continuous
 62
     2
370
     9
100
AcDbLine
 10
358.3317112278294
 20
357.891738479202
 30
0.0
 11
361.3316716374578
 21
357.891738479202
 31
0.0
  0
LINE
  5
94
330
1F
100
AcDbEntity
  8
躯体
  6
Continuous
 62
     2
370
     9
100
AcDbLine
 10
496.3954616237331
 20
31.39186137431381
 30
0.0
 11
491.9957341374578
 21
31.39186137431381
 31
0.0
  0
LINE
  5
95
330
1F
100
AcDbEntity
  8
躯体
  6
Continuous
 62
     2
370
     9
100
AcDbLine
 10
497.1956820101352
 20
32.19183432089324
 30
0.0
 11
491.1955137510557
 21
32.19183432089324
 31
0.0
  0
LINE
  5
96
330
1F
100
AcDbEntity
  8
躯体
  6
Continuous
 62
     2
370
     9
100
AcDbLine
 10
497.1956820101352
 20
32.19183432089324
 30
0.0
 11
496.3954616237331
 21
31.39186137431381
 31
0.0
  0
LINE
  5
97
330
1F
100
AcDbEntity
  8
躯体
  6
Continuous
 62
     2
370
     9
100
AcDbLine
 10
491.9957341374578
 20
31.39186137431381
 30
0.0
 11
491.1955137510557
 21
32.19183432089324
 31
0.0
  0
LINE
  5
98
330
1F
100
AcDbEntity
  8
躯体
  6
Continuous
 62
     2
370
     9
100
AcDbLine
 10
499.9454807590794
 20
54.95901984137461
 30
0.0
 11
499.9454807590794
 21
51.39192735826654
 31
0.0
  0
LINE
  5
99
330
1F
100
AcDbEntity
  8
躯体
  6
Continuous
 62
     2
370
     9
100
AcDbLine
 10
499.1954906566724
 20
55.39203953098607
 30
0.0
 11
499.9454807590794
 21
54.95901984137461
 31
0.0
  0
LINE
  5
9A
330
1F
100
AcDbEntity
  8
躯体
  6
Continuous
 62
     2
370
     9
100
AcDbLine
 10
499.1954906566724
 20
55.39203953098607
 30
0.0
 11
489.1954576646961
 21
55.39203953098607
 31
0.0
  0
LINE
  5
9B
330
1F
100
AcDbEntity
  8
躯体
  6
Continuous
 62
     2
370
     9
100
AcDbLine
 10
489.1954576646961
 20
55.39203953098607
 30
0.0
 11
488.4457150021115
 21
54.95901984137461
 31
0.0
  0
LINE
  5
9C
330
1F
100
AcDbEntity
  8
躯体
  6
Continuous
 62
     2
370
     9
100
AcDbLine
 10
488.4457150021115
 20
43.39170301282735
 30
0.0
 11
499.9454807590794
 21
43.39170301282735
 31
0.0
  0
LINE
  5
9D
330
1F
100
AcDbEntity
  8
躯体
  6
Continuous
 62
     2
370
     9
100
AcDbLine
 10
475.1953125
 20
52.39183168153502
 30
0.0
 11
452.1955335462417
 21
52.39183168153502
 31
0.0
  0
LINE
  5
9E
330
1F
100
AcDbEntity
  8
躯体
  6
Continuous
 62
     2
370
     9
100
AcDbLine
 10
475.1953125
 20
46.39191086227839
 30
0.0
 11
452.1955335462417
 21
46.39191086227839
 31
0.0
  0
LINE
  5
9F
330
1F
100
AcDbEntity
  8
躯体
  6
Continuous
 62
     2
370
     9
100
AcDbLine
 10
451.1956292229732
 20
51.39192735826654
 30
0.0
 11
431.2423293654984
 21
51.39192735826654
 31
0.0
  0
LINE
  5
A0
330
1F
100
AcDbEntity
  8
躯体
  6
Continuous
 62
     2
370
     9
100
AcDbLine
 10
451.1956292229732
 20
47.39181518554688
 30
0.0
 11
429.0104221653294
 21
47.39181518554688
 31
0.0
  0
LINE
  5
A1
330
1F
100
AcDbEntity
  8
躯体
  6
Continuous
 62
     2
370
     9
100
AcDbLine
 10
452.0683494774073
 20
42.39179868955873
 30
0.0
 11
475.1953125
 21
42.39179868955873
 31
0.0
  0
LINE
  5
A2
330
1F
100
AcDbEntity
  8
躯体
  6
Continuous
 62
     2
370
     9
100
AcDbLine
 10
475.1953125
 20
56.39194385425469
 30
0.0
 11
452.1955335462417
 21
56.39194385425469
 31
0.0
  0
LINE
  5
A3
330
1F
100
AcDbEntity
  8
躯体
  6
JWW_CENTER1
 62
     2
370
     9
100
AcDbLine
 10
494.1954741606841
 20
27.15618649044558
 30
0.0
 11
494.1954741606841
 21
60.03326828415339
 31
0.0
  0
LINE
  5
A4
330
1F
100
AcDbEntity
  8
躯体
  6
Continuous
 62
     2
370
     9
100
AcDbLine
 10
488.4457150021115
 20
54.95901984137461
 30
0.0
 11
488.4457150021115
 21
51.39192735826654
 31
0.0
  0
LINE
  5
A5
330
1F
100
AcDbEntity
  8
躯体
  6
JWW_CENTER1
 62
     2
370
     9
100
AcDbLine
 10
592.3861529376057
 20
49.39187127190678
 30
0.0
 11
561.2665124841641
 21
49.39187127190678
 31
0.0
  0
LINE
  5
A6
330
1F
100
AcDbEntity
  8
躯体
  6
Continuous
 62
     2
370
     9
100
AcDbLine
 10
499.9454807590794
 20
39.82461052971928
 30
0.0
 11
499.9454807590794
 21
43.39170301282735
 31
0.0
  0
LINE
  5
A7
330
1F
100
AcDbEntity
  8
躯体
  6
Continuous
 62
     2
370
     9
100
AcDbLine
 10
499.1954906566724
 20
39.39159084010768
 30
0.0
 11
499.9454807590794
 21
39.82461052971928
 31
0.0
  0
LINE
  5
A8
330
1F
100
AcDbEntity
  8
躯体
  6
Continuous
 62
     2
370
     9
100
AcDbLine
 10
499.1954906566724
 20
39.39159084010768
 30
0.0
 11
489.1954576646961
 21
39.39159084010768
 31
0.0
  0
LINE
  5
A9
330
1F
100
AcDbEntity
  8
躯体
  6
Continuous
 62
     2
370
     9
100
AcDbLine
 10
489.1954576646961
 20
39.39159084010768
 30
0.0
 11
488.4457150021115
 21
39.82461052971928
 31
0.0
  0
LINE
  5
AA
330
1F
100
AcDbEntity
  8
躯体
  6
Continuous
 62
     2
370
     9
100
AcDbLine
 10
488.4457150021115
 20
39.82461052971928
 30
0.0
 11
488.4457150021115
 21
43.39170301282735
 31
0.0
  0
LINE
  5
AB
330
1F
100
AcDbEntity
  8
躯体
  6
Continuous
 62
     2
370
     9
100
AcDbLine
 10
491.9957341374578
 20
39.39159084010768
 30
0.0
 11
491.9957341374578
 21
31.39186137431381
 31
0.0
  0
LINE
  5
AC
330
1F
100
AcDbEntity
  8
躯体
  6
Continuous
 62
     2
370
     9
100
AcDbLine
 10
497.1956820101352
 20
39.39159084010768
 30
0.0
 11
497.1956820101352
 21
32.19183432089324
 31
0.0
  0
LINE
  5
AD
330
1F
100
AcDbEntity
  8
躯体
  6
Continuous
 62
     2
370
     9
100
AcDbLine
 10
496.3954616237331
 20
39.39159084010768
 30
0.0
 11
496.3954616237331
 21
31.39186137431381
 31
0.0
  0
LINE
  5
AE
330
1F
100
AcDbEntity
  8
躯体
  6
Continuous
 62
     2
370
     9
100
AcDbLine
 10
491.1955137510557
 20
43.39170301282735
 30
0.0
 11
491.1955137510557
 21
39.82461052971928
 31
0.0
  0
LINE
  5
AF
330
1F
100
AcDbEntity
  8
躯体
  6
Continuous
 62
     2
370
     9
100
AcDbLine
 10
491.1955137510557
 20
39.39159084010768
 30
0.0
 11
491.1955137510557
 21
32.19183432089324
 31
0.0
  0
LINE
  5
B0
330
1F
100
AcDbEntity
  8
躯体
  6
Continuous
 62
     2
370
     9
100
AcDbLine
 10
497.1956820101352
 20
43.39170301282735
 30
0.0
 11
497.1956820101352
 21
39.8248579695418
 31
0.0
  0
LINE
  5
B1
330
1F
100
AcDbEntity
  8
躯体
  6
Continuous
 62
     2
370
     9
100
AcDbLine
 10
491.1955137510557
 20
54.95901984137461
 30
0.0
 11
491.1955137510557
 21
51.39192735826654
 31
0.0
  0
LINE
  5
B2
330
1F
100
AcDbEntity
  8
躯体
  6
Continuous
 62
     2
370
     9
100
AcDbLine
 10
497.1956820101352
 20
54.95877240155195
 30
0.0
 11
497.1956820101352
 21
51.39192735826654
 31
0.0
  0
LINE
  5
B3
330
1F
100
AcDbEntity
  8
通り芯
  6
Continuous
 62
     3
370
     9
100
AcDbLine
 10
383.8313747096706
 20
78.8629439070418
 30
0.0
 11
383.8313747096706
 21
19.89184817752331
 31
0.0
  0
LINE
  5
B4
330
1F
100
AcDbEntity
  8
通り芯
  6
Continuous
 62
     3
370
     9
100
AcDbLine
 10
386.8315825591216
 20
19.89184817752331
 30
0.0
 11
386.8315825591216
 21
78.87061454154349
 31
0.0
  0
LINE
  5
B5
330
1F
100
AcDbEntity
  8
通り芯
  6
Continuous
 62
     3
370
     9
100
AcDbLine
 10
356.8314835831927
 20
-12.97261418523007
 30
0.0
 11
356.8314835831927
 21
-28.10801325617604
 31
0.0
  0
LINE
  5
B6
330
1F
100
AcDbEntity
  8
通り芯
  6
Continuous
 62
     3
370
     9
100
AcDbLine
 10
356.8314835831927
 20
126.8917557999895
 30
0.0
 11
356.8314835831927
 21
111.7350769042969
 31
0.0
  0
LINE
  5
B7
330
1F
100
AcDbEntity
  8
躯体
  6
Continuous
 62
     2
370
     9
100
AcDbLine
 10
358.3317112278294
 20
-9.768763361750388
 30
0.0
 11
358.3317112278294
 21
108.5235554463155
 31
0.0
  0
LINE
  5
B8
330
1F
100
AcDbEntity
  8
通り芯
  6
Continuous
 62
     3
370
     9
100
AcDbLine
 10
410.7315475876268
 20
347.7919872387037
 30
0.0
 11
410.7315475876268
 21
345.7919311523438
 31
0.0
  0
LINE
  5
B9
330
1F
100
AcDbEntity
  8
通り芯
  6
Continuous
 62
     3
370
     9
100
AcDbLine
 10
352.2315772804055
 20
279.8917162096178
 30
0.0
 11
353.7310626055745
 21
279.8917162096178
 31
0.0
  0
LINE
  5
BA
330
1F
100
AcDbEntity
  8
通り芯
  6
Continuous
 62
     3
370
     9
100
AcDbLine
 10
353.7313100453972
 20
343.791875065984
 30
0.0
 11
353.7313100453972
 21
279.8917162096178
 31
0.0
  0
LINE
  5
BB
330
1F
100
AcDbEntity
  8
通り芯
  6
Continuous
 62
     3
370
     9
100
AcDbLine
 10
352.2315772804055
 20
339.891728581609
 30
0.0
 11
353.7313100453972
 21
339.891728581609
 31
0.0
  0
LINE
  5
BC
330
1F
100
AcDbEntity
  8
通り芯
  6
Continuous
 62
     3
370
     9
100
AcDbLine
 10
353.7313100453972
 20
299.8918440535261
 30
0.0
 11
355.7313661317568
 21
299.8918440535261
 31
0.0
  0
LINE
  5
BD
330
1F
100
AcDbEntity
  8
躯体
  6
Continuous
 62
     2
370
     9
100
AcDbLine
 10
358.3317112278294
 20
111.5623639080977
 30
0.0
 11
358.3317112278294
 21
322.7711198136614
 31
0.0
  0
LINE
  5
BE
330
1F
100
AcDbEntity
  8
通り芯
  6
Continuous
 62
     3
370
     9
100
AcDbLine
 10
355.7313661317568
 20
323.461724358636
 30
0.0
 11
355.7313661317568
 21
299.8918440535261
 31
0.0
  0
LINE
  5
BF
330
1F
100
AcDbEntity
  8
通り芯
  6
Continuous
 62
     3
370
     9
100
AcDbLine
 10
355.7313661317568
 20
343.7921225058067
 30
0.0
 11
355.7313661317568
 21
330.3900393924198
 31
0.0
  0
LINE
  5
C0
330
1F
100
AcDbEntity
  8
通り芯
  6
Continuous
 62
     3
370
     9
100
AcDbLine
 10
357.7314222181167
 20
345.7919311523438
 30
0.0
 11
410.7315475876268
 21
345.7919311523438
 31
0.0
  0
LINE
  5
C1
330
1F
100
AcDbEntity
  8
躯体
  6
Continuous
 62
     2
370
     9
100
AcDbLine
 10
358.3317112278294
 20
330.8807125607053
 30
0.0
 11
358.3317112278294
 21
345.7919311523438
 31
0.0
  0
LINE
  5
C2
330
1F
100
AcDbEntity
  8
躯体
  6
Continuous
 62
     2
370
     9
100
AcDbLine
 10
398.3313483160896
 20
345.7919311523438
 30
0.0
 11
398.3313483160896
 21
139.3919207598712
 31
0.0
  0
LINE
  5
C3
330
1F
100
AcDbEntity
  8
躯体
  6
Continuous
 62
     2
370
     9
100
AcDbLine
 10
370.331552866343
 20
349.3919331318624
 30
0.0
 11
370.331552866343
 21
347.7919872387037
 31
0.0
  0
LINE
  5
C4
330
1F
100
AcDbEntity
  8
通り芯
  6
Continuous
 62
     3
370
     9
100
AcDbLine
 10
357.7316696579393
 20
347.7919872387037
 30
0.0
 11
410.7315475876268
 21
347.7919872387037
 31
0.0
  0
LINE
  5
C5
330
1F
100
AcDbEntity
  8
躯体
  6
Continuous
 62
     2
370
     9
100
AcDbLine
 10
412.3317409206081
 20
400.3920024150128
 30
0.0
 11
412.3317409206081
 21
417.3918605495145
 31
0.0
  0
LINE
  5
C6
330
1F
100
AcDbEntity
  8
躯体
  6
Continuous
 62
     2
370
     9
100
AcDbLine
 10
380.8319091796875
 20
361.3917747703759
 30
0.0
 11
365.3315363703547
 21
361.3917747703759
 31
0.0
  0
LINE
  5
C7
330
1F
100
AcDbEntity
  8
躯体
  6
Continuous
 62
     2
370
     9
100
AcDbLine
 10
388.0316656989021
 20
364.9917767498945
 30
0.0
 11
410.5316162109375
 21
394.9921231656463
 31
0.0
  0
LINE
  5
C8
330
1F
100
AcDbEntity
  8
躯体
  6
Continuous
 62
     2
370
     9
100
AcDbLine
 10
417.5113987278294
 20
388.7784143396327
 30
0.0
 11
389.0595307221284
 21
352.3918935414907
 31
0.0
  0
LINE
  5
C9
330
1F
100
AcDbEntity
  8
躯体
  6
Continuous
 62
     2
370
     9
100
AcDbLine
 10
421.3316221494932
 20
399.8659453520905
 30
0.0
 11
421.3316221494932
 21
417.3918605495145
 31
0.0
  0
LINE
  5
CA
330
1F
100
AcDbEntity
  8
躯体
  6
Continuous
 62
     2
370
     9
100
AcDbLine
 10
417.5113987278294
 20
-289.9947027257971
 30
0.0
 11
389.0595307221284
 21
-253.6080582077439
 31
0.0
  0
LINE
  5
CB
330
1F
100
AcDbEntity
  8
躯体
  6
Continuous
 62
     2
370
     9
100
AcDbLine
 10
421.3316221494932
 20
-301.0822337382548
 30
0.0
 11
421.3316221494932
 21
-318.6080252157675
 31
0.0
  0
LINE
  5
CC
330
1F
100
AcDbEntity
  8
躯体
  6
Continuous
 62
     2
370
     9
100
AcDbLine
 10
380.8319091796875
 20
-262.6081868764516
 30
0.0
 11
375.3315693623313
 21
-262.6081868764516
 31
0.0
  0
LINE
  5
CD
330
1F
100
AcDbEntity
  8
躯体
  6
Continuous
 62
     2
370
     9
100
AcDbLine
 10
410.5316162109375
 20
-296.2080403920766
 30
0.0
 11
388.0316656989021
 21
-266.2080651360588
 31
0.0
  0
LINE
  5
CE
330
1F
100
AcDbEntity
  8
躯体
  6
Continuous
 62
     2
370
     9
100
AcDbLine
 10
412.3317409206081
 20
-301.6081670812658
 30
0.0
 11
412.3317409206081
 21
-318.6080252157675
 31
0.0
  0
LINE
  5
CF
330
1F
100
AcDbEntity
  8
躯体
  6
Continuous
 62
     2
370
     9
100
AcDbLine
 10
398.3313483160896
 20
-236.1081241916966
 30
0.0
 11
398.3313483160896
 21
-230.1080796525284
 31
0.0
  0
LINE
  5
D0
330
1F
100
AcDbEntity
  8
躯体
  6
Continuous
 62
     2
370
     9
100
AcDbLine
 10
375.4448968010979
 20
-238.1080565581451
 30
0.0
 11
381.2184101826438
 21
-238.1080565581451
 31
0.0
  0
LINE
  5
D1
330
1F
100
AcDbEntity
  8
躯体
  6
Continuous
 62
     2
370
     9
100
AcDbLine
 10
381.2184101826438
 20
-238.1080565581451
 30
0.0
 11
384.1050431535052
 21
-233.1081637820682
 31
0.0
  0
LINE
  5
D2
330
1F
100
AcDbEntity
  8
躯体
  6
Continuous
 62
     2
370
     9
100
AcDbLine
 10
384.1050431535052
 20
-233.1081637820682
 30
0.0
 11
381.2184101826438
 21
-228.10814728608
 31
0.0
  0
LINE
  5
D3
330
1F
100
AcDbEntity
  8
躯体
  6
Continuous
 62
     2
370
     9
100
AcDbLine
 10
381.2184101826438
 20
-228.10814728608
 30
0.0
 11
375.4448968010979
 21
-228.10814728608
 31
0.0
  0
LINE
  5
D4
330
1F
100
AcDbEntity
  8
躯体
  6
Continuous
 62
     2
370
     9
100
AcDbLine
 10
375.4448968010979
 20
-228.10814728608
 30
0.0
 11
372.5580163904138
 21
-233.1081637820682
 31
0.0
  0
LINE
  5
D5
330
1F
100
AcDbEntity
  8
躯体
  6
Continuous
 62
     2
370
     9
100
AcDbLine
 10
372.5580163904138
 20
-233.1081637820682
 30
0.0
 11
375.4448968010979
 21
-238.1080565581451
 31
0.0
  0
LINE
  5
D6
330
1F
100
AcDbEntity
  8
躯体
  6
Continuous
 62
     2
370
     9
100
AcDbLine
 10
403.8314406936234
 20
-230.1080796525284
 30
0.0
 11
382.3727169552365
 21
-230.1080796525284
 31
0.0
  0
LINE
  5
D7
330
1F
100
AcDbEntity
  8
躯体
  6
Continuous
 62
     2
370
     9
100
AcDbLine
 10
403.8314406936234
 20
-240.1081126445048
 30
0.0
 11
380.8319091796875
 21
-240.1081126445048
 31
0.0
  0
LINE
  5
D8
330
1F
100
AcDbEntity
  8
躯体
  6
Continuous
 62
     2
370
     9
100
AcDbLine
 10
390.8314472920188
 20
-233.1091535413587
 30
0.0
 11
390.8314472920188
 21
-236.1081241916966
 31
0.0
  0
LINE
  5
D9
330
1F
100
AcDbEntity
  8
躯体
  6
Continuous
 62
     2
370
     9
100
AcDbLine
 10
403.8314406936234
 20
-236.1081241916966
 30
0.0
 11
382.3727169552365
 21
-236.1081241916966
 31
0.0
  0
LINE
  5
DA
330
1F
100
AcDbEntity
  8
躯体
  6
JWW_CENTER1
 62
     2
370
     9
100
AcDbLine
 10
368.4232969541807
 20
-233.1081637820682
 30
0.0
 11
388.8051625844597
 21
-233.1081637820682
 31
0.0
  0
LINE
  5
DB
330
1F
100
AcDbEntity
  8
躯体
  6
JWW_CENTER1
 62
     2
370
     9
100
AcDbLine
 10
592.3861529376057
 20
-233.1081637820682
 30
0.0
 11
478.6889153557857
 21
-233.1081637820682
 31
0.0
  0
LINE
  5
DC
330
1F
100
AcDbEntity
  8
躯体
  6
JWW_CENTER1
 62
     2
370
     9
100
AcDbLine
 10
622.3862519135346
 20
-203.1082194560283
 30
0.0
 11
622.3862519135346
 21
19.39201973580026
 31
0.0
  0
LINE
  5
DD
330
1F
100
AcDbEntity
  8
通り芯
  6
Continuous
 62
     3
370
     9
100
AcDbLine
 10
424.2316168707771
 20
-373.1081307900919
 30
0.0
 11
353.7315574852198
 21
-373.1081307900919
 31
0.0
  0
LINE
  5
DE
330
1F
100
AcDbEntity
  8
通り芯
  6
Continuous
 62
     3
370
     9
100
AcDbLine
 10
424.2316168707771
 20
-371.6081505852777
 30
0.0
 11
353.7313100453972
 21
-371.6081505852777
 31
0.0
  0
LINE
  5
DF
330
1F
100
AcDbEntity
  8
通り芯
  6
Continuous
 62
     3
370
     9
100
AcDbLine
 10
414.2315838788008
 20
-370.1081703804635
 30
0.0
 11
414.2315838788008
 21
-371.6081505852777
 31
0.0
  0
LINE
  5
E0
330
1F
100
AcDbEntity
  8
通り芯
  6
Continuous
 62
     3
370
     9
100
AcDbLine
 10
425.7313496357688
 20
-370.1081703804635
 30
0.0
 11
369.2319302945523
 21
-370.1081703804635
 31
0.0
  0
LINE
  5
E1
330
1F
100
AcDbEntity
  8
通り芯
  6
Continuous
 62
     3
370
     9
100
AcDbLine
 10
425.7315970755914
 20
-371.6081505852777
 30
0.0
 11
425.7315970755914
 21
-370.1081703804635
 31
0.0
  0
LINE
  5
E2
330
1F
100
AcDbEntity
  8
通り芯
  6
JWW_CENTER1
 62
     3
370
     9
100
AcDbLine
 10
425.7313496357688
 20
-359.6081852268528
 30
0.0
 11
425.7313496357688
 21
-370.1081703804635
 31
0.0
  0
LINE
  5
E3
330
1F
100
AcDbEntity
  8
通り芯
  6
Continuous
 62
     3
370
     9
100
AcDbLine
 10
369.2319302945523
 20
-370.1081703804635
 30
0.0
 11
369.2319302945523
 21
-371.6081505852777
 31
0.0
  0
LINE
  5
E4
330
1F
100
AcDbEntity
  8
通り芯
  6
Continuous
 62
     3
370
     9
100
AcDbLine
 10
358.3317112278294
 20
-358.1080813021273
 30
0.0
 11
426.0958284945102
 21
-358.1080813021273
 31
0.0
  0
LINE
  5
E5
330
1F
100
AcDbEntity
  8
通り芯
  6
JWW_CENTER1
 62
     3
370
     9
100
AcDbLine
 10
417.2016040698904
 20
-364.1082495612067
 30
0.0
 11
434.0401314400339
 21
-364.1082495612067
 31
0.0
  0
LINE
  5
E6
330
1F
100
AcDbEntity
  8
通り芯
  6
Continuous
 62
     3
370
     9
100
AcDbLine
 10
358.3317112278294
 20
-352.1081604828706
 30
0.0
 11
358.3317112278294
 21
-276.0335293331661
 31
0.0
  0
LINE
  5
E7
330
1F
100
AcDbEntity
  8
躯体
  6
Continuous
 62
     2
370
     9
100
AcDbLine
 10
361.3316716374578
 20
-266.6081753292599
 30
0.0
 11
361.3316716374578
 21
-257.6081703804635
 31
0.0
  0
LINE
  5
E8
330
1F
100
AcDbEntity
  8
躯体
  6
Continuous
 62
     2
370
     9
100
AcDbLine
 10
361.3316716374578
 20
-288.608173679661
 30
0.0
 11
361.3316716374578
 21
-274.6081522348765
 31
0.0
  0
LINE
  5
E9
330
1F
100
AcDbEntity
  8
躯体
  6
Continuous
 62
     2
370
     9
100
AcDbLine
 10
365.8316122519005
 20
-233.1081637820682
 30
0.0
 11
365.8316122519005
 21
-250.6080977981155
 31
0.0
  0
LINE
  5
EA
330
1F
100
AcDbEntity
  8
躯体
  6
Continuous
 62
     2
370
     9
100
AcDbLine
 10
390.8314472920188
 20
-240.1081126445048
 30
0.0
 11
390.8314472920188
 21
-250.6080977981155
 31
0.0
  0
LINE
  5
EB
330
1F
100
AcDbEntity
  8
通り芯
  6
Continuous
 62
     3
370
     9
100
AcDbLine
 10
390.731481603674
 20
-361.108165431667
 30
0.0
 11
420.5351133604307
 21
-361.108165431667
 31
0.0
  0
LINE
  5
EC
330
1F
100
AcDbEntity
  8
通り芯
  6
Continuous
 62
     3
370
     9
100
AcDbLine
 10
390.731481603674
 20
-358.1080813021273
 30
0.0
 11
390.731481603674
 21
-361.108165431667
 31
0.0
  0
LINE
  5
ED
330
1F
100
AcDbEntity
  8
通り芯
  6
Continuous
 62
     3
370
     9
100
AcDbLine
 10
390.731481603674
 20
-367.1082099708351
 30
0.0
 11
420.5351133604307
 21
-367.1082099708351
 31
0.0
  0
LINE
  5
EE
330
1F
100
AcDbEntity
  8
通り芯
  6
Continuous
 62
     3
370
     9
100
AcDbLine
 10
390.731481603674
 20
-367.1082099708351
 30
0.0
 11
390.731481603674
 21
-370.1081703804635
 31
0.0
  0
LINE
  5
EF
330
1F
100
AcDbEntity
  8
通り芯
  6
Continuous
 62
     3
370
     9
100
AcDbLine
 10
415.8317772117823
 20
-352.1081604828706
 30
0.0
 11
358.3317112278294
 21
-352.1081604828706
 31
0.0
  0
LINE
  5
F0
330
1F
100
AcDbEntity
  8
通り芯
  6
Continuous
 62
     3
370
     9
100
AcDbLine
 10
415.8317772117823
 20
-352.1081604828706
 30
0.0
 11
415.8317772117823
 21
-358.1080813021273
 31
0.0
  0
LINE
  5
F1
330
1F
100
AcDbEntity
  8
躯体
  6
Continuous
 62
     2
370
     9
100
AcDbLine
 10
365.3315363703547
 20
-253.6080582077439
 30
0.0
 11
365.3315363703547
 21
-260.6081307900918
 31
0.0
  0
LINE
  5
F2
330
1F
100
AcDbEntity
  8
通り芯
  6
JWW_CENTER1
 62
     3
370
     9
100
AcDbLine
 10
357.7316696579393
 20
321.9132459485854
 30
0.0
 11
357.7316696579393
 21
332.1292939057221
 31
0.0
  0
LINE
  5
F3
330
1F
100
AcDbEntity
  8
通り芯
  6
JWW_CENTER1
 62
     3
370
     9
100
AcDbLine
 10
352.9197074271539
 20
326.9261293153505
 30
0.0
 11
363.593271616343
 21
326.9261293153505
 31
0.0
  0
LINE
  5
F4
330
1F
100
AcDbEntity
  8
躯体
  6
Continuous
 62
     2
370
     9
100
AcDbLine
 10
359.3316155510979
 20
-290.6082297660209
 30
0.0
 11
358.3317112278294
 21
-290.6082297660209
 31
0.0
  0
LINE
  5
F5
330
1F
100
AcDbEntity
  8
通り芯
  6
Continuous
 62
     3
370
     9
100
AcDbLine
 10
425.7315970755914
 20
-359.6081852268528
 30
0.0
 11
425.7315970755914
 21
-235.108219868428
 31
0.0
  0
LINE
  5
F6
330
1F
100
AcDbEntity
  8
通り芯
  6
Continuous
 62
     3
370
     9
100
AcDbLine
 10
425.7315970755914
 20
471.8919661238388
 30
0.0
 11
425.7315970755914
 21
-231.1081076957084
 31
0.0
  0
LINE
  5
F7
330
1F
100
AcDbEntity
  8
通り芯
  6
JWW_CENTER1
 62
     3
370
     9
100
AcDbLine
 10
325.7317620354729
 20
49.39187127190678
 30
0.0
 11
409.6190581450591
 21
49.39187127190678
 31
0.0
  0
LINE
  5
F8
330
1F
100
AcDbEntity
  8
その他
  6
Continuous
 62
     7
370
     9
100
AcDbLine
 10
275.7315970755914
 20
-373.1081307900919
 30
0.0
 11
275.7315970755914
 21
471.8919661238388
 31
0.0
  0
LINE
  5
F9
330
1F
100
AcDbEntity
  8
その他
  6
Continuous
 62
     7
370
     9
100
AcDbLine
 10
348.7315409892315
 20
-373.1081307900919
 30
0.0
 11
274.2316168707771
 21
-373.1081307900919
 31
0.0
  0
LINE
  5
FA
330
1F
100
AcDbEntity
  8
その他
  6
Continuous
 62
     7
370
     9
100
AcDbLine
 10
348.7315409892315
 20
471.8919661238388
 30
0.0
 11
274.2316168707771
 21
471.8919661238388
 31
0.0
  0
LINE
  5
FB
330
1F
100
AcDbEntity
  8
その他
  6
Continuous
 62
     7
370
     9
100
AcDbLine
 10
275.7315970755914
 20
-373.1081307900919
 30
0.0
 11
273.7736057590794
 21
-358.2365025700749
 31
0.0
  0
LINE
  5
FC
330
1F
100
AcDbEntity
  8
その他
  6
Continuous
 62
     7
370
     9
100
AcDbLine
 10
275.7315970755914
 20
-373.1081307900919
 30
0.0
 11
277.6895883921031
 21
-358.2365025700749
 31
0.0
  0
LINE
  5
FD
330
1F
100
AcDbEntity
  8
その他
  6
Continuous
 62
     7
370
     9
100
AcDbLine
 10
275.7315970755914
 20
471.8919661238388
 30
0.0
 11
273.7736057590794
 21
457.0203379038219
 31
0.0
  0
LINE
  5
FE
330
1F
100
AcDbEntity
  8
その他
  6
Continuous
 62
     7
370
     9
100
AcDbLine
 10
275.7315970755914
 20
471.8919661238388
 30
0.0
 11
277.6895883921031
 21
457.0203379038219
 31
0.0
  0
LINE
  5
FF
330
1F
100
AcDbEntity
  8
その他
  6
Continuous
 62
     7
370
     9
100
AcDbLine
 10
660.2626078837627
 20
-250.6080977981155
 30
0.0
 11
660.2626078837627
 21
349.3919331318624
 31
0.0
  0
LINE
  5
100
330
1F
100
AcDbEntity
  8
その他
  6
Continuous
 62
     7
370
     9
100
AcDbLine
 10
403.3316122519005
 20
-250.6080977981155
 30
0.0
 11
661.7625880885769
 21
-250.6080977981155
 31
0.0
  0
LINE
  5
101
330
1F
100
AcDbEntity
  8
その他
  6
Continuous
 62
     7
370
     9
100
AcDbLine
 10
403.3316122519005
 20
349.3919331318624
 30
0.0
 11
661.7625880885769
 21
349.3919331318624
 31
0.0
  0
LINE
  5
102
330
1F
100
AcDbEntity
  8
その他
  6
Continuous
 62
     7
370
     9
100
AcDbLine
 10
660.2626078837627
 20
-250.6080977981155
 30
0.0
 11
658.3048640070734
 21
-235.7364695780986
 31
0.0
  0
LINE
  5
103
330
1F
100
AcDbEntity
  8
その他
  6
Continuous
 62
     7
370
     9
100
AcDbLine
 10
660.2626078837627
 20
-250.6080977981155
 30
0.0
 11
662.2203517604519
 21
-235.7364695780986
 31
0.0
  0
LINE
  5
104
330
1F
100
AcDbEntity
  8
その他
  6
Continuous
 62
     7
370
     9
100
AcDbLine
 10
660.2626078837627
 20
349.3919331318624
 30
0.0
 11
658.3048640070734
 21
334.5203049118454
 31
0.0
  0
LINE
  5
105
330
1F
100
AcDbEntity
  8
その他
  6
Continuous
 62
     7
370
     9
100
AcDbLine
 10
660.2626078837627
 20
349.3919331318624
 30
0.0
 11
662.2203517604519
 21
334.5203049118454
 31
0.0
  0
LINE
  5
106
330
1F
100
AcDbEntity
  8
その他
  6
Continuous
 62
     7
370
     9
100
AcDbLine
 10
352.2315772804055
 20
189.3918382799303
 30
0.0
 11
367.1034529402451
 21
191.3498295964422
 31
0.0
  0
LINE
  5
107
330
1F
100
AcDbEntity
  8
その他
  6
Continuous
 62
     7
370
     9
100
AcDbLine
 10
352.2315772804055
 20
189.3918382799303
 30
0.0
 11
367.1034529402451
 21
187.4338469634185
 31
0.0
  0
LINE
  5
108
330
1F
100
AcDbEntity
  8
その他
  6
Continuous
 62
     7
370
     9
100
AcDbLine
 10
350.7315970755914
 20
189.3918382799303
 30
0.0
 11
335.8599688555745
 21
191.3498295964422
 31
0.0
  0
LINE
  5
109
330
1F
100
AcDbEntity
  8
その他
  6
Continuous
 62
     7
370
     9
100
AcDbLine
 10
350.7315970755914
 20
189.3918382799303
 30
0.0
 11
335.8599688555745
 21
187.4338469634185
 31
0.0
  0
LINE
  5
10A
330
1F
100
AcDbEntity
  8
その他
  6
Continuous
 62
     7
370
     9
100
AcDbLine
 10
382.3484678526182
 20
189.3918382799303
 30
0.0
 11
304.5979267842063
 21
189.3918382799303
 31
0.0
  0
LINE
  5
10B
330
1F
100
AcDbEntity
  8
その他
  6
Continuous
 62
     7
370
     9
100
AcDbLine
 10
350.7315970755914
 20
-448.1081307900918
 30
0.0
 11
425.7315970755914
 21
-448.1081307900918
 31
0.0
  0
LINE
  5
10C
330
1F
100
AcDbEntity
  8
その他
  6
Continuous
 62
     7
370
     9
100
AcDbLine
 10
350.7315970755914
 20
-375.1080631565403
 30
0.0
 11
350.7315970755914
 21
-449.6082347148173
 31
0.0
  0
LINE
  5
10D
330
1F
100
AcDbEntity
  8
その他
  6
Continuous
 62
     7
370
     9
100
AcDbLine
 10
425.7315970755914
 20
-376.6081670812658
 30
0.0
 11
425.7315970755914
 21
-449.6082347148173
 31
0.0
  0
LINE
  5
10E
330
1F
100
AcDbEntity
  8
その他
  6
Continuous
 62
     7
370
     9
100
AcDbLine
 10
350.7315970755914
 20
-448.1081307900918
 30
0.0
 11
365.6032252956081
 21
-446.15013947358
 31
0.0
  0
LINE
  5
10F
330
1F
100
AcDbEntity
  8
その他
  6
Continuous
 62
     7
370
     9
100
AcDbLine
 10
350.7315970755914
 20
-448.1081307900918
 30
0.0
 11
365.6032252956081
 21
-450.0659983866923
 31
0.0
  0
LINE
  5
110
330
1F
100
AcDbEntity
  8
その他
  6
Continuous
 62
     7
370
     9
100
AcDbLine
 10
425.7315970755914
 20
-448.1081307900918
 30
0.0
 11
410.8602162953972
 21
-446.15013947358
 31
0.0
  0
LINE
  5
111
330
1F
100
AcDbEntity
  8
その他
  6
Continuous
 62
     7
370
     9
100
AcDbLine
 10
425.7315970755914
 20
-448.1081307900918
 30
0.0
 11
410.8602162953972
 21
-450.0659983866923
 31
0.0
  0
LINE
  5
112
330
1F
100
AcDbEntity
  8
その他
  6
Continuous
 62
     7
370
     9
100
AcDbLine
 10
591.3602674329604
 20
-416.8624197470175
 30
0.0
 11
862.3630420581717
 21
-416.8624197470175
 31
0.0
  0
LINE
  5
113
330
1F
100
AcDbEntity
  8
その他
  6
Continuous
 62
     7
370
     9
100
AcDbLine
 10
622.0447849582981
 20
-320.6246597702439
 30
0.0
 11
393.5406659100508
 21
-142.5040208971178
 31
0.0
  0
LINE
  5
114
330
1F
100
AcDbEntity
  8
その他
  6
Continuous
 62
     7
370
     9
100
AcDbLine
 10
393.5406659100508
 20
-142.5040208971178
 30
0.0
 11
404.3181548247466
 21
-148.8363771180848
 31
0.0
  0
LINE
  5
115
330
1F
100
AcDbEntity
  8
その他
  6
Continuous
 62
     7
370
     9
100
AcDbLine
 10
393.5406659100508
 20
-142.5040208971178
 30
0.0
 11
402.3119127428211
 21
-151.4099987133129
 31
0.0
  0
LINE
  5
116
330
1F
100
AcDbEntity
  8
その他
  6
Continuous
 62
     7
370
     9
100
AcDbLine
 10
591.3602674329604
 20
-416.8624197470175
 30
0.0
 11
438.204048775338
 21
-237.7858899090741
 31
0.0
  0
LINE
  5
117
330
1F
100
AcDbEntity
  8
その他
  6
Continuous
 62
     7
370
     9
100
AcDbLine
 10
438.204048775338
 20
-237.7858899090741
 30
0.0
 11
447.4991257126268
 21
-246.143664798221
 31
0.0
  0
LINE
  5
118
330
1F
100
AcDbEntity
  8
その他
  6
Continuous
 62
     7
370
     9
100
AcDbLine
 10
438.204048775338
 20
-237.7858899090741
 30
0.0
 11
445.0192838101773
 21
-248.2645952379381
 31
0.0
  0
LINE
  5
119
330
1F
100
AcDbEntity
  8
その他
  6
Continuous
 62
     7
370
     9
100
AcDbLine
 10
490.4932795344172
 20
608.145199337521
 30
0.0
 11
823.399188067462
 21
608.145199337521
 31
0.0
  0
LINE
  5
11A
330
1F
100
AcDbEntity
  8
その他
  6
Continuous
 62
     7
370
     9
100
AcDbLine
 10
839.7787145666175
 20
399.3559718776395
 30
0.0
 11
648.0846095729519
 21
399.3559718776395
 31
0.0
  0
LINE
  5
11B
330
1F
100
AcDbEntity
  8
その他
  6
Continuous
 62
     7
370
     9
100
AcDbLine
 10
520.0658024968328
 20
477.0149602116766
 30
0.0
 11
741.2682198189401
 21
477.0149602116766
 31
0.0
  0
LINE
  5
11C
330
1F
100
AcDbEntity
  8
その他
  6
Continuous
 62
     7
370
     9
100
AcDbLine
 10
520.0658024968328
 20
477.0149602116766
 30
0.0
 11
456.0333251953125
 21
367.5777703362543
 31
0.0
  0
LINE
  5
11D
330
1F
100
AcDbEntity
  8
その他
  6
Continuous
 62
     7
370
     9
100
AcDbLine
 10
456.0333251953125
 20
367.5777703362543
 30
0.0
 11
412.2713656038852
 21
393.1830906223607
 31
0.0
  0
LINE
  5
11E
330
1F
100
AcDbEntity
  8
その他
  6
Continuous
 62
     7
370
     9
100
AcDbLine
 10
412.2713656038852
 20
393.1830906223607
 30
0.0
 11
423.7916688661318
 21
388.3327752190668
 31
0.0
  0
LINE
  5
11F
330
1F
100
AcDbEntity
  8
その他
  6
Continuous
 62
     7
370
     9
100
AcDbLine
 10
412.2713656038852
 20
393.1830906223607
 30
0.0
 11
422.1437196473818
 21
385.516167718011
 31
0.0
  0
LINE
  5
120
330
1F
100
AcDbEntity
  8
その他
  6
Continuous
 62
     7
370
     9
100
AcDbLine
 10
490.4932795344172
 20
608.145199337521
 30
0.0
 11
425.7315970755914
 21
471.8919661238388
 31
0.0
  0
LINE
  5
121
330
1F
100
AcDbEntity
  8
その他
  6
Continuous
 62
     7
370
     9
100
AcDbLine
 10
425.7315970755914
 20
471.8919661238388
 30
0.0
 11
429.5782965582771
 21
483.7854086386192
 31
0.0
  0
LINE
  5
122
330
1F
100
AcDbEntity
  8
その他
  6
Continuous
 62
     7
370
     9
100
AcDbLine
 10
425.7315970755914
 20
471.8919661238388
 30
0.0
 11
432.5253048458615
 21
482.3846518026817
 31
0.0
  0
LINE
  5
123
330
1F
100
AcDbEntity
  8
その他
  6
Continuous
 62
     7
370
     9
100
AcDbLine
 10
648.0846095729519
 20
399.3559718776395
 30
0.0
 11
375.7002546980576
 21
101.4737474596178
 31
0.0
  0
LINE
  5
124
330
1F
100
AcDbEntity
  8
その他
  6
Continuous
 62
     7
370
     9
100
AcDbLine
 10
375.7002546980576
 20
101.4737474596178
 30
0.0
 11
382.8591836465372
 21
111.7207253945841
 31
0.0
  0
LINE
  5
125
330
1F
100
AcDbEntity
  8
その他
  6
Continuous
 62
     7
370
     9
100
AcDbLine
 10
375.7002546980576
 20
101.4737474596178
 30
0.0
 11
385.2672680004224
 21
109.518758412954
 31
0.0
  0
LINE
  5
126
330
1F
100
AcDbEntity
  8
躯体
  6
JWW_DASHED1
 62
     2
370
     9
100
AcDbLine
 10
-655.0000577359585
 20
417.3918605495145
 30
0.0
 11
-646.0001146471177
 21
417.3918605495145
 31
0.0
  0
LINE
  5
127
330
1F
100
AcDbEntity
  8
躯体
  6
JWW_DASHED1
 62
     2
370
     9
100
AcDbLine
 10
-198.9998894768792
 20
417.3918605495145
 30
0.0
 11
-189.9998845280827
 21
417.3918605495145
 31
0.0
  0
LINE
  5
128
330
1F
100
AcDbEntity
  8
躯体
  6
JWW_DASHED1
 62
     2
370
     9
100
AcDbLine
 10
-790.4998676196949
 20
-183.1081534720756
 30
0.0
 11
-790.4998676196949
 21
-174.1081485232791
 31
0.0
  0
LINE
  5
129
330
1F
100
AcDbEntity
  8
躯体
  6
JWW_DASHED1
 62
     2
370
     9
100
AcDbLine
 10
-790.4998676196949
 20
272.8916436272699
 30
0.0
 11
-790.4998676196949
 21
281.8917722959777
 31
0.0
  0
LINE
  5
12A
330
1F
100
AcDbEntity
  8
躯体
  6
JWW_DASHED1
 62
     2
370
     9
100
AcDbLine
 10
-54.50010557432421
 20
281.8917722959777
 30
0.0
 11
-54.50010557432421
 21
272.8918910670926
 31
0.0
  0
LINE
  5
12B
330
1F
100
AcDbEntity
  8
躯体
  6
JWW_DASHED1
 62
     2
370
     9
100
AcDbLine
 10
-54.50010557432421
 20
-174.1081485232791
 30
0.0
 11
-54.50010557432421
 21
-183.1081534720756
 31
0.0
  0
LINE
  5
12C
330
1F
100
AcDbEntity
  8
躯体
  6
JWW_DASHED1
 62
     2
370
     9
100
AcDbLine
 10
-82.50002474398215
 20
389.3920650997678
 30
0.0
 11
-82.50002474398215
 21
-253.6080582077439
 31
0.0
  0
LINE
  5
12D
330
1F
100
AcDbEntity
  8
躯体
  6
JWW_DASHED1
 62
     2
370
     9
100
AcDbLine
 10
-665.5000428895693
 20
139.3919207598712
 30
0.0
 11
-715.9999744312182
 21
139.3919207598712
 31
0.0
  0
LINE
  5
12E
330
1F
100
AcDbEntity
  8
躯体
  6
JWW_DASHED1
 62
     2
370
     9
100
AcDbLine
 10
-665.5000428895693
 20
-40.60817821605781
 30
0.0
 11
-715.9999744312182
 21
-40.60817821605781
 31
0.0
  0
LINE
  5
12F
330
1F
100
AcDbEntity
  8
躯体
  6
JWW_DASHED1
 62
     2
370
     9
100
AcDbLine
 10
-652.4999566980309
 20
-27.60818481445312
 30
0.0
 11
-652.4999566980309
 21
126.3916799184439
 31
0.0
  0
LINE
  5
130
330
1F
100
AcDbEntity
  8
躯体
  6
JWW_DASHED1
 62
     2
370
     9
100
AcDbLine
 10
-715.9999744312182
 20
126.3916799184439
 30
0.0
 11
-665.5000428895693
 21
126.3916799184439
 31
0.0
  0
LINE
  5
131
330
1F
100
AcDbEntity
  8
躯体
  6
JWW_DASHED1
 62
     2
370
     9
100
AcDbLine
 10
-665.5000428895693
 20
126.3916799184439
 30
0.0
 11
-665.5000428895693
 21
-27.60818481445312
 31
0.0
  0
LINE
  5
132
330
1F
100
AcDbEntity
  8
躯体
  6
JWW_DASHED1
 62
     2
370
     9
100
AcDbLine
 10
-715.9999744312182
 20
-27.60818481445312
 30
0.0
 11
-665.5000428895693
 21
-27.60818481445312
 31
0.0
  0
LINE
  5
133
330
1F
100
AcDbEntity
  8
通り芯
  6
JWW_DASHED1
 62
     3
370
     9
100
AcDbLine
 10
-452.5000082479941
 20
149.3919537518477
 30
0.0
 11
-392.4999958760029
 21
149.3919537518477
 31
0.0
  0
LINE
  5
134
330
1F
100
AcDbEntity
  8
通り芯
  6
JWW_DASHED1
 62
     3
370
     9
100
AcDbLine
 10
-392.4999958760029
 20
149.3919537518477
 30
0.0
 11
-392.4999958760029
 21
-50.60821120803411
 31
0.0
  0
LINE
  5
135
330
1F
100
AcDbEntity
  8
通り芯
  6
JWW_DASHED1
 62
     3
370
     9
100
AcDbLine
 10
-452.5000082479941
 20
149.3919537518477
 30
0.0
 11
-452.5000082479941
 21
-50.60821120803411
 31
0.0
  0
LINE
  5
136
330
1F
100
AcDbEntity
  8
通り芯
  6
JWW_DASHED1
 62
     3
370
     9
100
AcDbLine
 10
-452.5000082479941
 20
-50.60821120803411
 30
0.0
 11
-392.4999958760029
 21
-50.60821120803411
 31
0.0
  0
LINE
  5
137
330
1F
100
AcDbEntity
  8
通り芯
  6
JWW_DASHED1
 62
     3
370
     9
100
AcDbLine
 10
-430.0000577359586
 20
126.8917557999895
 30
0.0
 11
-414.9999463880384
 21
126.8917557999895
 31
0.0
  0
LINE
  5
138
330
1F
100
AcDbEntity
  8
通り芯
  6
JWW_DASHED1
 62
     3
370
     9
100
AcDbLine
 10
-430.0000577359586
 20
126.8917557999895
 30
0.0
 11
-430.0000577359586
 21
-28.10801325617604
 31
0.0
  0
LINE
  5
139
330
1F
100
AcDbEntity
  8
通り芯
  6
JWW_DASHED1
 62
     3
370
     9
100
AcDbLine
 10
-414.9999463880384
 20
126.8917557999895
 30
0.0
 11
-414.9999463880384
 21
-28.10801325617604
 31
0.0
  0
LINE
  5
13A
330
1F
100
AcDbEntity
  8
通り芯
  6
JWW_DASHED1
 62
     3
370
     9
100
AcDbLine
 10
-430.0000577359586
 20
-28.10801325617604
 30
0.0
 11
-414.9999463880384
 21
-28.10801325617604
 31
0.0
  0
LINE
  5
13B
330
1F
100
AcDbEntity
  8
通り芯
  6
JWW_DASHED1
 62
     3
370
     9
100
AcDbLine
 10
-430.0000577359586
 20
-13.10821120803411
 30
0.0
 11
-414.9999463880384
 21
-13.10821120803411
 31
0.0
  0
LINE
  5
13C
330
1F
100
AcDbEntity
  8
通り芯
  6
JWW_DASHED1
 62
     3
370
     9
100
AcDbLine
 10
-430.0000577359586
 20
111.8919537518477
 30
0.0
 11
-414.9999463880384
 21
111.8919537518477
 31
0.0
  0
LINE
  5
13D
330
1F
100
AcDbEntity
  8
躯体
  6
JWW_DASHED1
 62
     2
370
     9
100
AcDbLine
 10
-762.499948450037
 20
-290.6082297660209
 30
0.0
 11
-82.50002474398215
 21
-290.6082297660209
 31
0.0
  0
LINE
  5
13E
330
1F
100
AcDbEntity
  8
躯体
  6
JWW_CENTER1
 62
     2
370
     9
100
AcDbLine
 10
-155.6530101879223
 20
-270.6081637820682
 30
0.0
 11
-123.38586755701
 21
-270.6081637820682
 31
0.0
  0
LINE
  5
13F
330
1F
100
AcDbEntity
  8
躯体
  6
JWW_CENTER1
 62
     2
370
     9
100
AcDbLine
 10
-139.9999670080236
 20
-255.897742606498
 30
0.0
 11
-139.9999670080236
 21
-285.7409647348765
 31
0.0
  0
LINE
  5
140
330
1F
100
AcDbEntity
  8
躯体
  6
JWW_CENTER1
 62
     2
370
     9
100
AcDbLine
 10
-114.5997743348818
 20
-270.6081637820682
 30
0.0
 11
-85.36240861222552
 21
-270.6081637820682
 31
0.0
  0
LINE
  5
141
330
1F
100
AcDbEntity
  8
躯体
  6
JWW_CENTER1
 62
     2
370
     9
100
AcDbLine
 10
-100.0000206199852
 20
-257.4125692006704
 30
0.0
 11
-100.0000206199852
 21
-285.5894078435124
 31
0.0
  0
LINE
  5
142
330
1F
100
AcDbEntity
  8
躯体
  6
JWW_DASHED1
 62
     2
370
     9
100
AcDbLine
 10
-119.4999488624366
 20
-253.6080582077439
 30
0.0
 11
-725.5000552615604
 21
-253.6080582077439
 31
0.0
  0
LINE
  5
143
330
1F
100
AcDbEntity
  8
通り芯
  6
JWW_DASHED1
 62
     3
370
     9
100
AcDbLine
 10
-452.5000082479941
 20
279.8917162096178
 30
0.0
 11
-392.4999958760029
 21
279.8917162096178
 31
0.0
  0
LINE
  5
144
330
1F
100
AcDbEntity
  8
通り芯
  6
JWW_DASHED1
 62
     3
370
     9
100
AcDbLine
 10
-452.5000082479941
 20
339.891728581609
 30
0.0
 11
-452.5000082479941
 21
279.8917162096178
 31
0.0
  0
LINE
  5
145
330
1F
100
AcDbEntity
  8
通り芯
  6
JWW_DASHED1
 62
     3
370
     9
100
AcDbLine
 10
-452.5000082479941
 20
339.891728581609
 30
0.0
 11
-392.4999958760029
 21
339.891728581609
 31
0.0
  0
LINE
  5
146
330
1F
100
AcDbEntity
  8
通り芯
  6
JWW_DASHED1
 62
     3
370
     9
100
AcDbLine
 10
-436.5001162967166
 20
299.8918440535261
 30
0.0
 11
-408.4998878272803
 21
299.8918440535261
 31
0.0
  0
LINE
  5
147
330
1F
100
AcDbEntity
  8
通り芯
  6
JWW_DASHED1
 62
     3
370
     9
100
AcDbLine
 10
-408.4998878272803
 20
349.3919331318624
 30
0.0
 11
-408.4998878272803
 21
299.8918440535261
 31
0.0
  0
LINE
  5
148
330
1F
100
AcDbEntity
  8
通り芯
  6
JWW_DASHED1
 62
     3
370
     9
100
AcDbLine
 10
-436.5001162967166
 20
322.8918704471073
 30
0.0
 11
-408.4998878272803
 21
322.8918704471073
 31
0.0
  0
LINE
  5
149
330
1F
100
AcDbEntity
  8
通り芯
  6
JWW_DASHED1
 62
     3
370
     9
100
AcDbLine
 10
-436.5001162967166
 20
349.3919331318624
 30
0.0
 11
-436.5001162967166
 21
299.8918440535261
 31
0.0
  0
LINE
  5
14A
330
1F
100
AcDbEntity
  8
通り芯
  6
JWW_DASHED1
 62
     3
370
     9
100
AcDbLine
 10
-417.4998309161211
 20
330.8594327359588
 30
0.0
 11
-417.4998309161211
 21
322.8918704471073
 31
0.0
  0
LINE
  5
14B
330
1F
100
AcDbEntity
  8
通り芯
  6
JWW_DASHED1
 62
     3
370
     9
100
AcDbLine
 10
-427.4999257680532
 20
330.8594327359588
 30
0.0
 11
-427.4999257680532
 21
322.8918704471073
 31
0.0
  0
LINE
  5
14C
330
1F
100
AcDbEntity
  8
躯体
  6
JWW_DASHED1
 62
     2
370
     9
100
AcDbLine
 10
-426.5000214447846
 20
349.3919331318624
 30
0.0
 11
-426.5000214447846
 21
328.3919628246412
 31
0.0
  0
LINE
  5
14D
330
1F
100
AcDbEntity
  8
躯体
  6
JWW_DASHED1
 62
     2
370
     9
100
AcDbLine
 10
-418.4999826792124
 20
349.3919331318624
 30
0.0
 11
-418.4999826792124
 21
328.3919628246412
 31
0.0
  0
LINE
  5
14E
330
1F
100
AcDbEntity
  8
躯体
  6
JWW_CENTER1
 62
     2
370
     9
100
AcDbLine
 10
-692.4998721560917
 20
351.4325693491344
 30
0.0
 11
-692.4998721560917
 21
391.5561737885346
 31
0.0
  0
LINE
  5
14F
330
1F
100
AcDbEntity
  8
躯体
  6
JWW_CENTER1
 62
     2
370
     9
100
AcDbLine
 10
-713.7468492662583
 20
370.8919793206293
 30
0.0
 11
-671.5915783031567
 21
370.8919793206293
 31
0.0
  0
LINE
  5
150
330
1F
100
AcDbEntity
  8
躯体
  6
JWW_CENTER1
 62
     2
370
     9
100
AcDbLine
 10
-152.5001319679053
 20
391.9872139595651
 30
0.0
 11
-152.5001319679053
 21
351.2801464183912
 31
0.0
  0
LINE
  5
151
330
1F
100
AcDbEntity
  8
躯体
  6
JWW_CENTER1
 62
     2
370
     9
100
AcDbLine
 10
-174.0700799065667
 20
370.8919793206293
 30
0.0
 11
-131.3943811365075
 21
370.8919793206293
 31
0.0
  0
LINE
  5
152
330
1F
100
AcDbEntity
  8
躯体
  6
JWW_DASHED1
 62
     2
370
     9
100
AcDbLine
 10
-655.0000577359585
 20
417.3918605495145
 30
0.0
 11
-655.0000577359585
 21
389.3920650997678
 31
0.0
  0
LINE
  5
153
330
1F
100
AcDbEntity
  8
躯体
  6
JWW_DASHED1
 62
     2
370
     9
100
AcDbLine
 10
-646.0001146471177
 20
417.3918605495145
 30
0.0
 11
-646.0001146471177
 21
389.3920650997678
 31
0.0
  0
LINE
  5
154
330
1F
100
AcDbEntity
  8
躯体
  6
JWW_CENTER1
 62
     2
370
     9
100
AcDbLine
 10
-650.4999934016047
 20
425.1805238466005
 30
0.0
 11
-650.4999934016047
 21
387.111907134185
 31
0.0
  0
LINE
  5
155
330
1F
100
AcDbEntity
  8
躯体
  6
JWW_DASHED1
 62
     2
370
     9
100
AcDbLine
 10
-198.9998894768792
 20
417.3918605495145
 30
0.0
 11
-198.9998894768792
 21
389.3920650997678
 31
0.0
  0
LINE
  5
156
330
1F
100
AcDbEntity
  8
躯体
  6
JWW_DASHED1
 62
     2
370
     9
100
AcDbLine
 10
-189.9998845280827
 20
417.3918605495145
 30
0.0
 11
-189.9998845280827
 21
389.3920650997678
 31
0.0
  0
LINE
  5
157
330
1F
100
AcDbEntity
  8
躯体
  6
JWW_DASHED1
 62
     2
370
     9
100
AcDbLine
 10
-762.499948450037
 20
389.3920650997678
 30
0.0
 11
-82.50002474398215
 21
389.3920650997678
 31
0.0
  0
LINE
  5
158
330
1F
100
AcDbEntity
  8
躯体
  6
JWW_CENTER1
 62
     2
370
     9
100
AcDbLine
 10
-194.5000107223923
 20
422.4294878985431
 30
0.0
 11
-194.5000107223923
 21
385.7210478911529
 31
0.0
  0
LINE
  5
159
330
1F
100
AcDbEntity
  8
躯体
  6
JWW_CENTER1
 62
     2
370
     9
100
AcDbLine
 10
-88.16429344383437
 20
277.3918316815352
 30
0.0
 11
-45.95105970228033
 21
277.3918316815352
 31
0.0
  0
LINE
  5
15A
330
1F
100
AcDbEntity
  8
躯体
  6
JWW_DASHED1
 62
     2
370
     9
100
AcDbLine
 10
-54.50010557432421
 20
272.8918910670926
 30
0.0
 11
-82.50002474398215
 21
272.8918910670926
 31
0.0
  0
LINE
  5
15B
330
1F
100
AcDbEntity
  8
躯体
  6
JWW_DASHED1
 62
     2
370
     9
100
AcDbLine
 10
-54.50010557432421
 20
281.8917722959777
 30
0.0
 11
-82.50002474398215
 21
281.8917722959777
 31
0.0
  0
LINE
  5
15C
330
1F
100
AcDbEntity
  8
躯体
  6
JWW_DASHED1
 62
     2
370
     9
100
AcDbLine
 10
-54.50010557432421
 20
-183.1081534720756
 30
0.0
 11
-82.50002474398215
 21
-183.1081534720756
 31
0.0
  0
LINE
  5
15D
330
1F
100
AcDbEntity
  8
躯体
  6
JWW_DASHED1
 62
     2
370
     9
100
AcDbLine
 10
-54.50010557432421
 20
-174.1081485232791
 30
0.0
 11
-82.50002474398215
 21
-174.1081485232791
 31
0.0
  0
LINE
  5
15E
330
1F
100
AcDbEntity
  8
躯体
  6
JWW_CENTER1
 62
     2
370
     9
100
AcDbLine
 10
-87.02044100374778
 20
-178.608212857633
 30
0.0
 11
-46.38754354940872
 21
-178.608212857633
 31
0.0
  0
LINE
  5
15F
330
1F
100
AcDbEntity
  8
躯体
  6
JWW_DASHED1
 62
     2
370
     9
100
AcDbLine
 10
-790.4998676196949
 20
281.8917722959777
 30
0.0
 11
-762.499948450037
 21
281.8917722959777
 31
0.0
  0
LINE
  5
160
330
1F
100
AcDbEntity
  8
躯体
  6
JWW_DASHED1
 62
     2
370
     9
100
AcDbLine
 10
-790.4998676196949
 20
272.8916436272699
 30
0.0
 11
-762.499948450037
 21
272.8916436272699
 31
0.0
  0
LINE
  5
161
330
1F
100
AcDbEntity
  8
躯体
  6
JWW_CENTER1
 62
     2
370
     9
100
AcDbLine
 10
-800.1360094225084
 20
277.3918316815352
 30
0.0
 11
-755.7427380536053
 21
277.3918316815352
 31
0.0
  0
LINE
  5
162
330
1F
100
AcDbEntity
  8
躯体
  6
JWW_DASHED1
 62
     2
370
     9
100
AcDbLine
 10
-790.4998676196949
 20
-183.1081534720756
 30
0.0
 11
-762.499948450037
 21
-183.1081534720756
 31
0.0
  0
LINE
  5
163
330
1F
100
AcDbEntity
  8
躯体
  6
JWW_DASHED1
 62
     2
370
     9
100
AcDbLine
 10
-790.4998676196949
 20
-174.1081485232791
 30
0.0
 11
-762.499948450037
 21
-174.1081485232791
 31
0.0
  0
LINE
  5
164
330
1F
100
AcDbEntity
  8
躯体
  6
JWW_CENTER1
 62
     2
370
     9
100
AcDbLine
 10
-796.3855640308277
 20
-178.608212857633
 30
0.0
 11
-756.2632586504963
 21
-178.608212857633
 31
0.0
  0
LINE
  5
165
330
1F
100
AcDbEntity
  8
躯体
  6
JWW_DASHED1
 62
     2
370
     9
100
AcDbLine
 10
-655.0000577359585
 20
-318.6080252157675
 30
0.0
 11
-646.0001146471177
 21
-318.6080252157675
 31
0.0
  0
LINE
  5
166
330
1F
100
AcDbEntity
  8
躯体
  6
JWW_DASHED1
 62
     2
370
     9
100
AcDbLine
 10
-655.0000577359585
 20
-290.6082297660209
 30
0.0
 11
-655.0000577359585
 21
-318.6080252157675
 31
0.0
  0
LINE
  5
167
330
1F
100
AcDbEntity
  8
躯体
  6
JWW_DASHED1
 62
     2
370
     9
100
AcDbLine
 10
-646.0001146471177
 20
-290.6082297660209
 30
0.0
 11
-646.0001146471177
 21
-318.6080252157675
 31
0.0
  0
LINE
  5
168
330
1F
100
AcDbEntity
  8
躯体
  6
JWW_DASHED1
 62
     2
370
     9
100
AcDbLine
 10
-198.9998894768792
 20
-318.6080252157675
 30
0.0
 11
-189.9998845280827
 21
-318.6080252157675
 31
0.0
  0
LINE
  5
169
330
1F
100
AcDbEntity
  8
躯体
  6
JWW_DASHED1
 62
     2
370
     9
100
AcDbLine
 10
-198.9998894768792
 20
-290.6082297660209
 30
0.0
 11
-198.9998894768792
 21
-318.6080252157675
 31
0.0
  0
LINE
  5
16A
330
1F
100
AcDbEntity
  8
躯体
  6
JWW_DASHED1
 62
     2
370
     9
100
AcDbLine
 10
-189.9998845280827
 20
-290.6082297660209
 30
0.0
 11
-189.9998845280827
 21
-318.6080252157675
 31
0.0
  0
LINE
  5
16B
330
1F
100
AcDbEntity
  8
躯体
  6
JWW_CENTER1
 62
     2
370
     9
100
AcDbLine
 10
-194.5000107223923
 20
-284.3936549006281
 30
0.0
 11
-194.5000107223923
 21
-324.8577365359744
 31
0.0
  0
LINE
  5
16C
330
1F
100
AcDbEntity
  8
躯体
  6
JWW_DASHED1
 62
     2
370
     9
100
AcDbLine
 10
-739.1668371252113
 20
-269.6081357388883
 30
0.0
 11
-739.1668371252113
 21
-271.608191825248
 31
0.0
  0
LINE
  5
16D
330
1F
100
AcDbEntity
  8
躯体
  6
JWW_DASHED1
 62
     2
370
     9
100
AcDbLine
 10
-743.9998936008762
 20
-276.4413101608689
 30
0.0
 11
-745.9998568973026
 21
-276.4413101608689
 31
0.0
  0
LINE
  5
16E
330
1F
100
AcDbEntity
  8
躯体
  6
JWW_DASHED1
 62
     2
370
     9
100
AcDbLine
 10
-750.8331608127903
 20
-271.608191825248
 30
0.0
 11
-750.8331608127903
 21
-269.6081357388883
 31
0.0
  0
LINE
  5
16F
330
1F
100
AcDbEntity
  8
躯体
  6
JWW_DASHED1
 62
     2
370
     9
100
AcDbLine
 10
-745.9998568973026
 20
-264.7750174032675
 30
0.0
 11
-743.9998936008762
 21
-264.7750174032675
 31
0.0
  0
LINE
  5
170
330
1F
100
AcDbEntity
  8
躯体
  6
JWW_DASHED1
 62
     2
370
     9
100
AcDbLine
 10
-699.1669216671505
 20
-269.6081357388883
 30
0.0
 11
-699.1669216671505
 21
-271.608191825248
 31
0.0
  0
LINE
  5
171
330
1F
100
AcDbEntity
  8
躯体
  6
JWW_DASHED1
 62
     2
370
     9
100
AcDbLine
 10
-703.9999472128377
 20
-276.4413101608689
 30
0.0
 11
-705.999910509264
 21
-276.4413101608689
 31
0.0
  0
LINE
  5
172
330
1F
100
AcDbEntity
  8
躯体
  6
JWW_DASHED1
 62
     2
370
     9
100
AcDbLine
 10
-710.8332144247518
 20
-271.608191825248
 30
0.0
 11
-710.8332144247518
 21
-269.6081357388883
 31
0.0
  0
LINE
  5
173
330
1F
100
AcDbEntity
  8
躯体
  6
JWW_DASHED1
 62
     2
370
     9
100
AcDbLine
 10
-705.999910509264
 20
-264.7750174032675
 30
0.0
 11
-703.9999472128377
 21
-264.7750174032675
 31
0.0
  0
LINE
  5
174
330
1F
100
AcDbEntity
  8
躯体
  6
JWW_DASHED1
 62
     2
370
     9
100
AcDbLine
 10
-134.1668206292229
 20
-269.6081357388883
 30
0.0
 11
-134.1668206292229
 21
-271.608191825248
 31
0.0
  0
LINE
  5
175
330
1F
100
AcDbEntity
  8
躯体
  6
JWW_DASHED1
 62
     2
370
     9
100
AcDbLine
 10
-139.0000626847551
 20
-276.4413101608689
 30
0.0
 11
-140.9999950512035
 21
-276.4413101608689
 31
0.0
  0
LINE
  5
176
330
1F
100
AcDbEntity
  8
躯体
  6
JWW_DASHED1
 62
     2
370
     9
100
AcDbLine
 10
-145.8331133868242
 20
-271.608191825248
 30
0.0
 11
-145.8331133868242
 21
-269.6081357388883
 31
0.0
  0
LINE
  5
177
330
1F
100
AcDbEntity
  8
躯体
  6
JWW_DASHED1
 62
     2
370
     9
100
AcDbLine
 10
-140.9999950512035
 20
-264.7750174032675
 30
0.0
 11
-139.0000626847551
 21
-264.7750174032675
 31
0.0
  0
LINE
  5
178
330
1F
100
AcDbEntity
  8
躯体
  6
JWW_DASHED1
 62
     2
370
     9
100
AcDbLine
 10
-94.16681238122877
 20
-269.6081357388883
 30
0.0
 11
-94.16681238122877
 21
-271.608191825248
 31
0.0
  0
LINE
  5
179
330
1F
100
AcDbEntity
  8
躯体
  6
JWW_DASHED1
 62
     2
370
     9
100
AcDbLine
 10
-99.00011629671653
 20
-276.4413101608689
 30
0.0
 11
-101.0001105231207
 21
-276.4413101608689
 31
0.0
  0
LINE
  5
17A
330
1F
100
AcDbEntity
  8
躯体
  6
JWW_DASHED1
 62
     2
370
     9
100
AcDbLine
 10
-105.8331051388302
 20
-271.608191825248
 30
0.0
 11
-105.8331051388302
 21
-269.6081357388883
 31
0.0
  0
LINE
  5
17B
330
1F
100
AcDbEntity
  8
躯体
  6
JWW_DASHED1
 62
     2
370
     9
100
AcDbLine
 10
-101.0001105231207
 20
-264.7750174032675
 30
0.0
 11
-99.00011629671653
 21
-264.7750174032675
 31
0.0
  0
LINE
  5
17C
330
1F
100
AcDbEntity
  8
通り芯
  6
Continuous
 62
     3
370
     9
100
AcDbLine
 10
-844.9999731940193
 20
471.8919661238388
 30
0.0
 11
0.0
 21
471.8919661238388
 31
0.0
  0
LINE
  5
17D
330
1F
100
AcDbEntity
  8
躯体
  6
JWW_DASHED1
 62
     2
370
     9
100
AcDbLine
 10
-762.499948450037
 20
-253.6080582077439
 30
0.0
 11
-762.499948450037
 21
389.3920650997678
 31
0.0
  0
LINE
  5
17E
330
1F
100
AcDbEntity
  8
躯体
  6
JWW_DASHED1
 62
     2
370
     9
100
AcDbLine
 10
-722.5000020619984
 20
349.3919331318624
 30
0.0
 11
-122.4999711320207
 21
349.3919331318624
 31
0.0
  0
LINE
  5
17F
330
1F
100
AcDbEntity
  8
躯体
  6
JWW_DASHED1
 62
     2
370
     9
100
AcDbLine
 10
-725.5000552615604
 20
352.3918935414907
 30
0.0
 11
-119.4999488624366
 21
352.3918935414907
 31
0.0
  0
LINE
  5
180
330
1F
100
AcDbEntity
  8
通り芯
  6
Continuous
 62
     3
370
     9
100
AcDbLine
 10
-844.9999731940193
 20
-373.1081307900919
 30
0.0
 11
-844.9999731940193
 21
471.8919661238388
 31
0.0
  0
LINE
  5
181
330
1F
100
AcDbEntity
  8
通り芯
  6
Continuous
 62
     3
370
     9
100
AcDbLine
 10
0.0
 20
-373.1081307900919
 30
0.0
 11
-844.9999731940193
 21
-373.1081307900919
 31
0.0
  0
LINE
  5
182
330
1F
100
AcDbEntity
  8
通り芯
  6
Continuous
 62
     3
370
     9
100
AcDbLine
 10
0.0
 20
471.8919661238388
 30
0.0
 11
0.0
 21
-373.1081307900919
 31
0.0
  0
LINE
  5
183
330
1F
100
AcDbEntity
  8
躯体
  6
JWW_DASHED1
 62
     2
370
     9
100
AcDbLine
 10
-725.5000552615604
 20
-253.6080582077439
 30
0.0
 11
-725.5000552615604
 21
352.3918935414907
 31
0.0
  0
LINE
  5
184
330
1F
100
AcDbEntity
  8
躯体
  6
JWW_DASHED1
 62
     2
370
     9
100
AcDbLine
 10
-722.5000020619984
 20
-250.6080977981155
 30
0.0
 11
-722.5000020619984
 21
349.3919331318624
 31
0.0
  0
LINE
  5
185
330
1F
100
AcDbEntity
  8
躯体
  6
JWW_DASHED1
 62
     2
370
     9
100
AcDbLine
 10
-122.4999711320207
 20
-250.6080977981155
 30
0.0
 11
-722.5000020619984
 21
-250.6080977981155
 31
0.0
  0
LINE
  5
186
330
1F
100
AcDbEntity
  8
躯体
  6
JWW_DASHED1
 62
     2
370
     9
100
AcDbLine
 10
-122.4999711320207
 20
349.3919331318624
 30
0.0
 11
-122.4999711320207
 21
-250.6080977981155
 31
0.0
  0
LINE
  5
187
330
1F
100
AcDbEntity
  8
躯体
  6
JWW_DASHED1
 62
     2
370
     9
100
AcDbLine
 10
-119.4999488624366
 20
352.3918935414907
 30
0.0
 11
-119.4999488624366
 21
-253.6080582077439
 31
0.0
  0
LINE
  5
188
330
1F
100
AcDbEntity
  8
躯体
  6
JWW_CENTER1
 62
     2
370
     9
100
AcDbLine
 10
-650.4999934016047
 20
-284.1712065000792
 30
0.0
 11
-650.4999934016047
 21
-323.8092102875581
 31
0.0
  0
LINE
  5
189
330
1F
100
AcDbEntity
  8
通り芯
  6
JWW_DASHED1
 62
     3
370
     9
100
AcDbLine
 10
-843.4999311292494
 20
-371.6081505852777
 30
0.0
 11
-843.4999311292494
 21
470.3919859190246
 31
0.0
  0
LINE
  5
18A
330
1F
100
AcDbEntity
  8
通り芯
  6
JWW_DASHED1
 62
     3
370
     9
100
AcDbLine
 10
-82.50002474398215
 20
-253.6080582077439
 30
0.0
 11
-82.50002474398215
 21
-370.1081703804635
 31
0.0
  0
LINE
  5
18B
330
1F
100
AcDbEntity
  8
通り芯
  6
JWW_DASHED1
 62
     3
370
     9
100
AcDbLine
 10
-157.5001484638935
 20
-370.1081703804635
 30
0.0
 11
-157.5001484638935
 21
-253.6080582077439
 31
0.0
  0
LINE
  5
18C
330
1F
100
AcDbEntity
  8
通り芯
  6
JWW_DASHED1
 62
     3
370
     9
100
AcDbLine
 10
-436.5001162967166
 20
330.8918473527239
 30
0.0
 11
-426.5000214447846
 21
330.8918473527239
 31
0.0
  0
LINE
  5
18D
330
1F
100
AcDbEntity
  8
通り芯
  6
JWW_DASHED1
 62
     3
370
     9
100
AcDbLine
 10
-418.4999826792124
 20
330.8918473527239
 30
0.0
 11
-408.4998878272803
 21
330.8918473527239
 31
0.0
  0
LINE
  5
18E
330
1F
100
AcDbEntity
  8
通り芯
  6
JWW_CENTER1
 62
     3
370
     9
100
AcDbLine
 10
-439.8883716480152
 20
326.8917351800043
 30
0.0
 11
-405.2437034813133
 21
326.8917351800043
 31
0.0
  0
LINE
  5
18F
330
1F
100
AcDbEntity
  8
躯体
  6
JWW_DASHED1
 62
     2
370
     9
100
AcDbLine
 10
-426.5000214447846
 20
328.3919628246412
 30
0.0
 11
-418.4999826792124
 21
328.3919628246412
 31
0.0
  0
LINE
  5
190
330
1F
100
AcDbEntity
  8
通り芯
  6
JWW_DASHED1
 62
     3
370
     9
100
AcDbLine
 10
-436.5001162967166
 20
347.3918770455026
 30
0.0
 11
-408.4998878272803
 21
347.3918770455026
 31
0.0
  0
LINE
  5
191
330
1F
100
AcDbEntity
  8
通り芯
  6
JWW_DASHED1
 62
     3
370
     9
100
AcDbLine
 10
-392.4999958760029
 20
339.891728581609
 30
0.0
 11
-392.4999958760029
 21
279.8917162096178
 31
0.0
  0
LINE
  5
192
330
1F
100
AcDbEntity
  8
通り芯
  6
JWW_DASHED1
 62
     3
370
     9
100
AcDbLine
 10
-45.00002474398215
 20
-370.1081703804635
 30
0.0
 11
-45.00002474398215
 21
-371.6081505852777
 31
0.0
  0
LINE
  5
193
330
1F
100
AcDbEntity
  8
通り芯
  6
JWW_DASHED1
 62
     3
370
     9
100
AcDbLine
 10
-194.9999628840266
 20
-370.1081703804635
 30
0.0
 11
-194.9999628840266
 21
-371.6081505852777
 31
0.0
  0
LINE
  5
194
330
1F
100
AcDbEntity
  8
通り芯
  6
JWW_DASHED1
 62
     3
370
     9
100
AcDbLine
 10
-800.0000103099926
 20
-370.1081703804635
 30
0.0
 11
-800.0000103099926
 21
-371.6081505852777
 31
0.0
  0
LINE
  5
195
330
1F
100
AcDbEntity
  8
通り芯
  6
JWW_DASHED1
 62
     3
370
     9
100
AcDbLine
 10
-650.0000412399704
 20
-370.1081703804635
 30
0.0
 11
-650.0000412399704
 21
-371.6081505852777
 31
0.0
  0
LINE
  5
196
330
1F
100
AcDbEntity
  8
躯体
  6
JWW_DASHED1
 62
     2
370
     9
100
AcDbLine
 10
-424.7500651591532
 20
-220.6081534720756
 30
0.0
 11
-424.7500651591532
 21
-250.6080977981155
 31
0.0
  0
LINE
  5
197
330
1F
100
AcDbEntity
  8
躯体
  6
JWW_DASHED1
 62
     2
370
     9
100
AcDbLine
 10
-424.7500651591532
 20
-220.6081534720756
 30
0.0
 11
-420.2499389648438
 21
-220.6081534720756
 31
0.0
  0
LINE
  5
198
330
1F
100
AcDbEntity
  8
躯体
  6
JWW_DASHED1
 62
     2
370
     9
100
AcDbLine
 10
-420.2499389648438
 20
-220.6081534720756
 30
0.0
 11
-420.2499389648438
 21
-250.6080977981155
 31
0.0
  0
LINE
  5
199
330
1F
100
AcDbEntity
  8
躯体
  6
JWW_CENTER1
 62
     2
370
     9
100
AcDbLine
 10
-429.9683235787056
 20
-233.1081637820682
 30
0.0
 11
-414.8510494747677
 21
-233.1081637820682
 31
0.0
  0
LINE
  5
19A
330
1F
100
AcDbEntity
  8
躯体
  6
JWW_DASHED1
 62
     2
370
     9
100
AcDbLine
 10
-424.7500651591532
 20
-237.6081043965107
 30
0.0
 11
-420.2499389648438
 21
-237.6081043965107
 31
0.0
  0
LINE
  5
19B
330
1F
100
AcDbEntity
  8
躯体
  6
JWW_DASHED1
 62
     2
370
     9
100
AcDbLine
 10
-424.7500651591532
 20
-228.6080994477143
 30
0.0
 11
-420.2499389648438
 21
-228.6080994477143
 31
0.0
  0
LINE
  5
19C
330
1F
100
AcDbEntity
  8
通り芯
  6
JWW_CENTER1
 62
     3
370
     9
100
AcDbLine
 10
-159.0967539194467
 20
-364.1082495612067
 30
0.0
 11
-80.56918994800455
 21
-364.1082495612067
 31
0.0
  0
LINE
  5
19D
330
1F
100
AcDbEntity
  8
通り芯
  6
JWW_DASHED1
 62
     3
370
     9
100
AcDbLine
 10
-122.4999711320207
 20
-250.6080977981155
 30
0.0
 11
-82.50002474398215
 21
-250.6080977981155
 31
0.0
  0
LINE
  5
19E
330
1F
100
AcDbEntity
  8
通り芯
  6
JWW_DASHED1
 62
     3
370
     9
100
AcDbLine
 10
-157.5001484638935
 20
-352.1081604828706
 30
0.0
 11
-82.50002474398215
 21
-352.1081604828706
 31
0.0
  0
LINE
  5
19F
330
1F
100
AcDbEntity
  8
通り芯
  6
JWW_DASHED1
 62
     3
370
     9
100
AcDbLine
 10
-157.5001484638935
 20
-358.1080813021273
 30
0.0
 11
-82.50002474398215
 21
-358.1080813021273
 31
0.0
  0
LINE
  5
1A0
330
1F
100
AcDbEntity
  8
通り芯
  6
JWW_DASHED1
 62
     3
370
     9
100
AcDbLine
 10
-157.5001484638935
 20
-361.108165431667
 30
0.0
 11
-82.50002474398215
 21
-361.108165431667
 31
0.0
  0
LINE
  5
1A1
330
1F
100
AcDbEntity
  8
通り芯
  6
JWW_DASHED1
 62
     3
370
     9
100
AcDbLine
 10
-157.5001484638935
 20
-367.1082099708351
 30
0.0
 11
-82.50002474398215
 21
-367.1082099708351
 31
0.0
  0
LINE
  5
1A2
330
1F
100
AcDbEntity
  8
躯体
  6
JWW_CENTER1
 62
     2
370
     9
100
AcDbLine
 10
-689.3469630060969
 20
-270.6081637820682
 30
0.0
 11
-721.6138581971865
 21
-270.6081637820682
 31
0.0
  0
LINE
  5
1A3
330
1F
100
AcDbEntity
  8
躯体
  6
JWW_CENTER1
 62
     2
370
     9
100
AcDbLine
 10
-705.0000680459514
 20
-255.897742606498
 30
0.0
 11
-705.0000680459514
 21
-285.7409647348765
 31
0.0
  0
LINE
  5
1A4
330
1F
100
AcDbEntity
  8
躯体
  6
JWW_CENTER1
 62
     2
370
     9
100
AcDbLine
 10
-730.4002607190931
 20
-270.6081637820682
 30
0.0
 11
-759.6376264417494
 21
-270.6081637820682
 31
0.0
  0
LINE
  5
1A5
330
1F
100
AcDbEntity
  8
躯体
  6
JWW_CENTER1
 62
     2
370
     9
100
AcDbLine
 10
-745.0000144339896
 20
-257.4125692006704
 30
0.0
 11
-745.0000144339896
 21
-285.5894078435124
 31
0.0
  0
LINE
  5
1A6
330
1F
100
AcDbEntity
  8
通り芯
  6
JWW_DASHED1
 62
     3
370
     9
100
AcDbLine
 10
-762.499948450037
 20
-253.6080582077439
 30
0.0
 11
-762.499948450037
 21
-370.1081703804635
 31
0.0
  0
LINE
  5
1A7
330
1F
100
AcDbEntity
  8
通り芯
  6
JWW_DASHED1
 62
     3
370
     9
100
AcDbLine
 10
-687.500103099926
 20
-370.1081703804635
 30
0.0
 11
-687.500103099926
 21
-253.6080582077439
 31
0.0
  0
LINE
  5
1A8
330
1F
100
AcDbEntity
  8
通り芯
  6
JWW_CENTER1
 62
     3
370
     9
100
AcDbLine
 10
-685.9032192745724
 20
-364.1082495612067
 30
0.0
 11
-764.430535806192
 21
-364.1082495612067
 31
0.0
  0
LINE
  5
1A9
330
1F
100
AcDbEntity
  8
通り芯
  6
JWW_DASHED1
 62
     3
370
     9
100
AcDbLine
 10
-722.5000020619984
 20
-250.6080977981155
 30
0.0
 11
-762.499948450037
 21
-250.6080977981155
 31
0.0
  0
LINE
  5
1AA
330
1F
100
AcDbEntity
  8
通り芯
  6
JWW_DASHED1
 62
     3
370
     9
100
AcDbLine
 10
-687.500103099926
 20
-352.1081604828706
 30
0.0
 11
-762.499948450037
 21
-352.1081604828706
 31
0.0
  0
LINE
  5
1AB
330
1F
100
AcDbEntity
  8
通り芯
  6
JWW_DASHED1
 62
     3
370
     9
100
AcDbLine
 10
-687.500103099926
 20
-358.1080813021273
 30
0.0
 11
-762.499948450037
 21
-358.1080813021273
 31
0.0
  0
LINE
  5
1AC
330
1F
100
AcDbEntity
  8
通り芯
  6
JWW_DASHED1
 62
     3
370
     9
100
AcDbLine
 10
-687.500103099926
 20
-361.108165431667
 30
0.0
 11
-762.499948450037
 21
-361.108165431667
 31
0.0
  0
LINE
  5
1AD
330
1F
100
AcDbEntity
  8
通り芯
  6
JWW_DASHED1
 62
     3
370
     9
100
AcDbLine
 10
-687.500103099926
 20
-367.1082099708351
 30
0.0
 11
-762.499948450037
 21
-367.1082099708351
 31
0.0
  0
LINE
  5
1AE
330
1F
100
AcDbEntity
  8
通り芯
  6
JWW_DASHED1
 62
     3
370
     9
100
AcDbLine
 10
-737.5001134099188
 20
-358.1080813021273
 30
0.0
 11
-737.5001134099188
 21
-369.908115283863
 31
0.0
  0
LINE
  5
1AF
330
1F
100
AcDbEntity
  8
通り芯
  6
JWW_DASHED1
 62
     3
370
     9
100
AcDbLine
 10
-712.4999690700222
 20
-358.1080813021273
 30
0.0
 11
-712.4999690700222
 21
-369.908115283863
 31
0.0
  0
LINE
  5
1B0
330
1F
100
AcDbEntity
  8
通り芯
  6
JWW_DASHED1
 62
     3
370
     9
100
AcDbLine
 10
-132.5000659839526
 20
-358.1080813021273
 30
0.0
 11
-132.5000659839526
 21
-369.908115283863
 31
0.0
  0
LINE
  5
1B1
330
1F
100
AcDbEntity
  8
通り芯
  6
JWW_DASHED1
 62
     3
370
     9
100
AcDbLine
 10
-107.4999216440561
 20
-358.1080813021273
 30
0.0
 11
-107.4999216440561
 21
-369.908115283863
 31
0.0
  0
LINE
  5
1B2
330
1F
100
AcDbEntity
  8
通り芯
  6
JWW_DASHED1
 62
     3
370
     9
100
AcDbLine
 10
-843.4999311292494
 20
-370.1081703804635
 30
0.0
 11
-1.50010392472538
 21
-370.1081703804635
 31
0.0
  0
LINE
  5
1B3
330
1F
100
AcDbEntity
  8
通り芯
  6
JWW_DASHED1
 62
     3
370
     9
100
AcDbLine
 10
-1.50010392472538
 20
-371.6081505852777
 30
0.0
 11
-843.4999311292494
 21
-371.6081505852777
 31
0.0
  0
LINE
  5
1B4
330
1F
100
AcDbEntity
  8
通り芯
  6
JWW_DASHED1
 62
     3
370
     9
100
AcDbLine
 10
-843.4999311292494
 20
470.3919859190246
 30
0.0
 11
-1.50010392472538
 21
470.3919859190246
 31
0.0
  0
LINE
  5
1B5
330
1F
100
AcDbEntity
  8
通り芯
  6
JWW_DASHED1
 62
     3
370
     9
100
AcDbLine
 10
-1.50010392472538
 20
470.3919859190246
 30
0.0
 11
-1.50010392472538
 21
-371.6081505852777
 31
0.0
  0
LINE
  5
1B6
330
1F
100
AcDbEntity
  8
通り芯
  6
JWW_CENTER1
 62
     3
370
     9
100
AcDbLine
 10
-870.0000866039379
 20
49.39187127190678
 30
0.0
 11
24.99983504011837
 21
49.39187127190678
 31
0.0
  0
LINE
  5
1B7
330
1F
100
AcDbEntity
  8
通り芯
  6
JWW_CENTER1
 62
     3
370
     9
100
AcDbLine
 10
-422.4998474121094
 20
496.891801163957
 30
0.0
 11
-422.4998474121094
 21
-398.1082132700327
 31
0.0
  0
LINE
  5
1B8
330
1F
100
AcDbEntity
  8
躯体
  6
Continuous
 62
     2
370
     9
100
AcDbLine
 10
476.6415982633023
 20
-230.2794317297033
 30
0.0
 11
476.0771880278716
 21
-230.778765291781
 31
0.0
  0
LINE
  5
1B9
330
1F
100
AcDbEntity
  8
躯体
  6
Continuous
 62
     2
370
     9
100
AcDbLine
 10
476.0771880278716
 20
-230.778765291781
 30
0.0
 11
475.5397487331081
 21
-231.4232223098342
 31
0.0
  0
LINE
  5
1BA
330
1F
100
AcDbEntity
  8
躯体
  6
Continuous
 62
     2
370
     9
100
AcDbLine
 10
475.5397487331081
 20
-231.4232223098342
 30
0.0
 11
475.3180426520271
 21
-232.0645863301045
 31
0.0
  0
LINE
  5
1BB
330
1F
100
AcDbEntity
  8
躯体
  6
Continuous
 62
     2
370
     9
100
AcDbLine
 10
475.3180426520271
 20
-232.0645863301045
 30
0.0
 11
475.3826244457349
 21
-232.4343851450327
 31
0.0
  0
LINE
  5
1BC
330
1F
100
AcDbEntity
  8
躯体
  6
Continuous
 62
     2
370
     9
100
AcDbLine
 10
475.3826244457349
 20
-232.4343851450327
 30
0.0
 11
475.5281190614443
 21
-232.7001355145428
 31
0.0
  0
LINE
  5
1BD
330
1F
100
AcDbEntity
  8
躯体
  6
Continuous
 62
     2
370
     9
100
AcDbLine
 10
475.5281190614443
 20
-232.7001355145428
 30
0.0
 11
475.9109084670609
 21
-233.1561671076594
 31
0.0
  0
LINE
  5
1BE
330
1F
100
AcDbEntity
  8
躯体
  6
Continuous
 62
     2
370
     9
100
AcDbLine
 10
475.9109084670609
 20
-233.1561671076594
 30
0.0
 11
476.3439281566724
 21
-233.6102191821948
 31
0.0
  0
LINE
  5
1BF
330
1F
100
AcDbEntity
  8
躯体
  6
Continuous
 62
     2
370
     9
100
AcDbLine
 10
476.3439281566724
 20
-233.6102191821948
 30
0.0
 11
476.6910862278294
 21
-234.0626628978832
 31
0.0
  0
LINE
  5
1C0
330
1F
100
AcDbEntity
  8
躯体
  6
Continuous
 62
     2
370
     9
100
AcDbLine
 10
476.6910862278294
 20
-234.0626628978832
 30
0.0
 11
476.8002071896115
 21
-234.3247016700539
 31
0.0
  0
LINE
  5
1C1
330
1F
100
AcDbEntity
  8
躯体
  6
Continuous
 62
     2
370
     9
100
AcDbLine
 10
476.8002071896115
 20
-234.3247016700539
 30
0.0
 11
476.8115894214529
 21
-234.6108658249314
 31
0.0
  0
LINE
  5
1C2
330
1F
100
AcDbEntity
  8
躯体
  6
Continuous
 62
     2
370
     9
100
AcDbLine
 10
476.8115894214529
 20
-234.6108658249314
 30
0.0
 11
476.5965642155828
 21
-235.1033947918866
 31
0.0
  0
LINE
  5
1C3
330
1F
100
AcDbEntity
  8
躯体
  6
Continuous
 62
     2
370
     9
100
AcDbLine
 10
476.5965642155828
 20
-235.1033947918866
 30
0.0
 11
476.1593380489865
 21
-235.5954288791966
 31
0.0
  0
LINE
  5
1C4
330
1F
100
AcDbEntity
  8
躯体
  6
Continuous
 62
     2
370
     9
100
AcDbLine
 10
476.1593380489865
 20
-235.5954288791966
 30
0.0
 11
475.9534681165542
 21
-235.7722246324693
 31
0.0
  0
LINE
  5
1C5
330
1F
100
AcDbEntity
  8
躯体
  6
Continuous
 62
     2
370
     9
100
AcDbLine
 10
558.0134211359797
 20
52.68059395455026
 30
0.0
 11
557.9005885768581
 21
52.56330747862123
 31
0.0
  0
LINE
  5
1C6
330
1F
100
AcDbEntity
  8
躯体
  6
Continuous
 62
     2
370
     9
100
AcDbLine
 10
557.9005885768581
 20
52.56330747862123
 30
0.0
 11
557.1849926097974
 21
51.55103116422097
 31
0.0
  0
LINE
  5
1C7
330
1F
100
AcDbEntity
  8
躯体
  6
Continuous
 62
     2
370
     9
100
AcDbLine
 10
557.1849926097974
 20
51.55103116422097
 30
0.0
 11
556.971699482686
 21
50.61768815324115
 31
0.0
  0
LINE
  5
1C8
330
1F
100
AcDbEntity
  8
躯体
  6
Continuous
 62
     2
370
     9
100
AcDbLine
 10
556.971699482686
 20
50.61768815324115
 30
0.0
 11
557.154804951436
 21
50.12429314690678
 31
0.0
  0
LINE
  5
1C9
330
1F
100
AcDbEntity
  8
躯体
  6
Continuous
 62
     2
370
     9
100
AcDbLine
 10
557.154804951436
 20
50.12429314690678
 30
0.0
 11
557.3920997413429
 21
49.84270662874792
 31
0.0
  0
LINE
  5
1CA
330
1F
100
AcDbEntity
  8
躯体
  6
Continuous
 62
     2
370
     9
100
AcDbLine
 10
557.3920997413429
 20
49.84270662874792
 30
0.0
 11
557.9540355785474
 21
49.38147879935599
 31
0.0
  0
LINE
  5
1CB
330
1F
100
AcDbEntity
  8
躯体
  6
Continuous
 62
     2
370
     9
100
AcDbLine
 10
557.9540355785474
 20
49.38147879935599
 30
0.0
 11
558.5808006492823
 21
48.93064344251485
 31
0.0
  0
LINE
  5
1CC
330
1F
100
AcDbEntity
  8
躯体
  6
Continuous
 62
     2
370
     9
100
AcDbLine
 10
558.5808006492823
 20
48.93064344251485
 30
0.0
 11
559.1221989812078
 21
48.46718865471928
 31
0.0
  0
LINE
  5
1CD
330
1F
100
AcDbEntity
  8
躯体
  6
Continuous
 62
     2
370
     9
100
AcDbLine
 10
559.1221989812078
 20
48.46718865471928
 30
0.0
 11
559.3382139463682
 21
48.18337517815678
 31
0.0
  0
LINE
  5
1CE
330
1F
100
AcDbEntity
  8
躯体
  6
Continuous
 62
     2
370
     9
100
AcDbLine
 10
559.3382139463682
 20
48.18337517815678
 30
0.0
 11
559.4718314505915
 21
47.74317973368881
 31
0.0
  0
LINE
  5
1CF
330
1F
100
AcDbEntity
  8
躯体
  6
Continuous
 62
     2
370
     9
100
AcDbLine
 10
559.4718314505915
 20
47.74317973368881
 30
0.0
 11
559.2573011243667
 21
46.91623584644219
 31
0.0
  0
LINE
  5
1D0
330
1F
100
AcDbEntity
  8
躯体
  6
Continuous
 62
     2
370
     9
100
AcDbLine
 10
559.2573011243667
 20
46.91623584644219
 30
0.0
 11
558.6216282200169
 21
46.02421528584259
 31
0.0
  0
LINE
  5
1D1
330
1F
100
AcDbEntity
  8
躯体
  6
Continuous
 62
     2
370
     9
100
AcDbLine
 10
558.6216282200169
 20
46.02421528584259
 30
0.0
 11
558.2925332559123
 21
45.68151113149284
 31
0.0
  0
LINE
  5
1D2
330
1F
100
AcDbEntity
  8
躯体
  6
Continuous
 62
     2
370
     9
100
AcDbLine
 10
430.3777746252112
 20
52.68059395455026
 30
0.0
 11
430.4906071843328
 21
52.56330747862123
 31
0.0
  0
LINE
  5
1D3
330
1F
100
AcDbEntity
  8
躯体
  6
Continuous
 62
     2
370
     9
100
AcDbLine
 10
430.4906071843328
 20
52.56330747862123
 30
0.0
 11
431.2062031513938
 21
51.55103116422097
 31
0.0
  0
LINE
  5
1D4
330
1F
100
AcDbEntity
  8
躯体
  6
Continuous
 62
     2
370
     9
100
AcDbLine
 10
431.2062031513938
 20
51.55103116422097
 30
0.0
 11
431.4194962785052
 21
50.61768815324115
 31
0.0
  0
LINE
  5
1D5
330
1F
100
AcDbEntity
  8
躯体
  6
Continuous
 62
     2
370
     9
100
AcDbLine
 10
431.4194962785052
 20
50.61768815324115
 30
0.0
 11
431.2361433699326
 21
50.12429314690678
 31
0.0
  0
LINE
  5
1D6
330
1F
100
AcDbEntity
  8
躯体
  6
Continuous
 62
     2
370
     9
100
AcDbLine
 10
431.2361433699326
 20
50.12429314690678
 30
0.0
 11
430.9990960198482
 21
49.84270662874792
 31
0.0
  0
LINE
  5
1D7
330
1F
100
AcDbEntity
  8
躯体
  6
Continuous
 62
     2
370
     9
100
AcDbLine
 10
430.9990960198482
 20
49.84270662874792
 30
0.0
 11
430.4371601826438
 21
49.38147879935599
 31
0.0
  0
LINE
  5
1D8
330
1F
100
AcDbEntity
  8
躯体
  6
Continuous
 62
     2
370
     9
100
AcDbLine
 10
430.4371601826438
 20
49.38147879935599
 30
0.0
 11
429.8103951119089
 21
48.93064344251485
 31
0.0
  0
LINE
  5
1D9
330
1F
100
AcDbEntity
  8
躯体
  6
Continuous
 62
     2
370
     9
100
AcDbLine
 10
429.8103951119089
 20
48.93064344251485
 30
0.0
 11
429.268501900338
 21
48.46718865471928
 31
0.0
  0
LINE
  5
1DA
330
1F
100
AcDbEntity
  8
躯体
  6
Continuous
 62
     2
370
     9
100
AcDbLine
 10
429.268501900338
 20
48.46718865471928
 30
0.0
 11
429.0524869351773
 21
48.18337517815678
 31
0.0
  0
LINE
  5
1DB
330
1F
100
AcDbEntity
  8
躯体
  6
Continuous
 62
     2
370
     9
100
AcDbLine
 10
429.0524869351773
 20
48.18337517815678
 30
0.0
 11
428.9191168707771
 21
47.74317973368881
 31
0.0
  0
LINE
  5
1DC
330
1F
100
AcDbEntity
  8
躯体
  6
Continuous
 62
     2
370
     9
100
AcDbLine
 10
428.9191168707771
 20
47.74317973368881
 30
0.0
 11
429.1336471970018
 21
46.91623584644219
 31
0.0
  0
LINE
  5
1DD
330
1F
100
AcDbEntity
  8
躯体
  6
Continuous
 62
     2
370
     9
100
AcDbLine
 10
429.1336471970018
 20
46.91623584644219
 30
0.0
 11
429.7693201013513
 21
46.02421528584259
 31
0.0
  0
LINE
  5
1DE
330
1F
100
AcDbEntity
  8
躯体
  6
Continuous
 62
     2
370
     9
100
AcDbLine
 10
429.7693201013513
 20
46.02421528584259
 30
0.0
 11
430.0981676256336
 21
45.68151113149284
 31
0.0
  0
LINE
  5
1DF
330
1F
100
AcDbEntity
  8
躯体
  6
JWW_CENTER1
 62
     2
370
     9
100
AcDbLine
 10
401.7353779560813
 20
39.20477377401824
 30
0.0
 11
403.3731821421031
 21
38.68317062790339
 31
0.0
  0
LINE
  5
1E0
330
1F
100
AcDbEntity
  8
躯体
  6
JWW_CENTER1
 62
     2
370
     9
100
AcDbLine
 10
403.3731821421031
 20
38.68317062790339
 30
0.0
 11
406.1994397962417
 21
37.78867566907735
 31
0.0
  0
LINE
  5
1E1
330
1F
100
AcDbEntity
  8
躯体
  6
JWW_CENTER1
 62
     2
370
     9
100
AcDbLine
 10
406.1994397962417
 20
37.78867566907735
 30
0.0
 11
409.0326257654138
 21
36.90754246067357
 31
0.0
  0
LINE
  5
1E2
330
1F
100
AcDbEntity
  8
躯体
  6
JWW_CENTER1
 62
     2
370
     9
100
AcDbLine
 10
409.0326257654138
 20
36.90754246067357
 30
0.0
 11
411.8776888460727
 21
36.04768907701654
 31
0.0
  0
LINE
  5
1E3
330
1F
100
AcDbEntity
  8
躯体
  6
JWW_CENTER1
 62
     2
370
     9
100
AcDbLine
 10
411.8776888460727
 20
36.04768907701654
 30
0.0
 11
413.5350407780828
 21
35.56245958482904
 31
0.0
  0
LINE
  5
1E4
330
1F
100
AcDbEntity
  8
躯体
  6
JWW_CENTER1
 62
     2
370
     9
100
AcDbLine
 10
413.5350407780828
 20
35.56245958482904
 30
0.0
 11
414.7804054054055
 21
35.20738343934752
 31
0.0
  0
LINE
  5
1E5
330
1F
100
AcDbEntity
  8
躯体
  6
JWW_CENTER1
 62
     2
370
     9
100
AcDbLine
 10
414.7804054054055
 20
35.20738343934752
 30
0.0
 11
416.9368434596706
 21
34.62985889331719
 31
0.0
  0
LINE
  5
1E6
330
1F
100
AcDbEntity
  8
躯体
  6
JWW_CENTER1
 62
     2
370
     9
100
AcDbLine
 10
416.9368434596706
 20
34.62985889331719
 30
0.0
 11
419.1068907041807
 21
34.12458677549623
 31
0.0
  0
LINE
  5
1E7
330
1F
100
AcDbEntity
  8
躯体
  6
JWW_CENTER1
 62
     2
370
     9
100
AcDbLine
 10
419.1068907041807
 20
34.12458677549623
 30
0.0
 11
421.2907945787586
 21
33.72546634158581
 31
0.0
  0
LINE
  5
1E8
330
1F
100
AcDbEntity
  8
躯体
  6
JWW_CENTER1
 62
     2
370
     9
100
AcDbLine
 10
421.2907945787586
 20
33.72546634158581
 30
0.0
 11
422.5646147856841
 21
33.55572262325808
 31
0.0
  0
LINE
  5
1E9
330
1F
100
AcDbEntity
  8
躯体
  6
JWW_CENTER1
 62
     2
370
     9
100
AcDbLine
 10
422.5646147856841
 20
33.55572262325808
 30
0.0
 11
423.9072232633023
 21
33.4320027119405
 31
0.0
  0
LINE
  5
1EA
330
1F
100
AcDbEntity
  8
躯体
  6
JWW_CENTER1
 62
     2
370
     9
100
AcDbLine
 10
423.9072232633023
 20
33.4320027119405
 30
0.0
 11
426.23291015625
 21
33.32040735193203
 31
0.0
  0
LINE
  5
1EB
330
1F
100
AcDbEntity
  8
躯体
  6
JWW_CENTER1
 62
     2
370
     9
100
AcDbLine
 10
426.23291015625
 20
33.32040735193203
 30
0.0
 11
428.5682472022805
 21
33.28353881835938
 31
0.0
  0
LINE
  5
1EC
330
1F
100
AcDbEntity
  8
躯体
  6
JWW_CENTER1
 62
     2
370
     9
100
AcDbLine
 10
428.5682472022805
 20
33.28353881835938
 30
0.0
 11
430.9072958456505
 21
33.25681531751485
 31
0.0
  0
LINE
  5
1ED
330
1F
100
AcDbEntity
  8
躯体
  6
JWW_CENTER1
 62
     2
370
     9
100
AcDbLine
 10
430.9072958456505
 20
33.25681531751485
 30
0.0
 11
432.2635135135135
 21
33.221431422878
 31
0.0
  0
LINE
  5
1EE
330
1F
100
AcDbEntity
  8
躯体
  6
JWW_CENTER1
 62
     2
370
     9
100
AcDbLine
 10
432.2635135135135
 20
33.221431422878
 30
0.0
 11
433.8533143739443
 21
33.1457148371517
 31
0.0
  0
LINE
  5
1EF
330
1F
100
AcDbEntity
  8
躯体
  6
JWW_CENTER1
 62
     2
370
     9
100
AcDbLine
 10
433.8533143739443
 20
33.1457148371517
 30
0.0
 11
436.5895039326438
 21
32.9559284931905
 31
0.0
  0
LINE
  5
1F0
330
1F
100
AcDbEntity
  8
躯体
  6
JWW_CENTER1
 62
     2
370
     9
100
AcDbLine
 10
436.5895039326438
 20
32.9559284931905
 30
0.0
 11
439.3214870143581
 21
32.74906880146759
 31
0.0
  0
LINE
  5
1F1
330
1F
100
AcDbEntity
  8
躯体
  6
JWW_CENTER1
 62
     2
370
     9
100
AcDbLine
 10
439.3214870143581
 20
32.74906880146759
 30
0.0
 11
442.051243137669
 21
32.59293427338477
 31
0.0
  0
LINE
  5
1F2
330
1F
100
AcDbEntity
  8
躯体
  6
JWW_CENTER1
 62
     2
370
     9
100
AcDbLine
 10
442.051243137669
 20
32.59293427338477
 30
0.0
 11
443.6338682432432
 21
32.55260158229518
 31
0.0
  0
LINE
  5
1F3
330
1F
100
AcDbEntity
  8
躯体
  6
JWW_CENTER1
 62
     2
370
     9
100
AcDbLine
 10
443.6338682432432
 20
32.55260158229518
 30
0.0
 11
445.2172356682857
 21
32.56126197608751
 31
0.0
  0
LINE
  5
1F4
330
1F
100
AcDbEntity
  8
躯体
  6
JWW_CENTER1
 62
     2
370
     9
100
AcDbLine
 10
445.2172356682857
 20
32.56126197608751
 30
0.0
 11
447.947981550887
 21
32.67359965556381
 31
0.0
  0
LINE
  5
1F5
330
1F
100
AcDbEntity
  8
躯体
  6
JWW_CENTER1
 62
     2
370
     9
100
AcDbLine
 10
447.947981550887
 20
32.67359965556381
 30
0.0
 11
450.6804595122466
 21
32.86734503668711
 31
0.0
  0
LINE
  5
1F6
330
1F
100
AcDbEntity
  8
躯体
  6
JWW_CENTER1
 62
     2
370
     9
100
AcDbLine
 10
450.6804595122466
 20
32.86734503668711
 30
0.0
 11
453.4164016311234
 21
33.09375247439831
 31
0.0
  0
LINE
  5
1F7
330
1F
100
AcDbEntity
  8
躯体
  6
JWW_CENTER1
 62
     2
370
     9
100
AcDbLine
 10
453.4164016311234
 20
33.09375247439831
 30
0.0
 11
455.0049652924409
 21
33.221431422878
 31
0.0
  0
LINE
  5
1F8
330
1F
100
AcDbEntity
  8
躯体
  6
JWW_CENTER1
 62
     2
370
     9
100
AcDbLine
 10
455.0049652924409
 20
33.221431422878
 30
0.0
 11
456.4121555637669
 21
33.32486126873945
 31
0.0
  0
LINE
  5
1F9
330
1F
100
AcDbEntity
  8
躯体
  6
JWW_CENTER1
 62
     2
370
     9
100
AcDbLine
 10
456.4121555637669
 20
33.32486126873945
 30
0.0
 11
458.8368183857688
 21
33.50153330210091
 31
0.0
  0
LINE
  5
1FA
330
1F
100
AcDbEntity
  8
躯体
  6
JWW_CENTER1
 62
     2
370
     9
100
AcDbLine
 10
458.8368183857688
 20
33.50153330210091
 30
0.0
 11
461.2533156936234
 21
33.71284691063138
 31
0.0
  0
LINE
  5
1FB
330
1F
100
AcDbEntity
  8
躯体
  6
JWW_CENTER1
 62
     2
370
     9
100
AcDbLine
 10
461.2533156936234
 20
33.71284691063138
 30
0.0
 11
463.6549666121201
 21
34.00309382258243
 31
0.0
  0
LINE
  5
1FC
330
1F
100
AcDbEntity
  8
躯体
  6
JWW_CENTER1
 62
     2
370
     9
100
AcDbLine
 10
463.6549666121201
 20
34.00309382258243
 30
0.0
 11
465.0379077808279
 21
34.22479990366341
 31
0.0
  0
LINE
  5
1FD
330
1F
100
AcDbEntity
  8
躯体
  6
JWW_CENTER1
 62
     2
370
     9
100
AcDbLine
 10
465.0379077808279
 20
34.22479990366341
 30
0.0
 11
466.1667282516893
 21
34.4415571882918
 31
0.0
  0
LINE
  5
1FE
330
1F
100
AcDbEntity
  8
躯体
  6
JWW_CENTER1
 62
     2
370
     9
100
AcDbLine
 10
466.1667282516893
 20
34.4415571882918
 30
0.0
 11
468.1017076646961
 21
34.88002055400131
 31
0.0
  0
LINE
  5
1FF
330
1F
100
AcDbEntity
  8
躯体
  6
JWW_CENTER1
 62
     2
370
     9
100
AcDbLine
 10
468.1017076646961
 20
34.88002055400131
 30
0.0
 11
470.0272843644427
 21
35.37910667625638
 31
0.0
  0
LINE
  5
200
330
1F
100
AcDbEntity
  8
躯体
  6
JWW_CENTER1
 62
     2
370
     9
100
AcDbLine
 10
470.0272843644427
 20
35.37910667625638
 30
0.0
 11
471.9491494668497
 21
35.91431901261615
 31
0.0
  0
LINE
  5
201
330
1F
100
AcDbEntity
  8
躯体
  6
JWW_CENTER1
 62
     2
370
     9
100
AcDbLine
 10
471.9491494668497
 20
35.91431901261615
 30
0.0
 11
473.0643607474664
 21
36.23128942541172
 31
0.0
  0
LINE
  5
202
330
1F
100
AcDbEntity
  8
躯体
  6
JWW_CENTER1
 62
     2
370
     9
100
AcDbLine
 10
473.0643607474664
 20
36.23128942541172
 30
0.0
 11
474.3060137774495
 21
36.58488093195743
 31
0.0
  0
LINE
  5
203
330
1F
100
AcDbEntity
  8
躯体
  6
JWW_CENTER1
 62
     2
370
     9
100
AcDbLine
 10
474.3060137774495
 20
36.58488093195743
 30
0.0
 11
476.438450168919
 21
37.21609991949961
 31
0.0
  0
LINE
  5
204
330
1F
100
AcDbEntity
  8
躯体
  6
JWW_CENTER1
 62
     2
370
     9
100
AcDbLine
 10
476.438450168919
 20
37.21609991949961
 30
0.0
 11
478.543420740076
 21
37.91091094145912
 31
0.0
  0
LINE
  5
205
330
1F
100
AcDbEntity
  8
躯体
  6
JWW_CENTER1
 62
     2
370
     9
100
AcDbLine
 10
478.543420740076
 20
37.91091094145912
 30
0.0
 11
480.5989033467063
 21
38.71137876768373
 31
0.0
  0
LINE
  5
206
330
1F
100
AcDbEntity
  8
躯体
  6
JWW_CENTER1
 62
     2
370
     9
100
AcDbLine
 10
480.5989033467063
 20
38.71137876768373
 30
0.0
 11
481.7598909945102
 21
39.24114742794558
 31
0.0
  0
LINE
  5
207
330
1F
100
AcDbEntity
  8
躯体
  6
JWW_CENTER1
 62
     2
370
     9
100
AcDbLine
 10
481.7598909945102
 20
39.24114742794558
 30
0.0
 11
482.7310922983531
 21
39.73825403161953
 31
0.0
  0
LINE
  5
208
330
1F
100
AcDbEntity
  8
躯体
  6
JWW_CENTER1
 62
     2
370
     9
100
AcDbLine
 10
482.7310922983531
 20
39.73825403161953
 30
0.0
 11
484.366174646326
 21
40.67827791781042
 31
0.0
  0
LINE
  5
209
330
1F
100
AcDbEntity
  8
躯体
  6
JWW_CENTER1
 62
     2
370
     9
100
AcDbLine
 10
484.366174646326
 20
40.67827791781042
 30
0.0
 11
485.9633987014359
 21
41.69649278795404
 31
0.0
  0
LINE
  5
20A
330
1F
100
AcDbEntity
  8
躯体
  6
JWW_CENTER1
 62
     2
370
     9
100
AcDbLine
 10
485.9633987014359
 20
41.69649278795404
 30
0.0
 11
487.537363413218
 21
42.76295842351146
 31
0.0
  0
LINE
  5
20B
330
1F
100
AcDbEntity
  8
躯体
  6
JWW_CENTER1
 62
     2
370
     9
100
AcDbLine
 10
487.537363413218
 20
42.76295842351146
 30
0.0
 11
488.4457150021115
 21
43.39170301282735
 31
0.0
  0
LINE
  5
20C
330
1F
100
AcDbEntity
  8
躯体
  6
JWW_CENTER1
 62
     2
370
     9
100
AcDbLine
 10
401.7353779560813
 20
61.13462293470235
 30
0.0
 11
402.2062559385557
 21
60.71150083799623
 31
0.0
  0
LINE
  5
20D
330
1F
100
AcDbEntity
  8
躯体
  6
JWW_CENTER1
 62
     2
370
     9
100
AcDbLine
 10
402.2062559385557
 20
60.71150083799623
 30
0.0
 11
403.0181059966216
 21
59.98180080104518
 31
0.0
  0
LINE
  5
20E
330
1F
100
AcDbEntity
  8
躯体
  6
JWW_CENTER1
 62
     2
370
     9
100
AcDbLine
 10
403.0181059966216
 20
59.98180080104518
 30
0.0
 11
403.8299560546875
 21
59.25135844462631
 31
0.0
  0
LINE
  5
20F
330
1F
100
AcDbEntity
  8
躯体
  6
JWW_CENTER1
 62
     2
370
     9
100
AcDbLine
 10
403.8299560546875
 20
59.25135844462631
 30
0.0
 11
404.6415586729307
 21
58.51918400944896
 31
0.0
  0
LINE
  5
210
330
1F
100
AcDbEntity
  8
躯体
  6
JWW_CENTER1
 62
     2
370
     9
100
AcDbLine
 10
404.6415586729307
 20
58.51918400944896
 30
0.0
 11
405.1119417757602
 21
58.09358751451654
 31
0.0
  0
LINE
  5
211
330
1F
100
AcDbEntity
  8
躯体
  6
JWW_CENTER1
 62
     2
370
     9
100
AcDbLine
 10
405.1119417757602
 20
58.09358751451654
 30
0.0
 11
405.3823935019005
 21
57.849116969753
 31
0.0
  0
LINE
  5
212
330
1F
100
AcDbEntity
  8
躯体
  6
JWW_CENTER1
 62
     2
370
     9
100
AcDbLine
 10
405.3823935019005
 20
57.849116969753
 30
0.0
 11
405.8498073268581
 21
57.43020135003178
 31
0.0
  0
LINE
  5
213
330
1F
100
AcDbEntity
  8
躯体
  6
JWW_CENTER1
 62
     2
370
     9
100
AcDbLine
 10
405.8498073268581
 20
57.43020135003178
 30
0.0
 11
406.3229122677365
 21
57.01870892498945
 31
0.0
  0
LINE
  5
214
330
1F
100
AcDbEntity
  8
躯体
  6
JWW_CENTER1
 62
     2
370
     9
100
AcDbLine
 10
406.3229122677365
 20
57.01870892498945
 30
0.0
 11
406.8056673616977
 21
56.62008337072422
 31
0.0
  0
LINE
  5
215
330
1F
100
AcDbEntity
  8
躯体
  6
JWW_CENTER1
 62
     2
370
     9
100
AcDbLine
 10
406.8056673616977
 20
56.62008337072422
 30
0.0
 11
407.0917077966638
 21
56.39689265070743
 31
0.0
  0
LINE
  5
216
330
1F
100
AcDbEntity
  8
躯体
  6
JWW_CENTER1
 62
     2
370
     9
100
AcDbLine
 10
407.0917077966638
 20
56.39689265070743
 30
0.0
 11
407.6113314241977
 21
56.01682508313985
 31
0.0
  0
LINE
  5
217
330
1F
100
AcDbEntity
  8
躯体
  6
JWW_CENTER1
 62
     2
370
     9
100
AcDbLine
 10
407.6113314241977
 20
56.01682508313985
 30
0.0
 11
408.5394781989021
 21
55.40589616105365
 31
0.0
  0
LINE
  5
218
330
1F
100
AcDbEntity
  8
躯体
  6
JWW_CENTER1
 62
     2
370
     9
100
AcDbLine
 10
408.5394781989021
 20
55.40589616105365
 30
0.0
 11
409.4980600717906
 21
54.83826920792865
 31
0.0
  0
LINE
  5
219
330
1F
100
AcDbEntity
  8
躯体
  6
JWW_CENTER1
 62
     2
370
     9
100
AcDbLine
 10
409.4980600717906
 20
54.83826920792865
 30
0.0
 11
410.4776743296031
 21
54.29885039458412
 31
0.0
  0
LINE
  5
21A
330
1F
100
AcDbEntity
  8
躯体
  6
JWW_CENTER1
 62
     2
370
     9
100
AcDbLine
 10
410.4776743296031
 20
54.29885039458412
 30
0.0
 11
411.0504975190034
 21
53.99326221362969
 31
0.0
  0
LINE
  5
21B
330
1F
100
AcDbEntity
  8
躯体
  6
JWW_CENTER1
 62
     2
370
     9
100
AcDbLine
 10
411.0504975190034
 20
53.99326221362969
 30
0.0
 11
411.5134574271539
 21
53.74903910868881
 31
0.0
  0
LINE
  5
21C
330
1F
100
AcDbEntity
  8
躯体
  6
JWW_CENTER1
 62
     2
370
     9
100
AcDbLine
 10
411.5134574271539
 20
53.74903910868881
 30
0.0
 11
412.3163996516047
 21
53.33878388275977
 31
0.0
  0
LINE
  5
21D
330
1F
100
AcDbEntity
  8
躯体
  6
JWW_CENTER1
 62
     2
370
     9
100
AcDbLine
 10
412.3163996516047
 20
53.33878388275977
 30
0.0
 11
413.1289920291385
 21
52.9550047178526
 31
0.0
  0
LINE
  5
21E
330
1F
100
AcDbEntity
  8
躯体
  6
JWW_CENTER1
 62
     2
370
     9
100
AcDbLine
 10
413.1289920291385
 20
52.9550047178526
 30
0.0
 11
413.9559359163852
 21
52.61205312368034
 31
0.0
  0
LINE
  5
21F
330
1F
100
AcDbEntity
  8
躯体
  6
JWW_CENTER1
 62
     2
370
     9
100
AcDbLine
 10
413.9559359163852
 20
52.61205312368034
 30
0.0
 11
414.4438872466216
 21
52.43785548854518
 31
0.0
  0
LINE
  5
220
330
1F
100
AcDbEntity
  8
躯体
  6
JWW_CENTER1
 62
     2
370
     9
100
AcDbLine
 10
414.4438872466216
 20
52.43785548854518
 30
0.0
 11
414.8486987964529
 21
52.31067141971081
 31
0.0
  0
LINE
  5
221
330
1F
100
AcDbEntity
  8
躯体
  6
JWW_CENTER1
 62
     2
370
     9
100
AcDbLine
 10
414.8486987964529
 20
52.31067141971081
 30
0.0
 11
415.555881809544
 21
52.11989531645912
 31
0.0
  0
LINE
  5
222
330
1F
100
AcDbEntity
  8
躯体
  6
JWW_CENTER1
 62
     2
370
     9
100
AcDbLine
 10
415.555881809544
 20
52.11989531645912
 30
0.0
 11
416.2717252164273
 21
51.95658503351993
 31
0.0
  0
LINE
  5
223
330
1F
100
AcDbEntity
  8
躯体
  6
JWW_CENTER1
 62
     2
370
     9
100
AcDbLine
 10
416.2717252164273
 20
51.95658503351993
 30
0.0
 11
416.9935071790542
 21
51.81084297798776
 31
0.0
  0
LINE
  5
224
330
1F
100
AcDbEntity
  8
躯体
  6
JWW_CENTER1
 62
     2
370
     9
100
AcDbLine
 10
416.9935071790542
 20
51.81084297798776
 30
0.0
 11
417.4131651182432
 21
51.7309199152767
 31
0.0
  0
LINE
  5
225
330
1F
100
AcDbEntity
  8
躯体
  6
JWW_CENTER1
 62
     2
370
     9
100
AcDbLine
 10
417.4131651182432
 20
51.7309199152767
 30
0.0
 11
418.1302457242398
 21
51.5960652119405
 31
0.0
  0
LINE
  5
226
330
1F
100
AcDbEntity
  8
躯体
  6
JWW_CENTER1
 62
     2
370
     9
100
AcDbLine
 10
418.1302457242398
 20
51.5960652119405
 30
0.0
 11
419.3634858002534
 21
51.35852298221081
 31
0.0
  0
LINE
  5
227
330
1F
100
AcDbEntity
  8
躯体
  6
JWW_CENTER1
 62
     2
370
     9
100
AcDbLine
 10
419.3634858002534
 20
51.35852298221081
 30
0.0
 11
420.5897975612331
 21
51.09895860826654
 31
0.0
  0
LINE
  5
228
330
1F
100
AcDbEntity
  8
躯体
  6
JWW_CENTER1
 62
     2
370
     9
100
AcDbLine
 10
420.5897975612331
 20
51.09895860826654
 30
0.0
 11
421.8049745301943
 21
50.79930898305534
 31
0.0
  0
LINE
  5
229
330
1F
100
AcDbEntity
  8
躯体
  6
JWW_CENTER1
 62
     2
370
     9
100
AcDbLine
 10
421.8049745301943
 20
50.79930898305534
 30
0.0
 11
422.5032497096706
 21
50.59987248601146
 31
0.0
  0
LINE
  5
22A
330
1F
100
AcDbEntity
  8
躯体
  6
JWW_CENTER1
 62
     2
370
     9
100
AcDbLine
 10
422.5032497096706
 20
50.59987248601146
 30
0.0
 11
422.7002118084883
 21
50.53924972946589
 31
0.0
  0
LINE
  5
22B
330
1F
100
AcDbEntity
  8
躯体
  6
JWW_CENTER1
 62
     2
370
     9
100
AcDbLine
 10
422.7002118084883
 20
50.53924972946589
 30
0.0
 11
423.0387094858531
 21
50.43309804555534
 31
0.0
  0
LINE
  5
22C
330
1F
100
AcDbEntity
  8
躯体
  6
JWW_CENTER1
 62
     2
370
     9
100
AcDbLine
 10
423.0387094858531
 20
50.43309804555534
 30
0.0
 11
423.3779494826859
 21
50.32818356075808
 31
0.0
  0
LINE
  5
22D
330
1F
100
AcDbEntity
  8
躯体
  6
JWW_CENTER1
 62
     2
370
     9
100
AcDbLine
 10
423.3779494826859
 20
50.32818356075808
 30
0.0
 11
423.7186741184544
 21
50.22896019188138
 31
0.0
  0
LINE
  5
22E
330
1F
100
AcDbEntity
  8
躯体
  6
JWW_CENTER1
 62
     2
370
     9
100
AcDbLine
 10
423.7186741184544
 20
50.22896019188138
 30
0.0
 11
423.9173682960305
 21
50.17551319019219
 31
0.0
  0
LINE
  5
22F
330
1F
100
AcDbEntity
  8
躯体
  6
JWW_CENTER1
 62
     2
370
     9
100
AcDbLine
 10
423.9173682960305
 20
50.17551319019219
 30
0.0
 11
424.1123508762669
 21
50.12726242477839
 31
0.0
  0
LINE
  5
230
330
1F
100
AcDbEntity
  8
躯体
  6
JWW_CENTER1
 62
     2
370
     9
100
AcDbLine
 10
424.1123508762669
 20
50.12726242477839
 30
0.0
 11
424.4506011138091
 21
50.05228815851993
 31
0.0
  0
LINE
  5
231
330
1F
100
AcDbEntity
  8
躯体
  6
JWW_CENTER1
 62
     2
370
     9
100
AcDbLine
 10
424.4506011138091
 20
50.05228815851993
 30
0.0
 11
424.7910783097552
 21
49.98572684623099
 31
0.0
  0
LINE
  5
232
330
1F
100
AcDbEntity
  8
躯体
  6
JWW_CENTER1
 62
     2
370
     9
100
AcDbLine
 10
424.7910783097552
 20
49.98572684623099
 30
0.0
 11
425.1327927048143
 21
49.92559896933074
 31
0.0
  0
LINE
  5
233
330
1F
100
AcDbEntity
  8
躯体
  6
JWW_CENTER1
 62
     2
370
     9
100
AcDbLine
 10
425.1327927048143
 20
49.92559896933074
 30
0.0
 11
425.3312394425677
 21
49.89268947292018
 31
0.0
  0
LINE
  5
234
330
1F
100
AcDbEntity
  8
躯体
  6
JWW_CENTER1
 62
     2
370
     9
100
AcDbLine
 10
425.3312394425677
 20
49.89268947292018
 30
0.0
 11
425.8879790434966
 21
49.80682785446589
 31
0.0
  0
LINE
  5
235
330
1F
100
AcDbEntity
  8
躯体
  6
JWW_CENTER1
 62
     2
370
     9
100
AcDbLine
 10
425.8879790434966
 20
49.80682785446589
 30
0.0
 11
426.8500250739021
 21
49.67494242900131
 31
0.0
  0
LINE
  5
236
330
1F
100
AcDbEntity
  8
躯体
  6
JWW_CENTER1
 62
     2
370
     9
100
AcDbLine
 10
426.8500250739021
 20
49.67494242900131
 30
0.0
 11
427.8135557432432
 21
49.55864571236276
 31
0.0
  0
LINE
  5
237
330
1F
100
AcDbEntity
  8
躯体
  6
JWW_CENTER1
 62
     2
370
     9
100
AcDbLine
 10
427.8135557432432
 20
49.55864571236276
 30
0.0
 11
428.778818491343
 21
49.45199914880703
 31
0.0
  0
LINE
  5
238
330
1F
100
AcDbEntity
  8
躯体
  6
JWW_CENTER1
 62
     2
370
     9
100
AcDbLine
 10
428.778818491343
 20
49.45199914880703
 30
0.0
 11
429.3387748099664
 21
49.39187127190678
 31
0.0
  0
ARC
  5
239
330
1F
100
AcDbEntity
  8
躯体
  6
Continuous
 62
     2
370
     9
100
AcDbCircle
 10
365.3315363703547
 20
-257.6081703804635
 30
0.0
 40
3.999999809909511
100
AcDbArc
 50
90.0
 51
180.0
  0
ARC
  5
23A
330
1F
100
AcDbEntity
  8
躯体
  6
Continuous
 62
     2
370
     9
100
AcDbCircle
 10
359.3316155510979
 20
-288.608173679661
 30
0.0
 40
1.999999904954756
100
AcDbArc
 50
270.0
 51
0.0
  0
ARC
  5
23B
330
1F
100
AcDbEntity
  8
躯体
  6
Continuous
 62
     2
370
     9
100
AcDbCircle
 10
365.3315363703547
 20
356.3920057142104
 30
0.0
 40
3.999999809909511
100
AcDbArc
 50
180.0
 51
270.0
  0
ARC
  5
23C
330
1F
100
AcDbEntity
  8
躯体
  6
Continuous
 62
     2
370
     9
100
AcDbCircle
 10
359.3316155510979
 20
387.3917615735854
 30
0.0
 40
1.999999904954756
100
AcDbArc
 50
0.0
 51
90.0
  0
ARC
  5
23D
330
1F
100
AcDbEntity
  8
躯体
  6
Continuous
 62
     2
370
     9
100
AcDbCircle
 10
396.3315396695523
 20
350.391837455131
 30
0.0
 40
1.999999904954756
100
AcDbArc
 50
0.0
 51
90.0
  0
ARC
  5
23E
330
1F
100
AcDbEntity
  8
躯体
  6
JWW_CENTER1
 62
     2
370
     9
100
AcDbCircle
 10
592.3861529376057
 20
19.39201973580026
 30
0.0
 40
29.99999845350111
100
AcDbArc
 50
0.0
 51
90.0
  0
ARC
  5
23F
330
1F
100
AcDbEntity
  8
躯体
  6
Continuous
 62
     2
370
     9
100
AcDbCircle
 10
396.3315396695523
 20
-251.6081258412954
 30
0.0
 40
1.999999904954756
100
AcDbArc
 50
270.0
 51
0.0
  0
ARC
  5
240
330
1F
100
AcDbEntity
  8
通り芯
  6
Continuous
 62
     3
370
     9
100
AcDbCircle
 10
353.7315574852198
 20
-370.1081703804635
 30
0.0
 40
3.000000038662472
100
AcDbArc
 50
180.0
 51
270.0
  0
ARC
  5
241
330
1F
100
AcDbEntity
  8
通り芯
  6
Continuous
 62
     3
370
     9
100
AcDbCircle
 10
353.7315574852198
 20
468.8920057142104
 30
0.0
 40
3.000000038662472
100
AcDbArc
 50
90.0
 51
180.0
  0
ARC
  5
242
330
1F
100
AcDbEntity
  8
躯体
  6
Continuous
 62
     2
370
     9
100
AcDbCircle
 10
536.1954147751269
 20
49.39187127190678
 30
0.0
 40
3.000013570527773
100
AcDbArc
 50
270.0
 51
318.1883544921875
  0
ARC
  5
243
330
1F
100
AcDbEntity
  8
躯体
  6
Continuous
 62
     2
370
     9
100
AcDbCircle
 10
536.1954147751269
 20
49.39187127190678
 30
0.0
 40
3.000013570527773
100
AcDbArc
 50
41.8116455078125
 51
90.0
  0
ARC
  5
244
330
1F
100
AcDbEntity
  8
躯体
  6
Continuous
 62
     2
370
     9
100
AcDbCircle
 10
536.1954147751269
 20
49.39187127190678
 30
0.0
 40
7.000006856145085
100
AcDbArc
 50
270.0
 51
343.3980560302734
  0
ARC
  5
245
330
1F
100
AcDbEntity
  8
躯体
  6
Continuous
 62
     2
370
     9
100
AcDbCircle
 10
536.1954147751269
 20
49.39187127190678
 30
0.0
 40
7.000006856145085
100
AcDbArc
 50
16.60194396972656
 51
90.0
  0
ARC
  5
246
330
1F
100
AcDbEntity
  8
躯体
  6
Continuous
 62
     2
370
     9
100
AcDbCircle
 10
513.1958832611908
 20
49.39187127190678
 30
0.0
 40
7.000006856145085
100
AcDbArc
 50
90.0
 51
163.3980560302734
  0
ARC
  5
247
330
1F
100
AcDbEntity
  8
躯体
  6
Continuous
 62
     2
370
     9
100
AcDbCircle
 10
513.1958832611908
 20
49.39187127190678
 30
0.0
 40
7.000006856145085
100
AcDbArc
 50
196.6019287109375
 51
270.0
  0
ARC
  5
248
330
1F
100
AcDbEntity
  8
躯体
  6
Continuous
 62
     2
370
     9
100
AcDbCircle
 10
513.1958832611908
 20
49.39187127190678
 30
0.0
 40
3.000013570527773
100
AcDbArc
 50
90.0
 51
138.1883544921875
  0
ARC
  5
249
330
1F
100
AcDbEntity
  8
躯体
  6
Continuous
 62
     2
370
     9
100
AcDbCircle
 10
513.1958832611908
 20
49.39187127190678
 30
0.0
 40
3.000013570527773
100
AcDbArc
 50
221.8116455078125
 51
270.0
  0
ARC
  5
24A
330
1F
100
AcDbEntity
  8
躯体
  6
Continuous
 62
     2
370
     9
100
AcDbCircle
 10
512.1957314980998
 20
49.39187127190678
 30
0.0
 40
1.999999904954756
100
AcDbArc
 50
270.0
 51
90.0
  0
ARC
  5
24B
330
1F
100
AcDbEntity
  8
躯体
  6
Continuous
 62
     2
370
     9
100
AcDbCircle
 10
476.1954642630914
 20
49.39187127190678
 30
0.0
 40
1.999999904954756
100
AcDbArc
 50
90.0
 51
270.0
  0
ARC
  5
24C
330
1F
100
AcDbEntity
  8
躯体
  6
Continuous
 62
     2
370
     9
100
AcDbCircle
 10
537.1958139780406
 20
49.39187127190678
 30
0.0
 40
1.999999904954756
100
AcDbArc
 50
90.0
 51
270.0
  0
ARC
  5
24D
330
1F
100
AcDbEntity
  8
躯体
  6
Continuous
 62
     2
370
     9
100
AcDbCircle
 10
403.8314406936234
 20
-233.1081637820682
 30
0.0
 40
7.000006856145085
100
AcDbArc
 50
270.0
 51
343.3980560302734
  0
ARC
  5
24E
330
1F
100
AcDbEntity
  8
躯体
  6
Continuous
 62
     2
370
     9
100
AcDbCircle
 10
403.8314406936234
 20
-233.1081637820682
 30
0.0
 40
7.000006856145085
100
AcDbArc
 50
16.60194396972656
 51
90.0
  0
ARC
  5
24F
330
1F
100
AcDbEntity
  8
躯体
  6
Continuous
 62
     2
370
     9
100
AcDbCircle
 10
403.8314406936234
 20
-233.1081637820682
 30
0.0
 40
3.000013570527773
100
AcDbArc
 50
270.0
 51
318.1883544921875
  0
ARC
  5
250
330
1F
100
AcDbEntity
  8
躯体
  6
Continuous
 62
     2
370
     9
100
AcDbCircle
 10
403.8314406936234
 20
-233.1081637820682
 30
0.0
 40
3.000013570527773
100
AcDbArc
 50
41.8116455078125
 51
90.0
  0
ARC
  5
251
330
1F
100
AcDbEntity
  8
躯体
  6
Continuous
 62
     2
370
     9
100
AcDbCircle
 10
404.8315924567146
 20
-233.1081637820682
 30
0.0
 40
1.999999904954756
100
AcDbArc
 50
90.0
 51
270.0
  0
ARC
  5
252
330
1F
100
AcDbEntity
  8
躯体
  6
Continuous
 62
     2
370
     9
100
AcDbCircle
 10
431.5397520323057
 20
-233.1081637820682
 30
0.0
 40
1.999999904954756
100
AcDbArc
 50
270.0
 51
90.0
  0
ARC
  5
253
330
1F
100
AcDbEntity
  8
躯体
  6
Continuous
 62
     2
370
     9
100
AcDbCircle
 10
432.5396563555745
 20
-233.1081637820682
 30
0.0
 40
3.000013570527773
100
AcDbArc
 50
90.0
 51
138.1883544921875
  0
ARC
  5
254
330
1F
100
AcDbEntity
  8
躯体
  6
Continuous
 62
     2
370
     9
100
AcDbCircle
 10
432.5396563555745
 20
-233.1081637820682
 30
0.0
 40
3.000013570527773
100
AcDbArc
 50
221.8116455078125
 51
270.0
  0
ARC
  5
255
330
1F
100
AcDbEntity
  8
躯体
  6
Continuous
 62
     2
370
     9
100
AcDbCircle
 10
432.5396563555745
 20
-233.1081637820682
 30
0.0
 40
7.000006856145085
100
AcDbArc
 50
90.0
 51
163.3980560302734
  0
ARC
  5
256
330
1F
100
AcDbEntity
  8
躯体
  6
Continuous
 62
     2
370
     9
100
AcDbCircle
 10
432.5396563555745
 20
-233.1081637820682
 30
0.0
 40
7.000006856145085
100
AcDbArc
 50
196.6019287109375
 51
270.0
  0
ARC
  5
257
330
1F
100
AcDbEntity
  8
躯体
  6
Continuous
 62
     2
370
     9
100
AcDbCircle
 10
455.5399301889781
 20
-233.1081637820682
 30
0.0
 40
7.000006856145085
100
AcDbArc
 50
270.0
 51
343.3980560302734
  0
ARC
  5
258
330
1F
100
AcDbEntity
  8
躯体
  6
Continuous
 62
     2
370
     9
100
AcDbCircle
 10
455.5399301889781
 20
-233.1081637820682
 30
0.0
 40
7.000006856145085
100
AcDbArc
 50
16.60194396972656
 51
90.0
  0
ARC
  5
259
330
1F
100
AcDbEntity
  8
躯体
  6
Continuous
 62
     2
370
     9
100
AcDbCircle
 10
455.5399301889781
 20
-233.1081637820682
 30
0.0
 40
3.000013570527773
100
AcDbArc
 50
270.0
 51
318.1883544921875
  0
ARC
  5
25A
330
1F
100
AcDbEntity
  8
躯体
  6
Continuous
 62
     2
370
     9
100
AcDbCircle
 10
455.5399301889781
 20
-233.1081637820682
 30
0.0
 40
3.000013570527773
100
AcDbArc
 50
41.8116455078125
 51
90.0
  0
ARC
  5
25B
330
1F
100
AcDbEntity
  8
躯体
  6
Continuous
 62
     2
370
     9
100
AcDbCircle
 10
456.5398345122466
 20
-233.1081637820682
 30
0.0
 40
1.999999904954756
100
AcDbArc
 50
90.0
 51
270.0
  0
ARC
  5
25C
330
1F
100
AcDbEntity
  8
躯体
  6
Continuous
 62
     2
370
     9
100
AcDbCircle
 10
416.8316815350508
 20
-34.10818151525547
 30
0.0
 40
6.499980269251643
100
AcDbArc
 50
180.0
 51
0.0
  0
ARC
  5
25D
330
1F
100
AcDbEntity
  8
躯体
  6
Continuous
 62
     2
370
     9
100
AcDbCircle
 10
416.8316815350508
 20
132.8919240590689
 30
0.0
 40
6.499980269251643
100
AcDbArc
 50
0.0
 51
180.0
  0
ARC
  5
25E
330
1F
100
AcDbEntity
  8
躯体
  6
Continuous
 62
     2
370
     9
100
AcDbCircle
 10
357.3318069045609
 20
383.3918968406884
 30
0.0
 40
4.99999958115655
100
AcDbArc
 50
90.0
 51
180.0
  0
ARC
  5
25F
330
1F
100
AcDbEntity
  8
躯体
  6
Continuous
 62
     2
370
     9
100
AcDbCircle
 10
357.3318069045609
 20
358.3918143607475
 30
0.0
 40
4.99999958115655
100
AcDbArc
 50
180.0
 51
270.0
  0
ARC
  5
260
330
1F
100
AcDbEntity
  8
躯体
  6
Continuous
 62
     2
370
     9
100
AcDbCircle
 10
361.5313555743245
 20
383.3916494008657
 30
0.0
 40
3.000000038662472
100
AcDbArc
 50
0.0
 51
90.0
  0
ARC
  5
261
330
1F
100
AcDbEntity
  8
躯体
  6
Continuous
 62
     2
370
     9
100
AcDbCircle
 10
361.5313555743245
 20
358.3918143607475
 30
0.0
 40
3.000000038662472
100
AcDbArc
 50
270.0
 51
0.0
  0
CIRCLE
  5
262
330
1F
100
AcDbEntity
  8
躯体
  6
Continuous
 62
     2
370
     9
100
AcDbCircle
 10
384.3316980310388
 20
335.2920697186445
 30
0.0
 40
10.50000158516136
  0
CIRCLE
  5
263
330
1F
100
AcDbEntity
  8
躯体
  6
Continuous
 62
     2
370
     9
100
AcDbCircle
 10
384.3316980310388
 20
335.2920697186445
 30
0.0
 40
7.999999619819023
  0
CIRCLE
  5
264
330
1F
100
AcDbEntity
  8
通り芯
  6
Continuous
 62
     3
370
     9
100
AcDbCircle
 10
357.7316696579393
 20
326.9261293153505
 30
0.0
 40
3.999999809909511
  0
ARC
  5
265
330
1F
100
AcDbEntity
  8
通り芯
  6
Continuous
 62
     3
370
     9
100
AcDbCircle
 10
353.7313100453972
 20
468.8920057142104
 30
0.0
 40
1.500000019331236
100
AcDbArc
 50
90.0
 51
180.0
  0
ARC
  5
266
330
1F
100
AcDbEntity
  8
通り芯
  6
Continuous
 62
     3
370
     9
100
AcDbCircle
 10
358.3317112278294
 20
-352.1081604828706
 30
0.0
 40
6.000000077324945
100
AcDbArc
 50
180.0
 51
270.0
  0
ARC
  5
267
330
1F
100
AcDbEntity
  8
通り芯
  6
Continuous
 62
     3
370
     9
100
AcDbCircle
 10
357.7316696579393
 20
326.9261293153505
 30
0.0
 40
1.999999904954756
100
AcDbArc
 50
160.1545257568359
 51
160.1542205810547
  0
ARC
  5
268
330
1F
100
AcDbEntity
  8
通り芯
  6
Continuous
 62
     3
370
     9
100
AcDbCircle
 10
353.7313100453972
 20
-370.1081703804635
 30
0.0
 40
1.500000019331236
100
AcDbArc
 50
180.0
 51
270.0
  0
ARC
  5
269
330
1F
100
AcDbEntity
  8
躯体
  6
Continuous
 62
     2
370
     9
100
AcDbCircle
 10
499.0596461940456
 20
51.18482022672097
 30
0.0
 40
4.209254400150196
100
AcDbArc
 50
88.14840698242188
 51
116.2836456298828
  0
ARC
  5
26A
330
1F
100
AcDbEntity
  8
躯体
  6
Continuous
 62
     2
370
     9
100
AcDbCircle
 10
494.1954741606841
 20
44.78256225585938
 30
0.0
 40
10.60943667953079
100
AcDbArc
 50
73.57440185546875
 51
106.4255981445312
  0
ARC
  5
26B
330
1F
100
AcDbEntity
  8
躯体
  6
Continuous
 62
     2
370
     9
100
AcDbCircle
 10
489.3315495671453
 20
51.18482022672097
 30
0.0
 40
4.209254400150196
100
AcDbArc
 50
63.71635437011719
 51
91.85159301757814
  0
ARC
  5
26C
330
1F
100
AcDbEntity
  8
躯体
  6
Continuous
 62
     2
370
     9
100
AcDbCircle
 10
488.6953817831505
 20
45.39175909918711
 30
0.0
 40
1.999999904954756
100
AcDbArc
 50
90.0
 51
270.0
  0
ARC
  5
26D
330
1F
100
AcDbEntity
  8
躯体
  6
Continuous
 62
     2
370
     9
100
AcDbCircle
 10
499.695566538218
 20
45.39175909918711
 30
0.0
 40
1.999999904954756
100
AcDbArc
 50
270.0
 51
90.0
  0
ARC
  5
26E
330
1F
100
AcDbEntity
  8
躯体
  6
Continuous
 62
     2
370
     9
100
AcDbCircle
 10
452.1955335462417
 20
49.39187127190678
 30
0.0
 40
3.000013570527773
100
AcDbArc
 50
221.8116455078125
 51
270.0
  0
ARC
  5
26F
330
1F
100
AcDbEntity
  8
躯体
  6
Continuous
 62
     2
370
     9
100
AcDbCircle
 10
452.1955335462417
 20
49.39187127190678
 30
0.0
 40
3.000013570527773
100
AcDbArc
 50
90.0
 51
138.1883544921875
  0
ARC
  5
270
330
1F
100
AcDbEntity
  8
躯体
  6
Continuous
 62
     2
370
     9
100
AcDbCircle
 10
452.1955335462417
 20
49.39187127190678
 30
0.0
 40
7.000006856145085
100
AcDbArc
 50
196.6019287109375
 51
270.0
  0
ARC
  5
271
330
1F
100
AcDbEntity
  8
躯体
  6
Continuous
 62
     2
370
     9
100
AcDbCircle
 10
452.1955335462417
 20
49.39187127190678
 30
0.0
 40
7.000006856145085
100
AcDbArc
 50
90.0
 51
163.3980560302734
  0
ARC
  5
272
330
1F
100
AcDbEntity
  8
躯体
  6
Continuous
 62
     2
370
     9
100
AcDbCircle
 10
475.1953125
 20
49.39187127190678
 30
0.0
 40
7.000006856145085
100
AcDbArc
 50
16.60194396972656
 51
90.0
  0
ARC
  5
273
330
1F
100
AcDbEntity
  8
躯体
  6
Continuous
 62
     2
370
     9
100
AcDbCircle
 10
475.1953125
 20
49.39187127190678
 30
0.0
 40
7.000006856145085
100
AcDbArc
 50
270.0
 51
343.3980560302734
  0
ARC
  5
274
330
1F
100
AcDbEntity
  8
躯体
  6
Continuous
 62
     2
370
     9
100
AcDbCircle
 10
475.1953125
 20
49.39187127190678
 30
0.0
 40
3.000013570527773
100
AcDbArc
 50
41.8116455078125
 51
90.0
  0
ARC
  5
275
330
1F
100
AcDbEntity
  8
躯体
  6
Continuous
 62
     2
370
     9
100
AcDbCircle
 10
475.1953125
 20
49.39187127190678
 30
0.0
 40
3.000013570527773
100
AcDbArc
 50
270.0
 51
318.1883544921875
  0
ARC
  5
276
330
1F
100
AcDbEntity
  8
躯体
  6
Continuous
 62
     2
370
     9
100
AcDbCircle
 10
451.1956292229732
 20
49.39187127190678
 30
0.0
 40
1.999999904954756
100
AcDbArc
 50
270.0
 51
90.0
  0
ARC
  5
277
330
1F
100
AcDbEntity
  8
躯体
  6
Continuous
 62
     2
370
     9
100
AcDbCircle
 10
499.0596461940456
 20
43.59881014437292
 30
0.0
 40
4.209254400150196
100
AcDbArc
 50
243.7163391113281
 51
271.8515930175781
  0
ARC
  5
278
330
1F
100
AcDbEntity
  8
躯体
  6
Continuous
 62
     2
370
     9
100
AcDbCircle
 10
494.1954741606841
 20
50.00106811523438
 30
0.0
 40
10.60943667953079
100
AcDbArc
 50
253.5744018554688
 51
286.4255981445312
  0
ARC
  5
279
330
1F
100
AcDbEntity
  8
躯体
  6
Continuous
 62
     2
370
     9
100
AcDbCircle
 10
489.3315495671453
 20
43.59881014437292
 30
0.0
 40
4.209254400150196
100
AcDbArc
 50
268.1484069824219
 51
296.2836456298828
  0
ARC
  5
27A
330
1F
100
AcDbEntity
  8
通り芯
  6
Continuous
 62
     3
370
     9
100
AcDbCircle
 10
353.8315231735643
 20
19.89184817752331
 30
0.0
 40
29.99999845350111
100
AcDbArc
 50
270.0
 51
0.0
  0
ARC
  5
27B
330
1F
100
AcDbEntity
  8
通り芯
  6
Continuous
 62
     3
370
     9
100
AcDbCircle
 10
353.8315231735643
 20
78.8629439070418
 30
0.0
 40
29.99999845350111
100
AcDbArc
 50
0.0
 51
90.0
  0
ARC
  5
27C
330
1F
100
AcDbEntity
  8
通り芯
  6
Continuous
 62
     3
370
     9
100
AcDbCircle
 10
353.8315231735643
 20
19.89184817752331
 30
0.0
 40
33.000001391849
100
AcDbArc
 50
275.1944580078125
 51
0.0000000000000127
  0
ARC
  5
27D
330
1F
100
AcDbEntity
  8
通り芯
  6
Continuous
 62
     3
370
     9
100
AcDbCircle
 10
353.8315231735643
 20
78.87061454154349
 30
0.0
 40
33.000001391849
100
AcDbArc
 50
0.0
 51
84.8055419921875
  0
ARC
  5
27E
330
1F
100
AcDbEntity
  8
通り芯
  6
Continuous
 62
     3
370
     9
100
AcDbCircle
 10
357.7314222181167
 20
343.7921225058067
 30
0.0
 40
1.999999904954756
100
AcDbArc
 50
90.0
 51
180.0
  0
ARC
  5
27F
330
1F
100
AcDbEntity
  8
通り芯
  6
Continuous
 62
     3
370
     9
100
AcDbCircle
 10
357.7316696579393
 20
343.791875065984
 30
0.0
 40
3.999999809909511
100
AcDbArc
 50
90.0
 51
180.0
  0
ARC
  5
280
330
1F
100
AcDbEntity
  8
躯体
  6
Continuous
 62
     2
370
     9
100
AcDbCircle
 10
403.3318596917232
 20
400.3920024150128
 30
0.0
 40
8.99999914942561
100
AcDbArc
 50
323.1302947998047
 51
0.0
  0
ARC
  5
281
330
1F
100
AcDbEntity
  8
躯体
  6
Continuous
 62
     2
370
     9
100
AcDbCircle
 10
380.8319091796875
 20
370.3919034390838
 30
0.0
 40
8.99999914942561
100
AcDbArc
 50
270.0
 51
323.130859375
  0
ARC
  5
282
330
1F
100
AcDbEntity
  8
躯体
  6
Continuous
 62
     2
370
     9
100
AcDbCircle
 10
403.3318596917232
 20
399.8659453520905
 30
0.0
 40
17.99999829885122
100
AcDbArc
 50
321.9770812988281
 51
0.0000000000000064
  0
ARC
  5
283
330
1F
100
AcDbEntity
  8
躯体
  6
Continuous
 62
     2
370
     9
100
AcDbCircle
 10
403.3318596917232
 20
-301.0822337382548
 30
0.0
 40
17.99999829885122
100
AcDbArc
 50
0.0
 51
38.02310180664062
  0
ARC
  5
284
330
1F
100
AcDbEntity
  8
躯体
  6
Continuous
 62
     2
370
     9
100
AcDbCircle
 10
380.8319091796875
 20
-271.6080681053368
 30
0.0
 40
8.99999914942561
100
AcDbArc
 50
36.86970520019531
 51
90.0
  0
ARC
  5
285
330
1F
100
AcDbEntity
  8
躯体
  6
Continuous
 62
     2
370
     9
100
AcDbCircle
 10
403.3318596917232
 20
-301.6081670812658
 30
0.0
 40
8.99999914942561
100
AcDbArc
 50
0.0
 51
36.87008666992188
  0
CIRCLE
  5
286
330
1F
100
AcDbEntity
  8
躯体
  6
Continuous
 62
     2
370
     9
100
AcDbCircle
 10
378.331282332137
 20
-233.1081637820682
 30
0.0
 40
4.99999958115655
  0
ARC
  5
287
330
1F
100
AcDbEntity
  8
躯体
  6
Continuous
 62
     2
370
     9
100
AcDbCircle
 10
380.8319091796875
 20
-233.1081637820682
 30
0.0
 40
7.000006856145085
100
AcDbArc
 50
90.0
 51
134.4158477783203
  0
ARC
  5
288
330
1F
100
AcDbEntity
  8
躯体
  6
Continuous
 62
     2
370
     9
100
AcDbCircle
 10
380.8319091796875
 20
-233.1081637820682
 30
0.0
 40
7.000006856145085
100
AcDbArc
 50
225.5841522216797
 51
272.899658203125
  0
ARC
  5
289
330
1F
100
AcDbEntity
  8
躯体
  6
Continuous
 62
     2
370
     9
100
AcDbCircle
 10
378.331282332137
 20
-233.1081637820682
 30
0.0
 40
12.49999967781273
100
AcDbArc
 50
359.9955749511719
 51
13.88652038574222
  0
ARC
  5
28A
330
1F
100
AcDbEntity
  8
躯体
  6
Continuous
 62
     2
370
     9
100
AcDbCircle
 10
378.331282332137
 20
-233.1081637820682
 30
0.0
 40
12.49999967781273
100
AcDbArc
 50
34.05599975585938
 51
180.0
  0
ARC
  5
28B
330
1F
100
AcDbEntity
  8
躯体
  6
JWW_CENTER1
 62
     2
370
     9
100
AcDbCircle
 10
592.3861529376057
 20
-203.1082194560283
 30
0.0
 40
29.99999845350111
100
AcDbArc
 50
270.0
 51
0.0
  0
ARC
  5
28C
330
1F
100
AcDbEntity
  8
通り芯
  6
Continuous
 62
     3
370
     9
100
AcDbCircle
 10
424.2316168707771
 20
-371.6081505852777
 30
0.0
 40
1.500000019331236
100
AcDbArc
 50
270.0
 51
90.0
  0
CIRCLE
  5
28D
330
1F
100
AcDbEntity
  8
通り芯
  6
Continuous
 62
     3
370
     9
100
AcDbCircle
 10
425.7313496357688
 20
-364.1082495612067
 30
0.0
 40
3.000000038662472
  0
CIRCLE
  5
28E
330
1F
100
AcDbEntity
  8
通り芯
  6
Continuous
 62
     3
370
     9
100
AcDbCircle
 10
425.7313496357688
 20
-364.1082495612067
 30
0.0
 40
6.000000077324945
  0
ELLIPSE
  5
28F
330
1F
100
AcDbEntity
  8
躯体
  6
JWW_CENTER1
 62
     2
370
     9
100
AcDbEllipse
 10
398.9937447212839
 20
51.26548560890001
 30
0.0
 11
17.3205066247725
 21
-9.999999162313104
 31
0.0
210
0.0
220
0.0
230
0.9999999999999999
 40
0.5
 41
1.699165751342787
 42
2.477752347620139
  0
ELLIPSE
  5
290
330
1F
100
AcDbEntity
  8
躯体
  6
JWW_CENTER1
 62
     2
370
     9
100
AcDbEllipse
 10
398.9937447212839
 20
51.26548560890001
 30
0.0
 11
17.3205066247725
 21
-9.999999162313104
 31
0.0
210
0.0
220
0.0
230
0.9999999999999999
 40
0.5
 41
2.96008277896657
 42
5.292359685725023
  0
CIRCLE
  5
291
330
1F
100
AcDbEntity
  8
躯体
  6
JWW_DASHED1
 62
     2
370
     9
100
AcDbCircle
 10
-715.9999744312182
 20
-34.10793407543281
 30
0.0
 40
6.50000008376869
  0
CIRCLE
  5
292
330
1F
100
AcDbEntity
  8
躯体
  6
JWW_DASHED1
 62
     2
370
     9
100
AcDbCircle
 10
-715.9999744312182
 20
132.8916766192462
 30
0.0
 40
6.50000008376869
  0
ARC
  5
293
330
1F
100
AcDbEntity
  8
躯体
  6
JWW_DASHED1
 62
     2
370
     9
100
AcDbCircle
 10
-665.5000428895693
 20
126.3916799184439
 30
0.0
 40
13.00000016753738
100
AcDbArc
 50
0.0
 51
90.0
  0
ARC
  5
294
330
1F
100
AcDbEntity
  8
躯体
  6
JWW_DASHED1
 62
     2
370
     9
100
AcDbCircle
 10
-665.5000428895693
 20
-27.60818481445312
 30
0.0
 40
13.00000016753738
100
AcDbArc
 50
270.0
 51
0.0
  0
CIRCLE
  5
295
330
1F
100
AcDbEntity
  8
躯体
  6
JWW_DASHED1
 62
     2
370
     9
100
AcDbCircle
 10
-745.0000144339896
 20
-270.6081637820682
 30
0.0
 40
9.9999991623131
  0
CIRCLE
  5
296
330
1F
100
AcDbEntity
  8
躯体
  6
JWW_DASHED1
 62
     2
370
     9
100
AcDbCircle
 10
-705.0000680459514
 20
-270.6081637820682
 30
0.0
 40
9.9999991623131
  0
CIRCLE
  5
297
330
1F
100
AcDbEntity
  8
躯体
  6
JWW_DASHED1
 62
     2
370
     9
100
AcDbCircle
 10
-139.9999670080236
 20
-270.6081637820682
 30
0.0
 40
9.9999991623131
  0
CIRCLE
  5
298
330
1F
100
AcDbEntity
  8
躯体
  6
JWW_DASHED1
 62
     2
370
     9
100
AcDbCircle
 10
-100.0000206199852
 20
-270.6081637820682
 30
0.0
 40
9.9999991623131
  0
CIRCLE
  5
299
330
1F
100
AcDbEntity
  8
躯体
  6
JWW_DASHED1
 62
     2
370
     9
100
AcDbCircle
 10
-692.4998721560917
 20
370.8919793206293
 30
0.0
 40
17.49999974225019
  0
CIRCLE
  5
29A
330
1F
100
AcDbEntity
  8
躯体
  6
JWW_DASHED1
 62
     2
370
     9
100
AcDbCircle
 10
-152.5001319679053
 20
370.8919793206293
 30
0.0
 40
17.49999974225019
  0
CIRCLE
  5
29B
330
1F
100
AcDbEntity
  8
躯体
  6
JWW_DASHED1
 62
     2
370
     9
100
AcDbCircle
 10
-692.4998721560917
 20
370.8919793206293
 30
0.0
 40
15.50000164959882
  0
CIRCLE
  5
29C
330
1F
100
AcDbEntity
  8
躯体
  6
JWW_DASHED1
 62
     2
370
     9
100
AcDbCircle
 10
-152.5001319679053
 20
370.8919793206293
 30
0.0
 40
15.50000164959882
  0
ARC
  5
29D
330
1F
100
AcDbEntity
  8
躯体
  6
JWW_DASHED1
 62
     2
370
     9
100
AcDbCircle
 10
-739.6553761250264
 20
-265.2637110529719
 30
0.0
 40
4.371895822318825
100
AcDbArc
 50
173.5815582275391
 51
276.4184417724609
  0
ARC
  5
29E
330
1F
100
AcDbEntity
  8
躯体
  6
JWW_DASHED1
 62
     2
370
     9
100
AcDbCircle
 10
-739.655623564849
 20
-275.9527402310758
 30
0.0
 40
4.371895822318825
100
AcDbArc
 50
83.58155822753905
 51
186.4184417724609
  0
ARC
  5
29F
330
1F
100
AcDbEntity
  8
躯体
  6
JWW_DASHED1
 62
     2
370
     9
100
AcDbCircle
 10
-750.3443743731525
 20
-275.9526165111645
 30
0.0
 40
4.371895822318825
100
AcDbArc
 50
353.5815582275391
 51
96.41844177246095
  0
ARC
  5
2A0
330
1F
100
AcDbEntity
  8
躯体
  6
JWW_DASHED1
 62
     2
370
     9
100
AcDbCircle
 10
-750.3443743731525
 20
-265.2637110529719
 30
0.0
 40
4.371895822318825
100
AcDbArc
 50
263.5815582275391
 51
6.418441772460947
  0
ARC
  5
2A1
330
1F
100
AcDbEntity
  8
躯体
  6
JWW_DASHED1
 62
     2
370
     9
100
AcDbCircle
 10
-699.655429736988
 20
-265.2637110529719
 30
0.0
 40
4.371895822318825
100
AcDbArc
 50
173.5815582275391
 51
276.4184417724609
  0
ARC
  5
2A2
330
1F
100
AcDbEntity
  8
躯体
  6
JWW_DASHED1
 62
     2
370
     9
100
AcDbCircle
 10
-699.655429736988
 20
-275.9527402310758
 30
0.0
 40
4.371895822318825
100
AcDbArc
 50
83.58155822753905
 51
186.4184417724609
  0
ARC
  5
2A3
330
1F
100
AcDbEntity
  8
躯体
  6
JWW_DASHED1
 62
     2
370
     9
100
AcDbCircle
 10
-710.3444279851141
 20
-275.9526165111645
 30
0.0
 40
4.371895822318825
100
AcDbArc
 50
353.5815582275391
 51
96.41844177246095
  0
ARC
  5
2A4
330
1F
100
AcDbEntity
  8
躯体
  6
JWW_DASHED1
 62
     2
370
     9
100
AcDbCircle
 10
-710.3444279851141
 20
-265.2637110529719
 30
0.0
 40
4.371895822318825
100
AcDbArc
 50
263.5815582275391
 51
6.418441772460947
  0
ARC
  5
2A5
330
1F
100
AcDbEntity
  8
躯体
  6
JWW_DASHED1
 62
     2
370
     9
100
AcDbCircle
 10
-134.6552668391047
 20
-265.2637110529719
 30
0.0
 40
4.371895822318825
100
AcDbArc
 50
173.5815582275391
 51
276.4175262451172
  0
ARC
  5
2A6
330
1F
100
AcDbEntity
  8
躯体
  6
JWW_DASHED1
 62
     2
370
     9
100
AcDbCircle
 10
-134.6555142789273
 20
-275.9527402310758
 30
0.0
 40
4.371895822318825
100
AcDbArc
 50
83.58155822753905
 51
186.4175262451172
  0
ARC
  5
2A7
330
1F
100
AcDbEntity
  8
躯体
  6
JWW_DASHED1
 62
     2
370
     9
100
AcDbCircle
 10
-145.3445434570312
 20
-275.9526165111645
 30
0.0
 40
4.371895822318825
100
AcDbArc
 50
353.5815582275391
 51
96.41752624511719
  0
ARC
  5
2A8
330
1F
100
AcDbEntity
  8
躯体
  6
JWW_DASHED1
 62
     2
370
     9
100
AcDbCircle
 10
-145.3445434570312
 20
-265.2637110529719
 30
0.0
 40
4.371895822318825
100
AcDbArc
 50
263.5815582275391
 51
6.41752624511719
  0
ARC
  5
2A9
330
1F
100
AcDbEntity
  8
躯体
  6
JWW_DASHED1
 62
     2
370
     9
100
AcDbCircle
 10
-94.65562975084453
 20
-265.2637110529719
 30
0.0
 40
4.371895822318825
100
AcDbArc
 50
173.5815582275391
 51
276.4175262451172
  0
ARC
  5
2AA
330
1F
100
AcDbEntity
  8
躯体
  6
JWW_DASHED1
 62
     2
370
     9
100
AcDbCircle
 10
-94.65562975084453
 20
-275.9527402310758
 30
0.0
 40
4.371895822318825
100
AcDbArc
 50
83.58155822753905
 51
186.4175262451172
  0
ARC
  5
2AB
330
1F
100
AcDbEntity
  8
躯体
  6
JWW_DASHED1
 62
     2
370
     9
100
AcDbCircle
 10
-105.3444114891258
 20
-275.9526165111645
 30
0.0
 40
4.371895822318825
100
AcDbArc
 50
353.5815582275391
 51
96.41752624511719
  0
ARC
  5
2AC
330
1F
100
AcDbEntity
  8
躯体
  6
JWW_DASHED1
 62
     2
370
     9
100
AcDbCircle
 10
-105.3444114891258
 20
-265.2637110529719
 30
0.0
 40
4.371895822318825
100
AcDbArc
 50
263.5815582275391
 51
6.41752624511719
  0
CIRCLE
  5
2AD
330
1F
100
AcDbEntity
  8
通り芯
  6
JWW_DASHED1
 62
     3
370
     9
100
AcDbCircle
 10
-422.4998474121094
 20
309.391801163957
 30
0.0
 40
1.999999904954756
  0
CIRCLE
  5
2AE
330
1F
100
AcDbEntity
  8
通り芯
  6
JWW_DASHED1
 62
     3
370
     9
100
AcDbCircle
 10
-431.999990102407
 20
317.3917780695735
 30
0.0
 40
1.999999904954756
  0
CIRCLE
  5
2AF
330
1F
100
AcDbEntity
  8
通り芯
  6
JWW_DASHED1
 62
     3
370
     9
100
AcDbCircle
 10
-413.0000140215899
 20
317.3917780695735
 30
0.0
 40
1.999999904954756
  0
TEXT
  5
2B0
330
1F
100
AcDbEntity
  8
その他
  6
Continuous
 62
     2
370
     9
100
AcDbText
 10
304.2314816295349
 20
194.7119702478196
 30
0.0
 40
15.24
  1
1.5
 50
359.9995637764607
 41
1.083333333333334
  7
ＭＳ ゴシック
100
AcDbText
  0
TEXT
  5
2B1
330
1F
100
AcDbEntity
  8
その他
  6
Continuous
 62
     2
370
     9
100
AcDbText
 10
377.6067662372846
 20
-442.7882462620331
 30
0.0
 40
15.24
  1
75
 50
0.0003335824015645
 41
1.062499999999999
  7
ＭＳ ゴシック
100
AcDbText
  0
TEXT
  5
2B2
330
1F
100
AcDbEntity
  8
その他
  6
Continuous
 62
     2
370
     9
100
AcDbText
 10
270.4117137495718
 20
21.89190207861849
 30
0.0
 40
15.24
  1
□845
 50
90.00000250447816
 41
1.1
  7
ＭＳ ゴシック
100
AcDbText
  0
TEXT
  5
2B3
330
1F
100
AcDbEntity
  8
その他
  6
Continuous
 62
     2
370
     9
100
AcDbText
 10
654.9427245577432
 20
21.89190207861849
 30
0.0
 40
15.24
  1
□600
 50
90.00000250447816
 41
1.1
  7
ＭＳ ゴシック
100
AcDbText
  0
TEXT
  5
2B4
330
1F
100
AcDbEntity
  8
その他
  6
Continuous
 62
     2
370
     9
100
AcDbText
 10
624.893553944271
 20
-314.0930624307167
 30
0.0
 40
15.24
  1
枠：Ｌ４０×４０×３
 50
0.0000318590053742
 41
1.1125
  7
ＭＳ ゴシック
100
AcDbText
  0
TEXT
  5
2B5
330
1F
100
AcDbEntity
  8
その他
  6
Continuous
 62
     2
370
     9
100
AcDbText
 10
622.0601097313134
 20
-342.659123914564
 30
0.0
 40
15.24
  1
ＳＳ４００，電気亜鉛めっき
 41
1.115384615384615
  7
ＭＳ ゴシック
100
AcDbText
  0
TEXT
  5
2B6
330
1F
100
AcDbEntity
  8
その他
  6
Continuous
 62
     2
370
     9
100
AcDbText
 10
594.4641608160896
 20
-441.0806640460041
 30
0.0
 40
15.24
  1
ＳＷＲＭ，電気亜鉛めっき
 41
1.114583333333333
  7
ＭＳ ゴシック
100
AcDbText
  0
TEXT
  5
2B7
330
1F
100
AcDbEntity
  8
その他
  6
Continuous
 62
     2
370
     9
100
AcDbText
 10
653.6893564307159
 20
405.8878166570099
 30
0.0
 40
15.24
  1
把手：ｔ＝３．０
 50
359.9999201281114
 41
1.109375
  7
ＭＳ ゴシック
100
AcDbText
  0
TEXT
  5
2B8
330
1F
100
AcDbEntity
  8
その他
  6
Continuous
 62
     2
370
     9
100
AcDbText
 10
677.2612618111276
 20
377.3213840134079
 30
0.0
 40
15.24
  1
ＳＵＳ３０４
 41
1.104166666666667
  7
ＭＳ ゴシック
100
AcDbText
  0
TEXT
  5
2B9
330
1F
100
AcDbEntity
  8
その他
  6
Continuous
 62
     2
370
     9
100
AcDbText
 10
497.3971186457454
 20
614.6767966770482
 30
0.0
 40
15.24
  1
蓋：ＳＵＳ３０４，ｔ＝１．５
 41
1.116071428571428
  7
ＭＳ ゴシック
100
AcDbText
  0
TEXT
  5
2BA
330
1F
100
AcDbEntity
  8
その他
  6
Continuous
 62
     2
370
     9
100
AcDbText
 10
530.4741194441513
 20
453.8052806297509
 30
0.0
 40
15.24
  1
電気亜鉛めっき
 41
1.107142857142857
  7
ＭＳ ゴシック
100
AcDbText
  0
TEXT
  5
2BB
330
1F
100
AcDbEntity
  8
その他
  6
Continuous
 62
     2
370
     9
100
AcDbText
 10
614.9387936014747
 20
-409.0077616758493
 30
0.0
 40
15.24
  1
鎖：φ４×６８０
 50
359.9999600640557
 41
1.109375
  7
ＭＳ ゴシック
100
AcDbText
  0
TEXT
  5
2BC
330
1F
100
AcDbEntity
  8
その他
  6
Continuous
 62
     2
370
     9
100
AcDbText
 10
536.6204009184968
 20
583.4835428763728
 30
0.0
 40
15.24
  1
ヘアライン仕上
 41
1.107142857142857
  7
ＭＳ ゴシック
100
AcDbText
  0
TEXT
  5
2BD
330
1F
100
AcDbEntity
  8
0-F
  6
Continuous
 62
     2
370
     9
100
AcDbText
 10
-471.543352281725
 20
-681.6393089335672
 30
0.0
 40
15.24
  1
蓋ステンレス製　屋上点検口蓋　角型　　ＭＲＳ－Ｈ－角－６００
 41
1.120833333333333
  7
ＭＳ ゴシック
100
AcDbText
  0
TEXT
  5
2BE
330
1F
100
AcDbEntity
  8
その他
  6
Continuous
 62
     2
370
     9
100
AcDbText
 10
521.3847732113699
 20
488.2956700670391
 30
0.0
 40
15.24
  1
アンカー：ＳＳ４００
 50
0.0000637180107483
 41
1.1125
  7
ＭＳ ゴシック
100
AcDbText
  0
ENDSEC
  0
SECTION
  2
OBJECTS
  0
DICTIONARY
  5
C
330
0
100
AcDbDictionary
281
     1
  3
ACAD_GROUP
350
D
  3
ACAD_LAYOUT
350
1A
  3
ACAD_MLEADERSTYLE
350
2C0
  3
ACAD_MLINESTYLE
350
17
  3
ACAD_PLOTSETTINGS
350
19
  3
ACAD_PLOTSTYLENAME
350
E
  3
ACAD_TABLESTYLE
350
2BF
  3
ACAD_VISUALSTYLE
350
2A
  0
DICTIONARY
  5
D
102
{ACAD_REACTORS
330
C
102
}
330
C
100
AcDbDictionary
281
     1
  0
DICTIONARY
  5
1A
102
{ACAD_REACTORS
330
C
102
}
330
C
100
AcDbDictionary
281
     1
  3
Layout1
350
1E
  3
Layout2
350
26
  3
Model
350
22
  0
DICTIONARY
  5
2C0
102
{ACAD_REACTORS
330
C
102
}
330
C
100
AcDbDictionary
281
     1
  0
DICTIONARY
  5
17
102
{ACAD_REACTORS
330
C
102
}
330
C
100
AcDbDictionary
281
     1
  3
Standard
350
18
  0
DICTIONARY
  5
19
102
{ACAD_REACTORS
330
C
102
}
330
C
100
AcDbDictionary
281
     1
  0
ACDBDICTIONARYWDFLT
  5
E
102
{ACAD_REACTORS
330
C
102
}
330
C
100
AcDbDictionary
281
     1
  3
Normal
350
F
100
AcDbDictionaryWithDefault
340
F
  0
DICTIONARY
  5
2BF
102
{ACAD_REACTORS
330
C
102
}
330
C
100
AcDbDictionary
281
     1
  0
DICTIONARY
  5
2A
102
{ACAD_REACTORS
330
C
102
}
330
C
100
AcDbDictionary
281
     1
  3
2dWireframe
350
2F
  3
3D Hidden
350
31
  3
3dWireframe
350
30
  3
Basic
350
32
  3
Brighten
350
36
  3
ColorChange
350
3A
  3
Conceptual
350
34
  3
Dim
350
35
  3
Facepattern
350
39
  3
Flat
350
2B
  3
FlatWithEdges
350
2C
  3
Gouraud
350
2D
  3
GouraudWithEdges
350
2E
  3
Linepattern
350
38
  3
Realistic
350
33
  3
Thicken
350
37
  0
LAYOUT
  5
1E
102
{ACAD_REACTORS
330
1A
102
}
330
1A
100
AcDbPlotSettings
  1

  2
none_device
  4

  6

 40
0.0
 41
0.0
 42
0.0
 43
0.0
 44
0.0
 45
0.0
 46
0.0
 47
0.0
 48
0.0
 49
0.0
140
0.0
141
0.0
142
1.0
143
1.0
 70
   688
 72
     0
 73
     0
 74
     5
  7

 75
    16
 76
     0
 77
     5
 78
   300
147
1.0
148
0.0
149
0.0
100
AcDbLayout
  1
Layout1
 70
     1
 71
     1
 10
0.0
 20
0.0
 11
420.0
 21
297.0
 12
0.0
 22
0.0
 32
0.0
 14
1.000000000000000E+20
 24
1.000000000000000E+20
 34
1.000000000000000E+20
 15
-1.000000000000000E+20
 25
-1.000000000000000E+20
 35
-1.000000000000000E+20
146
0.0
 13
0.0
 23
0.0
 33
0.0
 16
1.0
 26
0.0
 36
0.0
 17
0.0
 27
1.0
 37
0.0
 76
     0
330
1B
  0
LAYOUT
  5
26
102
{ACAD_REACTORS
330
1A
102
}
330
1A
100
AcDbPlotSettings
  1

  2
none_device
  4

  6

 40
0.0
 41
0.0
 42
0.0
 43
0.0
 44
0.0
 45
0.0
 46
0.0
 47
0.0
 48
0.0
 49
0.0
140
0.0
141
0.0
142
1.0
143
1.0
 70
   688
 72
     0
 73
     0
 74
     5
  7

 75
    16
 76
     0
 77
     5
 78
   300
147
1.0
148
0.0
149
0.0
100
AcDbLayout
  1
Layout2
 70
     1
 71
     2
 10
0.0
 20
0.0
 11
0.0
 21
0.0
 12
0.0
 22
0.0
 32
0.0
 14
0.0
 24
0.0
 34
0.0
 15
0.0
 25
0.0
 35
0.0
146
0.0
 13
0.0
 23
0.0
 33
0.0
 16
1.0
 26
0.0
 36
0.0
 17
0.0
 27
1.0
 37
0.0
 76
     0
330
23
  0
LAYOUT
  5
22
102
{ACAD_REACTORS
330
1A
102
}
330
1A
100
AcDbPlotSettings
  1

  2
none_device
  4

  6

 40
0.0
 41
0.0
 42
0.0
 43
0.0
 44
0.0
 45
0.0
 46
0.0
 47
0.0
 48
0.0
 49
0.0
140
0.0
141
0.0
142
1.0
143
1.0
 70
  1712
 72
     0
 73
     0
 74
     0
  7

 75
     0
 76
     0
 77
     5
 78
   300
147
1.0
148
0.0
149
0.0
100
AcDbLayout
  1
Model
 70
     1
 71
     0
 10
-1050.0
 20
-742.5
 11
1050.0
 21
742.5
 12
0.0
 22
0.0
 32
0.0
 14
-1050.0
 24
-742.5
 34
0.0
 15
1050.0
 25
742.5
 35
0.0
146
0.0
 13
0.0
 23
0.0
 33
0.0
 16
1.0
 26
0.0
 36
0.0
 17
0.0
 27
1.0
 37
0.0
 76
     0
330
1F
331
29
  0
MLINESTYLE
  5
18
102
{ACAD_REACTORS
330
17
102
}
330
17
100
AcDbMlineStyle
  2
Standard
 70
     0
  3

 62
   256
 51
90.0
 52
90.0
 71
     2
 49
0.5
 62
   256
  6
BYLAYER
 49
-0.5
 62
   256
  6
BYLAYER
  0
ACDBPLACEHOLDER
  5
F
102
{ACAD_REACTORS
330
E
102
}
330
E
  0
VISUALSTYLE
  5
2F
102
{ACAD_REACTORS
330
2A
102
}
330
2A
100
AcDbVisualStyle
  2
2dWireframe
 70
     4
 71
     0
 72
     2
 73
     0
 90
        0
 40
-0.6
 41
-30.0
 62
     5
 63
     7
421
 16777215
 74
     1
 91
        4
 64
     7
 65
   257
 75
     1
175
     1
 42
1.0
 92
        0
 66
   257
 43
1.0
 76
     1
 77
     6
 78
     2
 67
     7
 79
     5
170
     0
171
     0
290
     0
174
     0
 93
        1
 44
0.0
173
     0
291
     0
 45
0.0
1001
ACAD
1000
AcDbSavedByObjectVersion
1070
     0
  0
VISUALSTYLE
  5
31
102
{ACAD_REACTORS
330
2A
102
}
330
2A
100
AcDbVisualStyle
  2
3D Hidden
 70
     6
 71
     1
 72
     2
 73
     2
 90
        0
 40
-0.6
 41
-30.0
 62
     5
 63
     7
421
 16777215
 74
     2
 91
        2
 64
     7
 65
   257
 75
     2
175
     1
 42
40.0
 92
        0
 66
   257
 43
1.0
 76
     1
 77
     6
 78
     2
 67
     7
 79
     3
170
     0
171
     0
290
     0
174
     0
 93
        1
 44
0.0
173
     0
291
     0
 45
0.0
1001
ACAD
1000
AcDbSavedByObjectVersion
1070
     0
  0
VISUALSTYLE
  5
30
102
{ACAD_REACTORS
330
2A
102
}
330
2A
100
AcDbVisualStyle
  2
3dWireframe
 70
     5
 71
     0
 72
     2
 73
     0
 90
        0
 40
-0.6
 41
-30.0
 62
     5
 63
     7
421
 16777215
 74
     1
 91
        4
 64
     7
 65
   257
 75
     1
175
     1
 42
1.0
 92
        0
 66
   257
 43
1.0
 76
     1
 77
     6
 78
     2
 67
     7
 79
     5
170
     0
171
     0
290
     0
174
     0
 93
        1
 44
0.0
173
     0
291
     0
 45
0.0
1001
ACAD
1000
AcDbSavedByObjectVersion
1070
     0
  0
VISUALSTYLE
  5
32
102
{ACAD_REACTORS
330
2A
102
}
330
2A
100
AcDbVisualStyle
  2
Basic
 70
     7
 71
     1
 72
     0
 73
     1
 90
        0
 40
-0.6
 41
-30.0
 62
     5
 63
     7
421
 16777215
 74
     0
 91
        4
 64
     7
 65
   257
 75
     1
175
     1
 42
1.0
 92
        8
 66
     7
 43
1.0
 76
     1
 77
     6
 78
     2
 67
     7
 79
     5
170
     0
171
     0
290
     0
174
     0
 93
        1
 44
0.0
173
     0
291
     1
 45
0.0
1001
ACAD
1000
AcDbSavedByObjectVersion
1070
     0
  0
VISUALSTYLE
  5
36
102
{ACAD_REACTORS
330
2A
102
}
330
2A
100
AcDbVisualStyle
  2
Brighten
 70
    12
 71
     2
 72
     2
 73
     0
 90
        0
 40
-0.6
 41
-30.0
 62
     5
 63
     7
421
 16777215
 74
     1
 91
        4
 64
     7
 65
   257
 75
     1
175
     1
 42
1.0
 92
        8
 66
     7
 43
1.0
 76
     1
 77
     6
 78
     2
 67
     7
 79
     5
170
     0
171
     0
290
     0
174
     0
 93
        1
 44
50.0
173
     0
291
     1
 45
0.0
1001
ACAD
1000
AcDbSavedByObjectVersion
1070
     0
  0
VISUALSTYLE
  5
3A
102
{ACAD_REACTORS
330
2A
102
}
330
2A
100
AcDbVisualStyle
  2
ColorChange
 70
    16
 71
     2
 72
     2
 73
     3
 90
        0
 40
-0.6
 41
-30.0
 62
     5
 63
     8
421
  8421504
 74
     1
 91
        4
 64
     7
 65
   257
 75
     1
175
     1
 42
1.0
 92
        8
 66
     8
424
  8421504
 43
1.0
 76
     1
 77
     6
 78
     2
 67
     7
 79
     5
170
     0
171
     0
290
     0
174
     0
 93
        1
 44
0.0
173
     0
291
     1
 45
0.0
1001
ACAD
1000
AcDbSavedByObjectVersion
1070
     0
  0
VISUALSTYLE
  5
34
102
{ACAD_REACTORS
330
2A
102
}
330
2A
100
AcDbVisualStyle
  2
Conceptual
 70
     9
 71
     3
 72
     2
 73
     0
 90
        0
 40
-0.6
 41
-30.0
 62
     5
 63
     7
421
 16777215
 74
     2
 91
        2
 64
     7
 65
   257
 75
     1
175
     1
 42
40.0
 92
        8
 66
     7
 43
1.0
 76
     1
 77
     6
 78
     2
 67
     7
 79
     3
170
     0
171
     0
290
     0
174
     0
 93
        1
 44
0.0
173
     0
291
     0
 45
0.0
1001
ACAD
1000
AcDbSavedByObjectVersion
1070
     0
  0
VISUALSTYLE
  5
35
102
{ACAD_REACTORS
330
2A
102
}
330
2A
100
AcDbVisualStyle
  2
Dim
 70
    11
 71
     2
 72
     2
 73
     0
 90
        0
 40
-0.6
 41
-30.0
 62
     5
 63
     7
421
 16777215
 74
     1
 91
        4
 64
     7
 65
   257
 75
     1
175
     1
 42
1.0
 92
        8
 66
     7
 43
1.0
 76
     1
 77
     6
 78
     2
 67
     7
 79
     5
170
     0
171
     0
290
     0
174
     0
 93
        1
 44
-50.0
173
     0
291
     1
 45
0.0
1001
ACAD
1000
AcDbSavedByObjectVersion
1070
     0
  0
VISUALSTYLE
  5
39
102
{ACAD_REACTORS
330
2A
102
}
330
2A
100
AcDbVisualStyle
  2
Facepattern
 70
    15
 71
     2
 72
     2
 73
     0
 90
        0
 40
-0.6
 41
-30.0
 62
     5
 63
     7
421
 16777215
 74
     1
 91
        4
 64
     7
 65
   257
 75
     1
175
     1
 42
1.0
 92
        8
 66
     7
 43
1.0
 76
     1
 77
     6
 78
     2
 67
     7
 79
     5
170
     0
171
     0
290
     0
174
     0
 93
        1
 44
0.0
173
     0
291
     1
 45
0.0
1001
ACAD
1000
AcDbSavedByObjectVersion
1070
     0
  0
VISUALSTYLE
  5
2B
102
{ACAD_REACTORS
330
2A
102
}
330
2A
100
AcDbVisualStyle
  2
Flat
 70
     0
 71
     2
 72
     1
 73
     1
 90
        2
 40
-0.6
 41
30.0
 62
     5
 63
     7
421
 16777215
 74
     0
 91
        4
 64
     7
 65
   257
 75
     1
175
     1
 42
1.0
 92
        8
 66
     7
 43
1.0
 76
     1
 77
     6
 78
     2
 67
     7
 79
     5
170
     0
171
     0
290
     0
174
     0
 93
       13
 44
0.0
173
     0
291
     1
 45
0.0
1001
ACAD
1000
AcDbSavedByObjectVersion
1070
     0
  0
VISUALSTYLE
  5
2C
102
{ACAD_REACTORS
330
2A
102
}
330
2A
100
AcDbVisualStyle
  2
FlatWithEdges
 70
     1
 71
     2
 72
     1
 73
     1
 90
        2
 40
-0.6
 41
30.0
 62
     5
 63
     7
421
 16777215
 74
     1
 91
        4
 64
     7
 65
   257
 75
     1
175
     1
 42
1.0
 92
        0
 66
   257
 43
1.0
 76
     1
 77
     6
 78
     2
 67
     7
 79
     5
170
     0
171
     0
290
     0
174
     0
 93
       13
 44
0.0
173
     0
291
     1
 45
0.0
1001
ACAD
1000
AcDbSavedByObjectVersion
1070
     0
  0
VISUALSTYLE
  5
2D
102
{ACAD_REACTORS
330
2A
102
}
330
2A
100
AcDbVisualStyle
  2
Gouraud
 70
     2
 71
     2
 72
     2
 73
     1
 90
        2
 40
-0.6
 41
30.0
 62
     5
 63
     7
421
 16777215
 74
     0
 91
        4
 64
     7
 65
   257
 75
     1
175
     1
 42
1.0
 92
        0
 66
     7
 43
1.0
 76
     1
 77
     6
 78
     2
 67
     7
 79
     5
170
     0
171
     0
290
     0
174
     0
 93
       13
 44
0.0
173
     0
291
     1
 45
0.0
1001
ACAD
1000
AcDbSavedByObjectVersion
1070
     0
  0
VISUALSTYLE
  5
2E
102
{ACAD_REACTORS
330
2A
102
}
330
2A
100
AcDbVisualStyle
  2
GouraudWithEdges
 70
     3
 71
     2
 72
     2
 73
     1
 90
        2
 40
-0.6
 41
30.0
 62
     5
 63
     7
421
 16777215
 74
     1
 91
        4
 64
     7
 65
   257
 75
     1
175
     1
 42
1.0
 92
        0
 66
   257
 43
1.0
 76
     1
 77
     6
 78
     2
 67
     7
 79
     5
170
     0
171
     0
290
     0
174
     0
 93
       13
 44
0.0
173
     0
291
     1
 45
0.0
1001
ACAD
1000
AcDbSavedByObjectVersion
1070
     0
  0
VISUALSTYLE
  5
38
102
{ACAD_REACTORS
330
2A
102
}
330
2A
100
AcDbVisualStyle
  2
Linepattern
 70
    14
 71
     2
 72
     2
 73
     0
 90
        0
 40
-0.6
 41
-30.0
 62
     5
 63
     7
421
 16777215
 74
     1
 91
        4
 64
     7
 65
   257
 75
     7
175
     7
 42
1.0
 92
        8
 66
     7
 43
1.0
 76
     1
 77
     6
 78
     2
 67
     7
 79
     5
170
     0
171
     0
290
     0
174
     0
 93
        1
 44
0.0
173
     0
291
     1
 45
0.0
1001
ACAD
1000
AcDbSavedByObjectVersion
1070
     0
  0
VISUALSTYLE
  5
33
102
{ACAD_REACTORS
330
2A
102
}
330
2A
100
AcDbVisualStyle
  2
Realistic
 70
     8
 71
     2
 72
     2
 73
     0
 90
        0
 40
-0.6
 41
-30.0
 62
     5
 63
     7
421
 16777215
 74
     1
 91
        0
 64
     7
 65
   257
 75
     1
175
     1
 42
1.0
 92
        8
 66
     8
424
  7895160
 43
1.0
 76
     1
 77
     6
 78
     2
 67
     7
 79
     5
170
     0
171
     0
290
     0
174
     0
 93
       13
 44
0.0
173
     0
291
     0
 45
0.0
1001
ACAD
1000
AcDbSavedByObjectVersion
1070
     0
  0
VISUALSTYLE
  5
37
102
{ACAD_REACTORS
330
2A
102
}
330
2A
100
AcDbVisualStyle
  2
Thicken
 70
    13
 71
     2
 72
     2
 73
     0
 90
        0
 40
-0.6
 41
-30.0
 62
     5
 63
     7
421
 16777215
 74
     1
 91
        4
 64
     7
 65
   257
 75
     1
175
     1
 42
1.0
 92
       12
 66
     7
 43
1.0
 76
     1
 77
     6
 78
     2
 67
     7
 79
     5
170
     0
171
     0
290
     0
174
     0
 93
        1
 44
0.0
173
     0
291
     1
 45
0.0
1001
ACAD
1000
AcDbSavedByObjectVersion
1070
     0
  0
ENDSEC
  0
EOF
