  0
SECTION
  2
HEADER
  9
$ACADVER
  1
AC1018
  9
$ACADMAINTVER
 70
     0
  9
$DWGCODEPAGE
  3
ANSI_932
  9
$INSBASE
 10
0.0
 20
0.0
 30
0.0
  9
$EXTMIN
 10
-420.0
 20
-297.0
 30
0.0
  9
$EXTMAX
 10
420.0
 20
297.0
 30
0.0
  9
$LIMMIN
 10
-420.0
 20
-297.0
  9
$LIMMAX
 10
420.0
 20
297.0
  9
$ORTHOMODE
 70
     0
  9
$REGENMODE
 70
     1
  9
$FILLMODE
 70
     1
  9
$QTEXTMODE
 70
     0
  9
$MIRRTEXT
 70
     1
  9
$LTSCALE
 40
2.0
  9
$ATTMODE
 70
     1
  9
$TEXTSIZE
 40
2.5
  9
$TRACEWID
 40
1.0
  9
$TEXTSTYLE
  7
Standard
  9
$CLAYER
  8
0
  9
$CELTYPE
  6
ByLayer
  9
$CECOLOR
 62
   256
  9
$CELTSCALE
 40
1.0
  9
$DISPSILH
 70
     0
  9
$DIMSCALE
 40
1.0
  9
$DIMASZ
 40
2.5
  9
$DIMEXO
 40
0.625
  9
$DIMDLI
 40
3.75
  9
$DIMRND
 40
0.0
  9
$DIMDLE
 40
0.0
  9
$DIMEXE
 40
1.25
  9
$DIMTP
 40
0.0
  9
$DIMTM
 40
0.0
  9
$DIMTXT
 40
2.5
  9
$DIMCEN
 40
2.5
  9
$DIMTSZ
 40
0.0
  9
$DIMTOL
 70
     0
  9
$DIMLIM
 70
     0
  9
$DIMTIH
 70
     0
  9
$DIMTOH
 70
     0
  9
$DIMSE1
 70
     0
  9
$DIMSE2
 70
     0
  9
$DIMTAD
 70
     1
  9
$DIMZIN
 70
     8
  9
$DIMBLK
  1

  9
$DIMASO
 70
     1
  9
$DIMSHO
 70
     1
  9
$DIMPOST
  1

  9
$DIMAPOST
  1

  9
$DIMALT
 70
     0
  9
$DIMALTD
 70
     3
  9
$DIMALTF
 40
0.03937007874016
  9
$DIMLFAC
 40
1.0
  9
$DIMTOFL
 70
     1
  9
$DIMTVP
 40
0.0
  9
$DIMTIX
 70
     0
  9
$DIMSOXD
 70
     0
  9
$DIMSAH
 70
     0
  9
$DIMBLK1
  1

  9
$DIMBLK2
  1

  9
$DIMSTYLE
  2
ISO-25
  9
$DIMCLRD
 70
     0
  9
$DIMCLRE
 70
     0
  9
$DIMCLRT
 70
     0
  9
$DIMTFAC
 40
1.0
  9
$DIMGAP
 40
0.625
  9
$DIMJUST
 70
     0
  9
$DIMSD1
 70
     0
  9
$DIMSD2
 70
     0
  9
$DIMTOLJ
 70
     0
  9
$DIMTZIN
 70
     8
  9
$DIMALTZ
 70
     0
  9
$DIMALTTZ
 70
     0
  9
$DIMUPT
 70
     0
  9
$DIMDEC
 70
     2
  9
$DIMTDEC
 70
     2
  9
$DIMALTU
 70
     2
  9
$DIMALTTD
 70
     3
  9
$DIMTXSTY
  7
Standard
  9
$DIMAUNIT
 70
     0
  9
$DIMADEC
 70
     0
  9
$DIMALTRND
 40
0.0
  9
$DIMAZIN
 70
     0
  9
$DIMDSEP
 70
    44
  9
$DIMATFIT
 70
     3
  9
$DIMFRAC
 70
     0
  9
$DIMLDRBLK
  1

  9
$DIMLUNIT
 70
     2
  9
$DIMLWD
 70
    -2
  9
$DIMLWE
 70
    -2
  9
$DIMTMOVE
 70
     0
  9
$LUNITS
 70
     2
  9
$LUPREC
 70
     4
  9
$SKETCHINC
 40
1.0
  9
$FILLETRAD
 40
10.0
  9
$AUNITS
 70
     0
  9
$AUPREC
 70
     0
  9
$MENU
  1
.
  9
$ELEVATION
 40
0.0
  9
$PELEVATION
 40
0.0
  9
$THICKNESS
 40
0.0
  9
$LIMCHECK
 70
     0
  9
$CHAMFERA
 40
0.0
  9
$CHAMFERB
 40
0.0
  9
$CHAMFERC
 40
0.0
  9
$CHAMFERD
 40
0.0
  9
$SKPOLY
 70
     0
  9
$TDCREATE
 40
2460047.482037674
  9
$TDUCREATE
 40
2460047.107037674
  9
$TDUPDATE
 40
2460047.482037801
  9
$TDUUPDATE
 40
2460047.107037801
  9
$TDINDWG
 40
0.0000000116
  9
$TDUSRTIMER
 40
0.0000000116
  9
$USRTIMER
 70
     1
  9
$ANGBASE
 50
0.0
  9
$ANGDIR
 70
     0
  9
$PDMODE
 70
     0
  9
$PDSIZE
 40
0.0
  9
$PLINEWID
 40
0.0
  9
$SPLFRAME
 70
     0
  9
$SPLINETYPE
 70
     6
  9
$SPLINESEGS
 70
     8
  9
$HANDSEED
  5
327
  9
$SURFTAB1
 70
     6
  9
$SURFTAB2
 70
     6
  9
$SURFTYPE
 70
     6
  9
$SURFU
 70
     6
  9
$SURFV
 70
     6
  9
$UCSBASE
  2

  9
$UCSNAME
  2

  9
$UCSORG
 10
0.0
 20
0.0
 30
0.0
  9
$UCSXDIR
 10
1.0
 20
0.0
 30
0.0
  9
$UCSYDIR
 10
0.0
 20
1.0
 30
0.0
  9
$UCSORTHOREF
  2

  9
$UCSORTHOVIEW
 70
     0
  9
$UCSORGTOP
 10
0.0
 20
0.0
 30
0.0
  9
$UCSORGBOTTOM
 10
0.0
 20
0.0
 30
0.0
  9
$UCSORGLEFT
 10
0.0
 20
0.0
 30
0.0
  9
$UCSORGRIGHT
 10
0.0
 20
0.0
 30
0.0
  9
$UCSORGFRONT
 10
0.0
 20
0.0
 30
0.0
  9
$UCSORGBACK
 10
0.0
 20
0.0
 30
0.0
  9
$PUCSBASE
  2

  9
$PUCSNAME
  2

  9
$PUCSORG
 10
0.0
 20
0.0
 30
0.0
  9
$PUCSXDIR
 10
1.0
 20
0.0
 30
0.0
  9
$PUCSYDIR
 10
0.0
 20
1.0
 30
0.0
  9
$PUCSORTHOREF
  2

  9
$PUCSORTHOVIEW
 70
     0
  9
$PUCSORGTOP
 10
0.0
 20
0.0
 30
0.0
  9
$PUCSORGBOTTOM
 10
0.0
 20
0.0
 30
0.0
  9
$PUCSORGLEFT
 10
0.0
 20
0.0
 30
0.0
  9
$PUCSORGRIGHT
 10
0.0
 20
0.0
 30
0.0
  9
$PUCSORGFRONT
 10
0.0
 20
0.0
 30
0.0
  9
$PUCSORGBACK
 10
0.0
 20
0.0
 30
0.0
  9
$USERI1
 70
     0
  9
$USERI2
 70
     0
  9
$USERI3
 70
     0
  9
$USERI4
 70
     0
  9
$USERI5
 70
     0
  9
$USERR1
 40
0.0
  9
$USERR2
 40
0.0
  9
$USERR3
 40
0.0
  9
$USERR4
 40
0.0
  9
$USERR5
 40
0.0
  9
$WORLDVIEW
 70
     1
  9
$SHADEDGE
 70
     3
  9
$SHADEDIF
 70
    70
  9
$TILEMODE
 70
     1
  9
$MAXACTVP
 70
    64
  9
$PINSBASE
 10
0.0
 20
0.0
 30
0.0
  9
$PLIMCHECK
 70
     0
  9
$PEXTMIN
 10
1.000000000000000E+20
 20
1.000000000000000E+20
 30
1.000000000000000E+20
  9
$PEXTMAX
 10
-1.000000000000000E+20
 20
-1.000000000000000E+20
 30
-1.000000000000000E+20
  9
$PLIMMIN
 10
0.0
 20
0.0
  9
$PLIMMAX
 10
420.0
 20
297.0
  9
$UNITMODE
 70
     0
  9
$VISRETAIN
 70
     1
  9
$PLINEGEN
 70
     0
  9
$PSLTSCALE
 70
     1
  9
$TREEDEPTH
 70
  3020
  9
$CMLSTYLE
  2
Standard
  9
$CMLJUST
 70
     0
  9
$CMLSCALE
 40
20.0
  9
$PROXYGRAPHICS
 70
     1
  9
$MEASUREMENT
 70
     1
  9
$CELWEIGHT
370
    -1
  9
$ENDCAPS
280
     0
  9
$JOINSTYLE
280
     0
  9
$LWDISPLAY
290
     0
  9
$INSUNITS
 70
     4
  9
$HYPERLINKBASE
  1

  9
$STYLESHEET
  1

  9
$XEDIT
290
     1
  9
$CEPSNTYPE
380
     0
  9
$PSTYLEMODE
290
     1
  9
$FINGERPRINTGUID
  2
{DF3D1040-C980-48B7-86D1-5795AB064CBC}
  9
$VERSIONGUID
  2
{FAEB1C32-E019-11D5-929B-00C0DF256EC4}
  9
$EXTNAMES
290
     1
  9
$PSVPSCALE
 40
0.0
  9
$OLESTARTUP
290
     0
  9
$SORTENTS
280
   127
  9
$INDEXCTL
280
     0
  9
$HIDETEXT
280
     1
  9
$XCLIPFRAME
290
     0
  9
$HALOGAP
280
     0
  9
$OBSCOLOR
 70
   257
  9
$OBSLTYPE
280
     0
  9
$INTERSECTIONDISPLAY
280
     0
  9
$INTERSECTIONCOLOR
 70
   257
  9
$DIMASSOC
280
     2
  9
$PROJECTNAME
  1

  0
ENDSEC
  0
SECTION
  2
CLASSES
  0
CLASS
  1
ACDBDICTIONARYWDFLT
  2
AcDbDictionaryWithDefault
  3
ObjectDBX Classes
 90
        0
 91
        4
280
     0
281
     0
  0
CLASS
  1
VISUALSTYLE
  2
AcDbVisualStyle
  3
ObjectDBX Classes
 90
     4095
 91
        4
280
     0
281
     0
  0
CLASS
  1
MATERIAL
  2
AcDbMaterial
  3
ObjectDBX Classes
 90
     1153
 91
        4
280
     0
281
     0
  0
CLASS
  1
SCALE
  2
AcDbScale
  3
ObjectDBX Classes
 90
     1153
 91
        4
280
     0
281
     0
  0
CLASS
  1
TABLESTYLE
  2
AcDbTableStyle
  3
ObjectDBX Classes
 90
     4095
 91
        4
280
     0
281
     0
  0
CLASS
  1
MLEADERSTYLE
  2
AcDbMLeaderStyle
  3
ACDB_MLEADERSTYLE_CLASS
 90
     4095
 91
        4
280
     0
281
     0
  0
CLASS
  1
SUN
  2
AcDbSun
  3
SCENEOE
 90
     1153
 91
        4
280
     0
281
     0
  0
CLASS
  1
DICTIONARYVAR
  2
AcDbDictionaryVar
  3
ObjectDBX Classes
 90
        0
 91
        4
280
     0
281
     0
  0
CLASS
  1
CELLSTYLEMAP
  2
AcDbCellStyleMap
  3
ObjectDBX Classes
 90
     1152
 91
        4
280
     0
281
     0
  0
ENDSEC
  0
SECTION
  2
TABLES
  0
TABLE
  2
VPORT
  5
8
102
{ACAD_XDICTIONARY
360
2DE
102
}
330
0
100
AcDbSymbolTable
 70
     1
  0
VPORT
  5
29
330
8
100
AcDbSymbolTableRecord
100
AcDbViewportTableRecord
  2
*Active
 70
     0
 10
0.0
 20
0.0
 11
1.0
 21
1.0
 12
0.0
 22
0.0
 13
0.0
 23
0.0
 14
10.0
 24
10.0
 15
10.0
 25
10.0
 16
0.0
 26
0.0
 36
1.0
 17
0.0
 27
0.0
 37
0.0
 40
653.4000000000001
 41
1.414141414141414
 42
50.0
 43
0.0
 44
0.0
 50
0.0
 51
0.0
 71
     0
 72
 10000
 73
     1
 74
     3
 75
     0
 76
     0
 77
     0
 78
     0
281
     0
 65
     1
110
0.0
120
0.0
130
0.0
111
1.0
121
0.0
131
0.0
112
0.0
122
1.0
132
0.0
 79
     0
146
0.0
  0
ENDTAB
  0
TABLE
  2
LTYPE
  5
5
330
0
100
AcDbSymbolTable
 70
     6
  0
LTYPE
  5
14
330
5
100
AcDbSymbolTableRecord
100
AcDbLinetypeTableRecord
  2
ByBlock
 70
     0
  3

 72
    65
 73
     0
 40
0.0
  0
LTYPE
  5
15
330
5
100
AcDbSymbolTableRecord
100
AcDbLinetypeTableRecord
  2
ByLayer
 70
     0
  3

 72
    65
 73
     0
 40
0.0
  0
LTYPE
  5
16
330
5
100
AcDbSymbolTableRecord
100
AcDbLinetypeTableRecord
  2
Continuous
 70
     0
  3
Solid line
 72
    65
 73
     0
 40
0.0
  0
LTYPE
  5
6F
330
5
100
AcDbSymbolTableRecord
100
AcDbLinetypeTableRecord
  2
JWW_DASHED1
 70
     0
  3
-  --  --  --  --  --  --  --  -
 72
    65
 73
     2
 40
1.693333333333333
 49
0.8466666666666667
 74
     0
 49
-0.8466666666666667
 74
     0
  0
LTYPE
  5
70
330
5
100
AcDbSymbolTableRecord
100
AcDbLinetypeTableRecord
  2
JWW_CENTER2
 70
     0
  3
-------------  --  -------------
 72
    65
 73
     4
 40
13.54666666666667
 49
11.00666666666667
 74
     0
 49
-0.8466666666666667
 74
     0
 49
0.8466666666666667
 74
     0
 49
-0.8466666666666667
 74
     0
  0
LTYPE
  5
71
330
5
100
AcDbSymbolTableRecord
100
AcDbLinetypeTableRecord
  2
JWW_CENTER1
 70
     0
  3
-----  --  ----------  --  -----
 72
    65
 73
     4
 40
6.773333333333333
 49
4.233333333333333
 74
     0
 49
-0.8466666666666667
 74
     0
 49
0.8466666666666667
 74
     0
 49
-0.8466666666666667
 74
     0
  0
LTYPE
  5
72
330
5
100
AcDbSymbolTableRecord
100
AcDbLinetypeTableRecord
  2
JWW_DASHED2
 70
     0
  3
--    ----    ----    ----    --
 72
    65
 73
     2
 40
3.386666666666667
 49
1.693333333333333
 74
     0
 49
-1.693333333333333
 74
     0
  0
LTYPE
  5
73
330
5
100
AcDbSymbolTableRecord
100
AcDbLinetypeTableRecord
  2
JWW_HOJO
 70
     0
  3
  -   -   -   -   -   -   -   - 
 72
    65
 73
     2
 40
1.693333333333333
 49
-1.27
 74
     0
 49
0.4233333333333333
 74
     0
  0
ENDTAB
  0
TABLE
  2
LAYER
  5
2
330
0
100
AcDbSymbolTable
 70
    10
  0
LAYER
  5
10
330
2
100
AcDbSymbolTableRecord
100
AcDbLayerTableRecord
  2
0
 70
     0
 62
     7
  6
Continuous
370
    -3
390
F
  0
LAYER
  5
74
330
2
100
AcDbSymbolTableRecord
100
AcDbLayerTableRecord
  2
F-5ﾚｲﾔ
 70
     0
 62
     7
  6
Continuous
370
    -3
390
F
  0
LAYER
  5
75
330
2
100
AcDbSymbolTableRecord
100
AcDbLayerTableRecord
  2
D-5
 70
     0
 62
     7
  6
Continuous
370
    -3
390
F
  0
LAYER
  5
76
330
2
100
AcDbSymbolTableRecord
100
AcDbLayerTableRecord
  2
D-7
 70
     0
 62
     7
  6
Continuous
370
    -3
390
F
  0
LAYER
  5
77
330
2
100
AcDbSymbolTableRecord
100
AcDbLayerTableRecord
  2
D-4
 70
     0
 62
     7
  6
Continuous
370
    -3
390
F
  0
LAYER
  5
78
330
2
100
AcDbSymbolTableRecord
100
AcDbLayerTableRecord
  2
D-1
 70
     0
 62
     7
  6
Continuous
370
    -3
390
F
  0
LAYER
  5
79
330
2
100
AcDbSymbolTableRecord
100
AcDbLayerTableRecord
  2
D-2
 70
     0
 62
     7
  6
Continuous
370
    -3
390
F
  0
LAYER
  5
7A
330
2
100
AcDbSymbolTableRecord
100
AcDbLayerTableRecord
  2
D-9
 70
     0
 62
     7
  6
Continuous
370
    -3
390
F
  0
LAYER
  5
7B
330
2
100
AcDbSymbolTableRecord
100
AcDbLayerTableRecord
  2
D-8
 70
     0
 62
     7
  6
Continuous
370
    -3
390
F
  0
LAYER
  5
7C
330
2
100
AcDbSymbolTableRecord
100
AcDbLayerTableRecord
  2
D-0
 70
     0
 62
     7
  6
Continuous
370
    -3
390
F
  0
ENDTAB
  0
TABLE
  2
STYLE
  5
3
330
0
100
AcDbSymbolTable
 70
     2
  0
STYLE
  5
11
330
3
100
AcDbSymbolTableRecord
100
AcDbTextStyleTableRecord
  2
Standard
 70
     0
 40
0.0
 41
1.0
 50
0.0
 71
     0
 42
2.5
  3
txt
  4

  0
STYLE
  5
6E
330
3
100
AcDbSymbolTableRecord
100
AcDbTextStyleTableRecord
  2
ＭＳ ゴシック
 70
     0
 40
1.0
 41
1.0
 50
0.0
 71
     0
 42
2.5
  3

  4

1001
ACAD
1000
MS Gothic
1071
    32817
  0
ENDTAB
  0
TABLE
  2
VIEW
  5
6
330
0
100
AcDbSymbolTable
 70
     0
  0
ENDTAB
  0
TABLE
  2
UCS
  5
7
330
0
100
AcDbSymbolTable
 70
     0
  0
ENDTAB
  0
TABLE
  2
APPID
  5
9
330
0
100
AcDbSymbolTable
 70
     2
  0
APPID
  5
12
330
9
100
AcDbSymbolTableRecord
100
AcDbRegAppTableRecord
  2
ACAD
 70
     0
  0
APPID
  5
31D
330
9
100
AcDbSymbolTableRecord
100
AcDbRegAppTableRecord
  2
ACAD_MLEADERVER
 70
     0
  0
ENDTAB
  0
TABLE
  2
DIMSTYLE
  5
A
330
0
100
AcDbSymbolTable
 70
     1
100
AcDbDimStyleTable
  0
DIMSTYLE
105
27
330
A
100
AcDbSymbolTableRecord
100
AcDbDimStyleTableRecord
  2
ISO-25
 70
     0
 41
2.5
 42
0.625
 43
3.75
 44
1.25
 73
     0
 74
     0
 77
     1
 78
     8
140
2.5
141
2.5
143
0.03937007874016
147
0.625
171
     3
172
     1
178
     0
271
     2
272
     2
274
     3
278
    44
283
     0
284
     8
340
11
  0
ENDTAB
  0
TABLE
  2
BLOCK_RECORD
  5
1
330
0
100
AcDbSymbolTable
 70
     1
  0
BLOCK_RECORD
  5
1F
330
1
100
AcDbSymbolTableRecord
100
AcDbBlockTableRecord
  2
*Model_Space
340
22
  0
BLOCK_RECORD
  5
1B
330
1
100
AcDbSymbolTableRecord
100
AcDbBlockTableRecord
  2
*Paper_Space
340
1E
  0
BLOCK_RECORD
  5
23
330
1
100
AcDbSymbolTableRecord
100
AcDbBlockTableRecord
  2
*Paper_Space0
340
26
  0
ENDTAB
  0
ENDSEC
  0
SECTION
  2
BLOCKS
  0
BLOCK
  5
20
330
1F
100
AcDbEntity
  8
0
100
AcDbBlockBegin
  2
*Model_Space
 70
     0
 10
0.0
 20
0.0
 30
0.0
  3
*Model_Space
  1

  0
ENDBLK
  5
21
330
1F
100
AcDbEntity
  8
0
100
AcDbBlockEnd
  0
BLOCK
  5
1C
330
1B
100
AcDbEntity
 67
     1
  8
0
100
AcDbBlockBegin
  2
*Paper_Space
 70
     0
 10
0.0
 20
0.0
 30
0.0
  3
*Paper_Space
  1

  0
ENDBLK
  5
1D
330
1B
100
AcDbEntity
 67
     1
  8
0
100
AcDbBlockEnd
  0
BLOCK
  5
24
330
23
100
AcDbEntity
  8
0
100
AcDbBlockBegin
  2
*Paper_Space0
 70
     0
 10
0.0
 20
0.0
 30
0.0
  3
*Paper_Space0
  1

  0
ENDBLK
  5
25
330
23
100
AcDbEntity
  8
0
100
AcDbBlockEnd
  0
ENDSEC
  0
SECTION
  2
ENTITIES
  0
TEXT
  5
7D
330
1F
100
AcDbEntity
  8
F-5ﾚｲﾔ
  6
Continuous
 62
     2
370
     9
100
AcDbText
 10
194.0091984085477
 20
-266.5134504874309
 30
0.0
 40
6.096
  1
１：２
 41
1.083333333333333
  7
ＭＳ ゴシック
100
AcDbText
  0
TEXT
  5
7E
330
1F
100
AcDbEntity
  8
D-5
  6
Continuous
 62
     2
370
     9
100
AcDbText
 10
193.5811925300977
 20
-184.4719736270389
 30
0.0
 40
6.096
  1
適用荷重：歩行用
 41
1.109374999999999
  7
ＭＳ ゴシック
100
AcDbText
  0
TEXT
  5
7F
330
1F
100
AcDbEntity
  8
D-5
  6
Continuous
 62
     2
370
     9
100
AcDbText
 10
193.5811925300976
 20
-204.4719736270389
 30
0.0
 40
6.096
  1
　一時的にタイヤが乗り上げる程度においては
 41
1.11904761904762
  7
ＭＳ ゴシック
100
AcDbText
  0
TEXT
  5
80
330
1F
100
AcDbEntity
  8
D-5
  6
Continuous
 62
     2
370
     9
100
AcDbText
 10
193.5811925300977
 20
-194.4719736270389
 30
0.0
 40
6.096
  1
※自動車販売店の車輛展示スペースなどで
 41
1.118421052631579
  7
ＭＳ ゴシック
100
AcDbText
  0
TEXT
  5
81
330
1F
100
AcDbEntity
  8
D-5
  6
Continuous
 62
     2
370
     9
100
AcDbText
 10
193.5811925300977
 20
-214.4719736270389
 30
0.0
 40
6.096
  1
　強度に問題はありません。
 41
1.115384615384615
  7
ＭＳ ゴシック
100
AcDbText
  0
LINE
  5
82
330
1F
100
AcDbEntity
  8
D-7
  6
Continuous
 62
    30
370
     5
100
AcDbLine
 10
264.9586806106798
 20
-75.75019988180952
 30
0.0
 11
264.9586806106798
 21
-100.7501998818093
 31
0.0
  0
LINE
  5
83
330
1F
100
AcDbEntity
  8
D-7
  6
Continuous
 62
    30
370
     5
100
AcDbLine
 10
239.4586476187036
 20
-100.7501998818093
 30
0.0
 11
264.9586806106798
 21
-100.7501998818093
 31
0.0
  0
LINE
  5
84
330
1F
100
AcDbEntity
  8
D-7
  6
JWW_DASHED1
 62
    30
370
     5
100
AcDbLine
 10
239.4586476187036
 20
-99.2501998818093
 30
0.0
 11
264.9586806106798
 21
-99.2501998818093
 31
0.0
  0
LINE
  5
85
330
1F
100
AcDbEntity
  8
D-7
  6
JWW_DASHED1
 62
    30
370
     5
100
AcDbLine
 10
239.4586476187036
 20
-77.25019988180952
 30
0.0
 11
264.9586806106798
 21
-77.25019988180952
 31
0.0
  0
LINE
  5
86
330
1F
100
AcDbEntity
  8
D-7
  6
Continuous
 62
    30
370
     5
100
AcDbLine
 10
239.4586476187036
 20
-75.75019988180952
 30
0.0
 11
264.9586806106798
 21
-75.75019988180952
 31
0.0
  0
LINE
  5
87
330
1F
100
AcDbEntity
  8
D-7
  6
Continuous
 62
    30
370
     5
100
AcDbLine
 10
239.4586476187036
 20
-100.7501998818093
 30
0.0
 11
239.4586476187036
 21
-75.75019988180952
 31
0.0
  0
LINE
  5
88
330
1F
100
AcDbEntity
  8
D-7
  6
JWW_CENTER2
 62
    30
370
     5
100
AcDbLine
 10
260.9586806106798
 20
-101.2501998818093
 30
0.0
 11
260.9586806106798
 21
-98.7501998818093
 31
0.0
  0
LINE
  5
89
330
1F
100
AcDbEntity
  8
D-7
  6
JWW_DASHED1
 62
    30
370
     5
100
AcDbLine
 10
262.9586806106798
 20
-100.7501998818093
 30
0.0
 11
262.9586806106798
 21
-99.2501998818093
 31
0.0
  0
LINE
  5
8A
330
1F
100
AcDbEntity
  8
D-7
  6
JWW_DASHED1
 62
    30
370
     5
100
AcDbLine
 10
258.9586806106798
 20
-100.7501998818093
 30
0.0
 11
258.9586806106798
 21
-99.2501998818093
 31
0.0
  0
LINE
  5
8B
330
1F
100
AcDbEntity
  8
D-7
  6
JWW_CENTER2
 62
    30
370
     5
100
AcDbLine
 10
243.4586476187036
 20
-75.25019988180952
 30
0.0
 11
243.4586476187036
 21
-77.75019988180952
 31
0.0
  0
LINE
  5
8C
330
1F
100
AcDbEntity
  8
D-7
  6
JWW_DASHED1
 62
    30
370
     5
100
AcDbLine
 10
241.4586476187036
 20
-75.75019988180952
 30
0.0
 11
241.4586476187036
 21
-77.25019988180952
 31
0.0
  0
LINE
  5
8D
330
1F
100
AcDbEntity
  8
D-7
  6
JWW_DASHED1
 62
    30
370
     5
100
AcDbLine
 10
245.4586476187036
 20
-75.75019988180952
 30
0.0
 11
245.4586476187036
 21
-77.25019988180952
 31
0.0
  0
LINE
  5
8E
330
1F
100
AcDbEntity
  8
D-7
  6
JWW_CENTER2
 62
    30
370
     5
100
AcDbLine
 10
238.9586476187036
 20
-88.2501998818093
 30
0.0
 11
265.4586806106798
 21
-88.2501998818093
 31
0.0
  0
LINE
  5
8F
330
1F
100
AcDbEntity
  8
D-7
  6
JWW_CENTER2
 62
    30
370
     5
100
AcDbLine
 10
252.2086641146917
 20
-74.724786492882
 30
0.0
 11
252.2086641146917
 21
-102.0628200343647
 31
0.0
  0
LINE
  5
90
330
1F
100
AcDbEntity
  8
D-4
  6
Continuous
 62
     7
370
     9
100
AcDbLine
 10
239.4586476187036
 20
-65.47966365915067
 30
0.0
 11
264.9586806106798
 21
-65.47966365915067
 31
0.0
  0
LWPOLYLINE
  5
91
330
1F
100
AcDbEntity
  8
D-4
  6
Continuous
 62
     7
370
     9
100
AcDbPolyline
 90
        4
 70
     1
 43
0.4
 10
239.6586476187036
 20
-65.47966365915067
 42
0.4142135623731
 10
239.4586476187036
 20
-65.27966365915067
 42
0.4142135623731
 10
239.2586476187036
 20
-65.47966365915067
 42
0.4142135623731
 10
239.4586476187036
 20
-65.67966365915068
 42
0.4142135623731
  0
LWPOLYLINE
  5
92
330
1F
100
AcDbEntity
  8
D-4
  6
Continuous
 62
     7
370
     9
100
AcDbPolyline
 90
        4
 70
     1
 43
0.4
 10
265.1586806106798
 20
-65.47966365915067
 42
0.4142135623731
 10
264.9586806106798
 20
-65.27966365915067
 42
0.4142135623731
 10
264.7586806106798
 20
-65.47966365915067
 42
0.4142135623731
 10
264.9586806106798
 20
-65.67966365915068
 42
0.4142135623731
  0
LINE
  5
93
330
1F
100
AcDbEntity
  8
D-4
  6
Continuous
 62
     7
370
     9
100
AcDbLine
 10
239.4586476187036
 20
-64.87966365915076
 30
0.0
 11
239.4586476187036
 21
-71.75019988180952
 31
0.0
  0
LINE
  5
94
330
1F
100
AcDbEntity
  8
D-4
  6
Continuous
 62
     7
370
     9
100
AcDbLine
 10
264.9586806106798
 20
-64.87966365915076
 30
0.0
 11
264.9586806106798
 21
-71.75019988180952
 31
0.0
  0
TEXT
  5
95
330
1F
100
AcDbEntity
  8
D-4
  6
Continuous
 62
     2
370
   211
100
AcDbText
 10
243.4586641146917
 20
-63.35166365915067
 30
0.0
 40
6.096
  1
25.5
 41
1.09375
  7
ＭＳ ゴシック
100
AcDbText
  0
LINE
  5
96
330
1F
100
AcDbEntity
  8
D-4
  6
Continuous
 62
     7
370
     9
100
AcDbLine
 10
224.7141831059813
 20
-100.7501998818093
 30
0.0
 11
224.7141831059813
 21
-75.75019988180952
 31
0.0
  0
LWPOLYLINE
  5
97
330
1F
100
AcDbEntity
  8
D-4
  6
Continuous
 62
     7
370
     9
100
AcDbPolyline
 90
        4
 70
     1
 43
0.4
 10
224.9141831059813
 20
-100.7501998818093
 42
0.4142135623731
 10
224.7141831059813
 20
-100.5501998818093
 42
0.4142135623731
 10
224.5141831059813
 20
-100.7501998818093
 42
0.4142135623731
 10
224.7141831059813
 20
-100.9501998818093
 42
0.4142135623731
  0
LWPOLYLINE
  5
98
330
1F
100
AcDbEntity
  8
D-4
  6
Continuous
 62
     7
370
     9
100
AcDbPolyline
 90
        4
 70
     1
 43
0.4
 10
224.9141831059813
 20
-75.75019988180952
 42
0.4142135623731
 10
224.7141831059813
 20
-75.55019988180952
 42
0.4142135623731
 10
224.5141831059813
 20
-75.75019988180952
 42
0.4142135623731
 10
224.7141831059813
 20
-75.95019988180952
 42
0.4142135623731
  0
LINE
  5
99
330
1F
100
AcDbEntity
  8
D-4
  6
Continuous
 62
     7
370
     9
100
AcDbLine
 10
224.1141831059814
 20
-100.7501998818093
 30
0.0
 11
235.4586476187036
 21
-100.7501998818093
 31
0.0
  0
LINE
  5
9A
330
1F
100
AcDbEntity
  8
D-4
  6
Continuous
 62
     7
370
     9
100
AcDbLine
 10
224.1141831059814
 20
-75.75019988180952
 30
0.0
 11
235.4586476187036
 21
-75.75019988180952
 31
0.0
  0
TEXT
  5
9B
330
1F
100
AcDbEntity
  8
D-4
  6
Continuous
 62
     2
370
   211
100
AcDbText
 10
222.5861831059813
 20
-92.5001998818093
 30
0.0
 40
6.096
  1
25
 50
90.0
 41
1.0625
  7
ＭＳ ゴシック
100
AcDbText
  0
ARC
  5
9C
330
1F
100
AcDbEntity
  8
D-7
  6
Continuous
 62
    30
370
     5
100
AcDbCircle
 10
297.9586806106798
 20
-97.7501998818093
 30
0.0
 40
3.0
100
AcDbArc
 50
180.0
 51
270.0
  0
ARC
  5
9D
330
1F
100
AcDbEntity
  8
D-7
  6
Continuous
 62
    30
370
     5
100
AcDbCircle
 10
297.9586806106798
 20
-78.75019988180952
 30
0.0
 40
3.0
100
AcDbArc
 50
90.0
 51
180.0
  0
LINE
  5
9E
330
1F
100
AcDbEntity
  8
D-7
  6
Continuous
 62
    30
370
     5
100
AcDbLine
 10
294.9586806106798
 20
-97.7501998818093
 30
0.0
 11
294.9586806106798
 21
-78.75019988180952
 31
0.0
  0
LINE
  5
9F
330
1F
100
AcDbEntity
  8
D-7
  6
Continuous
 62
    30
370
     5
100
AcDbLine
 10
297.9586806106798
 20
-100.7501998818093
 30
0.0
 11
309.4586806106798
 21
-100.7501998818093
 31
0.0
  0
LINE
  5
A0
330
1F
100
AcDbEntity
  8
D-7
  6
Continuous
 62
    30
370
     5
100
AcDbLine
 10
309.4586806106798
 20
-100.7501998818093
 30
0.0
 11
309.4586806106798
 21
-99.2501998818093
 31
0.0
  0
LINE
  5
A1
330
1F
100
AcDbEntity
  8
D-7
  6
Continuous
 62
    30
370
     5
100
AcDbLine
 10
297.9586806106798
 20
-75.75019988180952
 30
0.0
 11
309.4586806106798
 21
-75.75019988180952
 31
0.0
  0
LINE
  5
A2
330
1F
100
AcDbEntity
  8
D-7
  6
Continuous
 62
    30
370
     5
100
AcDbLine
 10
309.4586806106798
 20
-77.25019988180952
 30
0.0
 11
309.4586806106798
 21
-75.75019988180952
 31
0.0
  0
LINE
  5
A3
330
1F
100
AcDbEntity
  8
D-7
  6
Continuous
 62
    30
370
     5
100
AcDbLine
 10
296.9586806106798
 20
-77.25019988180952
 30
0.0
 11
309.4586806106798
 21
-77.25019988180952
 31
0.0
  0
ARC
  5
A4
330
1F
100
AcDbEntity
  8
D-7
  6
Continuous
 62
    30
370
     5
100
AcDbCircle
 10
296.9586806106798
 20
-77.75019988180952
 30
0.0
 40
0.5
100
AcDbArc
 50
90.0
 51
180.0
  0
LINE
  5
A5
330
1F
100
AcDbEntity
  8
D-7
  6
Continuous
 62
    30
370
     5
100
AcDbLine
 10
296.9586806106798
 20
-99.2501998818093
 30
0.0
 11
309.4586806106798
 21
-99.2501998818093
 31
0.0
  0
LINE
  5
A6
330
1F
100
AcDbEntity
  8
D-7
  6
Continuous
 62
    30
370
     5
100
AcDbLine
 10
296.4586806106798
 20
-98.7501998818093
 30
0.0
 11
296.4586806106798
 21
-77.75019988180952
 31
0.0
  0
ARC
  5
A7
330
1F
100
AcDbEntity
  8
D-7
  6
Continuous
 62
    30
370
     5
100
AcDbCircle
 10
296.9586806106798
 20
-98.7501998818093
 30
0.0
 40
0.5
100
AcDbArc
 50
180.0
 51
270.0
  0
LINE
  5
A8
330
1F
100
AcDbEntity
  8
D-7
  6
JWW_CENTER2
 62
    30
370
     5
100
AcDbLine
 10
305.4586806106798
 20
-101.2501998818093
 30
0.0
 11
305.4586806106798
 21
-98.7501998818093
 31
0.0
  0
LINE
  5
A9
330
1F
100
AcDbEntity
  8
D-7
  6
JWW_DASHED1
 62
    30
370
     5
100
AcDbLine
 10
307.4586806106798
 20
-100.7501998818093
 30
0.0
 11
307.4586806106798
 21
-99.2501998818093
 31
0.0
  0
LINE
  5
AA
330
1F
100
AcDbEntity
  8
D-7
  6
JWW_DASHED1
 62
    30
370
     5
100
AcDbLine
 10
303.4586806106798
 20
-100.7501998818093
 30
0.0
 11
303.4586806106798
 21
-99.2501998818093
 31
0.0
  0
LINE
  5
AB
330
1F
100
AcDbEntity
  8
D-7
  6
JWW_CENTER2
 62
    30
370
     5
100
AcDbLine
 10
305.4586806106798
 20
-75.25019988180952
 30
0.0
 11
305.4586806106798
 21
-77.75019988180952
 31
0.0
  0
LINE
  5
AC
330
1F
100
AcDbEntity
  8
D-7
  6
JWW_DASHED1
 62
    30
370
     5
100
AcDbLine
 10
307.4586806106798
 20
-75.75019988180952
 30
0.0
 11
307.4586806106798
 21
-77.25019988180952
 31
0.0
  0
LINE
  5
AD
330
1F
100
AcDbEntity
  8
D-7
  6
JWW_DASHED1
 62
    30
370
     5
100
AcDbLine
 10
303.4586806106798
 20
-75.75019988180952
 30
0.0
 11
303.4586806106798
 21
-77.25019988180952
 31
0.0
  0
LINE
  5
AE
330
1F
100
AcDbEntity
  8
D-7
  6
JWW_CENTER2
 62
    30
370
     5
100
AcDbLine
 10
294.9586806106798
 20
-88.2501998818093
 30
0.0
 11
309.4586806106798
 21
-88.2501998818093
 31
0.0
  0
LINE
  5
AF
330
1F
100
AcDbEntity
  8
D-4
  6
Continuous
 62
     7
370
     9
100
AcDbLine
 10
294.9586806106798
 20
-65.47966365915067
 30
0.0
 11
309.4586806106798
 21
-65.47966365915067
 31
0.0
  0
LWPOLYLINE
  5
B0
330
1F
100
AcDbEntity
  8
D-4
  6
Continuous
 62
     7
370
     9
100
AcDbPolyline
 90
        4
 70
     1
 43
0.4
 10
295.1586806106798
 20
-65.47966365915067
 42
0.4142135623731
 10
294.9586806106798
 20
-65.27966365915067
 42
0.4142135623731
 10
294.7586806106798
 20
-65.47966365915067
 42
0.4142135623731
 10
294.9586806106798
 20
-65.67966365915068
 42
0.4142135623731
  0
LWPOLYLINE
  5
B1
330
1F
100
AcDbEntity
  8
D-4
  6
Continuous
 62
     7
370
     9
100
AcDbPolyline
 90
        4
 70
     1
 43
0.4
 10
309.6586806106798
 20
-65.47966365915067
 42
0.4142135623731
 10
309.4586806106798
 20
-65.27966365915067
 42
0.4142135623731
 10
309.2586806106798
 20
-65.47966365915067
 42
0.4142135623731
 10
309.4586806106798
 20
-65.67966365915068
 42
0.4142135623731
  0
LINE
  5
B2
330
1F
100
AcDbEntity
  8
D-4
  6
Continuous
 62
     7
370
     9
100
AcDbLine
 10
294.9586806106798
 20
-64.87966365915076
 30
0.0
 11
294.9586806106798
 21
-74.75019988180952
 31
0.0
  0
LINE
  5
B3
330
1F
100
AcDbEntity
  8
D-4
  6
Continuous
 62
     7
370
     9
100
AcDbLine
 10
309.4586806106798
 20
-64.87966365915076
 30
0.0
 11
309.4586806106798
 21
-71.75019988180952
 31
0.0
  0
TEXT
  5
B4
330
1F
100
AcDbEntity
  8
D-4
  6
Continuous
 62
     2
370
   211
100
AcDbText
 10
293.4586806106798
 20
-63.35166365915067
 30
0.0
 40
6.096
  1
14.5
 41
1.09375
  7
ＭＳ ゴシック
100
AcDbText
  0
TEXT
  5
B5
330
1F
100
AcDbEntity
  8
D-5
  6
Continuous
 62
     2
370
     9
100
AcDbText
 10
287.5293441494778
 20
-101.8809571232475
 30
0.0
 40
6.096
  1
HL方向
 50
90.0
 41
1.083333333333343
  7
ＭＳ ゴシック
100
AcDbText
  0
LINE
  5
B6
330
1F
100
AcDbEntity
  8
D-5
  6
Continuous
 62
     7
370
     9
100
AcDbLine
 10
290.2236584561191
 20
-101.8809571232475
 30
0.0
 11
290.2236584561191
 21
-73.98361878676178
 31
0.0
  0
LINE
  5
B7
330
1F
100
AcDbEntity
  8
D-5
  6
Continuous
 62
     7
370
     9
100
AcDbLine
 10
290.2236584561191
 20
-73.98361878676178
 30
0.0
 11
291.0068156094395
 21
-79.93228795500477
 31
0.0
  0
LINE
  5
B8
330
1F
100
AcDbEntity
  8
D-5
  6
Continuous
 62
     7
370
     9
100
AcDbLine
 10
290.2236584561191
 20
-73.98361878676178
 30
0.0
 11
289.4405013027989
 21
-79.93228795500477
 31
0.0
  0
LINE
  5
B9
330
1F
100
AcDbEntity
  8
D-4
  6
Continuous
 62
     7
370
     9
100
AcDbLine
 10
328.1710466056176
 20
-100.7501998818093
 30
0.0
 11
328.1710466056176
 21
-99.2501998818093
 31
0.0
  0
LWPOLYLINE
  5
BA
330
1F
100
AcDbEntity
  8
D-4
  6
Continuous
 62
     7
370
     9
100
AcDbPolyline
 90
        4
 70
     1
 43
0.4
 10
328.3710466056176
 20
-100.7501998818093
 42
0.4142135623731
 10
328.1710466056176
 20
-100.5501998818093
 42
0.4142135623731
 10
327.9710466056176
 20
-100.7501998818093
 42
0.4142135623731
 10
328.1710466056176
 20
-100.9501998818093
 42
0.4142135623731
  0
LWPOLYLINE
  5
BB
330
1F
100
AcDbEntity
  8
D-4
  6
Continuous
 62
     7
370
     9
100
AcDbPolyline
 90
        4
 70
     1
 43
0.4
 10
328.3710466056176
 20
-99.2501998818093
 42
0.4142135623731
 10
328.1710466056176
 20
-99.05019988180929
 42
0.4142135623731
 10
327.9710466056176
 20
-99.2501998818093
 42
0.4142135623731
 10
328.1710466056176
 20
-99.4501998818093
 42
0.4142135623731
  0
LINE
  5
BC
330
1F
100
AcDbEntity
  8
D-4
  6
Continuous
 62
     7
370
     9
100
AcDbLine
 10
328.7710466056176
 20
-100.7501998818093
 30
0.0
 11
313.4586806106798
 21
-100.7501998818093
 31
0.0
  0
LINE
  5
BD
330
1F
100
AcDbEntity
  8
D-4
  6
Continuous
 62
     7
370
     9
100
AcDbLine
 10
328.7710466056176
 20
-99.2501998818093
 30
0.0
 11
313.4586806106798
 21
-99.2501998818093
 31
0.0
  0
LINE
  5
BE
330
1F
100
AcDbEntity
  8
D-4
  6
Continuous
 62
     7
370
     9
100
AcDbLine
 10
328.1710466056176
 20
-100.7501998818093
 30
0.0
 11
328.1710466056176
 21
-116.4784876166493
 31
0.0
  0
TEXT
  5
BF
330
1F
100
AcDbEntity
  8
D-4
  6
Continuous
 62
     2
370
   211
100
AcDbText
 10
325.8430466056175
 20
-115.7482076887393
 30
0.0
 40
6.096
  1
1.5
 50
90.0
 41
1.083333333333333
  7
ＭＳ ゴシック
100
AcDbText
  0
LINE
  5
C0
330
1F
100
AcDbEntity
  8
D-7
  6
Continuous
 62
    30
370
     5
100
AcDbLine
 10
239.4586476187036
 20
-110.7501998818093
 30
0.0
 11
264.9586806106798
 21
-110.7501998818093
 31
0.0
  0
LINE
  5
C1
330
1F
100
AcDbEntity
  8
D-7
  6
Continuous
 62
    30
370
     5
100
AcDbLine
 10
239.4586476187036
 20
-124.2501998818093
 30
0.0
 11
239.4586476187036
 21
-110.7501998818093
 31
0.0
  0
ARC
  5
C2
330
1F
100
AcDbEntity
  8
D-7
  6
Continuous
 62
    30
370
     5
100
AcDbCircle
 10
240.4586476187036
 20
-124.2501998818093
 30
0.0
 40
1.0
100
AcDbArc
 50
180.0
 51
270.0
  0
LINE
  5
C3
330
1F
100
AcDbEntity
  8
D-7
  6
Continuous
 62
    30
370
     5
100
AcDbLine
 10
263.9586806106798
 20
-125.2501998818093
 30
0.0
 11
240.4586476187036
 21
-125.2501998818093
 31
0.0
  0
LINE
  5
C4
330
1F
100
AcDbEntity
  8
D-7
  6
Continuous
 62
    30
370
     5
100
AcDbLine
 10
264.9586806106798
 20
-124.2501998818093
 30
0.0
 11
264.9586806106798
 21
-110.7501998818093
 31
0.0
  0
ARC
  5
C5
330
1F
100
AcDbEntity
  8
D-7
  6
Continuous
 62
    30
370
     5
100
AcDbCircle
 10
263.9586806106798
 20
-124.2501998818093
 30
0.0
 40
1.0
100
AcDbArc
 50
270.0
 51
0.0
  0
CIRCLE
  5
C6
330
1F
100
AcDbEntity
  8
D-7
  6
Continuous
 62
    30
370
     5
100
AcDbCircle
 10
260.9586806106798
 20
-121.2501998818093
 30
0.0
 40
2.0
  0
LINE
  5
C7
330
1F
100
AcDbEntity
  8
D-7
  6
JWW_CENTER2
 62
    30
370
     5
100
AcDbLine
 10
263.9586806106798
 20
-121.2501998818093
 30
0.0
 11
257.9586806106798
 21
-121.2501998818093
 31
0.0
  0
LINE
  5
C8
330
1F
100
AcDbEntity
  8
D-7
  6
JWW_CENTER2
 62
    30
370
     5
100
AcDbLine
 10
260.9586806106798
 20
-124.2501998818093
 30
0.0
 11
260.9586806106798
 21
-118.2501998818093
 31
0.0
  0
LINE
  5
C9
330
1F
100
AcDbEntity
  8
D-7
  6
JWW_DASHED1
 62
    30
370
     5
100
AcDbLine
 10
239.4586476187036
 20
-112.2501998818093
 30
0.0
 11
264.9586806106798
 21
-112.2501998818093
 31
0.0
  0
LINE
  5
CA
330
1F
100
AcDbEntity
  8
D-7
  6
JWW_CENTER2
 62
    30
370
     5
100
AcDbLine
 10
240.4586476187036
 20
-121.2501998818093
 30
0.0
 11
246.4586476187036
 21
-121.2501998818093
 31
0.0
  0
LINE
  5
CB
330
1F
100
AcDbEntity
  8
D-7
  6
JWW_CENTER2
 62
    30
370
     5
100
AcDbLine
 10
243.4586476187036
 20
-124.2501998818093
 30
0.0
 11
243.4586476187036
 21
-118.2501998818093
 31
0.0
  0
CIRCLE
  5
CC
330
1F
100
AcDbEntity
  8
D-7
  6
JWW_DASHED1
 62
    30
370
     5
100
AcDbCircle
 10
243.4586476187036
 20
-121.2501998818093
 30
0.0
 40
2.0
  0
LINE
  5
CD
330
1F
100
AcDbEntity
  8
D-4
  6
Continuous
 62
     7
370
     9
100
AcDbLine
 10
245.4426148557994
 20
-145.0703371137093
 30
0.0
 11
307.4426148557994
 21
-145.0703371137093
 31
0.0
  0
TEXT
  5
CE
330
1F
100
AcDbEntity
  8
D-1
  6
Continuous
 62
     2
370
     9
100
AcDbText
 10
245.4426148557994
 20
-142.1423371137093
 30
0.0
 40
6.096
  1
キャップ詳細図
 41
1.107142857142857
  7
ＭＳ ゴシック
100
AcDbText
  0
TEXT
  5
CF
330
1F
100
AcDbEntity
  8
F-5ﾚｲﾔ
  6
Continuous
 62
     2
370
     9
100
AcDbText
 10
-159.2426525761932
 20
-261.4865321530788
 30
0.0
 40
6.096
  1
フロアーハッチ　薄層床仕上材充填用（充填深さ：11.5mm）　屋内用　一般形
 41
0.875
  7
ＭＳ ゴシック
100
AcDbText
  0
TEXT
  5
D0
330
1F
100
AcDbEntity
  8
F-5ﾚｲﾔ
  6
Continuous
 62
     2
370
     9
100
AcDbText
 10
-159.2426525761932
 20
-270.037357127339
 30
0.0
 40
6.096
  1
ステンレス製　フロアコンセント用カバー　配線取出口付　ＭＳＢＣ－Ｆ－２００
 41
0.85
  7
ＭＳ ゴシック
100
AcDbText
  0
LINE
  5
D1
330
1F
100
AcDbEntity
  8
D-5
  6
Continuous
 62
     7
370
     9
100
AcDbLine
 10
-8.349964090296226
 20
-178.639262694933
 30
0.0
 11
31.15003590970377
 21
-178.639262694933
 31
0.0
  0
TEXT
  5
D2
330
1F
100
AcDbEntity
  8
D-5
  6
Continuous
 62
     2
370
     9
100
AcDbText
 10
-8.349964090296226
 20
-175.711262694933
 30
0.0
 40
6.096
  1
A-A断面図
 41
1.097222222222222
  7
ＭＳ ゴシック
100
AcDbText
  0
LINE
  5
D3
330
1F
100
AcDbEntity
  8
D-5
  6
Continuous
 62
     7
370
     9
100
AcDbLine
 10
77.52110643683142
 20
-22.14272740070942
 30
0.0
 11
113.5211064368314
 21
-22.14272740070942
 31
0.0
  0
TEXT
  5
D4
330
1F
100
AcDbEntity
  8
D-5
  6
Continuous
 62
     2
370
     9
100
AcDbText
 10
77.52110643683142
 20
-19.21472740070942
 30
0.0
 40
6.096
  1
モルタル止め
 41
0.75
  7
ＭＳ ゴシック
100
AcDbText
  0
TEXT
  5
D5
330
1F
100
AcDbEntity
  8
D-5
  6
Continuous
 62
     2
370
     9
100
AcDbText
 10
77.52110643683142
 20
-30.81472740070942
 30
0.0
 40
6.096
  1
SUS430
 41
1.104166666666667
  7
ＭＳ ゴシック
100
AcDbText
  0
LINE
  5
D6
330
1F
100
AcDbEntity
  8
D-5
  6
Continuous
 62
     7
370
     9
100
AcDbLine
 10
77.52110643683142
 20
-22.14272740070942
 30
0.0
 11
35.35525649849319
 21
-95.176121838236
 31
0.0
  0
LINE
  5
D7
330
1F
100
AcDbEntity
  8
D-5
  6
Continuous
 62
     7
370
     9
100
AcDbLine
 10
35.35525649849319
 20
-95.176121838236
 30
0.0
 11
37.26867366031865
 21
-90.55672417567953
 31
0.0
  0
LINE
  5
D8
330
1F
100
AcDbEntity
  8
D-5
  6
Continuous
 62
     7
370
     9
100
AcDbLine
 10
35.35525649849319
 20
-95.176121838236
 30
0.0
 11
38.39906364353681
 21
-91.2093551367798
 31
0.0
  0
LINE
  5
D9
330
1F
100
AcDbEntity
  8
D-5
  6
Continuous
 62
     7
370
     9
100
AcDbLine
 10
128.5067353188979
 20
-44.64786346040387
 30
0.0
 11
155.0067353188979
 21
-44.64786346040387
 31
0.0
  0
TEXT
  5
DA
330
1F
100
AcDbEntity
  8
D-5
  6
Continuous
 62
     2
370
     9
100
AcDbText
 10
128.5067353188979
 20
-41.71986346040387
 30
0.0
 40
6.096
  1
蓋
  7
ＭＳ ゴシック
100
AcDbText
  0
TEXT
  5
DB
330
1F
100
AcDbEntity
  8
D-5
  6
Continuous
 62
     2
370
     9
100
AcDbText
 10
128.5067353188979
 20
-53.31986346040387
 30
0.0
 40
6.096
  1
SUS304
 41
1.104166666666667
  7
ＭＳ ゴシック
100
AcDbText
  0
LINE
  5
DC
330
1F
100
AcDbEntity
  8
D-5
  6
Continuous
 62
     7
370
     9
100
AcDbLine
 10
128.5067353188979
 20
-44.64786346040387
 30
0.0
 11
100.2002342890464
 21
-93.67616142860767
 31
0.0
  0
LINE
  5
DD
330
1F
100
AcDbEntity
  8
D-5
  6
Continuous
 62
     7
370
     9
100
AcDbLine
 10
100.2002342890464
 20
-93.67616142860767
 30
0.0
 11
102.1136514508718
 21
-89.0567637660512
 31
0.0
  0
LINE
  5
DE
330
1F
100
AcDbEntity
  8
D-5
  6
Continuous
 62
     7
370
     9
100
AcDbLine
 10
100.2002342890464
 20
-93.67616142860767
 30
0.0
 11
103.24404143409
 21
-89.70939472715146
 31
0.0
  0
LINE
  5
DF
330
1F
100
AcDbEntity
  8
D-5
  6
Continuous
 62
     7
370
     9
100
AcDbLine
 10
128.5067353188979
 20
-70.04640972133302
 30
0.0
 11
182.0067353188979
 21
-70.04640972133302
 31
0.0
  0
TEXT
  5
E0
330
1F
100
AcDbEntity
  8
D-5
  6
Continuous
 62
     2
370
     9
100
AcDbText
 10
128.5067353188979
 20
-67.11840972133302
 30
0.0
 40
6.096
  1
受枠　RL-15P
 41
1.114583333333333
  7
ＭＳ ゴシック
100
AcDbText
  0
TEXT
  5
E1
330
1F
100
AcDbEntity
  8
D-5
  6
Continuous
 62
     2
370
     9
100
AcDbText
 10
128.5067353188979
 20
-78.71840972133302
 30
0.0
 40
6.096
  1
SUS304
 41
1.104166666666667
  7
ＭＳ ゴシック
100
AcDbText
  0
LINE
  5
E2
330
1F
100
AcDbEntity
  8
D-5
  6
Continuous
 62
     7
370
     9
100
AcDbLine
 10
128.5067353188979
 20
-70.04640972133302
 30
0.0
 11
111.4000359097047
 21
-99.67608224786431
 31
0.0
  0
LINE
  5
E3
330
1F
100
AcDbEntity
  8
D-5
  6
Continuous
 62
     7
370
     9
100
AcDbLine
 10
111.4000359097047
 20
-99.67608224786431
 30
0.0
 11
113.3134530715301
 21
-95.05668458530785
 31
0.0
  0
LINE
  5
E4
330
1F
100
AcDbEntity
  8
D-5
  6
Continuous
 62
     7
370
     9
100
AcDbLine
 10
111.4000359097047
 20
-99.67608224786431
 30
0.0
 11
114.4438430547483
 21
-95.70931554640812
 31
0.0
  0
LINE
  5
E5
330
1F
100
AcDbEntity
  8
D-5
  6
Continuous
 62
     7
370
     9
100
AcDbLine
 10
146.5449835649893
 20
-145.0703371137093
 30
0.0
 11
199.5449835649893
 21
-145.0703371137093
 31
0.0
  0
TEXT
  5
E6
330
1F
100
AcDbEntity
  8
D-5
  6
Continuous
 62
     2
370
     9
100
AcDbText
 10
146.5449835649893
 20
-142.1423371137093
 30
0.0
 40
6.096
  1
回転アンカー
 41
1.104166666666667
  7
ＭＳ ゴシック
100
AcDbText
  0
TEXT
  5
E7
330
1F
100
AcDbEntity
  8
D-5
  6
Continuous
 62
     2
370
     9
100
AcDbText
 10
146.5449835649893
 20
-153.7423371137094
 30
0.0
 40
6.096
  1
SECC
 41
1.093750000000002
  7
ＭＳ ゴシック
100
AcDbText
  0
LINE
  5
E8
330
1F
100
AcDbEntity
  8
D-5
  6
Continuous
 62
     7
370
     9
100
AcDbLine
 10
146.5449835649893
 20
-145.0703371137093
 30
0.0
 11
130.9018817463441
 21
-117.9756899758429
 31
0.0
  0
LINE
  5
E9
330
1F
100
AcDbEntity
  8
D-5
  6
Continuous
 62
     7
370
     9
100
AcDbLine
 10
130.9018817463441
 20
-117.9756899758429
 30
0.0
 11
133.9456888913877
 21
-121.9424566772991
 31
0.0
  0
LINE
  5
EA
330
1F
100
AcDbEntity
  8
D-5
  6
Continuous
 62
     7
370
     9
100
AcDbLine
 10
130.9018817463441
 20
-117.9756899758429
 30
0.0
 11
132.8152989081696
 21
-122.5950876383994
 31
0.0
  0
LINE
  5
EB
330
1F
100
AcDbEntity
  8
D-5
  6
Continuous
 62
     7
370
     9
100
AcDbLine
 10
91.13997644038079
 20
-167.0391835141897
 30
0.0
 11
135.1399764403808
 21
-167.0391835141897
 31
0.0
  0
TEXT
  5
EC
330
1F
100
AcDbEntity
  8
D-5
  6
Continuous
 62
     2
370
     9
100
AcDbText
 10
91.13997644038079
 20
-164.1111835141897
 30
0.0
 40
6.096
  1
クッション
 41
1.1
  7
ＭＳ ゴシック
100
AcDbText
  0
TEXT
  5
ED
330
1F
100
AcDbEntity
  8
D-5
  6
Continuous
 62
     2
370
     9
100
AcDbText
 10
91.13997644038079
 20
-175.7111835141897
 30
0.0
 40
6.096
  1
CR
 41
1.0625
  7
ＭＳ ゴシック
100
AcDbText
  0
LINE
  5
EE
330
1F
100
AcDbEntity
  8
D-5
  6
Continuous
 62
     7
370
     9
100
AcDbLine
 10
91.13997644038079
 20
-167.0391835141897
 30
0.0
 11
57.35827342016995
 21
-108.5275575169815
 31
0.0
  0
LINE
  5
EF
330
1F
100
AcDbEntity
  8
D-5
  6
Continuous
 62
     7
370
     9
100
AcDbLine
 10
57.35827342016995
 20
-108.5275575169815
 30
0.0
 11
60.40208056521362
 21
-112.4943242184377
 31
0.0
  0
LINE
  5
F0
330
1F
100
AcDbEntity
  8
D-5
  6
Continuous
 62
     7
370
     9
100
AcDbLine
 10
57.35827342016995
 20
-108.5275575169815
 30
0.0
 11
59.27169058199541
 21
-113.1469551795379
 31
0.0
  0
LINE
  5
F1
330
1F
100
AcDbEntity
  8
D-5
  6
Continuous
 62
     7
370
     9
100
AcDbLine
 10
39.34881172332712
 20
230.2605246064967
 30
0.0
 11
101.3488117233272
 21
230.2605246064967
 31
0.0
  0
TEXT
  5
F2
330
1F
100
AcDbEntity
  8
D-5
  6
Continuous
 62
     2
370
     9
100
AcDbText
 10
39.34881172332717
 20
233.1885246064967
 30
0.0
 40
6.096
  1
キャップ
 41
0.84375
  7
ＭＳ ゴシック
100
AcDbText
  0
TEXT
  5
F3
330
1F
100
AcDbEntity
  8
D-5
  6
Continuous
 62
     2
370
     9
100
AcDbText
 10
39.34881172332717
 20
221.5885246064967
 30
0.0
 40
6.096
  1
SUS304　t=1.5
 41
1.065384615384617
  7
ＭＳ ゴシック
100
AcDbText
  0
TEXT
  5
F4
330
1F
100
AcDbEntity
  8
D-5
  6
Continuous
 62
     7
370
     9
100
AcDbText
 10
39.34881172332717
 20
214.6402280462397
 30
0.0
 40
4.572
  1
上面ヘアライン仕上
 41
1.148148148148148
  7
ＭＳ ゴシック
100
AcDbText
  0
LINE
  5
F5
330
1F
100
AcDbEntity
  8
D-5
  6
Continuous
 62
     7
370
     9
100
AcDbLine
 10
39.34881172332712
 20
230.2605246064967
 30
0.0
 11
23.15003590970377
 21
202.2034218768833
 31
0.0
  0
LINE
  5
F6
330
1F
100
AcDbEntity
  8
D-5
  6
Continuous
 62
     7
370
     9
100
AcDbLine
 10
23.15003590970377
 20
202.2034218768833
 30
0.0
 11
25.06345307152924
 21
206.8228195394398
 31
0.0
  0
LINE
  5
F7
330
1F
100
AcDbEntity
  8
D-5
  6
Continuous
 62
     7
370
     9
100
AcDbLine
 10
23.15003590970377
 20
202.2034218768833
 30
0.0
 11
26.19384305474745
 21
206.1701885783395
 31
0.0
  0
LWPOLYLINE
  5
F8
330
1F
100
AcDbEntity
  8
D-4
  6
Continuous
 62
     7
370
     9
100
AcDbPolyline
 90
        4
 70
     1
 43
0.4
 10
-7.11285172531966
 20
-108.6762010189793
 42
0.4142135623731
 10
-7.312851725319661
 20
-108.4762010189793
 42
0.4142135623731
 10
-7.512851725319661
 20
-108.6762010189793
 42
0.4142135623731
 10
-7.312851725319661
 20
-108.8762010189793
 42
0.4142135623731
  0
LINE
  5
F9
330
1F
100
AcDbEntity
  8
D-4
  6
Continuous
 62
     7
370
     9
100
AcDbLine
 10
-7.312851725319661
 20
-108.6762010189793
 30
0.0
 11
-7.312851725319661
 21
-108.1759238863779
 31
0.0
  0
LWPOLYLINE
  5
FA
330
1F
100
AcDbEntity
  8
D-4
  6
Continuous
 62
     7
370
     9
100
AcDbPolyline
 90
        4
 70
     1
 43
0.4
 10
-7.11285172531966
 20
-108.1759238863779
 42
0.4142135623731
 10
-7.312851725319661
 20
-107.9759238863779
 42
0.4142135623731
 10
-7.512851725319661
 20
-108.1759238863779
 42
0.4142135623731
 10
-7.312851725319661
 20
-108.3759238863779
 42
0.4142135623731
  0
LINE
  5
FB
330
1F
100
AcDbEntity
  8
D-4
  6
Continuous
 62
     7
370
     9
100
AcDbLine
 10
7.204959320503576
 20
-129.6154793724484
 30
0.0
 11
7.204959320503576
 21
-118.3544300153974
 31
0.0
  0
TEXT
  5
FC
330
1F
100
AcDbEntity
  8
D-4
  6
Continuous
 62
     2
370
   211
100
AcDbText
 10
4.571732459617962
 20
-128.2927042522763
 30
0.0
 40
6.096
  1
0.5
 50
90.0
 41
0.7666666666666515
  7
ＭＳ ゴシック
100
AcDbText
  0
LINE
  5
FD
330
1F
100
AcDbEntity
  8
D-4
  6
Continuous
 62
     7
370
     9
100
AcDbLine
 10
7.204959320503576
 20
-118.3544300153974
 30
0.0
 11
-7.328859502934165
 21
-108.3963416192612
 31
0.0
  0
LINE
  5
FE
330
1F
100
AcDbEntity
  8
D-4
  6
Continuous
 62
     7
370
     9
100
AcDbLine
 10
-6.712851725319297
 20
-108.1759238863779
 30
0.0
 11
-54.59996409029623
 21
-108.1759238863779
 31
0.0
  0
LINE
  5
FF
330
1F
100
AcDbEntity
  8
D-4
  6
Continuous
 62
     7
370
     9
100
AcDbLine
 10
-6.712851725319297
 20
-108.6762010189793
 30
0.0
 11
-54.60001357826036
 21
-108.6762010189793
 31
0.0
  0
LINE
  5
100
330
1F
100
AcDbEntity
  8
D-4
  6
Continuous
 62
     7
370
     9
100
AcDbLine
 10
-6.712851725319297
 20
-111.6759634767493
 30
0.0
 11
-54.60001357826036
 21
-111.6759634767493
 31
0.0
  0
LINE
  5
101
330
1F
100
AcDbEntity
  8
D-1
  6
Continuous
 62
     2
370
     9
100
AcDbLine
 10
1.40003590944093
 20
-108.676003067121
 30
0.0
 11
1.40003590944093
 21
-111.676003067121
 31
0.0
  0
LINE
  5
102
330
1F
100
AcDbEntity
  8
D-1
  6
Continuous
 62
     2
370
     9
100
AcDbLine
 10
21.40003590944093
 20
-108.676003067121
 30
0.0
 11
21.40003590944093
 21
-111.676003067121
 31
0.0
  0
LINE
  5
103
330
1F
100
AcDbEntity
  8
D-1
  6
Continuous
 62
     2
370
     9
100
AcDbLine
 10
1.40003590944093
 20
-109.676003067121
 30
0.0
 11
0.4000359094409305
 21
-108.676003067121
 31
0.0
  0
LINE
  5
104
330
1F
100
AcDbEntity
  8
D-1
  6
Continuous
 62
     2
370
     9
100
AcDbLine
 10
21.40003590944093
 20
-109.676003067121
 30
0.0
 11
22.40003590944093
 21
-108.676003067121
 31
0.0
  0
LINE
  5
105
330
1F
100
AcDbEntity
  8
D-1
  6
JWW_CENTER1
 62
     2
370
     9
100
AcDbLine
 10
11.40003590970377
 20
-88.5966321046401
 30
0.0
 11
11.40003590970377
 21
-118.953857102739
 31
0.0
  0
LINE
  5
106
330
1F
100
AcDbEntity
  8
D-1
  6
Continuous
 62
     4
370
     9
100
AcDbLine
 10
-12.55518467908541
 20
-95.17604265749264
 30
0.0
 11
-13.05518467908541
 21
-96.04206806127718
 31
0.0
  0
LINE
  5
107
330
1F
100
AcDbEntity
  8
D-1
  6
Continuous
 62
     4
370
     9
100
AcDbLine
 10
2.301221781465529
 20
-104.9080934650617
 30
0.0
 11
-13.05518467908541
 21
-96.04206806127718
 31
0.0
  0
ARC
  5
108
330
1F
100
AcDbEntity
  8
D-1
  6
Continuous
 62
     4
370
     9
100
AcDbCircle
 10
3.301221781465529
 20
-103.1760426574926
 30
0.0
 40
2.0
100
AcDbArc
 50
240.0000000000001
 51
270.0
  0
LINE
  5
109
330
1F
100
AcDbEntity
  8
D-1
  6
Continuous
 62
     4
370
     9
100
AcDbLine
 10
3.033272589034596
 20
-104.1760426574926
 30
0.0
 11
-12.55524774136984
 21
-95.17600624846591
 31
0.0
  0
LINE
  5
10A
330
1F
100
AcDbEntity
  8
D-1
  6
Continuous
 62
     4
370
     9
100
AcDbLine
 10
11.40003590970377
 20
-104.1760426574926
 30
0.0
 11
3.033272589034596
 21
-104.1760426574926
 31
0.0
  0
LINE
  5
10B
330
1F
100
AcDbEntity
  8
D-1
  6
Continuous
 62
     4
370
     9
100
AcDbLine
 10
3.301221781465529
 20
-105.1760426574926
 30
0.0
 11
11.40003590970377
 21
-105.1760426574926
 31
0.0
  0
LINE
  5
10C
330
1F
100
AcDbEntity
  8
D-1
  6
Continuous
 62
     4
370
     9
100
AcDbLine
 10
35.35525649849319
 20
-95.17604265749264
 30
0.0
 11
35.85525649849319
 21
-96.04206806127718
 31
0.0
  0
LINE
  5
10D
330
1F
100
AcDbEntity
  8
D-1
  6
Continuous
 62
     4
370
     9
100
AcDbLine
 10
20.49885003794202
 20
-104.9080934650617
 30
0.0
 11
35.85525649849319
 21
-96.04206806127718
 31
0.0
  0
ARC
  5
10E
330
1F
100
AcDbEntity
  8
D-1
  6
Continuous
 62
     4
370
     9
100
AcDbCircle
 10
19.49885003794202
 20
-103.1760426574926
 30
0.0
 40
2.0
100
AcDbArc
 50
270.0
 51
299.9999999999999
  0
LINE
  5
10F
330
1F
100
AcDbEntity
  8
D-1
  6
Continuous
 62
     4
370
     9
100
AcDbLine
 10
19.76679923037341
 20
-104.1760426574926
 30
0.0
 11
35.35531956077762
 21
-95.17600624846591
 31
0.0
  0
LINE
  5
110
330
1F
100
AcDbEntity
  8
D-1
  6
Continuous
 62
     4
370
     9
100
AcDbLine
 10
11.40003590970377
 20
-104.1760426574926
 30
0.0
 11
19.76679923037341
 21
-104.1760426574926
 31
0.0
  0
LINE
  5
111
330
1F
100
AcDbEntity
  8
D-1
  6
Continuous
 62
     4
370
     9
100
AcDbLine
 10
19.49885003794202
 20
-105.1760426574926
 30
0.0
 11
11.40003590970377
 21
-105.1760426574926
 31
0.0
  0
LINE
  5
112
330
1F
100
AcDbEntity
  8
D-2
  6
Continuous
 62
     3
370
     9
100
AcDbLine
 10
-4.599964090296226
 20
-93.67608224786431
 30
0.0
 11
-4.599964090296226
 21
-99.76899140589308
 31
0.0
  0
LINE
  5
113
330
1F
100
AcDbEntity
  8
D-2
  6
Continuous
 62
     3
370
     9
100
AcDbLine
 10
-4.599964090296226
 20
-100.9236919442724
 30
0.0
 11
-4.599964090296226
 21
-105.1760426574926
 31
0.0
  0
LINE
  5
114
330
1F
100
AcDbEntity
  8
D-2
  6
Continuous
 62
     3
370
     9
100
AcDbLine
 10
-1.599964090296226
 20
-93.67608224786431
 30
0.0
 11
-1.599964090296226
 21
-101.5010422134619
 31
0.0
  0
LINE
  5
115
330
1F
100
AcDbEntity
  8
D-2
  6
Continuous
 62
     3
370
     9
100
AcDbLine
 10
-1.599964090296226
 20
-102.6557427518412
 30
0.0
 11
-1.599964090296226
 21
-105.1760426574926
 31
0.0
  0
LINE
  5
116
330
1F
100
AcDbEntity
  8
D-2
  6
Continuous
 62
     3
370
     9
100
AcDbLine
 10
24.40003590970377
 20
-93.67608224786431
 30
0.0
 11
24.40003590970377
 21
-101.5010422134621
 31
0.0
  0
LINE
  5
117
330
1F
100
AcDbEntity
  8
D-2
  6
Continuous
 62
     3
370
     9
100
AcDbLine
 10
24.40003590970377
 20
-102.6557427518412
 30
0.0
 11
24.40003590970377
 21
-105.1760426574926
 31
0.0
  0
LINE
  5
118
330
1F
100
AcDbEntity
  8
D-2
  6
Continuous
 62
     3
370
     9
100
AcDbLine
 10
27.40003590970377
 20
-93.67608224786431
 30
0.0
 11
27.40003590970377
 21
-99.76899140589308
 31
0.0
  0
LINE
  5
119
330
1F
100
AcDbEntity
  8
D-2
  6
Continuous
 62
     3
370
     9
100
AcDbLine
 10
27.40003590970377
 20
-100.9236919442724
 30
0.0
 11
27.40003590970377
 21
-105.1760426574926
 31
0.0
  0
ARC
  5
11A
330
1F
100
AcDbEntity
  8
D-7
  6
JWW_DASHED1
 62
    30
370
     5
100
AcDbCircle
 10
1.900035909703774
 20
-96.67600306712097
 30
0.0
 40
3.0
100
AcDbArc
 50
90.0
 51
180.0
  0
ARC
  5
11B
330
1F
100
AcDbEntity
  8
D-7
  6
JWW_DASHED1
 62
    30
370
     5
100
AcDbCircle
 10
20.90003590970377
 20
-96.67600306712097
 30
0.0
 40
3.0
100
AcDbArc
 50
0.0
 51
90.0
  0
LINE
  5
11C
330
1F
100
AcDbEntity
  8
D-7
  6
JWW_DASHED1
 62
    30
370
     5
100
AcDbLine
 10
1.900035909703774
 20
-93.67600306712097
 30
0.0
 11
20.90003590970377
 21
-93.67600306712097
 31
0.0
  0
LINE
  5
11D
330
1F
100
AcDbEntity
  8
D-7
  6
JWW_DASHED1
 62
    30
370
     5
100
AcDbLine
 10
-1.099964090296226
 20
-96.67600306712097
 30
0.0
 11
-1.099964090296226
 21
-108.176003067121
 31
0.0
  0
LINE
  5
11E
330
1F
100
AcDbEntity
  8
D-7
  6
JWW_DASHED1
 62
    30
370
     5
100
AcDbLine
 10
-1.099964090296226
 20
-108.176003067121
 30
0.0
 11
0.4000359097037745
 21
-108.176003067121
 31
0.0
  0
LINE
  5
11F
330
1F
100
AcDbEntity
  8
D-7
  6
JWW_DASHED1
 62
    30
370
     5
100
AcDbLine
 10
23.90003590970377
 20
-96.67600306712097
 30
0.0
 11
23.90003590970377
 21
-108.176003067121
 31
0.0
  0
LINE
  5
120
330
1F
100
AcDbEntity
  8
D-7
  6
JWW_DASHED1
 62
    30
370
     5
100
AcDbLine
 10
22.40003590970377
 20
-108.176003067121
 30
0.0
 11
23.90003590970377
 21
-108.176003067121
 31
0.0
  0
LINE
  5
121
330
1F
100
AcDbEntity
  8
D-7
  6
JWW_DASHED1
 62
    30
370
     5
100
AcDbLine
 10
22.40003590970377
 20
-95.67600306712097
 30
0.0
 11
22.40003590970377
 21
-108.176003067121
 31
0.0
  0
ARC
  5
122
330
1F
100
AcDbEntity
  8
D-7
  6
JWW_DASHED1
 62
    30
370
     5
100
AcDbCircle
 10
21.90003590970377
 20
-95.67600306712097
 30
0.0
 40
0.5
100
AcDbArc
 50
0.0
 51
90.0
  0
LINE
  5
123
330
1F
100
AcDbEntity
  8
D-7
  6
JWW_DASHED1
 62
    30
370
     5
100
AcDbLine
 10
0.4000359097037745
 20
-95.67600306712097
 30
0.0
 11
0.4000359097037745
 21
-108.176003067121
 31
0.0
  0
LINE
  5
124
330
1F
100
AcDbEntity
  8
D-7
  6
JWW_DASHED1
 62
    30
370
     5
100
AcDbLine
 10
0.9000359097037745
 20
-95.17600306712097
 30
0.0
 11
21.90003590970377
 21
-95.17600306712097
 31
0.0
  0
ARC
  5
125
330
1F
100
AcDbEntity
  8
D-7
  6
JWW_DASHED1
 62
    30
370
     5
100
AcDbCircle
 10
0.9000359097037745
 20
-95.67600306712097
 30
0.0
 40
0.5
100
AcDbArc
 50
90.0
 51
180.0
  0
LINE
  5
126
330
1F
100
AcDbEntity
  8
D-4
  6
Continuous
 62
     7
370
     9
100
AcDbLine
 10
-58.59996409029623
 20
-143.3610819288117
 30
0.0
 11
-58.59996409029623
 21
-115.676003067121
 31
0.0
  0
LINE
  5
127
330
1F
100
AcDbEntity
  8
D-4
  6
Continuous
 62
     7
370
     9
100
AcDbLine
 10
-88.59996409029623
 20
-143.3610819288117
 30
0.0
 11
-88.59996409029623
 21
-109.676003067121
 31
0.0
  0
LWPOLYLINE
  5
128
330
1F
100
AcDbEntity
  8
D-4
  6
Continuous
 62
     7
370
     9
100
AcDbPolyline
 90
        4
 70
     1
 43
0.4
 10
-58.39996409029622
 20
-142.7610819288116
 42
0.4142135623731
 10
-58.59996409029623
 20
-142.5610819288116
 42
0.4142135623731
 10
-58.79996409029623
 20
-142.7610819288116
 42
0.4142135623731
 10
-58.59996409029623
 20
-142.9610819288116
 42
0.4142135623731
  0
LWPOLYLINE
  5
129
330
1F
100
AcDbEntity
  8
D-4
  6
Continuous
 62
     7
370
     9
100
AcDbPolyline
 90
        4
 70
     1
 43
0.4
 10
-88.39996409029622
 20
-142.7610819288116
 42
0.4142135623731
 10
-88.59996409029623
 20
-142.5610819288116
 42
0.4142135623731
 10
-88.79996409029623
 20
-142.7610819288116
 42
0.4142135623731
 10
-88.59996409029623
 20
-142.9610819288116
 42
0.4142135623731
  0
LINE
  5
12A
330
1F
100
AcDbEntity
  8
D-4
  6
Continuous
 62
     7
370
     9
100
AcDbLine
 10
-88.59996409029623
 20
-142.7610819288116
 30
0.0
 11
-58.59996409029623
 21
-142.7610819288116
 31
0.0
  0
TEXT
  5
12B
330
1F
100
AcDbEntity
  8
D-4
  6
Continuous
 62
     2
370
   211
100
AcDbText
 10
-120.4214002536499
 20
-93.67600306712097
 30
0.0
 40
6.096
  1
11.5
 50
90.0
 41
1.09375
  7
ＭＳ ゴシック
100
AcDbText
  0
LINE
  5
12C
330
1F
100
AcDbEntity
  8
D-4
  6
Continuous
 62
     7
370
     9
100
AcDbLine
 10
-118.8934002536498
 20
-105.176003067121
 30
0.0
 11
-88.59996409029623
 21
-105.176003067121
 31
0.0
  0
LWPOLYLINE
  5
12D
330
1F
100
AcDbEntity
  8
D-4
  6
Continuous
 62
     7
370
     9
100
AcDbPolyline
 90
        4
 70
     1
 43
0.4
 10
-118.0934002536499
 20
-93.67600306712097
 42
0.4142135623731
 10
-118.2934002536499
 20
-93.47600306712097
 42
0.4142135623731
 10
-118.4934002536499
 20
-93.67600306712097
 42
0.4142135623731
 10
-118.2934002536499
 20
-93.87600306712098
 42
0.4142135623731
  0
LWPOLYLINE
  5
12E
330
1F
100
AcDbEntity
  8
D-4
  6
Continuous
 62
     7
370
     9
100
AcDbPolyline
 90
        4
 70
     1
 43
0.4
 10
-118.0934002536499
 20
-105.176003067121
 42
0.4142135623731
 10
-118.2934002536499
 20
-104.976003067121
 42
0.4142135623731
 10
-118.4934002536499
 20
-105.176003067121
 42
0.4142135623731
 10
-118.2934002536499
 20
-105.376003067121
 42
0.4142135623731
  0
LINE
  5
12F
330
1F
100
AcDbEntity
  8
D-4
  6
Continuous
 62
     7
370
     9
100
AcDbLine
 10
-118.2934002536499
 20
-105.176003067121
 30
0.0
 11
-118.2934002536499
 21
-93.67600306712097
 31
0.0
  0
TEXT
  5
130
330
1F
100
AcDbEntity
  8
D-4
  6
Continuous
 62
     2
370
   211
100
AcDbText
 10
-83.0521040922381
 20
-54.8299330180552
 30
0.0
 40
6.096
  1
1
  7
ＭＳ ゴシック
100
AcDbText
  0
LINE
  5
131
330
1F
100
AcDbEntity
  8
D-4
  6
Continuous
 62
     7
370
     9
100
AcDbLine
 10
-83.0521040922381
 20
-56.4579330180552
 30
0.0
 11
-78.32848902044202
 21
-56.4579330180552
 31
0.0
  0
LINE
  5
132
330
1F
100
AcDbEntity
  8
D-4
  6
Continuous
 62
     7
370
     9
100
AcDbLine
 10
-85.09998883427852
 20
-60.00497343931397
 30
0.0
 11
-83.0521040922381
 21
-56.4579330180552
 31
0.0
  0
LINE
  5
133
330
1F
100
AcDbEntity
  8
D-4
  6
Continuous
 62
     7
370
     9
100
AcDbLine
 10
-84.60001357826081
 20
-59.40497343931406
 30
0.0
 11
-84.60001357826081
 21
-89.67608224786431
 31
0.0
  0
LWPOLYLINE
  5
134
330
1F
100
AcDbEntity
  8
D-4
  6
Continuous
 62
     7
370
     9
100
AcDbPolyline
 90
        4
 70
     1
 43
0.4
 10
-84.40001357826081
 20
-60.00497343931397
 42
0.4142135623731
 10
-84.60001357826081
 20
-59.80497343931397
 42
0.4142135623731
 10
-84.80001357826082
 20
-60.00497343931397
 42
0.4142135623731
 10
-84.60001357826081
 20
-60.20497343931397
 42
0.4142135623731
  0
LWPOLYLINE
  5
135
330
1F
100
AcDbEntity
  8
D-4
  6
Continuous
 62
     7
370
     9
100
AcDbPolyline
 90
        4
 70
     1
 43
0.4
 10
-85.39996409029622
 20
-60.00497343931397
 42
0.4142135623731
 10
-85.59996409029623
 20
-59.80497343931397
 42
0.4142135623731
 10
-85.79996409029623
 20
-60.00497343931397
 42
0.4142135623731
 10
-85.59996409029623
 20
-60.20497343931397
 42
0.4142135623731
  0
LINE
  5
136
330
1F
100
AcDbEntity
  8
D-4
  6
Continuous
 62
     7
370
     9
100
AcDbLine
 10
-85.59996409029623
 20
-60.00497343931397
 30
0.0
 11
-84.60001357826081
 21
-60.00497343931397
 31
0.0
  0
LINE
  5
137
330
1F
100
AcDbEntity
  8
D-4
  6
Continuous
 62
     7
370
     9
100
AcDbLine
 10
-85.59996409029623
 20
-59.40497343931406
 30
0.0
 11
-85.59996409029623
 21
-89.67600306712097
 31
0.0
  0
LWPOLYLINE
  5
138
330
1F
100
AcDbEntity
  8
D-4
  6
Continuous
 62
     7
370
     9
100
AcDbPolyline
 90
        4
 70
     1
 43
0.4
 10
-88.39996409029622
 20
-60.00497343931397
 42
0.4142135623731
 10
-88.59996409029623
 20
-59.80497343931397
 42
0.4142135623731
 10
-88.79996409029623
 20
-60.00497343931397
 42
0.4142135623731
 10
-88.59996409029623
 20
-60.20497343931397
 42
0.4142135623731
  0
LINE
  5
139
330
1F
100
AcDbEntity
  8
D-4
  6
Continuous
 62
     7
370
     9
100
AcDbLine
 10
-88.59996409029623
 20
-60.00497343931397
 30
0.0
 11
-85.59996409029623
 21
-60.00497343931397
 31
0.0
  0
LWPOLYLINE
  5
13A
330
1F
100
AcDbEntity
  8
D-4
  6
Continuous
 62
     7
370
     9
100
AcDbPolyline
 90
        4
 70
     1
 43
0.4
 10
-81.39990470473872
 20
-74.58407444249747
 42
0.4142135623731
 10
-81.59990470473872
 20
-74.38407444249746
 42
0.4142135623731
 10
-81.79990470473872
 20
-74.58407444249747
 42
0.4142135623731
 10
-81.59990470473872
 20
-74.78407444249747
 42
0.4142135623731
  0
LWPOLYLINE
  5
13B
330
1F
100
AcDbEntity
  8
D-4
  6
Continuous
 62
     7
370
     9
100
AcDbPolyline
 90
        4
 70
     1
 43
0.4
 10
-84.40001357826081
 20
-74.58407444249747
 42
0.4142135623731
 10
-84.60001357826081
 20
-74.38407444249746
 42
0.4142135623731
 10
-84.80001357826082
 20
-74.58407444249747
 42
0.4142135623731
 10
-84.60001357826081
 20
-74.78407444249747
 42
0.4142135623731
  0
LINE
  5
13C
330
1F
100
AcDbEntity
  8
D-4
  6
Continuous
 62
     7
370
     9
100
AcDbLine
 10
-84.60001357826081
 20
-74.58407444249747
 30
0.0
 11
-81.59990470473872
 21
-74.58407444249747
 31
0.0
  0
LINE
  5
13D
330
1F
100
AcDbEntity
  8
D-4
  6
Continuous
 62
     7
370
     9
100
AcDbLine
 10
-81.59990470473872
 20
-73.98407444249756
 30
0.0
 11
-81.59990470473872
 21
-89.67608224786431
 31
0.0
  0
LINE
  5
13E
330
1F
100
AcDbEntity
  8
D-4
  6
Continuous
 62
     7
370
     9
100
AcDbLine
 10
-88.59996409029623
 20
-45.58018656907984
 30
0.0
 11
-88.59996409029623
 21
-89.67600306712097
 31
0.0
  0
LWPOLYLINE
  5
13F
330
1F
100
AcDbEntity
  8
D-4
  6
Continuous
 62
     7
370
     9
100
AcDbPolyline
 90
        4
 70
     1
 43
0.4
 10
-88.39996409029622
 20
-46.18018656907975
 42
0.4142135623731
 10
-88.59996409029623
 20
-45.98018656907975
 42
0.4142135623731
 10
-88.79996409029623
 20
-46.18018656907975
 42
0.4142135623731
 10
-88.59996409029623
 20
-46.38018656907975
 42
0.4142135623731
  0
TEXT
  5
140
330
1F
100
AcDbEntity
  8
D-4
  6
Continuous
 62
     2
370
   211
100
AcDbText
 10
-139.3021793631434
 20
-93.67600306712097
 30
0.0
 40
6.096
  1
14.5
 50
90.0
 41
1.09375
  7
ＭＳ ゴシック
100
AcDbText
  0
LINE
  5
141
330
1F
100
AcDbEntity
  8
D-4
  6
Continuous
 62
     7
370
     9
100
AcDbLine
 10
-137.7741793631433
 20
-108.176003067121
 30
0.0
 11
-85.59990470473872
 21
-108.176003067121
 31
0.0
  0
LWPOLYLINE
  5
142
330
1F
100
AcDbEntity
  8
D-4
  6
Continuous
 62
     7
370
     9
100
AcDbPolyline
 90
        4
 70
     1
 43
0.4
 10
-136.9741793631434
 20
-93.67600306712097
 42
0.4142135623731
 10
-137.1741793631434
 20
-93.47600306712097
 42
0.4142135623731
 10
-137.3741793631434
 20
-93.67600306712097
 42
0.4142135623731
 10
-137.1741793631434
 20
-93.87600306712098
 42
0.4142135623731
  0
LWPOLYLINE
  5
143
330
1F
100
AcDbEntity
  8
D-4
  6
Continuous
 62
     7
370
     9
100
AcDbPolyline
 90
        4
 70
     1
 43
0.4
 10
-136.9741793631434
 20
-108.176003067121
 42
0.4142135623731
 10
-137.1741793631434
 20
-107.976003067121
 42
0.4142135623731
 10
-137.3741793631434
 20
-108.176003067121
 42
0.4142135623731
 10
-137.1741793631434
 20
-108.376003067121
 42
0.4142135623731
  0
LINE
  5
144
330
1F
100
AcDbEntity
  8
D-4
  6
Continuous
 62
     7
370
     9
100
AcDbLine
 10
-137.1741793631434
 20
-108.176003067121
 30
0.0
 11
-137.1741793631434
 21
-93.67600306712097
 31
0.0
  0
TEXT
  5
145
330
1F
100
AcDbEntity
  8
D-4
  6
Continuous
 62
     2
370
   211
100
AcDbText
 10
-154.3908034799147
 20
-106.926003067121
 30
0.0
 40
6.096
  1
18
 50
90.0
 41
1.0625
  7
ＭＳ ゴシック
100
AcDbText
  0
LINE
  5
146
330
1F
100
AcDbEntity
  8
D-4
  6
Continuous
 62
     7
370
     9
100
AcDbLine
 10
-152.8628034799146
 20
-93.67600306712097
 30
0.0
 11
-92.59996409029623
 21
-93.67600306712097
 31
0.0
  0
LINE
  5
147
330
1F
100
AcDbEntity
  8
D-4
  6
Continuous
 62
     7
370
     9
100
AcDbLine
 10
-152.8628034799146
 20
-111.676003067121
 30
0.0
 11
-86.59996409029623
 21
-111.676003067121
 31
0.0
  0
LWPOLYLINE
  5
148
330
1F
100
AcDbEntity
  8
D-4
  6
Continuous
 62
     7
370
     9
100
AcDbPolyline
 90
        4
 70
     1
 43
0.4
 10
-152.0628034799147
 20
-93.67600306712097
 42
0.4142135623731
 10
-152.2628034799147
 20
-93.47600306712097
 42
0.4142135623731
 10
-152.4628034799147
 20
-93.67600306712097
 42
0.4142135623731
 10
-152.2628034799147
 20
-93.87600306712098
 42
0.4142135623731
  0
LWPOLYLINE
  5
149
330
1F
100
AcDbEntity
  8
D-4
  6
Continuous
 62
     7
370
     9
100
AcDbPolyline
 90
        4
 70
     1
 43
0.4
 10
-152.0628034799147
 20
-111.676003067121
 42
0.4142135623731
 10
-152.2628034799147
 20
-111.476003067121
 42
0.4142135623731
 10
-152.4628034799147
 20
-111.676003067121
 42
0.4142135623731
 10
-152.2628034799147
 20
-111.876003067121
 42
0.4142135623731
  0
LINE
  5
14A
330
1F
100
AcDbEntity
  8
D-4
  6
Continuous
 62
     7
370
     9
100
AcDbLine
 10
-152.2628034799147
 20
-111.676003067121
 30
0.0
 11
-152.2628034799147
 21
-93.67600306712097
 31
0.0
  0
LINE
  5
14B
330
1F
100
AcDbEntity
  8
D-2
  6
Continuous
 62
     3
370
     9
100
AcDbLine
 10
-84.59996409029623
 20
-105.176003067121
 30
0.0
 11
-84.59996409029623
 21
-93.67608224786431
 31
0.0
  0
LINE
  5
14C
330
1F
100
AcDbEntity
  8
D-2
  6
Continuous
 62
     3
370
     9
100
AcDbLine
 10
-81.59990470473872
 20
-105.176003067121
 30
0.0
 11
-81.59990470473872
 21
-93.67608224786431
 31
0.0
  0
ARC
  5
14D
330
1F
100
AcDbEntity
  8
D-2
  6
JWW_DASHED1
 62
     3
370
     9
100
AcDbCircle
 10
-80.59990470473872
 20
-104.1760426574926
 30
0.0
 40
1.0
100
AcDbArc
 50
180.0
 51
269.4901600621642
  0
LINE
  5
14E
330
1F
100
AcDbEntity
  8
D-2
  6
Continuous
 62
     3
370
     9
100
AcDbLine
 10
-84.59996409029623
 20
-105.176003067121
 30
0.0
 11
-81.59990470473872
 21
-105.176003067121
 31
0.0
  0
LINE
  5
14F
330
1F
100
AcDbEntity
  8
D-2
  6
Continuous
 62
     3
370
     9
100
AcDbLine
 10
-81.59990470473872
 20
-105.176003067121
 30
0.0
 11
-81.59990470473872
 21
-108.176003067121
 31
0.0
  0
ARC
  5
150
330
1F
100
AcDbEntity
  8
D-2
  6
JWW_DASHED1
 62
     3
370
     9
100
AcDbCircle
 10
-78.59996409029623
 20
-102.176003067121
 30
0.0
 40
6.0
100
AcDbArc
 50
180.0
 51
210.0
  0
ARC
  5
151
330
1F
100
AcDbEntity
  8
D-2
  6
JWW_DASHED1
 62
     3
370
     9
100
AcDbCircle
 10
-78.59996409029623
 20
-102.176003067121
 30
0.0
 40
6.0
100
AcDbArc
 50
240.000654817316
 51
270.0
  0
ARC
  5
152
330
1F
100
AcDbEntity
  8
D-2
  6
Continuous
 62
     3
370
     9
100
AcDbCircle
 10
-78.59996409029623
 20
-102.176003067121
 30
0.0
 40
6.0
100
AcDbArc
 50
210.0
 51
240.0006548173159
  0
LINE
  5
153
330
1F
100
AcDbEntity
  8
D-1
  6
Continuous
 62
     2
370
     9
100
AcDbLine
 10
-82.62081772726901
 20
-111.676003067121
 30
0.0
 11
1.40003590944093
 21
-111.676003067121
 31
0.0
  0
LINE
  5
154
330
1F
100
AcDbEntity
  8
D-1
  6
Continuous
 62
     2
370
     9
100
AcDbLine
 10
-85.09996409029623
 20
-108.676003067121
 30
0.0
 11
1.40003590944093
 21
-108.676003067121
 31
0.0
  0
LINE
  5
155
330
1F
100
AcDbEntity
  8
D-1
  6
Continuous
 62
     2
370
     9
100
AcDbLine
 10
-58.59996409029623
 20
-108.676003067121
 30
0.0
 11
-58.59996409029623
 21
-111.676003067121
 31
0.0
  0
ARC
  5
156
330
1F
100
AcDbEntity
  8
D-1
  6
Continuous
 62
     2
370
     9
100
AcDbCircle
 10
-85.09996409029623
 20
-108.176003067121
 30
0.0
 40
0.5
100
AcDbArc
 50
180.0
 51
270.0
  0
LINE
  5
157
330
1F
100
AcDbEntity
  8
D-1
  6
Continuous
 62
     2
370
     9
100
AcDbLine
 10
-85.59996409029623
 20
-108.176003067121
 30
0.0
 11
-85.59996409029623
 21
-93.67600306712097
 31
0.0
  0
ARC
  5
158
330
1F
100
AcDbEntity
  8
D-1
  6
Continuous
 62
     2
370
     9
100
AcDbCircle
 10
-82.59996409029623
 20
-105.676003067121
 30
0.0
 40
6.0
100
AcDbArc
 50
180.0
 51
270.0
  0
LINE
  5
159
330
1F
100
AcDbEntity
  8
D-1
  6
Continuous
 62
     2
370
     9
100
AcDbLine
 10
-88.59996409029623
 20
-105.676003067121
 30
0.0
 11
-88.59996409029623
 21
-93.67600306712097
 31
0.0
  0
ARC
  5
15A
330
1F
100
AcDbEntity
  8
D-9
  6
Continuous
 62
     4
370
     9
100
AcDbCircle
 10
-119.6018142184701
 20
-114.9756894990057
 30
0.0
 40
3.000000476837158
100
AcDbArc
 50
180.0
 51
270.0
  0
ARC
  5
15B
330
1F
100
AcDbEntity
  8
D-9
  6
Continuous
 62
     4
370
     9
100
AcDbCircle
 10
-96.6018056354012
 20
-114.9756894990057
 30
0.0
 40
3.000000476837158
100
AcDbArc
 50
270.0
 51
0.0000000000000254
  0
LINE
  5
15C
330
1F
100
AcDbEntity
  8
D-9
  6
JWW_CENTER1
 62
     4
370
     9
100
AcDbLine
 10
-73.60179800600667
 20
-119.7237668915839
 30
0.0
 11
-73.60179800600667
 21
-111.6759668274969
 31
0.0
  0
LINE
  5
15D
330
1F
100
AcDbEntity
  8
D-9
  6
JWW_DASHED2
 62
     3
370
     9
100
AcDbLine
 10
-83.60183053722062
 20
-114.1759630127997
 30
0.0
 11
-63.6017646274056
 21
-114.1759630127997
 31
0.0
  0
LINE
  5
15E
330
1F
100
AcDbEntity
  8
D-9
  6
Continuous
 62
     3
370
     9
100
AcDbLine
 10
-83.60183053722062
 20
-113.6759668274969
 30
0.0
 11
-63.6017646274056
 21
-113.6759668274969
 31
0.0
  0
LINE
  5
15F
330
1F
100
AcDbEntity
  8
D-9
  6
Continuous
 62
     3
370
     9
100
AcDbLine
 10
-83.60183053722062
 20
-111.6759668274969
 30
0.0
 11
-83.60183053722062
 21
-116.1759630127997
 31
0.0
  0
LINE
  5
160
330
1F
100
AcDbEntity
  8
D-9
  6
Continuous
 62
     2
370
     9
100
AcDbLine
 10
-70.85172648043294
 20
-116.6756921692938
 30
0.0
 11
-76.35174460024496
 21
-116.6756921692938
 31
0.0
  0
LINE
  5
161
330
1F
100
AcDbEntity
  8
D-9
  6
Continuous
 62
     2
370
     9
100
AcDbLine
 10
-70.85172648043294
 20
-116.6756921692938
 30
0.0
 11
-70.85172648043294
 21
-116.1759630127997
 31
0.0
  0
LINE
  5
162
330
1F
100
AcDbEntity
  8
D-9
  6
Continuous
 62
     2
370
     9
100
AcDbLine
 10
-70.85172648043294
 20
-116.6756921692938
 30
0.0
 11
-72.60181898684164
 21
-118.1755739136786
 31
0.0
  0
LINE
  5
163
330
1F
100
AcDbEntity
  8
D-9
  6
Continuous
 62
     2
370
     9
100
AcDbLine
 10
-72.60181898684164
 20
-118.1755739136786
 30
0.0
 11
-74.60160250277181
 21
-118.1755739136786
 31
0.0
  0
LINE
  5
164
330
1F
100
AcDbEntity
  8
D-9
  6
Continuous
 62
     2
370
     9
100
AcDbLine
 10
-74.60160250277181
 20
-118.1755739136786
 30
0.0
 11
-76.35174460024496
 21
-116.6756921692938
 31
0.0
  0
LINE
  5
165
330
1F
100
AcDbEntity
  8
D-9
  6
Continuous
 62
     2
370
     9
100
AcDbLine
 10
-76.35174460024496
 20
-116.6756921692938
 30
0.0
 11
-76.35174460024496
 21
-116.1759630127997
 31
0.0
  0
LINE
  5
166
330
1F
100
AcDbEntity
  8
D-9
  6
Continuous
 62
     3
370
     9
100
AcDbLine
 10
-83.60183053722062
 20
-111.6759668274969
 30
0.0
 11
-63.6017646274056
 21
-111.6759668274969
 31
0.0
  0
LINE
  5
167
330
1F
100
AcDbEntity
  8
D-9
  6
Continuous
 62
     3
370
     9
100
AcDbLine
 10
-83.60183053722062
 20
-116.1759630127997
 30
0.0
 11
-63.6017646274056
 21
-116.1759630127997
 31
0.0
  0
LINE
  5
168
330
1F
100
AcDbEntity
  8
D-9
  6
Continuous
 62
     3
370
     9
100
AcDbLine
 10
-63.6017646274056
 20
-111.6759668274969
 30
0.0
 11
-63.6017646274056
 21
-116.1759630127997
 31
0.0
  0
LINE
  5
169
330
1F
100
AcDbEntity
  8
D-9
  6
Continuous
 62
     4
370
     9
100
AcDbLine
 10
-122.6017760714974
 20
-112.1756959839911
 30
0.0
 11
-83.60183053722062
 21
-112.1756959839911
 31
0.0
  0
LINE
  5
16A
330
1F
100
AcDbEntity
  8
D-9
  6
Continuous
 62
     4
370
     9
100
AcDbLine
 10
-93.60679621309896
 20
-114.1757055207343
 30
0.0
 11
-83.60183053722062
 21
-114.1757055207343
 31
0.0
  0
LINE
  5
16B
330
1F
100
AcDbEntity
  8
D-9
  6
Continuous
 62
     4
370
     9
100
AcDbLine
 10
-89.60177273363729
 20
-114.1757055207343
 30
0.0
 11
-89.60177273363729
 21
-112.1756959839911
 31
0.0
  0
LINE
  5
16C
330
1F
100
AcDbEntity
  8
D-9
  6
Continuous
 62
     4
370
     9
100
AcDbLine
 10
-122.6017760714974
 20
-114.9756894990057
 30
0.0
 11
-122.6017760714974
 21
-112.1756959839911
 31
0.0
  0
LINE
  5
16D
330
1F
100
AcDbEntity
  8
D-9
  6
Continuous
 62
     4
370
     9
100
AcDbLine
 10
-93.60179133028646
 20
-114.9756894990057
 30
0.0
 11
-93.60179133028646
 21
-112.1756959839911
 31
0.0
  0
LINE
  5
16E
330
1F
100
AcDbEntity
  8
D-9
  6
Continuous
 62
     4
370
     9
100
AcDbLine
 10
-96.6018056354012
 20
-117.9757028504462
 30
0.0
 11
-119.6018142184701
 21
-117.9757028504462
 31
0.0
  0
LINE
  5
16F
330
1F
100
AcDbEntity
  8
D-9
  6
Continuous
 62
     4
370
     9
100
AcDbLine
 10
119.4018774548097
 20
-117.9757028504462
 30
0.0
 11
142.4018860378785
 21
-117.9757028504462
 31
0.0
  0
LINE
  5
170
330
1F
100
AcDbEntity
  8
D-9
  6
Continuous
 62
     4
370
     9
100
AcDbLine
 10
116.4018631496949
 20
-114.9756894990057
 30
0.0
 11
116.4018631496949
 21
-112.1756959839911
 31
0.0
  0
LINE
  5
171
330
1F
100
AcDbEntity
  8
D-9
  6
Continuous
 62
     4
370
     9
100
AcDbLine
 10
145.4018478909059
 20
-114.9756894990057
 30
0.0
 11
145.4018478909059
 21
-112.1756959839911
 31
0.0
  0
LINE
  5
172
330
1F
100
AcDbEntity
  8
D-9
  6
Continuous
 62
     4
370
     9
100
AcDbLine
 10
112.4018445530457
 20
-114.1757055207343
 30
0.0
 11
112.4018445530457
 21
-112.1756959839911
 31
0.0
  0
LINE
  5
173
330
1F
100
AcDbEntity
  8
D-9
  6
Continuous
 62
     4
370
     9
100
AcDbLine
 10
116.4068680325074
 20
-114.1757055207343
 30
0.0
 11
106.4019023566291
 21
-114.1757055207343
 31
0.0
  0
LINE
  5
174
330
1F
100
AcDbEntity
  8
D-9
  6
Continuous
 62
     4
370
     9
100
AcDbLine
 10
145.4018478909059
 20
-112.1756959839911
 30
0.0
 11
106.4019023566291
 21
-112.1756959839911
 31
0.0
  0
LINE
  5
175
330
1F
100
AcDbEntity
  8
D-9
  6
Continuous
 62
     3
370
     9
100
AcDbLine
 10
86.40183644681406
 20
-111.6759668274969
 30
0.0
 11
86.40183644681406
 21
-116.1759630127997
 31
0.0
  0
LINE
  5
176
330
1F
100
AcDbEntity
  8
D-9
  6
Continuous
 62
     3
370
     9
100
AcDbLine
 10
106.4019023566291
 20
-116.1759630127997
 30
0.0
 11
86.40183644681406
 21
-116.1759630127997
 31
0.0
  0
LINE
  5
177
330
1F
100
AcDbEntity
  8
D-9
  6
Continuous
 62
     3
370
     9
100
AcDbLine
 10
106.4019023566291
 20
-111.6759668274969
 30
0.0
 11
86.40183644681406
 21
-111.6759668274969
 31
0.0
  0
LINE
  5
178
330
1F
100
AcDbEntity
  8
D-9
  6
Continuous
 62
     2
370
     9
100
AcDbLine
 10
99.15181641965341
 20
-116.6756921692938
 30
0.0
 11
99.15181641965341
 21
-116.1759630127997
 31
0.0
  0
LINE
  5
179
330
1F
100
AcDbEntity
  8
D-9
  6
Continuous
 62
     2
370
     9
100
AcDbLine
 10
97.40167432218027
 20
-118.1755739136786
 30
0.0
 11
99.15181641965341
 21
-116.6756921692938
 31
0.0
  0
LINE
  5
17A
330
1F
100
AcDbEntity
  8
D-9
  6
Continuous
 62
     2
370
     9
100
AcDbLine
 10
95.4018908062501
 20
-118.1755739136786
 30
0.0
 11
97.40167432218027
 21
-118.1755739136786
 31
0.0
  0
LINE
  5
17B
330
1F
100
AcDbEntity
  8
D-9
  6
Continuous
 62
     2
370
     9
100
AcDbLine
 10
93.6517982998414
 20
-116.6756921692938
 30
0.0
 11
95.4018908062501
 21
-118.1755739136786
 31
0.0
  0
LINE
  5
17C
330
1F
100
AcDbEntity
  8
D-9
  6
Continuous
 62
     2
370
     9
100
AcDbLine
 10
93.6517982998414
 20
-116.6756921692938
 30
0.0
 11
93.6517982998414
 21
-116.1759630127997
 31
0.0
  0
LINE
  5
17D
330
1F
100
AcDbEntity
  8
D-9
  6
Continuous
 62
     2
370
     9
100
AcDbLine
 10
93.6517982998414
 20
-116.6756921692938
 30
0.0
 11
99.15181641965341
 21
-116.6756921692938
 31
0.0
  0
LINE
  5
17E
330
1F
100
AcDbEntity
  8
D-9
  6
Continuous
 62
     3
370
     9
100
AcDbLine
 10
106.4019023566291
 20
-111.6759668274969
 30
0.0
 11
106.4019023566291
 21
-116.1759630127997
 31
0.0
  0
LINE
  5
17F
330
1F
100
AcDbEntity
  8
D-9
  6
Continuous
 62
     3
370
     9
100
AcDbLine
 10
106.4019023566291
 20
-113.6759668274969
 30
0.0
 11
86.40183644681406
 21
-113.6759668274969
 31
0.0
  0
LINE
  5
180
330
1F
100
AcDbEntity
  8
D-9
  6
JWW_DASHED2
 62
     3
370
     9
100
AcDbLine
 10
106.4019023566291
 20
-114.1759630127997
 30
0.0
 11
86.40183644681406
 21
-114.1759630127997
 31
0.0
  0
LINE
  5
181
330
1F
100
AcDbEntity
  8
D-9
  6
JWW_CENTER1
 62
     4
370
     9
100
AcDbLine
 10
96.40186982541513
 20
-119.7237668915839
 30
0.0
 11
96.40186982541513
 21
-111.6759668274969
 31
0.0
  0
ARC
  5
182
330
1F
100
AcDbEntity
  8
D-9
  6
Continuous
 62
     4
370
     9
100
AcDbCircle
 10
119.4018774548097
 20
-114.9756894990057
 30
0.0
 40
3.000000476837158
100
AcDbArc
 50
180.0
 51
270.0
  0
ARC
  5
183
330
1F
100
AcDbEntity
  8
D-9
  6
Continuous
 62
     4
370
     9
100
AcDbCircle
 10
142.4018860378785
 20
-114.9756894990057
 30
0.0
 40
3.000000476837158
100
AcDbArc
 50
270.0
 51
0.0
  0
LINE
  5
184
330
1F
100
AcDbEntity
  8
D-1
  6
Continuous
 62
     2
370
     9
100
AcDbLine
 10
111.4000359097047
 20
-105.676003067121
 30
0.0
 11
111.4000359097047
 21
-93.67600306712097
 31
0.0
  0
ARC
  5
185
330
1F
100
AcDbEntity
  8
D-1
  6
Continuous
 62
     2
370
     9
100
AcDbCircle
 10
105.4000359097047
 20
-105.676003067121
 30
0.0
 40
6.0
100
AcDbArc
 50
270.0
 51
0.0
  0
LINE
  5
186
330
1F
100
AcDbEntity
  8
D-1
  6
Continuous
 62
     2
370
     9
100
AcDbLine
 10
108.4000359097047
 20
-108.176003067121
 30
0.0
 11
108.4000359097047
 21
-93.67600306712097
 31
0.0
  0
ARC
  5
187
330
1F
100
AcDbEntity
  8
D-1
  6
Continuous
 62
     2
370
     9
100
AcDbCircle
 10
107.9000359097047
 20
-108.176003067121
 30
0.0
 40
0.5
100
AcDbArc
 50
270.0
 51
0.0
  0
LINE
  5
188
330
1F
100
AcDbEntity
  8
D-1
  6
Continuous
 62
     2
370
     9
100
AcDbLine
 10
81.40003590970377
 20
-108.676003067121
 30
0.0
 11
81.40003590970377
 21
-111.676003067121
 31
0.0
  0
LINE
  5
189
330
1F
100
AcDbEntity
  8
D-1
  6
Continuous
 62
     2
370
     9
100
AcDbLine
 10
1.40003590944093
 20
-111.676003067121
 30
0.0
 11
105.4000359097047
 21
-111.676003067121
 31
0.0
  0
LINE
  5
18A
330
1F
100
AcDbEntity
  8
D-1
  6
Continuous
 62
     2
370
     9
100
AcDbLine
 10
1.40003590944093
 20
-108.676003067121
 30
0.0
 11
107.9000359097047
 21
-108.676003067121
 31
0.0
  0
LINE
  5
18B
330
1F
100
AcDbEntity
  8
D-2
  6
Continuous
 62
     3
370
     9
100
AcDbLine
 10
107.4000359097038
 20
-105.176003067121
 30
0.0
 11
107.4000359097038
 21
-93.67608224786431
 31
0.0
  0
ARC
  5
18C
330
1F
100
AcDbEntity
  8
D-2
  6
Continuous
 62
     3
370
     9
100
AcDbCircle
 10
101.4000359097038
 20
-102.176003067121
 30
0.0
 40
6.0
100
AcDbArc
 50
299.9993451826841
 51
330.0
  0
ARC
  5
18D
330
1F
100
AcDbEntity
  8
D-2
  6
JWW_DASHED1
 62
     3
370
     9
100
AcDbCircle
 10
101.4000359097038
 20
-102.176003067121
 30
0.0
 40
6.0
100
AcDbArc
 50
270.0
 51
299.9993451826841
  0
ARC
  5
18E
330
1F
100
AcDbEntity
  8
D-2
  6
JWW_DASHED1
 62
     3
370
     9
100
AcDbCircle
 10
101.4000359097038
 20
-102.176003067121
 30
0.0
 40
6.0
100
AcDbArc
 50
330.0
 51
0.0
  0
LINE
  5
18F
330
1F
100
AcDbEntity
  8
D-2
  6
Continuous
 62
     3
370
     9
100
AcDbLine
 10
104.3999765241463
 20
-105.176003067121
 30
0.0
 11
104.3999765241463
 21
-108.176003067121
 31
0.0
  0
LINE
  5
190
330
1F
100
AcDbEntity
  8
D-2
  6
Continuous
 62
     3
370
     9
100
AcDbLine
 10
107.4000359097038
 20
-105.176003067121
 30
0.0
 11
104.3999765241463
 21
-105.176003067121
 31
0.0
  0
ARC
  5
191
330
1F
100
AcDbEntity
  8
D-2
  6
JWW_DASHED1
 62
     3
370
     9
100
AcDbCircle
 10
103.3999765241463
 20
-104.1760426574926
 30
0.0
 40
1.0
100
AcDbArc
 50
270.5098399378358
 51
0.0
  0
LINE
  5
192
330
1F
100
AcDbEntity
  8
D-2
  6
Continuous
 62
     3
370
     9
100
AcDbLine
 10
104.3999765241463
 20
-105.176003067121
 30
0.0
 11
104.3999765241463
 21
-93.67608224786431
 31
0.0
  0
LWPOLYLINE
  5
193
330
1F
100
AcDbEntity
  8
D-4
  6
Continuous
 62
     7
370
     9
100
AcDbPolyline
 90
        4
 70
     1
 43
0.4
 10
107.6000359097038
 20
-60.00497343931397
 42
0.4142135623731
 10
107.4000359097038
 20
-59.80497343931397
 42
0.4142135623731
 10
107.2000359097038
 20
-60.00497343931397
 42
0.4142135623731
 10
107.4000359097038
 20
-60.20497343931397
 42
0.4142135623731
  0
LINE
  5
194
330
1F
100
AcDbEntity
  8
D-4
  6
Continuous
 62
     7
370
     9
100
AcDbLine
 10
107.4000359097038
 20
-59.40497343931406
 30
0.0
 11
107.4000359097038
 21
-89.67608224786431
 31
0.0
  0
LWPOLYLINE
  5
195
330
1F
100
AcDbEntity
  8
D-4
  6
Continuous
 62
     7
370
     9
100
AcDbPolyline
 90
        4
 70
     1
 43
0.4
 10
111.6000359097047
 20
-46.18018656907975
 42
0.4142135623731
 10
111.4000359097047
 20
-45.98018656907975
 42
0.4142135623731
 10
111.2000359097047
 20
-46.18018656907975
 42
0.4142135623731
 10
111.4000359097047
 20
-46.38018656907975
 42
0.4142135623731
  0
LINE
  5
196
330
1F
100
AcDbEntity
  8
D-4
  6
Continuous
 62
     7
370
     9
100
AcDbLine
 10
111.4000359097047
 20
-45.58018656907984
 30
0.0
 11
111.4000359097047
 21
-89.67600306712097
 31
0.0
  0
LWPOLYLINE
  5
197
330
1F
100
AcDbEntity
  8
D-4
  6
Continuous
 62
     7
370
     9
100
AcDbPolyline
 90
        4
 70
     1
 43
0.4
 10
104.5999765241463
 20
-74.58407444249747
 42
0.4142135623731
 10
104.3999765241463
 20
-74.38407444249746
 42
0.4142135623731
 10
104.1999765241463
 20
-74.58407444249747
 42
0.4142135623731
 10
104.3999765241463
 20
-74.78407444249747
 42
0.4142135623731
  0
LINE
  5
198
330
1F
100
AcDbEntity
  8
D-4
  6
Continuous
 62
     7
370
     9
100
AcDbLine
 10
104.3999765241463
 20
-73.98407444249756
 30
0.0
 11
104.3999765241463
 21
-89.67608224786431
 31
0.0
  0
LWPOLYLINE
  5
199
330
1F
100
AcDbEntity
  8
D-4
  6
Continuous
 62
     7
370
     9
100
AcDbPolyline
 90
        4
 70
     1
 43
0.4
 10
81.60003590970378
 20
-142.7610819288116
 42
0.4142135623731
 10
81.40003590970377
 20
-142.5610819288116
 42
0.4142135623731
 10
81.20003590970377
 20
-142.7610819288116
 42
0.4142135623731
 10
81.40003590970377
 20
-142.9610819288116
 42
0.4142135623731
  0
LINE
  5
19A
330
1F
100
AcDbEntity
  8
D-4
  6
Continuous
 62
     7
370
     9
100
AcDbLine
 10
81.40003590970377
 20
-143.3610819288117
 30
0.0
 11
81.40003590970377
 21
-115.676003067121
 31
0.0
  0
LINE
  5
19B
330
1F
100
AcDbEntity
  8
D-4
  6
Continuous
 62
     7
370
     9
100
AcDbLine
 10
81.40003590970377
 20
-142.7610819288116
 30
0.0
 11
111.4000359097047
 21
-142.7610819288116
 31
0.0
  0
LWPOLYLINE
  5
19C
330
1F
100
AcDbEntity
  8
D-4
  6
Continuous
 62
     7
370
     9
100
AcDbPolyline
 90
        4
 70
     1
 43
0.4
 10
111.6000359097047
 20
-142.7610819288116
 42
0.4142135623731
 10
111.4000359097047
 20
-142.5610819288116
 42
0.4142135623731
 10
111.2000359097047
 20
-142.7610819288116
 42
0.4142135623731
 10
111.4000359097047
 20
-142.9610819288116
 42
0.4142135623731
  0
LINE
  5
19D
330
1F
100
AcDbEntity
  8
D-4
  6
Continuous
 62
     7
370
     9
100
AcDbLine
 10
111.4000359097047
 20
-143.3610819288117
 30
0.0
 11
111.4000359097047
 21
-109.676003067121
 31
0.0
  0
LINE
  5
19E
330
1F
100
AcDbEntity
  8
D-2
  6
Continuous
 62
     3
370
     9
100
AcDbLine
 10
104.3999765241463
 20
-105.1760426574926
 30
0.0
 11
-81.59990470473872
 21
-105.1760426574926
 31
0.0
  0
LINE
  5
19F
330
1F
100
AcDbEntity
  8
D-2
  6
Continuous
 62
     3
370
     9
100
AcDbLine
 10
104.3999765241463
 20
-108.176003067121
 30
0.0
 11
-81.59990470473872
 21
-108.176003067121
 31
0.0
  0
LINE
  5
1A0
330
1F
100
AcDbEntity
  8
D-2
  6
Continuous
 62
     3
370
     9
100
AcDbLine
 10
107.4000359097038
 20
-93.67608224786431
 30
0.0
 11
-84.60001357826081
 21
-93.67608224786431
 31
0.0
  0
LINE
  5
1A1
330
1F
100
AcDbEntity
  8
D-1
  6
Continuous
 62
     2
370
     9
100
AcDbLine
 10
111.4000359097047
 20
-93.67600306712097
 30
0.0
 11
-88.59996409029623
 21
-93.67600306712097
 31
0.0
  0
LINE
  5
1A2
330
1F
100
AcDbEntity
  8
D-9
  6
JWW_DASHED1
 62
     4
370
     9
100
AcDbLine
 10
116.401863149694
 20
-114.1757055207343
 30
0.0
 11
145.4018478909049
 21
-114.1757055207343
 31
0.0
  0
LINE
  5
1A3
330
1F
100
AcDbEntity
  8
D-9
  6
JWW_DASHED1
 62
     4
370
     9
100
AcDbLine
 10
-122.6017760714983
 20
-114.1757055207343
 30
0.0
 11
-93.60179133028737
 21
-114.1757055207343
 31
0.0
  0
LINE
  5
1A4
330
1F
100
AcDbEntity
  8
D-4
  6
Continuous
 62
     7
370
     9
100
AcDbLine
 10
-58.59996409029623
 20
-142.7610819288116
 30
0.0
 11
81.40003590970377
 21
-142.7610819288116
 31
0.0
  0
LINE
  5
1A5
330
1F
100
AcDbEntity
  8
D-4
  6
Continuous
 62
     7
370
     9
100
AcDbLine
 10
-81.59990470473872
 20
-74.58407444249747
 30
0.0
 11
104.3999765241463
 21
-74.58407444249747
 31
0.0
  0
LINE
  5
1A6
330
1F
100
AcDbEntity
  8
D-4
  6
Continuous
 62
     7
370
     9
100
AcDbLine
 10
-84.60001357826081
 20
-60.00497343931397
 30
0.0
 11
107.4000359097038
 21
-60.00497343931397
 31
0.0
  0
LINE
  5
1A7
330
1F
100
AcDbEntity
  8
D-4
  6
Continuous
 62
     7
370
     9
100
AcDbLine
 10
-88.59996409029623
 20
-46.18018656907975
 30
0.0
 11
111.4000359097047
 21
-46.18018656907975
 31
0.0
  0
TEXT
  5
1A8
330
1F
100
AcDbEntity
  8
D-4
  6
Continuous
 62
     2
370
   211
100
AcDbText
 10
0.4000359097042292
 20
-44.05218656907975
 30
0.0
 40
6.096
  1
□200
 41
1.1
  7
ＭＳ ゴシック
100
AcDbText
  0
TEXT
  5
1A9
330
1F
100
AcDbEntity
  8
D-4
  6
Continuous
 62
     2
370
   211
100
AcDbText
 10
0.4000111657214802
 20
-57.87697343931397
 30
0.0
 40
6.096
  1
□192
 41
1.1
  7
ＭＳ ゴシック
100
AcDbText
  0
TEXT
  5
1AA
330
1F
100
AcDbEntity
  8
D-4
  6
Continuous
 62
     2
370
   211
100
AcDbText
 10
0.4000359097037745
 20
-72.45607444249747
 30
0.0
 40
6.096
  1
□186
 41
1.1
  7
ＭＳ ゴシック
100
AcDbText
  0
TEXT
  5
1AB
330
1F
100
AcDbEntity
  8
D-4
  6
Continuous
 62
     2
370
   211
100
AcDbText
 10
0.4000359097037745
 20
-140.6330819288116
 30
0.0
 40
6.096
  1
□140
 41
1.1
  7
ＭＳ ゴシック
100
AcDbText
  0
LINE
  5
1AC
330
1F
100
AcDbEntity
  8
D-8
  6
Continuous
 62
    30
370
     5
100
AcDbLine
 10
1.400035909440476
 20
-108.676003067121
 30
0.0
 11
1.400035909440476
 21
-108.176003067121
 31
0.0
  0
LINE
  5
1AD
330
1F
100
AcDbEntity
  8
D-8
  6
Continuous
 62
    30
370
     5
100
AcDbLine
 10
21.40003590944048
 20
-108.676003067121
 30
0.0
 11
21.40003590944048
 21
-108.176003067121
 31
0.0
  0
LINE
  5
1AE
330
1F
100
AcDbEntity
  8
D-8
  6
Continuous
 62
    30
370
     5
100
AcDbLine
 10
-83.59996409029668
 20
-108.176003067121
 30
0.0
 11
-83.59996409029668
 21
-108.676003067121
 31
0.0
  0
LINE
  5
1AF
330
1F
100
AcDbEntity
  8
D-8
  6
Continuous
 62
    30
370
     5
100
AcDbLine
 10
-58.59996409029668
 20
-108.176003067121
 30
0.0
 11
-58.59996409029668
 21
-108.676003067121
 31
0.0
  0
LINE
  5
1B0
330
1F
100
AcDbEntity
  8
D-8
  6
Continuous
 62
    30
370
     5
100
AcDbLine
 10
106.4000359097042
 20
-108.176003067121
 30
0.0
 11
106.4000359097042
 21
-108.676003067121
 31
0.0
  0
LINE
  5
1B1
330
1F
100
AcDbEntity
  8
D-8
  6
Continuous
 62
    30
370
     5
100
AcDbLine
 10
81.40003590970332
 20
-108.176003067121
 30
0.0
 11
81.40003590970332
 21
-108.676003067121
 31
0.0
  0
LINE
  5
1B2
330
1F
100
AcDbEntity
  8
D-8
  6
Continuous
 62
    30
370
     5
100
AcDbLine
 10
-83.59996409029668
 20
-108.176003067121
 30
0.0
 11
106.4000359097042
 21
-108.176003067121
 31
0.0
  0
LINE
  5
1B3
330
1F
100
AcDbEntity
  8
D-8
  6
JWW_HOJO
 62
    30
370
     5
100
AcDbLine
 10
-83.59996409029668
 20
-108.676003067121
 30
0.0
 11
106.4000359097042
 21
-108.676003067121
 31
0.0
  0
LINE
  5
1B4
330
1F
100
AcDbEntity
  8
D-8
  6
Continuous
 62
    30
370
     5
100
AcDbLine
 10
105.0575972943616
 20
-108.6760030671214
 30
0.0
 11
105.557597294362
 21
-108.176003067121
 31
0.0
  0
LINE
  5
1B5
330
1F
100
AcDbEntity
  8
D-8
  6
Continuous
 62
    30
370
     5
100
AcDbLine
 10
103.6433837319885
 20
-108.6760030671214
 30
0.0
 11
104.1433837319887
 21
-108.176003067121
 31
0.0
  0
LINE
  5
1B6
330
1F
100
AcDbEntity
  8
D-8
  6
Continuous
 62
    30
370
     5
100
AcDbLine
 10
102.2291701696151
 20
-108.6760030671212
 30
0.0
 11
102.7291701696156
 21
-108.1760030671207
 31
0.0
  0
LINE
  5
1B7
330
1F
100
AcDbEntity
  8
D-8
  6
Continuous
 62
    30
370
     5
100
AcDbLine
 10
100.8149566072418
 20
-108.6760030671212
 30
0.0
 11
101.3149566072423
 21
-108.1760030671207
 31
0.0
  0
LINE
  5
1B8
330
1F
100
AcDbEntity
  8
D-8
  6
Continuous
 62
    30
370
     5
100
AcDbLine
 10
99.4007430448687
 20
-108.676003067121
 30
0.0
 11
99.90074304486916
 21
-108.1760030671205
 31
0.0
  0
LINE
  5
1B9
330
1F
100
AcDbEntity
  8
D-8
  6
Continuous
 62
    30
370
     5
100
AcDbLine
 10
97.9865294824956
 20
-108.676003067121
 30
0.0
 11
98.48652948249583
 21
-108.1760030671205
 31
0.0
  0
LINE
  5
1BA
330
1F
100
AcDbEntity
  8
D-8
  6
Continuous
 62
    30
370
     5
100
AcDbLine
 10
96.57231592012431
 20
-108.6760030671205
 30
0.0
 11
97.07231592012454
 21
-108.1760030671203
 31
0.0
  0
LINE
  5
1BB
330
1F
100
AcDbEntity
  8
D-8
  6
Continuous
 62
    30
370
     5
100
AcDbLine
 10
95.15810235775302
 20
-108.6760030671203
 30
0.0
 11
95.65810235775348
 21
-108.1760030671201
 31
0.0
  0
LINE
  5
1BC
330
1F
100
AcDbEntity
  8
D-8
  6
Continuous
 62
    30
370
     5
100
AcDbLine
 10
93.74388879537878
 20
-108.6760030671212
 30
0.0
 11
94.2438887953781
 21
-108.1760030671219
 31
0.0
  0
LINE
  5
1BD
330
1F
100
AcDbEntity
  8
D-8
  6
Continuous
 62
    30
370
     5
100
AcDbLine
 10
92.32967523300545
 20
-108.6760030671212
 30
0.0
 11
92.82967523300499
 21
-108.1760030671219
 31
0.0
  0
LINE
  5
1BE
330
1F
100
AcDbEntity
  8
D-8
  6
Continuous
 62
    30
370
     5
100
AcDbLine
 10
90.91546167063234
 20
-108.676003067121
 30
0.0
 11
91.41546167063166
 21
-108.1760030671217
 31
0.0
  0
LINE
  5
1BF
330
1F
100
AcDbEntity
  8
D-8
  6
Continuous
 62
    30
370
     5
100
AcDbLine
 10
89.50124810825923
 20
-108.676003067121
 30
0.0
 11
90.00124810825855
 21
-108.1760030671214
 31
0.0
  0
LINE
  5
1C0
330
1F
100
AcDbEntity
  8
D-8
  6
Continuous
 62
    30
370
     5
100
AcDbLine
 10
88.0870345458859
 20
-108.6760030671207
 30
0.0
 11
88.58703454588522
 21
-108.1760030671214
 31
0.0
  0
LINE
  5
1C1
330
1F
100
AcDbEntity
  8
D-8
  6
Continuous
 62
    30
370
     5
100
AcDbLine
 10
86.67282098351279
 20
-108.6760030671205
 30
0.0
 11
87.17282098351211
 21
-108.1760030671214
 31
0.0
  0
LINE
  5
1C2
330
1F
100
AcDbEntity
  8
D-8
  6
Continuous
 62
    30
370
     5
100
AcDbLine
 10
85.25860742113969
 20
-108.6760030671205
 30
0.0
 11
85.75860742113878
 21
-108.1760030671212
 31
0.0
  0
LINE
  5
1C3
330
1F
100
AcDbEntity
  8
D-8
  6
Continuous
 62
    30
370
     5
100
AcDbLine
 10
83.84439385876544
 20
-108.6760030671214
 30
0.0
 11
84.34439385876567
 21
-108.176003067121
 31
0.0
  0
LINE
  5
1C4
330
1F
100
AcDbEntity
  8
D-8
  6
Continuous
 62
    30
370
     5
100
AcDbLine
 10
82.43018029639211
 20
-108.6760030671212
 30
0.0
 11
82.93018029639256
 21
-108.176003067121
 31
0.0
  0
LINE
  5
1C5
330
1F
100
AcDbEntity
  8
D-8
  6
Continuous
 62
    30
370
     5
100
AcDbLine
 10
81.01596673401878
 20
-108.6760030671212
 30
0.0
 11
81.51596673401923
 21
-108.1760030671207
 31
0.0
  0
LINE
  5
1C6
330
1F
100
AcDbEntity
  8
D-8
  6
Continuous
 62
    30
370
     5
100
AcDbLine
 10
79.60175317164567
 20
-108.676003067121
 30
0.0
 11
80.1017531716459
 21
-108.1760030671207
 31
0.0
  0
LINE
  5
1C7
330
1F
100
AcDbEntity
  8
D-8
  6
Continuous
 62
    30
370
     5
100
AcDbLine
 10
78.18753960927256
 20
-108.676003067121
 30
0.0
 11
78.68753960927279
 21
-108.1760030671205
 31
0.0
  0
LINE
  5
1C8
330
1F
100
AcDbEntity
  8
D-8
  6
Continuous
 62
    30
370
     5
100
AcDbLine
 10
76.77332604689923
 20
-108.676003067121
 30
0.0
 11
77.27332604689968
 21
-108.1760030671205
 31
0.0
  0
LINE
  5
1C9
330
1F
100
AcDbEntity
  8
D-8
  6
Continuous
 62
    30
370
     5
100
AcDbLine
 10
75.3591124845259
 20
-108.6760030671207
 30
0.0
 11
75.85911248452635
 21
-108.1760030671203
 31
0.0
  0
LINE
  5
1CA
330
1F
100
AcDbEntity
  8
D-8
  6
Continuous
 62
    30
370
     5
100
AcDbLine
 10
73.94489892215256
 20
-108.6760030671207
 30
0.0
 11
74.44489892215302
 21
-108.1760030671205
 31
0.0
  0
LINE
  5
1CB
330
1F
100
AcDbEntity
  8
D-8
  6
Continuous
 62
    30
370
     5
100
AcDbLine
 10
72.53068535978059
 20
-108.6760030671214
 30
0.0
 11
73.03068535978105
 21
-108.176003067121
 31
0.0
  0
LINE
  5
1CC
330
1F
100
AcDbEntity
  8
D-8
  6
Continuous
 62
    30
370
     5
100
AcDbLine
 10
71.1164717974093
 20
-108.676003067121
 30
0.0
 11
71.61647179740862
 21
-108.1760030671217
 31
0.0
  0
LINE
  5
1CD
330
1F
100
AcDbEntity
  8
D-8
  6
Continuous
 62
    30
370
     5
100
AcDbLine
 10
69.70225823503597
 20
-108.676003067121
 30
0.0
 11
70.20225823503529
 21
-108.1760030671217
 31
0.0
  0
LINE
  5
1CE
330
1F
100
AcDbEntity
  8
D-8
  6
Continuous
 62
    30
370
     5
100
AcDbLine
 10
68.28804467266286
 20
-108.676003067121
 30
0.0
 11
68.78804467266218
 21
-108.1760030671214
 31
0.0
  0
LINE
  5
1CF
330
1F
100
AcDbEntity
  8
D-8
  6
Continuous
 62
    30
370
     5
100
AcDbLine
 10
66.87383111028953
 20
-108.6760030671207
 30
0.0
 11
67.37383111028885
 21
-108.1760030671214
 31
0.0
  0
LINE
  5
1D0
330
1F
100
AcDbEntity
  8
D-8
  6
Continuous
 62
    30
370
     5
100
AcDbLine
 10
65.45961754791642
 20
-108.6760030671205
 30
0.0
 11
65.95961754791574
 21
-108.1760030671214
 31
0.0
  0
LINE
  5
1D1
330
1F
100
AcDbEntity
  8
D-8
  6
Continuous
 62
    30
370
     5
100
AcDbLine
 10
64.04540398554332
 20
-108.6760030671205
 30
0.0
 11
64.5454039855424
 21
-108.1760030671212
 31
0.0
  0
LINE
  5
1D2
330
1F
100
AcDbEntity
  8
D-8
  6
Continuous
 62
    30
370
     5
100
AcDbLine
 10
62.63119042316907
 20
-108.6760030671214
 30
0.0
 11
63.1311904231693
 21
-108.176003067121
 31
0.0
  0
LINE
  5
1D3
330
1F
100
AcDbEntity
  8
D-8
  6
Continuous
 62
    30
370
     5
100
AcDbLine
 10
61.21697686079574
 20
-108.6760030671214
 30
0.0
 11
61.71697686079597
 21
-108.176003067121
 31
0.0
  0
LINE
  5
1D4
330
1F
100
AcDbEntity
  8
D-8
  6
Continuous
 62
    30
370
     5
100
AcDbLine
 10
59.80276329842241
 20
-108.6760030671212
 30
0.0
 11
60.30276329842286
 21
-108.1760030671207
 31
0.0
  0
LINE
  5
1D5
330
1F
100
AcDbEntity
  8
D-8
  6
Continuous
 62
    30
370
     5
100
AcDbLine
 10
58.3885497360493
 20
-108.676003067121
 30
0.0
 11
58.88854973604975
 21
-108.1760030671205
 31
0.0
  0
LINE
  5
1D6
330
1F
100
AcDbEntity
  8
D-8
  6
Continuous
 62
    30
370
     5
100
AcDbLine
 10
56.97433617367619
 20
-108.676003067121
 30
0.0
 11
57.47433617367665
 21
-108.1760030671205
 31
0.0
  0
LINE
  5
1D7
330
1F
100
AcDbEntity
  8
D-8
  6
Continuous
 62
    30
370
     5
100
AcDbLine
 10
55.56012261130286
 20
-108.6760030671207
 30
0.0
 11
56.06012261130331
 21
-108.1760030671203
 31
0.0
  0
LINE
  5
1D8
330
1F
100
AcDbEntity
  8
D-8
  6
Continuous
 62
    30
370
     5
100
AcDbLine
 10
54.14590904892952
 20
-108.6760030671207
 30
0.0
 11
54.64590904893021
 21
-108.1760030671201
 31
0.0
  0
LINE
  5
1D9
330
1F
100
AcDbEntity
  8
D-8
  6
Continuous
 62
    30
370
     5
100
AcDbLine
 10
52.73169548655642
 20
-108.6760030671205
 30
0.0
 11
53.23169548655687
 21
-108.1760030671201
 31
0.0
  0
LINE
  5
1DA
330
1F
100
AcDbEntity
  8
D-8
  6
Continuous
 62
    30
370
     5
100
AcDbLine
 10
51.31748192418422
 20
-108.6760030671212
 30
0.0
 11
51.81748192418468
 21
-108.176003067121
 31
0.0
  0
LINE
  5
1DB
330
1F
100
AcDbEntity
  8
D-8
  6
Continuous
 62
    30
370
     5
100
AcDbLine
 10
49.90326836181293
 20
-108.676003067121
 30
0.0
 11
50.40326836181225
 21
-108.1760030671219
 31
0.0
  0
LINE
  5
1DC
330
1F
100
AcDbEntity
  8
D-8
  6
Continuous
 62
    30
370
     5
100
AcDbLine
 10
48.48905479943983
 20
-108.676003067121
 30
0.0
 11
48.98905479943915
 21
-108.1760030671214
 31
0.0
  0
LINE
  5
1DD
330
1F
100
AcDbEntity
  8
D-8
  6
Continuous
 62
    30
370
     5
100
AcDbLine
 10
47.07484123706649
 20
-108.676003067121
 30
0.0
 11
47.57484123706581
 21
-108.1760030671214
 31
0.0
  0
LINE
  5
1DE
330
1F
100
AcDbEntity
  8
D-8
  6
Continuous
 62
    30
370
     5
100
AcDbLine
 10
45.66062767469316
 20
-108.6760030671207
 30
0.0
 11
46.16062767469271
 21
-108.1760030671214
 31
0.0
  0
LINE
  5
1DF
330
1F
100
AcDbEntity
  8
D-8
  6
Continuous
 62
    30
370
     5
100
AcDbLine
 10
44.24641411232005
 20
-108.6760030671205
 30
0.0
 11
44.74641411231937
 21
-108.1760030671212
 31
0.0
  0
LINE
  5
1E0
330
1F
100
AcDbEntity
  8
D-8
  6
Continuous
 62
    30
370
     5
100
AcDbLine
 10
42.83220054994672
 20
-108.6760030671205
 30
0.0
 11
43.33220054994626
 21
-108.176003067121
 31
0.0
  0
LINE
  5
1E1
330
1F
100
AcDbEntity
  8
D-8
  6
Continuous
 62
    30
370
     5
100
AcDbLine
 10
41.4179869875727
 20
-108.6760030671214
 30
0.0
 11
41.91798698757293
 21
-108.176003067121
 31
0.0
  0
LINE
  5
1E2
330
1F
100
AcDbEntity
  8
D-8
  6
Continuous
 62
    30
370
     5
100
AcDbLine
 10
40.00377342519937
 20
-108.6760030671212
 30
0.0
 11
40.50377342519982
 21
-108.1760030671207
 31
0.0
  0
LINE
  5
1E3
330
1F
100
AcDbEntity
  8
D-8
  6
Continuous
 62
    30
370
     5
100
AcDbLine
 10
38.58955986282604
 20
-108.676003067121
 30
0.0
 11
39.08955986282649
 21
-108.1760030671207
 31
0.0
  0
LINE
  5
1E4
330
1F
100
AcDbEntity
  8
D-8
  6
Continuous
 62
    30
370
     5
100
AcDbLine
 10
37.17534630045316
 20
-108.676003067121
 30
0.0
 11
37.67534630045338
 21
-108.1760030671205
 31
0.0
  0
LINE
  5
1E5
330
1F
100
AcDbEntity
  8
D-8
  6
Continuous
 62
    30
370
     5
100
AcDbLine
 10
35.76113273807982
 20
-108.676003067121
 30
0.0
 11
36.26113273808028
 21
-108.1760030671205
 31
0.0
  0
LINE
  5
1E6
330
1F
100
AcDbEntity
  8
D-8
  6
Continuous
 62
    30
370
     5
100
AcDbLine
 10
34.34691917570649
 20
-108.6760030671207
 30
0.0
 11
34.84691917570694
 21
-108.1760030671203
 31
0.0
  0
LINE
  5
1E7
330
1F
100
AcDbEntity
  8
D-8
  6
Continuous
 62
    30
370
     5
100
AcDbLine
 10
32.93270561333338
 20
-108.6760030671205
 30
0.0
 11
33.43270561333361
 21
-108.1760030671203
 31
0.0
  0
LINE
  5
1E8
330
1F
100
AcDbEntity
  8
D-8
  6
Continuous
 62
    30
370
     5
100
AcDbLine
 10
31.51849205096005
 20
-108.6760030671205
 30
0.0
 11
32.0184920509605
 21
-108.1760030671201
 31
0.0
  0
LINE
  5
1E9
330
1F
100
AcDbEntity
  8
D-8
  6
Continuous
 62
    30
370
     5
100
AcDbLine
 10
30.10427848858785
 20
-108.6760030671212
 30
0.0
 11
30.60427848858831
 21
-108.1760030671207
 31
0.0
  0
LINE
  5
1EA
330
1F
100
AcDbEntity
  8
D-8
  6
Continuous
 62
    30
370
     5
100
AcDbLine
 10
28.69006492621656
 20
-108.676003067121
 30
0.0
 11
29.19006492621588
 21
-108.1760030671217
 31
0.0
  0
LINE
  5
1EB
330
1F
100
AcDbEntity
  8
D-8
  6
Continuous
 62
    30
370
     5
100
AcDbLine
 10
27.27585136384346
 20
-108.676003067121
 30
0.0
 11
27.77585136384278
 21
-108.1760030671214
 31
0.0
  0
LINE
  5
1EC
330
1F
100
AcDbEntity
  8
D-8
  6
Continuous
 62
    30
370
     5
100
AcDbLine
 10
25.86163780147012
 20
-108.6760030671207
 30
0.0
 11
26.36163780146944
 21
-108.1760030671214
 31
0.0
  0
LINE
  5
1ED
330
1F
100
AcDbEntity
  8
D-8
  6
Continuous
 62
    30
370
     5
100
AcDbLine
 10
24.44742423909702
 20
-108.6760030671205
 30
0.0
 11
24.94742423909634
 21
-108.1760030671214
 31
0.0
  0
LINE
  5
1EE
330
1F
100
AcDbEntity
  8
D-8
  6
Continuous
 62
    30
370
     5
100
AcDbLine
 10
23.03321067672368
 20
-108.6760030671205
 30
0.0
 11
23.533210676723
 21
-108.1760030671212
 31
0.0
  0
LINE
  5
1EF
330
1F
100
AcDbEntity
  8
D-8
  6
Continuous
 62
    30
370
     5
100
AcDbLine
 10
21.61899711435058
 20
-108.6760030671203
 30
0.0
 11
22.1189971143499
 21
-108.176003067121
 31
0.0
  0
LINE
  5
1F0
330
1F
100
AcDbEntity
  8
D-8
  6
Continuous
 62
    30
370
     5
100
AcDbLine
 10
20.20478355197633
 20
-108.6760030671212
 30
0.0
 11
20.70478355197656
 21
-108.176003067121
 31
0.0
  0
LINE
  5
1F1
330
1F
100
AcDbEntity
  8
D-8
  6
Continuous
 62
    30
370
     5
100
AcDbLine
 10
18.790569989603
 20
-108.6760030671212
 30
0.0
 11
19.29056998960345
 21
-108.176003067121
 31
0.0
  0
LINE
  5
1F2
330
1F
100
AcDbEntity
  8
D-8
  6
Continuous
 62
    30
370
     5
100
AcDbLine
 10
17.37635642722989
 20
-108.676003067121
 30
0.0
 11
17.87635642723012
 21
-108.1760030671207
 31
0.0
  0
LINE
  5
1F3
330
1F
100
AcDbEntity
  8
D-8
  6
Continuous
 62
    30
370
     5
100
AcDbLine
 10
15.96214286485656
 20
-108.676003067121
 30
0.0
 11
16.46214286485701
 21
-108.1760030671205
 31
0.0
  0
LINE
  5
1F4
330
1F
100
AcDbEntity
  8
D-8
  6
Continuous
 62
    30
370
     5
100
AcDbLine
 10
14.54792930248345
 20
-108.6760030671207
 30
0.0
 11
15.04792930248368
 21
-108.1760030671205
 31
0.0
  0
LINE
  5
1F5
330
1F
100
AcDbEntity
  8
D-8
  6
Continuous
 62
    30
370
     5
100
AcDbLine
 10
13.13371574011012
 20
-108.6760030671207
 30
0.0
 11
13.63371574011057
 21
-108.1760030671203
 31
0.0
  0
LINE
  5
1F6
330
1F
100
AcDbEntity
  8
D-8
  6
Continuous
 62
    30
370
     5
100
AcDbLine
 10
11.71950217773701
 20
-108.6760030671205
 30
0.0
 11
12.21950217773747
 21
-108.1760030671201
 31
0.0
  0
LINE
  5
1F7
330
1F
100
AcDbEntity
  8
D-8
  6
Continuous
 62
    30
370
     5
100
AcDbLine
 10
10.30528861536368
 20
-108.6760030671205
 30
0.0
 11
10.80528861536436
 21
-108.1760030671201
 31
0.0
  0
LINE
  5
1F8
330
1F
100
AcDbEntity
  8
D-8
  6
Continuous
 62
    30
370
     5
100
AcDbLine
 10
8.891075052991937
 20
-108.6760030671207
 30
0.0
 11
9.391075052992392
 21
-108.1760030671203
 31
0.0
  0
LINE
  5
1F9
330
1F
100
AcDbEntity
  8
D-8
  6
Continuous
 62
    30
370
     5
100
AcDbLine
 10
7.476861490620422
 20
-108.676003067121
 30
0.0
 11
7.97686149061974
 21
-108.1760030671214
 31
0.0
  0
LINE
  5
1FA
330
1F
100
AcDbEntity
  8
D-8
  6
Continuous
 62
    30
370
     5
100
AcDbLine
 10
6.062647928247088
 20
-108.676003067121
 30
0.0
 11
6.562647928246406
 21
-108.1760030671214
 31
0.0
  0
LINE
  5
1FB
330
1F
100
AcDbEntity
  8
D-8
  6
Continuous
 62
    30
370
     5
100
AcDbLine
 10
4.648434365873754
 20
-108.6760030671207
 30
0.0
 11
5.148434365873072
 21
-108.1760030671214
 31
0.0
  0
LINE
  5
1FC
330
1F
100
AcDbEntity
  8
D-8
  6
Continuous
 62
    30
370
     5
100
AcDbLine
 10
3.234220803500648
 20
-108.6760030671205
 30
0.0
 11
3.734220803499966
 21
-108.1760030671212
 31
0.0
  0
LINE
  5
1FD
330
1F
100
AcDbEntity
  8
D-8
  6
Continuous
 62
    30
370
     5
100
AcDbLine
 10
1.820007241127314
 20
-108.6760030671205
 30
0.0
 11
2.320007241126632
 21
-108.1760030671212
 31
0.0
  0
LINE
  5
1FE
330
1F
100
AcDbEntity
  8
D-8
  6
Continuous
 62
    30
370
     5
100
AcDbLine
 10
0.4057936787542076
 20
-108.6760030671205
 30
0.0
 11
0.9057936787535255
 21
-108.176003067121
 31
0.0
  0
LINE
  5
1FF
330
1F
100
AcDbEntity
  8
D-8
  6
Continuous
 62
    30
370
     5
100
AcDbLine
 10
-1.008419883619126
 20
-108.6760030671203
 30
0.0
 11
-0.508419883619581
 21
-108.176003067121
 31
0.0
  0
LINE
  5
200
330
1F
100
AcDbEntity
  8
D-8
  6
Continuous
 62
    30
370
     5
100
AcDbLine
 10
-2.42263344599337
 20
-108.6760030671212
 30
0.0
 11
-1.922633445992915
 21
-108.1760030671207
 31
0.0
  0
LINE
  5
201
330
1F
100
AcDbEntity
  8
D-8
  6
Continuous
 62
    30
370
     5
100
AcDbLine
 10
-3.836847008366476
 20
-108.676003067121
 30
0.0
 11
-3.336847008366021
 21
-108.1760030671205
 31
0.0
  0
LINE
  5
202
330
1F
100
AcDbEntity
  8
D-8
  6
Continuous
 62
    30
370
     5
100
AcDbLine
 10
-5.25106057073981
 20
-108.676003067121
 30
0.0
 11
-4.751060570739128
 21
-108.1760030671205
 31
0.0
  0
LINE
  5
203
330
1F
100
AcDbEntity
  8
D-8
  6
Continuous
 62
    30
370
     5
100
AcDbLine
 10
-6.665274133112916
 20
-108.6760030671207
 30
0.0
 11
-6.165274133112462
 21
-108.1760030671203
 31
0.0
  0
LINE
  5
204
330
1F
100
AcDbEntity
  8
D-8
  6
Continuous
 62
    30
370
     5
100
AcDbLine
 10
-8.079487695486023
 20
-108.6760030671205
 30
0.0
 11
-7.579487695485795
 21
-108.1760030671203
 31
0.0
  0
LINE
  5
205
330
1F
100
AcDbEntity
  8
D-8
  6
Continuous
 62
    30
370
     5
100
AcDbLine
 10
-9.493701257859357
 20
-108.6760030671205
 30
0.0
 11
-8.993701257858902
 21
-108.1760030671201
 31
0.0
  0
LINE
  5
206
330
1F
100
AcDbEntity
  8
D-8
  6
Continuous
 62
    30
370
     5
100
AcDbLine
 10
-10.90791482023246
 20
-108.6760030671205
 30
0.0
 11
-10.40791482023201
 21
-108.1760030671201
 31
0.0
  0
LINE
  5
207
330
1F
100
AcDbEntity
  8
D-8
  6
Continuous
 62
    30
370
     5
100
AcDbLine
 10
-12.32212838260443
 20
-108.6760030671207
 30
0.0
 11
-11.82212838260398
 21
-108.1760030671203
 31
0.0
  0
LINE
  5
208
330
1F
100
AcDbEntity
  8
D-8
  6
Continuous
 62
    30
370
     5
100
AcDbLine
 10
-13.73634194497618
 20
-108.676003067121
 30
0.0
 11
-13.23634194497686
 21
-108.1760030671217
 31
0.0
  0
LINE
  5
209
330
1F
100
AcDbEntity
  8
D-8
  6
Continuous
 62
    30
370
     5
100
AcDbLine
 10
-15.15055550734928
 20
-108.6760030671207
 30
0.0
 11
-14.65055550734996
 21
-108.1760030671214
 31
0.0
  0
LINE
  5
20A
330
1F
100
AcDbEntity
  8
D-8
  6
Continuous
 62
    30
370
     5
100
AcDbLine
 10
-16.56476906972262
 20
-108.6760030671207
 30
0.0
 11
-16.06476906972307
 21
-108.1760030671212
 31
0.0
  0
LINE
  5
20B
330
1F
100
AcDbEntity
  8
D-8
  6
Continuous
 62
    30
370
     5
100
AcDbLine
 10
-17.97898263209572
 20
-108.6760030671205
 30
0.0
 11
-17.4789826320964
 21
-108.1760030671212
 31
0.0
  0
LINE
  5
20C
330
1F
100
AcDbEntity
  8
D-8
  6
Continuous
 62
    30
370
     5
100
AcDbLine
 10
-19.39319619446883
 20
-108.6760030671205
 30
0.0
 11
-18.89319619446951
 21
-108.176003067121
 31
0.0
  0
LINE
  5
20D
330
1F
100
AcDbEntity
  8
D-8
  6
Continuous
 62
    30
370
     5
100
AcDbLine
 10
-20.80740975684216
 20
-108.6760030671203
 30
0.0
 11
-20.30740975684262
 21
-108.176003067121
 31
0.0
  0
LINE
  5
20E
330
1F
100
AcDbEntity
  8
D-8
  6
Continuous
 62
    30
370
     5
100
AcDbLine
 10
-22.22162331921527
 20
-108.6760030671201
 30
0.0
 11
-21.72162331921595
 21
-108.176003067121
 31
0.0
  0
LINE
  5
20F
330
1F
100
AcDbEntity
  8
D-8
  6
Continuous
 62
    30
370
     5
100
AcDbLine
 10
-23.63583688158951
 20
-108.676003067121
 30
0.0
 11
-23.13583688158928
 21
-108.1760030671207
 31
0.0
  0
LINE
  5
210
330
1F
100
AcDbEntity
  8
D-8
  6
Continuous
 62
    30
370
     5
100
AcDbLine
 10
-25.05005044396285
 20
-108.676003067121
 30
0.0
 11
-24.55005044396239
 21
-108.1760030671205
 31
0.0
  0
LINE
  5
211
330
1F
100
AcDbEntity
  8
D-8
  6
Continuous
 62
    30
370
     5
100
AcDbLine
 10
-26.46426400633595
 20
-108.6760030671207
 30
0.0
 11
-25.96426400633572
 21
-108.1760030671205
 31
0.0
  0
LINE
  5
212
330
1F
100
AcDbEntity
  8
D-8
  6
Continuous
 62
    30
370
     5
100
AcDbLine
 10
-27.87847756870929
 20
-108.6760030671207
 30
0.0
 11
-27.37847756870883
 21
-108.1760030671205
 31
0.0
  0
LINE
  5
213
330
1F
100
AcDbEntity
  8
D-8
  6
Continuous
 62
    30
370
     5
100
AcDbLine
 10
-29.29269113108239
 20
-108.6760030671205
 30
0.0
 11
-28.79269113108217
 21
-108.1760030671203
 31
0.0
  0
LINE
  5
214
330
1F
100
AcDbEntity
  8
D-8
  6
Continuous
 62
    30
370
     5
100
AcDbLine
 10
-30.7069046934555
 20
-108.6760030671205
 30
0.0
 11
-30.20690469345527
 21
-108.1760030671201
 31
0.0
  0
LINE
  5
215
330
1F
100
AcDbEntity
  8
D-8
  6
Continuous
 62
    30
370
     5
100
AcDbLine
 10
-32.12111825582883
 20
-108.6760030671203
 30
0.0
 11
-31.62111825582861
 21
-108.1760030671201
 31
0.0
  0
LINE
  5
216
330
1F
100
AcDbEntity
  8
D-8
  6
Continuous
 62
    30
370
     5
100
AcDbLine
 10
-33.5353318182008
 20
-108.6760030671207
 30
0.0
 11
-33.03533181820035
 21
-108.1760030671205
 31
0.0
  0
LINE
  5
217
330
1F
100
AcDbEntity
  8
D-8
  6
Continuous
 62
    30
370
     5
100
AcDbLine
 10
-34.94954538057232
 20
-108.676003067121
 30
0.0
 11
-34.44954538057209
 21
-108.1760030671205
 31
0.0
  0
LINE
  5
218
330
1F
100
AcDbEntity
  8
D-8
  6
Continuous
 62
    30
370
     5
100
AcDbLine
 10
-36.36375894294565
 20
-108.6760030671207
 30
0.0
 11
-35.86375894294611
 21
-108.1760030671214
 31
0.0
  0
LINE
  5
219
330
1F
100
AcDbEntity
  8
D-8
  6
Continuous
 62
    30
370
     5
100
AcDbLine
 10
-37.77797250531876
 20
-108.6760030671205
 30
0.0
 11
-37.27797250531944
 21
-108.1760030671214
 31
0.0
  0
LINE
  5
21A
330
1F
100
AcDbEntity
  8
D-8
  6
Continuous
 62
    30
370
     5
100
AcDbLine
 10
-39.19218606769209
 20
-108.6760030671205
 30
0.0
 11
-38.69218606769277
 21
-108.1760030671212
 31
0.0
  0
LINE
  5
21B
330
1F
100
AcDbEntity
  8
D-8
  6
Continuous
 62
    30
370
     5
100
AcDbLine
 10
-40.6063996300652
 20
-108.6760030671203
 30
0.0
 11
-40.10639963006588
 21
-108.176003067121
 31
0.0
  0
LINE
  5
21C
330
1F
100
AcDbEntity
  8
D-8
  6
Continuous
 62
    30
370
     5
100
AcDbLine
 10
-42.02061319243853
 20
-108.6760030671203
 30
0.0
 11
-41.52061319243899
 21
-108.176003067121
 31
0.0
  0
LINE
  5
21D
330
1F
100
AcDbEntity
  8
D-8
  6
Continuous
 62
    30
370
     5
100
AcDbLine
 10
-43.43482675481164
 20
-108.6760030671201
 30
0.0
 11
-42.93482675481232
 21
-108.1760030671207
 31
0.0
  0
LINE
  5
21E
330
1F
100
AcDbEntity
  8
D-8
  6
Continuous
 62
    30
370
     5
100
AcDbLine
 10
-44.84904031718588
 20
-108.676003067121
 30
0.0
 11
-44.34904031718565
 21
-108.1760030671207
 31
0.0
  0
LINE
  5
21F
330
1F
100
AcDbEntity
  8
D-8
  6
Continuous
 62
    30
370
     5
100
AcDbLine
 10
-46.26325387955899
 20
-108.676003067121
 30
0.0
 11
-45.76325387955876
 21
-108.1760030671205
 31
0.0
  0
LINE
  5
220
330
1F
100
AcDbEntity
  8
D-8
  6
Continuous
 62
    30
370
     5
100
AcDbLine
 10
-47.67746744193232
 20
-108.6760030671207
 30
0.0
 11
-47.17746744193209
 21
-108.1760030671205
 31
0.0
  0
LINE
  5
221
330
1F
100
AcDbEntity
  8
D-8
  6
Continuous
 62
    30
370
     5
100
AcDbLine
 10
-49.09168100430566
 20
-108.6760030671207
 30
0.0
 11
-48.5916810043052
 21
-108.1760030671203
 31
0.0
  0
LINE
  5
222
330
1F
100
AcDbEntity
  8
D-8
  6
Continuous
 62
    30
370
     5
100
AcDbLine
 10
-50.50589456667876
 20
-108.6760030671205
 30
0.0
 11
-50.00589456667831
 21
-108.1760030671201
 31
0.0
  0
LINE
  5
223
330
1F
100
AcDbEntity
  8
D-8
  6
Continuous
 62
    30
370
     5
100
AcDbLine
 10
-51.92010812905187
 20
-108.6760030671205
 30
0.0
 11
-51.42010812905141
 21
-108.1760030671201
 31
0.0
  0
LINE
  5
224
330
1F
100
AcDbEntity
  8
D-8
  6
Continuous
 62
    30
370
     5
100
AcDbLine
 10
-53.3343216914252
 20
-108.6760030671205
 30
0.0
 11
-52.83432169142475
 21
-108.1760030671198
 31
0.0
  0
LINE
  5
225
330
1F
100
AcDbEntity
  8
D-8
  6
Continuous
 62
    30
370
     5
100
AcDbLine
 10
-54.74853525379717
 20
-108.676003067121
 30
0.0
 11
-54.24853525379694
 21
-108.1760030671205
 31
0.0
  0
LINE
  5
226
330
1F
100
AcDbEntity
  8
D-8
  6
Continuous
 62
    30
370
     5
100
AcDbLine
 10
-56.16274881616869
 20
-108.6760030671207
 30
0.0
 11
-55.66274881616846
 21
-108.1760030671205
 31
0.0
  0
LINE
  5
227
330
1F
100
AcDbEntity
  8
D-8
  6
Continuous
 62
    30
370
     5
100
AcDbLine
 10
-57.57696237854202
 20
-108.6760030671207
 30
0.0
 11
-57.07696237854248
 21
-108.1760030671214
 31
0.0
  0
LINE
  5
228
330
1F
100
AcDbEntity
  8
D-8
  6
Continuous
 62
    30
370
     5
100
AcDbLine
 10
-58.99117594091513
 20
-108.6760030671205
 30
0.0
 11
-58.49117594091581
 21
-108.1760030671212
 31
0.0
  0
LINE
  5
229
330
1F
100
AcDbEntity
  8
D-8
  6
Continuous
 62
    30
370
     5
100
AcDbLine
 10
-60.40538950328846
 20
-108.6760030671205
 30
0.0
 11
-59.90538950328914
 21
-108.1760030671212
 31
0.0
  0
LINE
  5
22A
330
1F
100
AcDbEntity
  8
D-8
  6
Continuous
 62
    30
370
     5
100
AcDbLine
 10
-61.81960306566157
 20
-108.6760030671203
 30
0.0
 11
-61.31960306566225
 21
-108.176003067121
 31
0.0
  0
LINE
  5
22B
330
1F
100
AcDbEntity
  8
D-8
  6
Continuous
 62
    30
370
     5
100
AcDbLine
 10
-63.2338166280349
 20
-108.6760030671203
 30
0.0
 11
-62.73381662803536
 21
-108.176003067121
 31
0.0
  0
LINE
  5
22C
330
1F
100
AcDbEntity
  8
D-8
  6
Continuous
 62
    30
370
     5
100
AcDbLine
 10
-64.64803019040801
 20
-108.6760030671201
 30
0.0
 11
-64.14803019040869
 21
-108.1760030671207
 31
0.0
  0
LINE
  5
22D
330
1F
100
AcDbEntity
  8
D-8
  6
Continuous
 62
    30
370
     5
100
AcDbLine
 10
-66.06224375278225
 20
-108.676003067121
 30
0.0
 11
-65.5622437527818
 21
-108.1760030671205
 31
0.0
  0
LINE
  5
22E
330
1F
100
AcDbEntity
  8
D-8
  6
Continuous
 62
    30
370
     5
100
AcDbLine
 10
-67.47645731515536
 20
-108.676003067121
 30
0.0
 11
-66.97645731515513
 21
-108.1760030671205
 31
0.0
  0
LINE
  5
22F
330
1F
100
AcDbEntity
  8
D-8
  6
Continuous
 62
    30
370
     5
100
AcDbLine
 10
-68.89067087752869
 20
-108.6760030671207
 30
0.0
 11
-68.39067087752824
 21
-108.1760030671205
 31
0.0
  0
LINE
  5
230
330
1F
100
AcDbEntity
  8
D-8
  6
Continuous
 62
    30
370
     5
100
AcDbLine
 10
-70.3048844399018
 20
-108.6760030671205
 30
0.0
 11
-69.80488443990157
 21
-108.1760030671203
 31
0.0
  0
LINE
  5
231
330
1F
100
AcDbEntity
  8
D-8
  6
Continuous
 62
    30
370
     5
100
AcDbLine
 10
-71.7190980022749
 20
-108.6760030671205
 30
0.0
 11
-71.21909800227468
 21
-108.1760030671201
 31
0.0
  0
LINE
  5
232
330
1F
100
AcDbEntity
  8
D-8
  6
Continuous
 62
    30
370
     5
100
AcDbLine
 10
-73.13331156464824
 20
-108.6760030671203
 30
0.0
 11
-72.63331156464801
 21
-108.1760030671201
 31
0.0
  0
LINE
  5
233
330
1F
100
AcDbEntity
  8
D-8
  6
Continuous
 62
    30
370
     5
100
AcDbLine
 10
-74.54752512702134
 20
-108.6760030671201
 30
0.0
 11
-74.04752512702112
 21
-108.1760030671201
 31
0.0
  0
LINE
  5
234
330
1F
100
AcDbEntity
  8
D-8
  6
Continuous
 62
    30
370
     5
100
AcDbLine
 10
-75.96173868939377
 20
-108.676003067121
 30
0.0
 11
-75.46173868939331
 21
-108.1760030671205
 31
0.0
  0
LINE
  5
235
330
1F
100
AcDbEntity
  8
D-8
  6
Continuous
 62
    30
370
     5
100
AcDbLine
 10
-77.37595225176506
 20
-108.6760030671207
 30
0.0
 11
-76.8759522517646
 21
-108.1760030671205
 31
0.0
  0
LINE
  5
236
330
1F
100
AcDbEntity
  8
D-8
  6
Continuous
 62
    30
370
     5
100
AcDbLine
 10
-78.79016581413839
 20
-108.6760030671207
 30
0.0
 11
-78.29016581413885
 21
-108.1760030671212
 31
0.0
  0
LINE
  5
237
330
1F
100
AcDbEntity
  8
D-8
  6
Continuous
 62
    30
370
     5
100
AcDbLine
 10
-80.2043793765115
 20
-108.6760030671205
 30
0.0
 11
-79.70437937651218
 21
-108.176003067121
 31
0.0
  0
LINE
  5
238
330
1F
100
AcDbEntity
  8
D-8
  6
Continuous
 62
    30
370
     5
100
AcDbLine
 10
-81.6185929388846
 20
-108.6760030671203
 30
0.0
 11
-81.11859293888529
 21
-108.176003067121
 31
0.0
  0
LINE
  5
239
330
1F
100
AcDbEntity
  8
D-8
  6
Continuous
 62
    30
370
     5
100
AcDbLine
 10
-83.03280650125794
 20
-108.6760030671203
 30
0.0
 11
-82.53280650125862
 21
-108.176003067121
 31
0.0
  0
LINE
  5
23A
330
1F
100
AcDbEntity
  8
D-4
  6
Continuous
 62
     7
370
     9
100
AcDbLine
 10
-88.59996409029623
 20
-60.00497343931397
 30
0.0
 11
-101.5999640902962
 21
-60.00497343931397
 31
0.0
  0
LINE
  5
23B
330
1F
100
AcDbEntity
  8
D-4
  6
Continuous
 62
     7
370
     9
100
AcDbLine
 10
-137.1741793631434
 20
-93.67600306712097
 30
0.0
 11
-137.1741793631434
 21
-76.17600306712097
 31
0.0
  0
LINE
  5
23C
330
1F
100
AcDbEntity
  8
D-4
  6
Continuous
 62
     7
370
     9
100
AcDbLine
 10
-118.2934002536499
 20
-93.67600306712097
 30
0.0
 11
-118.2934002536499
 21
-76.17600306712097
 31
0.0
  0
TEXT
  5
23D
330
1F
100
AcDbEntity
  8
D-4
  6
Continuous
 62
     2
370
   211
100
AcDbText
 10
-77.84996409029623
 20
-140.6330819288116
 30
0.0
 40
6.096
  1
30
 41
1.0625
  7
ＭＳ ゴシック
100
AcDbText
  0
TEXT
  5
23E
330
1F
100
AcDbEntity
  8
D-4
  6
Continuous
 62
     2
370
   211
100
AcDbText
 10
92.15003590970423
 20
-140.6330819288116
 30
0.0
 40
6.096
  1
30
 41
1.0625
  7
ＭＳ ゴシック
100
AcDbText
  0
TEXT
  5
23F
330
1F
100
AcDbEntity
  8
D-4
  6
Continuous
 62
     2
370
   211
100
AcDbText
 10
-81.59990470473872
 20
-72.45607444249747
 30
0.0
 40
6.096
  1
3
  7
ＭＳ ゴシック
100
AcDbText
  0
TEXT
  5
240
330
1F
100
AcDbEntity
  8
D-4
  6
Continuous
 62
     2
370
   211
100
AcDbText
 10
-97.09996409029623
 20
-57.87697343931397
 30
0.0
 40
6.096
  1
3
  7
ＭＳ ゴシック
100
AcDbText
  0
ARC
  5
241
330
1F
100
AcDbEntity
  8
D-0
  6
Continuous
 62
     4
370
     9
100
AcDbCircle
 10
-87.60181136112965
 20
114.7033848198237
 30
0.0
 40
1.999999824868206
100
AcDbArc
 50
119.9389144527113
 51
180.0
  0
ARC
  5
242
330
1F
100
AcDbEntity
  8
D-0
  6
Continuous
 62
     4
370
     9
100
AcDbCircle
 10
-91.60178043115206
 20
114.2034072661506
 30
0.0
 40
1.999999824868206
100
AcDbArc
 50
180.0
 51
0.0
  0
ARC
  5
243
330
1F
100
AcDbEntity
  8
D-0
  6
Continuous
 62
     4
370
     9
100
AcDbCircle
 10
-91.60178043115206
 20
99.20338699965077
 30
0.0
 40
1.999999824868206
100
AcDbArc
 50
0.0
 51
180.0
  0
CIRCLE
  5
244
330
1F
100
AcDbEntity
  8
D-0
  6
Continuous
 62
     4
370
     9
100
AcDbCircle
 10
-112.6017295292456
 20
106.7033971329008
 30
0.0
 40
4.249999652037749
  0
LINE
  5
245
330
1F
100
AcDbEntity
  8
D-0
  6
JWW_CENTER2
 62
     4
370
     9
100
AcDbLine
 10
-85.59996409029623
 20
106.7033971329008
 30
0.0
 11
-123.38223850589
 21
106.7033971329008
 31
0.0
  0
LINE
  5
246
330
1F
100
AcDbEntity
  8
D-0
  6
JWW_CENTER2
 62
     4
370
     9
100
AcDbLine
 10
-91.60178043115206
 20
99.20338699965077
 30
0.0
 11
-91.60178043115206
 21
114.2034072661506
 31
0.0
  0
LINE
  5
247
330
1F
100
AcDbEntity
  8
D-0
  6
JWW_DASHED1
 62
     4
370
     9
100
AcDbLine
 10
-93.45587418162336
 20
113.4533666153227
 30
0.0
 11
-122.6017760714974
 21
113.4533666153227
 31
0.0
  0
LINE
  5
248
330
1F
100
AcDbEntity
  8
D-0
  6
Continuous
 62
     4
370
     9
100
AcDbLine
 10
-93.60178973960114
 20
115.4533759237731
 30
0.0
 11
-93.60178973960114
 21
114.2034072661506
 31
0.0
  0
LINE
  5
249
330
1F
100
AcDbEntity
  8
D-0
  6
JWW_DASHED1
 62
     4
370
     9
100
AcDbLine
 10
-93.45587418162336
 20
99.95342765047894
 30
0.0
 11
-122.6017760714974
 21
99.95342765047894
 31
0.0
  0
LINE
  5
24A
330
1F
100
AcDbEntity
  8
D-0
  6
Continuous
 62
     4
370
     9
100
AcDbLine
 10
-93.60178973960114
 20
97.95341834202827
 30
0.0
 11
-93.60178973960114
 21
99.20338699965077
 31
0.0
  0
LINE
  5
24B
330
1F
100
AcDbEntity
  8
D-0
  6
Continuous
 62
     4
370
     9
100
AcDbLine
 10
-93.60178973960114
 20
115.4533759237731
 30
0.0
 11
-122.6017760714974
 21
115.4533759237731
 31
0.0
  0
LINE
  5
24C
330
1F
100
AcDbEntity
  8
D-0
  6
Continuous
 62
     4
370
     9
100
AcDbLine
 10
-122.6017760714974
 20
106.7033971329008
 30
0.0
 11
-122.6017760714974
 21
115.4533759237731
 31
0.0
  0
LINE
  5
24D
330
1F
100
AcDbEntity
  8
D-0
  6
Continuous
 62
     4
370
     9
100
AcDbLine
 10
-122.6017760714974
 20
106.7033971329008
 30
0.0
 11
-122.6017760714974
 21
97.95341834202827
 31
0.0
  0
LINE
  5
24E
330
1F
100
AcDbEntity
  8
D-0
  6
Continuous
 62
     4
370
     9
100
AcDbLine
 10
-93.60178973960114
 20
97.95341834202827
 30
0.0
 11
-122.6017760714974
 21
97.95341834202827
 31
0.0
  0
LINE
  5
24F
330
1F
100
AcDbEntity
  8
D-0
  6
JWW_CENTER2
 62
     4
370
     9
100
AcDbLine
 10
-112.6017295292456
 20
106.7033971329008
 30
0.0
 11
-112.6017295292456
 21
112.4794731662093
 31
0.0
  0
LINE
  5
250
330
1F
100
AcDbEntity
  8
D-0
  6
JWW_CENTER2
 62
     4
370
     9
100
AcDbLine
 10
-112.6017295292456
 20
106.7033971329008
 30
0.0
 11
-112.6017295292456
 21
100.9273210995918
 31
0.0
  0
LINE
  5
251
330
1F
100
AcDbEntity
  8
D-0
  6
Continuous
 62
     4
370
     9
100
AcDbLine
 10
-89.60177112270117
 20
114.7033848198237
 30
0.0
 11
-89.60177112270117
 21
114.2034072661506
 31
0.0
  0
LINE
  5
252
330
1F
100
AcDbEntity
  8
D-0
  6
Continuous
 62
     4
370
     9
100
AcDbLine
 10
-89.60177112270117
 20
98.70345899285644
 30
0.0
 11
-89.60177112270117
 21
99.20338699965077
 31
0.0
  0
ARC
  5
253
330
1F
100
AcDbEntity
  8
D-0
  6
Continuous
 62
     4
370
     9
100
AcDbCircle
 10
-87.60181136112965
 20
98.70345899285644
 30
0.0
 40
1.999999824868206
100
AcDbArc
 50
180.0
 51
240.0610855472887
  0
ARC
  5
254
330
1F
100
AcDbEntity
  8
D-0
  6
Continuous
 62
     4
370
     9
100
AcDbCircle
 10
110.4018831805372
 20
98.70340944597751
 30
0.0
 40
1.999999824868206
100
AcDbArc
 50
299.9389144527113
 51
0.0
  0
ARC
  5
255
330
1F
100
AcDbEntity
  8
D-0
  6
Continuous
 62
     4
370
     9
100
AcDbCircle
 10
114.4018522505596
 20
99.203386999651
 30
0.0
 40
1.999999824868206
100
AcDbArc
 50
0.0
 51
180.0
  0
ARC
  5
256
330
1F
100
AcDbEntity
  8
D-0
  6
Continuous
 62
     4
370
     9
100
AcDbCircle
 10
114.4018522505596
 20
114.2034072661506
 30
0.0
 40
1.999999824868206
100
AcDbArc
 50
180.0
 51
0.0
  0
CIRCLE
  5
257
330
1F
100
AcDbEntity
  8
D-0
  6
Continuous
 62
     4
370
     9
100
AcDbCircle
 10
135.4018013486532
 20
106.7033971329008
 30
0.0
 40
4.249999652037749
  0
LINE
  5
258
330
1F
100
AcDbEntity
  8
D-0
  6
JWW_CENTER2
 62
     4
370
     9
100
AcDbLine
 10
114.4018522505596
 20
106.7033971329008
 30
0.0
 11
146.1823103252975
 21
106.7033971329008
 31
0.0
  0
LINE
  5
259
330
1F
100
AcDbEntity
  8
D-0
  6
JWW_CENTER2
 62
     4
370
     9
100
AcDbLine
 10
114.4018522505596
 20
114.2034072661506
 30
0.0
 11
114.4018522505596
 21
99.203386999651
 31
0.0
  0
LINE
  5
25A
330
1F
100
AcDbEntity
  8
D-0
  6
JWW_DASHED1
 62
     4
370
     9
100
AcDbLine
 10
116.2559460010309
 20
99.95342765047894
 30
0.0
 11
145.4018478909059
 21
99.95342765047894
 31
0.0
  0
LINE
  5
25B
330
1F
100
AcDbEntity
  8
D-0
  6
Continuous
 62
     4
370
     9
100
AcDbLine
 10
116.4018615590087
 20
97.9534183420285
 30
0.0
 11
116.4018615590087
 21
99.203386999651
 31
0.0
  0
LINE
  5
25C
330
1F
100
AcDbEntity
  8
D-0
  6
JWW_DASHED1
 62
     4
370
     9
100
AcDbLine
 10
116.2559460010309
 20
113.4533666153227
 30
0.0
 11
145.4018478909059
 21
113.4533666153227
 31
0.0
  0
LINE
  5
25D
330
1F
100
AcDbEntity
  8
D-0
  6
Continuous
 62
     4
370
     9
100
AcDbLine
 10
116.4018615590087
 20
115.4533759237731
 30
0.0
 11
116.4018615590087
 21
114.2034072661506
 31
0.0
  0
LINE
  5
25E
330
1F
100
AcDbEntity
  8
D-0
  6
Continuous
 62
     4
370
     9
100
AcDbLine
 10
116.4018615590087
 20
97.9534183420285
 30
0.0
 11
145.4018478909059
 21
97.9534183420285
 31
0.0
  0
LINE
  5
25F
330
1F
100
AcDbEntity
  8
D-0
  6
Continuous
 62
     4
370
     9
100
AcDbLine
 10
145.4018478909059
 20
106.7033971329008
 30
0.0
 11
145.4018478909059
 21
97.9534183420285
 31
0.0
  0
LINE
  5
260
330
1F
100
AcDbEntity
  8
D-0
  6
Continuous
 62
     4
370
     9
100
AcDbLine
 10
145.4018478909059
 20
106.7033971329008
 30
0.0
 11
145.4018478909059
 21
115.4533759237731
 31
0.0
  0
LINE
  5
261
330
1F
100
AcDbEntity
  8
D-0
  6
Continuous
 62
     4
370
     9
100
AcDbLine
 10
116.4018615590087
 20
115.4533759237731
 30
0.0
 11
145.4018478909059
 21
115.4533759237731
 31
0.0
  0
LINE
  5
262
330
1F
100
AcDbEntity
  8
D-0
  6
JWW_CENTER2
 62
     4
370
     9
100
AcDbLine
 10
135.4018013486532
 20
106.7033971329008
 30
0.0
 11
135.4018013486532
 21
100.9273210995921
 31
0.0
  0
LINE
  5
263
330
1F
100
AcDbEntity
  8
D-0
  6
JWW_CENTER2
 62
     4
370
     9
100
AcDbLine
 10
135.4018013486532
 20
106.7033971329008
 30
0.0
 11
135.4018013486532
 21
112.4794731662093
 31
0.0
  0
LINE
  5
264
330
1F
100
AcDbEntity
  8
D-0
  6
Continuous
 62
     4
370
     9
100
AcDbLine
 10
112.4018429421087
 20
98.70340944597751
 30
0.0
 11
112.4018429421087
 21
99.203386999651
 31
0.0
  0
LINE
  5
265
330
1F
100
AcDbEntity
  8
D-0
  6
Continuous
 62
     4
370
     9
100
AcDbLine
 10
112.4018429421087
 20
114.7033352729452
 30
0.0
 11
112.4018429421087
 21
114.2034072661506
 31
0.0
  0
ARC
  5
266
330
1F
100
AcDbEntity
  8
D-0
  6
Continuous
 62
     4
370
     9
100
AcDbCircle
 10
110.4018831805372
 20
114.7033352729452
 30
0.0
 40
1.999999824868206
100
AcDbArc
 50
0.0
 51
60.06108554728873
  0
LINE
  5
267
330
1F
100
AcDbEntity
  8
D-1
  6
JWW_CENTER1
 62
     2
370
     9
100
AcDbLine
 10
-85.59996409029623
 20
106.7033971329008
 30
0.0
 11
115.7599902926033
 21
106.7033971329008
 31
0.0
  0
LINE
  5
268
330
1F
100
AcDbEntity
  8
D-1
  6
Continuous
 62
     2
370
     9
100
AcDbLine
 10
111.4000359097047
 20
206.7033971329008
 30
0.0
 11
-88.59996409029623
 21
206.7033971329008
 31
0.0
  0
LINE
  5
269
330
1F
100
AcDbEntity
  8
D-1
  6
Continuous
 62
     2
370
     9
100
AcDbLine
 10
108.4000359097047
 20
203.7033971329008
 30
0.0
 11
-85.59996409029623
 21
203.7033971329008
 31
0.0
  0
LINE
  5
26A
330
1F
100
AcDbEntity
  8
D-1
  6
Continuous
 62
     2
370
     9
100
AcDbLine
 10
-88.59996409029623
 20
6.703397132900818
 30
0.0
 11
111.4000359097047
 21
6.703397132900818
 31
0.0
  0
LINE
  5
26B
330
1F
100
AcDbEntity
  8
D-1
  6
Continuous
 62
     2
370
     9
100
AcDbLine
 10
-85.59996409029623
 20
9.703397132900818
 30
0.0
 11
108.4000359097047
 21
9.703397132900818
 31
0.0
  0
LINE
  5
26C
330
1F
100
AcDbEntity
  8
D-1
  6
JWW_CENTER1
 62
     2
370
     9
100
AcDbLine
 10
11.40003590970377
 20
209.9691229702053
 30
0.0
 11
11.40003590970377
 21
1.918009596902039
 31
0.0
  0
LINE
  5
26D
330
1F
100
AcDbEntity
  8
D-1
  6
Continuous
 62
     2
370
     9
100
AcDbLine
 10
-88.59996409029623
 20
206.7033971329008
 30
0.0
 11
-88.59996409029623
 21
6.703397132900818
 31
0.0
  0
LINE
  5
26E
330
1F
100
AcDbEntity
  8
D-1
  6
Continuous
 62
     2
370
     9
100
AcDbLine
 10
-85.59996409029623
 20
203.7033971329008
 30
0.0
 11
-85.59996409029623
 21
9.703397132900818
 31
0.0
  0
LINE
  5
26F
330
1F
100
AcDbEntity
  8
D-1
  6
Continuous
 62
     2
370
     9
100
AcDbLine
 10
111.4000359097047
 20
6.703397132900818
 30
0.0
 11
111.4000359097047
 21
206.7033971329008
 31
0.0
  0
LINE
  5
270
330
1F
100
AcDbEntity
  8
D-1
  6
Continuous
 62
     2
370
     9
100
AcDbLine
 10
108.4000359097047
 20
9.703397132900818
 30
0.0
 11
108.4000359097047
 21
203.7033971329008
 31
0.0
  0
LINE
  5
271
330
1F
100
AcDbEntity
  8
D-1
  6
JWW_DASHED1
 62
     2
370
     9
100
AcDbLine
 10
1.400035909703774
 20
177.7033971329008
 30
0.0
 11
0.4000359097037745
 21
176.7033971329008
 31
0.0
  0
LINE
  5
272
330
1F
100
AcDbEntity
  8
D-1
  6
JWW_DASHED1
 62
     2
370
     9
100
AcDbLine
 10
22.40003590970377
 20
176.7033971329008
 30
0.0
 11
21.40003590970377
 21
177.7033971329008
 31
0.0
  0
LINE
  5
273
330
1F
100
AcDbEntity
  8
D-1
  6
JWW_DASHED1
 62
     2
370
     9
100
AcDbLine
 10
1.400035909703774
 20
191.7033971329008
 30
0.0
 11
1.400035909703774
 21
176.7033971329008
 31
0.0
  0
ARC
  5
274
330
1F
100
AcDbEntity
  8
D-1
  6
JWW_DASHED1
 62
     2
370
     9
100
AcDbCircle
 10
6.400035909703774
 20
191.7033971329008
 30
0.0
 40
5.0
100
AcDbArc
 50
90.0
 51
180.0
  0
LINE
  5
275
330
1F
100
AcDbEntity
  8
D-1
  6
JWW_DASHED1
 62
     2
370
     9
100
AcDbLine
 10
16.40003590970377
 20
196.7033971329008
 30
0.0
 11
6.400035909703774
 21
196.7033971329008
 31
0.0
  0
LINE
  5
276
330
1F
100
AcDbEntity
  8
D-1
  6
JWW_DASHED1
 62
     2
370
     9
100
AcDbLine
 10
21.40003590970377
 20
191.7033971329008
 30
0.0
 11
21.40003590970377
 21
176.7033971329008
 31
0.0
  0
ARC
  5
277
330
1F
100
AcDbEntity
  8
D-1
  6
JWW_DASHED1
 62
     2
370
     9
100
AcDbCircle
 10
16.40003590970377
 20
191.7033971329008
 30
0.0
 40
5.0
100
AcDbArc
 50
0.0
 51
90.0
  0
LINE
  5
278
330
1F
100
AcDbEntity
  8
D-1
  6
JWW_DASHED1
 62
     2
370
     9
100
AcDbLine
 10
1.400035909703774
 20
176.7033971329008
 30
0.0
 11
-58.59996409029623
 21
176.7033971329008
 31
0.0
  0
LINE
  5
279
330
1F
100
AcDbEntity
  8
D-1
  6
JWW_DASHED1
 62
     2
370
     9
100
AcDbLine
 10
21.40003590970377
 20
176.7033971329008
 30
0.0
 11
81.40003590970377
 21
176.7033971329008
 31
0.0
  0
LINE
  5
27A
330
1F
100
AcDbEntity
  8
D-1
  6
JWW_DASHED1
 62
     2
370
     9
100
AcDbLine
 10
-58.59996409029623
 20
36.70339713290082
 30
0.0
 11
81.40003590970377
 21
36.70339713290082
 31
0.0
  0
LINE
  5
27B
330
1F
100
AcDbEntity
  8
D-1
  6
JWW_DASHED1
 62
     2
370
     9
100
AcDbLine
 10
-58.59996409029623
 20
176.7033971329008
 30
0.0
 11
-58.59996409029623
 21
36.70339713290082
 31
0.0
  0
LINE
  5
27C
330
1F
100
AcDbEntity
  8
D-1
  6
JWW_DASHED1
 62
     2
370
     9
100
AcDbLine
 10
81.40003590970377
 20
36.70339713290082
 30
0.0
 11
81.40003590970377
 21
176.7033971329008
 31
0.0
  0
LINE
  5
27D
330
1F
100
AcDbEntity
  8
D-2
  6
Continuous
 62
     3
370
     9
100
AcDbLine
 10
-81.59995419270331
 20
202.7034218768829
 30
0.0
 11
-81.59995419270331
 21
10.70337238891875
 31
0.0
  0
LINE
  5
27E
330
1F
100
AcDbEntity
  8
D-2
  6
Continuous
 62
     3
370
     9
100
AcDbLine
 10
-84.59996409029623
 20
202.7034218768829
 30
0.0
 11
-84.59996409029623
 21
10.70337238891875
 31
0.0
  0
LINE
  5
27F
330
1F
100
AcDbEntity
  8
D-1
  6
Continuous
 62
     4
370
     9
100
AcDbLine
 10
-13.05526876207455
 20
91.70335206350478
 30
0.0
 11
35.85386474771281
 21
91.70335206350478
 31
0.0
  0
LINE
  5
280
330
1F
100
AcDbEntity
  8
D-1
  6
Continuous
 62
     4
370
     9
100
AcDbLine
 10
35.85386474771281
 20
121.7033927143327
 30
0.0
 11
-13.05526876207455
 21
121.7033927143327
 31
0.0
  0
LINE
  5
281
330
1F
100
AcDbEntity
  8
D-1
  6
Continuous
 62
     4
370
     9
100
AcDbLine
 10
35.35386474771281
 20
121.7033927143327
 30
0.0
 11
35.35386474771281
 21
91.70335206350478
 31
0.0
  0
LINE
  5
282
330
1F
100
AcDbEntity
  8
D-1
  6
Continuous
 62
     4
370
     9
100
AcDbLine
 10
35.85386474771281
 20
121.7033927143327
 30
0.0
 11
35.85386474771281
 21
91.70335206350478
 31
0.0
  0
LINE
  5
283
330
1F
100
AcDbEntity
  8
D-1
  6
Continuous
 62
     4
370
     9
100
AcDbLine
 10
19.76532339660366
 20
121.7033927143327
 30
0.0
 11
19.76532339660366
 21
91.70335206350478
 31
0.0
  0
LINE
  5
284
330
1F
100
AcDbEntity
  8
D-1
  6
Continuous
 62
     4
370
     9
100
AcDbLine
 10
-13.05526876207455
 20
121.7033927143327
 30
0.0
 11
-13.05526876207455
 21
91.70335206350478
 31
0.0
  0
LINE
  5
285
330
1F
100
AcDbEntity
  8
D-1
  6
Continuous
 62
     4
370
     9
100
AcDbLine
 10
-12.55526876207455
 20
121.7033927143327
 30
0.0
 11
-12.55526876207455
 21
91.70335206350478
 31
0.0
  0
LINE
  5
286
330
1F
100
AcDbEntity
  8
D-1
  6
Continuous
 62
     4
370
     9
100
AcDbLine
 10
3.033272589034596
 20
121.7033927143327
 30
0.0
 11
3.033272589034596
 21
91.70335206350478
 31
0.0
  0
LINE
  5
287
330
1F
100
AcDbEntity
  8
D-2
  6
Continuous
 62
     3
370
     9
100
AcDbLine
 10
27.40003590970377
 20
173.7033888849071
 30
0.0
 11
-4.599964090296226
 21
173.7033888849071
 31
0.0
  0
LINE
  5
288
330
1F
100
AcDbEntity
  8
D-2
  6
Continuous
 62
     3
370
     9
100
AcDbLine
 10
-84.59996409029623
 20
202.7034218768829
 30
0.0
 11
-1.599964090296226
 21
202.7034218768829
 31
0.0
  0
LINE
  5
289
330
1F
100
AcDbEntity
  8
D-2
  6
Continuous
 62
     3
370
     9
100
AcDbLine
 10
27.40003590970377
 20
202.7034218768829
 30
0.0
 11
27.40003590970377
 21
173.7033888849071
 31
0.0
  0
LINE
  5
28A
330
1F
100
AcDbEntity
  8
D-2
  6
Continuous
 62
     3
370
     9
100
AcDbLine
 10
-4.599964090296226
 20
202.7034218768829
 30
0.0
 11
-4.599964090296226
 21
173.7033888849071
 31
0.0
  0
LINE
  5
28B
330
1F
100
AcDbEntity
  8
D-2
  6
Continuous
 62
     3
370
     9
100
AcDbLine
 10
-81.59995419270331
 20
199.7034119792904
 30
0.0
 11
-4.599964090296226
 21
199.7034119792904
 31
0.0
  0
LINE
  5
28C
330
1F
100
AcDbEntity
  8
D-2
  6
Continuous
 62
     3
370
     9
100
AcDbLine
 10
24.40003590970377
 20
173.7033888849071
 30
0.0
 11
24.40003590970377
 21
202.7034218768829
 31
0.0
  0
LINE
  5
28D
330
1F
100
AcDbEntity
  8
D-2
  6
Continuous
 62
     3
370
     9
100
AcDbLine
 10
-1.599964090296226
 20
173.7033888849071
 30
0.0
 11
-1.599964090296226
 21
202.7034218768829
 31
0.0
  0
LINE
  5
28E
330
1F
100
AcDbEntity
  8
D-2
  6
Continuous
 62
     3
370
     9
100
AcDbLine
 10
24.40003590970377
 20
176.7033888849071
 30
0.0
 11
-1.599964090296226
 21
176.7033888849071
 31
0.0
  0
LINE
  5
28F
330
1F
100
AcDbEntity
  8
D-2
  6
Continuous
 62
     3
370
     9
100
AcDbLine
 10
-81.59995419270331
 20
13.70343177447626
 30
0.0
 11
104.3999765241463
 21
13.70343177447626
 31
0.0
  0
LINE
  5
290
330
1F
100
AcDbEntity
  8
D-2
  6
Continuous
 62
     3
370
     9
100
AcDbLine
 10
-84.59996409029623
 20
10.70337238891875
 30
0.0
 11
107.4000359097038
 21
10.70337238891875
 31
0.0
  0
LINE
  5
291
330
1F
100
AcDbEntity
  8
D-2
  6
Continuous
 62
     3
370
     9
100
AcDbLine
 10
104.3999765241463
 20
202.7034218768829
 30
0.0
 11
104.3999765241463
 21
10.70337238891875
 31
0.0
  0
LINE
  5
292
330
1F
100
AcDbEntity
  8
D-2
  6
Continuous
 62
     3
370
     9
100
AcDbLine
 10
107.4000359097038
 20
202.7034218768829
 30
0.0
 11
107.4000359097038
 21
10.70337238891875
 31
0.0
  0
LINE
  5
293
330
1F
100
AcDbEntity
  8
D-2
  6
Continuous
 62
     3
370
     9
100
AcDbLine
 10
107.4000359097038
 20
202.7034218768829
 30
0.0
 11
24.40003590970377
 21
202.7034218768829
 31
0.0
  0
LINE
  5
294
330
1F
100
AcDbEntity
  8
D-2
  6
Continuous
 62
     3
370
     9
100
AcDbLine
 10
104.3999765241463
 20
199.7034119792904
 30
0.0
 11
27.40003590970377
 21
199.7034119792904
 31
0.0
  0
LINE
  5
295
330
1F
100
AcDbEntity
  8
D-7
  6
Continuous
 62
    30
370
     5
100
AcDbLine
 10
23.90003590970377
 20
176.7033888849071
 30
0.0
 11
-1.099964090295771
 21
176.7033888849071
 31
0.0
  0
LINE
  5
296
330
1F
100
AcDbEntity
  8
D-7
  6
Continuous
 62
    30
370
     5
100
AcDbLine
 10
-1.099964090295771
 20
202.2034218768833
 30
0.0
 11
-1.099964090295771
 21
176.7033888849071
 31
0.0
  0
LINE
  5
297
330
1F
100
AcDbEntity
  8
D-7
  6
JWW_DASHED1
 62
    30
370
     5
100
AcDbLine
 10
0.4000359097042292
 20
202.2034218768833
 30
0.0
 11
0.4000359097042292
 21
176.7033888849071
 31
0.0
  0
LINE
  5
298
330
1F
100
AcDbEntity
  8
D-7
  6
JWW_DASHED1
 62
    30
370
     5
100
AcDbLine
 10
22.40003590970377
 20
202.2034218768833
 30
0.0
 11
22.40003590970377
 21
176.7033888849071
 31
0.0
  0
LINE
  5
299
330
1F
100
AcDbEntity
  8
D-7
  6
Continuous
 62
    30
370
     5
100
AcDbLine
 10
23.90003590970377
 20
202.2034218768833
 30
0.0
 11
23.90003590970377
 21
176.7033888849071
 31
0.0
  0
LINE
  5
29A
330
1F
100
AcDbEntity
  8
D-7
  6
Continuous
 62
    30
370
     5
100
AcDbLine
 10
-1.099964090295771
 20
202.2034218768833
 30
0.0
 11
23.90003590970377
 21
202.2034218768833
 31
0.0
  0
LINE
  5
29B
330
1F
100
AcDbEntity
  8
D-1
  6
Continuous
 62
     2
370
     9
100
AcDbLine
 10
-88.59996409029623
 20
206.7033971329008
 30
0.0
 11
-84.59996409029623
 21
202.7033971329008
 31
0.0
  0
LINE
  5
29C
330
1F
100
AcDbEntity
  8
D-1
  6
Continuous
 62
     2
370
     9
100
AcDbLine
 10
107.4000482816953
 20
202.7034095048914
 30
0.0
 11
111.4000359097047
 21
206.7033971329008
 31
0.0
  0
LINE
  5
29D
330
1F
100
AcDbEntity
  8
D-1
  6
Continuous
 62
     2
370
     9
100
AcDbLine
 10
107.4000359097038
 20
10.70339713290173
 30
0.0
 11
111.4000359097047
 21
6.703397132900818
 31
0.0
  0
LINE
  5
29E
330
1F
100
AcDbEntity
  8
D-1
  6
Continuous
 62
     2
370
     9
100
AcDbLine
 10
-88.59996409029623
 20
6.703397132900818
 30
0.0
 11
-84.59997646228726
 21
10.70338476090978
 31
0.0
  0
LINE
  5
29F
330
1F
100
AcDbEntity
  8
D-4
  6
Continuous
 62
     7
370
     9
100
AcDbLine
 10
-110.9036273285569
 20
176.7033888849071
 30
0.0
 11
-110.9036273285569
 21
202.7033971329008
 31
0.0
  0
LWPOLYLINE
  5
2A0
330
1F
100
AcDbEntity
  8
D-4
  6
Continuous
 62
     7
370
     9
100
AcDbPolyline
 90
        4
 70
     1
 43
0.4
 10
-110.7036273285569
 20
176.7033888849071
 42
0.4142135623731
 10
-110.9036273285569
 20
176.9033888849071
 42
0.4142135623731
 10
-111.1036273285569
 20
176.7033888849071
 42
0.4142135623731
 10
-110.9036273285569
 20
176.5033888849071
 42
0.4142135623731
  0
LWPOLYLINE
  5
2A1
330
1F
100
AcDbEntity
  8
D-4
  6
Continuous
 62
     7
370
     9
100
AcDbPolyline
 90
        4
 70
     1
 43
0.4
 10
-110.7036273285569
 20
202.7033971329008
 42
0.4142135623731
 10
-110.9036273285569
 20
202.9033971329008
 42
0.4142135623731
 10
-111.1036273285569
 20
202.7033971329008
 42
0.4142135623731
 10
-110.9036273285569
 20
202.5033971329008
 42
0.4142135623731
  0
LINE
  5
2A2
330
1F
100
AcDbEntity
  8
D-4
  6
Continuous
 62
     7
370
     9
100
AcDbLine
 10
-111.5036273285568
 20
176.7033888849071
 30
0.0
 11
-30.59996409029623
 21
176.7033888849071
 31
0.0
  0
LINE
  5
2A3
330
1F
100
AcDbEntity
  8
D-4
  6
Continuous
 62
     7
370
     9
100
AcDbLine
 10
-111.5036273285568
 20
202.7033971329008
 30
0.0
 11
-88.59996409029623
 21
202.7033971329008
 31
0.0
  0
TEXT
  5
2A4
330
1F
100
AcDbEntity
  8
D-4
  6
Continuous
 62
     2
370
   211
100
AcDbText
 10
-113.0316273285569
 20
185.453393008904
 30
0.0
 40
6.096
  1
26
 50
90.0
 41
1.0625
  7
ＭＳ ゴシック
100
AcDbText
  0
LWPOLYLINE
  5
2A5
330
1F
100
AcDbEntity
  8
D-4
  6
Continuous
 62
     7
370
     9
100
AcDbPolyline
 90
        4
 70
     1
 43
0.4
 10
-122.4017760714974
 20
244.2233901511881
 42
0.4142135623731
 10
-122.6017760714974
 20
244.4233901511881
 42
0.4142135623731
 10
-122.8017760714974
 20
244.2233901511881
 42
0.4142135623731
 10
-122.6017760714974
 20
244.0233901511882
 42
0.4142135623731
  0
LINE
  5
2A6
330
1F
100
AcDbEntity
  8
D-4
  6
Continuous
 62
     7
370
     9
100
AcDbLine
 10
-122.6017760714974
 20
224.4528109729181
 30
0.0
 11
-88.59996409029623
 21
224.4528109729181
 31
0.0
  0
LWPOLYLINE
  5
2A7
330
1F
100
AcDbEntity
  8
D-4
  6
Continuous
 62
     7
370
     9
100
AcDbPolyline
 90
        4
 70
     1
 43
0.4
 10
-122.4017760714974
 20
224.4528109729181
 42
0.4142135623731
 10
-122.6017760714974
 20
224.6528109729181
 42
0.4142135623731
 10
-122.8017760714974
 20
224.4528109729181
 42
0.4142135623731
 10
-122.6017760714974
 20
224.2528109729181
 42
0.4142135623731
  0
LWPOLYLINE
  5
2A8
330
1F
100
AcDbEntity
  8
D-4
  6
Continuous
 62
     7
370
     9
100
AcDbPolyline
 90
        4
 70
     1
 43
0.4
 10
-88.39996409029622
 20
224.4528109729181
 42
0.4142135623731
 10
-88.59996409029623
 20
224.6528109729181
 42
0.4142135623731
 10
-88.79996409029623
 20
224.4528109729181
 42
0.4142135623731
 10
-88.59996409029623
 20
224.2528109729181
 42
0.4142135623731
  0
LINE
  5
2A9
330
1F
100
AcDbEntity
  8
D-4
  6
Continuous
 62
     7
370
     9
100
AcDbLine
 10
-88.59996409029623
 20
225.0528109729182
 30
0.0
 11
-88.59996409029623
 21
210.7033971329008
 31
0.0
  0
TEXT
  5
2AA
330
1F
100
AcDbEntity
  8
D-4
  6
Continuous
 62
     2
370
   211
100
AcDbText
 10
-109.8508700808968
 20
226.5808109729181
 30
0.0
 40
6.096
  1
34
 41
1.0625
  7
ＭＳ ゴシック
100
AcDbText
  0
LINE
  5
2AB
330
1F
100
AcDbEntity
  8
D-4
  6
Continuous
 62
     7
370
     9
100
AcDbLine
 10
-1.599964090296226
 20
224.4528109729181
 30
0.0
 11
24.40003590970377
 21
224.4528109729181
 31
0.0
  0
LWPOLYLINE
  5
2AC
330
1F
100
AcDbEntity
  8
D-4
  6
Continuous
 62
     7
370
     9
100
AcDbPolyline
 90
        4
 70
     1
 43
0.4
 10
-1.399964090296226
 20
224.4528109729181
 42
0.4142135623731
 10
-1.599964090296226
 20
224.6528109729181
 42
0.4142135623731
 10
-1.799964090296226
 20
224.4528109729181
 42
0.4142135623731
 10
-1.599964090296226
 20
224.2528109729181
 42
0.4142135623731
  0
LWPOLYLINE
  5
2AD
330
1F
100
AcDbEntity
  8
D-4
  6
Continuous
 62
     7
370
     9
100
AcDbPolyline
 90
        4
 70
     1
 43
0.4
 10
24.60003590970377
 20
224.4528109729181
 42
0.4142135623731
 10
24.40003590970377
 20
224.6528109729181
 42
0.4142135623731
 10
24.20003590970378
 20
224.4528109729181
 42
0.4142135623731
 10
24.40003590970377
 20
224.2528109729181
 42
0.4142135623731
  0
LINE
  5
2AE
330
1F
100
AcDbEntity
  8
D-4
  6
Continuous
 62
     7
370
     9
100
AcDbLine
 10
-1.599964090296226
 20
225.0528109729182
 30
0.0
 11
-1.599964090296226
 21
206.7034218768829
 31
0.0
  0
LINE
  5
2AF
330
1F
100
AcDbEntity
  8
D-4
  6
Continuous
 62
     7
370
     9
100
AcDbLine
 10
24.40003590970377
 20
225.0528109729182
 30
0.0
 11
24.40003590970377
 21
206.7034218768829
 31
0.0
  0
TEXT
  5
2B0
330
1F
100
AcDbEntity
  8
D-4
  6
Continuous
 62
     2
370
   211
100
AcDbText
 10
7.150035909703774
 20
226.5808109729181
 30
0.0
 40
6.096
  1
26
 41
1.0625
  7
ＭＳ ゴシック
100
AcDbText
  0
LWPOLYLINE
  5
2B1
330
1F
100
AcDbEntity
  8
D-4
  6
Continuous
 62
     7
370
     9
100
AcDbPolyline
 90
        4
 70
     1
 43
0.4
 10
145.6018478909058
 20
244.2233901511881
 42
0.4142135623731
 10
145.4018478909059
 20
244.4233901511881
 42
0.4142135623731
 10
145.2018478909059
 20
244.2233901511881
 42
0.4142135623731
 10
145.4018478909059
 20
244.0233901511882
 42
0.4142135623731
  0
LINE
  5
2B2
330
1F
100
AcDbEntity
  8
D-4
  6
Continuous
 62
     7
370
     9
100
AcDbLine
 10
-122.6017760714974
 20
244.8233901511881
 30
0.0
 11
-122.6017760714974
 21
119.4533759237731
 31
0.0
  0
LINE
  5
2B3
330
1F
100
AcDbEntity
  8
D-4
  6
Continuous
 62
     7
370
     9
100
AcDbLine
 10
145.4018478909059
 20
244.8233901511881
 30
0.0
 11
145.4018478909059
 21
119.4533759237731
 31
0.0
  0
LINE
  5
2B4
330
1F
100
AcDbEntity
  8
D-4
  6
Continuous
 62
     7
370
     9
100
AcDbLine
 10
-122.6017760714974
 20
244.2233901511881
 30
0.0
 11
145.4018478909059
 21
244.2233901511881
 31
0.0
  0
LINE
  5
2B5
330
1F
100
AcDbEntity
  8
D-2
  6
JWW_CENTER2
 62
     3
370
     9
100
AcDbLine
 10
-77.599964090296
 20
192.7034218768829
 30
0.0
 11
-71.599964090296
 21
192.7034218768829
 31
0.0
  0
LINE
  5
2B6
330
1F
100
AcDbEntity
  8
D-2
  6
JWW_CENTER2
 62
     3
370
     9
100
AcDbLine
 10
-74.599964090296
 20
195.7034218768829
 30
0.0
 11
-74.599964090296
 21
189.7034218768829
 31
0.0
  0
CIRCLE
  5
2B7
330
1F
100
AcDbEntity
  8
D-2
  6
Continuous
 62
     3
370
     9
100
AcDbCircle
 10
-74.599964090296
 20
192.7034218768829
 30
0.0
 40
2.0
  0
CIRCLE
  5
2B8
330
1F
100
AcDbEntity
  8
D-2
  6
Continuous
 62
     3
370
     9
100
AcDbCircle
 10
97.40003590970377
 20
20.70337238891875
 30
0.0
 40
2.0
  0
LINE
  5
2B9
330
1F
100
AcDbEntity
  8
D-2
  6
JWW_CENTER2
 62
     3
370
     9
100
AcDbLine
 10
100.4000359097038
 20
20.70337238891875
 30
0.0
 11
94.40003590970377
 21
20.70337238891875
 31
0.0
  0
LINE
  5
2BA
330
1F
100
AcDbEntity
  8
D-2
  6
JWW_CENTER2
 62
     3
370
     9
100
AcDbLine
 10
97.40003590970377
 20
17.70337238891875
 30
0.0
 11
97.40003590970377
 21
23.70337238891875
 31
0.0
  0
TEXT
  5
2BB
330
1F
100
AcDbEntity
  8
D-4
  6
Continuous
 62
     2
370
   211
100
AcDbText
 10
-35.34996409029577
 20
246.3513901511881
 30
0.0
 40
6.096
  1
268（アンカー転回時）
 41
1.113095238095238
  7
ＭＳ ゴシック
100
AcDbText
  0
LINE
  5
2BC
330
1F
100
AcDbEntity
  8
D-5
  6
JWW_CENTER2
 62
     7
370
     9
100
AcDbLine
 10
-108.4616197014072
 20
74.90164065343947
 30
0.0
 11
-98.46161970140724
 21
74.90164065343947
 31
0.0
  0
LINE
  5
2BD
330
1F
100
AcDbEntity
  8
D-5
  6
JWW_CENTER2
 62
     7
370
     9
100
AcDbLine
 10
-98.46161970140724
 20
74.90164065343947
 30
0.0
 11
-98.46161970140724
 21
76.90164065343947
 31
0.0
  0
LINE
  5
2BE
330
1F
100
AcDbEntity
  8
D-5
  6
JWW_CENTER2
 62
     7
370
     9
100
AcDbLine
 10
-98.46161970140724
 20
76.90164065343947
 30
0.0
 11
-108.4616197014072
 21
76.90164065343947
 31
0.0
  0
LINE
  5
2BF
330
1F
100
AcDbEntity
  8
D-5
  6
JWW_CENTER2
 62
     7
370
     9
100
AcDbLine
 10
-108.4616197014072
 20
76.90164065343947
 30
0.0
 11
-108.4616197014072
 21
74.90164065343947
 31
0.0
  0
LINE
  5
2C0
330
1F
100
AcDbEntity
  8
D-5
  6
JWW_CENTER2
 62
     7
370
     9
100
AcDbLine
 10
-108.4616197014072
 20
75.10164065343929
 30
0.0
 11
-98.46161970140724
 21
75.10164065343929
 31
0.0
  0
LINE
  5
2C1
330
1F
100
AcDbEntity
  8
D-5
  6
JWW_CENTER2
 62
     7
370
     9
100
AcDbLine
 10
-108.4616197014072
 20
75.30164065343956
 30
0.0
 11
-98.46161970140724
 21
75.30164065343956
 31
0.0
  0
LINE
  5
2C2
330
1F
100
AcDbEntity
  8
D-5
  6
JWW_CENTER2
 62
     7
370
     9
100
AcDbLine
 10
-108.4616197014072
 20
75.50164065343938
 30
0.0
 11
-98.46161970140724
 21
75.50164065343938
 31
0.0
  0
LINE
  5
2C3
330
1F
100
AcDbEntity
  8
D-5
  6
JWW_CENTER2
 62
     7
370
     9
100
AcDbLine
 10
-108.4616197014072
 20
75.70164065343965
 30
0.0
 11
-98.46161970140724
 21
75.70164065343965
 31
0.0
  0
LINE
  5
2C4
330
1F
100
AcDbEntity
  8
D-5
  6
JWW_CENTER2
 62
     7
370
     9
100
AcDbLine
 10
-108.4616197014072
 20
76.10164065343974
 30
0.0
 11
-98.46161970140724
 21
76.10164065343974
 31
0.0
  0
LINE
  5
2C5
330
1F
100
AcDbEntity
  8
D-5
  6
JWW_CENTER2
 62
     7
370
     9
100
AcDbLine
 10
-108.4616197014072
 20
76.30164065343956
 30
0.0
 11
-98.46161970140724
 21
76.30164065343956
 31
0.0
  0
LINE
  5
2C6
330
1F
100
AcDbEntity
  8
D-5
  6
JWW_CENTER2
 62
     7
370
     9
100
AcDbLine
 10
-108.4616197014072
 20
76.50164065343938
 30
0.0
 11
-98.46161970140724
 21
76.50164065343938
 31
0.0
  0
LINE
  5
2C7
330
1F
100
AcDbEntity
  8
D-5
  6
JWW_CENTER2
 62
     7
370
     9
100
AcDbLine
 10
-108.4616197014072
 20
76.7016406534392
 30
0.0
 11
-98.46161970140724
 21
76.7016406534392
 31
0.0
  0
TEXT
  5
2C8
330
1F
100
AcDbEntity
  8
D-5
  6
Continuous
 62
     3
370
     9
100
AcDbText
 10
-108.4616197014072
 20
35.31164065343947
 30
0.0
 40
7.620000000000001
  1
Ａ
 41
0.9999999999999998
  7
ＭＳ ゴシック
100
AcDbText
  0
LINE
  5
2C9
330
1F
100
AcDbEntity
  8
D-5
  6
JWW_CENTER2
 62
     7
370
     9
100
AcDbLine
 10
131.2616915208148
 20
74.90164065343947
 30
0.0
 11
121.2616915208148
 21
74.90164065343947
 31
0.0
  0
LINE
  5
2CA
330
1F
100
AcDbEntity
  8
D-5
  6
JWW_CENTER2
 62
     7
370
     9
100
AcDbLine
 10
121.2616915208148
 20
74.90164065343947
 30
0.0
 11
121.2616915208148
 21
76.90164065343947
 31
0.0
  0
LINE
  5
2CB
330
1F
100
AcDbEntity
  8
D-5
  6
JWW_CENTER2
 62
     7
370
     9
100
AcDbLine
 10
121.2616915208148
 20
76.90164065343947
 30
0.0
 11
131.2616915208148
 21
76.90164065343947
 31
0.0
  0
LINE
  5
2CC
330
1F
100
AcDbEntity
  8
D-5
  6
JWW_CENTER2
 62
     7
370
     9
100
AcDbLine
 10
131.2616915208148
 20
76.90164065343947
 30
0.0
 11
131.2616915208148
 21
74.90164065343947
 31
0.0
  0
LINE
  5
2CD
330
1F
100
AcDbEntity
  8
D-5
  6
JWW_CENTER2
 62
     7
370
     9
100
AcDbLine
 10
131.2616915208148
 20
75.10164065343929
 30
0.0
 11
121.2616915208148
 21
75.10164065343929
 31
0.0
  0
LINE
  5
2CE
330
1F
100
AcDbEntity
  8
D-5
  6
JWW_CENTER2
 62
     7
370
     9
100
AcDbLine
 10
131.2616915208148
 20
75.30164065343956
 30
0.0
 11
121.2616915208148
 21
75.30164065343956
 31
0.0
  0
LINE
  5
2CF
330
1F
100
AcDbEntity
  8
D-5
  6
JWW_CENTER2
 62
     7
370
     9
100
AcDbLine
 10
131.2616915208148
 20
75.50164065343938
 30
0.0
 11
121.2616915208148
 21
75.50164065343938
 31
0.0
  0
LINE
  5
2D0
330
1F
100
AcDbEntity
  8
D-5
  6
JWW_CENTER2
 62
     7
370
     9
100
AcDbLine
 10
131.2616915208148
 20
75.70164065343965
 30
0.0
 11
121.2616915208148
 21
75.70164065343965
 31
0.0
  0
LINE
  5
2D1
330
1F
100
AcDbEntity
  8
D-5
  6
JWW_CENTER2
 62
     7
370
     9
100
AcDbLine
 10
131.2616915208148
 20
75.90164065343947
 30
0.0
 11
121.2616915208148
 21
75.90164065343947
 31
0.0
  0
LINE
  5
2D2
330
1F
100
AcDbEntity
  8
D-5
  6
JWW_CENTER2
 62
     7
370
     9
100
AcDbLine
 10
131.2616915208148
 20
76.10164065343974
 30
0.0
 11
121.2616915208148
 21
76.10164065343974
 31
0.0
  0
LINE
  5
2D3
330
1F
100
AcDbEntity
  8
D-5
  6
JWW_CENTER2
 62
     7
370
     9
100
AcDbLine
 10
131.2616915208148
 20
76.30164065343956
 30
0.0
 11
121.2616915208148
 21
76.30164065343956
 31
0.0
  0
LINE
  5
2D4
330
1F
100
AcDbEntity
  8
D-5
  6
JWW_CENTER2
 62
     7
370
     9
100
AcDbLine
 10
131.2616915208148
 20
76.50164065343938
 30
0.0
 11
121.2616915208148
 21
76.50164065343938
 31
0.0
  0
LINE
  5
2D5
330
1F
100
AcDbEntity
  8
D-5
  6
JWW_CENTER2
 62
     7
370
     9
100
AcDbLine
 10
131.2616915208148
 20
76.7016406534392
 30
0.0
 11
121.2616915208148
 21
76.7016406534392
 31
0.0
  0
TEXT
  5
2D6
330
1F
100
AcDbEntity
  8
D-5
  6
Continuous
 62
     3
370
     9
100
AcDbText
 10
121.2616915208148
 20
35.31164065343947
 30
0.0
 40
7.620000000000001
  1
Ａ
 41
0.9999999999999998
  7
ＭＳ ゴシック
100
AcDbText
  0
LINE
  5
2D7
330
1F
100
AcDbEntity
  8
D-5
  6
JWW_CENTER2
 62
     7
370
     9
100
AcDbLine
 10
-108.4616197014072
 20
75.90164065343947
 30
0.0
 11
121.2616915208148
 21
75.90164065343947
 31
0.0
  0
LINE
  5
2D8
330
1F
100
AcDbEntity
  8
D-5
  6
Continuous
 62
     7
370
     9
100
AcDbLine
 10
-103.4616197014072
 20
44.90164065343947
 30
0.0
 11
-103.4616197014072
 21
74.90164065343947
 31
0.0
  0
LINE
  5
2D9
330
1F
100
AcDbEntity
  8
D-5
  6
Continuous
 62
     7
370
     9
100
AcDbLine
 10
-103.4616197014072
 20
74.90164065343947
 30
0.0
 11
-102.808988740307
 21
69.94441634657039
 31
0.0
  0
LINE
  5
2DA
330
1F
100
AcDbEntity
  8
D-5
  6
Continuous
 62
     7
370
     9
100
AcDbLine
 10
-103.4616197014072
 20
74.90164065343947
 30
0.0
 11
-104.1142506625075
 21
69.94441634657039
 31
0.0
  0
LINE
  5
2DB
330
1F
100
AcDbEntity
  8
D-5
  6
Continuous
 62
     7
370
     9
100
AcDbLine
 10
126.2616915208148
 20
44.90164065343947
 30
0.0
 11
126.2616915208148
 21
74.90164065343947
 31
0.0
  0
LINE
  5
2DC
330
1F
100
AcDbEntity
  8
D-5
  6
Continuous
 62
     7
370
     9
100
AcDbLine
 10
126.2616915208148
 20
74.90164065343947
 30
0.0
 11
126.9143224819151
 21
69.94441634657039
 31
0.0
  0
LINE
  5
2DD
330
1F
100
AcDbEntity
  8
D-5
  6
Continuous
 62
     7
370
     9
100
AcDbLine
 10
126.2616915208148
 20
74.90164065343947
 30
0.0
 11
125.6090605597145
 21
69.94441634657039
 31
0.0
  0
ENDSEC
  0
SECTION
  2
OBJECTS
  0
DICTIONARY
  5
C
330
0
100
AcDbDictionary
281
     1
  3
ACAD_DETAILVIEWSTYLE
350
323
  3
ACAD_GROUP
350
D
  3
ACAD_LAYOUT
350
1A
  3
ACAD_MATERIAL
350
43
  3
ACAD_MLEADERSTYLE
350
6B
  3
ACAD_MLINESTYLE
350
17
  3
ACAD_PLOTSETTINGS
350
19
  3
ACAD_PLOTSTYLENAME
350
E
  3
ACAD_SCALELIST
350
47
  3
ACAD_SECTIONVIEWSTYLE
350
324
  3
ACAD_TABLESTYLE
350
69
  3
ACAD_VISUALSTYLE
350
2A
  3
ACDB_RECOMPOSE_DATA
350
320
  3
AcDbVariableDictionary
350
2E0
  0
DICTIONARY
  5
2DE
330
8
100
AcDbDictionary
280
     1
281
     1
  3
ACAD_XREC_ROUNDTRIP
360
2DF
  0
DICTIONARY
  5
323
102
{ACAD_REACTORS
330
C
102
}
330
C
100
AcDbDictionary
281
     1
  0
DICTIONARY
  5
D
102
{ACAD_REACTORS
330
C
102
}
330
C
100
AcDbDictionary
281
     1
  0
DICTIONARY
  5
1A
102
{ACAD_REACTORS
330
C
102
}
330
C
100
AcDbDictionary
281
     1
  3
Layout1
350
1E
  3
Layout2
350
26
  3
Model
350
22
  0
DICTIONARY
  5
43
102
{ACAD_REACTORS
330
C
102
}
330
C
100
AcDbDictionary
281
     1
  3
ByBlock
350
45
  3
ByLayer
350
44
  3
Global
350
46
  0
DICTIONARY
  5
6B
102
{ACAD_REACTORS
330
C
102
}
330
C
100
AcDbDictionary
281
     1
  3
Standard
350
6C
  0
DICTIONARY
  5
17
102
{ACAD_REACTORS
330
C
102
}
330
C
100
AcDbDictionary
281
     1
  3
Standard
350
18
  0
DICTIONARY
  5
19
102
{ACAD_REACTORS
330
C
102
}
330
C
100
AcDbDictionary
281
     1
  0
ACDBDICTIONARYWDFLT
  5
E
102
{ACAD_REACTORS
330
C
102
}
330
C
100
AcDbDictionary
281
     1
  3
Normal
350
F
100
AcDbDictionaryWithDefault
340
F
  0
DICTIONARY
  5
47
102
{ACAD_REACTORS
330
C
102
}
330
C
100
AcDbDictionary
281
     1
  3
A0
350
48
  3
A1
350
49
  3
A2
350
4A
  3
A3
350
4B
  3
A4
350
4C
  3
A5
350
4D
  3
A6
350
4E
  3
A7
350
4F
  3
A8
350
50
  3
A9
350
51
  3
B0
350
52
  3
B1
350
53
  3
B2
350
54
  3
B3
350
55
  3
B4
350
56
  3
B5
350
57
  3
B6
350
58
  3
B7
350
59
  3
B8
350
5A
  3
B9
350
5B
  3
C0
350
5C
  3
C1
350
5D
  3
C2
350
5E
  3
C3
350
5F
  3
C4
350
60
  3
C5
350
61
  3
C6
350
62
  3
C7
350
63
  3
C8
350
64
  3
C9
350
65
  3
D0
350
66
  3
D1
350
67
  3
D2
350
68
  0
DICTIONARY
  5
324
102
{ACAD_REACTORS
330
C
102
}
330
C
100
AcDbDictionary
281
     1
  0
DICTIONARY
  5
69
102
{ACAD_REACTORS
330
C
102
}
330
C
100
AcDbDictionary
281
     1
  3
Standard
350
6A
  0
DICTIONARY
  5
2A
102
{ACAD_REACTORS
330
C
102
}
330
C
100
AcDbDictionary
281
     1
  3
2dWireframe
350
2F
  3
Basic
350
32
  3
Brighten
350
36
  3
ColorChange
350
3A
  3
Conceptual
350
34
  3
Dim
350
35
  3
EdgeColorOff
350
3D
  3
Facepattern
350
39
  3
Flat
350
2B
  3
FlatWithEdges
350
2C
  3
Gouraud
350
2D
  3
GouraudWithEdges
350
2E
  3
Hidden
350
31
  3
JitterOff
350
3B
  3
Linepattern
350
38
  3
OverhangOff
350
3C
  3
Realistic
350
33
  3
Shaded
350
42
  3
Shaded with edges
350
41
  3
Shades of Gray
350
3E
  3
Sketchy
350
3F
  3
Thicken
350
37
  3
Wireframe
350
30
  3
X-Ray
350
40
  0
XRECORD
  5
320
102
{ACAD_REACTORS
330
C
102
}
330
C
100
AcDbXrecord
280
     1
 90
        1
330
6A
  0
DICTIONARY
  5
2E0
102
{ACAD_REACTORS
330
C
102
}
330
C
100
AcDbDictionary
281
     1
  3
CANNOSCALE
350
2E1
  3
CENTEREXE
350
325
  3
CENTERLTYPEFILE
350
326
  3
CMLEADERSTYLE
350
322
  3
CTABLESTYLE
350
321
  3
MSLTSCALE
350
2E2
  3
XCLIPFRAME
350
2E3
  0
XRECORD
  5
2DF
102
{ACAD_REACTORS
330
2DE
102
}
330
2DE
100
AcDbXrecord
280
     1
102
VTR_0.000_0.000_1.000_1.000_VISUALSTYLE
340
2F
102
VTR_0.000_0.000_1.000_1.000_GRIDDISPLAY
 70
     3
102
VTR_0.000_0.000_1.000_1.000_GRIDMAJOR
 70
     5
102
VTR_0.000_0.000_1.000_1.000_DEFAULTLIGHTING
280
     1
102
VTR_0.000_0.000_1.000_1.000_DEFAULTLIGHTINGTYPE
 70
     1
102
VTR_0.000_0.000_1.000_1.000_BRIGHTNESS
141
0.0
102
VTR_0.000_0.000_1.000_1.000_CONTRAST
142
0.0
  0
LAYOUT
  5
1E
102
{ACAD_REACTORS
330
1A
102
}
330
1A
100
AcDbPlotSettings
  1

  2
none_device
  4

  6

 40
0.0
 41
0.0
 42
0.0
 43
0.0
 44
0.0
 45
0.0
 46
0.0
 47
0.0
 48
0.0
 49
0.0
140
0.0
141
0.0
142
1.0
143
1.0
 70
   688
 72
     1
 73
     0
 74
     5
  7

 75
    16
 76
     0
 77
     5
 78
   300
147
1.0
148
0.0
149
0.0
100
AcDbLayout
  1
Layout1
 70
     1
 71
     1
 10
0.0
 20
0.0
 11
420.0
 21
297.0
 12
0.0
 22
0.0
 32
0.0
 14
1.000000000000000E+20
 24
1.000000000000000E+20
 34
1.000000000000000E+20
 15
-1.000000000000000E+20
 25
-1.000000000000000E+20
 35
-1.000000000000000E+20
146
0.0
 13
0.0
 23
0.0
 33
0.0
 16
1.0
 26
0.0
 36
0.0
 17
0.0
 27
1.0
 37
0.0
 76
     0
330
1B
  0
LAYOUT
  5
26
102
{ACAD_REACTORS
330
1A
102
}
330
1A
100
AcDbPlotSettings
  1

  2
none_device
  4

  6

 40
0.0
 41
0.0
 42
0.0
 43
0.0
 44
0.0
 45
0.0
 46
0.0
 47
0.0
 48
0.0
 49
0.0
140
0.0
141
0.0
142
1.0
143
1.0
 70
   688
 72
     1
 73
     0
 74
     5
  7

 75
    16
 76
     0
 77
     5
 78
   300
147
1.0
148
0.0
149
0.0
100
AcDbLayout
  1
Layout2
 70
     1
 71
     2
 10
0.0
 20
0.0
 11
0.0
 21
0.0
 12
0.0
 22
0.0
 32
0.0
 14
0.0
 24
0.0
 34
0.0
 15
0.0
 25
0.0
 35
0.0
146
0.0
 13
0.0
 23
0.0
 33
0.0
 16
1.0
 26
0.0
 36
0.0
 17
0.0
 27
1.0
 37
0.0
 76
     0
330
23
  0
LAYOUT
  5
22
102
{ACAD_REACTORS
330
1A
102
}
330
1A
100
AcDbPlotSettings
  1

  2
none_device
  4
Letter_(8.50_x_11.00_Inches)
  6

 40
6.35
 41
6.35
 42
6.35000508
 43
6.35000508
 44
215.9
 45
279.4
 46
0.0
 47
0.0
 48
0.0
 49
0.0
140
0.0
141
0.0
142
1.0
143
1.0
 70
  1712
 72
     1
 73
     0
 74
     0
  7

 75
     0
 76
     0
 77
     5
 78
   300
147
1.0
148
0.0
149
0.0
100
AcDbLayout
  1
Model
 70
     1
 71
     0
 10
-420.0
 20
-297.0
 11
420.0
 21
297.0
 12
0.0
 22
0.0
 32
0.0
 14
-420.0
 24
-297.0
 34
0.0
 15
420.0
 25
297.0
 35
0.0
146
0.0
 13
0.0
 23
0.0
 33
0.0
 16
1.0
 26
0.0
 36
0.0
 17
0.0
 27
1.0
 37
0.0
 76
     0
330
1F
331
29
  0
MATERIAL
  5
45
102
{ACAD_REACTORS
330
43
102
}
102
{ACAD_XDICTIONARY
360
316
102
}
330
43
100
AcDbMaterial
  1
ByBlock
  0
MATERIAL
  5
44
102
{ACAD_REACTORS
330
43
102
}
102
{ACAD_XDICTIONARY
360
314
102
}
330
43
100
AcDbMaterial
  1
ByLayer
  0
MATERIAL
  5
46
102
{ACAD_REACTORS
330
43
102
}
102
{ACAD_XDICTIONARY
360
318
102
}
330
43
100
AcDbMaterial
  1
Global
  0
MLEADERSTYLE
  5
6C
102
{ACAD_REACTORS
330
6B
102
}
102
{ACAD_XDICTIONARY
360
31E
102
}
330
6B
100
AcDbMLeaderStyle
170
     2
171
     1
172
     0
 90
        2
 40
0.0
 41
0.0
173
     1
 91
-1056964608
340
14
 92
       -2
290
     1
 42
2.0
291
     1
 43
8.0
  3
Standard
341
0
 44
4.0
300

342
11
174
     1
178
     6
175
     1
176
     0
 93
-1056964608
 45
4.0
292
     0
297
     0
 46
4.0
343
0
 94
-1056964608
 47
1.0
 49
1.0
140
1.0
293
     1
141
0.0
294
     1
177
     0
142
1.0
295
     0
296
     0
143
3.75
1001
ACAD_MLEADERVER
1070
     2
  0
MLINESTYLE
  5
18
102
{ACAD_REACTORS
330
17
102
}
330
17
100
AcDbMlineStyle
  2
Standard
 70
     0
  3

 62
   256
 51
90.0
 52
90.0
 71
     2
 49
0.5
 62
   256
  6
BYLAYER
 49
-0.5
 62
   256
  6
BYLAYER
  0
ACDBPLACEHOLDER
  5
F
102
{ACAD_REACTORS
330
E
102
}
330
E
  0
SCALE
  5
48
102
{ACAD_REACTORS
330
47
102
}
330
47
100
AcDbScale
 70
     0
300
1:1
140
1.0
141
1.0
290
     1
  0
SCALE
  5
49
102
{ACAD_REACTORS
330
47
102
}
330
47
100
AcDbScale
 70
     0
300
1:2
140
1.0
141
2.0
290
     0
  0
SCALE
  5
4A
102
{ACAD_REACTORS
330
47
102
}
330
47
100
AcDbScale
 70
     0
300
1:4
140
1.0
141
4.0
290
     0
  0
SCALE
  5
4B
102
{ACAD_REACTORS
330
47
102
}
330
47
100
AcDbScale
 70
     0
300
1:5
140
1.0
141
5.0
290
     0
  0
SCALE
  5
4C
102
{ACAD_REACTORS
330
47
102
}
330
47
100
AcDbScale
 70
     0
300
1:8
140
1.0
141
8.0
290
     0
  0
SCALE
  5
4D
102
{ACAD_REACTORS
330
47
102
}
330
47
100
AcDbScale
 70
     0
300
1:10
140
1.0
141
10.0
290
     0
  0
SCALE
  5
4E
102
{ACAD_REACTORS
330
47
102
}
330
47
100
AcDbScale
 70
     0
300
1:16
140
1.0
141
16.0
290
     0
  0
SCALE
  5
4F
102
{ACAD_REACTORS
330
47
102
}
330
47
100
AcDbScale
 70
     0
300
1:20
140
1.0
141
20.0
290
     0
  0
SCALE
  5
50
102
{ACAD_REACTORS
330
47
102
}
330
47
100
AcDbScale
 70
     0
300
1:30
140
1.0
141
30.0
290
     0
  0
SCALE
  5
51
102
{ACAD_REACTORS
330
47
102
}
330
47
100
AcDbScale
 70
     0
300
1:40
140
1.0
141
40.0
290
     0
  0
SCALE
  5
52
102
{ACAD_REACTORS
330
47
102
}
330
47
100
AcDbScale
 70
     0
300
1:50
140
1.0
141
50.0
290
     0
  0
SCALE
  5
53
102
{ACAD_REACTORS
330
47
102
}
330
47
100
AcDbScale
 70
     0
300
1:100
140
1.0
141
100.0
290
     0
  0
SCALE
  5
54
102
{ACAD_REACTORS
330
47
102
}
330
47
100
AcDbScale
 70
     0
300
2:1
140
2.0
141
1.0
290
     0
  0
SCALE
  5
55
102
{ACAD_REACTORS
330
47
102
}
330
47
100
AcDbScale
 70
     0
300
4:1
140
4.0
141
1.0
290
     0
  0
SCALE
  5
56
102
{ACAD_REACTORS
330
47
102
}
330
47
100
AcDbScale
 70
     0
300
8:1
140
8.0
141
1.0
290
     0
  0
SCALE
  5
57
102
{ACAD_REACTORS
330
47
102
}
330
47
100
AcDbScale
 70
     0
300
10:1
140
10.0
141
1.0
290
     0
  0
SCALE
  5
58
102
{ACAD_REACTORS
330
47
102
}
330
47
100
AcDbScale
 70
     0
300
100:1
140
100.0
141
1.0
290
     0
  0
SCALE
  5
59
102
{ACAD_REACTORS
330
47
102
}
330
47
100
AcDbScale
 70
     0
300
1/128" = 1'-0"
140
0.0078125
141
12.0
290
     0
  0
SCALE
  5
5A
102
{ACAD_REACTORS
330
47
102
}
330
47
100
AcDbScale
 70
     0
300
1/64" = 1'-0"
140
0.015625
141
12.0
290
     0
  0
SCALE
  5
5B
102
{ACAD_REACTORS
330
47
102
}
330
47
100
AcDbScale
 70
     0
300
1/32" = 1'-0"
140
0.03125
141
12.0
290
     0
  0
SCALE
  5
5C
102
{ACAD_REACTORS
330
47
102
}
330
47
100
AcDbScale
 70
     0
300
1/16" = 1'-0"
140
0.0625
141
12.0
290
     0
  0
SCALE
  5
5D
102
{ACAD_REACTORS
330
47
102
}
330
47
100
AcDbScale
 70
     0
300
3/32" = 1'-0"
140
0.09375
141
12.0
290
     0
  0
SCALE
  5
5E
102
{ACAD_REACTORS
330
47
102
}
330
47
100
AcDbScale
 70
     0
300
1/8" = 1'-0"
140
0.125
141
12.0
290
     0
  0
SCALE
  5
5F
102
{ACAD_REACTORS
330
47
102
}
330
47
100
AcDbScale
 70
     0
300
3/16" = 1'-0"
140
0.1875
141
12.0
290
     0
  0
SCALE
  5
60
102
{ACAD_REACTORS
330
47
102
}
330
47
100
AcDbScale
 70
     0
300
1/4" = 1'-0"
140
0.25
141
12.0
290
     0
  0
SCALE
  5
61
102
{ACAD_REACTORS
330
47
102
}
330
47
100
AcDbScale
 70
     0
300
3/8" = 1'-0"
140
0.375
141
12.0
290
     0
  0
SCALE
  5
62
102
{ACAD_REACTORS
330
47
102
}
330
47
100
AcDbScale
 70
     0
300
1/2" = 1'-0"
140
0.5
141
12.0
290
     0
  0
SCALE
  5
63
102
{ACAD_REACTORS
330
47
102
}
330
47
100
AcDbScale
 70
     0
300
3/4" = 1'-0"
140
0.75
141
12.0
290
     0
  0
SCALE
  5
64
102
{ACAD_REACTORS
330
47
102
}
330
47
100
AcDbScale
 70
     0
300
1" = 1'-0"
140
1.0
141
12.0
290
     0
  0
SCALE
  5
65
102
{ACAD_REACTORS
330
47
102
}
330
47
100
AcDbScale
 70
     0
300
1-1/2" = 1'-0"
140
1.5
141
12.0
290
     0
  0
SCALE
  5
66
102
{ACAD_REACTORS
330
47
102
}
330
47
100
AcDbScale
 70
     0
300
3" = 1'-0"
140
3.0
141
12.0
290
     0
  0
SCALE
  5
67
102
{ACAD_REACTORS
330
47
102
}
330
47
100
AcDbScale
 70
     0
300
6" = 1'-0"
140
6.0
141
12.0
290
     0
  0
SCALE
  5
68
102
{ACAD_REACTORS
330
47
102
}
330
47
100
AcDbScale
 70
     0
300
1'-0" = 1'-0"
140
12.0
141
12.0
290
     0
  0
TABLESTYLE
  5
6A
102
{ACAD_REACTORS
330
69
102
}
102
{ACAD_XDICTIONARY
360
31A
102
}
330
69
100
AcDbTableStyle
  3
Standard
 70
     0
 71
     0
 40
0.06
 41
0.06
280
     0
281
     0
  7
Standard
140
4.5
170
     2
 62
     0
 63
   257
283
     0
274
    -2
284
     1
 64
     0
275
    -2
285
     1
 65
     0
276
    -2
286
     1
 66
     0
277
    -2
287
     1
 67
     0
278
    -2
288
     1
 68
     0
279
    -2
289
     1
 69
     0
  7
Standard
140
6.0
170
     5
 62
     0
 63
   257
283
     0
274
    -2
284
     1
 64
     0
275
    -2
285
     1
 65
     0
276
    -2
286
     1
 66
     0
277
    -2
287
     1
 67
     0
278
    -2
288
     1
 68
     0
279
    -2
289
     1
 69
     0
  7
Standard
140
4.5
170
     5
 62
     0
 63
   257
283
     0
274
    -2
284
     1
 64
     0
275
    -2
285
     1
 65
     0
276
    -2
286
     1
 66
     0
277
    -2
287
     1
 67
     0
278
    -2
288
     1
 68
     0
279
    -2
289
     1
 69
     0
  0
VISUALSTYLE
  5
2F
102
{ACAD_REACTORS
330
2A
102
}
102
{ACAD_XDICTIONARY
360
2EC
102
}
330
2A
100
AcDbVisualStyle
  2
2dWireframe
 70
     4
 71
     0
 72
     2
 73
     0
 90
        0
 40
0.6
 41
30.0
 62
     5
 63
     7
421
 16777215
 74
     1
 91
        4
 64
     7
 65
   257
 75
     1
175
     1
 42
1.0
 92
        0
 66
   257
 43
1.0
 76
     1
 77
     6
 78
     2
 67
     7
 79
     5
170
     0
171
     0
290
     0
174
     0
 93
        1
 44
0.0
173
     0
291
     0
 45
0.0
1001
ACAD
1000
AcDbSavedByObjectVersion
1070
     0
  0
VISUALSTYLE
  5
32
102
{ACAD_REACTORS
330
2A
102
}
102
{ACAD_XDICTIONARY
360
2F2
102
}
330
2A
100
AcDbVisualStyle
  2
Basic
 70
     7
 71
     1
 72
     0
 73
     1
 90
        0
 40
0.6
 41
30.0
 62
     5
 63
     7
421
 16777215
 74
     0
 91
        4
 64
     7
 65
   257
 75
     1
175
     1
 42
1.0
 92
        8
 66
     7
 43
1.0
 76
     1
 77
     6
 78
     2
 67
     7
 79
     5
170
     0
171
     0
290
     0
174
     0
 93
        1
 44
0.0
173
     0
291
     1
 45
0.0
1001
ACAD
1000
AcDbSavedByObjectVersion
1070
     0
  0
VISUALSTYLE
  5
36
102
{ACAD_REACTORS
330
2A
102
}
102
{ACAD_XDICTIONARY
360
2FA
102
}
330
2A
100
AcDbVisualStyle
  2
Brighten
 70
    12
 71
     2
 72
     2
 73
     0
 90
        0
 40
0.6
 41
30.0
 62
     5
 63
     7
421
 16777215
 74
     1
 91
        4
 64
     7
 65
   257
 75
     1
175
     1
 42
1.0
 92
        8
 66
     7
 43
1.0
 76
     1
 77
     6
 78
     2
 67
     7
 79
     5
170
     0
171
     0
290
     0
174
     0
 93
        1
 44
50.0
173
     0
291
     1
 45
0.0
1001
ACAD
1000
AcDbSavedByObjectVersion
1070
     0
  0
VISUALSTYLE
  5
3A
102
{ACAD_REACTORS
330
2A
102
}
102
{ACAD_XDICTIONARY
360
302
102
}
330
2A
100
AcDbVisualStyle
  2
ColorChange
 70
    16
 71
     2
 72
     2
 73
     3
 90
        0
 40
0.6
 41
30.0
 62
     5
 63
     8
421
  8421504
 74
     1
 91
        4
 64
     7
 65
   257
 75
     1
175
     1
 42
1.0
 92
        8
 66
     8
424
  8421504
 43
1.0
 76
     1
 77
     6
 78
     2
 67
     7
 79
     5
170
     0
171
     0
290
     0
174
     0
 93
        1
 44
0.0
173
     0
291
     1
 45
0.0
1001
ACAD
1000
AcDbSavedByObjectVersion
1070
     0
  0
VISUALSTYLE
  5
34
102
{ACAD_REACTORS
330
2A
102
}
102
{ACAD_XDICTIONARY
360
2F6
102
}
330
2A
100
AcDbVisualStyle
  2
Conceptual
 70
     9
 71
     3
 72
     2
 73
     0
 90
        0
 40
0.6
 41
30.0
 62
     5
 63
     7
421
 16777215
 74
     2
 91
        2
 64
     7
 65
   257
 75
     1
175
     1
 42
179.0
 92
        8
 66
     7
 43
1.0
 76
     1
 77
     6
 78
     2
 67
     7
 79
     3
170
     0
171
     0
290
     0
174
     0
 93
        1
 44
0.0
173
     0
291
     0
 45
0.0
1001
ACAD
1000
AcDbSavedByObjectVersion
1070
     0
  0
VISUALSTYLE
  5
35
102
{ACAD_REACTORS
330
2A
102
}
102
{ACAD_XDICTIONARY
360
2F8
102
}
330
2A
100
AcDbVisualStyle
  2
Dim
 70
    11
 71
     2
 72
     2
 73
     0
 90
        0
 40
0.6
 41
30.0
 62
     5
 63
     7
421
 16777215
 74
     1
 91
        4
 64
     7
 65
   257
 75
     1
175
     1
 42
1.0
 92
        8
 66
     7
 43
1.0
 76
     1
 77
     6
 78
     2
 67
     7
 79
     5
170
     0
171
     0
290
     0
174
     0
 93
        1
 44
-50.0
173
     0
291
     1
 45
0.0
1001
ACAD
1000
AcDbSavedByObjectVersion
1070
     0
  0
VISUALSTYLE
  5
3D
102
{ACAD_REACTORS
330
2A
102
}
102
{ACAD_XDICTIONARY
360
308
102
}
330
2A
100
AcDbVisualStyle
  2
EdgeColorOff
 70
    22
 71
     2
 72
     2
 73
     0
 90
        0
 40
0.6
 41
30.0
 62
     5
 63
     7
421
 16777215
 74
     1
 91
        4
 64
     7
 65
   257
 75
     1
175
     1
 42
1.0
 92
        8
 66
     7
 43
1.0
 76
     1
 77
     6
 78
     2
 67
     7
 79
     5
170
     0
171
     0
290
     0
174
     0
 93
        1
 44
0.0
173
     0
291
     1
 45
0.0
1001
ACAD
1000
AcDbSavedByObjectVersion
1070
     0
  0
VISUALSTYLE
  5
39
102
{ACAD_REACTORS
330
2A
102
}
102
{ACAD_XDICTIONARY
360
300
102
}
330
2A
100
AcDbVisualStyle
  2
Facepattern
 70
    15
 71
     2
 72
     2
 73
     0
 90
        0
 40
0.6
 41
30.0
 62
     5
 63
     7
421
 16777215
 74
     1
 91
        4
 64
     7
 65
   257
 75
     1
175
     1
 42
1.0
 92
        8
 66
     7
 43
1.0
 76
     1
 77
     6
 78
     2
 67
     7
 79
     5
170
     0
171
     0
290
     0
174
     0
 93
        1
 44
0.0
173
     0
291
     1
 45
0.0
1001
ACAD
1000
AcDbSavedByObjectVersion
1070
     0
  0
VISUALSTYLE
  5
2B
102
{ACAD_REACTORS
330
2A
102
}
102
{ACAD_XDICTIONARY
360
2E4
102
}
330
2A
100
AcDbVisualStyle
  2
Flat
 70
     0
 71
     2
 72
     1
 73
     1
 90
        2
 40
0.6
 41
30.0
 62
     5
 63
     7
421
 16777215
 74
     0
 91
        0
 64
     7
 65
   257
 75
     1
175
     1
 42
1.0
 92
        8
 66
     7
 43
1.0
 76
     1
 77
     6
 78
     2
 67
     7
 79
     5
170
     0
171
     0
290
     0
174
     0
 93
       13
 44
0.0
173
     0
291
     1
 45
0.0
1001
ACAD
1000
AcDbSavedByObjectVersion
1070
     0
  0
VISUALSTYLE
  5
2C
102
{ACAD_REACTORS
330
2A
102
}
102
{ACAD_XDICTIONARY
360
2E6
102
}
330
2A
100
AcDbVisualStyle
  2
FlatWithEdges
 70
     1
 71
     2
 72
     1
 73
     1
 90
        2
 40
0.6
 41
30.0
 62
     5
 63
     7
421
 16777215
 74
     1
 91
        0
 64
     7
 65
   257
 75
     1
175
     1
 42
1.0
 92
        0
 66
   257
 43
1.0
 76
     1
 77
     6
 78
     2
 67
     7
 79
     5
170
     0
171
     0
290
     0
174
     0
 93
       13
 44
0.0
173
     0
291
     1
 45
0.0
1001
ACAD
1000
AcDbSavedByObjectVersion
1070
     0
  0
VISUALSTYLE
  5
2D
102
{ACAD_REACTORS
330
2A
102
}
102
{ACAD_XDICTIONARY
360
2E8
102
}
330
2A
100
AcDbVisualStyle
  2
Gouraud
 70
     2
 71
     2
 72
     2
 73
     1
 90
        2
 40
0.6
 41
30.0
 62
     5
 63
     7
421
 16777215
 74
     0
 91
        0
 64
     7
 65
   257
 75
     1
175
     1
 42
1.0
 92
        0
 66
     7
 43
1.0
 76
     1
 77
     6
 78
     2
 67
     7
 79
     5
170
     0
171
     0
290
     0
174
     0
 93
       13
 44
0.0
173
     0
291
     1
 45
0.0
1001
ACAD
1000
AcDbSavedByObjectVersion
1070
     0
  0
VISUALSTYLE
  5
2E
102
{ACAD_REACTORS
330
2A
102
}
102
{ACAD_XDICTIONARY
360
2EA
102
}
330
2A
100
AcDbVisualStyle
  2
GouraudWithEdges
 70
     3
 71
     2
 72
     2
 73
     1
 90
        2
 40
0.6
 41
30.0
 62
     5
 63
     7
421
 16777215
 74
     1
 91
        0
 64
     7
 65
   257
 75
     1
175
     1
 42
1.0
 92
        0
 66
   257
 43
1.0
 76
     1
 77
     6
 78
     2
 67
     7
 79
     5
170
     0
171
     0
290
     0
174
     0
 93
       13
 44
0.0
173
     0
291
     1
 45
0.0
1001
ACAD
1000
AcDbSavedByObjectVersion
1070
     0
  0
VISUALSTYLE
  5
31
102
{ACAD_REACTORS
330
2A
102
}
102
{ACAD_XDICTIONARY
360
2F0
102
}
330
2A
100
AcDbVisualStyle
  2
Hidden
 70
     6
 71
     1
 72
     2
 73
     2
 90
        0
 40
0.6
 41
30.0
 62
     5
 63
     7
421
 16777215
 74
     2
 91
        2
 64
     7
 65
   257
 75
     2
175
     1
 42
40.0
 92
        0
 66
   257
 43
1.0
 76
     1
 77
     6
 78
     2
 67
     7
 79
     3
170
     0
171
     0
290
     0
174
     0
 93
        1
 44
0.0
173
     0
291
     0
 45
0.0
1001
ACAD
1000
AcDbSavedByObjectVersion
1070
     0
  0
VISUALSTYLE
  5
3B
102
{ACAD_REACTORS
330
2A
102
}
102
{ACAD_XDICTIONARY
360
304
102
}
330
2A
100
AcDbVisualStyle
  2
JitterOff
 70
    20
 71
     2
 72
     2
 73
     0
 90
        0
 40
0.6
 41
30.0
 62
     5
 63
     7
421
 16777215
 74
     1
 91
        4
 64
     7
 65
   257
 75
     1
175
     1
 42
1.0
 92
       10
 66
     7
 43
1.0
 76
     1
 77
     6
 78
     2
 67
     7
 79
     5
170
     0
171
     0
290
     0
174
     0
 93
        1
 44
0.0
173
     0
291
     1
 45
0.0
1001
ACAD
1000
AcDbSavedByObjectVersion
1070
     0
  0
VISUALSTYLE
  5
38
102
{ACAD_REACTORS
330
2A
102
}
102
{ACAD_XDICTIONARY
360
2FE
102
}
330
2A
100
AcDbVisualStyle
  2
Linepattern
 70
    14
 71
     2
 72
     2
 73
     0
 90
        0
 40
0.6
 41
30.0
 62
     5
 63
     7
421
 16777215
 74
     1
 91
        4
 64
     7
 65
   257
 75
     7
175
     7
 42
1.0
 92
        8
 66
     7
 43
1.0
 76
     1
 77
     6
 78
     2
 67
     7
 79
     5
170
     0
171
     0
290
     0
174
     0
 93
        1
 44
0.0
173
     0
291
     1
 45
0.0
1001
ACAD
1000
AcDbSavedByObjectVersion
1070
     0
  0
VISUALSTYLE
  5
3C
102
{ACAD_REACTORS
330
2A
102
}
102
{ACAD_XDICTIONARY
360
306
102
}
330
2A
100
AcDbVisualStyle
  2
OverhangOff
 70
    21
 71
     2
 72
     2
 73
     0
 90
        0
 40
0.6
 41
30.0
 62
     5
 63
     7
421
 16777215
 74
     1
 91
        4
 64
     7
 65
   257
 75
     1
175
     1
 42
1.0
 92
        9
 66
     7
 43
1.0
 76
     1
 77
     6
 78
     2
 67
     7
 79
     5
170
     0
171
     0
290
     0
174
     0
 93
        1
 44
0.0
173
     0
291
     1
 45
0.0
1001
ACAD
1000
AcDbSavedByObjectVersion
1070
     0
  0
VISUALSTYLE
  5
33
102
{ACAD_REACTORS
330
2A
102
}
102
{ACAD_XDICTIONARY
360
2F4
102
}
330
2A
100
AcDbVisualStyle
  2
Realistic
 70
     8
 71
     2
 72
     3
 73
     0
 90
        2
 40
0.6
 41
30.0
 62
     5
 63
     7
421
 16777215
 74
     0
 91
        0
 64
     7
 65
   257
 75
     1
175
     1
 42
1.0
 92
        8
 66
   257
 43
1.0
 76
     1
 77
     6
 78
     2
 67
     7
 79
     3
170
     0
171
     0
290
     0
174
     0
 93
       13
 44
0.0
173
     0
291
     0
 45
0.0
1001
ACAD
1000
AcDbSavedByObjectVersion
1070
     0
  0
VISUALSTYLE
  5
42
102
{ACAD_REACTORS
330
2A
102
}
102
{ACAD_XDICTIONARY
360
312
102
}
330
2A
100
AcDbVisualStyle
  2
Shaded
 70
    27
 71
     2
 72
     2
 73
     1
 90
        2
 40
0.6
 41
30.0
 62
     5
 63
     7
421
 16777215
 74
     0
 91
        4
 64
     7
 65
   257
 75
     1
175
     1
 42
1.0
 92
        8
 66
   257
 43
1.0
 76
     1
 77
     6
 78
     2
 67
     8
425
  7895160
 79
     3
170
     0
171
     0
290
     0
174
     0
 93
        5
 44
0.0
173
     0
291
     0
 45
0.0
1001
ACAD
1000
AcDbSavedByObjectVersion
1070
     0
  0
VISUALSTYLE
  5
41
102
{ACAD_REACTORS
330
2A
102
}
102
{ACAD_XDICTIONARY
360
310
102
}
330
2A
100
AcDbVisualStyle
  2
Shaded with edges
 70
    26
 71
     2
 72
     2
 73
     1
 90
        2
 40
0.6
 41
30.0
 62
     5
 63
     7
421
 16777215
 74
     1
 91
       10
 64
     7
 65
   257
 75
     2
175
     1
 42
1.0
 92
        8
 66
   257
 43
1.0
 76
     1
 77
     6
 78
     2
 67
     7
 79
     3
170
     0
171
     0
290
     0
174
     0
 93
        5
 44
0.0
173
     0
291
     0
 45
0.0
1001
ACAD
1000
AcDbSavedByObjectVersion
1070
     0
  0
VISUALSTYLE
  5
3E
102
{ACAD_REACTORS
330
2A
102
}
102
{ACAD_XDICTIONARY
360
30A
102
}
330
2A
100
AcDbVisualStyle
  2
Shades of Gray
 70
    23
 71
     2
 72
     2
 73
     3
 90
        0
 40
0.6
 41
30.0
 62
     5
 63
     7
421
 16777215
 74
     2
 91
        2
 64
     7
 65
     7
 75
     1
175
     1
 42
40.0
 92
        8
 66
     7
 43
1.0
 76
     1
 77
     6
 78
     2
 67
     7
 79
     3
170
     0
171
     0
290
     0
174
     0
 93
        1
 44
0.0
173
     0
291
     0
 45
0.0
1001
ACAD
1000
AcDbSavedByObjectVersion
1070
     0
  0
VISUALSTYLE
  5
3F
102
{ACAD_REACTORS
330
2A
102
}
102
{ACAD_XDICTIONARY
360
30C
102
}
330
2A
100
AcDbVisualStyle
  2
Sketchy
 70
    24
 71
     1
 72
     2
 73
     2
 90
        0
 40
0.6
 41
30.0
 62
     5
 63
     7
421
 16777215
 74
     2
 91
        2
 64
     7
 65
     7
 75
     1
175
     1
 42
40.0
 92
       11
 66
     7
 43
1.0
 76
     1
 77
     6
 78
     2
 67
     7
 79
     6
170
     0
171
     0
290
     0
174
     0
 93
        1
 44
0.0
173
     0
291
     0
 45
0.0
1001
ACAD
1000
AcDbSavedByObjectVersion
1070
     0
  0
VISUALSTYLE
  5
37
102
{ACAD_REACTORS
330
2A
102
}
102
{ACAD_XDICTIONARY
360
2FC
102
}
330
2A
100
AcDbVisualStyle
  2
Thicken
 70
    13
 71
     2
 72
     2
 73
     0
 90
        0
 40
0.6
 41
30.0
 62
     5
 63
     7
421
 16777215
 74
     1
 91
        4
 64
     7
 65
   257
 75
     1
175
     1
 42
1.0
 92
       12
 66
     7
 43
1.0
 76
     1
 77
     6
 78
     2
 67
     7
 79
     5
170
     0
171
     0
290
     0
174
     0
 93
        1
 44
0.0
173
     0
291
     1
 45
0.0
1001
ACAD
1000
AcDbSavedByObjectVersion
1070
     0
  0
VISUALSTYLE
  5
30
102
{ACAD_REACTORS
330
2A
102
}
102
{ACAD_XDICTIONARY
360
2EE
102
}
330
2A
100
AcDbVisualStyle
  2
Wireframe
 70
     5
 71
     0
 72
     2
 73
     0
 90
        0
 40
0.6
 41
30.0
 62
     5
 63
     7
421
 16777215
 74
     1
 91
        4
 64
     7
 65
   257
 75
     1
175
     1
 42
1.0
 92
        0
 66
   257
 43
1.0
 76
     1
 77
     6
 78
     2
 67
     7
 79
     3
170
     0
171
     0
290
     0
174
     0
 93
        1
 44
0.0
173
     0
291
     0
 45
0.0
1001
ACAD
1000
AcDbSavedByObjectVersion
1070
     0
  0
VISUALSTYLE
  5
40
102
{ACAD_REACTORS
330
2A
102
}
102
{ACAD_XDICTIONARY
360
30E
102
}
330
2A
100
AcDbVisualStyle
  2
X-Ray
 70
    25
 71
     2
 72
     2
 73
     1
 90
        1
 40
0.5
 41
30.0
 62
     5
 63
     7
421
 16777215
 74
     1
 91
        0
 64
     7
 65
   257
 75
     1
175
     1
 42
1.0
 92
        8
 66
     7
 43
1.0
 76
     1
 77
     6
 78
     2
 67
     7
 79
     3
170
     0
171
     0
290
     0
174
     0
 93
       13
 44
0.0
173
     0
291
     0
 45
0.0
1001
ACAD
1000
AcDbSavedByObjectVersion
1070
     0
  0
DICTIONARYVAR
  5
2E1
102
{ACAD_REACTORS
330
2E0
102
}
330
2E0
100
DictionaryVariables
280
     0
  1
1:1
  0
DICTIONARYVAR
  5
325
102
{ACAD_REACTORS
330
2E0
102
}
330
2E0
100
DictionaryVariables
280
     0
  1
3.500000
  0
DICTIONARYVAR
  5
326
102
{ACAD_REACTORS
330
2E0
102
}
330
2E0
100
DictionaryVariables
280
     0
  1
acadiso.lin
  0
DICTIONARYVAR
  5
322
102
{ACAD_REACTORS
330
2E0
102
}
330
2E0
100
DictionaryVariables
280
     0
  1
Standard
  0
DICTIONARYVAR
  5
321
102
{ACAD_REACTORS
330
2E0
102
}
330
2E0
100
DictionaryVariables
280
     0
  1
Standard
  0
DICTIONARYVAR
  5
2E2
102
{ACAD_REACTORS
330
2E0
102
}
330
2E0
100
DictionaryVariables
280
     0
  1
1
  0
DICTIONARYVAR
  5
2E3
102
{ACAD_REACTORS
330
2E0
102
}
330
2E0
100
DictionaryVariables
280
     0
  1
2
  0
DICTIONARY
  5
316
330
45
100
AcDbDictionary
280
     1
281
     1
  3
ACAD_XREC_ROUNDTRIP
360
317
  0
DICTIONARY
  5
314
330
44
100
AcDbDictionary
280
     1
281
     1
  3
ACAD_XREC_ROUNDTRIP
360
315
  0
DICTIONARY
  5
318
330
46
100
AcDbDictionary
280
     1
281
     1
  3
ACAD_XREC_ROUNDTRIP
360
319
  0
DICTIONARY
  5
31E
330
6C
100
AcDbDictionary
280
     1
281
     1
  3
ACAD_XREC_ROUNDTRIP
360
31F
  0
DICTIONARY
  5
31A
330
6A
100
AcDbDictionary
280
     1
281
     1
  3
ACAD_ROUNDTRIP_2008_TABLESTYLE_CELLSTYLEMAP
360
31C
  3
ACAD_XREC_ROUNDTRIP
360
31B
  0
DICTIONARY
  5
2EC
330
2F
100
AcDbDictionary
280
     1
281
     1
  3
ACAD_XREC_ROUNDTRIP
360
2ED
  0
DICTIONARY
  5
2F2
330
32
100
AcDbDictionary
280
     1
281
     1
  3
ACAD_XREC_ROUNDTRIP
360
2F3
  0
DICTIONARY
  5
2FA
330
36
100
AcDbDictionary
280
     1
281
     1
  3
ACAD_XREC_ROUNDTRIP
360
2FB
  0
DICTIONARY
  5
302
330
3A
100
AcDbDictionary
280
     1
281
     1
  3
ACAD_XREC_ROUNDTRIP
360
303
  0
DICTIONARY
  5
2F6
330
34
100
AcDbDictionary
280
     1
281
     1
  3
ACAD_XREC_ROUNDTRIP
360
2F7
  0
DICTIONARY
  5
2F8
330
35
100
AcDbDictionary
280
     1
281
     1
  3
ACAD_XREC_ROUNDTRIP
360
2F9
  0
DICTIONARY
  5
308
330
3D
100
AcDbDictionary
280
     1
281
     1
  3
ACAD_XREC_ROUNDTRIP
360
309
  0
DICTIONARY
  5
300
330
39
100
AcDbDictionary
280
     1
281
     1
  3
ACAD_XREC_ROUNDTRIP
360
301
  0
DICTIONARY
  5
2E4
330
2B
100
AcDbDictionary
280
     1
281
     1
  3
ACAD_XREC_ROUNDTRIP
360
2E5
  0
DICTIONARY
  5
2E6
330
2C
100
AcDbDictionary
280
     1
281
     1
  3
ACAD_XREC_ROUNDTRIP
360
2E7
  0
DICTIONARY
  5
2E8
330
2D
100
AcDbDictionary
280
     1
281
     1
  3
ACAD_XREC_ROUNDTRIP
360
2E9
  0
DICTIONARY
  5
2EA
330
2E
100
AcDbDictionary
280
     1
281
     1
  3
ACAD_XREC_ROUNDTRIP
360
2EB
  0
DICTIONARY
  5
2F0
330
31
100
AcDbDictionary
280
     1
281
     1
  3
ACAD_XREC_ROUNDTRIP
360
2F1
  0
DICTIONARY
  5
304
330
3B
100
AcDbDictionary
280
     1
281
     1
  3
ACAD_XREC_ROUNDTRIP
360
305
  0
DICTIONARY
  5
2FE
330
38
100
AcDbDictionary
280
     1
281
     1
  3
ACAD_XREC_ROUNDTRIP
360
2FF
  0
DICTIONARY
  5
306
330
3C
100
AcDbDictionary
280
     1
281
     1
  3
ACAD_XREC_ROUNDTRIP
360
307
  0
DICTIONARY
  5
2F4
330
33
100
AcDbDictionary
280
     1
281
     1
  3
ACAD_XREC_ROUNDTRIP
360
2F5
  0
DICTIONARY
  5
312
330
42
100
AcDbDictionary
280
     1
281
     1
  3
ACAD_XREC_ROUNDTRIP
360
313
  0
DICTIONARY
  5
310
330
41
100
AcDbDictionary
280
     1
281
     1
  3
ACAD_XREC_ROUNDTRIP
360
311
  0
DICTIONARY
  5
30A
330
3E
100
AcDbDictionary
280
     1
281
     1
  3
ACAD_XREC_ROUNDTRIP
360
30B
  0
DICTIONARY
  5
30C
330
3F
100
AcDbDictionary
280
     1
281
     1
  3
ACAD_XREC_ROUNDTRIP
360
30D
  0
DICTIONARY
  5
2FC
330
37
100
AcDbDictionary
280
     1
281
     1
  3
ACAD_XREC_ROUNDTRIP
360
2FD
  0
DICTIONARY
  5
2EE
330
30
100
AcDbDictionary
280
     1
281
     1
  3
ACAD_XREC_ROUNDTRIP
360
2EF
  0
DICTIONARY
  5
30E
330
40
100
AcDbDictionary
280
     1
281
     1
  3
ACAD_XREC_ROUNDTRIP
360
30F
  0
XRECORD
  5
317
102
{ACAD_REACTORS
330
316
102
}
330
316
100
AcDbXrecord
280
     1
102
MATERIAL
148
0.0
149
0.0
149
0.0
 93
        0
 94
      127
282
     0
 72
     1
 77
     1
171
     1
175
     1
179
     1
273
     0
  0
XRECORD
  5
315
102
{ACAD_REACTORS
330
314
102
}
330
314
100
AcDbXrecord
280
     1
102
MATERIAL
148
0.0
149
0.0
149
0.0
 93
        0
 94
      127
282
     0
 72
     1
 77
     1
171
     1
175
     1
179
     1
273
     0
  0
XRECORD
  5
319
102
{ACAD_REACTORS
330
318
102
}
330
318
100
AcDbXrecord
280
     1
102
MATERIAL
148
0.0
149
0.0
149
0.0
 93
        0
 94
      127
282
     0
 72
     1
 77
     1
171
     1
175
     1
179
     1
273
     0
  0
XRECORD
  5
31F
102
{ACAD_REACTORS
330
31E
102
}
330
31E
100
AcDbXrecord
280
     1
102
ACAD_ROUNDTRIP_2010_MLEADER_STYLE
  0
CELLSTYLEMAP
  5
31C
102
{ACAD_REACTORS
330
31A
102
}
330
31A
100
AcDbCellStyleMap
 90
        3
300
CELLSTYLE
  1
TABLEFORMAT_BEGIN
 90
        5
170
     1
 91
        0
 92
    32768
 62
   257
 93
        1
300
CONTENTFORMAT
  1
CONTENTFORMAT_BEGIN
 90
        0
 91
        0
 92
        4
 93
        0
300

 40
0.0
140
1.0
 94
        5
 62
     0
340
11
144
6.0
309
CONTENTFORMAT_END
171
     1
301
MARGIN
  1
CELLMARGIN_BEGIN
 40
1.5
 40
1.5
 40
1.5
 40
1.5
 40
1.5
 40
1.5
309
CELLMARGIN_END
 94
        6
 95
        1
302
GRIDFORMAT
  1
GRIDFORMAT_BEGIN
 90
        0
 91
        1
 62
     0
 92
       -2
340
14
 93
        0
 40
0.045
309
GRIDFORMAT_END
 95
        2
302
GRIDFORMAT
  1
GRIDFORMAT_BEGIN
 90
        0
 91
        1
 62
     0
 92
       -2
340
14
 93
        0
 40
0.045
309
GRIDFORMAT_END
 95
        4
302
GRIDFORMAT
  1
GRIDFORMAT_BEGIN
 90
        0
 91
        1
 62
     0
 92
       -2
340
14
 93
        0
 40
0.045
309
GRIDFORMAT_END
 95
        8
302
GRIDFORMAT
  1
GRIDFORMAT_BEGIN
 90
        0
 91
        1
 62
     0
 92
       -2
340
14
 93
        0
 40
0.045
309
GRIDFORMAT_END
 95
       16
302
GRIDFORMAT
  1
GRIDFORMAT_BEGIN
 90
        0
 91
        1
 62
     0
 92
       -2
340
14
 93
        0
 40
0.045
309
GRIDFORMAT_END
 95
       32
302
GRIDFORMAT
  1
GRIDFORMAT_BEGIN
 90
        0
 91
        1
 62
     0
 92
       -2
340
14
 93
        0
 40
0.045
309
GRIDFORMAT_END
309
TABLEFORMAT_END
  1
CELLSTYLE_BEGIN
 90
        1
 91
        1
300
_TITLE
309
CELLSTYLE_END
300
CELLSTYLE
  1
TABLEFORMAT_BEGIN
 90
        5
170
     1
 91
        0
 92
        0
 62
   257
 93
        1
300
CONTENTFORMAT
  1
CONTENTFORMAT_BEGIN
 90
        0
 91
        0
 92
        4
 93
        0
300

 40
0.0
140
1.0
 94
        5
 62
     0
340
11
144
4.5
309
CONTENTFORMAT_END
171
     1
301
MARGIN
  1
CELLMARGIN_BEGIN
 40
1.5
 40
1.5
 40
1.5
 40
1.5
 40
1.5
 40
1.5
309
CELLMARGIN_END
 94
        6
 95
        1
302
GRIDFORMAT
  1
GRIDFORMAT_BEGIN
 90
        0
 91
        1
 62
     0
 92
       -2
340
14
 93
        0
 40
0.045
309
GRIDFORMAT_END
 95
        2
302
GRIDFORMAT
  1
GRIDFORMAT_BEGIN
 90
        0
 91
        1
 62
     0
 92
       -2
340
14
 93
        0
 40
0.045
309
GRIDFORMAT_END
 95
        4
302
GRIDFORMAT
  1
GRIDFORMAT_BEGIN
 90
        0
 91
        1
 62
     0
 92
       -2
340
14
 93
        0
 40
0.045
309
GRIDFORMAT_END
 95
        8
302
GRIDFORMAT
  1
GRIDFORMAT_BEGIN
 90
        0
 91
        1
 62
     0
 92
       -2
340
14
 93
        0
 40
0.045
309
GRIDFORMAT_END
 95
       16
302
GRIDFORMAT
  1
GRIDFORMAT_BEGIN
 90
        0
 91
        1
 62
     0
 92
       -2
340
14
 93
        0
 40
0.045
309
GRIDFORMAT_END
 95
       32
302
GRIDFORMAT
  1
GRIDFORMAT_BEGIN
 90
        0
 91
        1
 62
     0
 92
       -2
340
14
 93
        0
 40
0.045
309
GRIDFORMAT_END
309
TABLEFORMAT_END
  1
CELLSTYLE_BEGIN
 90
        2
 91
        1
300
_HEADER
309
CELLSTYLE_END
300
CELLSTYLE
  1
TABLEFORMAT_BEGIN
 90
        5
170
     1
 91
        0
 92
        0
 62
   257
 93
        1
300
CONTENTFORMAT
  1
CONTENTFORMAT_BEGIN
 90
        0
 91
        0
 92
        4
 93
        0
300

 40
0.0
140
1.0
 94
        2
 62
     0
340
11
144
4.5
309
CONTENTFORMAT_END
171
     1
301
MARGIN
  1
CELLMARGIN_BEGIN
 40
1.5
 40
1.5
 40
1.5
 40
1.5
 40
1.5
 40
1.5
309
CELLMARGIN_END
 94
        6
 95
        1
302
GRIDFORMAT
  1
GRIDFORMAT_BEGIN
 90
        0
 91
        1
 62
     0
 92
       -2
340
14
 93
        0
 40
0.045
309
GRIDFORMAT_END
 95
        2
302
GRIDFORMAT
  1
GRIDFORMAT_BEGIN
 90
        0
 91
        1
 62
     0
 92
       -2
340
14
 93
        0
 40
0.045
309
GRIDFORMAT_END
 95
        4
302
GRIDFORMAT
  1
GRIDFORMAT_BEGIN
 90
        0
 91
        1
 62
     0
 92
       -2
340
14
 93
        0
 40
0.045
309
GRIDFORMAT_END
 95
        8
302
GRIDFORMAT
  1
GRIDFORMAT_BEGIN
 90
        0
 91
        1
 62
     0
 92
       -2
340
14
 93
        0
 40
0.045
309
GRIDFORMAT_END
 95
       16
302
GRIDFORMAT
  1
GRIDFORMAT_BEGIN
 90
        0
 91
        1
 62
     0
 92
       -2
340
14
 93
        0
 40
0.045
309
GRIDFORMAT_END
 95
       32
302
GRIDFORMAT
  1
GRIDFORMAT_BEGIN
 90
        0
 91
        1
 62
     0
 92
       -2
340
14
 93
        0
 40
0.045
309
GRIDFORMAT_END
309
TABLEFORMAT_END
  1
CELLSTYLE_BEGIN
 90
        3
 91
        2
300
_DATA
309
CELLSTYLE_END
  0
XRECORD
  5
31B
102
{ACAD_REACTORS
330
31A
102
}
330
31A
100
AcDbXrecord
280
     1
102
ACAD_ROUNDTRIP_PRE2007_TABLESTYLE
 90
        4
 91
        0
  1

 92
        4
 93
        0
  2

 94
        4
 95
        0
  3

  0
XRECORD
  5
2ED
102
{ACAD_REACTORS
330
2EC
102
}
330
2EC
100
AcDbXrecord
280
     1
102
RTVSPropertyOp0
 70
     1
102
RTVSPropertyOp1
 70
     1
102
RTVSPropertyOp2
 70
     1
102
RTVSPropertyOp3
 70
     1
102
RTVSPropertyOp4
 70
     1
102
RTVSPropertyOp5
 70
     1
102
RTVSPropertyOp6
 70
     1
102
RTVSPropertyOp7
 70
     1
102
RTVSPropertyOp8
 70
     1
102
RTVSPropertyOp9
 70
     1
102
RTVSPropertyOp10
 70
     1
102
RTVSPropertyOp11
 70
     1
102
RTVSPropertyOp12
 70
     1
102
RTVSPropertyOp13
 70
     1
102
RTVSPropertyOp14
 70
     1
102
RTVSPropertyOp15
 70
     1
102
RTVSPropertyOp16
 70
     1
102
RTVSPropertyOp17
 70
     1
102
RTVSPropertyOp18
 70
     1
102
RTVSPropertyOp19
 70
     1
102
RTVSPropertyOp20
 70
     1
102
RTVSPropertyOp21
 70
     1
102
RTVSPropertyOp22
 70
     1
102
RTVSPropertyOp23
 70
     1
102
RTVSPropertyOp24
 70
     1
102
RTVSPropertyOp25
 70
     1
102
RTVSPropertyOp26
 70
     1
102
RTVSPropertyOp27
 70
     1
102
RTVSPropertyOp28
 70
     1
102
RTVSPropertyOp29
 70
     1
102
RTVSPropertyOp30
 70
     1
102
RTVSPropertyOp31
 70
     1
102
RTVSPropertyOp32
 70
     1
102
RTVSPropertyOp33
 70
     1
102
RTVSPropertyOp34
 70
     1
102
RTVSPropertyOp35
 70
     1
102
RTVSPropertyOp36
 70
     1
102
RTVSPropertyOp37
 70
     1
102
RTVSPropertyOp38
 70
     1
102
RTVSPropertyOp39
 70
     1
102
RTVSPropertyOp40
 70
     1
102
RTVSPropertyOp41
 70
     1
102
RTVSPropertyOp42
 70
     1
102
RTVSPropertyOp43
 70
     1
102
RTVSPropertyOp44
 70
     1
102
RTVSPropertyOp45
 70
     1
102
RTVSPropertyOp46
 70
     1
102
RTVSPropertyOp47
 70
     1
102
RTVSPropertyOp48
 70
     1
102
RTVSPropertyOp49
 70
     1
102
RTVSPropertyOp50
 70
     1
102
RTVSPropertyOp51
 70
     0
102
RTVSPropertyOp52
 70
     0
102
RTVSPropertyOp53
 70
     1
102
RTVSPropertyOp54
 70
     1
102
RTVSPropertyOp55
 70
     1
102
RTVSPropertyOp56
 70
     1
102
RTVSPropertyOp57
 70
     1
102
RTVSPost2010Prop28
280
     1
102
RTVSPost2010PropOp28
 70
     1
102
RTVSPost2010Prop29
280
     1
102
RTVSPost2010PropOp29
 70
     1
102
RTVSPost2010Prop30
280
     0
102
RTVSPost2010PropOp30
 70
     1
102
RTVSPost2010Prop31
280
     0
102
RTVSPost2010PropOp31
 70
     1
102
RTVSPost2010Prop32
280
     0
102
RTVSPost2010PropOp32
 70
     1
102
RTVSPost2010Prop33
280
     0
102
RTVSPost2010PropOp33
 70
     1
102
RTVSPost2010Prop34
280
     0
102
RTVSPost2010PropOp34
 70
     1
102
RTVSPost2010Prop35
280
     0
102
RTVSPost2010PropOp35
 70
     1
102
RTVSPost2010Prop36
280
     0
102
RTVSPost2010PropOp36
 70
     1
102
RTVSPost2010Prop37
 90
       50
102
RTVSPost2010PropOp37
 70
     1
102
RTVSPost2010Prop38
140
0.0
102
RTVSPost2010PropOp38
 70
     1
102
RTVSPost2010Prop39
140
1.0
102
RTVSPost2010PropOp39
 70
     1
102
RTVSPost2010Prop40
 90
        0
102
RTVSPost2010PropOp40
 70
     1
102
RTVSPost2010Prop41ColorIndex
 90
       18
102
RTVSPost2010Prop41ColorRGB
 90
        0
102
RTVSPost2010PropOp41
 70
     1
102
RTVSPost2010Prop42
 90
       50
102
RTVSPost2010PropOp42
 70
     1
102
RTVSPost2010Prop43
 90
        3
102
RTVSPost2010PropOp43
 70
     1
102
RTVSPost2010Prop44ColorIndex
 90
        5
102
RTVSPost2010Prop44ColorRGB
 90
      255
102
RTVSPost2010PropOp44
 70
     1
102
RTVSPost2010Prop45
280
     0
102
RTVSPost2010PropOp45
 70
     1
102
RTVSPost2010Prop46
 90
       50
102
RTVSPost2010PropOp46
 70
     1
102
RTVSPost2010Prop47
 90
       50
102
RTVSPost2010PropOp47
 70
     1
102
RTVSPost2010Prop48
 90
       50
102
RTVSPost2010PropOp48
 70
     1
102
RTVSPost2010Prop49
280
     0
102
RTVSPost2010PropOp49
 70
     1
102
RTVSPost2010Prop50
 90
       50
102
RTVSPost2010PropOp50
 70
     1
102
RTVSPost2010Prop51ColorIndex
 90
      256
102
RTVSPost2010Prop51ColorRGB
 90
-16777216
102
RTVSPost2010PropOp51
 70
     0
102
RTVSPost2010Prop52
140
1.0
102
RTVSPost2010PropOp52
 70
     0
102
RTVSPost2010Prop53
 90
        2
102
RTVSPost2010PropOp53
 70
     1
102
RTVSPost2010Prop54
  1
strokes_ogs.tif
102
RTVSPost2010PropOp54
 70
     1
102
RTVSPost2010Prop55
280
     0
102
RTVSPost2010PropOp55
 70
     1
102
RTVSPost2010Prop56
140
1.0
102
RTVSPost2010PropOp56
 70
     1
102
RTVSPost2010Prop57
140
1.0
102
RTVSPost2010PropOp57
 70
     1
  0
XRECORD
  5
2F3
102
{ACAD_REACTORS
330
2F2
102
}
330
2F2
100
AcDbXrecord
280
     1
102
RTVSPropertyOp0
 70
     1
102
RTVSPropertyOp1
 70
     1
102
RTVSPropertyOp2
 70
     1
102
RTVSPropertyOp3
 70
     1
102
RTVSPropertyOp4
 70
     1
102
RTVSPropertyOp5
 70
     1
102
RTVSPropertyOp6
 70
     1
102
RTVSPropertyOp7
 70
     1
102
RTVSPropertyOp8
 70
     1
102
RTVSPropertyOp9
 70
     1
102
RTVSPropertyOp10
 70
     1
102
RTVSPropertyOp11
 70
     1
102
RTVSPropertyOp12
 70
     1
102
RTVSPropertyOp13
 70
     1
102
RTVSPropertyOp14
 70
     1
102
RTVSPropertyOp15
 70
     1
102
RTVSPropertyOp16
 70
     1
102
RTVSPropertyOp17
 70
     1
102
RTVSPropertyOp18
 70
     1
102
RTVSPropertyOp19
 70
     1
102
RTVSPropertyOp20
 70
     1
102
RTVSPropertyOp21
 70
     1
102
RTVSPropertyOp22
 70
     1
102
RTVSPropertyOp23
 70
     1
102
RTVSPropertyOp24
 70
     1
102
RTVSPropertyOp25
 70
     1
102
RTVSPropertyOp26
 70
     1
102
RTVSPropertyOp27
 70
     1
102
RTVSPropertyOp28
 70
     1
102
RTVSPropertyOp29
 70
     1
102
RTVSPropertyOp30
 70
     1
102
RTVSPropertyOp31
 70
     1
102
RTVSPropertyOp32
 70
     1
102
RTVSPropertyOp33
 70
     1
102
RTVSPropertyOp34
 70
     1
102
RTVSPropertyOp35
 70
     1
102
RTVSPropertyOp36
 70
     1
102
RTVSPropertyOp37
 70
     1
102
RTVSPropertyOp38
 70
     1
102
RTVSPropertyOp39
 70
     1
102
RTVSPropertyOp40
 70
     1
102
RTVSPropertyOp41
 70
     1
102
RTVSPropertyOp42
 70
     1
102
RTVSPropertyOp43
 70
     1
102
RTVSPropertyOp44
 70
     1
102
RTVSPropertyOp45
 70
     1
102
RTVSPropertyOp46
 70
     1
102
RTVSPropertyOp47
 70
     1
102
RTVSPropertyOp48
 70
     1
102
RTVSPropertyOp49
 70
     1
102
RTVSPropertyOp50
 70
     1
102
RTVSPropertyOp51
 70
     0
102
RTVSPropertyOp52
 70
     0
102
RTVSPropertyOp53
 70
     1
102
RTVSPropertyOp54
 70
     1
102
RTVSPropertyOp55
 70
     1
102
RTVSPropertyOp56
 70
     1
102
RTVSPropertyOp57
 70
     1
102
RTVSPost2010Prop28
280
     0
102
RTVSPost2010PropOp28
 70
     1
102
RTVSPost2010Prop29
280
     1
102
RTVSPost2010PropOp29
 70
     1
102
RTVSPost2010Prop30
280
     1
102
RTVSPost2010PropOp30
 70
     1
102
RTVSPost2010Prop31
280
     0
102
RTVSPost2010PropOp31
 70
     1
102
RTVSPost2010Prop32
280
     0
102
RTVSPost2010PropOp32
 70
     1
102
RTVSPost2010Prop33
280
     0
102
RTVSPost2010PropOp33
 70
     1
102
RTVSPost2010Prop34
280
     0
102
RTVSPost2010PropOp34
 70
     1
102
RTVSPost2010Prop35
280
     0
102
RTVSPost2010PropOp35
 70
     1
102
RTVSPost2010Prop36
280
     0
102
RTVSPost2010PropOp36
 70
     1
102
RTVSPost2010Prop37
 90
       50
102
RTVSPost2010PropOp37
 70
     1
102
RTVSPost2010Prop38
140
0.0
102
RTVSPost2010PropOp38
 70
     1
102
RTVSPost2010Prop39
140
1.0
102
RTVSPost2010PropOp39
 70
     1
102
RTVSPost2010Prop40
 90
        0
102
RTVSPost2010PropOp40
 70
     1
102
RTVSPost2010Prop41ColorIndex
 90
       18
102
RTVSPost2010Prop41ColorRGB
 90
        0
102
RTVSPost2010PropOp41
 70
     1
102
RTVSPost2010Prop42
 90
       50
102
RTVSPost2010PropOp42
 70
     1
102
RTVSPost2010Prop43
 90
        3
102
RTVSPost2010PropOp43
 70
     1
102
RTVSPost2010Prop44ColorIndex
 90
        5
102
RTVSPost2010Prop44ColorRGB
 90
      255
102
RTVSPost2010PropOp44
 70
     1
102
RTVSPost2010Prop45
280
     0
102
RTVSPost2010PropOp45
 70
     1
102
RTVSPost2010Prop46
 90
       50
102
RTVSPost2010PropOp46
 70
     1
102
RTVSPost2010Prop47
 90
       50
102
RTVSPost2010PropOp47
 70
     1
102
RTVSPost2010Prop48
 90
       50
102
RTVSPost2010PropOp48
 70
     1
102
RTVSPost2010Prop49
280
     0
102
RTVSPost2010PropOp49
 70
     1
102
RTVSPost2010Prop50
 90
       50
102
RTVSPost2010PropOp50
 70
     1
102
RTVSPost2010Prop51ColorIndex
 90
      256
102
RTVSPost2010Prop51ColorRGB
 90
-16777216
102
RTVSPost2010PropOp51
 70
     0
102
RTVSPost2010Prop52
140
1.0
102
RTVSPost2010PropOp52
 70
     0
102
RTVSPost2010Prop53
 90
        2
102
RTVSPost2010PropOp53
 70
     1
102
RTVSPost2010Prop54
  1
strokes_ogs.tif
102
RTVSPost2010PropOp54
 70
     1
102
RTVSPost2010Prop55
280
     0
102
RTVSPost2010PropOp55
 70
     1
102
RTVSPost2010Prop56
140
1.0
102
RTVSPost2010PropOp56
 70
     1
102
RTVSPost2010Prop57
140
1.0
102
RTVSPost2010PropOp57
 70
     1
  0
XRECORD
  5
2FB
102
{ACAD_REACTORS
330
2FA
102
}
330
2FA
100
AcDbXrecord
280
     1
102
RTVSPropertyOp0
 70
     1
102
RTVSPropertyOp1
 70
     1
102
RTVSPropertyOp2
 70
     1
102
RTVSPropertyOp3
 70
     1
102
RTVSPropertyOp4
 70
     1
102
RTVSPropertyOp5
 70
     1
102
RTVSPropertyOp6
 70
     1
102
RTVSPropertyOp7
 70
     1
102
RTVSPropertyOp8
 70
     1
102
RTVSPropertyOp9
 70
     1
102
RTVSPropertyOp10
 70
     1
102
RTVSPropertyOp11
 70
     1
102
RTVSPropertyOp12
 70
     1
102
RTVSPropertyOp13
 70
     1
102
RTVSPropertyOp14
 70
     1
102
RTVSPropertyOp15
 70
     1
102
RTVSPropertyOp16
 70
     1
102
RTVSPropertyOp17
 70
     1
102
RTVSPropertyOp18
 70
     1
102
RTVSPropertyOp19
 70
     1
102
RTVSPropertyOp20
 70
     1
102
RTVSPropertyOp21
 70
     1
102
RTVSPropertyOp22
 70
     1
102
RTVSPropertyOp23
 70
     1
102
RTVSPropertyOp24
 70
     1
102
RTVSPropertyOp25
 70
     1
102
RTVSPropertyOp26
 70
     1
102
RTVSPropertyOp27
 70
     1
102
RTVSPropertyOp28
 70
     1
102
RTVSPropertyOp29
 70
     1
102
RTVSPropertyOp30
 70
     1
102
RTVSPropertyOp31
 70
     1
102
RTVSPropertyOp32
 70
     1
102
RTVSPropertyOp33
 70
     1
102
RTVSPropertyOp34
 70
     1
102
RTVSPropertyOp35
 70
     1
102
RTVSPropertyOp36
 70
     1
102
RTVSPropertyOp37
 70
     1
102
RTVSPropertyOp38
 70
     1
102
RTVSPropertyOp39
 70
     1
102
RTVSPropertyOp40
 70
     1
102
RTVSPropertyOp41
 70
     1
102
RTVSPropertyOp42
 70
     1
102
RTVSPropertyOp43
 70
     1
102
RTVSPropertyOp44
 70
     1
102
RTVSPropertyOp45
 70
     1
102
RTVSPropertyOp46
 70
     1
102
RTVSPropertyOp47
 70
     1
102
RTVSPropertyOp48
 70
     1
102
RTVSPropertyOp49
 70
     1
102
RTVSPropertyOp50
 70
     1
102
RTVSPropertyOp51
 70
     0
102
RTVSPropertyOp52
 70
     0
102
RTVSPropertyOp53
 70
     1
102
RTVSPropertyOp54
 70
     1
102
RTVSPropertyOp55
 70
     1
102
RTVSPropertyOp56
 70
     1
102
RTVSPropertyOp57
 70
     1
102
RTVSPost2010Prop28
280
     0
102
RTVSPost2010PropOp28
 70
     1
102
RTVSPost2010Prop29
280
     1
102
RTVSPost2010PropOp29
 70
     1
102
RTVSPost2010Prop30
280
     1
102
RTVSPost2010PropOp30
 70
     1
102
RTVSPost2010Prop31
280
     0
102
RTVSPost2010PropOp31
 70
     1
102
RTVSPost2010Prop32
280
     0
102
RTVSPost2010PropOp32
 70
     1
102
RTVSPost2010Prop33
280
     0
102
RTVSPost2010PropOp33
 70
     1
102
RTVSPost2010Prop34
280
     0
102
RTVSPost2010PropOp34
 70
     1
102
RTVSPost2010Prop35
280
     0
102
RTVSPost2010PropOp35
 70
     1
102
RTVSPost2010Prop36
280
     0
102
RTVSPost2010PropOp36
 70
     1
102
RTVSPost2010Prop37
 90
       50
102
RTVSPost2010PropOp37
 70
     1
102
RTVSPost2010Prop38
140
0.0
102
RTVSPost2010PropOp38
 70
     1
102
RTVSPost2010Prop39
140
1.0
102
RTVSPost2010PropOp39
 70
     1
102
RTVSPost2010Prop40
 90
        0
102
RTVSPost2010PropOp40
 70
     1
102
RTVSPost2010Prop41ColorIndex
 90
       18
102
RTVSPost2010Prop41ColorRGB
 90
        0
102
RTVSPost2010PropOp41
 70
     1
102
RTVSPost2010Prop42
 90
       50
102
RTVSPost2010PropOp42
 70
     1
102
RTVSPost2010Prop43
 90
        3
102
RTVSPost2010PropOp43
 70
     1
102
RTVSPost2010Prop44ColorIndex
 90
        5
102
RTVSPost2010Prop44ColorRGB
 90
      255
102
RTVSPost2010PropOp44
 70
     1
102
RTVSPost2010Prop45
280
     0
102
RTVSPost2010PropOp45
 70
     1
102
RTVSPost2010Prop46
 90
       50
102
RTVSPost2010PropOp46
 70
     1
102
RTVSPost2010Prop47
 90
       50
102
RTVSPost2010PropOp47
 70
     1
102
RTVSPost2010Prop48
 90
       50
102
RTVSPost2010PropOp48
 70
     1
102
RTVSPost2010Prop49
280
     0
102
RTVSPost2010PropOp49
 70
     1
102
RTVSPost2010Prop50
 90
       50
102
RTVSPost2010PropOp50
 70
     1
102
RTVSPost2010Prop51ColorIndex
 90
      256
102
RTVSPost2010Prop51ColorRGB
 90
-16777216
102
RTVSPost2010PropOp51
 70
     0
102
RTVSPost2010Prop52
140
1.0
102
RTVSPost2010PropOp52
 70
     0
102
RTVSPost2010Prop53
 90
        2
102
RTVSPost2010PropOp53
 70
     1
102
RTVSPost2010Prop54
  1
strokes_ogs.tif
102
RTVSPost2010PropOp54
 70
     1
102
RTVSPost2010Prop55
280
     0
102
RTVSPost2010PropOp55
 70
     1
102
RTVSPost2010Prop56
140
1.0
102
RTVSPost2010PropOp56
 70
     1
102
RTVSPost2010Prop57
140
1.0
102
RTVSPost2010PropOp57
 70
     1
  0
XRECORD
  5
303
102
{ACAD_REACTORS
330
302
102
}
330
302
100
AcDbXrecord
280
     1
102
RTVSPropertyOp0
 70
     1
102
RTVSPropertyOp1
 70
     1
102
RTVSPropertyOp2
 70
     1
102
RTVSPropertyOp3
 70
     1
102
RTVSPropertyOp4
 70
     1
102
RTVSPropertyOp5
 70
     1
102
RTVSPropertyOp6
 70
     1
102
RTVSPropertyOp7
 70
     1
102
RTVSPropertyOp8
 70
     1
102
RTVSPropertyOp9
 70
     1
102
RTVSPropertyOp10
 70
     1
102
RTVSPropertyOp11
 70
     1
102
RTVSPropertyOp12
 70
     1
102
RTVSPropertyOp13
 70
     1
102
RTVSPropertyOp14
 70
     1
102
RTVSPropertyOp15
 70
     1
102
RTVSPropertyOp16
 70
     1
102
RTVSPropertyOp17
 70
     1
102
RTVSPropertyOp18
 70
     1
102
RTVSPropertyOp19
 70
     1
102
RTVSPropertyOp20
 70
     1
102
RTVSPropertyOp21
 70
     1
102
RTVSPropertyOp22
 70
     1
102
RTVSPropertyOp23
 70
     1
102
RTVSPropertyOp24
 70
     1
102
RTVSPropertyOp25
 70
     1
102
RTVSPropertyOp26
 70
     1
102
RTVSPropertyOp27
 70
     1
102
RTVSPropertyOp28
 70
     1
102
RTVSPropertyOp29
 70
     1
102
RTVSPropertyOp30
 70
     1
102
RTVSPropertyOp31
 70
     1
102
RTVSPropertyOp32
 70
     1
102
RTVSPropertyOp33
 70
     1
102
RTVSPropertyOp34
 70
     1
102
RTVSPropertyOp35
 70
     1
102
RTVSPropertyOp36
 70
     1
102
RTVSPropertyOp37
 70
     1
102
RTVSPropertyOp38
 70
     1
102
RTVSPropertyOp39
 70
     1
102
RTVSPropertyOp40
 70
     1
102
RTVSPropertyOp41
 70
     1
102
RTVSPropertyOp42
 70
     1
102
RTVSPropertyOp43
 70
     1
102
RTVSPropertyOp44
 70
     1
102
RTVSPropertyOp45
 70
     1
102
RTVSPropertyOp46
 70
     1
102
RTVSPropertyOp47
 70
     1
102
RTVSPropertyOp48
 70
     1
102
RTVSPropertyOp49
 70
     1
102
RTVSPropertyOp50
 70
     1
102
RTVSPropertyOp51
 70
     0
102
RTVSPropertyOp52
 70
     0
102
RTVSPropertyOp53
 70
     1
102
RTVSPropertyOp54
 70
     1
102
RTVSPropertyOp55
 70
     1
102
RTVSPropertyOp56
 70
     1
102
RTVSPropertyOp57
 70
     1
102
RTVSPost2010Prop28
280
     0
102
RTVSPost2010PropOp28
 70
     1
102
RTVSPost2010Prop29
280
     1
102
RTVSPost2010PropOp29
 70
     1
102
RTVSPost2010Prop30
280
     1
102
RTVSPost2010PropOp30
 70
     1
102
RTVSPost2010Prop31
280
     0
102
RTVSPost2010PropOp31
 70
     1
102
RTVSPost2010Prop32
280
     0
102
RTVSPost2010PropOp32
 70
     1
102
RTVSPost2010Prop33
280
     0
102
RTVSPost2010PropOp33
 70
     1
102
RTVSPost2010Prop34
280
     0
102
RTVSPost2010PropOp34
 70
     1
102
RTVSPost2010Prop35
280
     0
102
RTVSPost2010PropOp35
 70
     1
102
RTVSPost2010Prop36
280
     0
102
RTVSPost2010PropOp36
 70
     1
102
RTVSPost2010Prop37
 90
       50
102
RTVSPost2010PropOp37
 70
     1
102
RTVSPost2010Prop38
140
0.0
102
RTVSPost2010PropOp38
 70
     1
102
RTVSPost2010Prop39
140
1.0
102
RTVSPost2010PropOp39
 70
     1
102
RTVSPost2010Prop40
 90
        0
102
RTVSPost2010PropOp40
 70
     1
102
RTVSPost2010Prop41ColorIndex
 90
       18
102
RTVSPost2010Prop41ColorRGB
 90
        0
102
RTVSPost2010PropOp41
 70
     1
102
RTVSPost2010Prop42
 90
       50
102
RTVSPost2010PropOp42
 70
     1
102
RTVSPost2010Prop43
 90
        3
102
RTVSPost2010PropOp43
 70
     1
102
RTVSPost2010Prop44ColorIndex
 90
        5
102
RTVSPost2010Prop44ColorRGB
 90
      255
102
RTVSPost2010PropOp44
 70
     1
102
RTVSPost2010Prop45
280
     0
102
RTVSPost2010PropOp45
 70
     1
102
RTVSPost2010Prop46
 90
       50
102
RTVSPost2010PropOp46
 70
     1
102
RTVSPost2010Prop47
 90
       50
102
RTVSPost2010PropOp47
 70
     1
102
RTVSPost2010Prop48
 90
       50
102
RTVSPost2010PropOp48
 70
     1
102
RTVSPost2010Prop49
280
     0
102
RTVSPost2010PropOp49
 70
     1
102
RTVSPost2010Prop50
 90
       50
102
RTVSPost2010PropOp50
 70
     1
102
RTVSPost2010Prop51ColorIndex
 90
      256
102
RTVSPost2010Prop51ColorRGB
 90
-16777216
102
RTVSPost2010PropOp51
 70
     0
102
RTVSPost2010Prop52
140
1.0
102
RTVSPost2010PropOp52
 70
     0
102
RTVSPost2010Prop53
 90
        2
102
RTVSPost2010PropOp53
 70
     1
102
RTVSPost2010Prop54
  1
strokes_ogs.tif
102
RTVSPost2010PropOp54
 70
     1
102
RTVSPost2010Prop55
280
     0
102
RTVSPost2010PropOp55
 70
     1
102
RTVSPost2010Prop56
140
1.0
102
RTVSPost2010PropOp56
 70
     1
102
RTVSPost2010Prop57
140
1.0
102
RTVSPost2010PropOp57
 70
     1
  0
XRECORD
  5
2F7
102
{ACAD_REACTORS
330
2F6
102
}
330
2F6
100
AcDbXrecord
280
     1
102
RTVSPropertyOp0
 70
     1
102
RTVSPropertyOp1
 70
     1
102
RTVSPropertyOp2
 70
     1
102
RTVSPropertyOp3
 70
     1
102
RTVSPropertyOp4
 70
     1
102
RTVSPropertyOp5
 70
     1
102
RTVSPropertyOp6
 70
     1
102
RTVSPropertyOp7
 70
     1
102
RTVSPropertyOp8
 70
     1
102
RTVSPropertyOp9
 70
     1
102
RTVSPropertyOp10
 70
     1
102
RTVSPropertyOp11
 70
     1
102
RTVSPropertyOp12
 70
     1
102
RTVSPropertyOp13
 70
     1
102
RTVSPropertyOp14
 70
     1
102
RTVSPropertyOp15
 70
     1
102
RTVSPropertyOp16
 70
     1
102
RTVSPropertyOp17
 70
     1
102
RTVSPropertyOp18
 70
     1
102
RTVSPropertyOp19
 70
     1
102
RTVSPropertyOp20
 70
     1
102
RTVSPropertyOp21
 70
     1
102
RTVSPropertyOp22
 70
     1
102
RTVSPropertyOp23
 70
     1
102
RTVSPropertyOp24
 70
     1
102
RTVSPropertyOp25
 70
     1
102
RTVSPropertyOp26
 70
     1
102
RTVSPropertyOp27
 70
     1
102
RTVSPropertyOp28
 70
     1
102
RTVSPropertyOp29
 70
     1
102
RTVSPropertyOp30
 70
     1
102
RTVSPropertyOp31
 70
     1
102
RTVSPropertyOp32
 70
     1
102
RTVSPropertyOp33
 70
     1
102
RTVSPropertyOp34
 70
     1
102
RTVSPropertyOp35
 70
     1
102
RTVSPropertyOp36
 70
     1
102
RTVSPropertyOp37
 70
     1
102
RTVSPropertyOp38
 70
     1
102
RTVSPropertyOp39
 70
     1
102
RTVSPropertyOp40
 70
     1
102
RTVSPropertyOp41
 70
     1
102
RTVSPropertyOp42
 70
     1
102
RTVSPropertyOp43
 70
     1
102
RTVSPropertyOp44
 70
     1
102
RTVSPropertyOp45
 70
     1
102
RTVSPropertyOp46
 70
     1
102
RTVSPropertyOp47
 70
     1
102
RTVSPropertyOp48
 70
     1
102
RTVSPropertyOp49
 70
     1
102
RTVSPropertyOp50
 70
     1
102
RTVSPropertyOp51
 70
     0
102
RTVSPropertyOp52
 70
     0
102
RTVSPropertyOp53
 70
     1
102
RTVSPropertyOp54
 70
     1
102
RTVSPropertyOp55
 70
     1
102
RTVSPropertyOp56
 70
     1
102
RTVSPropertyOp57
 70
     1
102
RTVSPost2010Prop28
280
     0
102
RTVSPost2010PropOp28
 70
     1
102
RTVSPost2010Prop29
280
     1
102
RTVSPost2010PropOp29
 70
     1
102
RTVSPost2010Prop30
280
     1
102
RTVSPost2010PropOp30
 70
     1
102
RTVSPost2010Prop31
280
     0
102
RTVSPost2010PropOp31
 70
     1
102
RTVSPost2010Prop32
280
     0
102
RTVSPost2010PropOp32
 70
     1
102
RTVSPost2010Prop33
280
     0
102
RTVSPost2010PropOp33
 70
     1
102
RTVSPost2010Prop34
280
     0
102
RTVSPost2010PropOp34
 70
     1
102
RTVSPost2010Prop35
280
     0
102
RTVSPost2010PropOp35
 70
     1
102
RTVSPost2010Prop36
280
     0
102
RTVSPost2010PropOp36
 70
     1
102
RTVSPost2010Prop37
 90
       50
102
RTVSPost2010PropOp37
 70
     1
102
RTVSPost2010Prop38
140
0.0
102
RTVSPost2010PropOp38
 70
     1
102
RTVSPost2010Prop39
140
1.0
102
RTVSPost2010PropOp39
 70
     1
102
RTVSPost2010Prop40
 90
        0
102
RTVSPost2010PropOp40
 70
     1
102
RTVSPost2010Prop41ColorIndex
 90
       18
102
RTVSPost2010Prop41ColorRGB
 90
        0
102
RTVSPost2010PropOp41
 70
     1
102
RTVSPost2010Prop42
 90
       50
102
RTVSPost2010PropOp42
 70
     1
102
RTVSPost2010Prop43
 90
        3
102
RTVSPost2010PropOp43
 70
     1
102
RTVSPost2010Prop44ColorIndex
 90
        5
102
RTVSPost2010Prop44ColorRGB
 90
      255
102
RTVSPost2010PropOp44
 70
     1
102
RTVSPost2010Prop45
280
     0
102
RTVSPost2010PropOp45
 70
     1
102
RTVSPost2010Prop46
 90
       50
102
RTVSPost2010PropOp46
 70
     1
102
RTVSPost2010Prop47
 90
       50
102
RTVSPost2010PropOp47
 70
     1
102
RTVSPost2010Prop48
 90
       50
102
RTVSPost2010PropOp48
 70
     1
102
RTVSPost2010Prop49
280
     0
102
RTVSPost2010PropOp49
 70
     1
102
RTVSPost2010Prop50
 90
       50
102
RTVSPost2010PropOp50
 70
     1
102
RTVSPost2010Prop51ColorIndex
 90
      256
102
RTVSPost2010Prop51ColorRGB
 90
-16777216
102
RTVSPost2010PropOp51
 70
     0
102
RTVSPost2010Prop52
140
1.0
102
RTVSPost2010PropOp52
 70
     0
102
RTVSPost2010Prop53
 90
        2
102
RTVSPost2010PropOp53
 70
     1
102
RTVSPost2010Prop54
  1
strokes_ogs.tif
102
RTVSPost2010PropOp54
 70
     1
102
RTVSPost2010Prop55
280
     0
102
RTVSPost2010PropOp55
 70
     1
102
RTVSPost2010Prop56
140
1.0
102
RTVSPost2010PropOp56
 70
     1
102
RTVSPost2010Prop57
140
1.0
102
RTVSPost2010PropOp57
 70
     1
  0
XRECORD
  5
2F9
102
{ACAD_REACTORS
330
2F8
102
}
330
2F8
100
AcDbXrecord
280
     1
102
RTVSPropertyOp0
 70
     1
102
RTVSPropertyOp1
 70
     1
102
RTVSPropertyOp2
 70
     1
102
RTVSPropertyOp3
 70
     1
102
RTVSPropertyOp4
 70
     1
102
RTVSPropertyOp5
 70
     1
102
RTVSPropertyOp6
 70
     1
102
RTVSPropertyOp7
 70
     1
102
RTVSPropertyOp8
 70
     1
102
RTVSPropertyOp9
 70
     1
102
RTVSPropertyOp10
 70
     1
102
RTVSPropertyOp11
 70
     1
102
RTVSPropertyOp12
 70
     1
102
RTVSPropertyOp13
 70
     1
102
RTVSPropertyOp14
 70
     1
102
RTVSPropertyOp15
 70
     1
102
RTVSPropertyOp16
 70
     1
102
RTVSPropertyOp17
 70
     1
102
RTVSPropertyOp18
 70
     1
102
RTVSPropertyOp19
 70
     1
102
RTVSPropertyOp20
 70
     1
102
RTVSPropertyOp21
 70
     1
102
RTVSPropertyOp22
 70
     1
102
RTVSPropertyOp23
 70
     1
102
RTVSPropertyOp24
 70
     1
102
RTVSPropertyOp25
 70
     1
102
RTVSPropertyOp26
 70
     1
102
RTVSPropertyOp27
 70
     1
102
RTVSPropertyOp28
 70
     1
102
RTVSPropertyOp29
 70
     1
102
RTVSPropertyOp30
 70
     1
102
RTVSPropertyOp31
 70
     1
102
RTVSPropertyOp32
 70
     1
102
RTVSPropertyOp33
 70
     1
102
RTVSPropertyOp34
 70
     1
102
RTVSPropertyOp35
 70
     1
102
RTVSPropertyOp36
 70
     1
102
RTVSPropertyOp37
 70
     1
102
RTVSPropertyOp38
 70
     1
102
RTVSPropertyOp39
 70
     1
102
RTVSPropertyOp40
 70
     1
102
RTVSPropertyOp41
 70
     1
102
RTVSPropertyOp42
 70
     1
102
RTVSPropertyOp43
 70
     1
102
RTVSPropertyOp44
 70
     1
102
RTVSPropertyOp45
 70
     1
102
RTVSPropertyOp46
 70
     1
102
RTVSPropertyOp47
 70
     1
102
RTVSPropertyOp48
 70
     1
102
RTVSPropertyOp49
 70
     1
102
RTVSPropertyOp50
 70
     1
102
RTVSPropertyOp51
 70
     0
102
RTVSPropertyOp52
 70
     0
102
RTVSPropertyOp53
 70
     1
102
RTVSPropertyOp54
 70
     1
102
RTVSPropertyOp55
 70
     1
102
RTVSPropertyOp56
 70
     1
102
RTVSPropertyOp57
 70
     1
102
RTVSPost2010Prop28
280
     0
102
RTVSPost2010PropOp28
 70
     1
102
RTVSPost2010Prop29
280
     1
102
RTVSPost2010PropOp29
 70
     1
102
RTVSPost2010Prop30
280
     1
102
RTVSPost2010PropOp30
 70
     1
102
RTVSPost2010Prop31
280
     0
102
RTVSPost2010PropOp31
 70
     1
102
RTVSPost2010Prop32
280
     0
102
RTVSPost2010PropOp32
 70
     1
102
RTVSPost2010Prop33
280
     0
102
RTVSPost2010PropOp33
 70
     1
102
RTVSPost2010Prop34
280
     0
102
RTVSPost2010PropOp34
 70
     1
102
RTVSPost2010Prop35
280
     0
102
RTVSPost2010PropOp35
 70
     1
102
RTVSPost2010Prop36
280
     0
102
RTVSPost2010PropOp36
 70
     1
102
RTVSPost2010Prop37
 90
       50
102
RTVSPost2010PropOp37
 70
     1
102
RTVSPost2010Prop38
140
0.0
102
RTVSPost2010PropOp38
 70
     1
102
RTVSPost2010Prop39
140
1.0
102
RTVSPost2010PropOp39
 70
     1
102
RTVSPost2010Prop40
 90
        0
102
RTVSPost2010PropOp40
 70
     1
102
RTVSPost2010Prop41ColorIndex
 90
       18
102
RTVSPost2010Prop41ColorRGB
 90
        0
102
RTVSPost2010PropOp41
 70
     1
102
RTVSPost2010Prop42
 90
       50
102
RTVSPost2010PropOp42
 70
     1
102
RTVSPost2010Prop43
 90
        3
102
RTVSPost2010PropOp43
 70
     1
102
RTVSPost2010Prop44ColorIndex
 90
        5
102
RTVSPost2010Prop44ColorRGB
 90
      255
102
RTVSPost2010PropOp44
 70
     1
102
RTVSPost2010Prop45
280
     0
102
RTVSPost2010PropOp45
 70
     1
102
RTVSPost2010Prop46
 90
       50
102
RTVSPost2010PropOp46
 70
     1
102
RTVSPost2010Prop47
 90
       50
102
RTVSPost2010PropOp47
 70
     1
102
RTVSPost2010Prop48
 90
       50
102
RTVSPost2010PropOp48
 70
     1
102
RTVSPost2010Prop49
280
     0
102
RTVSPost2010PropOp49
 70
     1
102
RTVSPost2010Prop50
 90
       50
102
RTVSPost2010PropOp50
 70
     1
102
RTVSPost2010Prop51ColorIndex
 90
      256
102
RTVSPost2010Prop51ColorRGB
 90
-16777216
102
RTVSPost2010PropOp51
 70
     0
102
RTVSPost2010Prop52
140
1.0
102
RTVSPost2010PropOp52
 70
     0
102
RTVSPost2010Prop53
 90
        2
102
RTVSPost2010PropOp53
 70
     1
102
RTVSPost2010Prop54
  1
strokes_ogs.tif
102
RTVSPost2010PropOp54
 70
     1
102
RTVSPost2010Prop55
280
     0
102
RTVSPost2010PropOp55
 70
     1
102
RTVSPost2010Prop56
140
1.0
102
RTVSPost2010PropOp56
 70
     1
102
RTVSPost2010Prop57
140
1.0
102
RTVSPost2010PropOp57
 70
     1
  0
XRECORD
  5
309
102
{ACAD_REACTORS
330
308
102
}
330
308
100
AcDbXrecord
280
     1
102
RTVSPropertyOp0
 70
     0
102
RTVSPropertyOp1
 70
     0
102
RTVSPropertyOp2
 70
     0
102
RTVSPropertyOp3
 70
     0
102
RTVSPropertyOp4
 70
     0
102
RTVSPropertyOp5
 70
     0
102
RTVSPropertyOp6
 70
     0
102
RTVSPropertyOp7
 70
     0
102
RTVSPropertyOp8
 70
     0
102
RTVSPropertyOp9
 70
     0
102
RTVSPropertyOp10
 70
     0
102
RTVSPropertyOp11
 70
     0
102
RTVSPropertyOp12
 70
     0
102
RTVSPropertyOp13
 70
     0
102
RTVSPropertyOp14
 70
     2
102
RTVSPropertyOp15
 70
     0
102
RTVSPropertyOp16
 70
     0
102
RTVSPropertyOp17
 70
     0
102
RTVSPropertyOp18
 70
     0
102
RTVSPropertyOp19
 70
     0
102
RTVSPropertyOp20
 70
     0
102
RTVSPropertyOp21
 70
     0
102
RTVSPropertyOp22
 70
     0
102
RTVSPropertyOp23
 70
     0
102
RTVSPropertyOp24
 70
     0
102
RTVSPropertyOp25
 70
     0
102
RTVSPropertyOp26
 70
     0
102
RTVSPropertyOp27
 70
     0
102
RTVSPropertyOp28
 70
     0
102
RTVSPropertyOp29
 70
     0
102
RTVSPropertyOp30
 70
     0
102
RTVSPropertyOp31
 70
     0
102
RTVSPropertyOp32
 70
     0
102
RTVSPropertyOp33
 70
     0
102
RTVSPropertyOp34
 70
     0
102
RTVSPropertyOp35
 70
     0
102
RTVSPropertyOp36
 70
     0
102
RTVSPropertyOp37
 70
     0
102
RTVSPropertyOp38
 70
     0
102
RTVSPropertyOp39
 70
     0
102
RTVSPropertyOp40
 70
     0
102
RTVSPropertyOp41
 70
     0
102
RTVSPropertyOp42
 70
     0
102
RTVSPropertyOp43
 70
     0
102
RTVSPropertyOp44
 70
     0
102
RTVSPropertyOp45
 70
     0
102
RTVSPropertyOp46
 70
     0
102
RTVSPropertyOp47
 70
     0
102
RTVSPropertyOp48
 70
     0
102
RTVSPropertyOp49
 70
     0
102
RTVSPropertyOp50
 70
     0
102
RTVSPropertyOp51
 70
     0
102
RTVSPropertyOp52
 70
     0
102
RTVSPropertyOp53
 70
     0
102
RTVSPropertyOp54
 70
     0
102
RTVSPropertyOp55
 70
     0
102
RTVSPropertyOp56
 70
     0
102
RTVSPropertyOp57
 70
     0
102
RTVSPost2010Prop28
280
     0
102
RTVSPost2010PropOp28
 70
     0
102
RTVSPost2010Prop29
280
     1
102
RTVSPost2010PropOp29
 70
     0
102
RTVSPost2010Prop30
280
     1
102
RTVSPost2010PropOp30
 70
     0
102
RTVSPost2010Prop31
280
     0
102
RTVSPost2010PropOp31
 70
     0
102
RTVSPost2010Prop32
280
     0
102
RTVSPost2010PropOp32
 70
     0
102
RTVSPost2010Prop33
280
     0
102
RTVSPost2010PropOp33
 70
     0
102
RTVSPost2010Prop34
280
     0
102
RTVSPost2010PropOp34
 70
     0
102
RTVSPost2010Prop35
280
     0
102
RTVSPost2010PropOp35
 70
     0
102
RTVSPost2010Prop36
280
     0
102
RTVSPost2010PropOp36
 70
     0
102
RTVSPost2010Prop37
 90
       50
102
RTVSPost2010PropOp37
 70
     0
102
RTVSPost2010Prop38
140
0.0
102
RTVSPost2010PropOp38
 70
     0
102
RTVSPost2010Prop39
140
1.0
102
RTVSPost2010PropOp39
 70
     0
102
RTVSPost2010Prop40
 90
        0
102
RTVSPost2010PropOp40
 70
     0
102
RTVSPost2010Prop41ColorIndex
 90
       18
102
RTVSPost2010Prop41ColorRGB
 90
        0
102
RTVSPost2010PropOp41
 70
     0
102
RTVSPost2010Prop42
 90
       50
102
RTVSPost2010PropOp42
 70
     0
102
RTVSPost2010Prop43
 90
        3
102
RTVSPost2010PropOp43
 70
     0
102
RTVSPost2010Prop44ColorIndex
 90
        5
102
RTVSPost2010Prop44ColorRGB
 90
      255
102
RTVSPost2010PropOp44
 70
     0
102
RTVSPost2010Prop45
280
     0
102
RTVSPost2010PropOp45
 70
     0
102
RTVSPost2010Prop46
 90
       50
102
RTVSPost2010PropOp46
 70
     0
102
RTVSPost2010Prop47
 90
       50
102
RTVSPost2010PropOp47
 70
     0
102
RTVSPost2010Prop48
 90
       50
102
RTVSPost2010PropOp48
 70
     0
102
RTVSPost2010Prop49
280
     0
102
RTVSPost2010PropOp49
 70
     0
102
RTVSPost2010Prop50
 90
       50
102
RTVSPost2010PropOp50
 70
     0
102
RTVSPost2010Prop51ColorIndex
 90
      256
102
RTVSPost2010Prop51ColorRGB
 90
-16777216
102
RTVSPost2010PropOp51
 70
     0
102
RTVSPost2010Prop52
140
1.0
102
RTVSPost2010PropOp52
 70
     0
102
RTVSPost2010Prop53
 90
        2
102
RTVSPost2010PropOp53
 70
     0
102
RTVSPost2010Prop54
  1
strokes_ogs.tif
102
RTVSPost2010PropOp54
 70
     0
102
RTVSPost2010Prop55
280
     0
102
RTVSPost2010PropOp55
 70
     0
102
RTVSPost2010Prop56
140
1.0
102
RTVSPost2010PropOp56
 70
     0
102
RTVSPost2010Prop57
140
1.0
102
RTVSPost2010PropOp57
 70
     0
  0
XRECORD
  5
301
102
{ACAD_REACTORS
330
300
102
}
330
300
100
AcDbXrecord
280
     1
102
RTVSPropertyOp0
 70
     1
102
RTVSPropertyOp1
 70
     1
102
RTVSPropertyOp2
 70
     1
102
RTVSPropertyOp3
 70
     1
102
RTVSPropertyOp4
 70
     1
102
RTVSPropertyOp5
 70
     1
102
RTVSPropertyOp6
 70
     1
102
RTVSPropertyOp7
 70
     1
102
RTVSPropertyOp8
 70
     1
102
RTVSPropertyOp9
 70
     1
102
RTVSPropertyOp10
 70
     1
102
RTVSPropertyOp11
 70
     1
102
RTVSPropertyOp12
 70
     1
102
RTVSPropertyOp13
 70
     1
102
RTVSPropertyOp14
 70
     1
102
RTVSPropertyOp15
 70
     1
102
RTVSPropertyOp16
 70
     1
102
RTVSPropertyOp17
 70
     1
102
RTVSPropertyOp18
 70
     1
102
RTVSPropertyOp19
 70
     1
102
RTVSPropertyOp20
 70
     1
102
RTVSPropertyOp21
 70
     1
102
RTVSPropertyOp22
 70
     1
102
RTVSPropertyOp23
 70
     1
102
RTVSPropertyOp24
 70
     1
102
RTVSPropertyOp25
 70
     1
102
RTVSPropertyOp26
 70
     1
102
RTVSPropertyOp27
 70
     1
102
RTVSPropertyOp28
 70
     1
102
RTVSPropertyOp29
 70
     1
102
RTVSPropertyOp30
 70
     1
102
RTVSPropertyOp31
 70
     1
102
RTVSPropertyOp32
 70
     1
102
RTVSPropertyOp33
 70
     1
102
RTVSPropertyOp34
 70
     1
102
RTVSPropertyOp35
 70
     1
102
RTVSPropertyOp36
 70
     1
102
RTVSPropertyOp37
 70
     1
102
RTVSPropertyOp38
 70
     1
102
RTVSPropertyOp39
 70
     1
102
RTVSPropertyOp40
 70
     1
102
RTVSPropertyOp41
 70
     1
102
RTVSPropertyOp42
 70
     1
102
RTVSPropertyOp43
 70
     1
102
RTVSPropertyOp44
 70
     1
102
RTVSPropertyOp45
 70
     1
102
RTVSPropertyOp46
 70
     1
102
RTVSPropertyOp47
 70
     1
102
RTVSPropertyOp48
 70
     1
102
RTVSPropertyOp49
 70
     1
102
RTVSPropertyOp50
 70
     1
102
RTVSPropertyOp51
 70
     0
102
RTVSPropertyOp52
 70
     0
102
RTVSPropertyOp53
 70
     1
102
RTVSPropertyOp54
 70
     1
102
RTVSPropertyOp55
 70
     1
102
RTVSPropertyOp56
 70
     1
102
RTVSPropertyOp57
 70
     1
102
RTVSPost2010Prop28
280
     0
102
RTVSPost2010PropOp28
 70
     1
102
RTVSPost2010Prop29
280
     1
102
RTVSPost2010PropOp29
 70
     1
102
RTVSPost2010Prop30
280
     1
102
RTVSPost2010PropOp30
 70
     1
102
RTVSPost2010Prop31
280
     0
102
RTVSPost2010PropOp31
 70
     1
102
RTVSPost2010Prop32
280
     0
102
RTVSPost2010PropOp32
 70
     1
102
RTVSPost2010Prop33
280
     0
102
RTVSPost2010PropOp33
 70
     1
102
RTVSPost2010Prop34
280
     0
102
RTVSPost2010PropOp34
 70
     1
102
RTVSPost2010Prop35
280
     0
102
RTVSPost2010PropOp35
 70
     1
102
RTVSPost2010Prop36
280
     0
102
RTVSPost2010PropOp36
 70
     1
102
RTVSPost2010Prop37
 90
       50
102
RTVSPost2010PropOp37
 70
     1
102
RTVSPost2010Prop38
140
0.0
102
RTVSPost2010PropOp38
 70
     1
102
RTVSPost2010Prop39
140
1.0
102
RTVSPost2010PropOp39
 70
     1
102
RTVSPost2010Prop40
 90
        0
102
RTVSPost2010PropOp40
 70
     1
102
RTVSPost2010Prop41ColorIndex
 90
       18
102
RTVSPost2010Prop41ColorRGB
 90
        0
102
RTVSPost2010PropOp41
 70
     1
102
RTVSPost2010Prop42
 90
       50
102
RTVSPost2010PropOp42
 70
     1
102
RTVSPost2010Prop43
 90
        3
102
RTVSPost2010PropOp43
 70
     1
102
RTVSPost2010Prop44ColorIndex
 90
        5
102
RTVSPost2010Prop44ColorRGB
 90
      255
102
RTVSPost2010PropOp44
 70
     1
102
RTVSPost2010Prop45
280
     0
102
RTVSPost2010PropOp45
 70
     1
102
RTVSPost2010Prop46
 90
       50
102
RTVSPost2010PropOp46
 70
     1
102
RTVSPost2010Prop47
 90
       50
102
RTVSPost2010PropOp47
 70
     1
102
RTVSPost2010Prop48
 90
       50
102
RTVSPost2010PropOp48
 70
     1
102
RTVSPost2010Prop49
280
     0
102
RTVSPost2010PropOp49
 70
     1
102
RTVSPost2010Prop50
 90
       50
102
RTVSPost2010PropOp50
 70
     1
102
RTVSPost2010Prop51ColorIndex
 90
      256
102
RTVSPost2010Prop51ColorRGB
 90
-16777216
102
RTVSPost2010PropOp51
 70
     0
102
RTVSPost2010Prop52
140
1.0
102
RTVSPost2010PropOp52
 70
     0
102
RTVSPost2010Prop53
 90
        2
102
RTVSPost2010PropOp53
 70
     1
102
RTVSPost2010Prop54
  1
strokes_ogs.tif
102
RTVSPost2010PropOp54
 70
     1
102
RTVSPost2010Prop55
280
     0
102
RTVSPost2010PropOp55
 70
     1
102
RTVSPost2010Prop56
140
1.0
102
RTVSPost2010PropOp56
 70
     1
102
RTVSPost2010Prop57
140
1.0
102
RTVSPost2010PropOp57
 70
     1
  0
XRECORD
  5
2E5
102
{ACAD_REACTORS
330
2E4
102
}
330
2E4
100
AcDbXrecord
280
     1
102
RTVSPropertyOp0
 70
     1
102
RTVSPropertyOp1
 70
     1
102
RTVSPropertyOp2
 70
     1
102
RTVSPropertyOp3
 70
     1
102
RTVSPropertyOp4
 70
     1
102
RTVSPropertyOp5
 70
     1
102
RTVSPropertyOp6
 70
     1
102
RTVSPropertyOp7
 70
     1
102
RTVSPropertyOp8
 70
     1
102
RTVSPropertyOp9
 70
     1
102
RTVSPropertyOp10
 70
     1
102
RTVSPropertyOp11
 70
     1
102
RTVSPropertyOp12
 70
     1
102
RTVSPropertyOp13
 70
     1
102
RTVSPropertyOp14
 70
     1
102
RTVSPropertyOp15
 70
     1
102
RTVSPropertyOp16
 70
     1
102
RTVSPropertyOp17
 70
     1
102
RTVSPropertyOp18
 70
     1
102
RTVSPropertyOp19
 70
     1
102
RTVSPropertyOp20
 70
     1
102
RTVSPropertyOp21
 70
     1
102
RTVSPropertyOp22
 70
     1
102
RTVSPropertyOp23
 70
     1
102
RTVSPropertyOp24
 70
     1
102
RTVSPropertyOp25
 70
     1
102
RTVSPropertyOp26
 70
     1
102
RTVSPropertyOp27
 70
     1
102
RTVSPropertyOp28
 70
     1
102
RTVSPropertyOp29
 70
     1
102
RTVSPropertyOp30
 70
     1
102
RTVSPropertyOp31
 70
     1
102
RTVSPropertyOp32
 70
     1
102
RTVSPropertyOp33
 70
     1
102
RTVSPropertyOp34
 70
     1
102
RTVSPropertyOp35
 70
     1
102
RTVSPropertyOp36
 70
     1
102
RTVSPropertyOp37
 70
     1
102
RTVSPropertyOp38
 70
     1
102
RTVSPropertyOp39
 70
     1
102
RTVSPropertyOp40
 70
     1
102
RTVSPropertyOp41
 70
     1
102
RTVSPropertyOp42
 70
     1
102
RTVSPropertyOp43
 70
     1
102
RTVSPropertyOp44
 70
     1
102
RTVSPropertyOp45
 70
     1
102
RTVSPropertyOp46
 70
     1
102
RTVSPropertyOp47
 70
     1
102
RTVSPropertyOp48
 70
     1
102
RTVSPropertyOp49
 70
     1
102
RTVSPropertyOp50
 70
     1
102
RTVSPropertyOp51
 70
     0
102
RTVSPropertyOp52
 70
     0
102
RTVSPropertyOp53
 70
     1
102
RTVSPropertyOp54
 70
     1
102
RTVSPropertyOp55
 70
     1
102
RTVSPropertyOp56
 70
     1
102
RTVSPropertyOp57
 70
     1
102
RTVSPost2010Prop28
280
     0
102
RTVSPost2010PropOp28
 70
     1
102
RTVSPost2010Prop29
280
     1
102
RTVSPost2010PropOp29
 70
     1
102
RTVSPost2010Prop30
280
     1
102
RTVSPost2010PropOp30
 70
     1
102
RTVSPost2010Prop31
280
     0
102
RTVSPost2010PropOp31
 70
     1
102
RTVSPost2010Prop32
280
     0
102
RTVSPost2010PropOp32
 70
     1
102
RTVSPost2010Prop33
280
     0
102
RTVSPost2010PropOp33
 70
     1
102
RTVSPost2010Prop34
280
     0
102
RTVSPost2010PropOp34
 70
     1
102
RTVSPost2010Prop35
280
     0
102
RTVSPost2010PropOp35
 70
     1
102
RTVSPost2010Prop36
280
     0
102
RTVSPost2010PropOp36
 70
     1
102
RTVSPost2010Prop37
 90
       50
102
RTVSPost2010PropOp37
 70
     1
102
RTVSPost2010Prop38
140
0.0
102
RTVSPost2010PropOp38
 70
     1
102
RTVSPost2010Prop39
140
1.0
102
RTVSPost2010PropOp39
 70
     1
102
RTVSPost2010Prop40
 90
        0
102
RTVSPost2010PropOp40
 70
     1
102
RTVSPost2010Prop41ColorIndex
 90
       18
102
RTVSPost2010Prop41ColorRGB
 90
        0
102
RTVSPost2010PropOp41
 70
     1
102
RTVSPost2010Prop42
 90
       50
102
RTVSPost2010PropOp42
 70
     1
102
RTVSPost2010Prop43
 90
        3
102
RTVSPost2010PropOp43
 70
     1
102
RTVSPost2010Prop44ColorIndex
 90
        5
102
RTVSPost2010Prop44ColorRGB
 90
      255
102
RTVSPost2010PropOp44
 70
     1
102
RTVSPost2010Prop45
280
     0
102
RTVSPost2010PropOp45
 70
     1
102
RTVSPost2010Prop46
 90
       50
102
RTVSPost2010PropOp46
 70
     1
102
RTVSPost2010Prop47
 90
       50
102
RTVSPost2010PropOp47
 70
     1
102
RTVSPost2010Prop48
 90
       50
102
RTVSPost2010PropOp48
 70
     1
102
RTVSPost2010Prop49
280
     0
102
RTVSPost2010PropOp49
 70
     1
102
RTVSPost2010Prop50
 90
       50
102
RTVSPost2010PropOp50
 70
     1
102
RTVSPost2010Prop51ColorIndex
 90
      256
102
RTVSPost2010Prop51ColorRGB
 90
-16777216
102
RTVSPost2010PropOp51
 70
     0
102
RTVSPost2010Prop52
140
1.0
102
RTVSPost2010PropOp52
 70
     0
102
RTVSPost2010Prop53
 90
        2
102
RTVSPost2010PropOp53
 70
     1
102
RTVSPost2010Prop54
  1
strokes_ogs.tif
102
RTVSPost2010PropOp54
 70
     1
102
RTVSPost2010Prop55
280
     0
102
RTVSPost2010PropOp55
 70
     1
102
RTVSPost2010Prop56
140
1.0
102
RTVSPost2010PropOp56
 70
     1
102
RTVSPost2010Prop57
140
1.0
102
RTVSPost2010PropOp57
 70
     1
  0
XRECORD
  5
2E7
102
{ACAD_REACTORS
330
2E6
102
}
330
2E6
100
AcDbXrecord
280
     1
102
RTVSPropertyOp0
 70
     1
102
RTVSPropertyOp1
 70
     1
102
RTVSPropertyOp2
 70
     1
102
RTVSPropertyOp3
 70
     1
102
RTVSPropertyOp4
 70
     1
102
RTVSPropertyOp5
 70
     1
102
RTVSPropertyOp6
 70
     1
102
RTVSPropertyOp7
 70
     1
102
RTVSPropertyOp8
 70
     1
102
RTVSPropertyOp9
 70
     1
102
RTVSPropertyOp10
 70
     1
102
RTVSPropertyOp11
 70
     1
102
RTVSPropertyOp12
 70
     1
102
RTVSPropertyOp13
 70
     1
102
RTVSPropertyOp14
 70
     1
102
RTVSPropertyOp15
 70
     1
102
RTVSPropertyOp16
 70
     1
102
RTVSPropertyOp17
 70
     1
102
RTVSPropertyOp18
 70
     1
102
RTVSPropertyOp19
 70
     1
102
RTVSPropertyOp20
 70
     1
102
RTVSPropertyOp21
 70
     1
102
RTVSPropertyOp22
 70
     1
102
RTVSPropertyOp23
 70
     1
102
RTVSPropertyOp24
 70
     1
102
RTVSPropertyOp25
 70
     1
102
RTVSPropertyOp26
 70
     1
102
RTVSPropertyOp27
 70
     1
102
RTVSPropertyOp28
 70
     1
102
RTVSPropertyOp29
 70
     1
102
RTVSPropertyOp30
 70
     1
102
RTVSPropertyOp31
 70
     1
102
RTVSPropertyOp32
 70
     1
102
RTVSPropertyOp33
 70
     1
102
RTVSPropertyOp34
 70
     1
102
RTVSPropertyOp35
 70
     1
102
RTVSPropertyOp36
 70
     1
102
RTVSPropertyOp37
 70
     1
102
RTVSPropertyOp38
 70
     1
102
RTVSPropertyOp39
 70
     1
102
RTVSPropertyOp40
 70
     1
102
RTVSPropertyOp41
 70
     1
102
RTVSPropertyOp42
 70
     1
102
RTVSPropertyOp43
 70
     1
102
RTVSPropertyOp44
 70
     1
102
RTVSPropertyOp45
 70
     1
102
RTVSPropertyOp46
 70
     1
102
RTVSPropertyOp47
 70
     1
102
RTVSPropertyOp48
 70
     1
102
RTVSPropertyOp49
 70
     1
102
RTVSPropertyOp50
 70
     1
102
RTVSPropertyOp51
 70
     0
102
RTVSPropertyOp52
 70
     0
102
RTVSPropertyOp53
 70
     1
102
RTVSPropertyOp54
 70
     1
102
RTVSPropertyOp55
 70
     1
102
RTVSPropertyOp56
 70
     1
102
RTVSPropertyOp57
 70
     1
102
RTVSPost2010Prop28
280
     0
102
RTVSPost2010PropOp28
 70
     1
102
RTVSPost2010Prop29
280
     1
102
RTVSPost2010PropOp29
 70
     1
102
RTVSPost2010Prop30
280
     1
102
RTVSPost2010PropOp30
 70
     1
102
RTVSPost2010Prop31
280
     0
102
RTVSPost2010PropOp31
 70
     1
102
RTVSPost2010Prop32
280
     0
102
RTVSPost2010PropOp32
 70
     1
102
RTVSPost2010Prop33
280
     0
102
RTVSPost2010PropOp33
 70
     1
102
RTVSPost2010Prop34
280
     0
102
RTVSPost2010PropOp34
 70
     1
102
RTVSPost2010Prop35
280
     0
102
RTVSPost2010PropOp35
 70
     1
102
RTVSPost2010Prop36
280
     0
102
RTVSPost2010PropOp36
 70
     1
102
RTVSPost2010Prop37
 90
       50
102
RTVSPost2010PropOp37
 70
     1
102
RTVSPost2010Prop38
140
0.0
102
RTVSPost2010PropOp38
 70
     1
102
RTVSPost2010Prop39
140
1.0
102
RTVSPost2010PropOp39
 70
     1
102
RTVSPost2010Prop40
 90
        0
102
RTVSPost2010PropOp40
 70
     1
102
RTVSPost2010Prop41ColorIndex
 90
       18
102
RTVSPost2010Prop41ColorRGB
 90
        0
102
RTVSPost2010PropOp41
 70
     1
102
RTVSPost2010Prop42
 90
       50
102
RTVSPost2010PropOp42
 70
     1
102
RTVSPost2010Prop43
 90
        3
102
RTVSPost2010PropOp43
 70
     1
102
RTVSPost2010Prop44ColorIndex
 90
        5
102
RTVSPost2010Prop44ColorRGB
 90
      255
102
RTVSPost2010PropOp44
 70
     1
102
RTVSPost2010Prop45
280
     0
102
RTVSPost2010PropOp45
 70
     1
102
RTVSPost2010Prop46
 90
       50
102
RTVSPost2010PropOp46
 70
     1
102
RTVSPost2010Prop47
 90
       50
102
RTVSPost2010PropOp47
 70
     1
102
RTVSPost2010Prop48
 90
       50
102
RTVSPost2010PropOp48
 70
     1
102
RTVSPost2010Prop49
280
     0
102
RTVSPost2010PropOp49
 70
     1
102
RTVSPost2010Prop50
 90
       50
102
RTVSPost2010PropOp50
 70
     1
102
RTVSPost2010Prop51ColorIndex
 90
      256
102
RTVSPost2010Prop51ColorRGB
 90
-16777216
102
RTVSPost2010PropOp51
 70
     0
102
RTVSPost2010Prop52
140
1.0
102
RTVSPost2010PropOp52
 70
     0
102
RTVSPost2010Prop53
 90
        2
102
RTVSPost2010PropOp53
 70
     1
102
RTVSPost2010Prop54
  1
strokes_ogs.tif
102
RTVSPost2010PropOp54
 70
     1
102
RTVSPost2010Prop55
280
     0
102
RTVSPost2010PropOp55
 70
     1
102
RTVSPost2010Prop56
140
1.0
102
RTVSPost2010PropOp56
 70
     1
102
RTVSPost2010Prop57
140
1.0
102
RTVSPost2010PropOp57
 70
     1
  0
XRECORD
  5
2E9
102
{ACAD_REACTORS
330
2E8
102
}
330
2E8
100
AcDbXrecord
280
     1
102
RTVSPropertyOp0
 70
     1
102
RTVSPropertyOp1
 70
     1
102
RTVSPropertyOp2
 70
     1
102
RTVSPropertyOp3
 70
     1
102
RTVSPropertyOp4
 70
     1
102
RTVSPropertyOp5
 70
     1
102
RTVSPropertyOp6
 70
     1
102
RTVSPropertyOp7
 70
     1
102
RTVSPropertyOp8
 70
     1
102
RTVSPropertyOp9
 70
     1
102
RTVSPropertyOp10
 70
     1
102
RTVSPropertyOp11
 70
     1
102
RTVSPropertyOp12
 70
     1
102
RTVSPropertyOp13
 70
     1
102
RTVSPropertyOp14
 70
     1
102
RTVSPropertyOp15
 70
     1
102
RTVSPropertyOp16
 70
     1
102
RTVSPropertyOp17
 70
     1
102
RTVSPropertyOp18
 70
     1
102
RTVSPropertyOp19
 70
     1
102
RTVSPropertyOp20
 70
     1
102
RTVSPropertyOp21
 70
     1
102
RTVSPropertyOp22
 70
     1
102
RTVSPropertyOp23
 70
     1
102
RTVSPropertyOp24
 70
     1
102
RTVSPropertyOp25
 70
     1
102
RTVSPropertyOp26
 70
     1
102
RTVSPropertyOp27
 70
     1
102
RTVSPropertyOp28
 70
     1
102
RTVSPropertyOp29
 70
     1
102
RTVSPropertyOp30
 70
     1
102
RTVSPropertyOp31
 70
     1
102
RTVSPropertyOp32
 70
     1
102
RTVSPropertyOp33
 70
     1
102
RTVSPropertyOp34
 70
     1
102
RTVSPropertyOp35
 70
     1
102
RTVSPropertyOp36
 70
     1
102
RTVSPropertyOp37
 70
     1
102
RTVSPropertyOp38
 70
     1
102
RTVSPropertyOp39
 70
     1
102
RTVSPropertyOp40
 70
     1
102
RTVSPropertyOp41
 70
     1
102
RTVSPropertyOp42
 70
     1
102
RTVSPropertyOp43
 70
     1
102
RTVSPropertyOp44
 70
     1
102
RTVSPropertyOp45
 70
     1
102
RTVSPropertyOp46
 70
     1
102
RTVSPropertyOp47
 70
     1
102
RTVSPropertyOp48
 70
     1
102
RTVSPropertyOp49
 70
     1
102
RTVSPropertyOp50
 70
     1
102
RTVSPropertyOp51
 70
     0
102
RTVSPropertyOp52
 70
     0
102
RTVSPropertyOp53
 70
     1
102
RTVSPropertyOp54
 70
     1
102
RTVSPropertyOp55
 70
     1
102
RTVSPropertyOp56
 70
     1
102
RTVSPropertyOp57
 70
     1
102
RTVSPost2010Prop28
280
     0
102
RTVSPost2010PropOp28
 70
     1
102
RTVSPost2010Prop29
280
     1
102
RTVSPost2010PropOp29
 70
     1
102
RTVSPost2010Prop30
280
     1
102
RTVSPost2010PropOp30
 70
     1
102
RTVSPost2010Prop31
280
     0
102
RTVSPost2010PropOp31
 70
     1
102
RTVSPost2010Prop32
280
     0
102
RTVSPost2010PropOp32
 70
     1
102
RTVSPost2010Prop33
280
     0
102
RTVSPost2010PropOp33
 70
     1
102
RTVSPost2010Prop34
280
     0
102
RTVSPost2010PropOp34
 70
     1
102
RTVSPost2010Prop35
280
     0
102
RTVSPost2010PropOp35
 70
     1
102
RTVSPost2010Prop36
280
     0
102
RTVSPost2010PropOp36
 70
     1
102
RTVSPost2010Prop37
 90
       50
102
RTVSPost2010PropOp37
 70
     1
102
RTVSPost2010Prop38
140
0.0
102
RTVSPost2010PropOp38
 70
     1
102
RTVSPost2010Prop39
140
1.0
102
RTVSPost2010PropOp39
 70
     1
102
RTVSPost2010Prop40
 90
        0
102
RTVSPost2010PropOp40
 70
     1
102
RTVSPost2010Prop41ColorIndex
 90
       18
102
RTVSPost2010Prop41ColorRGB
 90
        0
102
RTVSPost2010PropOp41
 70
     1
102
RTVSPost2010Prop42
 90
       50
102
RTVSPost2010PropOp42
 70
     1
102
RTVSPost2010Prop43
 90
        3
102
RTVSPost2010PropOp43
 70
     1
102
RTVSPost2010Prop44ColorIndex
 90
        5
102
RTVSPost2010Prop44ColorRGB
 90
      255
102
RTVSPost2010PropOp44
 70
     1
102
RTVSPost2010Prop45
280
     0
102
RTVSPost2010PropOp45
 70
     1
102
RTVSPost2010Prop46
 90
       50
102
RTVSPost2010PropOp46
 70
     1
102
RTVSPost2010Prop47
 90
       50
102
RTVSPost2010PropOp47
 70
     1
102
RTVSPost2010Prop48
 90
       50
102
RTVSPost2010PropOp48
 70
     1
102
RTVSPost2010Prop49
280
     0
102
RTVSPost2010PropOp49
 70
     1
102
RTVSPost2010Prop50
 90
       50
102
RTVSPost2010PropOp50
 70
     1
102
RTVSPost2010Prop51ColorIndex
 90
      256
102
RTVSPost2010Prop51ColorRGB
 90
-16777216
102
RTVSPost2010PropOp51
 70
     0
102
RTVSPost2010Prop52
140
1.0
102
RTVSPost2010PropOp52
 70
     0
102
RTVSPost2010Prop53
 90
        2
102
RTVSPost2010PropOp53
 70
     1
102
RTVSPost2010Prop54
  1
strokes_ogs.tif
102
RTVSPost2010PropOp54
 70
     1
102
RTVSPost2010Prop55
280
     0
102
RTVSPost2010PropOp55
 70
     1
102
RTVSPost2010Prop56
140
1.0
102
RTVSPost2010PropOp56
 70
     1
102
RTVSPost2010Prop57
140
1.0
102
RTVSPost2010PropOp57
 70
     1
  0
XRECORD
  5
2EB
102
{ACAD_REACTORS
330
2EA
102
}
330
2EA
100
AcDbXrecord
280
     1
102
RTVSPropertyOp0
 70
     1
102
RTVSPropertyOp1
 70
     1
102
RTVSPropertyOp2
 70
     1
102
RTVSPropertyOp3
 70
     1
102
RTVSPropertyOp4
 70
     1
102
RTVSPropertyOp5
 70
     1
102
RTVSPropertyOp6
 70
     1
102
RTVSPropertyOp7
 70
     1
102
RTVSPropertyOp8
 70
     1
102
RTVSPropertyOp9
 70
     1
102
RTVSPropertyOp10
 70
     1
102
RTVSPropertyOp11
 70
     1
102
RTVSPropertyOp12
 70
     1
102
RTVSPropertyOp13
 70
     1
102
RTVSPropertyOp14
 70
     1
102
RTVSPropertyOp15
 70
     1
102
RTVSPropertyOp16
 70
     1
102
RTVSPropertyOp17
 70
     1
102
RTVSPropertyOp18
 70
     1
102
RTVSPropertyOp19
 70
     1
102
RTVSPropertyOp20
 70
     1
102
RTVSPropertyOp21
 70
     1
102
RTVSPropertyOp22
 70
     1
102
RTVSPropertyOp23
 70
     1
102
RTVSPropertyOp24
 70
     1
102
RTVSPropertyOp25
 70
     1
102
RTVSPropertyOp26
 70
     1
102
RTVSPropertyOp27
 70
     1
102
RTVSPropertyOp28
 70
     1
102
RTVSPropertyOp29
 70
     1
102
RTVSPropertyOp30
 70
     1
102
RTVSPropertyOp31
 70
     1
102
RTVSPropertyOp32
 70
     1
102
RTVSPropertyOp33
 70
     1
102
RTVSPropertyOp34
 70
     1
102
RTVSPropertyOp35
 70
     1
102
RTVSPropertyOp36
 70
     1
102
RTVSPropertyOp37
 70
     1
102
RTVSPropertyOp38
 70
     1
102
RTVSPropertyOp39
 70
     1
102
RTVSPropertyOp40
 70
     1
102
RTVSPropertyOp41
 70
     1
102
RTVSPropertyOp42
 70
     1
102
RTVSPropertyOp43
 70
     1
102
RTVSPropertyOp44
 70
     1
102
RTVSPropertyOp45
 70
     1
102
RTVSPropertyOp46
 70
     1
102
RTVSPropertyOp47
 70
     1
102
RTVSPropertyOp48
 70
     1
102
RTVSPropertyOp49
 70
     1
102
RTVSPropertyOp50
 70
     1
102
RTVSPropertyOp51
 70
     0
102
RTVSPropertyOp52
 70
     0
102
RTVSPropertyOp53
 70
     1
102
RTVSPropertyOp54
 70
     1
102
RTVSPropertyOp55
 70
     1
102
RTVSPropertyOp56
 70
     1
102
RTVSPropertyOp57
 70
     1
102
RTVSPost2010Prop28
280
     0
102
RTVSPost2010PropOp28
 70
     1
102
RTVSPost2010Prop29
280
     1
102
RTVSPost2010PropOp29
 70
     1
102
RTVSPost2010Prop30
280
     1
102
RTVSPost2010PropOp30
 70
     1
102
RTVSPost2010Prop31
280
     0
102
RTVSPost2010PropOp31
 70
     1
102
RTVSPost2010Prop32
280
     0
102
RTVSPost2010PropOp32
 70
     1
102
RTVSPost2010Prop33
280
     0
102
RTVSPost2010PropOp33
 70
     1
102
RTVSPost2010Prop34
280
     0
102
RTVSPost2010PropOp34
 70
     1
102
RTVSPost2010Prop35
280
     0
102
RTVSPost2010PropOp35
 70
     1
102
RTVSPost2010Prop36
280
     0
102
RTVSPost2010PropOp36
 70
     1
102
RTVSPost2010Prop37
 90
       50
102
RTVSPost2010PropOp37
 70
     1
102
RTVSPost2010Prop38
140
0.0
102
RTVSPost2010PropOp38
 70
     1
102
RTVSPost2010Prop39
140
1.0
102
RTVSPost2010PropOp39
 70
     1
102
RTVSPost2010Prop40
 90
        0
102
RTVSPost2010PropOp40
 70
     1
102
RTVSPost2010Prop41ColorIndex
 90
       18
102
RTVSPost2010Prop41ColorRGB
 90
        0
102
RTVSPost2010PropOp41
 70
     1
102
RTVSPost2010Prop42
 90
       50
102
RTVSPost2010PropOp42
 70
     1
102
RTVSPost2010Prop43
 90
        3
102
RTVSPost2010PropOp43
 70
     1
102
RTVSPost2010Prop44ColorIndex
 90
        5
102
RTVSPost2010Prop44ColorRGB
 90
      255
102
RTVSPost2010PropOp44
 70
     1
102
RTVSPost2010Prop45
280
     0
102
RTVSPost2010PropOp45
 70
     1
102
RTVSPost2010Prop46
 90
       50
102
RTVSPost2010PropOp46
 70
     1
102
RTVSPost2010Prop47
 90
       50
102
RTVSPost2010PropOp47
 70
     1
102
RTVSPost2010Prop48
 90
       50
102
RTVSPost2010PropOp48
 70
     1
102
RTVSPost2010Prop49
280
     0
102
RTVSPost2010PropOp49
 70
     1
102
RTVSPost2010Prop50
 90
       50
102
RTVSPost2010PropOp50
 70
     1
102
RTVSPost2010Prop51ColorIndex
 90
      256
102
RTVSPost2010Prop51ColorRGB
 90
-16777216
102
RTVSPost2010PropOp51
 70
     0
102
RTVSPost2010Prop52
140
1.0
102
RTVSPost2010PropOp52
 70
     0
102
RTVSPost2010Prop53
 90
        2
102
RTVSPost2010PropOp53
 70
     1
102
RTVSPost2010Prop54
  1
strokes_ogs.tif
102
RTVSPost2010PropOp54
 70
     1
102
RTVSPost2010Prop55
280
     0
102
RTVSPost2010PropOp55
 70
     1
102
RTVSPost2010Prop56
140
1.0
102
RTVSPost2010PropOp56
 70
     1
102
RTVSPost2010Prop57
140
1.0
102
RTVSPost2010PropOp57
 70
     1
  0
XRECORD
  5
2F1
102
{ACAD_REACTORS
330
2F0
102
}
330
2F0
100
AcDbXrecord
280
     1
102
RTVSPropertyOp0
 70
     1
102
RTVSPropertyOp1
 70
     1
102
RTVSPropertyOp2
 70
     1
102
RTVSPropertyOp3
 70
     1
102
RTVSPropertyOp4
 70
     1
102
RTVSPropertyOp5
 70
     1
102
RTVSPropertyOp6
 70
     1
102
RTVSPropertyOp7
 70
     1
102
RTVSPropertyOp8
 70
     1
102
RTVSPropertyOp9
 70
     1
102
RTVSPropertyOp10
 70
     1
102
RTVSPropertyOp11
 70
     1
102
RTVSPropertyOp12
 70
     1
102
RTVSPropertyOp13
 70
     1
102
RTVSPropertyOp14
 70
     1
102
RTVSPropertyOp15
 70
     1
102
RTVSPropertyOp16
 70
     1
102
RTVSPropertyOp17
 70
     1
102
RTVSPropertyOp18
 70
     1
102
RTVSPropertyOp19
 70
     1
102
RTVSPropertyOp20
 70
     1
102
RTVSPropertyOp21
 70
     1
102
RTVSPropertyOp22
 70
     1
102
RTVSPropertyOp23
 70
     1
102
RTVSPropertyOp24
 70
     1
102
RTVSPropertyOp25
 70
     1
102
RTVSPropertyOp26
 70
     1
102
RTVSPropertyOp27
 70
     1
102
RTVSPropertyOp28
 70
     1
102
RTVSPropertyOp29
 70
     1
102
RTVSPropertyOp30
 70
     1
102
RTVSPropertyOp31
 70
     1
102
RTVSPropertyOp32
 70
     1
102
RTVSPropertyOp33
 70
     1
102
RTVSPropertyOp34
 70
     1
102
RTVSPropertyOp35
 70
     1
102
RTVSPropertyOp36
 70
     1
102
RTVSPropertyOp37
 70
     1
102
RTVSPropertyOp38
 70
     1
102
RTVSPropertyOp39
 70
     1
102
RTVSPropertyOp40
 70
     1
102
RTVSPropertyOp41
 70
     1
102
RTVSPropertyOp42
 70
     1
102
RTVSPropertyOp43
 70
     1
102
RTVSPropertyOp44
 70
     1
102
RTVSPropertyOp45
 70
     1
102
RTVSPropertyOp46
 70
     1
102
RTVSPropertyOp47
 70
     1
102
RTVSPropertyOp48
 70
     1
102
RTVSPropertyOp49
 70
     1
102
RTVSPropertyOp50
 70
     1
102
RTVSPropertyOp51
 70
     0
102
RTVSPropertyOp52
 70
     0
102
RTVSPropertyOp53
 70
     1
102
RTVSPropertyOp54
 70
     1
102
RTVSPropertyOp55
 70
     1
102
RTVSPropertyOp56
 70
     1
102
RTVSPropertyOp57
 70
     1
102
RTVSPost2010Prop28
280
     0
102
RTVSPost2010PropOp28
 70
     1
102
RTVSPost2010Prop29
280
     1
102
RTVSPost2010PropOp29
 70
     1
102
RTVSPost2010Prop30
280
     1
102
RTVSPost2010PropOp30
 70
     1
102
RTVSPost2010Prop31
280
     0
102
RTVSPost2010PropOp31
 70
     1
102
RTVSPost2010Prop32
280
     0
102
RTVSPost2010PropOp32
 70
     1
102
RTVSPost2010Prop33
280
     0
102
RTVSPost2010PropOp33
 70
     1
102
RTVSPost2010Prop34
280
     0
102
RTVSPost2010PropOp34
 70
     1
102
RTVSPost2010Prop35
280
     0
102
RTVSPost2010PropOp35
 70
     1
102
RTVSPost2010Prop36
280
     0
102
RTVSPost2010PropOp36
 70
     1
102
RTVSPost2010Prop37
 90
       50
102
RTVSPost2010PropOp37
 70
     1
102
RTVSPost2010Prop38
140
0.0
102
RTVSPost2010PropOp38
 70
     1
102
RTVSPost2010Prop39
140
1.0
102
RTVSPost2010PropOp39
 70
     1
102
RTVSPost2010Prop40
 90
        0
102
RTVSPost2010PropOp40
 70
     1
102
RTVSPost2010Prop41ColorIndex
 90
       18
102
RTVSPost2010Prop41ColorRGB
 90
        0
102
RTVSPost2010PropOp41
 70
     1
102
RTVSPost2010Prop42
 90
       50
102
RTVSPost2010PropOp42
 70
     1
102
RTVSPost2010Prop43
 90
        3
102
RTVSPost2010PropOp43
 70
     1
102
RTVSPost2010Prop44ColorIndex
 90
        5
102
RTVSPost2010Prop44ColorRGB
 90
      255
102
RTVSPost2010PropOp44
 70
     1
102
RTVSPost2010Prop45
280
     0
102
RTVSPost2010PropOp45
 70
     1
102
RTVSPost2010Prop46
 90
       50
102
RTVSPost2010PropOp46
 70
     1
102
RTVSPost2010Prop47
 90
       50
102
RTVSPost2010PropOp47
 70
     1
102
RTVSPost2010Prop48
 90
       50
102
RTVSPost2010PropOp48
 70
     1
102
RTVSPost2010Prop49
280
     0
102
RTVSPost2010PropOp49
 70
     1
102
RTVSPost2010Prop50
 90
       50
102
RTVSPost2010PropOp50
 70
     1
102
RTVSPost2010Prop51ColorIndex
 90
      256
102
RTVSPost2010Prop51ColorRGB
 90
-16777216
102
RTVSPost2010PropOp51
 70
     0
102
RTVSPost2010Prop52
140
1.0
102
RTVSPost2010PropOp52
 70
     0
102
RTVSPost2010Prop53
 90
        2
102
RTVSPost2010PropOp53
 70
     1
102
RTVSPost2010Prop54
  1
strokes_ogs.tif
102
RTVSPost2010PropOp54
 70
     1
102
RTVSPost2010Prop55
280
     0
102
RTVSPost2010PropOp55
 70
     1
102
RTVSPost2010Prop56
140
1.0
102
RTVSPost2010PropOp56
 70
     1
102
RTVSPost2010Prop57
140
1.0
102
RTVSPost2010PropOp57
 70
     1
  0
XRECORD
  5
305
102
{ACAD_REACTORS
330
304
102
}
330
304
100
AcDbXrecord
280
     1
102
RTVSPropertyOp0
 70
     0
102
RTVSPropertyOp1
 70
     0
102
RTVSPropertyOp2
 70
     0
102
RTVSPropertyOp3
 70
     0
102
RTVSPropertyOp4
 70
     0
102
RTVSPropertyOp5
 70
     0
102
RTVSPropertyOp6
 70
     0
102
RTVSPropertyOp7
 70
     0
102
RTVSPropertyOp8
 70
     0
102
RTVSPropertyOp9
 70
     0
102
RTVSPropertyOp10
 70
     0
102
RTVSPropertyOp11
 70
     0
102
RTVSPropertyOp12
 70
     0
102
RTVSPropertyOp13
 70
     0
102
RTVSPropertyOp14
 70
     2
102
RTVSPropertyOp15
 70
     0
102
RTVSPropertyOp16
 70
     0
102
RTVSPropertyOp17
 70
     0
102
RTVSPropertyOp18
 70
     0
102
RTVSPropertyOp19
 70
     0
102
RTVSPropertyOp20
 70
     0
102
RTVSPropertyOp21
 70
     0
102
RTVSPropertyOp22
 70
     0
102
RTVSPropertyOp23
 70
     0
102
RTVSPropertyOp24
 70
     0
102
RTVSPropertyOp25
 70
     0
102
RTVSPropertyOp26
 70
     0
102
RTVSPropertyOp27
 70
     0
102
RTVSPropertyOp28
 70
     0
102
RTVSPropertyOp29
 70
     0
102
RTVSPropertyOp30
 70
     0
102
RTVSPropertyOp31
 70
     0
102
RTVSPropertyOp32
 70
     0
102
RTVSPropertyOp33
 70
     0
102
RTVSPropertyOp34
 70
     0
102
RTVSPropertyOp35
 70
     0
102
RTVSPropertyOp36
 70
     0
102
RTVSPropertyOp37
 70
     0
102
RTVSPropertyOp38
 70
     0
102
RTVSPropertyOp39
 70
     0
102
RTVSPropertyOp40
 70
     0
102
RTVSPropertyOp41
 70
     0
102
RTVSPropertyOp42
 70
     0
102
RTVSPropertyOp43
 70
     0
102
RTVSPropertyOp44
 70
     0
102
RTVSPropertyOp45
 70
     0
102
RTVSPropertyOp46
 70
     0
102
RTVSPropertyOp47
 70
     0
102
RTVSPropertyOp48
 70
     0
102
RTVSPropertyOp49
 70
     0
102
RTVSPropertyOp50
 70
     0
102
RTVSPropertyOp51
 70
     0
102
RTVSPropertyOp52
 70
     0
102
RTVSPropertyOp53
 70
     0
102
RTVSPropertyOp54
 70
     0
102
RTVSPropertyOp55
 70
     0
102
RTVSPropertyOp56
 70
     0
102
RTVSPropertyOp57
 70
     0
102
RTVSPost2010Prop28
280
     0
102
RTVSPost2010PropOp28
 70
     0
102
RTVSPost2010Prop29
280
     1
102
RTVSPost2010PropOp29
 70
     0
102
RTVSPost2010Prop30
280
     1
102
RTVSPost2010PropOp30
 70
     0
102
RTVSPost2010Prop31
280
     0
102
RTVSPost2010PropOp31
 70
     0
102
RTVSPost2010Prop32
280
     0
102
RTVSPost2010PropOp32
 70
     0
102
RTVSPost2010Prop33
280
     0
102
RTVSPost2010PropOp33
 70
     0
102
RTVSPost2010Prop34
280
     0
102
RTVSPost2010PropOp34
 70
     0
102
RTVSPost2010Prop35
280
     0
102
RTVSPost2010PropOp35
 70
     0
102
RTVSPost2010Prop36
280
     0
102
RTVSPost2010PropOp36
 70
     0
102
RTVSPost2010Prop37
 90
       50
102
RTVSPost2010PropOp37
 70
     0
102
RTVSPost2010Prop38
140
0.0
102
RTVSPost2010PropOp38
 70
     0
102
RTVSPost2010Prop39
140
1.0
102
RTVSPost2010PropOp39
 70
     0
102
RTVSPost2010Prop40
 90
        0
102
RTVSPost2010PropOp40
 70
     0
102
RTVSPost2010Prop41ColorIndex
 90
       18
102
RTVSPost2010Prop41ColorRGB
 90
        0
102
RTVSPost2010PropOp41
 70
     0
102
RTVSPost2010Prop42
 90
       50
102
RTVSPost2010PropOp42
 70
     0
102
RTVSPost2010Prop43
 90
        3
102
RTVSPost2010PropOp43
 70
     0
102
RTVSPost2010Prop44ColorIndex
 90
        5
102
RTVSPost2010Prop44ColorRGB
 90
      255
102
RTVSPost2010PropOp44
 70
     0
102
RTVSPost2010Prop45
280
     0
102
RTVSPost2010PropOp45
 70
     0
102
RTVSPost2010Prop46
 90
       50
102
RTVSPost2010PropOp46
 70
     0
102
RTVSPost2010Prop47
 90
       50
102
RTVSPost2010PropOp47
 70
     0
102
RTVSPost2010Prop48
 90
       50
102
RTVSPost2010PropOp48
 70
     0
102
RTVSPost2010Prop49
280
     0
102
RTVSPost2010PropOp49
 70
     0
102
RTVSPost2010Prop50
 90
       50
102
RTVSPost2010PropOp50
 70
     0
102
RTVSPost2010Prop51ColorIndex
 90
      256
102
RTVSPost2010Prop51ColorRGB
 90
-16777216
102
RTVSPost2010PropOp51
 70
     0
102
RTVSPost2010Prop52
140
1.0
102
RTVSPost2010PropOp52
 70
     0
102
RTVSPost2010Prop53
 90
        2
102
RTVSPost2010PropOp53
 70
     0
102
RTVSPost2010Prop54
  1
strokes_ogs.tif
102
RTVSPost2010PropOp54
 70
     0
102
RTVSPost2010Prop55
280
     0
102
RTVSPost2010PropOp55
 70
     0
102
RTVSPost2010Prop56
140
1.0
102
RTVSPost2010PropOp56
 70
     0
102
RTVSPost2010Prop57
140
1.0
102
RTVSPost2010PropOp57
 70
     0
  0
XRECORD
  5
2FF
102
{ACAD_REACTORS
330
2FE
102
}
330
2FE
100
AcDbXrecord
280
     1
102
RTVSPropertyOp0
 70
     1
102
RTVSPropertyOp1
 70
     1
102
RTVSPropertyOp2
 70
     1
102
RTVSPropertyOp3
 70
     1
102
RTVSPropertyOp4
 70
     1
102
RTVSPropertyOp5
 70
     1
102
RTVSPropertyOp6
 70
     1
102
RTVSPropertyOp7
 70
     1
102
RTVSPropertyOp8
 70
     1
102
RTVSPropertyOp9
 70
     1
102
RTVSPropertyOp10
 70
     1
102
RTVSPropertyOp11
 70
     1
102
RTVSPropertyOp12
 70
     1
102
RTVSPropertyOp13
 70
     1
102
RTVSPropertyOp14
 70
     1
102
RTVSPropertyOp15
 70
     1
102
RTVSPropertyOp16
 70
     1
102
RTVSPropertyOp17
 70
     1
102
RTVSPropertyOp18
 70
     1
102
RTVSPropertyOp19
 70
     1
102
RTVSPropertyOp20
 70
     1
102
RTVSPropertyOp21
 70
     1
102
RTVSPropertyOp22
 70
     1
102
RTVSPropertyOp23
 70
     1
102
RTVSPropertyOp24
 70
     1
102
RTVSPropertyOp25
 70
     1
102
RTVSPropertyOp26
 70
     1
102
RTVSPropertyOp27
 70
     1
102
RTVSPropertyOp28
 70
     1
102
RTVSPropertyOp29
 70
     1
102
RTVSPropertyOp30
 70
     1
102
RTVSPropertyOp31
 70
     1
102
RTVSPropertyOp32
 70
     1
102
RTVSPropertyOp33
 70
     1
102
RTVSPropertyOp34
 70
     1
102
RTVSPropertyOp35
 70
     1
102
RTVSPropertyOp36
 70
     1
102
RTVSPropertyOp37
 70
     1
102
RTVSPropertyOp38
 70
     1
102
RTVSPropertyOp39
 70
     1
102
RTVSPropertyOp40
 70
     1
102
RTVSPropertyOp41
 70
     1
102
RTVSPropertyOp42
 70
     1
102
RTVSPropertyOp43
 70
     1
102
RTVSPropertyOp44
 70
     1
102
RTVSPropertyOp45
 70
     1
102
RTVSPropertyOp46
 70
     1
102
RTVSPropertyOp47
 70
     1
102
RTVSPropertyOp48
 70
     1
102
RTVSPropertyOp49
 70
     1
102
RTVSPropertyOp50
 70
     1
102
RTVSPropertyOp51
 70
     0
102
RTVSPropertyOp52
 70
     0
102
RTVSPropertyOp53
 70
     1
102
RTVSPropertyOp54
 70
     1
102
RTVSPropertyOp55
 70
     1
102
RTVSPropertyOp56
 70
     1
102
RTVSPropertyOp57
 70
     1
102
RTVSPost2010Prop28
280
     0
102
RTVSPost2010PropOp28
 70
     1
102
RTVSPost2010Prop29
280
     1
102
RTVSPost2010PropOp29
 70
     1
102
RTVSPost2010Prop30
280
     1
102
RTVSPost2010PropOp30
 70
     1
102
RTVSPost2010Prop31
280
     0
102
RTVSPost2010PropOp31
 70
     1
102
RTVSPost2010Prop32
280
     0
102
RTVSPost2010PropOp32
 70
     1
102
RTVSPost2010Prop33
280
     0
102
RTVSPost2010PropOp33
 70
     1
102
RTVSPost2010Prop34
280
     0
102
RTVSPost2010PropOp34
 70
     1
102
RTVSPost2010Prop35
280
     0
102
RTVSPost2010PropOp35
 70
     1
102
RTVSPost2010Prop36
280
     0
102
RTVSPost2010PropOp36
 70
     1
102
RTVSPost2010Prop37
 90
       50
102
RTVSPost2010PropOp37
 70
     1
102
RTVSPost2010Prop38
140
0.0
102
RTVSPost2010PropOp38
 70
     1
102
RTVSPost2010Prop39
140
1.0
102
RTVSPost2010PropOp39
 70
     1
102
RTVSPost2010Prop40
 90
        0
102
RTVSPost2010PropOp40
 70
     1
102
RTVSPost2010Prop41ColorIndex
 90
       18
102
RTVSPost2010Prop41ColorRGB
 90
        0
102
RTVSPost2010PropOp41
 70
     1
102
RTVSPost2010Prop42
 90
       50
102
RTVSPost2010PropOp42
 70
     1
102
RTVSPost2010Prop43
 90
        3
102
RTVSPost2010PropOp43
 70
     1
102
RTVSPost2010Prop44ColorIndex
 90
        5
102
RTVSPost2010Prop44ColorRGB
 90
      255
102
RTVSPost2010PropOp44
 70
     1
102
RTVSPost2010Prop45
280
     0
102
RTVSPost2010PropOp45
 70
     1
102
RTVSPost2010Prop46
 90
       50
102
RTVSPost2010PropOp46
 70
     1
102
RTVSPost2010Prop47
 90
       50
102
RTVSPost2010PropOp47
 70
     1
102
RTVSPost2010Prop48
 90
       50
102
RTVSPost2010PropOp48
 70
     1
102
RTVSPost2010Prop49
280
     0
102
RTVSPost2010PropOp49
 70
     1
102
RTVSPost2010Prop50
 90
       50
102
RTVSPost2010PropOp50
 70
     1
102
RTVSPost2010Prop51ColorIndex
 90
      256
102
RTVSPost2010Prop51ColorRGB
 90
-16777216
102
RTVSPost2010PropOp51
 70
     0
102
RTVSPost2010Prop52
140
1.0
102
RTVSPost2010PropOp52
 70
     0
102
RTVSPost2010Prop53
 90
        2
102
RTVSPost2010PropOp53
 70
     1
102
RTVSPost2010Prop54
  1
strokes_ogs.tif
102
RTVSPost2010PropOp54
 70
     1
102
RTVSPost2010Prop55
280
     0
102
RTVSPost2010PropOp55
 70
     1
102
RTVSPost2010Prop56
140
1.0
102
RTVSPost2010PropOp56
 70
     1
102
RTVSPost2010Prop57
140
1.0
102
RTVSPost2010PropOp57
 70
     1
  0
XRECORD
  5
307
102
{ACAD_REACTORS
330
306
102
}
330
306
100
AcDbXrecord
280
     1
102
RTVSPropertyOp0
 70
     0
102
RTVSPropertyOp1
 70
     0
102
RTVSPropertyOp2
 70
     0
102
RTVSPropertyOp3
 70
     0
102
RTVSPropertyOp4
 70
     0
102
RTVSPropertyOp5
 70
     0
102
RTVSPropertyOp6
 70
     0
102
RTVSPropertyOp7
 70
     0
102
RTVSPropertyOp8
 70
     0
102
RTVSPropertyOp9
 70
     0
102
RTVSPropertyOp10
 70
     0
102
RTVSPropertyOp11
 70
     0
102
RTVSPropertyOp12
 70
     0
102
RTVSPropertyOp13
 70
     0
102
RTVSPropertyOp14
 70
     2
102
RTVSPropertyOp15
 70
     0
102
RTVSPropertyOp16
 70
     0
102
RTVSPropertyOp17
 70
     0
102
RTVSPropertyOp18
 70
     0
102
RTVSPropertyOp19
 70
     0
102
RTVSPropertyOp20
 70
     0
102
RTVSPropertyOp21
 70
     0
102
RTVSPropertyOp22
 70
     0
102
RTVSPropertyOp23
 70
     0
102
RTVSPropertyOp24
 70
     0
102
RTVSPropertyOp25
 70
     0
102
RTVSPropertyOp26
 70
     0
102
RTVSPropertyOp27
 70
     0
102
RTVSPropertyOp28
 70
     0
102
RTVSPropertyOp29
 70
     0
102
RTVSPropertyOp30
 70
     0
102
RTVSPropertyOp31
 70
     0
102
RTVSPropertyOp32
 70
     0
102
RTVSPropertyOp33
 70
     0
102
RTVSPropertyOp34
 70
     0
102
RTVSPropertyOp35
 70
     0
102
RTVSPropertyOp36
 70
     0
102
RTVSPropertyOp37
 70
     0
102
RTVSPropertyOp38
 70
     0
102
RTVSPropertyOp39
 70
     0
102
RTVSPropertyOp40
 70
     0
102
RTVSPropertyOp41
 70
     0
102
RTVSPropertyOp42
 70
     0
102
RTVSPropertyOp43
 70
     0
102
RTVSPropertyOp44
 70
     0
102
RTVSPropertyOp45
 70
     0
102
RTVSPropertyOp46
 70
     0
102
RTVSPropertyOp47
 70
     0
102
RTVSPropertyOp48
 70
     0
102
RTVSPropertyOp49
 70
     0
102
RTVSPropertyOp50
 70
     0
102
RTVSPropertyOp51
 70
     0
102
RTVSPropertyOp52
 70
     0
102
RTVSPropertyOp53
 70
     0
102
RTVSPropertyOp54
 70
     0
102
RTVSPropertyOp55
 70
     0
102
RTVSPropertyOp56
 70
     0
102
RTVSPropertyOp57
 70
     0
102
RTVSPost2010Prop28
280
     0
102
RTVSPost2010PropOp28
 70
     0
102
RTVSPost2010Prop29
280
     1
102
RTVSPost2010PropOp29
 70
     0
102
RTVSPost2010Prop30
280
     1
102
RTVSPost2010PropOp30
 70
     0
102
RTVSPost2010Prop31
280
     0
102
RTVSPost2010PropOp31
 70
     0
102
RTVSPost2010Prop32
280
     0
102
RTVSPost2010PropOp32
 70
     0
102
RTVSPost2010Prop33
280
     0
102
RTVSPost2010PropOp33
 70
     0
102
RTVSPost2010Prop34
280
     0
102
RTVSPost2010PropOp34
 70
     0
102
RTVSPost2010Prop35
280
     0
102
RTVSPost2010PropOp35
 70
     0
102
RTVSPost2010Prop36
280
     0
102
RTVSPost2010PropOp36
 70
     0
102
RTVSPost2010Prop37
 90
       50
102
RTVSPost2010PropOp37
 70
     0
102
RTVSPost2010Prop38
140
0.0
102
RTVSPost2010PropOp38
 70
     0
102
RTVSPost2010Prop39
140
1.0
102
RTVSPost2010PropOp39
 70
     0
102
RTVSPost2010Prop40
 90
        0
102
RTVSPost2010PropOp40
 70
     0
102
RTVSPost2010Prop41ColorIndex
 90
       18
102
RTVSPost2010Prop41ColorRGB
 90
        0
102
RTVSPost2010PropOp41
 70
     0
102
RTVSPost2010Prop42
 90
       50
102
RTVSPost2010PropOp42
 70
     0
102
RTVSPost2010Prop43
 90
        3
102
RTVSPost2010PropOp43
 70
     0
102
RTVSPost2010Prop44ColorIndex
 90
        5
102
RTVSPost2010Prop44ColorRGB
 90
      255
102
RTVSPost2010PropOp44
 70
     0
102
RTVSPost2010Prop45
280
     0
102
RTVSPost2010PropOp45
 70
     0
102
RTVSPost2010Prop46
 90
       50
102
RTVSPost2010PropOp46
 70
     0
102
RTVSPost2010Prop47
 90
       50
102
RTVSPost2010PropOp47
 70
     0
102
RTVSPost2010Prop48
 90
       50
102
RTVSPost2010PropOp48
 70
     0
102
RTVSPost2010Prop49
280
     0
102
RTVSPost2010PropOp49
 70
     0
102
RTVSPost2010Prop50
 90
       50
102
RTVSPost2010PropOp50
 70
     0
102
RTVSPost2010Prop51ColorIndex
 90
      256
102
RTVSPost2010Prop51ColorRGB
 90
-16777216
102
RTVSPost2010PropOp51
 70
     0
102
RTVSPost2010Prop52
140
1.0
102
RTVSPost2010PropOp52
 70
     0
102
RTVSPost2010Prop53
 90
        2
102
RTVSPost2010PropOp53
 70
     0
102
RTVSPost2010Prop54
  1
strokes_ogs.tif
102
RTVSPost2010PropOp54
 70
     0
102
RTVSPost2010Prop55
280
     0
102
RTVSPost2010PropOp55
 70
     0
102
RTVSPost2010Prop56
140
1.0
102
RTVSPost2010PropOp56
 70
     0
102
RTVSPost2010Prop57
140
1.0
102
RTVSPost2010PropOp57
 70
     0
  0
XRECORD
  5
2F5
102
{ACAD_REACTORS
330
2F4
102
}
330
2F4
100
AcDbXrecord
280
     1
102
RTVSPropertyOp0
 70
     1
102
RTVSPropertyOp1
 70
     1
102
RTVSPropertyOp2
 70
     1
102
RTVSPropertyOp3
 70
     1
102
RTVSPropertyOp4
 70
     1
102
RTVSPropertyOp5
 70
     1
102
RTVSPropertyOp6
 70
     1
102
RTVSPropertyOp7
 70
     1
102
RTVSPropertyOp8
 70
     1
102
RTVSPropertyOp9
 70
     1
102
RTVSPropertyOp10
 70
     1
102
RTVSPropertyOp11
 70
     1
102
RTVSPropertyOp12
 70
     1
102
RTVSPropertyOp13
 70
     1
102
RTVSPropertyOp14
 70
     1
102
RTVSPropertyOp15
 70
     1
102
RTVSPropertyOp16
 70
     1
102
RTVSPropertyOp17
 70
     1
102
RTVSPropertyOp18
 70
     1
102
RTVSPropertyOp19
 70
     1
102
RTVSPropertyOp20
 70
     1
102
RTVSPropertyOp21
 70
     1
102
RTVSPropertyOp22
 70
     1
102
RTVSPropertyOp23
 70
     1
102
RTVSPropertyOp24
 70
     1
102
RTVSPropertyOp25
 70
     1
102
RTVSPropertyOp26
 70
     1
102
RTVSPropertyOp27
 70
     1
102
RTVSPropertyOp28
 70
     1
102
RTVSPropertyOp29
 70
     1
102
RTVSPropertyOp30
 70
     1
102
RTVSPropertyOp31
 70
     1
102
RTVSPropertyOp32
 70
     1
102
RTVSPropertyOp33
 70
     1
102
RTVSPropertyOp34
 70
     1
102
RTVSPropertyOp35
 70
     1
102
RTVSPropertyOp36
 70
     1
102
RTVSPropertyOp37
 70
     1
102
RTVSPropertyOp38
 70
     1
102
RTVSPropertyOp39
 70
     1
102
RTVSPropertyOp40
 70
     1
102
RTVSPropertyOp41
 70
     1
102
RTVSPropertyOp42
 70
     1
102
RTVSPropertyOp43
 70
     1
102
RTVSPropertyOp44
 70
     1
102
RTVSPropertyOp45
 70
     1
102
RTVSPropertyOp46
 70
     1
102
RTVSPropertyOp47
 70
     1
102
RTVSPropertyOp48
 70
     1
102
RTVSPropertyOp49
 70
     1
102
RTVSPropertyOp50
 70
     1
102
RTVSPropertyOp51
 70
     0
102
RTVSPropertyOp52
 70
     0
102
RTVSPropertyOp53
 70
     1
102
RTVSPropertyOp54
 70
     1
102
RTVSPropertyOp55
 70
     1
102
RTVSPropertyOp56
 70
     1
102
RTVSPropertyOp57
 70
     1
102
RTVSPost2010Prop28
280
     0
102
RTVSPost2010PropOp28
 70
     1
102
RTVSPost2010Prop29
280
     1
102
RTVSPost2010PropOp29
 70
     1
102
RTVSPost2010Prop30
280
     1
102
RTVSPost2010PropOp30
 70
     1
102
RTVSPost2010Prop31
280
     0
102
RTVSPost2010PropOp31
 70
     1
102
RTVSPost2010Prop32
280
     0
102
RTVSPost2010PropOp32
 70
     1
102
RTVSPost2010Prop33
280
     0
102
RTVSPost2010PropOp33
 70
     1
102
RTVSPost2010Prop34
280
     0
102
RTVSPost2010PropOp34
 70
     1
102
RTVSPost2010Prop35
280
     0
102
RTVSPost2010PropOp35
 70
     1
102
RTVSPost2010Prop36
280
     0
102
RTVSPost2010PropOp36
 70
     1
102
RTVSPost2010Prop37
 90
       50
102
RTVSPost2010PropOp37
 70
     1
102
RTVSPost2010Prop38
140
0.0
102
RTVSPost2010PropOp38
 70
     1
102
RTVSPost2010Prop39
140
1.0
102
RTVSPost2010PropOp39
 70
     1
102
RTVSPost2010Prop40
 90
        0
102
RTVSPost2010PropOp40
 70
     1
102
RTVSPost2010Prop41ColorIndex
 90
       18
102
RTVSPost2010Prop41ColorRGB
 90
        0
102
RTVSPost2010PropOp41
 70
     1
102
RTVSPost2010Prop42
 90
       50
102
RTVSPost2010PropOp42
 70
     1
102
RTVSPost2010Prop43
 90
        3
102
RTVSPost2010PropOp43
 70
     1
102
RTVSPost2010Prop44ColorIndex
 90
        5
102
RTVSPost2010Prop44ColorRGB
 90
      255
102
RTVSPost2010PropOp44
 70
     1
102
RTVSPost2010Prop45
280
     0
102
RTVSPost2010PropOp45
 70
     1
102
RTVSPost2010Prop46
 90
       50
102
RTVSPost2010PropOp46
 70
     1
102
RTVSPost2010Prop47
 90
       50
102
RTVSPost2010PropOp47
 70
     1
102
RTVSPost2010Prop48
 90
       50
102
RTVSPost2010PropOp48
 70
     1
102
RTVSPost2010Prop49
280
     0
102
RTVSPost2010PropOp49
 70
     1
102
RTVSPost2010Prop50
 90
       50
102
RTVSPost2010PropOp50
 70
     1
102
RTVSPost2010Prop51ColorIndex
 90
      256
102
RTVSPost2010Prop51ColorRGB
 90
-16777216
102
RTVSPost2010PropOp51
 70
     0
102
RTVSPost2010Prop52
140
1.0
102
RTVSPost2010PropOp52
 70
     0
102
RTVSPost2010Prop53
 90
        2
102
RTVSPost2010PropOp53
 70
     1
102
RTVSPost2010Prop54
  1
strokes_ogs.tif
102
RTVSPost2010PropOp54
 70
     1
102
RTVSPost2010Prop55
280
     0
102
RTVSPost2010PropOp55
 70
     1
102
RTVSPost2010Prop56
140
1.0
102
RTVSPost2010PropOp56
 70
     1
102
RTVSPost2010Prop57
140
1.0
102
RTVSPost2010PropOp57
 70
     1
  0
XRECORD
  5
313
102
{ACAD_REACTORS
330
312
102
}
330
312
100
AcDbXrecord
280
     1
102
RTVSPropertyOp0
 70
     1
102
RTVSPropertyOp1
 70
     1
102
RTVSPropertyOp2
 70
     1
102
RTVSPropertyOp3
 70
     1
102
RTVSPropertyOp4
 70
     1
102
RTVSPropertyOp5
 70
     1
102
RTVSPropertyOp6
 70
     1
102
RTVSPropertyOp7
 70
     1
102
RTVSPropertyOp8
 70
     1
102
RTVSPropertyOp9
 70
     1
102
RTVSPropertyOp10
 70
     1
102
RTVSPropertyOp11
 70
     1
102
RTVSPropertyOp12
 70
     1
102
RTVSPropertyOp13
 70
     1
102
RTVSPropertyOp14
 70
     1
102
RTVSPropertyOp15
 70
     1
102
RTVSPropertyOp16
 70
     1
102
RTVSPropertyOp17
 70
     1
102
RTVSPropertyOp18
 70
     1
102
RTVSPropertyOp19
 70
     1
102
RTVSPropertyOp20
 70
     1
102
RTVSPropertyOp21
 70
     1
102
RTVSPropertyOp22
 70
     1
102
RTVSPropertyOp23
 70
     1
102
RTVSPropertyOp24
 70
     1
102
RTVSPropertyOp25
 70
     1
102
RTVSPropertyOp26
 70
     1
102
RTVSPropertyOp27
 70
     1
102
RTVSPropertyOp28
 70
     1
102
RTVSPropertyOp29
 70
     1
102
RTVSPropertyOp30
 70
     1
102
RTVSPropertyOp31
 70
     1
102
RTVSPropertyOp32
 70
     1
102
RTVSPropertyOp33
 70
     1
102
RTVSPropertyOp34
 70
     1
102
RTVSPropertyOp35
 70
     1
102
RTVSPropertyOp36
 70
     1
102
RTVSPropertyOp37
 70
     1
102
RTVSPropertyOp38
 70
     1
102
RTVSPropertyOp39
 70
     1
102
RTVSPropertyOp40
 70
     1
102
RTVSPropertyOp41
 70
     1
102
RTVSPropertyOp42
 70
     1
102
RTVSPropertyOp43
 70
     1
102
RTVSPropertyOp44
 70
     1
102
RTVSPropertyOp45
 70
     1
102
RTVSPropertyOp46
 70
     1
102
RTVSPropertyOp47
 70
     1
102
RTVSPropertyOp48
 70
     1
102
RTVSPropertyOp49
 70
     1
102
RTVSPropertyOp50
 70
     1
102
RTVSPropertyOp51
 70
     0
102
RTVSPropertyOp52
 70
     0
102
RTVSPropertyOp53
 70
     1
102
RTVSPropertyOp54
 70
     1
102
RTVSPropertyOp55
 70
     1
102
RTVSPropertyOp56
 70
     1
102
RTVSPropertyOp57
 70
     1
102
RTVSPost2010Prop28
280
     0
102
RTVSPost2010PropOp28
 70
     1
102
RTVSPost2010Prop29
280
     1
102
RTVSPost2010PropOp29
 70
     1
102
RTVSPost2010Prop30
280
     1
102
RTVSPost2010PropOp30
 70
     1
102
RTVSPost2010Prop31
280
     0
102
RTVSPost2010PropOp31
 70
     1
102
RTVSPost2010Prop32
280
     0
102
RTVSPost2010PropOp32
 70
     1
102
RTVSPost2010Prop33
280
     0
102
RTVSPost2010PropOp33
 70
     1
102
RTVSPost2010Prop34
280
     0
102
RTVSPost2010PropOp34
 70
     1
102
RTVSPost2010Prop35
280
     0
102
RTVSPost2010PropOp35
 70
     1
102
RTVSPost2010Prop36
280
     0
102
RTVSPost2010PropOp36
 70
     1
102
RTVSPost2010Prop37
 90
       50
102
RTVSPost2010PropOp37
 70
     1
102
RTVSPost2010Prop38
140
0.0
102
RTVSPost2010PropOp38
 70
     1
102
RTVSPost2010Prop39
140
1.0
102
RTVSPost2010PropOp39
 70
     1
102
RTVSPost2010Prop40
 90
        0
102
RTVSPost2010PropOp40
 70
     1
102
RTVSPost2010Prop41ColorIndex
 90
       18
102
RTVSPost2010Prop41ColorRGB
 90
        0
102
RTVSPost2010PropOp41
 70
     1
102
RTVSPost2010Prop42
 90
       50
102
RTVSPost2010PropOp42
 70
     1
102
RTVSPost2010Prop43
 90
        3
102
RTVSPost2010PropOp43
 70
     1
102
RTVSPost2010Prop44ColorIndex
 90
        5
102
RTVSPost2010Prop44ColorRGB
 90
      255
102
RTVSPost2010PropOp44
 70
     1
102
RTVSPost2010Prop45
280
     0
102
RTVSPost2010PropOp45
 70
     1
102
RTVSPost2010Prop46
 90
       50
102
RTVSPost2010PropOp46
 70
     1
102
RTVSPost2010Prop47
 90
       50
102
RTVSPost2010PropOp47
 70
     1
102
RTVSPost2010Prop48
 90
       50
102
RTVSPost2010PropOp48
 70
     1
102
RTVSPost2010Prop49
280
     0
102
RTVSPost2010PropOp49
 70
     1
102
RTVSPost2010Prop50
 90
       50
102
RTVSPost2010PropOp50
 70
     1
102
RTVSPost2010Prop51ColorIndex
 90
      256
102
RTVSPost2010Prop51ColorRGB
 90
-16777216
102
RTVSPost2010PropOp51
 70
     0
102
RTVSPost2010Prop52
140
1.0
102
RTVSPost2010PropOp52
 70
     0
102
RTVSPost2010Prop53
 90
        2
102
RTVSPost2010PropOp53
 70
     1
102
RTVSPost2010Prop54
  1
strokes_ogs.tif
102
RTVSPost2010PropOp54
 70
     1
102
RTVSPost2010Prop55
280
     0
102
RTVSPost2010PropOp55
 70
     1
102
RTVSPost2010Prop56
140
1.0
102
RTVSPost2010PropOp56
 70
     1
102
RTVSPost2010Prop57
140
1.0
102
RTVSPost2010PropOp57
 70
     1
  0
XRECORD
  5
311
102
{ACAD_REACTORS
330
310
102
}
330
310
100
AcDbXrecord
280
     1
102
RTVSPropertyOp0
 70
     1
102
RTVSPropertyOp1
 70
     1
102
RTVSPropertyOp2
 70
     1
102
RTVSPropertyOp3
 70
     1
102
RTVSPropertyOp4
 70
     1
102
RTVSPropertyOp5
 70
     1
102
RTVSPropertyOp6
 70
     1
102
RTVSPropertyOp7
 70
     1
102
RTVSPropertyOp8
 70
     1
102
RTVSPropertyOp9
 70
     1
102
RTVSPropertyOp10
 70
     1
102
RTVSPropertyOp11
 70
     1
102
RTVSPropertyOp12
 70
     1
102
RTVSPropertyOp13
 70
     1
102
RTVSPropertyOp14
 70
     1
102
RTVSPropertyOp15
 70
     1
102
RTVSPropertyOp16
 70
     1
102
RTVSPropertyOp17
 70
     1
102
RTVSPropertyOp18
 70
     1
102
RTVSPropertyOp19
 70
     1
102
RTVSPropertyOp20
 70
     1
102
RTVSPropertyOp21
 70
     1
102
RTVSPropertyOp22
 70
     1
102
RTVSPropertyOp23
 70
     1
102
RTVSPropertyOp24
 70
     1
102
RTVSPropertyOp25
 70
     1
102
RTVSPropertyOp26
 70
     1
102
RTVSPropertyOp27
 70
     1
102
RTVSPropertyOp28
 70
     1
102
RTVSPropertyOp29
 70
     1
102
RTVSPropertyOp30
 70
     1
102
RTVSPropertyOp31
 70
     1
102
RTVSPropertyOp32
 70
     1
102
RTVSPropertyOp33
 70
     1
102
RTVSPropertyOp34
 70
     1
102
RTVSPropertyOp35
 70
     1
102
RTVSPropertyOp36
 70
     1
102
RTVSPropertyOp37
 70
     1
102
RTVSPropertyOp38
 70
     1
102
RTVSPropertyOp39
 70
     1
102
RTVSPropertyOp40
 70
     1
102
RTVSPropertyOp41
 70
     1
102
RTVSPropertyOp42
 70
     1
102
RTVSPropertyOp43
 70
     1
102
RTVSPropertyOp44
 70
     1
102
RTVSPropertyOp45
 70
     1
102
RTVSPropertyOp46
 70
     1
102
RTVSPropertyOp47
 70
     1
102
RTVSPropertyOp48
 70
     1
102
RTVSPropertyOp49
 70
     1
102
RTVSPropertyOp50
 70
     1
102
RTVSPropertyOp51
 70
     0
102
RTVSPropertyOp52
 70
     0
102
RTVSPropertyOp53
 70
     1
102
RTVSPropertyOp54
 70
     1
102
RTVSPropertyOp55
 70
     1
102
RTVSPropertyOp56
 70
     1
102
RTVSPropertyOp57
 70
     1
102
RTVSPost2010Prop28
280
     0
102
RTVSPost2010PropOp28
 70
     1
102
RTVSPost2010Prop29
280
     1
102
RTVSPost2010PropOp29
 70
     1
102
RTVSPost2010Prop30
280
     1
102
RTVSPost2010PropOp30
 70
     1
102
RTVSPost2010Prop31
280
     0
102
RTVSPost2010PropOp31
 70
     1
102
RTVSPost2010Prop32
280
     0
102
RTVSPost2010PropOp32
 70
     1
102
RTVSPost2010Prop33
280
     0
102
RTVSPost2010PropOp33
 70
     1
102
RTVSPost2010Prop34
280
     0
102
RTVSPost2010PropOp34
 70
     1
102
RTVSPost2010Prop35
280
     0
102
RTVSPost2010PropOp35
 70
     1
102
RTVSPost2010Prop36
280
     0
102
RTVSPost2010PropOp36
 70
     1
102
RTVSPost2010Prop37
 90
       50
102
RTVSPost2010PropOp37
 70
     1
102
RTVSPost2010Prop38
140
0.0
102
RTVSPost2010PropOp38
 70
     1
102
RTVSPost2010Prop39
140
1.0
102
RTVSPost2010PropOp39
 70
     1
102
RTVSPost2010Prop40
 90
        0
102
RTVSPost2010PropOp40
 70
     1
102
RTVSPost2010Prop41ColorIndex
 90
       18
102
RTVSPost2010Prop41ColorRGB
 90
        0
102
RTVSPost2010PropOp41
 70
     1
102
RTVSPost2010Prop42
 90
       50
102
RTVSPost2010PropOp42
 70
     1
102
RTVSPost2010Prop43
 90
        3
102
RTVSPost2010PropOp43
 70
     1
102
RTVSPost2010Prop44ColorIndex
 90
        5
102
RTVSPost2010Prop44ColorRGB
 90
      255
102
RTVSPost2010PropOp44
 70
     1
102
RTVSPost2010Prop45
280
     0
102
RTVSPost2010PropOp45
 70
     1
102
RTVSPost2010Prop46
 90
       50
102
RTVSPost2010PropOp46
 70
     1
102
RTVSPost2010Prop47
 90
       50
102
RTVSPost2010PropOp47
 70
     1
102
RTVSPost2010Prop48
 90
       50
102
RTVSPost2010PropOp48
 70
     1
102
RTVSPost2010Prop49
280
     0
102
RTVSPost2010PropOp49
 70
     1
102
RTVSPost2010Prop50
 90
       50
102
RTVSPost2010PropOp50
 70
     1
102
RTVSPost2010Prop51ColorIndex
 90
      256
102
RTVSPost2010Prop51ColorRGB
 90
-16777216
102
RTVSPost2010PropOp51
 70
     0
102
RTVSPost2010Prop52
140
1.0
102
RTVSPost2010PropOp52
 70
     0
102
RTVSPost2010Prop53
 90
        2
102
RTVSPost2010PropOp53
 70
     1
102
RTVSPost2010Prop54
  1
strokes_ogs.tif
102
RTVSPost2010PropOp54
 70
     1
102
RTVSPost2010Prop55
280
     0
102
RTVSPost2010PropOp55
 70
     1
102
RTVSPost2010Prop56
140
1.0
102
RTVSPost2010PropOp56
 70
     1
102
RTVSPost2010Prop57
140
1.0
102
RTVSPost2010PropOp57
 70
     1
  0
XRECORD
  5
30B
102
{ACAD_REACTORS
330
30A
102
}
330
30A
100
AcDbXrecord
280
     1
102
RTVSPropertyOp0
 70
     1
102
RTVSPropertyOp1
 70
     1
102
RTVSPropertyOp2
 70
     1
102
RTVSPropertyOp3
 70
     1
102
RTVSPropertyOp4
 70
     1
102
RTVSPropertyOp5
 70
     1
102
RTVSPropertyOp6
 70
     1
102
RTVSPropertyOp7
 70
     1
102
RTVSPropertyOp8
 70
     1
102
RTVSPropertyOp9
 70
     1
102
RTVSPropertyOp10
 70
     1
102
RTVSPropertyOp11
 70
     1
102
RTVSPropertyOp12
 70
     1
102
RTVSPropertyOp13
 70
     1
102
RTVSPropertyOp14
 70
     1
102
RTVSPropertyOp15
 70
     1
102
RTVSPropertyOp16
 70
     1
102
RTVSPropertyOp17
 70
     1
102
RTVSPropertyOp18
 70
     1
102
RTVSPropertyOp19
 70
     1
102
RTVSPropertyOp20
 70
     1
102
RTVSPropertyOp21
 70
     1
102
RTVSPropertyOp22
 70
     1
102
RTVSPropertyOp23
 70
     1
102
RTVSPropertyOp24
 70
     1
102
RTVSPropertyOp25
 70
     1
102
RTVSPropertyOp26
 70
     1
102
RTVSPropertyOp27
 70
     1
102
RTVSPropertyOp28
 70
     1
102
RTVSPropertyOp29
 70
     1
102
RTVSPropertyOp30
 70
     1
102
RTVSPropertyOp31
 70
     1
102
RTVSPropertyOp32
 70
     1
102
RTVSPropertyOp33
 70
     1
102
RTVSPropertyOp34
 70
     1
102
RTVSPropertyOp35
 70
     1
102
RTVSPropertyOp36
 70
     1
102
RTVSPropertyOp37
 70
     1
102
RTVSPropertyOp38
 70
     1
102
RTVSPropertyOp39
 70
     1
102
RTVSPropertyOp40
 70
     1
102
RTVSPropertyOp41
 70
     1
102
RTVSPropertyOp42
 70
     1
102
RTVSPropertyOp43
 70
     1
102
RTVSPropertyOp44
 70
     1
102
RTVSPropertyOp45
 70
     1
102
RTVSPropertyOp46
 70
     1
102
RTVSPropertyOp47
 70
     1
102
RTVSPropertyOp48
 70
     1
102
RTVSPropertyOp49
 70
     1
102
RTVSPropertyOp50
 70
     1
102
RTVSPropertyOp51
 70
     0
102
RTVSPropertyOp52
 70
     0
102
RTVSPropertyOp53
 70
     1
102
RTVSPropertyOp54
 70
     1
102
RTVSPropertyOp55
 70
     1
102
RTVSPropertyOp56
 70
     1
102
RTVSPropertyOp57
 70
     1
102
RTVSPost2010Prop28
280
     0
102
RTVSPost2010PropOp28
 70
     1
102
RTVSPost2010Prop29
280
     1
102
RTVSPost2010PropOp29
 70
     1
102
RTVSPost2010Prop30
280
     1
102
RTVSPost2010PropOp30
 70
     1
102
RTVSPost2010Prop31
280
     0
102
RTVSPost2010PropOp31
 70
     1
102
RTVSPost2010Prop32
280
     0
102
RTVSPost2010PropOp32
 70
     1
102
RTVSPost2010Prop33
280
     0
102
RTVSPost2010PropOp33
 70
     1
102
RTVSPost2010Prop34
280
     0
102
RTVSPost2010PropOp34
 70
     1
102
RTVSPost2010Prop35
280
     0
102
RTVSPost2010PropOp35
 70
     1
102
RTVSPost2010Prop36
280
     0
102
RTVSPost2010PropOp36
 70
     1
102
RTVSPost2010Prop37
 90
       50
102
RTVSPost2010PropOp37
 70
     1
102
RTVSPost2010Prop38
140
0.0
102
RTVSPost2010PropOp38
 70
     1
102
RTVSPost2010Prop39
140
1.0
102
RTVSPost2010PropOp39
 70
     1
102
RTVSPost2010Prop40
 90
        0
102
RTVSPost2010PropOp40
 70
     1
102
RTVSPost2010Prop41ColorIndex
 90
       18
102
RTVSPost2010Prop41ColorRGB
 90
        0
102
RTVSPost2010PropOp41
 70
     1
102
RTVSPost2010Prop42
 90
       50
102
RTVSPost2010PropOp42
 70
     1
102
RTVSPost2010Prop43
 90
        3
102
RTVSPost2010PropOp43
 70
     1
102
RTVSPost2010Prop44ColorIndex
 90
        5
102
RTVSPost2010Prop44ColorRGB
 90
      255
102
RTVSPost2010PropOp44
 70
     1
102
RTVSPost2010Prop45
280
     0
102
RTVSPost2010PropOp45
 70
     1
102
RTVSPost2010Prop46
 90
       50
102
RTVSPost2010PropOp46
 70
     1
102
RTVSPost2010Prop47
 90
       50
102
RTVSPost2010PropOp47
 70
     1
102
RTVSPost2010Prop48
 90
       50
102
RTVSPost2010PropOp48
 70
     1
102
RTVSPost2010Prop49
280
     0
102
RTVSPost2010PropOp49
 70
     1
102
RTVSPost2010Prop50
 90
       50
102
RTVSPost2010PropOp50
 70
     1
102
RTVSPost2010Prop51ColorIndex
 90
      256
102
RTVSPost2010Prop51ColorRGB
 90
-16777216
102
RTVSPost2010PropOp51
 70
     0
102
RTVSPost2010Prop52
140
1.0
102
RTVSPost2010PropOp52
 70
     0
102
RTVSPost2010Prop53
 90
        2
102
RTVSPost2010PropOp53
 70
     1
102
RTVSPost2010Prop54
  1
strokes_ogs.tif
102
RTVSPost2010PropOp54
 70
     1
102
RTVSPost2010Prop55
280
     0
102
RTVSPost2010PropOp55
 70
     1
102
RTVSPost2010Prop56
140
1.0
102
RTVSPost2010PropOp56
 70
     1
102
RTVSPost2010Prop57
140
1.0
102
RTVSPost2010PropOp57
 70
     1
  0
XRECORD
  5
30D
102
{ACAD_REACTORS
330
30C
102
}
330
30C
100
AcDbXrecord
280
     1
102
RTVSPropertyOp0
 70
     1
102
RTVSPropertyOp1
 70
     1
102
RTVSPropertyOp2
 70
     1
102
RTVSPropertyOp3
 70
     1
102
RTVSPropertyOp4
 70
     1
102
RTVSPropertyOp5
 70
     1
102
RTVSPropertyOp6
 70
     1
102
RTVSPropertyOp7
 70
     1
102
RTVSPropertyOp8
 70
     1
102
RTVSPropertyOp9
 70
     1
102
RTVSPropertyOp10
 70
     1
102
RTVSPropertyOp11
 70
     1
102
RTVSPropertyOp12
 70
     1
102
RTVSPropertyOp13
 70
     1
102
RTVSPropertyOp14
 70
     1
102
RTVSPropertyOp15
 70
     1
102
RTVSPropertyOp16
 70
     1
102
RTVSPropertyOp17
 70
     1
102
RTVSPropertyOp18
 70
     1
102
RTVSPropertyOp19
 70
     1
102
RTVSPropertyOp20
 70
     1
102
RTVSPropertyOp21
 70
     1
102
RTVSPropertyOp22
 70
     1
102
RTVSPropertyOp23
 70
     1
102
RTVSPropertyOp24
 70
     1
102
RTVSPropertyOp25
 70
     1
102
RTVSPropertyOp26
 70
     1
102
RTVSPropertyOp27
 70
     1
102
RTVSPropertyOp28
 70
     1
102
RTVSPropertyOp29
 70
     1
102
RTVSPropertyOp30
 70
     1
102
RTVSPropertyOp31
 70
     1
102
RTVSPropertyOp32
 70
     1
102
RTVSPropertyOp33
 70
     1
102
RTVSPropertyOp34
 70
     1
102
RTVSPropertyOp35
 70
     1
102
RTVSPropertyOp36
 70
     1
102
RTVSPropertyOp37
 70
     1
102
RTVSPropertyOp38
 70
     1
102
RTVSPropertyOp39
 70
     1
102
RTVSPropertyOp40
 70
     1
102
RTVSPropertyOp41
 70
     1
102
RTVSPropertyOp42
 70
     1
102
RTVSPropertyOp43
 70
     1
102
RTVSPropertyOp44
 70
     1
102
RTVSPropertyOp45
 70
     1
102
RTVSPropertyOp46
 70
     1
102
RTVSPropertyOp47
 70
     1
102
RTVSPropertyOp48
 70
     1
102
RTVSPropertyOp49
 70
     1
102
RTVSPropertyOp50
 70
     1
102
RTVSPropertyOp51
 70
     0
102
RTVSPropertyOp52
 70
     0
102
RTVSPropertyOp53
 70
     1
102
RTVSPropertyOp54
 70
     1
102
RTVSPropertyOp55
 70
     1
102
RTVSPropertyOp56
 70
     1
102
RTVSPropertyOp57
 70
     1
102
RTVSPost2010Prop28
280
     0
102
RTVSPost2010PropOp28
 70
     1
102
RTVSPost2010Prop29
280
     1
102
RTVSPost2010PropOp29
 70
     1
102
RTVSPost2010Prop30
280
     1
102
RTVSPost2010PropOp30
 70
     1
102
RTVSPost2010Prop31
280
     0
102
RTVSPost2010PropOp31
 70
     1
102
RTVSPost2010Prop32
280
     0
102
RTVSPost2010PropOp32
 70
     1
102
RTVSPost2010Prop33
280
     0
102
RTVSPost2010PropOp33
 70
     1
102
RTVSPost2010Prop34
280
     0
102
RTVSPost2010PropOp34
 70
     1
102
RTVSPost2010Prop35
280
     0
102
RTVSPost2010PropOp35
 70
     1
102
RTVSPost2010Prop36
280
     0
102
RTVSPost2010PropOp36
 70
     1
102
RTVSPost2010Prop37
 90
       50
102
RTVSPost2010PropOp37
 70
     1
102
RTVSPost2010Prop38
140
0.0
102
RTVSPost2010PropOp38
 70
     1
102
RTVSPost2010Prop39
140
1.0
102
RTVSPost2010PropOp39
 70
     1
102
RTVSPost2010Prop40
 90
        0
102
RTVSPost2010PropOp40
 70
     1
102
RTVSPost2010Prop41ColorIndex
 90
       18
102
RTVSPost2010Prop41ColorRGB
 90
        0
102
RTVSPost2010PropOp41
 70
     1
102
RTVSPost2010Prop42
 90
       50
102
RTVSPost2010PropOp42
 70
     1
102
RTVSPost2010Prop43
 90
        3
102
RTVSPost2010PropOp43
 70
     1
102
RTVSPost2010Prop44ColorIndex
 90
        5
102
RTVSPost2010Prop44ColorRGB
 90
      255
102
RTVSPost2010PropOp44
 70
     1
102
RTVSPost2010Prop45
280
     0
102
RTVSPost2010PropOp45
 70
     1
102
RTVSPost2010Prop46
 90
       50
102
RTVSPost2010PropOp46
 70
     1
102
RTVSPost2010Prop47
 90
       50
102
RTVSPost2010PropOp47
 70
     1
102
RTVSPost2010Prop48
 90
       50
102
RTVSPost2010PropOp48
 70
     1
102
RTVSPost2010Prop49
280
     0
102
RTVSPost2010PropOp49
 70
     1
102
RTVSPost2010Prop50
 90
       50
102
RTVSPost2010PropOp50
 70
     1
102
RTVSPost2010Prop51ColorIndex
 90
      256
102
RTVSPost2010Prop51ColorRGB
 90
-16777216
102
RTVSPost2010PropOp51
 70
     0
102
RTVSPost2010Prop52
140
1.0
102
RTVSPost2010PropOp52
 70
     0
102
RTVSPost2010Prop53
 90
        2
102
RTVSPost2010PropOp53
 70
     1
102
RTVSPost2010Prop54
  1
strokes_ogs.tif
102
RTVSPost2010PropOp54
 70
     1
102
RTVSPost2010Prop55
280
     0
102
RTVSPost2010PropOp55
 70
     1
102
RTVSPost2010Prop56
140
1.0
102
RTVSPost2010PropOp56
 70
     1
102
RTVSPost2010Prop57
140
1.0
102
RTVSPost2010PropOp57
 70
     1
  0
XRECORD
  5
2FD
102
{ACAD_REACTORS
330
2FC
102
}
330
2FC
100
AcDbXrecord
280
     1
102
RTVSPropertyOp0
 70
     1
102
RTVSPropertyOp1
 70
     1
102
RTVSPropertyOp2
 70
     1
102
RTVSPropertyOp3
 70
     1
102
RTVSPropertyOp4
 70
     1
102
RTVSPropertyOp5
 70
     1
102
RTVSPropertyOp6
 70
     1
102
RTVSPropertyOp7
 70
     1
102
RTVSPropertyOp8
 70
     1
102
RTVSPropertyOp9
 70
     1
102
RTVSPropertyOp10
 70
     1
102
RTVSPropertyOp11
 70
     1
102
RTVSPropertyOp12
 70
     1
102
RTVSPropertyOp13
 70
     1
102
RTVSPropertyOp14
 70
     1
102
RTVSPropertyOp15
 70
     1
102
RTVSPropertyOp16
 70
     1
102
RTVSPropertyOp17
 70
     1
102
RTVSPropertyOp18
 70
     1
102
RTVSPropertyOp19
 70
     1
102
RTVSPropertyOp20
 70
     1
102
RTVSPropertyOp21
 70
     1
102
RTVSPropertyOp22
 70
     1
102
RTVSPropertyOp23
 70
     1
102
RTVSPropertyOp24
 70
     1
102
RTVSPropertyOp25
 70
     1
102
RTVSPropertyOp26
 70
     1
102
RTVSPropertyOp27
 70
     1
102
RTVSPropertyOp28
 70
     1
102
RTVSPropertyOp29
 70
     1
102
RTVSPropertyOp30
 70
     1
102
RTVSPropertyOp31
 70
     1
102
RTVSPropertyOp32
 70
     1
102
RTVSPropertyOp33
 70
     1
102
RTVSPropertyOp34
 70
     1
102
RTVSPropertyOp35
 70
     1
102
RTVSPropertyOp36
 70
     1
102
RTVSPropertyOp37
 70
     1
102
RTVSPropertyOp38
 70
     1
102
RTVSPropertyOp39
 70
     1
102
RTVSPropertyOp40
 70
     1
102
RTVSPropertyOp41
 70
     1
102
RTVSPropertyOp42
 70
     1
102
RTVSPropertyOp43
 70
     1
102
RTVSPropertyOp44
 70
     1
102
RTVSPropertyOp45
 70
     1
102
RTVSPropertyOp46
 70
     1
102
RTVSPropertyOp47
 70
     1
102
RTVSPropertyOp48
 70
     1
102
RTVSPropertyOp49
 70
     1
102
RTVSPropertyOp50
 70
     1
102
RTVSPropertyOp51
 70
     0
102
RTVSPropertyOp52
 70
     0
102
RTVSPropertyOp53
 70
     1
102
RTVSPropertyOp54
 70
     1
102
RTVSPropertyOp55
 70
     1
102
RTVSPropertyOp56
 70
     1
102
RTVSPropertyOp57
 70
     1
102
RTVSPost2010Prop28
280
     0
102
RTVSPost2010PropOp28
 70
     1
102
RTVSPost2010Prop29
280
     1
102
RTVSPost2010PropOp29
 70
     1
102
RTVSPost2010Prop30
280
     1
102
RTVSPost2010PropOp30
 70
     1
102
RTVSPost2010Prop31
280
     0
102
RTVSPost2010PropOp31
 70
     1
102
RTVSPost2010Prop32
280
     0
102
RTVSPost2010PropOp32
 70
     1
102
RTVSPost2010Prop33
280
     0
102
RTVSPost2010PropOp33
 70
     1
102
RTVSPost2010Prop34
280
     0
102
RTVSPost2010PropOp34
 70
     1
102
RTVSPost2010Prop35
280
     0
102
RTVSPost2010PropOp35
 70
     1
102
RTVSPost2010Prop36
280
     0
102
RTVSPost2010PropOp36
 70
     1
102
RTVSPost2010Prop37
 90
       50
102
RTVSPost2010PropOp37
 70
     1
102
RTVSPost2010Prop38
140
0.0
102
RTVSPost2010PropOp38
 70
     1
102
RTVSPost2010Prop39
140
1.0
102
RTVSPost2010PropOp39
 70
     1
102
RTVSPost2010Prop40
 90
        0
102
RTVSPost2010PropOp40
 70
     1
102
RTVSPost2010Prop41ColorIndex
 90
       18
102
RTVSPost2010Prop41ColorRGB
 90
        0
102
RTVSPost2010PropOp41
 70
     1
102
RTVSPost2010Prop42
 90
       50
102
RTVSPost2010PropOp42
 70
     1
102
RTVSPost2010Prop43
 90
        3
102
RTVSPost2010PropOp43
 70
     1
102
RTVSPost2010Prop44ColorIndex
 90
        5
102
RTVSPost2010Prop44ColorRGB
 90
      255
102
RTVSPost2010PropOp44
 70
     1
102
RTVSPost2010Prop45
280
     0
102
RTVSPost2010PropOp45
 70
     1
102
RTVSPost2010Prop46
 90
       50
102
RTVSPost2010PropOp46
 70
     1
102
RTVSPost2010Prop47
 90
       50
102
RTVSPost2010PropOp47
 70
     1
102
RTVSPost2010Prop48
 90
       50
102
RTVSPost2010PropOp48
 70
     1
102
RTVSPost2010Prop49
280
     0
102
RTVSPost2010PropOp49
 70
     1
102
RTVSPost2010Prop50
 90
       50
102
RTVSPost2010PropOp50
 70
     1
102
RTVSPost2010Prop51ColorIndex
 90
      256
102
RTVSPost2010Prop51ColorRGB
 90
-16777216
102
RTVSPost2010PropOp51
 70
     0
102
RTVSPost2010Prop52
140
1.0
102
RTVSPost2010PropOp52
 70
     0
102
RTVSPost2010Prop53
 90
        2
102
RTVSPost2010PropOp53
 70
     1
102
RTVSPost2010Prop54
  1
strokes_ogs.tif
102
RTVSPost2010PropOp54
 70
     1
102
RTVSPost2010Prop55
280
     0
102
RTVSPost2010PropOp55
 70
     1
102
RTVSPost2010Prop56
140
1.0
102
RTVSPost2010PropOp56
 70
     1
102
RTVSPost2010Prop57
140
1.0
102
RTVSPost2010PropOp57
 70
     1
  0
XRECORD
  5
2EF
102
{ACAD_REACTORS
330
2EE
102
}
330
2EE
100
AcDbXrecord
280
     1
102
RTVSPropertyOp0
 70
     1
102
RTVSPropertyOp1
 70
     1
102
RTVSPropertyOp2
 70
     1
102
RTVSPropertyOp3
 70
     1
102
RTVSPropertyOp4
 70
     1
102
RTVSPropertyOp5
 70
     1
102
RTVSPropertyOp6
 70
     1
102
RTVSPropertyOp7
 70
     1
102
RTVSPropertyOp8
 70
     1
102
RTVSPropertyOp9
 70
     1
102
RTVSPropertyOp10
 70
     1
102
RTVSPropertyOp11
 70
     1
102
RTVSPropertyOp12
 70
     1
102
RTVSPropertyOp13
 70
     1
102
RTVSPropertyOp14
 70
     1
102
RTVSPropertyOp15
 70
     1
102
RTVSPropertyOp16
 70
     1
102
RTVSPropertyOp17
 70
     1
102
RTVSPropertyOp18
 70
     1
102
RTVSPropertyOp19
 70
     1
102
RTVSPropertyOp20
 70
     1
102
RTVSPropertyOp21
 70
     1
102
RTVSPropertyOp22
 70
     1
102
RTVSPropertyOp23
 70
     1
102
RTVSPropertyOp24
 70
     1
102
RTVSPropertyOp25
 70
     1
102
RTVSPropertyOp26
 70
     1
102
RTVSPropertyOp27
 70
     1
102
RTVSPropertyOp28
 70
     1
102
RTVSPropertyOp29
 70
     1
102
RTVSPropertyOp30
 70
     1
102
RTVSPropertyOp31
 70
     1
102
RTVSPropertyOp32
 70
     1
102
RTVSPropertyOp33
 70
     1
102
RTVSPropertyOp34
 70
     1
102
RTVSPropertyOp35
 70
     1
102
RTVSPropertyOp36
 70
     1
102
RTVSPropertyOp37
 70
     1
102
RTVSPropertyOp38
 70
     1
102
RTVSPropertyOp39
 70
     1
102
RTVSPropertyOp40
 70
     1
102
RTVSPropertyOp41
 70
     1
102
RTVSPropertyOp42
 70
     1
102
RTVSPropertyOp43
 70
     1
102
RTVSPropertyOp44
 70
     1
102
RTVSPropertyOp45
 70
     1
102
RTVSPropertyOp46
 70
     1
102
RTVSPropertyOp47
 70
     1
102
RTVSPropertyOp48
 70
     1
102
RTVSPropertyOp49
 70
     1
102
RTVSPropertyOp50
 70
     1
102
RTVSPropertyOp51
 70
     0
102
RTVSPropertyOp52
 70
     0
102
RTVSPropertyOp53
 70
     1
102
RTVSPropertyOp54
 70
     1
102
RTVSPropertyOp55
 70
     1
102
RTVSPropertyOp56
 70
     1
102
RTVSPropertyOp57
 70
     1
102
RTVSPost2010Prop28
280
     0
102
RTVSPost2010PropOp28
 70
     1
102
RTVSPost2010Prop29
280
     1
102
RTVSPost2010PropOp29
 70
     1
102
RTVSPost2010Prop30
280
     1
102
RTVSPost2010PropOp30
 70
     1
102
RTVSPost2010Prop31
280
     0
102
RTVSPost2010PropOp31
 70
     1
102
RTVSPost2010Prop32
280
     0
102
RTVSPost2010PropOp32
 70
     1
102
RTVSPost2010Prop33
280
     0
102
RTVSPost2010PropOp33
 70
     1
102
RTVSPost2010Prop34
280
     0
102
RTVSPost2010PropOp34
 70
     1
102
RTVSPost2010Prop35
280
     0
102
RTVSPost2010PropOp35
 70
     1
102
RTVSPost2010Prop36
280
     0
102
RTVSPost2010PropOp36
 70
     1
102
RTVSPost2010Prop37
 90
       50
102
RTVSPost2010PropOp37
 70
     1
102
RTVSPost2010Prop38
140
0.0
102
RTVSPost2010PropOp38
 70
     1
102
RTVSPost2010Prop39
140
1.0
102
RTVSPost2010PropOp39
 70
     1
102
RTVSPost2010Prop40
 90
        0
102
RTVSPost2010PropOp40
 70
     1
102
RTVSPost2010Prop41ColorIndex
 90
       18
102
RTVSPost2010Prop41ColorRGB
 90
        0
102
RTVSPost2010PropOp41
 70
     1
102
RTVSPost2010Prop42
 90
       50
102
RTVSPost2010PropOp42
 70
     1
102
RTVSPost2010Prop43
 90
        3
102
RTVSPost2010PropOp43
 70
     1
102
RTVSPost2010Prop44ColorIndex
 90
        5
102
RTVSPost2010Prop44ColorRGB
 90
      255
102
RTVSPost2010PropOp44
 70
     1
102
RTVSPost2010Prop45
280
     0
102
RTVSPost2010PropOp45
 70
     1
102
RTVSPost2010Prop46
 90
       50
102
RTVSPost2010PropOp46
 70
     1
102
RTVSPost2010Prop47
 90
       50
102
RTVSPost2010PropOp47
 70
     1
102
RTVSPost2010Prop48
 90
       50
102
RTVSPost2010PropOp48
 70
     1
102
RTVSPost2010Prop49
280
     0
102
RTVSPost2010PropOp49
 70
     1
102
RTVSPost2010Prop50
 90
       50
102
RTVSPost2010PropOp50
 70
     1
102
RTVSPost2010Prop51ColorIndex
 90
      256
102
RTVSPost2010Prop51ColorRGB
 90
-16777216
102
RTVSPost2010PropOp51
 70
     0
102
RTVSPost2010Prop52
140
1.0
102
RTVSPost2010PropOp52
 70
     0
102
RTVSPost2010Prop53
 90
        2
102
RTVSPost2010PropOp53
 70
     1
102
RTVSPost2010Prop54
  1
strokes_ogs.tif
102
RTVSPost2010PropOp54
 70
     1
102
RTVSPost2010Prop55
280
     0
102
RTVSPost2010PropOp55
 70
     1
102
RTVSPost2010Prop56
140
1.0
102
RTVSPost2010PropOp56
 70
     1
102
RTVSPost2010Prop57
140
1.0
102
RTVSPost2010PropOp57
 70
     1
  0
XRECORD
  5
30F
102
{ACAD_REACTORS
330
30E
102
}
330
30E
100
AcDbXrecord
280
     1
102
RTVSPropertyOp0
 70
     1
102
RTVSPropertyOp1
 70
     1
102
RTVSPropertyOp2
 70
     1
102
RTVSPropertyOp3
 70
     1
102
RTVSPropertyOp4
 70
     1
102
RTVSPropertyOp5
 70
     1
102
RTVSPropertyOp6
 70
     1
102
RTVSPropertyOp7
 70
     1
102
RTVSPropertyOp8
 70
     1
102
RTVSPropertyOp9
 70
     1
102
RTVSPropertyOp10
 70
     1
102
RTVSPropertyOp11
 70
     1
102
RTVSPropertyOp12
 70
     1
102
RTVSPropertyOp13
 70
     1
102
RTVSPropertyOp14
 70
     1
102
RTVSPropertyOp15
 70
     1
102
RTVSPropertyOp16
 70
     1
102
RTVSPropertyOp17
 70
     1
102
RTVSPropertyOp18
 70
     1
102
RTVSPropertyOp19
 70
     1
102
RTVSPropertyOp20
 70
     1
102
RTVSPropertyOp21
 70
     1
102
RTVSPropertyOp22
 70
     1
102
RTVSPropertyOp23
 70
     1
102
RTVSPropertyOp24
 70
     1
102
RTVSPropertyOp25
 70
     1
102
RTVSPropertyOp26
 70
     1
102
RTVSPropertyOp27
 70
     1
102
RTVSPropertyOp28
 70
     1
102
RTVSPropertyOp29
 70
     1
102
RTVSPropertyOp30
 70
     1
102
RTVSPropertyOp31
 70
     1
102
RTVSPropertyOp32
 70
     1
102
RTVSPropertyOp33
 70
     1
102
RTVSPropertyOp34
 70
     1
102
RTVSPropertyOp35
 70
     1
102
RTVSPropertyOp36
 70
     1
102
RTVSPropertyOp37
 70
     1
102
RTVSPropertyOp38
 70
     1
102
RTVSPropertyOp39
 70
     1
102
RTVSPropertyOp40
 70
     1
102
RTVSPropertyOp41
 70
     1
102
RTVSPropertyOp42
 70
     1
102
RTVSPropertyOp43
 70
     1
102
RTVSPropertyOp44
 70
     1
102
RTVSPropertyOp45
 70
     1
102
RTVSPropertyOp46
 70
     1
102
RTVSPropertyOp47
 70
     1
102
RTVSPropertyOp48
 70
     1
102
RTVSPropertyOp49
 70
     1
102
RTVSPropertyOp50
 70
     1
102
RTVSPropertyOp51
 70
     0
102
RTVSPropertyOp52
 70
     0
102
RTVSPropertyOp53
 70
     1
102
RTVSPropertyOp54
 70
     1
102
RTVSPropertyOp55
 70
     1
102
RTVSPropertyOp56
 70
     1
102
RTVSPropertyOp57
 70
     1
102
RTVSPost2010Prop28
280
     0
102
RTVSPost2010PropOp28
 70
     1
102
RTVSPost2010Prop29
280
     1
102
RTVSPost2010PropOp29
 70
     1
102
RTVSPost2010Prop30
280
     1
102
RTVSPost2010PropOp30
 70
     1
102
RTVSPost2010Prop31
280
     0
102
RTVSPost2010PropOp31
 70
     1
102
RTVSPost2010Prop32
280
     0
102
RTVSPost2010PropOp32
 70
     1
102
RTVSPost2010Prop33
280
     0
102
RTVSPost2010PropOp33
 70
     1
102
RTVSPost2010Prop34
280
     0
102
RTVSPost2010PropOp34
 70
     1
102
RTVSPost2010Prop35
280
     0
102
RTVSPost2010PropOp35
 70
     1
102
RTVSPost2010Prop36
280
     0
102
RTVSPost2010PropOp36
 70
     1
102
RTVSPost2010Prop37
 90
       50
102
RTVSPost2010PropOp37
 70
     1
102
RTVSPost2010Prop38
140
0.0
102
RTVSPost2010PropOp38
 70
     1
102
RTVSPost2010Prop39
140
1.0
102
RTVSPost2010PropOp39
 70
     1
102
RTVSPost2010Prop40
 90
        0
102
RTVSPost2010PropOp40
 70
     1
102
RTVSPost2010Prop41ColorIndex
 90
       18
102
RTVSPost2010Prop41ColorRGB
 90
        0
102
RTVSPost2010PropOp41
 70
     1
102
RTVSPost2010Prop42
 90
       50
102
RTVSPost2010PropOp42
 70
     1
102
RTVSPost2010Prop43
 90
        3
102
RTVSPost2010PropOp43
 70
     1
102
RTVSPost2010Prop44ColorIndex
 90
        5
102
RTVSPost2010Prop44ColorRGB
 90
      255
102
RTVSPost2010PropOp44
 70
     1
102
RTVSPost2010Prop45
280
     0
102
RTVSPost2010PropOp45
 70
     1
102
RTVSPost2010Prop46
 90
       50
102
RTVSPost2010PropOp46
 70
     1
102
RTVSPost2010Prop47
 90
       50
102
RTVSPost2010PropOp47
 70
     1
102
RTVSPost2010Prop48
 90
       50
102
RTVSPost2010PropOp48
 70
     1
102
RTVSPost2010Prop49
280
     0
102
RTVSPost2010PropOp49
 70
     1
102
RTVSPost2010Prop50
 90
       50
102
RTVSPost2010PropOp50
 70
     1
102
RTVSPost2010Prop51ColorIndex
 90
      256
102
RTVSPost2010Prop51ColorRGB
 90
-16777216
102
RTVSPost2010PropOp51
 70
     0
102
RTVSPost2010Prop52
140
1.0
102
RTVSPost2010PropOp52
 70
     0
102
RTVSPost2010Prop53
 90
        2
102
RTVSPost2010PropOp53
 70
     1
102
RTVSPost2010Prop54
  1
strokes_ogs.tif
102
RTVSPost2010PropOp54
 70
     1
102
RTVSPost2010Prop55
280
     0
102
RTVSPost2010PropOp55
 70
     1
102
RTVSPost2010Prop56
140
1.0
102
RTVSPost2010PropOp56
 70
     1
102
RTVSPost2010Prop57
140
1.0
102
RTVSPost2010PropOp57
 70
     1
  0
ENDSEC
  0
EOF
