  0
SECTION
  2
HEADER
  9
$ACADVER
  1
AC1032
  9
$ACADMAINTVER
 90
        4
  9
$DWGCODEPAGE
  3
ANSI_932
  9
$LASTSAVEDBY
  1
mizuki.kobayashi
  9
$REQUIREDVERSIONS
160
                 0
  9
$INSBASE
 10
0.0
 20
0.0
 30
0.0
  9
$EXTMIN
 10
-2100.0
 20
-1485.0
 30
0.0
  9
$EXTMAX
 10
2100.0
 20
1485.0
 30
0.0
  9
$LIMMIN
 10
-2100.0
 20
-1485.0
  9
$LIMMAX
 10
2100.0
 20
1485.0
  9
$ORTHOMODE
 70
     0
  9
$REGENMODE
 70
     1
  9
$FILLMODE
 70
     1
  9
$QTEXTMODE
 70
     0
  9
$MIRRTEXT
 70
     1
  9
$LTSCALE
 40
10.0
  9
$ATTMODE
 70
     1
  9
$TEXTSIZE
 40
2.5
  9
$TRACEWID
 40
1.0
  9
$TEXTSTYLE
  7
Standard
  9
$CLAYER
  8
0
  9
$CELTYPE
  6
ByLayer
  9
$CECOLOR
 62
   256
  9
$CELTSCALE
 40
1.0
  9
$DISPSILH
 70
     0
  9
$DIMSCALE
 40
1.0
  9
$DIMASZ
 40
2.5
  9
$DIMEXO
 40
0.625
  9
$DIMDLI
 40
3.75
  9
$DIMRND
 40
0.0
  9
$DIMDLE
 40
0.0
  9
$DIMEXE
 40
1.25
  9
$DIMTP
 40
0.0
  9
$DIMTM
 40
0.0
  9
$DIMTXT
 40
2.5
  9
$DIMCEN
 40
2.5
  9
$DIMTSZ
 40
0.0
  9
$DIMTOL
 70
     0
  9
$DIMLIM
 70
     0
  9
$DIMTIH
 70
     0
  9
$DIMTOH
 70
     0
  9
$DIMSE1
 70
     0
  9
$DIMSE2
 70
     0
  9
$DIMTAD
 70
     1
  9
$DIMZIN
 70
     8
  9
$DIMBLK
  1

  9
$DIMASO
 70
     1
  9
$DIMSHO
 70
     1
  9
$DIMPOST
  1

  9
$DIMAPOST
  1

  9
$DIMALT
 70
     0
  9
$DIMALTD
 70
     3
  9
$DIMALTF
 40
0.03937007874016
  9
$DIMLFAC
 40
1.0
  9
$DIMTOFL
 70
     1
  9
$DIMTVP
 40
0.0
  9
$DIMTIX
 70
     0
  9
$DIMSOXD
 70
     0
  9
$DIMSAH
 70
     0
  9
$DIMBLK1
  1

  9
$DIMBLK2
  1

  9
$DIMSTYLE
  2
ISO-25
  9
$DIMCLRD
 70
     0
  9
$DIMCLRE
 70
     0
  9
$DIMCLRT
 70
     0
  9
$DIMTFAC
 40
1.0
  9
$DIMGAP
 40
0.625
  9
$DIMJUST
 70
     0
  9
$DIMSD1
 70
     0
  9
$DIMSD2
 70
     0
  9
$DIMTOLJ
 70
     0
  9
$DIMTZIN
 70
     8
  9
$DIMALTZ
 70
     0
  9
$DIMALTTZ
 70
     0
  9
$DIMUPT
 70
     0
  9
$DIMDEC
 70
     2
  9
$DIMTDEC
 70
     2
  9
$DIMALTU
 70
     2
  9
$DIMALTTD
 70
     3
  9
$DIMTXSTY
  7
Standard
  9
$DIMAUNIT
 70
     0
  9
$DIMADEC
 70
     0
  9
$DIMALTRND
 40
0.0
  9
$DIMAZIN
 70
     0
  9
$DIMDSEP
 70
    44
  9
$DIMATFIT
 70
     3
  9
$DIMFRAC
 70
     0
  9
$DIMLDRBLK
  1

  9
$DIMLUNIT
 70
     2
  9
$DIMLWD
 70
    -2
  9
$DIMLWE
 70
    -2
  9
$DIMTMOVE
 70
     0
  9
$DIMFXL
 40
1.0
  9
$DIMFXLON
 70
     0
  9
$DIMJOGANG
 40
0.7853981633974483
  9
$DIMTFILL
 70
     0
  9
$DIMTFILLCLR
 70
     0
  9
$DIMARCSYM
 70
     0
  9
$DIMLTYPE
  6

  9
$DIMLTEX1
  6

  9
$DIMLTEX2
  6

  9
$DIMTXTDIRECTION
 70
     0
  9
$LUNITS
 70
     2
  9
$LUPREC
 70
     4
  9
$SKETCHINC
 40
1.0
  9
$FILLETRAD
 40
10.0
  9
$AUNITS
 70
     0
  9
$AUPREC
 70
     0
  9
$MENU
  1
.
  9
$ELEVATION
 40
0.0
  9
$PELEVATION
 40
0.0
  9
$THICKNESS
 40
0.0
  9
$LIMCHECK
 70
     0
  9
$CHAMFERA
 40
0.0
  9
$CHAMFERB
 40
0.0
  9
$CHAMFERC
 40
0.0
  9
$CHAMFERD
 40
0.0
  9
$SKPOLY
 70
     0
  9
$TDCREATE
 40
2459192.417872813
  9
$TDUCREATE
 40
2459192.042872813
  9
$TDUPDATE
 40
2459192.417872916
  9
$TDUUPDATE
 40
2459192.042872916
  9
$TDINDWG
 40
0.0000000116
  9
$TDUSRTIMER
 40
0.0000000116
  9
$USRTIMER
 70
     1
  9
$ANGBASE
 50
0.0
  9
$ANGDIR
 70
     0
  9
$PDMODE
 70
     0
  9
$PDSIZE
 40
0.0
  9
$PLINEWID
 40
0.0
  9
$SPLFRAME
 70
     0
  9
$SPLINETYPE
 70
     6
  9
$SPLINESEGS
 70
     8
  9
$HANDSEED
  5
2BC
  9
$SURFTAB1
 70
     6
  9
$SURFTAB2
 70
     6
  9
$SURFTYPE
 70
     6
  9
$SURFU
 70
     6
  9
$SURFV
 70
     6
  9
$UCSBASE
  2

  9
$UCSNAME
  2

  9
$UCSORG
 10
0.0
 20
0.0
 30
0.0
  9
$UCSXDIR
 10
1.0
 20
0.0
 30
0.0
  9
$UCSYDIR
 10
0.0
 20
1.0
 30
0.0
  9
$UCSORTHOREF
  2

  9
$UCSORTHOVIEW
 70
     0
  9
$UCSORGTOP
 10
0.0
 20
0.0
 30
0.0
  9
$UCSORGBOTTOM
 10
0.0
 20
0.0
 30
0.0
  9
$UCSORGLEFT
 10
0.0
 20
0.0
 30
0.0
  9
$UCSORGRIGHT
 10
0.0
 20
0.0
 30
0.0
  9
$UCSORGFRONT
 10
0.0
 20
0.0
 30
0.0
  9
$UCSORGBACK
 10
0.0
 20
0.0
 30
0.0
  9
$PUCSBASE
  2

  9
$PUCSNAME
  2

  9
$PUCSORG
 10
0.0
 20
0.0
 30
0.0
  9
$PUCSXDIR
 10
1.0
 20
0.0
 30
0.0
  9
$PUCSYDIR
 10
0.0
 20
1.0
 30
0.0
  9
$PUCSORTHOREF
  2

  9
$PUCSORTHOVIEW
 70
     0
  9
$PUCSORGTOP
 10
0.0
 20
0.0
 30
0.0
  9
$PUCSORGBOTTOM
 10
0.0
 20
0.0
 30
0.0
  9
$PUCSORGLEFT
 10
0.0
 20
0.0
 30
0.0
  9
$PUCSORGRIGHT
 10
0.0
 20
0.0
 30
0.0
  9
$PUCSORGFRONT
 10
0.0
 20
0.0
 30
0.0
  9
$PUCSORGBACK
 10
0.0
 20
0.0
 30
0.0
  9
$USERI1
 70
     0
  9
$USERI2
 70
     0
  9
$USERI3
 70
     0
  9
$USERI4
 70
     0
  9
$USERI5
 70
     0
  9
$USERR1
 40
0.0
  9
$USERR2
 40
0.0
  9
$USERR3
 40
0.0
  9
$USERR4
 40
0.0
  9
$USERR5
 40
0.0
  9
$WORLDVIEW
 70
     1
  9
$SHADEDGE
 70
     3
  9
$SHADEDIF
 70
    70
  9
$TILEMODE
 70
     1
  9
$MAXACTVP
 70
    64
  9
$PINSBASE
 10
0.0
 20
0.0
 30
0.0
  9
$PLIMCHECK
 70
     0
  9
$PEXTMIN
 10
1.000000000000000E+20
 20
1.000000000000000E+20
 30
1.000000000000000E+20
  9
$PEXTMAX
 10
-1.000000000000000E+20
 20
-1.000000000000000E+20
 30
-1.000000000000000E+20
  9
$PLIMMIN
 10
0.0
 20
0.0
  9
$PLIMMAX
 10
420.0
 20
297.0
  9
$UNITMODE
 70
     0
  9
$VISRETAIN
 70
     1
  9
$PLINEGEN
 70
     0
  9
$PSLTSCALE
 70
     1
  9
$TREEDEPTH
 70
  3020
  9
$CMLSTYLE
  2
Standard
  9
$CMLJUST
 70
     0
  9
$CMLSCALE
 40
20.0
  9
$PROXYGRAPHICS
 70
     1
  9
$MEASUREMENT
 70
     1
  9
$CELWEIGHT
370
    -1
  9
$ENDCAPS
280
     0
  9
$JOINSTYLE
280
     0
  9
$LWDISPLAY
290
     0
  9
$INSUNITS
 70
     4
  9
$HYPERLINKBASE
  1

  9
$STYLESHEET
  1

  9
$XEDIT
290
     1
  9
$CEPSNTYPE
380
     0
  9
$PSTYLEMODE
290
     1
  9
$FINGERPRINTGUID
  2
{aa12049e-a964-4d28-9250-9888cf2d28f2}
  9
$VERSIONGUID
  2
{FAEB1C32-E019-11D5-929B-00C0DF256EC4}
  9
$EXTNAMES
290
     1
  9
$PSVPSCALE
 40
0.0
  9
$OLESTARTUP
290
     0
  9
$SORTENTS
280
   127
  9
$INDEXCTL
280
     0
  9
$HIDETEXT
280
     1
  9
$XCLIPFRAME
280
     2
  9
$HALOGAP
280
     0
  9
$OBSCOLOR
 70
   257
  9
$OBSLTYPE
280
     0
  9
$INTERSECTIONDISPLAY
280
     0
  9
$INTERSECTIONCOLOR
 70
   257
  9
$DIMASSOC
280
     2
  9
$PROJECTNAME
  1

  9
$CAMERADISPLAY
290
     0
  9
$LENSLENGTH
 40
50.0
  9
$CAMERAHEIGHT
 40
0.0
  9
$STEPSPERSEC
 40
2.0
  9
$STEPSIZE
 40
6.0
  9
$3DDWFPREC
 40
2.0
  9
$PSOLWIDTH
 40
5.0
  9
$PSOLHEIGHT
 40
80.0
  9
$LOFTANG1
 40
1.570796326794897
  9
$LOFTANG2
 40
1.570796326794897
  9
$LOFTMAG1
 40
0.0
  9
$LOFTMAG2
 40
0.0
  9
$LOFTPARAM
 70
     7
  9
$LOFTNORMALS
280
     1
  9
$LATITUDE
 40
37.795
  9
$LONGITUDE
 40
-122.394
  9
$NORTHDIRECTION
 40
0.0
  9
$TIMEZONE
 70
 -8000
  9
$LIGHTGLYPHDISPLAY
280
     1
  9
$TILEMODELIGHTSYNCH
280
     1
  9
$CMATERIAL
347
44
  9
$SOLIDHIST
280
     0
  9
$SHOWHIST
280
     1
  9
$DWFFRAME
280
     2
  9
$DGNFRAME
280
     2
  9
$REALWORLDSCALE
290
     1
  9
$INTERFERECOLOR
 62
   256
  9
$CSHADOW
280
     0
  9
$SHADOWPLANELOCATION
 40
0.0
  0
ENDSEC
  0
SECTION
  2
CLASSES
  0
CLASS
  1
ACDBDICTIONARYWDFLT
  2
AcDbDictionaryWithDefault
  3
ObjectDBX Classes
 90
        0
 91
        3
280
     0
281
     0
  0
CLASS
  1
VISUALSTYLE
  2
AcDbVisualStyle
  3
ObjectDBX Classes
 90
     4095
 91
        3
280
     0
281
     0
  0
CLASS
  1
MATERIAL
  2
AcDbMaterial
  3
ObjectDBX Classes
 90
     1153
 91
        3
280
     0
281
     0
  0
CLASS
  1
SCALE
  2
AcDbScale
  3
ObjectDBX Classes
 90
     1153
 91
        3
280
     0
281
     0
  0
CLASS
  1
TABLESTYLE
  2
AcDbTableStyle
  3
ObjectDBX Classes
 90
     4095
 91
        3
280
     0
281
     0
  0
CLASS
  1
MLEADERSTYLE
  2
AcDbMLeaderStyle
  3
ACDB_MLEADERSTYLE_CLASS
 90
     4095
 91
        3
280
     0
281
     0
  0
CLASS
  1
SUN
  2
AcDbSun
  3
SCENEOE
 90
     1153
 91
        3
280
     0
281
     0
  0
CLASS
  1
DICTIONARYVAR
  2
AcDbDictionaryVar
  3
ObjectDBX Classes
 90
        0
 91
        3
280
     0
281
     0
  0
CLASS
  1
CELLSTYLEMAP
  2
AcDbCellStyleMap
  3
ObjectDBX Classes
 90
     1152
 91
        3
280
     0
281
     0
  0
ENDSEC
  0
SECTION
  2
TABLES
  0
TABLE
  2
VPORT
  5
8
330
0
100
AcDbSymbolTable
 70
     1
  0
VPORT
  5
29
330
8
100
AcDbSymbolTableRecord
100
AcDbViewportTableRecord
  2
*Active
 70
     0
 10
0.0
 20
0.0
 11
1.0
 21
1.0
 12
0.0
 22
0.0
 13
0.0
 23
0.0
 14
10.0
 24
10.0
 15
10.0
 25
10.0
 16
0.0
 26
0.0
 36
1.0
 17
0.0
 27
0.0
 37
0.0
 40
3267.0
 41
1.414141414141414
 42
50.0
 43
0.0
 44
0.0
 50
0.0
 51
0.0
 71
     0
 72
 10000
 73
     1
 74
     3
 75
     0
 76
     0
 77
     0
 78
     0
281
     0
 65
     1
110
0.0
120
0.0
130
0.0
111
1.0
121
0.0
131
0.0
112
0.0
122
1.0
132
0.0
 79
     0
146
0.0
348
2F
 60
     3
 61
     5
292
     1
282
     1
141
0.0
142
0.0
 63
   250
361
6D
  0
ENDTAB
  0
TABLE
  2
LTYPE
  5
5
330
0
100
AcDbSymbolTable
 70
     4
  0
LTYPE
  5
14
330
5
100
AcDbSymbolTableRecord
100
AcDbLinetypeTableRecord
  2
ByBlock
 70
     0
  3

 72
    65
 73
     0
 40
0.0
  0
LTYPE
  5
15
330
5
100
AcDbSymbolTableRecord
100
AcDbLinetypeTableRecord
  2
ByLayer
 70
     0
  3

 72
    65
 73
     0
 40
0.0
  0
LTYPE
  5
16
330
5
100
AcDbSymbolTableRecord
100
AcDbLinetypeTableRecord
  2
Continuous
 70
     0
  3
Solid line
 72
    65
 73
     0
 40
0.0
  0
LTYPE
  5
6F
330
5
100
AcDbSymbolTableRecord
100
AcDbLinetypeTableRecord
  2
JWW_CENTER1
 70
     0
  3
-----  --  ----------  --  -----
 72
    65
 73
     8
 40
13.54666666666667
 49
4.233333333333333
 74
     0
 49
-0.8466666666666667
 74
     0
 49
0.8466666666666667
 74
     0
 49
-0.8466666666666667
 74
     0
 49
4.233333333333333
 74
     0
 49
-0.8466666666666667
 74
     0
 49
0.8466666666666667
 74
     0
 49
-0.8466666666666667
 74
     0
  0
LTYPE
  5
70
330
5
100
AcDbSymbolTableRecord
100
AcDbLinetypeTableRecord
  2
JWW_PHANTOM1
 70
     0
  3
----  -  -  --------  -  -  ----
 72
    65
 73
    12
 40
13.54666666666667
 49
3.386666666666667
 74
     0
 49
-0.8466666666666667
 74
     0
 49
0.4233333333333333
 74
     0
 49
-0.8466666666666667
 74
     0
 49
0.4233333333333333
 74
     0
 49
-0.8466666666666667
 74
     0
 49
3.386666666666667
 74
     0
 49
-0.8466666666666667
 74
     0
 49
0.4233333333333333
 74
     0
 49
-0.8466666666666667
 74
     0
 49
0.4233333333333333
 74
     0
 49
-0.8466666666666667
 74
     0
  0
LTYPE
  5
71
330
5
100
AcDbSymbolTableRecord
100
AcDbLinetypeTableRecord
  2
JWW_DASHED1
 70
     0
  3
-  --  --  --  --  --  --  --  -
 72
    65
 73
    12
 40
10.16
 49
0.8466666666666667
 74
     0
 49
-0.8466666666666667
 74
     0
 49
0.8466666666666667
 74
     0
 49
-0.8466666666666667
 74
     0
 49
0.8466666666666667
 74
     0
 49
-0.8466666666666667
 74
     0
 49
0.8466666666666667
 74
     0
 49
-0.8466666666666667
 74
     0
 49
0.8466666666666667
 74
     0
 49
-0.8466666666666667
 74
     0
 49
0.8466666666666667
 74
     0
 49
-0.8466666666666667
 74
     0
  0
ENDTAB
  0
TABLE
  2
LAYER
  5
2
330
0
100
AcDbSymbolTable
 70
    17
  0
LAYER
  5
10
330
2
100
AcDbSymbolTableRecord
100
AcDbLayerTableRecord
  2
0
 70
     0
 62
     7
  6
Continuous
370
    -3
390
F
347
46
348
0
  0
LAYER
  5
72
330
2
100
AcDbSymbolTableRecord
100
AcDbLayerTableRecord
  2
0-4
 70
     0
 62
     7
  6
Continuous
370
    -3
390
F
347
46
348
0
  0
LAYER
  5
73
330
2
100
AcDbSymbolTableRecord
100
AcDbLayerTableRecord
  2
B-1
 70
     0
 62
     7
  6
Continuous
370
    -3
390
F
347
46
348
0
  0
LAYER
  5
74
330
2
100
AcDbSymbolTableRecord
100
AcDbLayerTableRecord
  2
1-1
 70
     0
 62
     7
  6
Continuous
370
    -3
390
F
347
46
348
0
  0
LAYER
  5
75
330
2
100
AcDbSymbolTableRecord
100
AcDbLayerTableRecord
  2
1-0
 70
     0
 62
     7
  6
Continuous
370
    -3
390
F
347
46
348
0
  0
LAYER
  5
76
330
2
100
AcDbSymbolTableRecord
100
AcDbLayerTableRecord
  2
1-8
 70
     0
 62
     7
  6
Continuous
370
    -3
390
F
347
46
348
0
  0
LAYER
  5
77
330
2
100
AcDbSymbolTableRecord
100
AcDbLayerTableRecord
  2
1-4
 70
     0
 62
     7
  6
Continuous
370
    -3
390
F
347
46
348
0
  0
LAYER
  5
78
330
2
100
AcDbSymbolTableRecord
100
AcDbLayerTableRecord
  2
1-3
 70
     0
 62
     7
  6
Continuous
370
    -3
390
F
347
46
348
0
  0
LAYER
  5
79
330
2
100
AcDbSymbolTableRecord
100
AcDbLayerTableRecord
  2
B-0
 70
     0
 62
     7
  6
Continuous
370
    -3
390
F
347
46
348
0
  0
LAYER
  5
7A
330
2
100
AcDbSymbolTableRecord
100
AcDbLayerTableRecord
  2
0-3
 70
     0
 62
     7
  6
Continuous
370
    -3
390
F
347
46
348
0
  0
LAYER
  5
7B
330
2
100
AcDbSymbolTableRecord
100
AcDbLayerTableRecord
  2
0-B
 70
     0
 62
     7
  6
Continuous
370
    -3
390
F
347
46
348
0
  0
LAYER
  5
7C
330
2
100
AcDbSymbolTableRecord
100
AcDbLayerTableRecord
  2
0-1
 70
     0
 62
     7
  6
Continuous
370
    -3
390
F
347
46
348
0
  0
LAYER
  5
7D
330
2
100
AcDbSymbolTableRecord
100
AcDbLayerTableRecord
  2
B-4
 70
     0
 62
     7
  6
Continuous
370
    -3
390
F
347
46
348
0
  0
LAYER
  5
7E
330
2
100
AcDbSymbolTableRecord
100
AcDbLayerTableRecord
  2
B-3
 70
     0
 62
     7
  6
Continuous
370
    -3
390
F
347
46
348
0
  0
LAYER
  5
7F
330
2
100
AcDbSymbolTableRecord
100
AcDbLayerTableRecord
  2
1-5
 70
     0
 62
     7
  6
Continuous
370
    -3
390
F
347
46
348
0
  0
LAYER
  5
80
330
2
100
AcDbSymbolTableRecord
100
AcDbLayerTableRecord
  2
1-9
 70
     0
 62
     7
  6
Continuous
370
    -3
390
F
347
46
348
0
  0
LAYER
  5
81
330
2
100
AcDbSymbolTableRecord
100
AcDbLayerTableRecord
  2
1-A
 70
     0
 62
     7
  6
Continuous
370
    -3
390
F
347
46
348
0
  0
ENDTAB
  0
TABLE
  2
STYLE
  5
3
330
0
100
AcDbSymbolTable
 70
     2
  0
STYLE
  5
11
330
3
100
AcDbSymbolTableRecord
100
AcDbTextStyleTableRecord
  2
Standard
 70
     0
 40
0.0
 41
1.0
 50
0.0
 71
     0
 42
2.5
  3
txt
  4

  0
STYLE
  5
6E
330
3
100
AcDbSymbolTableRecord
100
AcDbTextStyleTableRecord
  2
ＭＳ ゴシック
 70
     0
 40
0.0
 41
1.0
 50
0.0
 71
     0
 42
2.5
  3

  4

1001
ACAD
1000
MS Gothic
1071
    32817
  0
ENDTAB
  0
TABLE
  2
VIEW
  5
6
330
0
100
AcDbSymbolTable
 70
     0
  0
ENDTAB
  0
TABLE
  2
UCS
  5
7
330
0
100
AcDbSymbolTable
 70
     0
  0
ENDTAB
  0
TABLE
  2
APPID
  5
9
330
0
100
AcDbSymbolTable
 70
     1
  0
APPID
  5
12
330
9
100
AcDbSymbolTableRecord
100
AcDbRegAppTableRecord
  2
ACAD
 70
     0
  0
ENDTAB
  0
TABLE
  2
DIMSTYLE
  5
A
330
0
100
AcDbSymbolTable
 70
     2
100
AcDbDimStyleTable
  0
DIMSTYLE
105
27
330
A
100
AcDbSymbolTableRecord
100
AcDbDimStyleTableRecord
  2
ISO-25
 70
     0
 41
2.5
 42
0.625
 43
3.75
 44
1.25
 73
     0
 74
     0
 77
     1
 78
     8
140
2.5
141
2.5
143
0.03937007874016
147
0.625
171
     3
172
     1
178
     0
271
     2
272
     2
274
     3
278
    44
283
     0
284
     8
340
11
  0
DIMSTYLE
105
82
330
A
100
AcDbSymbolTableRecord
100
AcDbDimStyleTableRecord
  2
JWAC_DIMSTYLE
 70
     0
  3
x
  4
mm
 41
0.0
 42
0.625
 43
3.75
 44
1.25
 73
     0
 74
     0
 75
     1
 76
     1
 77
     1
 78
     8
140
2.5
141
2.5
143
0.03937007874016
147
0.625
171
     3
172
     1
173
     1
178
     0
271
     2
272
     2
274
     3
278
    32
283
     0
284
     8
340
11
371
     0
372
     0
  0
ENDTAB
  0
TABLE
  2
BLOCK_RECORD
  5
1
330
0
100
AcDbSymbolTable
 70
     1
  0
BLOCK_RECORD
  5
1F
330
1
100
AcDbSymbolTableRecord
100
AcDbBlockTableRecord
  2
*Model_Space
340
22
 70
     0
280
     1
281
     0
  0
BLOCK_RECORD
  5
1B
330
1
100
AcDbSymbolTableRecord
100
AcDbBlockTableRecord
  2
*Paper_Space
340
1E
 70
     0
280
     1
281
     0
  0
BLOCK_RECORD
  5
23
330
1
100
AcDbSymbolTableRecord
100
AcDbBlockTableRecord
  2
*Paper_Space0
340
26
 70
     0
280
     1
281
     0
  0
ENDTAB
  0
ENDSEC
  0
SECTION
  2
BLOCKS
  0
BLOCK
  5
20
330
1F
100
AcDbEntity
  8
0
100
AcDbBlockBegin
  2
*Model_Space
 70
     0
 10
0.0
 20
0.0
 30
0.0
  3
*Model_Space
  1

  0
ENDBLK
  5
21
330
1F
100
AcDbEntity
  8
0
100
AcDbBlockEnd
  0
BLOCK
  5
1C
330
1B
100
AcDbEntity
 67
     1
  8
0
100
AcDbBlockBegin
  2
*Paper_Space
 70
     0
 10
0.0
 20
0.0
 30
0.0
  3
*Paper_Space
  1

  0
ENDBLK
  5
1D
330
1B
100
AcDbEntity
 67
     1
  8
0
100
AcDbBlockEnd
  0
BLOCK
  5
24
330
23
100
AcDbEntity
  8
0
100
AcDbBlockBegin
  2
*Paper_Space0
 70
     0
 10
0.0
 20
0.0
 30
0.0
  3
*Paper_Space0
  1

  0
ENDBLK
  5
25
330
23
100
AcDbEntity
  8
0
100
AcDbBlockEnd
  0
ENDSEC
  0
SECTION
  2
ENTITIES
  0
LINE
  5
83
330
1F
100
AcDbEntity
  8
0-4
  6
Continuous
 62
     2
370
     9
100
AcDbLine
 10
844.974332242399
 20
-327.1616425385345
 30
0.0
 11
844.974332242399
 21
-262.1624178499787
 31
0.0
  0
LINE
  5
84
330
1F
100
AcDbEntity
  8
0-4
  6
Continuous
 62
     2
370
     9
100
AcDbLine
 10
844.974332242399
 20
-262.1624178499787
 30
0.0
 11
1310.700370169975
 21
-262.1624178499787
 31
0.0
  0
LINE
  5
85
330
1F
100
AcDbEntity
  8
0-4
  6
Continuous
 62
     2
370
     9
100
AcDbLine
 10
1310.700370169975
 20
-262.1624178499787
 30
0.0
 11
1310.700370169975
 21
-327.1616425385345
 31
0.0
  0
LINE
  5
86
330
1F
100
AcDbEntity
  8
0-4
  6
Continuous
 62
     2
370
     9
100
AcDbLine
 10
1310.700370169975
 20
-327.1616425385345
 30
0.0
 11
844.974332242399
 21
-327.1616425385345
 31
0.0
  0
LINE
  5
87
330
1F
100
AcDbEntity
  8
B-1
  6
Continuous
 62
     2
370
     9
100
AcDbLine
 10
537.8374254381333
 20
12.83774710990286
 30
0.0
 11
537.8374254381333
 21
912.837375950169
 31
0.0
  0
LINE
  5
88
330
1F
100
AcDbEntity
  8
B-1
  6
Continuous
 62
     2
370
     9
100
AcDbLine
 10
627.8372274862755
 20
-77.16217865815025
 30
0.0
 11
1527.837227486275
 21
-77.16217865815025
 31
0.0
  0
LINE
  5
89
330
1F
100
AcDbEntity
  8
B-1
  6
Continuous
 62
     2
370
     9
100
AcDbLine
 10
539.8374815244932
 20
12.83774710990286
 30
0.0
 11
539.8374815244932
 21
912.837375950169
 31
0.0
  0
LINE
  5
8A
330
1F
100
AcDbEntity
  8
B-1
  6
Continuous
 62
     2
370
     9
100
AcDbLine
 10
654.4478957717484
 20
-49.16238320840364
 30
0.0
 11
958.2213530669344
 21
-49.16238320840364
 31
0.0
  0
LINE
  5
8B
330
1F
100
AcDbEntity
  8
B-1
  6
Continuous
 62
     2
370
     9
100
AcDbLine
 10
654.4478957717484
 20
-53.16261910103464
 30
0.0
 11
958.2213530669344
 21
-53.16261910103464
 31
0.0
  0
LINE
  5
8C
330
1F
100
AcDbEntity
  8
B-1
  6
Continuous
 62
     2
370
     9
100
AcDbLine
 10
565.8372208878802
 20
39.44792051573074
 30
0.0
 11
565.8372208878802
 21
343.2215015308279
 31
0.0
  0
LINE
  5
8D
330
1F
100
AcDbEntity
  8
B-1
  6
Continuous
 62
     2
370
     9
100
AcDbLine
 10
561.8373561549834
 20
39.44792051573074
 30
0.0
 11
561.8373561549834
 21
343.2215015308279
 31
0.0
  0
LINE
  5
8E
330
1F
100
AcDbEntity
  8
B-1
  6
Continuous
 62
     2
370
     9
100
AcDbLine
 10
716.8618691934125
 20
108.9334766284841
 30
0.0
 11
621.6579127956084
 21
13.72939651076877
 31
0.0
  0
LINE
  5
8F
330
1F
100
AcDbEntity
  8
B-1
  6
Continuous
 62
     2
370
     9
100
AcDbLine
 10
723.9334518845021
 20
101.8623888170399
 30
0.0
 11
628.7290006070526
 21
6.658308699324493
 31
0.0
  0
LINE
  5
90
330
1F
100
AcDbEntity
  8
B-1
  6
Continuous
 62
     2
370
     9
100
AcDbLine
 10
716.8618691934125
 20
108.9334766284841
 30
0.0
 11
710.9054977829396
 21
108.6335795634503
 31
0.0
  0
LINE
  5
91
330
1F
100
AcDbEntity
  8
B-1
  6
Continuous
 62
     2
370
     9
100
AcDbLine
 10
723.9334518845021
 20
101.8623888170399
 30
0.0
 11
723.6330599398229
 21
95.90552252692163
 31
0.0
  0
LINE
  5
92
330
1F
100
AcDbEntity
  8
B-1
  6
Continuous
 62
     2
370
     9
100
AcDbLine
 10
642.6855963629646
 20
-38.78178776921459
 30
0.0
 11
624.3898958773229
 21
-57.07748825485623
 31
0.0
  0
LINE
  5
93
330
1F
100
AcDbEntity
  8
B-1
  6
Continuous
 62
     2
370
     9
100
AcDbLine
 10
576.2180637668922
 20
27.68648714632604
 30
0.0
 11
557.9221158414276
 21
9.390662940772927
 31
0.0
  0
LINE
  5
94
330
1F
100
AcDbEntity
  8
B-1
  6
Continuous
 62
     2
370
     9
100
AcDbLine
 10
628.7290006070526
 20
6.658308699324493
 30
0.0
 11
723.6330599398229
 21
95.90552252692163
 31
0.0
  0
LINE
  5
95
330
1F
100
AcDbEntity
  8
B-1
  6
Continuous
 62
     2
370
     9
100
AcDbLine
 10
710.9054977829396
 20
108.6335795634503
 30
0.0
 11
621.6579127956084
 21
13.72939651076877
 31
0.0
  0
LINE
  5
96
330
1F
100
AcDbEntity
  8
B-1
  6
Continuous
 62
     2
370
     9
100
AcDbLine
 10
679.1317501583615
 20
133.4289055901607
 30
0.0
 11
579.493672138936
 21
33.79107501055756
 31
0.0
  0
LINE
  5
97
330
1F
100
AcDbEntity
  8
B-1
  6
Continuous
 62
     2
370
     9
100
AcDbLine
 10
681.9602347709036
 20
130.600297257707
 30
0.0
 11
559.9684431746203
 21
8.60887682115731
 31
0.0
  0
LINE
  5
98
330
1F
100
AcDbEntity
  8
B-1
  6
Continuous
 62
     2
370
     9
100
AcDbLine
 10
648.7906791068411
 20
-35.50556079761407
 30
0.0
 11
748.4287571262672
 21
64.13239350190054
 31
0.0
  0
LINE
  5
99
330
1F
100
AcDbEntity
  8
B-1
  6
Continuous
 62
     2
370
     9
100
AcDbLine
 10
745.600272513725
 20
66.96112555426538
 30
0.0
 11
623.6082334776182
 21
-55.03066604201848
 31
0.0
  0
LINE
  5
9A
330
1F
100
AcDbEntity
  8
B-1
  6
Continuous
 62
     2
370
     9
100
AcDbLine
 10
654.4478957717484
 20
974.8378774282096
 30
0.0
 11
958.2213530669344
 21
974.8378774282096
 31
0.0
  0
LINE
  5
9B
330
1F
100
AcDbEntity
  8
B-1
  6
Continuous
 62
     2
370
     9
100
AcDbLine
 10
654.4478957717484
 20
978.8379896009292
 30
0.0
 11
958.2213530669344
 21
978.8379896009292
 31
0.0
  0
LINE
  5
9C
330
1F
100
AcDbEntity
  8
B-1
  6
Continuous
 62
     2
370
     9
100
AcDbLine
 10
565.8372208878802
 20
886.2276974239867
 30
0.0
 11
565.8372208878802
 21
582.4537452491554
 31
0.0
  0
LINE
  5
9D
330
1F
100
AcDbEntity
  8
B-1
  6
Continuous
 62
     2
370
     9
100
AcDbLine
 10
561.8373561549834
 20
886.2276974239867
 30
0.0
 11
561.8373561549834
 21
582.4537452491554
 31
0.0
  0
LINE
  5
9E
330
1F
100
AcDbEntity
  8
B-1
  6
Continuous
 62
     2
370
     9
100
AcDbLine
 10
716.8618691934125
 20
816.741646431588
 30
0.0
 11
621.6579127956084
 21
911.9456028293919
 31
0.0
  0
LINE
  5
9F
330
1F
100
AcDbEntity
  8
B-1
  6
Continuous
 62
     2
370
     9
100
AcDbLine
 10
723.9334518845021
 20
823.8124868032096
 30
0.0
 11
628.7290006070526
 21
919.0164432010135
 31
0.0
  0
LINE
  5
A0
330
1F
100
AcDbEntity
  8
B-1
  6
Continuous
 62
     2
370
     9
100
AcDbLine
 10
716.8618691934125
 20
816.741646431588
 30
0.0
 11
710.9054977829396
 21
817.0415434966217
 31
0.0
  0
LINE
  5
A1
330
1F
100
AcDbEntity
  8
B-1
  6
Continuous
 62
     2
370
     9
100
AcDbLine
 10
723.9334518845021
 20
823.8124868032096
 30
0.0
 11
723.6330599398229
 21
829.7698479729731
 31
0.0
  0
LINE
  5
A2
330
1F
100
AcDbEntity
  8
B-1
  6
Continuous
 62
     2
370
     9
100
AcDbLine
 10
642.6855963629646
 20
964.456787109375
 30
0.0
 11
624.3898958773229
 21
982.7529824746623
 31
0.0
  0
LINE
  5
A3
330
1F
100
AcDbEntity
  8
B-1
  6
Continuous
 62
     2
370
     9
100
AcDbLine
 10
576.2180637668922
 20
897.98900707348
 30
0.0
 11
557.9221158414276
 21
916.2847075591217
 31
0.0
  0
LINE
  5
A4
330
1F
100
AcDbEntity
  8
B-1
  6
Continuous
 62
     2
370
     9
100
AcDbLine
 10
628.7290006070526
 20
919.0164432010135
 30
0.0
 11
723.6330599398229
 21
829.7698479729731
 31
0.0
  0
LINE
  5
A5
330
1F
100
AcDbEntity
  8
B-1
  6
Continuous
 62
     2
370
     9
100
AcDbLine
 10
710.9054977829396
 20
817.0415434966217
 30
0.0
 11
621.6579127956084
 21
911.9456028293919
 31
0.0
  0
LINE
  5
A6
330
1F
100
AcDbEntity
  8
B-1
  6
Continuous
 62
     2
370
     9
100
AcDbLine
 10
679.1317501583615
 20
792.2465886296453
 30
0.0
 11
579.493672138936
 21
891.8841717694258
 31
0.0
  0
LINE
  5
A7
330
1F
100
AcDbEntity
  8
B-1
  6
Continuous
 62
     2
370
     9
100
AcDbLine
 10
681.9602347709036
 20
795.0748258023651
 30
0.0
 11
559.9684431746203
 21
917.0666173986488
 31
0.0
  0
LINE
  5
A8
330
1F
100
AcDbEntity
  8
B-1
  6
Continuous
 62
     2
370
     9
100
AcDbLine
 10
648.7906791068411
 20
961.180683857686
 30
0.0
 11
748.4287571262672
 21
861.5431007179054
 31
0.0
  0
LINE
  5
A9
330
1F
100
AcDbEntity
  8
B-1
  6
Continuous
 62
     2
370
     9
100
AcDbLine
 10
745.600272513725
 20
858.7143686655406
 30
0.0
 11
623.6082334776182
 21
980.7056653821792
 31
0.0
  0
LINE
  5
AA
330
1F
100
AcDbEntity
  8
B-1
  6
JWW_CENTER1
 62
     2
370
     9
100
AcDbLine
 10
755.1168080922719
 20
896.3019623627533
 30
0.0
 11
755.1168080922719
 21
929.4415778082771
 31
0.0
  0
LINE
  5
AB
330
1F
100
AcDbEntity
  8
B-1
  6
JWW_CENTER1
 62
     2
370
     9
100
AcDbLine
 10
773.6305030616558
 20
912.837375950169
 30
0.0
 11
738.2810025601776
 21
912.837375950169
 31
0.0
  0
LINE
  5
AC
330
1F
100
AcDbEntity
  8
B-1
  6
Continuous
 62
     2
370
     9
100
AcDbLine
 10
627.8372274862755
 20
-75.16261745143566
 30
0.0
 11
1077.837722365921
 21
-75.16261745143566
 31
0.0
  0
LINE
  5
AD
330
1F
100
AcDbEntity
  8
B-1
  6
Continuous
 62
     2
370
     9
100
AcDbLine
 10
627.8372274862755
 20
1000.837369351774
 30
0.0
 11
1077.837722365921
 21
1000.837369351774
 31
0.0
  0
LINE
  5
AE
330
1F
100
AcDbEntity
  8
B-1
  6
Continuous
 62
     2
370
     9
100
AcDbLine
 10
627.8372274862755
 20
1002.837672877956
 30
0.0
 11
1527.837227486275
 21
1002.837672877956
 31
0.0
  0
LINE
  5
AF
330
1F
100
AcDbEntity
  8
B-1
  6
Continuous
 62
     2
370
     9
100
AcDbLine
 10
1617.838266733531
 20
12.83774710990286
 30
0.0
 11
1617.838266733531
 21
912.837375950169
 31
0.0
  0
LINE
  5
B0
330
1F
100
AcDbEntity
  8
B-1
  6
Continuous
 62
     2
370
     9
100
AcDbLine
 10
1615.838210647171
 20
12.83774710990286
 30
0.0
 11
1615.838210647171
 21
912.837375950169
 31
0.0
  0
LINE
  5
B1
330
1F
100
AcDbEntity
  8
B-1
  6
Continuous
 62
     2
370
     9
100
AcDbLine
 10
1501.227548960093
 20
-49.16238320840364
 30
0.0
 11
1197.454091664907
 21
-49.16238320840364
 31
0.0
  0
LINE
  5
B2
330
1F
100
AcDbEntity
  8
B-1
  6
Continuous
 62
     2
370
     9
100
AcDbLine
 10
1501.227548960093
 20
-53.16261910103464
 30
0.0
 11
1197.454091664907
 21
-53.16261910103464
 31
0.0
  0
LINE
  5
B3
330
1F
100
AcDbEntity
  8
B-1
  6
Continuous
 62
     2
370
     9
100
AcDbLine
 10
1589.838223843961
 20
39.44792051573074
 30
0.0
 11
1589.838223843961
 21
343.2215015308279
 31
0.0
  0
LINE
  5
B4
330
1F
100
AcDbEntity
  8
B-1
  6
Continuous
 62
     2
370
     9
100
AcDbLine
 10
1593.838088576858
 20
39.44792051573074
 30
0.0
 11
1593.838088576858
 21
343.2215015308279
 31
0.0
  0
LINE
  5
B5
330
1F
100
AcDbEntity
  8
B-1
  6
Continuous
 62
     2
370
     9
100
AcDbLine
 10
1438.813575538429
 20
108.9334766284841
 30
0.0
 11
1534.017531936233
 21
13.72939651076877
 31
0.0
  0
LINE
  5
B6
330
1F
100
AcDbEntity
  8
B-1
  6
Continuous
 62
     2
370
     9
100
AcDbLine
 10
1431.74199284734
 20
101.8623888170399
 30
0.0
 11
1526.946444124789
 21
6.658308699324493
 31
0.0
  0
LINE
  5
B7
330
1F
100
AcDbEntity
  8
B-1
  6
Continuous
 62
     2
370
     9
100
AcDbLine
 10
1438.813575538429
 20
108.9334766284841
 30
0.0
 11
1444.769946948902
 21
108.6335795634503
 31
0.0
  0
LINE
  5
B8
330
1F
100
AcDbEntity
  8
B-1
  6
Continuous
 62
     2
370
     9
100
AcDbLine
 10
1431.74199284734
 20
101.8623888170399
 30
0.0
 11
1432.042384792019
 21
95.90552252692163
 31
0.0
  0
LINE
  5
B9
330
1F
100
AcDbEntity
  8
B-1
  6
Continuous
 62
     2
370
     9
100
AcDbLine
 10
1512.989848368877
 20
-38.78178776921459
 30
0.0
 11
1531.285548854519
 21
-57.07748825485623
 31
0.0
  0
LINE
  5
BA
330
1F
100
AcDbEntity
  8
B-1
  6
Continuous
 62
     2
370
     9
100
AcDbLine
 10
1579.45738096495
 20
27.68648714632604
 30
0.0
 11
1597.753328890414
 21
9.390662940772927
 31
0.0
  0
LINE
  5
BB
330
1F
100
AcDbEntity
  8
B-1
  6
Continuous
 62
     2
370
     9
100
AcDbLine
 10
1526.946444124789
 20
6.658308699324493
 30
0.0
 11
1432.042384792019
 21
95.90552252692163
 31
0.0
  0
LINE
  5
BC
330
1F
100
AcDbEntity
  8
B-1
  6
Continuous
 62
     2
370
     9
100
AcDbLine
 10
1444.769946948902
 20
108.6335795634503
 30
0.0
 11
1534.017531936233
 21
13.72939651076877
 31
0.0
  0
LINE
  5
BD
330
1F
100
AcDbEntity
  8
B-1
  6
Continuous
 62
     2
370
     9
100
AcDbLine
 10
1476.543942013303
 20
133.4289055901607
 30
0.0
 11
1576.181772592906
 21
33.79107501055756
 31
0.0
  0
LINE
  5
BE
330
1F
100
AcDbEntity
  8
B-1
  6
Continuous
 62
     2
370
     9
100
AcDbLine
 10
1473.715209960938
 20
130.600297257707
 30
0.0
 11
1595.707001557221
 21
8.60887682115731
 31
0.0
  0
LINE
  5
BF
330
1F
100
AcDbEntity
  8
B-1
  6
Continuous
 62
     2
370
     9
100
AcDbLine
 10
1506.885013064823
 20
-35.50556079761407
 30
0.0
 11
1407.246687605575
 21
64.13239350190054
 31
0.0
  0
LINE
  5
C0
330
1F
100
AcDbEntity
  8
B-1
  6
Continuous
 62
     2
370
     9
100
AcDbLine
 10
1410.075172218117
 20
66.96112555426538
 30
0.0
 11
1532.067458694046
 21
-55.03066604201848
 31
0.0
  0
LINE
  5
C1
330
1F
100
AcDbEntity
  8
B-1
  6
Continuous
 62
     2
370
     9
100
AcDbLine
 10
1501.227548960093
 20
974.8378774282096
 30
0.0
 11
1197.454091664907
 21
974.8378774282096
 31
0.0
  0
LINE
  5
C2
330
1F
100
AcDbEntity
  8
B-1
  6
Continuous
 62
     2
370
     9
100
AcDbLine
 10
1501.227548960093
 20
978.8379896009292
 30
0.0
 11
1197.454091664907
 21
978.8379896009292
 31
0.0
  0
LINE
  5
C3
330
1F
100
AcDbEntity
  8
B-1
  6
Continuous
 62
     2
370
     9
100
AcDbLine
 10
1589.838223843961
 20
886.2276974239867
 30
0.0
 11
1589.838223843961
 21
582.4537452491554
 31
0.0
  0
LINE
  5
C4
330
1F
100
AcDbEntity
  8
B-1
  6
Continuous
 62
     2
370
     9
100
AcDbLine
 10
1593.838088576858
 20
886.2276974239867
 30
0.0
 11
1593.838088576858
 21
582.4537452491554
 31
0.0
  0
LINE
  5
C5
330
1F
100
AcDbEntity
  8
B-1
  6
Continuous
 62
     2
370
     9
100
AcDbLine
 10
1438.813575538429
 20
816.741646431588
 30
0.0
 11
1534.017531936233
 21
911.9456028293919
 31
0.0
  0
LINE
  5
C6
330
1F
100
AcDbEntity
  8
B-1
  6
Continuous
 62
     2
370
     9
100
AcDbLine
 10
1431.74199284734
 20
823.8124868032096
 30
0.0
 11
1526.946444124789
 21
919.0164432010135
 31
0.0
  0
LINE
  5
C7
330
1F
100
AcDbEntity
  8
B-1
  6
Continuous
 62
     2
370
     9
100
AcDbLine
 10
1438.813575538429
 20
816.741646431588
 30
0.0
 11
1444.769946948902
 21
817.0415434966217
 31
0.0
  0
LINE
  5
C8
330
1F
100
AcDbEntity
  8
B-1
  6
Continuous
 62
     2
370
     9
100
AcDbLine
 10
1431.74199284734
 20
823.8124868032096
 30
0.0
 11
1432.042384792019
 21
829.7698479729731
 31
0.0
  0
LINE
  5
C9
330
1F
100
AcDbEntity
  8
B-1
  6
Continuous
 62
     2
370
     9
100
AcDbLine
 10
1512.989848368877
 20
964.456787109375
 30
0.0
 11
1531.285548854519
 21
982.7529824746623
 31
0.0
  0
LINE
  5
CA
330
1F
100
AcDbEntity
  8
B-1
  6
Continuous
 62
     2
370
     9
100
AcDbLine
 10
1579.45738096495
 20
897.98900707348
 30
0.0
 11
1597.753328890414
 21
916.2847075591217
 31
0.0
  0
LINE
  5
CB
330
1F
100
AcDbEntity
  8
B-1
  6
Continuous
 62
     2
370
     9
100
AcDbLine
 10
1526.946444124789
 20
919.0164432010135
 30
0.0
 11
1432.042384792019
 21
829.7698479729731
 31
0.0
  0
LINE
  5
CC
330
1F
100
AcDbEntity
  8
B-1
  6
Continuous
 62
     2
370
     9
100
AcDbLine
 10
1444.769946948902
 20
817.0415434966217
 30
0.0
 11
1534.017531936233
 21
911.9456028293919
 31
0.0
  0
LINE
  5
CD
330
1F
100
AcDbEntity
  8
B-1
  6
Continuous
 62
     2
370
     9
100
AcDbLine
 10
1476.543942013303
 20
792.2465886296453
 30
0.0
 11
1576.181772592906
 21
891.8841717694258
 31
0.0
  0
LINE
  5
CE
330
1F
100
AcDbEntity
  8
B-1
  6
Continuous
 62
     2
370
     9
100
AcDbLine
 10
1473.715209960938
 20
795.0748258023651
 30
0.0
 11
1595.707001557221
 21
917.0666173986488
 31
0.0
  0
LINE
  5
CF
330
1F
100
AcDbEntity
  8
B-1
  6
Continuous
 62
     2
370
     9
100
AcDbLine
 10
1506.885013064823
 20
961.180683857686
 30
0.0
 11
1407.246687605575
 21
861.5431007179054
 31
0.0
  0
LINE
  5
D0
330
1F
100
AcDbEntity
  8
B-1
  6
Continuous
 62
     2
370
     9
100
AcDbLine
 10
1410.075172218117
 20
858.7143686655406
 30
0.0
 11
1532.067458694046
 21
980.7056653821792
 31
0.0
  0
LINE
  5
D1
330
1F
100
AcDbEntity
  8
B-1
  6
JWW_CENTER1
 62
     2
370
     9
100
AcDbLine
 10
1400.558636639569
 20
896.3019623627533
 30
0.0
 11
1400.558636639569
 21
929.4415778082771
 31
0.0
  0
LINE
  5
D2
330
1F
100
AcDbEntity
  8
B-1
  6
JWW_CENTER1
 62
     2
370
     9
100
AcDbLine
 10
1382.044941670186
 20
912.837375950169
 30
0.0
 11
1417.394442171664
 21
912.837375950169
 31
0.0
  0
LINE
  5
D3
330
1F
100
AcDbEntity
  8
B-1
  6
Continuous
 62
     2
370
     9
100
AcDbLine
 10
1527.838217245566
 20
-75.16261745143566
 30
0.0
 11
1077.837722365921
 21
-75.16261745143566
 31
0.0
  0
LINE
  5
D4
330
1F
100
AcDbEntity
  8
B-1
  6
Continuous
 62
     2
370
     9
100
AcDbLine
 10
1527.838217245566
 20
1000.837369351774
 30
0.0
 11
1077.837722365921
 21
1000.837369351774
 31
0.0
  0
LINE
  5
D5
330
1F
100
AcDbEntity
  8
1-1
  6
Continuous
 62
     2
370
     9
100
AcDbLine
 10
-539.955386599979
 20
513.591861209354
 30
0.0
 11
-533.8750478383656
 21
592.6264912373313
 31
0.0
  0
LINE
  5
D6
330
1F
100
AcDbEntity
  8
1-1
  6
Continuous
 62
     2
370
     9
100
AcDbLine
 10
-582.3511072107262
 20
495.1267881651182
 30
0.0
 11
-559.895572146854
 21
495.1267881651182
 31
0.0
  0
LINE
  5
D7
330
1F
100
AcDbEntity
  8
1-1
  6
Continuous
 62
     2
370
     9
100
AcDbLine
 10
-602.3253157332135
 20
514.1273209855365
 30
0.0
 11
-613.8754354940877
 21
745.1261283255915
 31
0.0
  0
LINE
  5
D8
330
1F
100
AcDbEntity
  8
1-1
  6
JWW_PHANTOM1
 62
     2
370
     9
100
AcDbLine
 10
-501.3759303737331
 20
470.1262108055323
 30
0.0
 11
-513.4125168259078
 21
588.0841146933068
 31
0.0
  0
LINE
  5
D9
330
1F
100
AcDbEntity
  8
1-1
  6
Continuous
 62
     2
370
     9
100
AcDbLine
 10
-1137.36568141628
 20
515.1263592694258
 30
0.0
 11
-1142.365574192356
 21
505.1265737172722
 31
0.0
  0
LINE
  5
DA
330
1F
100
AcDbEntity
  8
1-1
  6
Continuous
 62
     2
370
     9
100
AcDbLine
 10
-1142.365574192356
 20
505.1265737172722
 30
0.0
 11
-1187.365784516206
 21
505.1265737172722
 31
0.0
  0
LINE
  5
DB
330
1F
100
AcDbEntity
  8
1-1
  6
Continuous
 62
     2
370
     9
100
AcDbLine
 10
-1112.365227776605
 20
515.1263592694258
 30
0.0
 11
-1104.864893732844
 21
470.1262108055323
 31
0.0
  0
LINE
  5
DC
330
1F
100
AcDbEntity
  8
1-1
  6
Continuous
 62
     2
370
     9
100
AcDbLine
 10
-1022.364930848817
 20
515.1263592694258
 30
0.0
 11
-1029.865203032623
 21
470.1262108055323
 31
0.0
  0
LINE
  5
DD
330
1F
100
AcDbEntity
  8
1-1
  6
Continuous
 62
     2
370
     9
100
AcDbLine
 10
-977.3655247043918
 20
515.1263592694258
 30
0.0
 11
-1137.36568141628
 21
515.1263592694258
 31
0.0
  0
LINE
  5
DE
330
1F
100
AcDbEntity
  8
1-1
  6
Continuous
 62
     2
370
     9
100
AcDbLine
 10
-640.1769277211781
 20
720.1257984058279
 30
0.0
 11
-977.3655247043918
 21
515.1263592694258
 31
0.0
  0
LINE
  5
DF
330
1F
100
AcDbEntity
  8
1-0
  6
Continuous
 62
     2
370
     9
100
AcDbLine
 10
-613.8754354940877
 20
745.1261283255915
 30
0.0
 11
-638.8750230943833
 21
745.1261283255915
 31
0.0
  0
LINE
  5
E0
330
1F
100
AcDbEntity
  8
1-1
  6
Continuous
 62
     2
370
     9
100
AcDbLine
 10
-1187.365784516206
 20
505.1265737172722
 30
0.0
 11
-1192.365677292282
 21
470.1262108055323
 31
0.0
  0
LINE
  5
E1
330
1F
100
AcDbEntity
  8
1-0
  6
Continuous
 62
     2
370
     9
100
AcDbLine
 10
-640.1769277211781
 20
720.1257984058279
 30
0.0
 11
-638.8750230943833
 21
745.1261283255915
 31
0.0
  0
LINE
  5
E2
330
1F
100
AcDbEntity
  8
1-1
  6
Continuous
 62
     2
370
     9
100
AcDbLine
 10
-381.6342328045818
 20
541.292254473712
 30
0.0
 11
-493.957065891575
 21
566.2157543285474
 31
0.0
  0
LINE
  5
E3
330
1F
100
AcDbEntity
  8
1-8
  6
Continuous
 62
     4
370
     9
100
AcDbLine
 10
-1122.115099107897
 20
571.9961960251269
 30
0.0
 11
-1122.115099107897
 21
527.6255344700169
 31
0.0
  0
LINE
  5
E4
330
1F
100
AcDbEntity
  8
1-8
  6
Continuous
 62
     4
370
     9
100
AcDbLine
 10
-1122.115099107897
 20
527.6255344700169
 30
0.0
 11
-1012.615059517525
 21
527.6255344700169
 31
0.0
  0
LINE
  5
E5
330
1F
100
AcDbEntity
  8
1-8
  6
Continuous
 62
     4
370
     9
100
AcDbLine
 10
-1012.615059517525
 20
571.9961960251269
 30
0.0
 11
-1012.615059517525
 21
527.6255344700169
 31
0.0
  0
LINE
  5
E6
330
1F
100
AcDbEntity
  8
1-8
  6
Continuous
 62
     4
370
     9
100
AcDbLine
 10
-1094.691157985378
 20
571.9961960251269
 30
0.0
 11
-1094.691157985378
 21
527.6255344700169
 31
0.0
  0
LINE
  5
E7
330
1F
100
AcDbEntity
  8
1-8
  6
Continuous
 62
     4
370
     9
100
AcDbLine
 10
-1040.0390625
 20
571.9961960251269
 30
0.0
 11
-1040.0390625
 21
527.6255344700169
 31
0.0
  0
LINE
  5
E8
330
1F
100
AcDbEntity
  8
1-8
  6
Continuous
 62
     4
370
     9
100
AcDbLine
 10
-1108.402973896748
 20
577.625451990076
 30
0.0
 11
-1026.327184728674
 21
577.625451990076
 31
0.0
  0
LINE
  5
E9
330
1F
100
AcDbEntity
  8
1-8
  6
Continuous
 62
     6
370
     5
100
AcDbLine
 10
-1127.365029824747
 20
527.6255344700169
 30
0.0
 11
-1127.365029824747
 21
515.1257406698693
 31
0.0
  0
LINE
  5
EA
330
1F
100
AcDbEntity
  8
1-8
  6
Continuous
 62
     6
370
     5
100
AcDbLine
 10
-1007.364881360853
 20
527.6255344700169
 30
0.0
 11
-1007.364881360853
 21
515.1257406698693
 31
0.0
  0
LINE
  5
EB
330
1F
100
AcDbEntity
  8
1-8
  6
Continuous
 62
     6
370
     5
100
AcDbLine
 10
-1007.364881360853
 20
527.6255344700169
 30
0.0
 11
-1012.615059517525
 21
527.6255344700169
 31
0.0
  0
LINE
  5
EC
330
1F
100
AcDbEntity
  8
1-8
  6
Continuous
 62
     6
370
     5
100
AcDbLine
 10
-1122.115099107897
 20
527.6255344700169
 30
0.0
 11
-1127.365029824747
 21
527.6255344700169
 31
0.0
  0
LINE
  5
ED
330
1F
100
AcDbEntity
  8
1-8
  6
Continuous
 62
     4
370
     9
100
AcDbLine
 10
-1122.115099107897
 20
413.255136850718
 30
0.0
 11
-1122.115099107897
 21
457.6260458456505
 31
0.0
  0
LINE
  5
EE
330
1F
100
AcDbEntity
  8
1-8
  6
Continuous
 62
     4
370
     9
100
AcDbLine
 10
-1122.115099107897
 20
457.6260458456505
 30
0.0
 11
-1012.615059517525
 21
457.6260458456505
 31
0.0
  0
LINE
  5
EF
330
1F
100
AcDbEntity
  8
1-8
  6
Continuous
 62
     4
370
     9
100
AcDbLine
 10
-1012.615059517525
 20
413.255136850718
 30
0.0
 11
-1012.615059517525
 21
457.6260458456505
 31
0.0
  0
LINE
  5
F0
330
1F
100
AcDbEntity
  8
1-8
  6
Continuous
 62
     4
370
     9
100
AcDbLine
 10
-1094.691157985378
 20
413.255136850718
 30
0.0
 11
-1094.691157985378
 21
457.6260458456505
 31
0.0
  0
LINE
  5
F1
330
1F
100
AcDbEntity
  8
1-8
  6
Continuous
 62
     4
370
     9
100
AcDbLine
 10
-1040.0390625
 20
413.255136850718
 30
0.0
 11
-1040.0390625
 21
457.6260458456505
 31
0.0
  0
LINE
  5
F2
330
1F
100
AcDbEntity
  8
1-8
  6
Continuous
 62
     4
370
     9
100
AcDbLine
 10
-1108.402973896748
 20
407.6257571658573
 30
0.0
 11
-1026.327184728674
 21
407.6257571658573
 31
0.0
  0
LINE
  5
F3
330
1F
100
AcDbEntity
  8
1-8
  6
Continuous
 62
     6
370
     5
100
AcDbLine
 10
-1127.365029824747
 20
457.6260458456505
 30
0.0
 11
-1127.365029824747
 21
470.1255922059755
 31
0.0
  0
LINE
  5
F4
330
1F
100
AcDbEntity
  8
1-8
  6
Continuous
 62
     6
370
     5
100
AcDbLine
 10
-1007.364881360853
 20
457.6260458456505
 30
0.0
 11
-1007.364881360853
 21
470.1255922059755
 31
0.0
  0
LINE
  5
F5
330
1F
100
AcDbEntity
  8
1-8
  6
Continuous
 62
     6
370
     5
100
AcDbLine
 10
-1007.364881360853
 20
457.6260458456505
 30
0.0
 11
-1012.615059517525
 21
457.6260458456505
 31
0.0
  0
LINE
  5
F6
330
1F
100
AcDbEntity
  8
1-8
  6
Continuous
 62
     6
370
     5
100
AcDbLine
 10
-1122.115099107897
 20
457.6260458456505
 30
0.0
 11
-1127.365029824747
 21
457.6260458456505
 31
0.0
  0
LINE
  5
F7
330
1F
100
AcDbEntity
  8
1-8
  6
Continuous
 62
     3
370
     9
100
AcDbLine
 10
-1097.364930848817
 20
515.1257406698693
 30
0.0
 11
-1097.364930848817
 21
470.1255922059755
 31
0.0
  0
LINE
  5
F8
330
1F
100
AcDbEntity
  8
1-8
  6
Continuous
 62
     3
370
     9
100
AcDbLine
 10
-1037.364980336782
 20
515.1257406698693
 30
0.0
 11
-1037.364980336782
 21
470.1255922059755
 31
0.0
  0
LINE
  5
F9
330
1F
100
AcDbEntity
  8
1-8
  6
Continuous
 62
     3
370
     9
100
AcDbLine
 10
-1092.364914352829
 20
515.1257406698693
 30
0.0
 11
-1092.364914352829
 21
470.1255922059755
 31
0.0
  0
LINE
  5
FA
330
1F
100
AcDbEntity
  8
1-8
  6
Continuous
 62
     3
370
     9
100
AcDbLine
 10
-1042.36499683277
 20
515.1257406698693
 30
0.0
 11
-1042.36499683277
 21
470.1255922059755
 31
0.0
  0
LINE
  5
FB
330
1F
100
AcDbEntity
  8
1-8
  6
Continuous
 62
     3
370
     9
100
AcDbLine
 10
-1092.364914352829
 20
645.1356959987334
 30
0.0
 11
-1092.364914352829
 21
577.625451990076
 31
0.0
  0
LINE
  5
FC
330
1F
100
AcDbEntity
  8
1-8
  6
Continuous
 62
     3
370
     9
100
AcDbLine
 10
-1042.36499683277
 20
645.1356959987334
 30
0.0
 11
-1042.36499683277
 21
577.625451990076
 31
0.0
  0
LINE
  5
FD
330
1F
100
AcDbEntity
  8
1-8
  6
Continuous
 62
     3
370
     9
100
AcDbLine
 10
-1092.364914352829
 20
645.1356959987334
 30
0.0
 11
-1042.36499683277
 21
645.1356959987334
 31
0.0
  0
LINE
  5
FE
330
1F
100
AcDbEntity
  8
1-8
  6
Continuous
 62
     3
370
     9
100
AcDbLine
 10
-1037.364980336782
 20
640.1354320629224
 30
0.0
 11
-1037.364980336782
 21
577.625451990076
 31
0.0
  0
LINE
  5
FF
330
1F
100
AcDbEntity
  8
1-8
  6
Continuous
 62
     3
370
     9
100
AcDbLine
 10
-1097.364930848817
 20
640.1354320629224
 30
0.0
 11
-1037.364980336782
 21
640.1354320629224
 31
0.0
  0
LINE
  5
100
330
1F
100
AcDbEntity
  8
1-8
  6
Continuous
 62
     3
370
     9
100
AcDbLine
 10
-1097.364930848817
 20
640.1354320629224
 30
0.0
 11
-1097.364930848817
 21
577.625451990076
 31
0.0
  0
LINE
  5
101
330
1F
100
AcDbEntity
  8
1-8
  6
Continuous
 62
     3
370
     9
100
AcDbLine
 10
-1097.364930848817
 20
640.1354320629224
 30
0.0
 11
-1092.364914352829
 21
645.1356959987334
 31
0.0
  0
LINE
  5
102
330
1F
100
AcDbEntity
  8
1-8
  6
Continuous
 62
     3
370
     9
100
AcDbLine
 10
-1042.36499683277
 20
645.1356959987334
 30
0.0
 11
-1037.364980336782
 21
640.1354320629224
 31
0.0
  0
LINE
  5
103
330
1F
100
AcDbEntity
  8
1-4
  6
Continuous
 62
     2
370
     9
100
AcDbLine
 10
-982.4922303895692
 20
-430.7316630595438
 30
0.0
 11
-982.4922303895692
 21
-365.7325620908995
 31
0.0
  0
LINE
  5
104
330
1F
100
AcDbEntity
  8
1-4
  6
Continuous
 62
     2
370
     9
100
AcDbLine
 10
-982.4922303895692
 20
-365.7325620908995
 30
0.0
 11
-359.7377880199534
 21
-365.7325620908995
 31
0.0
  0
LINE
  5
105
330
1F
100
AcDbEntity
  8
1-4
  6
Continuous
 62
     2
370
     9
100
AcDbLine
 10
-359.7377880199534
 20
-365.7325620908995
 30
0.0
 11
-359.7377880199534
 21
-430.7316630595438
 31
0.0
  0
LINE
  5
106
330
1F
100
AcDbEntity
  8
1-4
  6
Continuous
 62
     2
370
     9
100
AcDbLine
 10
-359.7377880199534
 20
-430.7316630595438
 30
0.0
 11
-982.4922303895692
 21
-430.7316630595438
 31
0.0
  0
LINE
  5
107
330
1F
100
AcDbEntity
  8
1-4
  6
Continuous
 62
     7
370
     9
100
AcDbLine
 10
-1067.365079312711
 20
645.1356959987334
 30
0.0
 11
-1076.932092615076
 21
668.2327188027873
 31
0.0
  0
LINE
  5
108
330
1F
100
AcDbEntity
  8
1-4
  6
Continuous
 62
     7
370
     9
100
AcDbLine
 10
-1067.365079312711
 20
645.1356959987334
 30
0.0
 11
-1070.628191973712
 21
669.9212481524495
 31
0.0
  0
LINE
  5
109
330
1F
100
AcDbEntity
  8
1-3
  6
Continuous
 62
     4
370
     9
100
AcDbLine
 10
-496.3760375976562
 20
1095.135695998733
 30
0.0
 11
-451.3758891337625
 21
1095.135695998733
 31
0.0
  0
LINE
  5
10A
330
1F
100
AcDbEntity
  8
1-8
  6
Continuous
 62
     6
370
     5
100
AcDbLine
 10
-1317.365038072741
 20
-154.8645926810599
 30
0.0
 11
-127.1147856841216
 21
-154.8645926810599
 31
0.0
  0
LINE
  5
10B
330
1F
100
AcDbEntity
  8
1-4
  6
Continuous
 62
     7
370
     9
100
AcDbLine
 10
-496.3760375976562
 20
-314.8643782332136
 30
0.0
 11
-127.1147856841216
 21
-314.8643782332136
 31
0.0
  0
LINE
  5
10C
330
1F
100
AcDbEntity
  8
1-4
  6
Continuous
 62
     7
370
     9
100
AcDbLine
 10
-496.3760375976562
 20
-179.8643040012669
 30
0.0
 11
-496.3760375976562
 21
-317.8642149229307
 31
0.0
  0
LINE
  5
10D
330
1F
100
AcDbEntity
  8
1-8
  6
Continuous
 62
     6
370
     5
100
AcDbLine
 10
-1317.365038072741
 20
-214.8642957532728
 30
0.0
 11
-519.1859064875422
 21
-214.8642957532728
 31
0.0
  0
LINE
  5
10E
330
1F
100
AcDbEntity
  8
1-8
  6
Continuous
 62
     6
370
     5
100
AcDbLine
 10
-473.2503117741766
 20
-214.8642957532728
 30
0.0
 11
-127.1147856841216
 21
-214.8642957532728
 31
0.0
  0
LINE
  5
10F
330
1F
100
AcDbEntity
  8
1-8
  6
Continuous
 62
     6
370
     5
100
AcDbLine
 10
-1317.365038072741
 20
-164.8643782332135
 30
0.0
 11
-519.1859064875422
 21
-164.8643782332135
 31
0.0
  0
LINE
  5
110
330
1F
100
AcDbEntity
  8
1-8
  6
Continuous
 62
     6
370
     5
100
AcDbLine
 10
-473.2503117741766
 20
-164.8643782332135
 30
0.0
 11
-127.1147856841216
 21
-164.8643782332135
 31
0.0
  0
LINE
  5
111
330
1F
100
AcDbEntity
  8
1-8
  6
Continuous
 62
     6
370
     5
100
AcDbLine
 10
-1317.365038072741
 20
-174.8645349451013
 30
0.0
 11
-519.1859064875422
 21
-174.8645349451013
 31
0.0
  0
LINE
  5
112
330
1F
100
AcDbEntity
  8
1-8
  6
Continuous
 62
     6
370
     5
100
AcDbLine
 10
-473.2503117741766
 20
-174.8645349451013
 30
0.0
 11
-127.1147856841216
 21
-174.8645349451013
 31
0.0
  0
LINE
  5
113
330
1F
100
AcDbEntity
  8
1-8
  6
Continuous
 62
     6
370
     5
100
AcDbLine
 10
-1317.365038072741
 20
-184.8644442171664
 30
0.0
 11
-519.1859064875422
 21
-184.8644442171664
 31
0.0
  0
LINE
  5
114
330
1F
100
AcDbEntity
  8
1-8
  6
Continuous
 62
     6
370
     5
100
AcDbLine
 10
-473.2503117741766
 20
-184.8644442171664
 30
0.0
 11
-127.1147856841216
 21
-184.8644442171664
 31
0.0
  0
LINE
  5
115
330
1F
100
AcDbEntity
  8
1-8
  6
Continuous
 62
     6
370
     5
100
AcDbLine
 10
-1317.365038072741
 20
-194.8646009290539
 30
0.0
 11
-519.1859064875422
 21
-194.8646009290539
 31
0.0
  0
LINE
  5
116
330
1F
100
AcDbEntity
  8
1-8
  6
Continuous
 62
     6
370
     5
100
AcDbLine
 10
-473.2503117741766
 20
-194.8646009290539
 30
0.0
 11
-127.1147856841216
 21
-194.8646009290539
 31
0.0
  0
LINE
  5
117
330
1F
100
AcDbEntity
  8
1-8
  6
Continuous
 62
     6
370
     5
100
AcDbLine
 10
-1317.365038072741
 20
-204.864510201119
 30
0.0
 11
-519.1859064875422
 21
-204.864510201119
 31
0.0
  0
LINE
  5
118
330
1F
100
AcDbEntity
  8
1-8
  6
Continuous
 62
     6
370
     5
100
AcDbLine
 10
-473.2503117741766
 20
-204.864510201119
 30
0.0
 11
-127.1147856841216
 21
-204.864510201119
 31
0.0
  0
LINE
  5
119
330
1F
100
AcDbEntity
  8
1-4
  6
Continuous
 62
     7
370
     9
100
AcDbLine
 10
-429.8530784813133
 20
1095.135695998733
 30
0.0
 11
-174.3769052866341
 21
1095.135695998733
 31
0.0
  0
LINE
  5
11A
330
1F
100
AcDbEntity
  8
1-4
  6
Continuous
 62
     7
370
     9
100
AcDbLine
 10
-1417.36499683277
 20
-154.8645926810599
 30
0.0
 11
-1417.36499683277
 21
645.1356959987334
 31
0.0
  0
LINE
  5
11B
330
1F
100
AcDbEntity
  8
1-4
  6
Continuous
 62
     7
370
     9
100
AcDbLine
 10
-1117.364873112859
 20
645.1356959987334
 30
0.0
 11
-1420.36508096231
 21
645.1356959987334
 31
0.0
  0
LINE
  5
11C
330
1F
100
AcDbEntity
  8
1-4
  6
Continuous
 62
     7
370
     9
100
AcDbLine
 10
-1517.365141172667
 20
-154.8645926810599
 30
0.0
 11
-1517.365141172667
 21
745.1355310388516
 31
0.0
  0
LINE
  5
11D
330
1F
100
AcDbEntity
  8
1-4
  6
Continuous
 62
     7
370
     9
100
AcDbLine
 10
-1342.36499683277
 20
-154.8645926810599
 30
0.0
 11
-1520.365101582295
 21
-154.8645926810599
 31
0.0
  0
LINE
  5
11E
330
1F
100
AcDbEntity
  8
1-4
  6
Continuous
 62
     7
370
     9
100
AcDbLine
 10
-1067.365079312711
 20
645.1356959987334
 30
0.0
 11
-1126.313905458192
 21
865.1354320629224
 31
0.0
  0
LINE
  5
11F
330
1F
100
AcDbEntity
  8
1-4
  6
Continuous
 62
     7
370
     9
100
AcDbLine
 10
-1126.313905458192
 20
865.1354320629224
 30
0.0
 11
-1457.844976476721
 21
865.1354320629224
 31
0.0
  0
LINE
  5
120
330
1F
100
AcDbEntity
  8
1-4
  6
Continuous
 62
     7
370
     9
100
AcDbLine
 10
-496.3760375976562
 20
1095.135695998733
 30
0.0
 11
-511.5950713286529
 21
1114.969482421875
 31
0.0
  0
LINE
  5
121
330
1F
100
AcDbEntity
  8
1-4
  6
Continuous
 62
     7
370
     9
100
AcDbLine
 10
-496.3760375976562
 20
1095.135695998733
 30
0.0
 11
-505.9430509000211
 21
1118.232718802788
 31
0.0
  0
LINE
  5
122
330
1F
100
AcDbEntity
  8
1-4
  6
Continuous
 62
     7
370
     9
100
AcDbLine
 10
-496.3760375976562
 20
1095.135695998733
 30
0.0
 11
-559.8844373548352
 21
1205.135069151183
 31
0.0
  0
LINE
  5
123
330
1F
100
AcDbEntity
  8
1-3
  6
Continuous
 62
     4
370
     9
100
AcDbLine
 10
-496.3760375976562
 20
455.1259138777451
 30
0.0
 11
-451.3758891337625
 21
455.1259138777451
 31
0.0
  0
LINE
  5
124
330
1F
100
AcDbEntity
  8
1-4
  6
Continuous
 62
     7
370
     9
100
AcDbLine
 10
-879.369086188239
 20
1205.135069151183
 30
0.0
 11
-559.8844373548352
 21
1205.135069151183
 31
0.0
  0
LINE
  5
125
330
1F
100
AcDbEntity
  8
1-4
  6
Continuous
 62
     7
370
     9
100
AcDbLine
 10
-589.8930730046453
 20
832.270969700169
 30
0.0
 11
-605.1121067356419
 21
852.104756123311
 31
0.0
  0
LINE
  5
126
330
1F
100
AcDbEntity
  8
1-4
  6
Continuous
 62
     7
370
     9
100
AcDbLine
 10
-589.8930730046453
 20
832.270969700169
 30
0.0
 11
-599.4602100269213
 21
855.3679925042231
 31
0.0
  0
LINE
  5
127
330
1F
100
AcDbEntity
  8
1-4
  6
Continuous
 62
     7
370
     9
100
AcDbLine
 10
-589.8930730046453
 20
832.270969700169
 30
0.0
 11
-678.1494140625
 21
985.1353330869936
 31
0.0
  0
LINE
  5
128
330
1F
100
AcDbEntity
  8
1-4
  6
Continuous
 62
     7
370
     9
100
AcDbLine
 10
-1035.038056244721
 20
985.1353330869936
 30
0.0
 11
-678.1494140625
 21
985.1353330869936
 31
0.0
  0
LINE
  5
129
330
1F
100
AcDbEntity
  8
1-3
  6
Continuous
 62
     4
370
     9
100
AcDbLine
 10
-496.3760375976562
 20
593.7107725401182
 30
0.0
 11
-496.3760375976562
 21
1095.135695998733
 31
0.0
  0
LINE
  5
12A
330
1F
100
AcDbEntity
  8
1-3
  6
Continuous
 62
     4
370
     9
100
AcDbLine
 10
-451.3758891337625
 20
585.5707446948904
 30
0.0
 11
-451.3758891337625
 21
1095.135695998733
 31
0.0
  0
LINE
  5
12B
330
1F
100
AcDbEntity
  8
1-4
  6
Continuous
 62
     7
370
     9
100
AcDbLine
 10
-1012.615059517525
 20
457.6260458456505
 30
0.0
 11
-997.3960257865286
 21
437.7918882627745
 31
0.0
  0
LINE
  5
12C
330
1F
100
AcDbEntity
  8
1-4
  6
Continuous
 62
     7
370
     9
100
AcDbLine
 10
-1012.615059517525
 20
457.6260458456505
 30
0.0
 11
-1003.047798775338
 21
434.5288993216852
 31
0.0
  0
LINE
  5
12D
330
1F
100
AcDbEntity
  8
1-4
  6
Continuous
 62
     7
370
     9
100
AcDbLine
 10
-1012.615059517525
 20
457.6260458456505
 30
0.0
 11
-943.3331463788006
 21
337.6258973817568
 31
0.0
  0
LINE
  5
12E
330
1F
100
AcDbEntity
  8
1-4
  6
Continuous
 62
     7
370
     9
100
AcDbLine
 10
-177.3768656962625
 20
-154.8645926810599
 30
0.0
 11
-177.3768656962625
 21
1095.135695998733
 31
0.0
  0
LINE
  5
12F
330
1F
100
AcDbEntity
  8
1-3
  6
Continuous
 62
     4
370
     9
100
AcDbLine
 10
-451.3758891337625
 20
-154.8645926810599
 30
0.0
 11
-451.3758891337625
 21
455.1259138777451
 31
0.0
  0
LINE
  5
130
330
1F
100
AcDbEntity
  8
1-3
  6
Continuous
 62
     4
370
     9
100
AcDbLine
 10
-496.3760375976562
 20
-154.8645926810599
 30
0.0
 11
-496.3760375976562
 21
455.1259138777451
 31
0.0
  0
LINE
  5
131
330
1F
100
AcDbEntity
  8
1-1
  6
JWW_CENTER1
 62
     2
370
     9
100
AcDbLine
 10
-1067.365079312711
 20
-175.7772167308909
 30
0.0
 11
-1067.365079312711
 21
662.8108174092063
 31
0.0
  0
LINE
  5
132
330
1F
100
AcDbEntity
  8
1-1
  6
Continuous
 62
     2
370
     9
100
AcDbLine
 10
-513.8753530141469
 20
592.6264912373313
 30
0.0
 11
-533.8750478383656
 21
592.6264912373313
 31
0.0
  0
LINE
  5
133
330
1F
100
AcDbEntity
  8
1-1
  6
Continuous
 62
     2
370
     9
100
AcDbLine
 10
-513.4125168259078
 20
588.0833723738388
 30
0.0
 11
-513.8753530141469
 21
592.6264912373313
 31
0.0
  0
LINE
  5
134
330
1F
100
AcDbEntity
  8
1-1
  6
Continuous
 62
     2
370
     9
100
AcDbLine
 10
-1192.365677292282
 20
470.1262108055323
 30
0.0
 11
-368.8759881096917
 21
470.1262108055323
 31
0.0
  0
LINE
  5
135
330
1F
100
AcDbEntity
  8
1-1
  6
Continuous
 62
     2
370
     9
100
AcDbLine
 10
-375.8023236248943
 20
534.7698644689613
 30
0.0
 11
-368.8759881096917
 21
470.1262108055323
 31
0.0
  0
LINE
  5
136
330
1F
100
AcDbEntity
  8
1-1
  6
Continuous
 62
     2
370
     9
100
AcDbLine
 10
-481.3763592694255
 20
563.4241382495779
 30
0.0
 11
-481.3763592694255
 21
470.1262108055323
 31
0.0
  0
LINE
  5
137
330
1F
100
AcDbEntity
  8
1-1
  6
Continuous
 62
     2
370
     9
100
AcDbLine
 10
-421.3764087573901
 20
550.1106385926943
 30
0.0
 11
-421.3764087573901
 21
470.1262108055323
 31
0.0
  0
LINE
  5
138
330
1F
100
AcDbEntity
  8
1-1
  6
Continuous
 62
     2
370
     9
100
AcDbLine
 10
-476.3763427734375
 20
562.3147418047932
 30
0.0
 11
-476.3763427734375
 21
470.1262108055323
 31
0.0
  0
LINE
  5
139
330
1F
100
AcDbEntity
  8
1-1
  6
Continuous
 62
     2
370
     9
100
AcDbLine
 10
-426.3765489732896
 20
551.2199113175677
 30
0.0
 11
-426.3765489732896
 21
470.1262108055323
 31
0.0
  0
LINE
  5
13A
330
1F
100
AcDbEntity
  8
1-4
  6
Continuous
 62
     7
370
     9
100
AcDbLine
 10
-676.3067297033363
 20
745.1355310388516
 30
0.0
 11
-1520.365101582295
 21
745.1355310388516
 31
0.0
  0
LINE
  5
13B
330
1F
100
AcDbEntity
  8
1-4
  6
Continuous
 62
     7
370
     9
100
AcDbLine
 10
-943.3331463788006
 20
337.6258973817568
 30
0.0
 11
-636.9422706397802
 21
337.6258973817568
 31
0.0
  0
LINE
  5
13C
330
1F
100
AcDbEntity
  8
B-1
  6
JWW_CENTER1
 62
     2
370
     9
100
AcDbLine
 10
1324.074492583404
 20
709.0746410472974
 30
0.0
 11
1621.169301625845
 21
1006.169697529561
 31
0.0
  0
LINE
  5
13D
330
1F
100
AcDbEntity
  8
B-1
  6
JWW_CENTER1
 62
     2
370
     9
100
AcDbLine
 10
831.6009521484375
 20
216.6003582928633
 30
0.0
 11
534.5063905458193
 21
-80.49482190931144
 31
0.0
  0
LINE
  5
13E
330
1F
100
AcDbEntity
  8
B-1
  6
JWW_CENTER1
 62
     2
370
     9
100
AcDbLine
 10
1324.074492583404
 20
216.6003582928633
 30
0.0
 11
1621.169301625845
 21
-80.49482190931144
 31
0.0
  0
LINE
  5
13F
330
1F
100
AcDbEntity
  8
B-0
  6
JWW_CENTER1
 62
     3
370
     9
100
AcDbLine
 10
1077.837722365921
 20
-115.2749633789062
 30
0.0
 11
1077.837722365921
 21
1047.530253642314
 31
0.0
  0
LINE
  5
140
330
1F
100
AcDbEntity
  8
B-0
  6
JWW_CENTER1
 62
     3
370
     9
100
AcDbLine
 10
499.7252593169344
 20
462.8374996700802
 30
0.0
 11
1662.530600058066
 21
462.8374996700802
 31
0.0
  0
LINE
  5
141
330
1F
100
AcDbEntity
  8
0-3
  6
Continuous
 62
     4
370
     9
100
AcDbLine
 10
827.3353370460308
 20
812.3347431904563
 30
0.0
 11
814.4422376478042
 21
825.2283374683279
 31
0.0
  0
LINE
  5
142
330
1F
100
AcDbEntity
  8
0-3
  6
Continuous
 62
     4
370
     9
100
AcDbLine
 10
1328.340107685811
 20
812.3347431904563
 30
0.0
 11
1341.233207084038
 21
825.2283374683279
 31
0.0
  0
LINE
  5
143
330
1F
100
AcDbEntity
  8
0-3
  6
Continuous
 62
     4
370
     9
100
AcDbLine
 10
1427.334842166385
 20
713.3405035895271
 30
0.0
 11
1440.227941564611
 21
726.2331081081084
 31
0.0
  0
LINE
  5
144
330
1F
100
AcDbEntity
  8
0-3
  6
Continuous
 62
     4
370
     9
100
AcDbLine
 10
1427.334842166385
 20
212.3343720307221
 30
0.0
 11
1440.227941564611
 21
199.4418912320523
 31
0.0
  0
LINE
  5
145
330
1F
100
AcDbEntity
  8
0-3
  6
Continuous
 62
     4
370
     9
100
AcDbLine
 10
1328.340107685811
 20
113.3400087098818
 30
0.0
 11
1341.233207084038
 21
100.4467855917443
 31
0.0
  0
LINE
  5
146
330
1F
100
AcDbEntity
  8
0-3
  6
Continuous
 62
     4
370
     9
100
AcDbLine
 10
827.3353370460308
 20
113.3400087098818
 30
0.0
 11
814.4422376478042
 21
100.4467855917443
 31
0.0
  0
LINE
  5
147
330
1F
100
AcDbEntity
  8
0-3
  6
Continuous
 62
     4
370
     9
100
AcDbLine
 10
728.3406025654563
 20
212.3343720307221
 30
0.0
 11
715.4475031672297
 21
199.4418912320523
 31
0.0
  0
LINE
  5
148
330
1F
100
AcDbEntity
  8
0-3
  6
Continuous
 62
     4
370
     9
100
AcDbLine
 10
728.3406025654563
 20
713.3405035895271
 30
0.0
 11
715.4475031672297
 21
726.2331081081084
 31
0.0
  0
LINE
  5
149
330
1F
100
AcDbEntity
  8
0-4
  6
Continuous
 62
     7
370
     9
100
AcDbLine
 10
482.8802985114021
 20
1064.866382495777
 30
0.0
 11
475.8094581397808
 21
1057.795542124155
 31
0.0
  0
LINE
  5
14A
330
1F
100
AcDbEntity
  8
0-4
  6
Continuous
 62
     7
370
     9
100
AcDbLine
 10
525.3065779402453
 20
1022.440350506757
 30
0.0
 11
482.8802985114021
 21
1064.866382495777
 31
0.0
  0
LINE
  5
14B
330
1F
100
AcDbEntity
  8
0-4
  6
Continuous
 62
     7
370
     9
100
AcDbLine
 10
518.2354901288011
 20
1015.369510135135
 30
0.0
 11
525.3065779402453
 21
1022.440350506757
 31
0.0
  0
LINE
  5
14C
330
1F
100
AcDbEntity
  8
0-4
  6
Continuous
 62
     7
370
     9
100
AcDbLine
 10
518.2354901288011
 20
1015.369510135135
 30
0.0
 11
475.8094581397808
 21
1057.795542124155
 31
0.0
  0
LINE
  5
14D
330
1F
100
AcDbEntity
  8
0-4
  6
Continuous
 62
     7
370
     9
100
AcDbLine
 10
862.3594541807432
 20
685.3867319467906
 30
0.0
 11
855.288366369299
 21
678.315891575169
 31
0.0
  0
LINE
  5
14E
330
1F
100
AcDbEntity
  8
0-4
  6
Continuous
 62
     7
370
     9
100
AcDbLine
 10
904.7857336095865
 20
642.9606999577703
 30
0.0
 11
862.3594541807432
 21
685.3867319467906
 31
0.0
  0
LINE
  5
14F
330
1F
100
AcDbEntity
  8
0-4
  6
Continuous
 62
     7
370
     9
100
AcDbLine
 10
897.7146457981422
 20
635.8893647065033
 30
0.0
 11
904.7857336095865
 21
642.9606999577703
 31
0.0
  0
LINE
  5
150
330
1F
100
AcDbEntity
  8
0-4
  6
Continuous
 62
     7
370
     9
100
AcDbLine
 10
897.7146457981422
 20
635.8893647065033
 30
0.0
 11
855.288366369299
 21
678.315891575169
 31
0.0
  0
LINE
  5
151
330
1F
100
AcDbEntity
  8
0-4
  6
Continuous
 62
     7
370
     9
100
AcDbLine
 10
892.3194679054058
 20
641.2845425992398
 30
0.0
 11
903.1098236908787
 21
641.2845425992398
 31
0.0
  0
LINE
  5
152
330
1F
100
AcDbEntity
  8
0-4
  6
Continuous
 62
     7
370
     9
100
AcDbLine
 10
886.3197945259714
 20
647.2844634184967
 30
0.0
 11
900.4617227090375
 21
647.2844634184967
 31
0.0
  0
LINE
  5
153
330
1F
100
AcDbEntity
  8
0-4
  6
Continuous
 62
     7
370
     9
100
AcDbLine
 10
880.3201211465375
 20
653.2843842377533
 30
0.0
 11
894.4622967694261
 21
653.2843842377533
 31
0.0
  0
LINE
  5
154
330
1F
100
AcDbEntity
  8
0-4
  6
Continuous
 62
     7
370
     9
100
AcDbLine
 10
874.3197054476354
 20
659.2843050570102
 30
0.0
 11
888.461881070524
 21
659.2843050570102
 31
0.0
  0
LINE
  5
155
330
1F
100
AcDbEntity
  8
0-4
  6
Continuous
 62
     7
370
     9
100
AcDbLine
 10
868.3195371885557
 20
665.2847207559123
 30
0.0
 11
882.4617128114443
 21
665.2847207559123
 31
0.0
  0
LINE
  5
156
330
1F
100
AcDbEntity
  8
0-4
  6
Continuous
 62
     7
370
     9
100
AcDbLine
 10
862.319616369299
 20
671.284641575169
 30
0.0
 11
876.4617919921875
 21
671.284641575169
 31
0.0
  0
LINE
  5
157
330
1F
100
AcDbEntity
  8
0-4
  6
Continuous
 62
     7
370
     9
100
AcDbLine
 10
856.3199429898651
 20
677.2845623944258
 30
0.0
 11
870.462366052576
 21
677.2845623944258
 31
0.0
  0
LINE
  5
158
330
1F
100
AcDbEntity
  8
0-4
  6
Continuous
 62
     7
370
     9
100
AcDbLine
 10
860.2574528874578
 20
683.2844832136825
 30
0.0
 11
864.461950353674
 21
683.2844832136825
 31
0.0
  0
LINE
  5
159
330
1F
100
AcDbEntity
  8
0-4
  6
Continuous
 62
     7
370
     9
100
AcDbLine
 10
515.9706734322214
 20
1017.634574271537
 30
0.0
 11
520.5005542652026
 21
1017.634574271537
 31
0.0
  0
LINE
  5
15A
330
1F
100
AcDbEntity
  8
0-4
  6
Continuous
 62
     7
370
     9
100
AcDbLine
 10
509.9702577333193
 20
1023.634495090794
 30
0.0
 11
524.1121859163854
 21
1023.634495090794
 31
0.0
  0
LINE
  5
15B
330
1F
100
AcDbEntity
  8
0-4
  6
Continuous
 62
     7
370
     9
100
AcDbLine
 10
503.9700894742401
 20
1029.634415910051
 30
0.0
 11
518.1117702174834
 21
1029.634415910051
 31
0.0
  0
LINE
  5
15C
330
1F
100
AcDbEntity
  8
0-4
  6
Continuous
 62
     7
370
     9
100
AcDbLine
 10
497.9701686549834
 20
1035.634336729308
 30
0.0
 11
512.1123442778719
 21
1035.634336729308
 31
0.0
  0
LINE
  5
15D
330
1F
100
AcDbEntity
  8
0-4
  6
Continuous
 62
     7
370
     9
100
AcDbLine
 10
491.9702478357266
 20
1041.634257548564
 30
0.0
 11
506.1126708984375
 21
1041.634257548564
 31
0.0
  0
LINE
  5
15E
330
1F
100
AcDbEntity
  8
0-4
  6
Continuous
 62
     7
370
     9
100
AcDbLine
 10
485.9700795766469
 20
1047.634673247466
 30
0.0
 11
500.112007759713
 21
1047.634673247466
 31
0.0
  0
LINE
  5
15F
330
1F
100
AcDbEntity
  8
0-4
  6
Continuous
 62
     7
370
     9
100
AcDbLine
 10
479.9696638777453
 20
1053.634594066723
 30
0.0
 11
494.1118395006333
 21
1053.634594066723
 31
0.0
  0
LINE
  5
160
330
1F
100
AcDbEntity
  8
0-4
  6
Continuous
 62
     7
370
     9
100
AcDbLine
 10
477.6484309016047
 20
1059.63451488598
 30
0.0
 11
488.1121661211995
 21
1059.63451488598
 31
0.0
  0
LINE
  5
161
330
1F
100
AcDbEntity
  8
0-4
  6
Continuous
 62
     7
370
     9
100
AcDbLine
 10
497.0224741342906
 20
1036.58203125
 30
0.0
 11
454.5956998258026
 21
994.1555043813346
 31
0.0
  0
LINE
  5
162
330
1F
100
AcDbEntity
  8
0-4
  6
Continuous
 62
     7
370
     9
100
AcDbLine
 10
876.5016298036318
 20
657.1028755806589
 30
0.0
 11
834.0753503747891
 21
614.6763487119932
 31
0.0
  0
LINE
  5
163
330
1F
100
AcDbEntity
  8
0-B
  6
Continuous
 62
     4
370
     9
100
AcDbLine
 10
584.0668549408787
 20
956.6075010557436
 30
0.0
 11
605.2588385504646
 21
962.2862449852198
 31
0.0
  0
LINE
  5
164
330
1F
100
AcDbEntity
  8
0-B
  6
Continuous
 62
     4
370
     9
100
AcDbLine
 10
605.2588385504646
 20
962.2862449852198
 30
0.0
 11
620.7168991501271
 21
946.8281843855575
 31
0.0
  0
LINE
  5
165
330
1F
100
AcDbEntity
  8
0-B
  6
Continuous
 62
     4
370
     9
100
AcDbLine
 10
615.0388975401182
 20
925.636448215794
 30
0.0
 11
620.7168991501271
 21
946.8281843855575
 31
0.0
  0
LINE
  5
166
330
1F
100
AcDbEntity
  8
0-B
  6
Continuous
 62
     4
370
     9
100
AcDbLine
 10
615.0388975401182
 20
925.636448215794
 30
0.0
 11
593.8469139305323
 21
919.958199165963
 31
0.0
  0
LINE
  5
167
330
1F
100
AcDbEntity
  8
0-B
  6
Continuous
 62
     4
370
     9
100
AcDbLine
 10
578.3888533308703
 20
935.416259765625
 30
0.0
 11
593.8469139305323
 21
919.958199165963
 31
0.0
  0
LINE
  5
168
330
1F
100
AcDbEntity
  8
0-1
  6
JWW_CENTER1
 62
     2
370
     9
100
AcDbLine
 10
574.9395422033365
 20
916.5083931587839
 30
0.0
 11
624.1676949165964
 21
965.736545872044
 31
0.0
  0
LINE
  5
169
330
1F
100
AcDbEntity
  8
0-B
  6
Continuous
 62
     4
370
     9
100
AcDbLine
 10
584.0668549408787
 20
956.6075010557436
 30
0.0
 11
578.3888533308703
 21
935.416259765625
 31
0.0
  0
LINE
  5
16A
330
1F
100
AcDbEntity
  8
B-1
  6
JWW_CENTER1
 62
     2
370
     9
100
AcDbLine
 10
858.8240339949328
 20
681.85131176098
 30
0.0
 11
521.7711577544344
 21
1018.904930320946
 31
0.0
  0
LINE
  5
16B
330
1F
100
AcDbEntity
  8
B-4
  6
Continuous
 62
     7
370
     9
100
AcDbLine
 10
876.5016298036318
 20
657.1028755806589
 30
0.0
 11
861.2825960726354
 21
637.2690891575169
 31
0.0
  0
LINE
  5
16C
330
1F
100
AcDbEntity
  8
B-4
  6
Continuous
 62
     7
370
     9
100
AcDbLine
 10
876.5016298036318
 20
657.1028755806589
 30
0.0
 11
856.6678433804901
 21
641.8838418496623
 31
0.0
  0
LINE
  5
16D
330
1F
100
AcDbEntity
  8
B-4
  6
Continuous
 62
     7
370
     9
100
AcDbLine
 10
497.0224741342906
 20
1036.58203125
 30
0.0
 11
481.8034404032943
 21
1016.748244826858
 31
0.0
  0
LINE
  5
16E
330
1F
100
AcDbEntity
  8
B-4
  6
Continuous
 62
     7
370
     9
100
AcDbLine
 10
497.0224741342906
 20
1036.58203125
 30
0.0
 11
477.188687711149
 21
1021.362997519003
 31
0.0
  0
LINE
  5
16F
330
1F
100
AcDbEntity
  8
0-B
  6
Continuous
 62
     4
370
     9
100
AcDbLine
 10
1571.608589790963
 20
956.6075010557436
 30
0.0
 11
1550.416606181377
 21
962.2862449852198
 31
0.0
  0
LINE
  5
170
330
1F
100
AcDbEntity
  8
0-B
  6
Continuous
 62
     4
370
     9
100
AcDbLine
 10
1550.416606181377
 20
962.2862449852198
 30
0.0
 11
1534.958545581715
 21
946.8281843855575
 31
0.0
  0
LINE
  5
171
330
1F
100
AcDbEntity
  8
0-B
  6
Continuous
 62
     4
370
     9
100
AcDbLine
 10
1540.636547191723
 20
925.636448215794
 30
0.0
 11
1534.958545581715
 21
946.8281843855575
 31
0.0
  0
LINE
  5
172
330
1F
100
AcDbEntity
  8
0-B
  6
Continuous
 62
     4
370
     9
100
AcDbLine
 10
1540.636547191723
 20
925.636448215794
 30
0.0
 11
1561.828530801309
 21
919.958199165963
 31
0.0
  0
LINE
  5
173
330
1F
100
AcDbEntity
  8
0-B
  6
Continuous
 62
     4
370
     9
100
AcDbLine
 10
1577.286591400971
 20
935.416259765625
 30
0.0
 11
1561.828530801309
 21
919.958199165963
 31
0.0
  0
LINE
  5
174
330
1F
100
AcDbEntity
  8
0-1
  6
JWW_CENTER1
 62
     2
370
     9
100
AcDbLine
 10
1580.735902528505
 20
916.5083931587839
 30
0.0
 11
1531.507749815245
 21
965.736545872044
 31
0.0
  0
LINE
  5
175
330
1F
100
AcDbEntity
  8
0-B
  6
Continuous
 62
     4
370
     9
100
AcDbLine
 10
1571.608589790963
 20
956.6075010557436
 30
0.0
 11
1577.286591400971
 21
935.416259765625
 31
0.0
  0
LINE
  5
176
330
1F
100
AcDbEntity
  8
0-B
  6
Continuous
 62
     4
370
     9
100
AcDbLine
 10
584.0668549408787
 20
-30.932625435494
 30
0.0
 11
605.2588385504646
 21
-36.6113693649703
 31
0.0
  0
LINE
  5
177
330
1F
100
AcDbEntity
  8
0-B
  6
Continuous
 62
     4
370
     9
100
AcDbLine
 10
605.2588385504646
 20
-36.6113693649703
 30
0.0
 11
620.7168991501271
 21
-21.15330876530805
 31
0.0
  0
LINE
  5
178
330
1F
100
AcDbEntity
  8
0-B
  6
Continuous
 62
     4
370
     9
100
AcDbLine
 10
615.0388975401182
 20
0.0386748442778639
 30
0.0
 11
620.7168991501271
 21
-21.15330876530805
 31
0.0
  0
LINE
  5
179
330
1F
100
AcDbEntity
  8
0-B
  6
Continuous
 62
     4
370
     9
100
AcDbLine
 10
615.0388975401182
 20
0.0386748442778639
 30
0.0
 11
593.8469139305323
 21
5.716923894109129
 31
0.0
  0
LINE
  5
17A
330
1F
100
AcDbEntity
  8
0-B
  6
Continuous
 62
     4
370
     9
100
AcDbLine
 10
578.3888533308703
 20
-9.741136705553117
 30
0.0
 11
593.8469139305323
 21
5.716923894109129
 31
0.0
  0
LINE
  5
17B
330
1F
100
AcDbEntity
  8
0-1
  6
JWW_CENTER1
 62
     2
370
     9
100
AcDbLine
 10
574.9395422033365
 20
9.166729901288022
 30
0.0
 11
624.1676949165964
 21
-40.06142281197214
 31
0.0
  0
LINE
  5
17C
330
1F
100
AcDbEntity
  8
0-B
  6
Continuous
 62
     4
370
     9
100
AcDbLine
 10
584.0668549408787
 20
-30.932625435494
 30
0.0
 11
578.3888533308703
 21
-9.741136705553117
 31
0.0
  0
LINE
  5
17D
330
1F
100
AcDbEntity
  8
0-B
  6
Continuous
 62
     4
370
     9
100
AcDbLine
 10
1571.608589790963
 20
-30.932625435494
 30
0.0
 11
1550.416606181377
 21
-36.6113693649703
 31
0.0
  0
LINE
  5
17E
330
1F
100
AcDbEntity
  8
0-B
  6
Continuous
 62
     4
370
     9
100
AcDbLine
 10
1550.416606181377
 20
-36.6113693649703
 30
0.0
 11
1534.958545581715
 21
-21.15330876530805
 31
0.0
  0
LINE
  5
17F
330
1F
100
AcDbEntity
  8
0-B
  6
Continuous
 62
     4
370
     9
100
AcDbLine
 10
1540.636547191723
 20
0.0386748442778639
 30
0.0
 11
1534.958545581715
 21
-21.15330876530805
 31
0.0
  0
LINE
  5
180
330
1F
100
AcDbEntity
  8
0-B
  6
Continuous
 62
     4
370
     9
100
AcDbLine
 10
1540.636547191723
 20
0.0386748442778639
 30
0.0
 11
1561.828530801309
 21
5.716923894109129
 31
0.0
  0
LINE
  5
181
330
1F
100
AcDbEntity
  8
0-B
  6
Continuous
 62
     4
370
     9
100
AcDbLine
 10
1577.286591400971
 20
-9.741136705553117
 30
0.0
 11
1561.828530801309
 21
5.716923894109129
 31
0.0
  0
LINE
  5
182
330
1F
100
AcDbEntity
  8
0-1
  6
JWW_CENTER1
 62
     2
370
     9
100
AcDbLine
 10
1580.735902528505
 20
9.166729901288022
 30
0.0
 11
1531.507749815245
 21
-40.06142281197214
 31
0.0
  0
LINE
  5
183
330
1F
100
AcDbEntity
  8
0-B
  6
Continuous
 62
     4
370
     9
100
AcDbLine
 10
1571.608589790963
 20
-30.932625435494
 30
0.0
 11
1577.286591400971
 21
-9.741136705553117
 31
0.0
  0
ARC
  5
184
330
1F
100
AcDbEntity
  8
B-1
  6
Continuous
 62
     2
370
     9
100
AcDbCircle
 10
627.8372274862755
 20
12.83774710990286
 30
0.0
 40
90.00000309299779
100
AcDbArc
 50
180.0
 51
270.0
  0
ARC
  5
185
330
1F
100
AcDbEntity
  8
B-1
  6
Continuous
 62
     2
370
     9
100
AcDbCircle
 10
627.8372274862755
 20
12.83774710990286
 30
0.0
 40
87.99998566911027
100
AcDbArc
 50
180.0
 51
270.0
  0
ARC
  5
186
330
1F
100
AcDbEntity
  8
B-1
  6
Continuous
 62
     2
370
     9
100
AcDbCircle
 10
654.4478957717484
 20
-41.16240630278696
 30
0.0
 40
8.00000058638083
100
AcDbArc
 50
134.9992523193359
 51
270.0
  0
ARC
  5
187
330
1F
100
AcDbEntity
  8
B-1
  6
Continuous
 62
     2
370
     9
100
AcDbCircle
 10
654.4478957717484
 20
-41.16240630278696
 30
0.0
 40
12.0000011212117
100
AcDbArc
 50
168.555908203125
 51
270.0
  0
ARC
  5
188
330
1F
100
AcDbEntity
  8
B-1
  6
Continuous
 62
     2
370
     9
100
AcDbCircle
 10
958.2213530669344
 20
-41.16240630278696
 30
0.0
 40
8.00000058638083
100
AcDbArc
 50
270.0
 51
76.64793395996094
  0
ARC
  5
189
330
1F
100
AcDbEntity
  8
B-1
  6
Continuous
 62
     2
370
     9
100
AcDbCircle
 10
958.2213530669344
 20
-41.16240630278696
 30
0.0
 40
12.0000011212117
100
AcDbArc
 50
270.0
 51
28.95401000976568
  0
ARC
  5
18A
330
1F
100
AcDbEntity
  8
B-1
  6
Continuous
 62
     2
370
     9
100
AcDbCircle
 10
573.8371977934969
 20
39.44792051573074
 30
0.0
 40
8.00000058638083
100
AcDbArc
 50
180.0
 51
315.0007476806641
  0
ARC
  5
18B
330
1F
100
AcDbEntity
  8
B-1
  6
Continuous
 62
     2
370
     9
100
AcDbCircle
 10
573.8371977934969
 20
39.44792051573074
 30
0.0
 40
12.0000011212117
100
AcDbArc
 50
180.0
 51
281.444091796875
  0
ARC
  5
18C
330
1F
100
AcDbEntity
  8
B-1
  6
Continuous
 62
     2
370
     9
100
AcDbCircle
 10
573.8374452333193
 20
343.2215015308279
 30
0.0
 40
8.00000058638083
100
AcDbArc
 50
13.35206604003907
 51
180.0
  0
ARC
  5
18D
330
1F
100
AcDbEntity
  8
B-1
  6
Continuous
 62
     2
370
     9
100
AcDbCircle
 10
573.8374452333193
 20
343.2215015308279
 30
0.0
 40
12.0000011212117
100
AcDbArc
 50
61.04598999023437
 51
180.0
  0
ARC
  5
18E
330
1F
100
AcDbEntity
  8
B-1
  6
Continuous
 62
     2
370
     9
100
AcDbCircle
 10
1077.837722365921
 20
462.8374996700802
 30
0.0
 40
510.0000123719911
100
AcDbArc
 50
167.6459045410156
 51
192.3540954589843
  0
ARC
  5
18F
330
1F
100
AcDbEntity
  8
B-1
  6
Continuous
 62
     2
370
     9
100
AcDbCircle
 10
658.9500633445948
 20
43.95045924831095
 30
0.0
 40
48.00000448484678
100
AcDbArc
 50
219.0208740234375
 51
230.9791259765625
  0
ARC
  5
190
330
1F
100
AcDbEntity
  8
B-1
  6
Continuous
 62
     2
370
     9
100
AcDbCircle
 10
1077.837722365921
 20
462.8374996700802
 30
0.0
 40
505.5207639127165
100
AcDbArc
 50
224.4332885742188
 51
225.5667114257812
  0
ARC
  5
191
330
1F
100
AcDbEntity
  8
B-1
  6
Continuous
 62
     2
370
     9
100
AcDbCircle
 10
627.8372274862755
 20
12.83774710990286
 30
0.0
 40
68.0000047425966
100
AcDbArc
 50
183.5654602050781
 51
266.4342803955078
  0
ARC
  5
192
330
1F
100
AcDbEntity
  8
B-1
  6
Continuous
 62
     2
370
     9
100
AcDbCircle
 10
627.8372274862755
 20
12.83774710990286
 30
0.0
 40
70.0000067014952
100
AcDbArc
 50
182.8224487304688
 51
267.1771850585938
  0
ARC
  5
193
330
1F
100
AcDbEntity
  8
B-1
  6
Continuous
 62
     2
370
     9
100
AcDbCircle
 10
673.4750283731
 20
139.0858748152451
 30
0.0
 40
8.00000058638083
100
AcDbArc
 50
314.9992523193359
 51
38.68205261230471
  0
ARC
  5
194
330
1F
100
AcDbEntity
  8
B-1
  6
Continuous
 62
     2
370
     9
100
AcDbCircle
 10
673.4750283731
 20
139.0858748152451
 30
0.0
 40
12.0000011212117
100
AcDbArc
 50
314.999496459961
 51
350.9893798828125
  0
ARC
  5
195
330
1F
100
AcDbEntity
  8
B-1
  6
Continuous
 62
     2
370
     9
100
AcDbCircle
 10
1077.837722365921
 20
462.8374996700802
 30
0.0
 40
510.0000123719911
100
AcDbArc
 50
193.3511657714844
 51
218.6824493408203
  0
ARC
  5
196
330
1F
100
AcDbEntity
  8
B-1
  6
Continuous
 62
     2
370
     9
100
AcDbCircle
 10
1077.837722365921
 20
462.8374996700802
 30
0.0
 40
510.0000123719911
100
AcDbArc
 50
219.6795043945312
 51
223.9888305664062
  0
ARC
  5
197
330
1F
100
AcDbEntity
  8
B-1
  6
Continuous
 62
     2
370
     9
100
AcDbCircle
 10
754.0854789115286
 20
58.47554799672736
 30
0.0
 40
8.00000058638083
100
AcDbArc
 50
51.31794738769533
 51
135.0007476806641
  0
ARC
  5
198
330
1F
100
AcDbEntity
  8
B-1
  6
Continuous
 62
     2
370
     9
100
AcDbCircle
 10
754.0854789115286
 20
58.47554799672736
 30
0.0
 40
12.0000011212117
100
AcDbArc
 50
99.0106201171875
 51
135.000503540039
  0
ARC
  5
199
330
1F
100
AcDbEntity
  8
B-1
  6
Continuous
 62
     2
370
     9
100
AcDbCircle
 10
1077.837722365921
 20
462.8374996700802
 30
0.0
 40
510.0000123719911
100
AcDbArc
 50
226.0111541748047
 51
230.3204650878907
  0
ARC
  5
19A
330
1F
100
AcDbEntity
  8
B-1
  6
Continuous
 62
     2
370
     9
100
AcDbCircle
 10
1077.837722365921
 20
462.8374996700802
 30
0.0
 40
510.0000123719911
100
AcDbArc
 50
231.3175354003906
 51
256.6488189697266
  0
ARC
  5
19B
330
1F
100
AcDbEntity
  8
B-1
  6
Continuous
 62
     2
370
     9
100
AcDbCircle
 10
627.8372274862755
 20
912.837375950169
 30
0.0
 40
90.00000309299779
100
AcDbArc
 50
90.0
 51
180.0
  0
ARC
  5
19C
330
1F
100
AcDbEntity
  8
B-1
  6
Continuous
 62
     2
370
     9
100
AcDbCircle
 10
627.8372274862755
 20
912.837375950169
 30
0.0
 40
87.99998566911027
100
AcDbArc
 50
90.0
 51
180.0
  0
ARC
  5
19D
330
1F
100
AcDbEntity
  8
B-1
  6
Continuous
 62
     2
370
     9
100
AcDbCircle
 10
654.4478957717484
 20
966.8376530827703
 30
0.0
 40
8.00000058638083
100
AcDbArc
 50
90.0
 51
225.0007476806641
  0
ARC
  5
19E
330
1F
100
AcDbEntity
  8
B-1
  6
Continuous
 62
     2
370
     9
100
AcDbCircle
 10
654.4478957717484
 20
966.8376530827703
 30
0.0
 40
12.0000011212117
100
AcDbArc
 50
90.0
 51
191.444091796875
  0
ARC
  5
19F
330
1F
100
AcDbEntity
  8
B-1
  6
Continuous
 62
     2
370
     9
100
AcDbCircle
 10
958.2213530669344
 20
966.8376530827703
 30
0.0
 40
8.00000058638083
100
AcDbArc
 50
283.3520660400391
 51
90.00000000000001
  0
ARC
  5
1A0
330
1F
100
AcDbEntity
  8
B-1
  6
Continuous
 62
     2
370
     9
100
AcDbCircle
 10
958.2213530669344
 20
966.8376530827703
 30
0.0
 40
12.0000011212117
100
AcDbArc
 50
331.0459899902344
 51
90.0
  0
ARC
  5
1A1
330
1F
100
AcDbEntity
  8
B-1
  6
Continuous
 62
     2
370
     9
100
AcDbCircle
 10
573.8371977934969
 20
886.2276974239867
 30
0.0
 40
8.00000058638083
100
AcDbArc
 50
44.99925231933593
 51
180.0
  0
ARC
  5
1A2
330
1F
100
AcDbEntity
  8
B-1
  6
Continuous
 62
     2
370
     9
100
AcDbCircle
 10
573.8371977934969
 20
886.2276974239867
 30
0.0
 40
12.0000011212117
100
AcDbArc
 50
78.55590820312499
 51
180.0
  0
ARC
  5
1A3
330
1F
100
AcDbEntity
  8
B-1
  6
Continuous
 62
     2
370
     9
100
AcDbCircle
 10
573.8374452333193
 20
582.4537452491554
 30
0.0
 40
8.00000058638083
100
AcDbArc
 50
180.0
 51
346.6479339599609
  0
ARC
  5
1A4
330
1F
100
AcDbEntity
  8
B-1
  6
Continuous
 62
     2
370
     9
100
AcDbCircle
 10
573.8374452333193
 20
582.4537452491554
 30
0.0
 40
12.0000011212117
100
AcDbArc
 50
180.0
 51
298.9540100097656
  0
ARC
  5
1A5
330
1F
100
AcDbEntity
  8
B-1
  6
Continuous
 62
     2
370
     9
100
AcDbCircle
 10
658.9500633445948
 20
881.7247875316724
 30
0.0
 40
48.00000448484678
100
AcDbArc
 50
129.0208740234375
 51
140.9791259765625
  0
ARC
  5
1A6
330
1F
100
AcDbEntity
  8
B-1
  6
Continuous
 62
     2
370
     9
100
AcDbCircle
 10
1077.837722365921
 20
462.8374996700802
 30
0.0
 40
505.5207639127165
100
AcDbArc
 50
134.4332885742188
 51
135.5667114257812
  0
ARC
  5
1A7
330
1F
100
AcDbEntity
  8
B-1
  6
Continuous
 62
     2
370
     9
100
AcDbCircle
 10
627.8372274862755
 20
912.837375950169
 30
0.0
 40
68.0000047425966
100
AcDbArc
 50
93.56571960449219
 51
176.4345397949219
  0
ARC
  5
1A8
330
1F
100
AcDbEntity
  8
B-1
  6
Continuous
 62
     2
370
     9
100
AcDbCircle
 10
627.8372274862755
 20
912.837375950169
 30
0.0
 40
70.0000067014952
100
AcDbArc
 50
92.82281494140624
 51
177.1775512695312
  0
ARC
  5
1A9
330
1F
100
AcDbEntity
  8
B-1
  6
Continuous
 62
     2
370
     9
100
AcDbCircle
 10
673.4750283731
 20
786.5891245249156
 30
0.0
 40
8.00000058638083
100
AcDbArc
 50
321.3179473876953
 51
45.00074768066408
  0
ARC
  5
1AA
330
1F
100
AcDbEntity
  8
B-1
  6
Continuous
 62
     2
370
     9
100
AcDbCircle
 10
673.4750283731
 20
786.5891245249156
 30
0.0
 40
12.0000011212117
100
AcDbArc
 50
9.01062011718752
 51
45.00050354003908
  0
ARC
  5
1AB
330
1F
100
AcDbEntity
  8
B-1
  6
Continuous
 62
     2
370
     9
100
AcDbCircle
 10
1077.837722365921
 20
462.8374996700802
 30
0.0
 40
510.0000123719911
100
AcDbArc
 50
141.3175506591797
 51
166.6488342285156
  0
ARC
  5
1AC
330
1F
100
AcDbEntity
  8
B-1
  6
Continuous
 62
     2
370
     9
100
AcDbCircle
 10
1077.837722365921
 20
462.8374996700802
 30
0.0
 40
510.0000123719911
100
AcDbArc
 50
136.0111694335938
 51
140.3204956054688
  0
ARC
  5
1AD
330
1F
100
AcDbEntity
  8
B-1
  6
Continuous
 62
     2
370
     9
100
AcDbCircle
 10
754.0854789115286
 20
867.2000699429901
 30
0.0
 40
8.00000058638083
100
AcDbArc
 50
224.9992523193359
 51
308.6820526123047
  0
ARC
  5
1AE
330
1F
100
AcDbEntity
  8
B-1
  6
Continuous
 62
     2
370
     9
100
AcDbCircle
 10
754.0854789115286
 20
867.2000699429901
 30
0.0
 40
12.0000011212117
100
AcDbArc
 50
224.9994964599609
 51
260.9893798828125
  0
ARC
  5
1AF
330
1F
100
AcDbEntity
  8
B-1
  6
Continuous
 62
     2
370
     9
100
AcDbCircle
 10
1077.837722365921
 20
462.8374996700802
 30
0.0
 40
510.0000123719911
100
AcDbArc
 50
129.6795349121094
 51
133.9888458251953
  0
ARC
  5
1B0
330
1F
100
AcDbEntity
  8
B-1
  6
Continuous
 62
     2
370
     9
100
AcDbCircle
 10
1077.837722365921
 20
462.8374996700802
 30
0.0
 40
510.0000123719911
100
AcDbArc
 50
103.3511810302734
 51
128.6824645996094
  0
CIRCLE
  5
1B1
330
1F
100
AcDbEntity
  8
B-1
  6
Continuous
 62
     2
370
     9
100
AcDbCircle
 10
755.1168080922719
 20
912.837375950169
 30
0.0
 40
10.00000012887491
  0
CIRCLE
  5
1B2
330
1F
100
AcDbEntity
  8
B-1
  6
Continuous
 62
     2
370
     9
100
AcDbCircle
 10
755.1168080922719
 20
912.837375950169
 30
0.0
 40
13.00000016753738
  0
ARC
  5
1B3
330
1F
100
AcDbEntity
  8
B-1
  6
Continuous
 62
     2
370
     9
100
AcDbCircle
 10
1077.837722365921
 20
462.8374996700802
 30
0.0
 40
510.0000123719911
100
AcDbArc
 50
257.6459350585938
 51
270.0
  0
ARC
  5
1B4
330
1F
100
AcDbEntity
  8
B-1
  6
Continuous
 62
     2
370
     9
100
AcDbCircle
 10
1077.837722365921
 20
462.8374996700802
 30
0.0
 40
504.999995876003
100
AcDbArc
 50
90.0
 51
270.0
  0
ARC
  5
1B5
330
1F
100
AcDbEntity
  8
B-1
  6
Continuous
 62
     2
370
     9
100
AcDbCircle
 10
1077.837722365921
 20
462.8374996700802
 30
0.0
 40
495.0000247439823
100
AcDbArc
 50
90.0
 51
270.0
  0
ARC
  5
1B6
330
1F
100
AcDbEntity
  8
B-1
  6
Continuous
 62
     2
370
     9
100
AcDbCircle
 10
1077.837722365921
 20
462.8374996700802
 30
0.0
 40
510.0000123719911
100
AcDbArc
 50
90.0
 51
102.3540649414062
  0
ARC
  5
1B7
330
1F
100
AcDbEntity
  8
B-1
  6
Continuous
 62
     2
370
     9
100
AcDbCircle
 10
1527.838217245566
 20
12.83774710990286
 30
0.0
 40
90.00000309299779
100
AcDbArc
 50
270.0
 51
0.0
  0
ARC
  5
1B8
330
1F
100
AcDbEntity
  8
B-1
  6
Continuous
 62
     2
370
     9
100
AcDbCircle
 10
1527.838217245566
 20
12.83774710990286
 30
0.0
 40
87.99998566911027
100
AcDbArc
 50
270.0
 51
0.0
  0
ARC
  5
1B9
330
1F
100
AcDbEntity
  8
B-1
  6
Continuous
 62
     2
370
     9
100
AcDbCircle
 10
1501.227548960093
 20
-41.16240630278696
 30
0.0
 40
8.00000058638083
100
AcDbArc
 50
270.0
 51
45.00074768066406
  0
ARC
  5
1BA
330
1F
100
AcDbEntity
  8
B-1
  6
Continuous
 62
     2
370
     9
100
AcDbCircle
 10
1501.227548960093
 20
-41.16240630278696
 30
0.0
 40
12.0000011212117
100
AcDbArc
 50
270.0
 51
11.44409179687506
  0
ARC
  5
1BB
330
1F
100
AcDbEntity
  8
B-1
  6
Continuous
 62
     2
370
     9
100
AcDbCircle
 10
1197.454091664907
 20
-41.16240630278696
 30
0.0
 40
8.00000058638083
100
AcDbArc
 50
103.3520660400391
 51
270.0
  0
ARC
  5
1BC
330
1F
100
AcDbEntity
  8
B-1
  6
Continuous
 62
     2
370
     9
100
AcDbCircle
 10
1197.454091664907
 20
-41.16240630278696
 30
0.0
 40
12.0000011212117
100
AcDbArc
 50
151.0459899902344
 51
270.0
  0
ARC
  5
1BD
330
1F
100
AcDbEntity
  8
B-1
  6
Continuous
 62
     2
370
     9
100
AcDbCircle
 10
1581.838494378167
 20
39.44792051573074
 30
0.0
 40
8.00000058638083
100
AcDbArc
 50
224.9992523193359
 51
0.0
  0
ARC
  5
1BE
330
1F
100
AcDbEntity
  8
B-1
  6
Continuous
 62
     2
370
     9
100
AcDbCircle
 10
1581.838494378167
 20
39.44792051573074
 30
0.0
 40
12.0000011212117
100
AcDbArc
 50
258.555908203125
 51
0.0
  0
ARC
  5
1BF
330
1F
100
AcDbEntity
  8
B-1
  6
Continuous
 62
     2
370
     9
100
AcDbCircle
 10
1581.837999498523
 20
343.2215015308279
 30
0.0
 40
8.00000058638083
100
AcDbArc
 50
0.0
 51
166.647933959961
  0
ARC
  5
1C0
330
1F
100
AcDbEntity
  8
B-1
  6
Continuous
 62
     2
370
     9
100
AcDbCircle
 10
1581.837999498523
 20
343.2215015308279
 30
0.0
 40
12.0000011212117
100
AcDbArc
 50
0.0
 51
118.9540100097656
  0
ARC
  5
1C1
330
1F
100
AcDbEntity
  8
B-1
  6
Continuous
 62
     2
370
     9
100
AcDbCircle
 10
1077.837722365921
 20
462.8374996700802
 30
0.0
 40
510.0000123719911
100
AcDbArc
 50
347.6459045410156
 51
12.3540954589844
  0
ARC
  5
1C2
330
1F
100
AcDbEntity
  8
B-1
  6
Continuous
 62
     2
370
     9
100
AcDbCircle
 10
1496.725381387247
 20
43.95045924831095
 30
0.0
 40
48.00000448484678
100
AcDbArc
 50
309.0208740234375
 51
320.9791259765625
  0
ARC
  5
1C3
330
1F
100
AcDbEntity
  8
B-1
  6
Continuous
 62
     2
370
     9
100
AcDbCircle
 10
1077.837722365921
 20
462.8374996700802
 30
0.0
 40
505.5207639127165
100
AcDbArc
 50
314.4332885742188
 51
315.5667114257812
  0
ARC
  5
1C4
330
1F
100
AcDbEntity
  8
B-1
  6
Continuous
 62
     2
370
     9
100
AcDbCircle
 10
1527.838217245566
 20
12.83774710990286
 30
0.0
 40
68.0000047425966
100
AcDbArc
 50
273.5657196044922
 51
356.4345397949219
  0
ARC
  5
1C5
330
1F
100
AcDbEntity
  8
B-1
  6
Continuous
 62
     2
370
     9
100
AcDbCircle
 10
1527.838217245566
 20
12.83774710990286
 30
0.0
 40
70.0000067014952
100
AcDbArc
 50
272.8228149414062
 51
357.1775512695312
  0
ARC
  5
1C6
330
1F
100
AcDbEntity
  8
B-1
  6
Continuous
 62
     2
370
     9
100
AcDbCircle
 10
1482.200416358742
 20
139.0858748152451
 30
0.0
 40
8.00000058638083
100
AcDbArc
 50
141.3179473876953
 51
225.0007476806641
  0
ARC
  5
1C7
330
1F
100
AcDbEntity
  8
B-1
  6
Continuous
 62
     2
370
     9
100
AcDbCircle
 10
1482.200416358742
 20
139.0858748152451
 30
0.0
 40
12.0000011212117
100
AcDbArc
 50
189.0106201171875
 51
225.0005035400391
  0
ARC
  5
1C8
330
1F
100
AcDbEntity
  8
B-1
  6
Continuous
 62
     2
370
     9
100
AcDbCircle
 10
1077.837722365921
 20
462.8374996700802
 30
0.0
 40
510.0000123719911
100
AcDbArc
 50
321.3175506591797
 51
346.6488342285156
  0
ARC
  5
1C9
330
1F
100
AcDbEntity
  8
B-1
  6
Continuous
 62
     2
370
     9
100
AcDbCircle
 10
1077.837722365921
 20
462.8374996700802
 30
0.0
 40
510.0000123719911
100
AcDbArc
 50
316.0111694335938
 51
320.3204956054688
  0
ARC
  5
1CA
330
1F
100
AcDbEntity
  8
B-1
  6
Continuous
 62
     2
370
     9
100
AcDbCircle
 10
1401.589965820312
 20
58.47554799672736
 30
0.0
 40
8.00000058638083
100
AcDbArc
 50
44.99925231933593
 51
128.6820526123047
  0
ARC
  5
1CB
330
1F
100
AcDbEntity
  8
B-1
  6
Continuous
 62
     2
370
     9
100
AcDbCircle
 10
1401.589965820312
 20
58.47554799672736
 30
0.0
 40
12.0000011212117
100
AcDbArc
 50
44.99949645996097
 51
80.98937988281253
  0
ARC
  5
1CC
330
1F
100
AcDbEntity
  8
B-1
  6
Continuous
 62
     2
370
     9
100
AcDbCircle
 10
1077.837722365921
 20
462.8374996700802
 30
0.0
 40
510.0000123719911
100
AcDbArc
 50
309.6795349121095
 51
313.9888458251954
  0
ARC
  5
1CD
330
1F
100
AcDbEntity
  8
B-1
  6
Continuous
 62
     2
370
     9
100
AcDbCircle
 10
1077.837722365921
 20
462.8374996700802
 30
0.0
 40
510.0000123719911
100
AcDbArc
 50
283.3511810302734
 51
308.6824645996094
  0
ARC
  5
1CE
330
1F
100
AcDbEntity
  8
B-1
  6
Continuous
 62
     2
370
     9
100
AcDbCircle
 10
1527.838217245566
 20
912.837375950169
 30
0.0
 40
90.00000309299779
100
AcDbArc
 50
0.0
 51
90.0
  0
ARC
  5
1CF
330
1F
100
AcDbEntity
  8
B-1
  6
Continuous
 62
     2
370
     9
100
AcDbCircle
 10
1527.838217245566
 20
912.837375950169
 30
0.0
 40
87.99998566911027
100
AcDbArc
 50
0.0
 51
90.0
  0
ARC
  5
1D0
330
1F
100
AcDbEntity
  8
B-1
  6
Continuous
 62
     2
370
     9
100
AcDbCircle
 10
1501.227548960093
 20
966.8376530827703
 30
0.0
 40
8.00000058638083
100
AcDbArc
 50
314.9992523193359
 51
90.00000000000001
  0
ARC
  5
1D1
330
1F
100
AcDbEntity
  8
B-1
  6
Continuous
 62
     2
370
     9
100
AcDbCircle
 10
1501.227548960093
 20
966.8376530827703
 30
0.0
 40
12.0000011212117
100
AcDbArc
 50
348.555908203125
 51
90.00000000000001
  0
ARC
  5
1D2
330
1F
100
AcDbEntity
  8
B-1
  6
Continuous
 62
     2
370
     9
100
AcDbCircle
 10
1197.454091664907
 20
966.8376530827703
 30
0.0
 40
8.00000058638083
100
AcDbArc
 50
90.0
 51
256.6479339599609
  0
ARC
  5
1D3
330
1F
100
AcDbEntity
  8
B-1
  6
Continuous
 62
     2
370
     9
100
AcDbCircle
 10
1197.454091664907
 20
966.8376530827703
 30
0.0
 40
12.0000011212117
100
AcDbArc
 50
90.0
 51
208.9540100097657
  0
ARC
  5
1D4
330
1F
100
AcDbEntity
  8
B-1
  6
Continuous
 62
     2
370
     9
100
AcDbCircle
 10
1581.838494378167
 20
886.2276974239867
 30
0.0
 40
8.00000058638083
100
AcDbArc
 50
0.0
 51
135.0007476806641
  0
ARC
  5
1D5
330
1F
100
AcDbEntity
  8
B-1
  6
Continuous
 62
     2
370
     9
100
AcDbCircle
 10
1581.838494378167
 20
886.2276974239867
 30
0.0
 40
12.0000011212117
100
AcDbArc
 50
0.0
 51
101.444091796875
  0
ARC
  5
1D6
330
1F
100
AcDbEntity
  8
B-1
  6
Continuous
 62
     2
370
     9
100
AcDbCircle
 10
1581.837999498523
 20
582.4537452491554
 30
0.0
 40
8.00000058638083
100
AcDbArc
 50
193.3520660400391
 51
0.0
  0
ARC
  5
1D7
330
1F
100
AcDbEntity
  8
B-1
  6
Continuous
 62
     2
370
     9
100
AcDbCircle
 10
1581.837999498523
 20
582.4537452491554
 30
0.0
 40
12.0000011212117
100
AcDbArc
 50
241.0459899902344
 51
0.0000000000000568
  0
ARC
  5
1D8
330
1F
100
AcDbEntity
  8
B-1
  6
Continuous
 62
     2
370
     9
100
AcDbCircle
 10
1496.725381387247
 20
881.7247875316724
 30
0.0
 40
48.00000448484678
100
AcDbArc
 50
39.02087402343749
 51
50.97912597656249
  0
ARC
  5
1D9
330
1F
100
AcDbEntity
  8
B-1
  6
Continuous
 62
     2
370
     9
100
AcDbCircle
 10
1077.837722365921
 20
462.8374996700802
 30
0.0
 40
505.5207639127165
100
AcDbArc
 50
44.43328857421877
 51
45.56671142578128
  0
ARC
  5
1DA
330
1F
100
AcDbEntity
  8
B-1
  6
Continuous
 62
     2
370
     9
100
AcDbCircle
 10
1527.838217245566
 20
912.837375950169
 30
0.0
 40
68.0000047425966
100
AcDbArc
 50
3.56546020507814
 51
86.43428039550783
  0
ARC
  5
1DB
330
1F
100
AcDbEntity
  8
B-1
  6
Continuous
 62
     2
370
     9
100
AcDbCircle
 10
1527.838217245566
 20
912.837375950169
 30
0.0
 40
70.0000067014952
100
AcDbArc
 50
2.822448730468771
 51
87.17718505859376
  0
ARC
  5
1DC
330
1F
100
AcDbEntity
  8
B-1
  6
Continuous
 62
     2
370
     9
100
AcDbCircle
 10
1482.200416358742
 20
786.5891245249156
 30
0.0
 40
8.00000058638083
100
AcDbArc
 50
134.9992523193359
 51
218.6820526123047
  0
ARC
  5
1DD
330
1F
100
AcDbEntity
  8
B-1
  6
Continuous
 62
     2
370
     9
100
AcDbCircle
 10
1482.200416358742
 20
786.5891245249156
 30
0.0
 40
12.0000011212117
100
AcDbArc
 50
134.999496459961
 51
170.9893798828125
  0
ARC
  5
1DE
330
1F
100
AcDbEntity
  8
B-1
  6
Continuous
 62
     2
370
     9
100
AcDbCircle
 10
1077.837722365921
 20
462.8374996700802
 30
0.0
 40
510.0000123719911
100
AcDbArc
 50
13.35116577148439
 51
38.68244934082033
  0
ARC
  5
1DF
330
1F
100
AcDbEntity
  8
B-1
  6
Continuous
 62
     2
370
     9
100
AcDbCircle
 10
1077.837722365921
 20
462.8374996700802
 30
0.0
 40
510.0000123719911
100
AcDbArc
 50
39.67950439453126
 51
43.98883056640626
  0
ARC
  5
1E0
330
1F
100
AcDbEntity
  8
B-1
  6
Continuous
 62
     2
370
     9
100
AcDbCircle
 10
1401.589965820312
 20
867.2000699429901
 30
0.0
 40
8.00000058638083
100
AcDbArc
 50
231.3179473876953
 51
315.0007476806641
  0
ARC
  5
1E1
330
1F
100
AcDbEntity
  8
B-1
  6
Continuous
 62
     2
370
     9
100
AcDbCircle
 10
1401.589965820312
 20
867.2000699429901
 30
0.0
 40
12.0000011212117
100
AcDbArc
 50
279.0106201171875
 51
315.000503540039
  0
ARC
  5
1E2
330
1F
100
AcDbEntity
  8
B-1
  6
Continuous
 62
     2
370
     9
100
AcDbCircle
 10
1077.837722365921
 20
462.8374996700802
 30
0.0
 40
510.0000123719911
100
AcDbArc
 50
46.01115417480468
 51
50.32046508789062
  0
ARC
  5
1E3
330
1F
100
AcDbEntity
  8
B-1
  6
Continuous
 62
     2
370
     9
100
AcDbCircle
 10
1077.837722365921
 20
462.8374996700802
 30
0.0
 40
510.0000123719911
100
AcDbArc
 50
51.31753540039063
 51
76.64881896972656
  0
CIRCLE
  5
1E4
330
1F
100
AcDbEntity
  8
B-1
  6
Continuous
 62
     2
370
     9
100
AcDbCircle
 10
1400.558636639569
 20
912.837375950169
 30
0.0
 40
10.00000012887491
  0
CIRCLE
  5
1E5
330
1F
100
AcDbEntity
  8
B-1
  6
Continuous
 62
     2
370
     9
100
AcDbCircle
 10
1400.558636639569
 20
912.837375950169
 30
0.0
 40
13.00000016753738
  0
ARC
  5
1E6
330
1F
100
AcDbEntity
  8
B-1
  6
Continuous
 62
     2
370
     9
100
AcDbCircle
 10
1077.837722365921
 20
462.8374996700802
 30
0.0
 40
510.0000123719911
100
AcDbArc
 50
270.0
 51
282.3540649414062
  0
ARC
  5
1E7
330
1F
100
AcDbEntity
  8
B-1
  6
Continuous
 62
     2
370
     9
100
AcDbCircle
 10
1077.837722365921
 20
462.8374996700802
 30
0.0
 40
504.999995876003
100
AcDbArc
 50
270.0
 51
90.0
  0
ARC
  5
1E8
330
1F
100
AcDbEntity
  8
B-1
  6
Continuous
 62
     2
370
     9
100
AcDbCircle
 10
1077.837722365921
 20
462.8374996700802
 30
0.0
 40
495.0000247439823
100
AcDbArc
 50
270.0
 51
90.0
  0
ARC
  5
1E9
330
1F
100
AcDbEntity
  8
B-1
  6
Continuous
 62
     2
370
     9
100
AcDbCircle
 10
1077.837722365921
 20
462.8374996700802
 30
0.0
 40
510.0000123719911
100
AcDbArc
 50
77.64593505859379
 51
90.00000000000004
  0
ARC
  5
1EA
330
1F
100
AcDbEntity
  8
B-1
  6
Continuous
 62
     2
370
     9
100
AcDbCircle
 10
773.7821836729307
 20
158.7818372571792
 30
0.0
 40
33.000001391849
100
AcDbArc
 50
328.3049316406249
 51
121.695068359375
  0
CIRCLE
  5
1EB
330
1F
100
AcDbEntity
  8
B-0
  6
Continuous
 62
     3
370
     9
100
AcDbCircle
 10
773.7821836729307
 20
158.7818372571792
 30
0.0
 40
12.0000011212117
  0
CIRCLE
  5
1EC
330
1F
100
AcDbEntity
  8
B-0
  6
Continuous
 62
     3
370
     9
100
AcDbCircle
 10
773.7821836729307
 20
158.7818372571792
 30
0.0
 40
10.00000012887491
  0
ARC
  5
1ED
330
1F
100
AcDbEntity
  8
B-1
  6
Continuous
 62
     2
370
     9
100
AcDbCircle
 10
1381.893013619088
 20
158.7818372571792
 30
0.0
 40
33.000001391849
100
AcDbArc
 50
58.304931640625
 51
211.695068359375
  0
CIRCLE
  5
1EE
330
1F
100
AcDbEntity
  8
B-0
  6
Continuous
 62
     3
370
     9
100
AcDbCircle
 10
1381.893013619088
 20
158.7818372571792
 30
0.0
 40
12.0000011212117
  0
CIRCLE
  5
1EF
330
1F
100
AcDbEntity
  8
B-0
  6
Continuous
 62
     3
370
     9
100
AcDbCircle
 10
1381.893013619088
 20
158.7818372571792
 30
0.0
 40
10.00000012887491
  0
ARC
  5
1F0
330
1F
100
AcDbEntity
  8
1-1
  6
Continuous
 62
     2
370
     9
100
AcDbCircle
 10
-559.895572146854
 20
515.1263592694258
 30
0.0
 40
20.00000025774982
100
AcDbArc
 50
270.0
 51
355.6015777587891
  0
ARC
  5
1F1
330
1F
100
AcDbEntity
  8
1-1
  6
Continuous
 62
     2
370
     9
100
AcDbCircle
 10
-582.3511072107262
 20
515.1263592694258
 30
0.0
 40
20.00000025774982
100
AcDbArc
 50
182.8619842529297
 51
270.0
  0
ARC
  5
1F2
330
1F
100
AcDbEntity
  8
1-1
  6
Continuous
 62
     2
370
     9
100
AcDbCircle
 10
-383.2597887193833
 20
533.9712524414062
 30
0.0
 40
7.500001063217988
100
AcDbArc
 50
6.116302490234375
 51
77.49026489257812
  0
ARC
  5
1F3
330
1F
100
AcDbEntity
  8
1-1
  6
Continuous
 62
     2
370
     9
100
AcDbCircle
 10
-488.5415979333825
 20
590.6229709934544
 30
0.0
 40
25.00000128874908
100
AcDbArc
 50
185.8262939453125
 51
257.4892730712891
  0
ARC
  5
1F4
330
1F
100
AcDbEntity
  8
1-8
  6
Continuous
 62
     4
370
     9
100
AcDbCircle
 10
-1108.402973896748
 20
558.1108629381336
 30
0.0
 40
19.51515159091434
100
AcDbArc
 50
45.36129760742188
 51
134.6389617919922
  0
ARC
  5
1F5
330
1F
100
AcDbEntity
  8
1-8
  6
Continuous
 62
     4
370
     9
100
AcDbCircle
 10
-1067.365079312711
 20
508.4860641891893
 30
0.0
 40
69.13951152079815
100
AcDbArc
 50
66.71980285644531
 51
113.2803039550781
  0
ARC
  5
1F6
330
1F
100
AcDbEntity
  8
1-8
  6
Continuous
 62
     4
370
     9
100
AcDbCircle
 10
-1026.327184728674
 20
558.1108629381336
 30
0.0
 40
19.51530624080349
100
AcDbArc
 50
45.36129760742188
 51
134.63818359375
  0
ARC
  5
1F7
330
1F
100
AcDbEntity
  8
1-8
  6
Continuous
 62
     4
370
     9
100
AcDbCircle
 10
-1108.402973896748
 20
427.1410885372677
 30
0.0
 40
19.51515159091434
100
AcDbArc
 50
225.3610382080078
 51
314.6387023925781
  0
ARC
  5
1F8
330
1F
100
AcDbEntity
  8
1-8
  6
Continuous
 62
     4
370
     9
100
AcDbCircle
 10
-1067.365079312711
 20
476.7655161264781
 30
0.0
 40
69.13951152079815
100
AcDbArc
 50
246.7196960449219
 51
293.2801971435547
  0
ARC
  5
1F9
330
1F
100
AcDbEntity
  8
1-8
  6
Continuous
 62
     4
370
     9
100
AcDbCircle
 10
-1026.327184728674
 20
427.1410885372677
 30
0.0
 40
19.51530624080349
100
AcDbArc
 50
225.36181640625
 51
314.6387023925781
  0
ELLIPSE
  5
1FA
330
1F
100
AcDbEntity
  8
1-8
  6
Continuous
 62
     6
370
     5
100
AcDbEllipse
 10
-555.7791632574956
 20
750.2337811444258
 30
0.0
 11
-6.381359424687612
 21
36.19048768967694
 31
0.0
210
0.0
220
0.0
230
1.0
 40
0.2692
 41
0.0
 42
6.283185307179586
  0
ARC
  5
1FB
330
1F
100
AcDbEntity
  8
1-8
  6
Continuous
 62
     6
370
     5
100
AcDbCircle
 10
-557.7228030642948
 20
776.549996040963
 30
0.0
 40
64.34079891926534
100
AcDbArc
 50
17.54776000976563
 51
209.2363128662109
  0
ARC
  5
1FC
330
1F
100
AcDbEntity
  8
1-8
  6
Continuous
 62
     6
370
     5
100
AcDbCircle
 10
-556.5777752850505
 20
716.3577847867401
 30
0.0
 40
61.56368899989773
100
AcDbArc
 50
207.8739318847656
 51
347.9251251220703
  0
ARC
  5
1FD
330
1F
100
AcDbEntity
  8
B-1
  6
Continuous
 62
     2
370
     9
100
AcDbCircle
 10
740.6819111592063
 20
212.3852209142737
 30
0.0
 40
29.99999845350111
100
AcDbArc
 50
238.3713073730469
 51
301.6950836181641
  0
ARC
  5
1FE
330
1F
100
AcDbEntity
  8
B-1
  6
Continuous
 62
     2
370
     9
100
AcDbCircle
 10
827.3858147698479
 20
125.6814410235432
 30
0.0
 40
29.99999845350111
100
AcDbArc
 50
148.3049163818359
 51
211.6292572021484
  0
ARC
  5
1FF
330
1F
100
AcDbEntity
  8
B-1
  6
Continuous
 62
     2
370
     9
100
AcDbCircle
 10
1328.289382522171
 20
125.6814410235432
 30
0.0
 40
29.99999845350111
100
AcDbArc
 50
328.3707427978516
 51
31.69508361816412
  0
ARC
  5
200
330
1F
100
AcDbEntity
  8
B-1
  6
Continuous
 62
     2
370
     9
100
AcDbCircle
 10
1414.99303869299
 20
212.3852209142737
 30
0.0
 40
29.99999845350111
100
AcDbArc
 50
238.304916381836
 51
301.6311035156251
  0
ARC
  5
201
330
1F
100
AcDbEntity
  8
B-1
  6
Continuous
 62
     2
370
     9
100
AcDbCircle
 10
773.7821836729307
 20
158.7818372571792
 30
0.0
 40
30.00000038662472
100
AcDbArc
 50
328.3049316406249
 51
121.695068359375
  0
ARC
  5
202
330
1F
100
AcDbEntity
  8
B-1
  6
Continuous
 62
     2
370
     9
100
AcDbCircle
 10
740.6819111592063
 20
212.3852209142737
 30
0.0
 40
32.99999752560177
100
AcDbArc
 50
249.732894897461
 51
301.6950836181641
  0
ARC
  5
203
330
1F
100
AcDbEntity
  8
B-1
  6
Continuous
 62
     2
370
     9
100
AcDbCircle
 10
827.3858147698479
 20
125.6814410235432
 30
0.0
 40
32.99999752560177
100
AcDbArc
 50
148.3049163818359
 51
200.2671051025391
  0
ARC
  5
204
330
1F
100
AcDbEntity
  8
B-1
  6
Continuous
 62
     2
370
     9
100
AcDbCircle
 10
1381.893013619088
 20
158.7818372571792
 30
0.0
 40
30.00000038662472
100
AcDbArc
 50
58.304931640625
 51
211.695068359375
  0
ARC
  5
205
330
1F
100
AcDbEntity
  8
B-1
  6
Continuous
 62
     2
370
     9
100
AcDbCircle
 10
1328.289382522171
 20
125.6814410235432
 30
0.0
 40
32.99999752560177
100
AcDbArc
 50
339.7323150634766
 51
31.69508361816401
  0
ARC
  5
206
330
1F
100
AcDbEntity
  8
B-1
  6
Continuous
 62
     2
370
     9
100
AcDbCircle
 10
1414.99303869299
 20
212.3852209142737
 30
0.0
 40
32.99999752560177
100
AcDbArc
 50
238.304916381836
 51
290.2684631347657
  0
ARC
  5
207
330
1F
100
AcDbEntity
  8
B-1
  6
Continuous
 62
     2
370
     9
100
AcDbCircle
 10
773.7821836729307
 20
766.8929146431589
 30
0.0
 40
33.000001391849
100
AcDbArc
 50
238.304931640625
 51
31.695068359375
  0
CIRCLE
  5
208
330
1F
100
AcDbEntity
  8
B-0
  6
Continuous
 62
     3
370
     9
100
AcDbCircle
 10
773.7821836729307
 20
766.8929146431589
 30
0.0
 40
12.0000011212117
  0
CIRCLE
  5
209
330
1F
100
AcDbEntity
  8
B-0
  6
Continuous
 62
     3
370
     9
100
AcDbCircle
 10
773.7821836729307
 20
766.8929146431589
 30
0.0
 40
10.00000012887491
  0
ARC
  5
20A
330
1F
100
AcDbEntity
  8
B-1
  6
Continuous
 62
     2
370
     9
100
AcDbCircle
 10
1381.893013619088
 20
766.8929146431589
 30
0.0
 40
33.000001391849
100
AcDbArc
 50
148.304931640625
 51
301.695068359375
  0
CIRCLE
  5
20B
330
1F
100
AcDbEntity
  8
B-0
  6
Continuous
 62
     3
370
     9
100
AcDbCircle
 10
1381.893013619088
 20
766.8929146431589
 30
0.0
 40
12.0000011212117
  0
CIRCLE
  5
20C
330
1F
100
AcDbEntity
  8
B-0
  6
Continuous
 62
     3
370
     9
100
AcDbCircle
 10
1381.893013619088
 20
766.8929146431589
 30
0.0
 40
10.00000012887491
  0
ARC
  5
20D
330
1F
100
AcDbEntity
  8
B-1
  6
Continuous
 62
     2
370
     9
100
AcDbCircle
 10
740.6819111592063
 20
713.2900258657096
 30
0.0
 40
29.99999845350111
100
AcDbArc
 50
58.30491638183594
 51
121.6286926269531
  0
ARC
  5
20E
330
1F
100
AcDbEntity
  8
B-1
  6
Continuous
 62
     2
370
     9
100
AcDbCircle
 10
827.3858147698479
 20
799.9934345967063
 30
0.0
 40
29.99999845350111
100
AcDbArc
 50
148.3707427978516
 51
211.6950836181641
  0
ARC
  5
20F
330
1F
100
AcDbEntity
  8
B-1
  6
Continuous
 62
     2
370
     9
100
AcDbCircle
 10
1328.289382522171
 20
799.9934345967063
 30
0.0
 40
29.99999845350111
100
AcDbArc
 50
328.3049163818359
 51
31.6292572021485
  0
ARC
  5
210
330
1F
100
AcDbEntity
  8
B-1
  6
Continuous
 62
     2
370
     9
100
AcDbCircle
 10
1414.99303869299
 20
713.2900258657096
 30
0.0
 40
29.99999845350111
100
AcDbArc
 50
58.36889648437501
 51
121.6950836181641
  0
ARC
  5
211
330
1F
100
AcDbEntity
  8
B-1
  6
Continuous
 62
     2
370
     9
100
AcDbCircle
 10
773.7821836729307
 20
766.8929146431589
 30
0.0
 40
30.00000038662472
100
AcDbArc
 50
238.304931640625
 51
31.695068359375
  0
ARC
  5
212
330
1F
100
AcDbEntity
  8
B-1
  6
Continuous
 62
     2
370
     9
100
AcDbCircle
 10
740.6819111592063
 20
713.2900258657096
 30
0.0
 40
32.99999752560177
100
AcDbArc
 50
58.30491638183594
 51
110.2671051025391
  0
ARC
  5
213
330
1F
100
AcDbEntity
  8
B-1
  6
Continuous
 62
     2
370
     9
100
AcDbCircle
 10
827.3858147698479
 20
799.9934345967063
 30
0.0
 40
32.99999752560177
100
AcDbArc
 50
159.7328948974609
 51
211.6950836181641
  0
ARC
  5
214
330
1F
100
AcDbEntity
  8
B-1
  6
Continuous
 62
     2
370
     9
100
AcDbCircle
 10
1381.893013619088
 20
766.8929146431589
 30
0.0
 40
30.00000038662472
100
AcDbArc
 50
148.304931640625
 51
301.695068359375
  0
ARC
  5
215
330
1F
100
AcDbEntity
  8
B-1
  6
Continuous
 62
     2
370
     9
100
AcDbCircle
 10
1328.289382522171
 20
799.9934345967063
 30
0.0
 40
32.99999752560177
100
AcDbArc
 50
328.3049163818359
 51
20.26768493652343
  0
ARC
  5
216
330
1F
100
AcDbEntity
  8
B-1
  6
Continuous
 62
     2
370
     9
100
AcDbCircle
 10
1414.99303869299
 20
713.2900258657096
 30
0.0
 40
32.99999752560177
100
AcDbArc
 50
69.73153686523439
 51
121.6950836181641
  0
ARC
  5
217
330
1F
100
AcDbEntity
  8
B-3
  6
Continuous
 62
     4
370
     9
100
AcDbCircle
 10
1077.837722365921
 20
462.8374996700802
 30
0.0
 40
430.0000268059808
100
AcDbArc
 50
54.36892700195313
 51
125.6310729980469
  0
ARC
  5
218
330
1F
100
AcDbEntity
  8
B-3
  6
Continuous
 62
     4
370
     9
100
AcDbCircle
 10
1077.837722365921
 20
462.8374996700802
 30
0.0
 40
430.0000268059808
100
AcDbArc
 50
324.3688354492188
 51
35.63116455078127
  0
ARC
  5
219
330
1F
100
AcDbEntity
  8
B-3
  6
Continuous
 62
     4
370
     9
100
AcDbCircle
 10
1077.837722365921
 20
462.8374996700802
 30
0.0
 40
430.0000268059808
100
AcDbArc
 50
234.3689270019532
 51
305.6310729980469
  0
ARC
  5
21A
330
1F
100
AcDbEntity
  8
B-3
  6
Continuous
 62
     4
370
     9
100
AcDbCircle
 10
1077.837722365921
 20
462.8374996700802
 30
0.0
 40
430.0000268059808
100
AcDbArc
 50
144.3688354492188
 51
215.6311645507813
  0
CIRCLE
  5
21B
330
1F
100
AcDbEntity
  8
0-B
  6
Continuous
 62
     4
370
     9
100
AcDbCircle
 10
599.5528762404984
 20
941.1222220755915
 30
0.0
 40
12.0000011212117
  0
CIRCLE
  5
21C
330
1F
100
AcDbEntity
  8
0-B
  6
Continuous
 62
     4
370
     9
100
AcDbCircle
 10
599.5808369404563
 20
941.0945088154563
 30
0.0
 40
19.00003600764919
  0
CIRCLE
  5
21D
330
1F
100
AcDbEntity
  8
0-B
  6
Continuous
 62
     4
370
     9
100
AcDbCircle
 10
599.5528762404984
 20
941.1222220755915
 30
0.0
 40
10.10600006258166
  0
CIRCLE
  5
21E
330
1F
100
AcDbEntity
  8
0-B
  6
Continuous
 62
     6
370
     5
100
AcDbCircle
 10
599.5528762404984
 20
941.1222220755915
 30
0.0
 40
24.00000224242339
  0
ARC
  5
21F
330
1F
100
AcDbEntity
  8
B-3
  6
Continuous
 62
     4
370
     9
100
AcDbCircle
 10
1077.837722365921
 20
462.8374996700802
 30
0.0
 40
448.0000367035737
100
AcDbArc
 50
134.9999694824219
 51
225.0000305175782
  0
ARC
  5
220
330
1F
100
AcDbEntity
  8
B-3
  6
Continuous
 62
     4
370
     9
100
AcDbCircle
 10
1077.837722365921
 20
462.8374996700802
 30
0.0
 40
448.0000367035737
100
AcDbArc
 50
225.0000305175782
 51
314.9999694824219
  0
ARC
  5
221
330
1F
100
AcDbEntity
  8
B-3
  6
Continuous
 62
     4
370
     9
100
AcDbCircle
 10
1077.837722365921
 20
462.8374996700802
 30
0.0
 40
448.0000367035737
100
AcDbArc
 50
45.00003051757812
 51
134.9999694824219
  0
ARC
  5
222
330
1F
100
AcDbEntity
  8
B-3
  6
Continuous
 62
     4
370
     9
100
AcDbCircle
 10
1077.837722365921
 20
462.8374996700802
 30
0.0
 40
448.0000367035737
100
AcDbArc
 50
314.999969482422
 51
45.00003051757815
  0
CIRCLE
  5
223
330
1F
100
AcDbEntity
  8
0-B
  6
Continuous
 62
     4
370
     9
100
AcDbCircle
 10
1556.122568491343
 20
941.1222220755915
 30
0.0
 40
12.0000011212117
  0
CIRCLE
  5
224
330
1F
100
AcDbEntity
  8
0-B
  6
Continuous
 62
     4
370
     9
100
AcDbCircle
 10
1556.094607791385
 20
941.0945088154563
 30
0.0
 40
19.00003600764919
  0
CIRCLE
  5
225
330
1F
100
AcDbEntity
  8
0-B
  6
Continuous
 62
     4
370
     9
100
AcDbCircle
 10
1556.122568491343
 20
941.1222220755915
 30
0.0
 40
10.10600006258166
  0
CIRCLE
  5
226
330
1F
100
AcDbEntity
  8
0-B
  6
Continuous
 62
     6
370
     5
100
AcDbCircle
 10
1556.122568491343
 20
941.1222220755915
 30
0.0
 40
24.00000224242339
  0
CIRCLE
  5
227
330
1F
100
AcDbEntity
  8
0-B
  6
Continuous
 62
     4
370
     9
100
AcDbCircle
 10
599.5528762404984
 20
-15.44709901551926
 30
0.0
 40
12.0000011212117
  0
CIRCLE
  5
228
330
1F
100
AcDbEntity
  8
0-B
  6
Continuous
 62
     4
370
     9
100
AcDbCircle
 10
599.5808369404563
 20
-15.4193857553841
 30
0.0
 40
19.00003600764919
  0
CIRCLE
  5
229
330
1F
100
AcDbEntity
  8
0-B
  6
Continuous
 62
     4
370
     9
100
AcDbCircle
 10
599.5528762404984
 20
-15.44709901551926
 30
0.0
 40
10.10600006258166
  0
CIRCLE
  5
22A
330
1F
100
AcDbEntity
  8
0-B
  6
Continuous
 62
     6
370
     5
100
AcDbCircle
 10
599.5528762404984
 20
-15.44709901551926
 30
0.0
 40
24.00000224242339
  0
CIRCLE
  5
22B
330
1F
100
AcDbEntity
  8
0-B
  6
Continuous
 62
     4
370
     9
100
AcDbCircle
 10
1556.122568491343
 20
-15.44709901551926
 30
0.0
 40
12.0000011212117
  0
CIRCLE
  5
22C
330
1F
100
AcDbEntity
  8
0-B
  6
Continuous
 62
     4
370
     9
100
AcDbCircle
 10
1556.094607791385
 20
-15.4193857553841
 30
0.0
 40
19.00003600764919
  0
CIRCLE
  5
22D
330
1F
100
AcDbEntity
  8
0-B
  6
Continuous
 62
     4
370
     9
100
AcDbCircle
 10
1556.122568491343
 20
-15.44709901551926
 30
0.0
 40
10.10600006258166
  0
CIRCLE
  5
22E
330
1F
100
AcDbEntity
  8
0-B
  6
Continuous
 62
     6
370
     5
100
AcDbCircle
 10
1556.122568491343
 20
-15.44709901551926
 30
0.0
 40
24.00000224242339
  0
TEXT
  5
22F
330
1F
100
AcDbEntity
  8
1-4
  6
Continuous
 62
     2
370
     9
100
AcDbText
 10
316.21618322424
 20
-1017.197837837838
 30
0.0
 40
30.48
  1
※この図面は、ＭＷＡ－４５０角枠にセットしたＭＳＶ－２を示します。
 41
1.121212121212121
  7
ＭＳ ゴシック
100
AcDbText
  0
TEXT
  5
230
330
1F
100
AcDbEntity
  8
1-4
  6
Continuous
 62
     7
370
     9
100
AcDbText
 10
-1448.059488244959
 20
878.0184026604732
 30
0.0
 40
22.86
  1
ボルト：ＳＳ４００
 41
1.148148148148148
  7
ＭＳ ゴシック
100
AcDbText
  0
TEXT
  5
231
330
1F
100
AcDbEntity
  8
1-4
  6
Continuous
 62
     7
370
     9
100
AcDbText
 10
-1035.03804387273
 20
997.8312391786318
 30
0.0
 40
22.86
  1
養生材：ポリエチレン
 41
1.15
  7
ＭＳ ゴシック
100
AcDbText
  0
TEXT
  5
232
330
1F
100
AcDbEntity
  8
1-4
  6
Continuous
 62
     7
370
     9
100
AcDbText
 10
-879.3690696922508
 20
1219.980732421875
 30
0.0
 40
22.86
  1
スリーブ：ボイド管
 41
1.148148148148148
  7
ＭＳ ゴシック
100
AcDbText
  0
TEXT
  5
233
330
1F
100
AcDbEntity
  8
1-4
  6
Continuous
 62
     7
370
     9
100
AcDbText
 10
-1414.561386108398
 20
830.7222600823482
 30
0.0
 40
22.86
  1
電気亜鉛めっき
 41
1.142857142857143
  7
ＭＳ ゴシック
100
AcDbText
  0
TEXT
  5
234
330
1F
100
AcDbEntity
  8
1-4
  6
Continuous
 62
     6
370
     5
100
AcDbText
 10
-931.9422450709988
 20
388.2179546294341
 30
0.0
 40
22.86
  1
平座金・・
 41
0.8866666666666665
  7
ＭＳ ゴシック
100
AcDbText
  0
TEXT
  5
235
330
1F
100
AcDbEntity
  8
1-4
  6
Continuous
 62
     2
370
     9
100
AcDbText
 10
-949.8650710647169
 20
-412.5921166992188
 30
0.0
 40
30.48
  1
Ａ－Ａ'断面図　Ｓ＝１：２
 41
1.115
  7
ＭＳ ゴシック
100
AcDbText
  0
TEXT
  5
236
330
1F
100
AcDbEntity
  8
1-4
  6
Continuous
 62
     2
370
     9
100
AcDbText
 10
-244.9264567607158
 20
-299.2242215213259
 30
0.0
 40
30.48
  1
φ448
 41
1.1
  7
ＭＳ ゴシック
100
AcDbText
  0
TEXT
  5
237
330
1F
100
AcDbEntity
  8
1-4
  6
Continuous
 62
     6
370
     5
100
AcDbText
 10
-931.9422623917862
 20
350.0285872835727
 30
0.0
 40
22.86
  1
六角ナット：ＳＳ４００
 41
0.8939393939393939
  7
ＭＳ ゴシック
100
AcDbText
  0
TEXT
  5
238
330
1F
100
AcDbEntity
  8
1-4
  6
Continuous
 62
     6
370
     5
100
AcDbText
 10
-796.9422871357685
 20
388.2179546294341
 30
0.0
 40
22.86
  1
：ＳＳ４００
 41
0.8888888888888888
  7
ＭＳ ゴシック
100
AcDbText
  0
TEXT
  5
239
330
1F
100
AcDbEntity
  8
1-4
  6
Continuous
 62
     6
370
     5
100
AcDbText
 10
-931.9422302246094
 20
298.4605198875636
 30
0.0
 40
22.86
  1
電気亜鉛めっき
 41
0.8904761904761906
  7
ＭＳ ゴシック
100
AcDbText
  0
TEXT
  5
23A
330
1F
100
AcDbEntity
  8
0-4
  6
Continuous
 62
     3
370
     9
100
AcDbText
 10
404.3361562161639
 20
979.2513886616798
 30
0.0
 40
38.1
  1
Ａ
 50
314.9997995031669
  7
ＭＳ ゴシック
100
AcDbText
  0
TEXT
  5
23B
330
1F
100
AcDbEntity
  8
0-4
  6
Continuous
 62
     3
370
     9
100
AcDbText
 10
786.296130623436
 20
597.289929615472
 30
0.0
 40
38.1
  1
Ａ'
 50
314.9999373447533
 41
1.066666666666666
  7
ＭＳ ゴシック
100
AcDbText
  0
TEXT
  5
23C
330
1F
100
AcDbEntity
  8
0-4
  6
Continuous
 62
     2
370
     9
100
AcDbText
 10
877.8371037663641
 20
-309.0220961782094
 30
0.0
 40
30.48
  1
平面図　Ｓ＝１：５
 41
1.111111111111111
  7
ＭＳ ゴシック
100
AcDbText
  0
TEXT
  5
23D
330
1F
100
AcDbEntity
  8
1-4
  6
Continuous
 62
     2
370
     9
100
AcDbText
 10
-193.0170224081502
 20
437.6353660789697
 30
0.0
 40
30.48
  1
250
 50
90.0
 41
1.083333333333333
  7
ＭＳ ゴシック
100
AcDbText
  0
LWPOLYLINE
  5
23E
330
1F
100
AcDbEntity
  8
1-4
  6
Continuous
 62
     7
370
     9
100
AcDbPolyline
 90
        4
 70
     1
 43
2.0
 10
-495.3760375976562
 20
-314.8643782332136
 42
0.4142135623731
 10
-496.3760375976562
 20
-313.8643782332136
 42
0.4142135623731
 10
-497.3760375976562
 20
-314.8643782332136
 42
0.4142135623731
 10
-496.3760375976562
 20
-315.8643782332137
 42
0.4142135623731
  0
LWPOLYLINE
  5
23F
330
1F
100
AcDbEntity
  8
1-4
  6
Continuous
 62
     7
370
     9
100
AcDbPolyline
 90
        4
 70
     1
 43
2.0
 10
-176.3768656962625
 20
-154.8645926810599
 42
0.4142135623731
 10
-177.3768656962625
 20
-153.8645926810599
 42
0.4142135623731
 10
-178.3768656962625
 20
-154.8645926810599
 42
0.4142135623731
 10
-177.3768656962625
 20
-155.8645926810599
 42
0.4142135623731
  0
LWPOLYLINE
  5
240
330
1F
100
AcDbEntity
  8
1-4
  6
Continuous
 62
     7
370
     9
100
AcDbPolyline
 90
        4
 70
     1
 43
2.0
 10
-176.3768656962625
 20
1095.135695998733
 42
0.4142135623731
 10
-177.3768656962625
 20
1096.135695998733
 42
0.4142135623731
 10
-178.3768656962625
 20
1095.135695998733
 42
0.4142135623731
 10
-177.3768656962625
 20
1094.135695998733
 42
0.4142135623731
  0
LWPOLYLINE
  5
241
330
1F
100
AcDbEntity
  8
1-4
  6
Continuous
 62
     7
370
     9
100
AcDbPolyline
 90
        4
 70
     1
 43
2.0
 10
-1416.36499683277
 20
-154.8645926810599
 42
0.4142135623731
 10
-1417.36499683277
 20
-153.8645926810599
 42
0.4142135623731
 10
-1418.36499683277
 20
-154.8645926810599
 42
0.4142135623731
 10
-1417.36499683277
 20
-155.8645926810599
 42
0.4142135623731
  0
LWPOLYLINE
  5
242
330
1F
100
AcDbEntity
  8
1-4
  6
Continuous
 62
     7
370
     9
100
AcDbPolyline
 90
        4
 70
     1
 43
2.0
 10
-1416.36499683277
 20
645.1356959987334
 42
0.4142135623731
 10
-1417.36499683277
 20
646.1356959987334
 42
0.4142135623731
 10
-1418.36499683277
 20
645.1356959987334
 42
0.4142135623731
 10
-1417.36499683277
 20
644.1356959987334
 42
0.4142135623731
  0
LWPOLYLINE
  5
243
330
1F
100
AcDbEntity
  8
1-4
  6
Continuous
 62
     7
370
     9
100
AcDbPolyline
 90
        4
 70
     1
 43
2.0
 10
-1516.365141172667
 20
-154.8645926810599
 42
0.4142135623731
 10
-1517.365141172667
 20
-153.8645926810599
 42
0.4142135623731
 10
-1518.365141172667
 20
-154.8645926810599
 42
0.4142135623731
 10
-1517.365141172667
 20
-155.8645926810599
 42
0.4142135623731
  0
LWPOLYLINE
  5
244
330
1F
100
AcDbEntity
  8
1-4
  6
Continuous
 62
     7
370
     9
100
AcDbPolyline
 90
        4
 70
     1
 43
2.0
 10
-1516.365141172667
 20
745.1355310388516
 42
0.4142135623731
 10
-1517.365141172667
 20
746.1355310388515
 42
0.4142135623731
 10
-1518.365141172667
 20
745.1355310388516
 42
0.4142135623731
 10
-1517.365141172667
 20
744.1355310388517
 42
0.4142135623731
  0
TEXT
  5
245
330
1F
100
AcDbEntity
  8
1-4
  6
Continuous
 62
     2
370
     9
100
AcDbText
 10
-1533.005112304688
 20
262.6356547587628
 30
0.0
 40
30.48
  1
200
 50
90.0
 41
1.083333333333333
  7
ＭＳ ゴシック
100
AcDbText
  0
TEXT
  5
246
330
1F
100
AcDbEntity
  8
1-4
  6
Continuous
 62
     2
370
     9
100
AcDbText
 10
-1433.004967964791
 20
212.6353660789697
 30
0.0
 40
30.48
  1
180
 50
90.0
 41
1.083333333333333
  7
ＭＳ ゴシック
100
AcDbText
  0
TEXT
  5
247
330
1F
100
AcDbEntity
  8
1-5
  6
Continuous
 62
     6
370
     5
100
AcDbText
 10
-845.2045757833284
 20
-1357.755793055582
 30
0.0
 40
30.48
  1
打込型マンホール鉄蓋　サポートＶ　　ＭＳＶ－２－４５０　Ｃ＝２００
 41
0.9234848484848484
  7
ＭＳ ゴシック
100
AcDbText
  0
LINE
  5
248
330
1F
100
AcDbEntity
  8
1-4
  6
Continuous
 62
     2
370
     9
100
AcDbLine
 10
-1417.365182412637
 20
-1096.151257076779
 30
0.0
 11
-1417.365182412637
 21
-1031.151784948401
 31
0.0
  0
LINE
  5
249
330
1F
100
AcDbEntity
  8
1-9
  6
JWW_CENTER1
 62
     2
370
     9
100
AcDbLine
 10
-1067.365141172667
 20
-597.2246097873996
 30
0.0
 11
-1067.365141172667
 21
-855.078927117425
 31
0.0
  0
LINE
  5
24A
330
1F
100
AcDbEntity
  8
1-9
  6
JWW_CENTER1
 62
     2
370
     9
100
AcDbLine
 10
-1196.292423557591
 20
-726.1517684524122
 30
0.0
 11
-938.4378587877427
 21
-726.1517684524122
 31
0.0
  0
LINE
  5
24B
330
1F
100
AcDbEntity
  8
1-4
  6
Continuous
 62
     2
370
     9
100
AcDbLine
 10
-1417.365182412637
 20
-1031.151784948401
 30
0.0
 11
-717.3649762127849
 21
-1031.151784948401
 31
0.0
  0
LINE
  5
24C
330
1F
100
AcDbEntity
  8
1-4
  6
Continuous
 62
     2
370
     9
100
AcDbLine
 10
-717.3649762127849
 20
-1096.151257076779
 30
0.0
 11
-717.3649762127849
 21
-1031.151784948401
 31
0.0
  0
LINE
  5
24D
330
1F
100
AcDbEntity
  8
1-4
  6
Continuous
 62
     2
370
     9
100
AcDbLine
 10
-717.3649762127849
 20
-1096.151257076779
 30
0.0
 11
-1417.365182412637
 21
-1096.151257076779
 31
0.0
  0
LINE
  5
24E
330
1F
100
AcDbEntity
  8
1-4
  6
Continuous
 62
     7
370
     9
100
AcDbLine
 10
-1172.365116428685
 20
-931.1518261883708
 30
0.0
 11
-962.365165916649
 21
-931.1518261883708
 31
0.0
  0
LINE
  5
24F
330
1F
100
AcDbEntity
  8
1-4
  6
Continuous
 62
     7
370
     9
100
AcDbLine
 10
-1172.365116428685
 20
-751.1517272124418
 30
0.0
 11
-1172.365116428685
 21
-934.1517865979993
 31
0.0
  0
LINE
  5
250
330
1F
100
AcDbEntity
  8
1-4
  6
Continuous
 62
     7
370
     9
100
AcDbLine
 10
-962.365165916649
 20
-751.1517272124418
 30
0.0
 11
-962.365165916649
 21
-934.1517865979993
 31
0.0
  0
LINE
  5
251
330
1F
100
AcDbEntity
  8
1-4
  6
Continuous
 62
     7
370
     9
100
AcDbLine
 10
-862.3652071566194
 20
-811.1518014443886
 30
0.0
 11
-862.3652071566194
 21
-641.1517354604359
 31
0.0
  0
LINE
  5
252
330
1F
100
AcDbEntity
  8
1-4
  6
Continuous
 62
     7
370
     9
100
AcDbLine
 10
-1042.365058692726
 20
-811.1518014443886
 30
0.0
 11
-859.365246746991
 21
-811.1518014443886
 31
0.0
  0
LINE
  5
253
330
1F
100
AcDbEntity
  8
1-4
  6
Continuous
 62
     7
370
     9
100
AcDbLine
 10
-1042.365058692726
 20
-641.1517354604359
 30
0.0
 11
-859.365246746991
 21
-641.1517354604359
 31
0.0
  0
LINE
  5
254
330
1F
100
AcDbEntity
  8
1-4
  6
Continuous
 62
     7
370
     9
100
AcDbLine
 10
-1062.365124676679
 20
-632.4914653881176
 30
0.0
 11
-1052.798111374314
 21
-609.3945663039747
 31
0.0
  0
LINE
  5
255
330
1F
100
AcDbEntity
  8
1-4
  6
Continuous
 62
     7
370
     9
100
AcDbLine
 10
-1062.365124676679
 20
-632.4914653881176
 30
0.0
 11
-1047.146090945682
 21
-612.6575552450643
 31
0.0
  0
LINE
  5
256
330
1F
100
AcDbEntity
  8
1-4
  6
Continuous
 62
     7
370
     9
100
AcDbLine
 10
-1062.365124676679
 20
-632.4914653881176
 30
0.0
 11
-1024.063914530986
 21
-566.1517354604359
 31
0.0
  0
LINE
  5
257
330
1F
100
AcDbEntity
  8
1-4
  6
Continuous
 62
     7
370
     9
100
AcDbLine
 10
-1024.063914530986
 20
-566.1517354604359
 30
0.0
 11
-866.9500196302259
 21
-566.1517354604359
 31
0.0
  0
TEXT
  5
258
330
1F
100
AcDbEntity
  8
1-4
  6
Continuous
 62
     7
370
     0
100
AcDbText
 10
-1011.978112298089
 20
-553.973844637484
 30
0.0
 40
22.86
  1
４－φ４
 41
1.125
  7
ＭＳ ゴシック
100
AcDbText
  0
TEXT
  5
259
330
1F
100
AcDbEntity
  8
1-4
  6
Continuous
 62
     2
370
     0
100
AcDbText
 10
-878.0052401485958
 20
-747.4017684524122
 30
0.0
 40
30.48
  1
34
 50
90.0
 41
1.0625
  7
ＭＳ ゴシック
100
AcDbText
  0
TEXT
  5
25A
330
1F
100
AcDbEntity
  8
1-4
  6
Continuous
 62
     2
370
     0
100
AcDbText
 10
-1111.1152339626
 20
-915.5117931963945
 30
0.0
 40
30.48
  1
φ42
 41
1.09375
  7
ＭＳ ゴシック
100
AcDbText
  0
TEXT
  5
25B
330
1F
100
AcDbEntity
  8
1-4
  6
Continuous
 62
     2
370
     0
100
AcDbText
 10
-1402.365017452755
 20
-1078.011586996542
 30
0.0
 40
30.48
  1
固定プレート平面図　Ｓ＝１：２
 41
1.116666666666666
  7
ＭＳ ゴシック
100
AcDbText
  0
LWPOLYLINE
  5
25C
330
1F
100
AcDbEntity
  8
1-4
  6
Continuous
 62
     7
370
     9
100
AcDbPolyline
 90
        4
 70
     1
 43
2.0
 10
-1171.365116428685
 20
-931.1518261883708
 42
0.4142135623731
 10
-1172.365116428685
 20
-930.1518261883709
 42
0.4142135623731
 10
-1173.365116428684
 20
-931.1518261883708
 42
0.4142135623731
 10
-1172.365116428685
 20
-932.1518261883707
 42
0.4142135623731
  0
LWPOLYLINE
  5
25D
330
1F
100
AcDbEntity
  8
1-4
  6
Continuous
 62
     7
370
     9
100
AcDbPolyline
 90
        4
 70
     1
 43
2.0
 10
-961.365165916649
 20
-931.1518261883708
 42
0.4142135623731
 10
-962.365165916649
 20
-930.1518261883709
 42
0.4142135623731
 10
-963.365165916649
 20
-931.1518261883708
 42
0.4142135623731
 10
-962.365165916649
 20
-932.1518261883707
 42
0.4142135623731
  0
LWPOLYLINE
  5
25E
330
1F
100
AcDbEntity
  8
1-4
  6
Continuous
 62
     7
370
     9
100
AcDbPolyline
 90
        4
 70
     1
 43
2.0
 10
-861.3652071566195
 20
-811.1518014443886
 42
0.4142135623731
 10
-862.3652071566194
 20
-810.1518014443888
 42
0.4142135623731
 10
-863.3652071566194
 20
-811.1518014443886
 42
0.4142135623731
 10
-862.3652071566194
 20
-812.1518014443886
 42
0.4142135623731
  0
LWPOLYLINE
  5
25F
330
1F
100
AcDbEntity
  8
1-4
  6
Continuous
 62
     7
370
     9
100
AcDbPolyline
 90
        4
 70
     1
 43
2.0
 10
-861.3652071566195
 20
-641.1517354604359
 42
0.4142135623731
 10
-862.3652071566194
 20
-640.1517354604359
 42
0.4142135623731
 10
-863.3652071566194
 20
-641.1517354604359
 42
0.4142135623731
 10
-862.3652071566194
 20
-642.1517354604359
 42
0.4142135623731
  0
CIRCLE
  5
260
330
1F
100
AcDbEntity
  8
1-A
  6
Continuous
 62
     2
370
     9
100
AcDbCircle
 10
-1067.365141172667
 20
-726.1517684524122
 30
0.0
 40
30.0
  0
CIRCLE
  5
261
330
1F
100
AcDbEntity
  8
1-A
  6
Continuous
 62
     2
370
     9
100
AcDbCircle
 10
-1067.365141172667
 20
-726.1517684524122
 30
0.0
 40
21.25
  0
LINE
  5
262
330
1F
100
AcDbEntity
  8
1-A
  6
Continuous
 62
     2
370
     9
100
AcDbLine
 10
-1112.365266548036
 20
-693.1238920379133
 30
0.0
 11
-1112.3653432553
 21
-681.151566369779
 31
0.0
  0
LINE
  5
263
330
1F
100
AcDbEntity
  8
1-A
  6
Continuous
 62
     2
370
     9
100
AcDbLine
 10
-1112.3653432553
 20
-681.151566369779
 30
0.0
 11
-1100.39283551278
 21
-681.151649820539
 31
0.0
  0
ARC
  5
264
330
1F
100
AcDbEntity
  8
1-A
  6
Continuous
 62
     2
370
     9
100
AcDbCircle
 10
-1079.865166584016
 20
-713.6517430410631
 30
0.0
 40
35.0
100
AcDbArc
 50
121.0026092529297
 51
148.9973449707031
  0
LINE
  5
265
330
1F
100
AcDbEntity
  8
1-A
  6
Continuous
 62
     2
370
     9
100
AcDbLine
 10
-1100.393017587166
 20
-771.1518938277812
 30
0.0
 11
-1112.3653432553
 21
-771.1519705350454
 31
0.0
  0
LINE
  5
266
330
1F
100
AcDbEntity
  8
1-A
  6
Continuous
 62
     2
370
     9
100
AcDbLine
 10
-1112.3653432553
 20
-771.1519705350454
 30
0.0
 11
-1112.36525980454
 21
-759.1794627925256
 31
0.0
  0
ARC
  5
267
330
1F
100
AcDbEntity
  8
1-A
  6
Continuous
 62
     2
370
     9
100
AcDbCircle
 10
-1079.865166584016
 20
-738.6517938637612
 30
0.0
 40
35.0
100
AcDbArc
 50
211.0026092529297
 51
238.9973449707031
  0
LINE
  5
268
330
1F
100
AcDbEntity
  8
1-A
  6
Continuous
 62
     2
370
     9
100
AcDbLine
 10
-1022.365015797298
 20
-759.1796448669112
 30
0.0
 11
-1022.364939090034
 21
-771.1519705350454
 31
0.0
  0
LINE
  5
269
330
1F
100
AcDbEntity
  8
1-A
  6
Continuous
 62
     2
370
     9
100
AcDbLine
 10
-1022.364939090034
 20
-771.1519705350454
 30
0.0
 11
-1034.337446832553
 21
-771.1518870842855
 31
0.0
  0
ARC
  5
26A
330
1F
100
AcDbEntity
  8
1-A
  6
Continuous
 62
     2
370
     9
100
AcDbCircle
 10
-1054.865115761318
 20
-738.6517938637614
 30
0.0
 40
35.0
100
AcDbArc
 50
301.0026092529297
 51
328.9973449707031
  0
LINE
  5
26B
330
1F
100
AcDbEntity
  8
1-A
  6
Continuous
 62
     2
370
     9
100
AcDbLine
 10
-1034.337264758168
 20
-681.1516430770432
 30
0.0
 11
-1022.364939090033
 21
-681.151566369779
 31
0.0
  0
LINE
  5
26C
330
1F
100
AcDbEntity
  8
1-A
  6
Continuous
 62
     2
370
     9
100
AcDbLine
 10
-1022.364939090033
 20
-681.151566369779
 30
0.0
 11
-1022.365022540793
 21
-693.1240741122988
 31
0.0
  0
ARC
  5
26D
330
1F
100
AcDbEntity
  8
1-A
  6
Continuous
 62
     2
370
     9
100
AcDbCircle
 10
-1054.865115761318
 20
-713.6517430410631
 30
0.0
 40
35.0
100
AcDbArc
 50
31.00260925292969
 51
58.99734497070312
  0
LINE
  5
26E
330
1F
100
AcDbEntity
  8
1-A
  6
Continuous
 62
     2
370
     9
100
AcDbLine
 10
-1097.892892213779
 20
-683.6517684524122
 30
0.0
 11
-1100.39283551278
 21
-681.151649820539
 31
0.0
  0
LINE
  5
26F
330
1F
100
AcDbEntity
  8
1-A
  6
Continuous
 62
     2
370
     9
100
AcDbLine
 10
-1109.865141172667
 20
-695.6240174132822
 30
0.0
 11
-1112.365266548036
 21
-693.1238920379133
 31
0.0
  0
LINE
  5
270
330
1F
100
AcDbEntity
  8
1-A
  6
Continuous
 62
     2
370
     9
100
AcDbLine
 10
-1036.837390133537
 20
-683.6517684524122
 30
0.0
 11
-1034.337264758168
 21
-681.1516430770432
 31
0.0
  0
LINE
  5
271
330
1F
100
AcDbEntity
  8
1-A
  6
Continuous
 62
     2
370
     9
100
AcDbLine
 10
-1036.837390133537
 20
-683.6517684524122
 30
0.0
 11
-1097.892892213779
 21
-683.6517684524122
 31
0.0
  0
LINE
  5
272
330
1F
100
AcDbEntity
  8
1-A
  6
Continuous
 62
     2
370
     9
100
AcDbLine
 10
-1024.865141172667
 20
-695.6240174112997
 30
0.0
 11
-1022.365022540793
 21
-693.1240741122988
 31
0.0
  0
LINE
  5
273
330
1F
100
AcDbEntity
  8
1-A
  6
Continuous
 62
     2
370
     9
100
AcDbLine
 10
-1024.865141172667
 20
-756.6795194915424
 30
0.0
 11
-1022.365015797298
 21
-759.1796448669112
 31
0.0
  0
LINE
  5
274
330
1F
100
AcDbEntity
  8
1-A
  6
Continuous
 62
     2
370
     9
100
AcDbLine
 10
-1024.865141172667
 20
-756.6795194915424
 30
0.0
 11
-1024.865141172667
 21
-695.6240174112997
 31
0.0
  0
LINE
  5
275
330
1F
100
AcDbEntity
  8
1-A
  6
Continuous
 62
     2
370
     9
100
AcDbLine
 10
-1036.837390131554
 20
-768.6517684524122
 30
0.0
 11
-1034.337446832553
 21
-771.1518870842855
 31
0.0
  0
LINE
  5
276
330
1F
100
AcDbEntity
  8
1-A
  6
Continuous
 62
     2
370
     9
100
AcDbLine
 10
-1097.892892211797
 20
-768.6517684524122
 30
0.0
 11
-1100.393017587166
 21
-771.1518938277812
 31
0.0
  0
LINE
  5
277
330
1F
100
AcDbEntity
  8
1-A
  6
Continuous
 62
     2
370
     9
100
AcDbLine
 10
-1097.892892211797
 20
-768.6517684524122
 30
0.0
 11
-1036.837390131554
 21
-768.6517684524122
 31
0.0
  0
LINE
  5
278
330
1F
100
AcDbEntity
  8
1-A
  6
Continuous
 62
     2
370
     9
100
AcDbLine
 10
-1109.865141172667
 20
-756.6795194935248
 30
0.0
 11
-1112.36525980454
 21
-759.1794627925256
 31
0.0
  0
LINE
  5
279
330
1F
100
AcDbEntity
  8
1-A
  6
Continuous
 62
     2
370
     9
100
AcDbLine
 10
-1109.865141172667
 20
-695.6240174132822
 30
0.0
 11
-1109.865141172667
 21
-756.6795194935248
 31
0.0
  0
CIRCLE
  5
27A
330
1F
100
AcDbEntity
  8
1-0
  6
Continuous
 62
     4
370
     9
100
AcDbCircle
 10
-1067.365141172667
 20
-726.1517684524122
 30
0.0
 40
105.0
  0
CIRCLE
  5
27B
330
1F
100
AcDbEntity
  8
1-0
  6
Continuous
 62
     4
370
     9
100
AcDbCircle
 10
-982.3651411726668
 20
-726.1517684524122
 30
0.0
 40
10.0
  0
LINE
  5
27C
330
1F
100
AcDbEntity
  8
1-0
  6
JWW_CENTER1
 62
     4
370
     9
100
AcDbLine
 10
-982.3651411726668
 20
-710.4413520924775
 30
0.0
 11
-982.3651411726668
 21
-742.1456038219096
 31
0.0
  0
CIRCLE
  5
27D
330
1F
100
AcDbEntity
  8
1-0
  6
Continuous
 62
     4
370
     9
100
AcDbCircle
 10
-1067.365141172667
 20
-641.1517684524122
 30
0.0
 40
10.0
  0
LINE
  5
27E
330
1F
100
AcDbEntity
  8
1-0
  6
JWW_CENTER1
 62
     4
370
     9
100
AcDbLine
 10
-1083.075557532602
 20
-641.1517684524122
 30
0.0
 11
-1051.371305803169
 21
-641.1517684524122
 31
0.0
  0
CIRCLE
  5
27F
330
1F
100
AcDbEntity
  8
1-0
  6
Continuous
 62
     4
370
     9
100
AcDbCircle
 10
-1152.365141172667
 20
-726.1517684524122
 30
0.0
 40
10.0
  0
LINE
  5
280
330
1F
100
AcDbEntity
  8
1-0
  6
JWW_CENTER1
 62
     4
370
     9
100
AcDbLine
 10
-1152.365141172667
 20
-741.8621848123471
 30
0.0
 11
-1152.365141172667
 21
-710.1579330829147
 31
0.0
  0
CIRCLE
  5
281
330
1F
100
AcDbEntity
  8
1-0
  6
Continuous
 62
     4
370
     9
100
AcDbCircle
 10
-1067.365141172667
 20
-811.1517684524122
 30
0.0
 40
10.0
  0
LINE
  5
282
330
1F
100
AcDbEntity
  8
1-0
  6
JWW_CENTER1
 62
     4
370
     9
100
AcDbLine
 10
-1051.654724812732
 20
-811.1517684524122
 30
0.0
 11
-1083.358976542164
 21
-811.1517684524122
 31
0.0
  0
LINE
  5
283
330
1F
100
AcDbEntity
  8
1-8
  6
Continuous
 62
     3
370
     9
100
AcDbLine
 10
-1164.865153544658
 20
-141.8647229993664
 30
0.0
 11
-1164.865153544658
 21
-146.864492055532
 31
0.0
  0
LINE
  5
284
330
1F
100
AcDbEntity
  8
1-8
  6
Continuous
 62
     3
370
     9
100
AcDbLine
 10
-1139.865071064717
 20
-141.8647229993664
 30
0.0
 11
-1164.865153544658
 21
-141.8647229993664
 31
0.0
  0
LINE
  5
285
330
1F
100
AcDbEntity
  8
1-8
  6
Continuous
 62
     3
370
     9
100
AcDbLine
 10
-1139.865071064717
 20
-141.8647229993664
 30
0.0
 11
-1139.865071064717
 21
-146.864492055532
 31
0.0
  0
LINE
  5
286
330
1F
100
AcDbEntity
  8
1-8
  6
Continuous
 62
     3
370
     9
100
AcDbLine
 10
-969.8651288006755
 20
-141.8647229993664
 30
0.0
 11
-969.8651288006755
 21
-146.864492055532
 31
0.0
  0
LINE
  5
287
330
1F
100
AcDbEntity
  8
1-8
  6
Continuous
 62
     3
370
     9
100
AcDbLine
 10
-994.8652112806164
 20
-141.8647229993664
 30
0.0
 11
-969.8651288006755
 21
-141.8647229993664
 31
0.0
  0
LINE
  5
288
330
1F
100
AcDbEntity
  8
1-8
  6
Continuous
 62
     3
370
     9
100
AcDbLine
 10
-994.8652112806164
 20
-141.8647229993664
 30
0.0
 11
-994.8652112806164
 21
-146.864492055532
 31
0.0
  0
LINE
  5
289
330
1F
100
AcDbEntity
  8
1-8
  6
JWW_DASHED1
 62
     3
370
     9
100
AcDbLine
 10
-987.3649390968114
 20
-271.8649044552365
 30
0.0
 11
-987.3649390968114
 21
-146.864492055532
 31
0.0
  0
LINE
  5
28A
330
1F
100
AcDbEntity
  8
1-8
  6
JWW_DASHED1
 62
     3
370
     9
100
AcDbLine
 10
-977.3650298247464
 20
-271.8649044552365
 30
0.0
 11
-977.3650298247464
 21
-146.864492055532
 31
0.0
  0
LINE
  5
28B
330
1F
100
AcDbEntity
  8
1-8
  6
JWW_DASHED1
 62
     3
370
     9
100
AcDbLine
 10
-977.3650298247464
 20
-271.8649044552365
 30
0.0
 11
-982.3650463207346
 21
-296.8647394953547
 31
0.0
  0
LINE
  5
28C
330
1F
100
AcDbEntity
  8
1-8
  6
JWW_DASHED1
 62
     3
370
     9
100
AcDbLine
 10
-987.3649390968114
 20
-271.8649044552365
 30
0.0
 11
-982.3650463207346
 21
-296.8647394953547
 31
0.0
  0
LINE
  5
28D
330
1F
100
AcDbEntity
  8
1-8
  6
JWW_DASHED1
 62
     3
370
     9
100
AcDbLine
 10
-1147.365219528611
 20
-271.8649044552365
 30
0.0
 11
-1147.365219528611
 21
-146.864492055532
 31
0.0
  0
LINE
  5
28E
330
1F
100
AcDbEntity
  8
1-8
  6
JWW_DASHED1
 62
     3
370
     9
100
AcDbLine
 10
-1157.365128800675
 20
-271.8649044552365
 30
0.0
 11
-1157.365128800675
 21
-146.864492055532
 31
0.0
  0
LINE
  5
28F
330
1F
100
AcDbEntity
  8
1-8
  6
JWW_DASHED1
 62
     3
370
     9
100
AcDbLine
 10
-1157.365128800675
 20
-271.8649044552365
 30
0.0
 11
-1152.365112304687
 21
-296.8647394953547
 31
0.0
  0
LINE
  5
290
330
1F
100
AcDbEntity
  8
1-8
  6
JWW_DASHED1
 62
     3
370
     9
100
AcDbLine
 10
-1147.365219528611
 20
-271.8649044552365
 30
0.0
 11
-1152.365112304687
 21
-296.8647394953547
 31
0.0
  0
LINE
  5
291
330
1F
100
AcDbEntity
  8
1-A
  6
Continuous
 62
     2
370
     9
100
AcDbLine
 10
-1104.613818010605
 20
-135.5357738061559
 30
0.0
 11
-1112.365220251134
 21
-141.8646153852572
 31
0.0
  0
LINE
  5
292
330
1F
100
AcDbEntity
  8
1-A
  6
Continuous
 62
     2
370
     9
100
AcDbLine
 10
-1104.613818010605
 20
-135.5357738061559
 30
0.0
 11
-1097.892832037715
 21
-135.5357738061559
 31
0.0
  0
LINE
  5
293
330
1F
100
AcDbEntity
  8
1-A
  6
Continuous
 62
     2
370
     9
100
AcDbLine
 10
-1097.892832037715
 20
-135.5357738061559
 30
0.0
 11
-1097.892832037715
 21
-146.8646713549944
 31
0.0
  0
LINE
  5
294
330
1F
100
AcDbEntity
  8
1-A
  6
Continuous
 62
     2
370
     9
100
AcDbLine
 10
-1112.365220251134
 20
-141.8646153852572
 30
0.0
 11
-1112.365216879386
 21
-146.864624150524
 31
0.0
  0
LINE
  5
295
330
1F
100
AcDbEntity
  8
1-A
  6
Continuous
 62
     2
370
     9
100
AcDbLine
 10
-1109.865079312711
 20
-106.8646700146
 30
0.0
 11
-1109.865079312711
 21
-139.8233221289509
 31
0.0
  0
LINE
  5
296
330
1F
100
AcDbEntity
  8
1-A
  6
Continuous
 62
     2
370
     9
100
AcDbLine
 10
-1030.116305211464
 20
-135.5357316593074
 30
0.0
 11
-1022.36489622744
 21
-141.8646541603579
 31
0.0
  0
LINE
  5
297
330
1F
100
AcDbEntity
  8
1-A
  6
Continuous
 62
     2
370
     9
100
AcDbLine
 10
-1030.116305211464
 20
-135.5357316593074
 30
0.0
 11
-1036.837282754985
 21
-135.5357266016856
 31
0.0
  0
LINE
  5
298
330
1F
100
AcDbEntity
  8
1-A
  6
Continuous
 62
     2
370
     9
100
AcDbLine
 10
-1036.837282754985
 20
-135.5357266016856
 30
0.0
 11
-1036.837282754985
 21
-146.864624150524
 31
0.0
  0
LINE
  5
299
330
1F
100
AcDbEntity
  8
1-A
  6
Continuous
 62
     2
370
     9
100
AcDbLine
 10
-1022.36489622744
 20
-141.8646541603579
 30
0.0
 11
-1022.364897913314
 21
-146.8646713549944
 31
0.0
  0
LINE
  5
29A
330
1F
100
AcDbEntity
  8
1-A
  6
Continuous
 62
     2
370
     9
100
AcDbLine
 10
-1024.865079312711
 20
-106.864754308297
 30
0.0
 11
-1024.865033794114
 21
-139.8232766103544
 31
0.0
  0
LINE
  5
29B
330
1F
100
AcDbEntity
  8
1-A
  6
Continuous
 62
     2
370
     9
100
AcDbLine
 10
-1109.865079312711
 20
-106.8646700146
 30
0.0
 11
-1024.865079312711
 21
-106.864754308297
 31
0.0
  0
LINE
  5
29C
330
1F
100
AcDbEntity
  8
1-0
  6
Continuous
 62
     4
370
     9
100
AcDbLine
 10
-1172.365082975929
 20
-154.8645926810599
 30
0.0
 11
-962.365082975936
 21
-154.8647028244338
 31
0.0
  0
LINE
  5
29D
330
1F
100
AcDbEntity
  8
1-0
  6
Continuous
 62
     4
370
     9
100
AcDbLine
 10
-1172.365082411407
 20
-146.8645926810592
 30
0.0
 11
-1172.365082975929
 21
-154.8645926810599
 31
0.0
  0
LINE
  5
29E
330
1F
100
AcDbEntity
  8
1-0
  6
Continuous
 62
     4
370
     9
100
AcDbLine
 10
-1172.365082411407
 20
-146.8645926810592
 30
0.0
 11
-962.365082411414
 21
-146.864702824433
 31
0.0
  0
LINE
  5
29F
330
1F
100
AcDbEntity
  8
1-0
  6
Continuous
 62
     4
370
     9
100
AcDbLine
 10
-962.365082411414
 20
-146.864702824433
 30
0.0
 11
-962.365082975936
 21
-154.8647028244338
 31
0.0
  0
LINE
  5
2A0
330
1F
100
AcDbEntity
  8
1-0
  6
JWW_CENTER1
 62
     4
370
     9
100
AcDbLine
 10
-1152.365079312711
 20
-161.0534079919013
 30
0.0
 11
-1152.365079312711
 21
-138.2049813503374
 31
0.0
  0
LINE
  5
2A1
330
1F
100
AcDbEntity
  8
1-0
  6
Continuous
 62
     4
370
     9
100
AcDbLine
 10
-1142.365079312711
 20
-154.8646084158295
 30
0.0
 11
-1142.365079312711
 21
-146.8646084158286
 31
0.0
  0
LINE
  5
2A2
330
1F
100
AcDbEntity
  8
1-0
  6
Continuous
 62
     4
370
     9
100
AcDbLine
 10
-1162.365079312711
 20
-154.8645979259845
 30
0.0
 11
-1162.365079312711
 21
-146.8645979259833
 31
0.0
  0
LINE
  5
2A3
330
1F
100
AcDbEntity
  8
1-0
  6
JWW_CENTER1
 62
     4
370
     9
100
AcDbLine
 10
-982.3650860165084
 20
-161.0534199879942
 30
0.0
 11
-982.3650860165084
 21
-138.2049933464302
 31
0.0
  0
LINE
  5
2A4
330
1F
100
AcDbEntity
  8
1-0
  6
Continuous
 62
     4
370
     9
100
AcDbLine
 10
-992.3650860165084
 20
-154.8646204119224
 30
0.0
 11
-992.3650860165084
 21
-146.8646204119213
 31
0.0
  0
LINE
  5
2A5
330
1F
100
AcDbEntity
  8
1-0
  6
Continuous
 62
     4
370
     9
100
AcDbLine
 10
-972.3650860165084
 20
-154.8646099220772
 30
0.0
 11
-972.3650860165084
 21
-146.8646099220763
 31
0.0
  0
LINE
  5
2A6
330
1F
100
AcDbEntity
  8
1-0
  6
Continuous
 62
     4
370
     9
100
AcDbLine
 10
-1034.865082411412
 20
-146.8646647987444
 30
0.0
 11
-1034.865082975934
 21
-154.8646647987452
 31
0.0
  0
LINE
  5
2A7
330
1F
100
AcDbEntity
  8
1-0
  6
Continuous
 62
     4
370
     9
100
AcDbLine
 10
-1099.865082411409
 20
-146.8646307067478
 30
0.0
 11
-1099.865082975931
 21
-154.8646307067486
 31
0.0
  0
LINE
  5
2A8
330
1F
100
AcDbEntity
  8
1-4
  6
Continuous
 62
     7
370
     9
100
AcDbLine
 10
-1033.365115603885
 20
-106.8647419122632
 30
0.0
 11
-1023.797854861697
 21
-83.76784282812054
 31
0.0
  0
LINE
  5
2A9
330
1F
100
AcDbEntity
  8
1-4
  6
Continuous
 62
     7
370
     9
100
AcDbLine
 10
-1033.365115603885
 20
-106.8647419122632
 30
0.0
 11
-1018.146081872888
 21
-87.03095548912131
 31
0.0
  0
LINE
  5
2AA
330
1F
100
AcDbEntity
  8
1-4
  6
Continuous
 62
     7
370
     9
100
AcDbLine
 10
-1033.365115603885
 20
-106.8647419122632
 30
0.0
 11
-975.629981788429
 21
-6.864783152233542
 31
0.0
  0
TEXT
  5
2AB
330
1F
100
AcDbEntity
  8
1-4
  6
Continuous
 62
     6
370
     0
100
AcDbText
 10
-965.4983141100083
 20
8.149262917762012
 30
0.0
 40
22.86
  1
固定プレート：ＳＧＨＣ他
 41
0.8944444444444445
  7
ＭＳ ゴシック
100
AcDbText
  0
LINE
  5
2AC
330
1F
100
AcDbEntity
  8
1-4
  6
Continuous
 62
     7
370
     9
100
AcDbLine
 10
-975.629981788429
 20
-6.864783152233542
 30
0.0
 11
-642.1486410775856
 21
-6.864783152233542
 31
0.0
  0
LINE
  5
2AD
330
1F
100
AcDbEntity
  8
1-8
  6
Continuous
 62
     3
370
     9
100
AcDbLine
 10
-1037.364980336782
 20
407.6257571658573
 30
0.0
 11
-1037.364980336782
 21
-106.8647419122632
 31
0.0
  0
LINE
  5
2AE
330
1F
100
AcDbEntity
  8
1-8
  6
Continuous
 62
     3
370
     9
100
AcDbLine
 10
-1042.36499683277
 20
407.6257571658573
 30
0.0
 11
-1042.36499683277
 21
-106.8647369537941
 31
0.0
  0
LINE
  5
2AF
330
1F
100
AcDbEntity
  8
1-8
  6
Continuous
 62
     3
370
     9
100
AcDbLine
 10
-1092.364914352829
 20
407.6257571658573
 30
0.0
 11
-1092.364914352829
 21
-106.8646873693483
 31
0.0
  0
LINE
  5
2B0
330
1F
100
AcDbEntity
  8
1-8
  6
Continuous
 62
     3
370
     9
100
AcDbLine
 10
-1097.364930848817
 20
407.6257571658573
 30
0.0
 11
-1097.364930848817
 21
-106.8646824108792
 31
0.0
  0
ENDSEC
  0
SECTION
  2
OBJECTS
  0
DICTIONARY
  5
C
330
0
100
AcDbDictionary
281
     1
  3
ACAD_DETAILVIEWSTYLE
350
2B8
  3
ACAD_GROUP
350
D
  3
ACAD_LAYOUT
350
1A
  3
ACAD_MATERIAL
350
43
  3
ACAD_MLEADERSTYLE
350
6B
  3
ACAD_MLINESTYLE
350
17
  3
ACAD_PLOTSETTINGS
350
19
  3
ACAD_PLOTSTYLENAME
350
E
  3
ACAD_SCALELIST
350
47
  3
ACAD_SECTIONVIEWSTYLE
350
2B9
  3
ACAD_TABLESTYLE
350
69
  3
ACAD_VISUALSTYLE
350
2A
  3
ACDB_RECOMPOSE_DATA
350
2B5
  3
AcDbVariableDictionary
350
2B1
  0
SUN
  5
6D
330
29
100
AcDbSun
 90
        1
290
     0
 63
     7
421
 16777215
 40
1.0
291
     1
 91
  2455826
 92
 54000000
292
     0
 70
     2
 71
   256
280
     1
  0
DICTIONARY
  5
2B8
102
{ACAD_REACTORS
330
C
102
}
330
C
100
AcDbDictionary
281
     1
  0
DICTIONARY
  5
D
102
{ACAD_REACTORS
330
C
102
}
330
C
100
AcDbDictionary
281
     1
  0
DICTIONARY
  5
1A
102
{ACAD_REACTORS
330
C
102
}
330
C
100
AcDbDictionary
281
     1
  3
Layout1
350
1E
  3
Layout2
350
26
  3
Model
350
22
  0
DICTIONARY
  5
43
102
{ACAD_REACTORS
330
C
102
}
330
C
100
AcDbDictionary
281
     1
  3
ByBlock
350
45
  3
ByLayer
350
44
  3
Global
350
46
  0
DICTIONARY
  5
6B
102
{ACAD_REACTORS
330
C
102
}
330
C
100
AcDbDictionary
281
     1
  3
Standard
350
6C
  0
DICTIONARY
  5
17
102
{ACAD_REACTORS
330
C
102
}
330
C
100
AcDbDictionary
281
     1
  3
Standard
350
18
  0
DICTIONARY
  5
19
102
{ACAD_REACTORS
330
C
102
}
330
C
100
AcDbDictionary
281
     1
  0
ACDBDICTIONARYWDFLT
  5
E
102
{ACAD_REACTORS
330
C
102
}
330
C
100
AcDbDictionary
281
     1
  3
Normal
350
F
100
AcDbDictionaryWithDefault
340
F
  0
DICTIONARY
  5
47
102
{ACAD_REACTORS
330
C
102
}
330
C
100
AcDbDictionary
281
     1
  3
A0
350
48
  3
A1
350
49
  3
A2
350
4A
  3
A3
350
4B
  3
A4
350
4C
  3
A5
350
4D
  3
A6
350
4E
  3
A7
350
4F
  3
A8
350
50
  3
A9
350
51
  3
B0
350
52
  3
B1
350
53
  3
B2
350
54
  3
B3
350
55
  3
B4
350
56
  3
B5
350
57
  3
B6
350
58
  3
B7
350
59
  3
B8
350
5A
  3
B9
350
5B
  3
C0
350
5C
  3
C1
350
5D
  3
C2
350
5E
  3
C3
350
5F
  3
C4
350
60
  3
C5
350
61
  3
C6
350
62
  3
C7
350
63
  3
C8
350
64
  3
C9
350
65
  3
D0
350
66
  3
D1
350
67
  3
D2
350
68
  0
DICTIONARY
  5
2B9
102
{ACAD_REACTORS
330
C
102
}
330
C
100
AcDbDictionary
281
     1
  0
DICTIONARY
  5
69
102
{ACAD_REACTORS
330
C
102
}
330
C
100
AcDbDictionary
281
     1
  3
Standard
350
6A
  0
DICTIONARY
  5
2A
102
{ACAD_REACTORS
330
C
102
}
330
C
100
AcDbDictionary
281
     1
  3
2dWireframe
350
2F
  3
Basic
350
32
  3
Brighten
350
36
  3
ColorChange
350
3A
  3
Conceptual
350
34
  3
Dim
350
35
  3
EdgeColorOff
350
3D
  3
Facepattern
350
39
  3
Flat
350
2B
  3
FlatWithEdges
350
2C
  3
Gouraud
350
2D
  3
GouraudWithEdges
350
2E
  3
Hidden
350
31
  3
JitterOff
350
3B
  3
Linepattern
350
38
  3
OverhangOff
350
3C
  3
Realistic
350
33
  3
Shaded
350
42
  3
Shaded with edges
350
41
  3
Shades of Gray
350
3E
  3
Sketchy
350
3F
  3
Thicken
350
37
  3
Wireframe
350
30
  3
X-Ray
350
40
  0
XRECORD
  5
2B5
102
{ACAD_REACTORS
330
C
102
}
330
C
100
AcDbXrecord
280
     1
 90
        1
330
6A
  0
DICTIONARY
  5
2B1
102
{ACAD_REACTORS
330
C
102
}
330
C
100
AcDbDictionary
281
     1
  3
CANNOSCALE
350
2B2
  3
CENTEREXE
350
2BA
  3
CENTERLTYPEFILE
350
2BB
  3
CMLEADERSTYLE
350
2B7
  3
CTABLESTYLE
350
2B6
  0
LAYOUT
  5
1E
102
{ACAD_REACTORS
330
1A
102
}
330
1A
100
AcDbPlotSettings
  1

  2
none_device
  4

  6

 40
0.0
 41
0.0
 42
0.0
 43
0.0
 44
0.0
 45
0.0
 46
0.0
 47
0.0
 48
0.0
 49
0.0
140
0.0
141
0.0
142
1.0
143
1.0
 70
   688
 72
     1
 73
     0
 74
     5
  7

 75
    16
 76
     0
 77
     5
 78
   300
147
1.0
148
0.0
149
0.0
100
AcDbLayout
  1
Layout1
 70
     1
 71
     1
 10
0.0
 20
0.0
 11
420.0
 21
297.0
 12
0.0
 22
0.0
 32
0.0
 14
1.000000000000000E+20
 24
1.000000000000000E+20
 34
1.000000000000000E+20
 15
-1.000000000000000E+20
 25
-1.000000000000000E+20
 35
-1.000000000000000E+20
146
0.0
 13
0.0
 23
0.0
 33
0.0
 16
1.0
 26
0.0
 36
0.0
 17
0.0
 27
1.0
 37
0.0
 76
     0
330
1B
  0
LAYOUT
  5
26
102
{ACAD_REACTORS
330
1A
102
}
330
1A
100
AcDbPlotSettings
  1

  2
none_device
  4

  6

 40
0.0
 41
0.0
 42
0.0
 43
0.0
 44
0.0
 45
0.0
 46
0.0
 47
0.0
 48
0.0
 49
0.0
140
0.0
141
0.0
142
1.0
143
1.0
 70
   688
 72
     1
 73
     0
 74
     5
  7

 75
    16
 76
     0
 77
     5
 78
   300
147
1.0
148
0.0
149
0.0
100
AcDbLayout
  1
Layout2
 70
     1
 71
     2
 10
0.0
 20
0.0
 11
0.0
 21
0.0
 12
0.0
 22
0.0
 32
0.0
 14
0.0
 24
0.0
 34
0.0
 15
0.0
 25
0.0
 35
0.0
146
0.0
 13
0.0
 23
0.0
 33
0.0
 16
1.0
 26
0.0
 36
0.0
 17
0.0
 27
1.0
 37
0.0
 76
     0
330
23
  0
LAYOUT
  5
22
102
{ACAD_REACTORS
330
1A
102
}
330
1A
100
AcDbPlotSettings
  1

  2
none_device
  4
Letter_(8.50_x_11.00_Inches)
  6

 40
6.35
 41
6.35
 42
6.35000508
 43
6.35000508
 44
215.9
 45
279.4
 46
0.0
 47
0.0
 48
0.0
 49
0.0
140
0.0
141
0.0
142
1.0
143
1.0
 70
  1712
 72
     1
 73
     0
 74
     0
  7

 75
     0
 76
     0
 77
     5
 78
   300
147
1.0
148
0.0
149
0.0
100
AcDbLayout
  1
Model
 70
     1
 71
     0
 10
-2100.0
 20
-1485.0
 11
2100.0
 21
1485.0
 12
0.0
 22
0.0
 32
0.0
 14
-2100.0
 24
-1485.0
 34
0.0
 15
2100.0
 25
1485.0
 35
0.0
146
0.0
 13
0.0
 23
0.0
 33
0.0
 16
1.0
 26
0.0
 36
0.0
 17
0.0
 27
1.0
 37
0.0
 76
     0
330
1F
331
29
  0
MATERIAL
  5
45
102
{ACAD_REACTORS
330
43
102
}
330
43
100
AcDbMaterial
  1
ByBlock
 72
     1
 94
      127
  0
MATERIAL
  5
44
102
{ACAD_REACTORS
330
43
102
}
330
43
100
AcDbMaterial
  1
ByLayer
 72
     1
 94
      127
  0
MATERIAL
  5
46
102
{ACAD_REACTORS
330
43
102
}
330
43
100
AcDbMaterial
  1
Global
 72
     1
 94
      127
  0
MLEADERSTYLE
  5
6C
102
{ACAD_REACTORS
330
6B
102
}
330
6B
100
AcDbMLeaderStyle
179
     2
170
     2
171
     1
172
     0
 90
        2
 40
0.0
 41
0.0
173
     1
 91
-1056964608
340
14
 92
       -2
290
     1
 42
2.0
291
     1
 43
8.0
  3
Standard
341
0
 44
4.0
300

342
11
174
     1
178
     6
175
     1
176
     0
 93
-1056964608
 45
4.0
292
     0
297
     0
 46
4.0
343
0
 94
-1056964608
 47
1.0
 49
1.0
140
1.0
293
     1
141
0.0
294
     1
177
     0
142
1.0
295
     0
296
     0
143
3.75
271
     0
272
     9
273
     9
298
     0
  0
MLINESTYLE
  5
18
102
{ACAD_REACTORS
330
17
102
}
330
17
100
AcDbMlineStyle
  2
Standard
 70
     0
  3

 62
   256
 51
90.0
 52
90.0
 71
     2
 49
0.5
 62
   256
  6
BYLAYER
 49
-0.5
 62
   256
  6
BYLAYER
  0
ACDBPLACEHOLDER
  5
F
102
{ACAD_REACTORS
330
E
102
}
330
E
  0
SCALE
  5
48
102
{ACAD_REACTORS
330
47
102
}
330
47
100
AcDbScale
 70
     0
300
1:1
140
1.0
141
1.0
290
     1
  0
SCALE
  5
49
102
{ACAD_REACTORS
330
47
102
}
330
47
100
AcDbScale
 70
     0
300
1:2
140
1.0
141
2.0
290
     0
  0
SCALE
  5
4A
102
{ACAD_REACTORS
330
47
102
}
330
47
100
AcDbScale
 70
     0
300
1:4
140
1.0
141
4.0
290
     0
  0
SCALE
  5
4B
102
{ACAD_REACTORS
330
47
102
}
330
47
100
AcDbScale
 70
     0
300
1:5
140
1.0
141
5.0
290
     0
  0
SCALE
  5
4C
102
{ACAD_REACTORS
330
47
102
}
330
47
100
AcDbScale
 70
     0
300
1:8
140
1.0
141
8.0
290
     0
  0
SCALE
  5
4D
102
{ACAD_REACTORS
330
47
102
}
330
47
100
AcDbScale
 70
     0
300
1:10
140
1.0
141
10.0
290
     0
  0
SCALE
  5
4E
102
{ACAD_REACTORS
330
47
102
}
330
47
100
AcDbScale
 70
     0
300
1:16
140
1.0
141
16.0
290
     0
  0
SCALE
  5
4F
102
{ACAD_REACTORS
330
47
102
}
330
47
100
AcDbScale
 70
     0
300
1:20
140
1.0
141
20.0
290
     0
  0
SCALE
  5
50
102
{ACAD_REACTORS
330
47
102
}
330
47
100
AcDbScale
 70
     0
300
1:30
140
1.0
141
30.0
290
     0
  0
SCALE
  5
51
102
{ACAD_REACTORS
330
47
102
}
330
47
100
AcDbScale
 70
     0
300
1:40
140
1.0
141
40.0
290
     0
  0
SCALE
  5
52
102
{ACAD_REACTORS
330
47
102
}
330
47
100
AcDbScale
 70
     0
300
1:50
140
1.0
141
50.0
290
     0
  0
SCALE
  5
53
102
{ACAD_REACTORS
330
47
102
}
330
47
100
AcDbScale
 70
     0
300
1:100
140
1.0
141
100.0
290
     0
  0
SCALE
  5
54
102
{ACAD_REACTORS
330
47
102
}
330
47
100
AcDbScale
 70
     0
300
2:1
140
2.0
141
1.0
290
     0
  0
SCALE
  5
55
102
{ACAD_REACTORS
330
47
102
}
330
47
100
AcDbScale
 70
     0
300
4:1
140
4.0
141
1.0
290
     0
  0
SCALE
  5
56
102
{ACAD_REACTORS
330
47
102
}
330
47
100
AcDbScale
 70
     0
300
8:1
140
8.0
141
1.0
290
     0
  0
SCALE
  5
57
102
{ACAD_REACTORS
330
47
102
}
330
47
100
AcDbScale
 70
     0
300
10:1
140
10.0
141
1.0
290
     0
  0
SCALE
  5
58
102
{ACAD_REACTORS
330
47
102
}
330
47
100
AcDbScale
 70
     0
300
100:1
140
100.0
141
1.0
290
     0
  0
SCALE
  5
59
102
{ACAD_REACTORS
330
47
102
}
330
47
100
AcDbScale
 70
     0
300
1/128" = 1'-0"
140
0.0078125
141
12.0
290
     0
  0
SCALE
  5
5A
102
{ACAD_REACTORS
330
47
102
}
330
47
100
AcDbScale
 70
     0
300
1/64" = 1'-0"
140
0.015625
141
12.0
290
     0
  0
SCALE
  5
5B
102
{ACAD_REACTORS
330
47
102
}
330
47
100
AcDbScale
 70
     0
300
1/32" = 1'-0"
140
0.03125
141
12.0
290
     0
  0
SCALE
  5
5C
102
{ACAD_REACTORS
330
47
102
}
330
47
100
AcDbScale
 70
     0
300
1/16" = 1'-0"
140
0.0625
141
12.0
290
     0
  0
SCALE
  5
5D
102
{ACAD_REACTORS
330
47
102
}
330
47
100
AcDbScale
 70
     0
300
3/32" = 1'-0"
140
0.09375
141
12.0
290
     0
  0
SCALE
  5
5E
102
{ACAD_REACTORS
330
47
102
}
330
47
100
AcDbScale
 70
     0
300
1/8" = 1'-0"
140
0.125
141
12.0
290
     0
  0
SCALE
  5
5F
102
{ACAD_REACTORS
330
47
102
}
330
47
100
AcDbScale
 70
     0
300
3/16" = 1'-0"
140
0.1875
141
12.0
290
     0
  0
SCALE
  5
60
102
{ACAD_REACTORS
330
47
102
}
330
47
100
AcDbScale
 70
     0
300
1/4" = 1'-0"
140
0.25
141
12.0
290
     0
  0
SCALE
  5
61
102
{ACAD_REACTORS
330
47
102
}
330
47
100
AcDbScale
 70
     0
300
3/8" = 1'-0"
140
0.375
141
12.0
290
     0
  0
SCALE
  5
62
102
{ACAD_REACTORS
330
47
102
}
330
47
100
AcDbScale
 70
     0
300
1/2" = 1'-0"
140
0.5
141
12.0
290
     0
  0
SCALE
  5
63
102
{ACAD_REACTORS
330
47
102
}
330
47
100
AcDbScale
 70
     0
300
3/4" = 1'-0"
140
0.75
141
12.0
290
     0
  0
SCALE
  5
64
102
{ACAD_REACTORS
330
47
102
}
330
47
100
AcDbScale
 70
     0
300
1" = 1'-0"
140
1.0
141
12.0
290
     0
  0
SCALE
  5
65
102
{ACAD_REACTORS
330
47
102
}
330
47
100
AcDbScale
 70
     0
300
1-1/2" = 1'-0"
140
1.5
141
12.0
290
     0
  0
SCALE
  5
66
102
{ACAD_REACTORS
330
47
102
}
330
47
100
AcDbScale
 70
     0
300
3" = 1'-0"
140
3.0
141
12.0
290
     0
  0
SCALE
  5
67
102
{ACAD_REACTORS
330
47
102
}
330
47
100
AcDbScale
 70
     0
300
6" = 1'-0"
140
6.0
141
12.0
290
     0
  0
SCALE
  5
68
102
{ACAD_REACTORS
330
47
102
}
330
47
100
AcDbScale
 70
     0
300
1'-0" = 1'-0"
140
12.0
141
12.0
290
     0
  0
TABLESTYLE
  5
6A
102
{ACAD_REACTORS
330
69
102
}
102
{ACAD_XDICTIONARY
360
2B3
102
}
330
69
100
AcDbTableStyle
  3
Standard
 70
     0
 71
     0
 40
0.06
 41
0.06
280
     0
281
     0
  7
Standard
140
4.5
170
     2
 62
     0
 63
   257
283
     0
 90
        4
 91
        0
  1

274
    -2
284
     1
 64
     0
275
    -2
285
     1
 65
     0
276
    -2
286
     1
 66
     0
277
    -2
287
     1
 67
     0
278
    -2
288
     1
 68
     0
279
    -2
289
     1
 69
     0
  7
Standard
140
6.0
170
     5
 62
     0
 63
   257
283
     0
 90
        4
 91
        0
  1

274
    -2
284
     1
 64
     0
275
    -2
285
     1
 65
     0
276
    -2
286
     1
 66
     0
277
    -2
287
     1
 67
     0
278
    -2
288
     1
 68
     0
279
    -2
289
     1
 69
     0
  7
Standard
140
4.5
170
     5
 62
     0
 63
   257
283
     0
 90
        4
 91
        0
  1

274
    -2
284
     1
 64
     0
275
    -2
285
     1
 65
     0
276
    -2
286
     1
 66
     0
277
    -2
287
     1
 67
     0
278
    -2
288
     1
 68
     0
279
    -2
289
     1
 69
     0
  0
VISUALSTYLE
  5
2F
102
{ACAD_REACTORS
330
2A
102
}
330
2A
100
AcDbVisualStyle
  2
2dWireframe
 70
     4
177
     3
291
     0
 70
    58
 90
        0
176
     1
 90
        2
176
     1
 90
        0
176
     1
 90
        0
176
     1
 40
0.6
176
     1
 40
30.0
176
     1
 62
     7
420
 16777215
176
     1
 90
        1
176
     1
 90
        4
176
     1
 62
     7
176
     1
 62
   257
176
     1
 90
        1
176
     1
 90
        1
176
     1
 40
1.0
176
     1
 90
        0
176
     1
 62
   257
176
     1
 40
1.0
176
     1
 90
        1
176
     1
 90
        6
176
     1
 90
        2
176
     1
 62
     7
176
     1
 90
        5
176
     1
 90
        0
176
     1
 90
        0
176
     1
290
     0
176
     1
 90
        1
176
     1
 40
0.0
176
     1
 90
        0
176
     1
290
     1
176
     1
290
     1
176
     1
290
     0
176
     1
290
     0
176
     1
290
     0
176
     1
290
     0
176
     1
290
     0
176
     1
290
     0
176
     1
290
     0
176
     1
 90
       50
176
     1
 40
0.0
176
     1
 40
1.0
176
     1
 90
        0
176
     1
 62
    18
420
        0
176
     1
 90
       50
176
     1
 90
        3
176
     1
 62
     5
420
      255
176
     1
290
     0
176
     1
 90
       50
176
     1
 90
       50
176
     1
 90
       50
176
     1
290
     0
176
     1
 90
       50
176
     1
 62
   256
176
     0
 40
1.0
176
     0
 90
        2
176
     1
  1
strokes_ogs.tif
176
     1
290
     0
176
     1
 40
1.0
176
     1
 40
1.0
176
     1
  0
VISUALSTYLE
  5
32
102
{ACAD_REACTORS
330
2A
102
}
330
2A
100
AcDbVisualStyle
  2
Basic
 70
     7
177
     3
291
     1
 70
    58
 90
        1
176
     1
 90
        0
176
     1
 90
        1
176
     1
 90
        0
176
     1
 40
0.6
176
     1
 40
30.0
176
     1
 62
     7
420
 16777215
176
     1
 90
        0
176
     1
 90
        4
176
     1
 62
     7
176
     1
 62
   257
176
     1
 90
        1
176
     1
 90
        1
176
     1
 40
1.0
176
     1
 90
        8
176
     1
 62
     7
176
     1
 40
1.0
176
     1
 90
        1
176
     1
 90
        6
176
     1
 90
        2
176
     1
 62
     7
176
     1
 90
        5
176
     1
 90
        0
176
     1
 90
        0
176
     1
290
     0
176
     1
 90
        1
176
     1
 40
0.0
176
     1
 90
        0
176
     1
290
     0
176
     1
290
     1
176
     1
290
     1
176
     1
290
     0
176
     1
290
     0
176
     1
290
     0
176
     1
290
     0
176
     1
290
     0
176
     1
290
     0
176
     1
 90
       50
176
     1
 40
0.0
176
     1
 40
1.0
176
     1
 90
        0
176
     1
 62
    18
420
        0
176
     1
 90
       50
176
     1
 90
        3
176
     1
 62
     5
420
      255
176
     1
290
     0
176
     1
 90
       50
176
     1
 90
       50
176
     1
 90
       50
176
     1
290
     0
176
     1
 90
       50
176
     1
 62
   256
176
     0
 40
1.0
176
     0
 90
        2
176
     1
  1
strokes_ogs.tif
176
     1
290
     0
176
     1
 40
1.0
176
     1
 40
1.0
176
     1
  0
VISUALSTYLE
  5
36
102
{ACAD_REACTORS
330
2A
102
}
330
2A
100
AcDbVisualStyle
  2
Brighten
 70
    12
177
     3
291
     1
 70
    58
 90
        2
176
     1
 90
        2
176
     1
 90
        0
176
     1
 90
        0
176
     1
 40
0.6
176
     1
 40
30.0
176
     1
 62
     7
420
 16777215
176
     1
 90
        1
176
     1
 90
        4
176
     1
 62
     7
176
     1
 62
   257
176
     1
 90
        1
176
     1
 90
        1
176
     1
 40
1.0
176
     1
 90
        8
176
     1
 62
     7
176
     1
 40
1.0
176
     1
 90
        1
176
     1
 90
        6
176
     1
 90
        2
176
     1
 62
     7
176
     1
 90
        5
176
     1
 90
        0
176
     1
 90
        0
176
     1
290
     0
176
     1
 90
        1
176
     1
 40
50.0
176
     1
 90
        0
176
     1
290
     0
176
     1
290
     1
176
     1
290
     1
176
     1
290
     0
176
     1
290
     0
176
     1
290
     0
176
     1
290
     0
176
     1
290
     0
176
     1
290
     0
176
     1
 90
       50
176
     1
 40
0.0
176
     1
 40
1.0
176
     1
 90
        0
176
     1
 62
    18
420
        0
176
     1
 90
       50
176
     1
 90
        3
176
     1
 62
     5
420
      255
176
     1
290
     0
176
     1
 90
       50
176
     1
 90
       50
176
     1
 90
       50
176
     1
290
     0
176
     1
 90
       50
176
     1
 62
   256
176
     0
 40
1.0
176
     0
 90
        2
176
     1
  1
strokes_ogs.tif
176
     1
290
     0
176
     1
 40
1.0
176
     1
 40
1.0
176
     1
  0
VISUALSTYLE
  5
3A
102
{ACAD_REACTORS
330
2A
102
}
330
2A
100
AcDbVisualStyle
  2
ColorChange
 70
    16
177
     3
291
     1
 70
    58
 90
        2
176
     1
 90
        2
176
     1
 90
        3
176
     1
 90
        0
176
     1
 40
0.6
176
     1
 40
30.0
176
     1
 62
     8
420
  8421504
176
     1
 90
        1
176
     1
 90
        4
176
     1
 62
     7
176
     1
 62
   257
176
     1
 90
        1
176
     1
 90
        1
176
     1
 40
1.0
176
     1
 90
        8
176
     1
 62
     8
420
  8421504
176
     1
 40
1.0
176
     1
 90
        1
176
     1
 90
        6
176
     1
 90
        2
176
     1
 62
     7
176
     1
 90
        5
176
     1
 90
        0
176
     1
 90
        0
176
     1
290
     0
176
     1
 90
        1
176
     1
 40
0.0
176
     1
 90
        0
176
     1
290
     0
176
     1
290
     1
176
     1
290
     1
176
     1
290
     0
176
     1
290
     0
176
     1
290
     0
176
     1
290
     0
176
     1
290
     0
176
     1
290
     0
176
     1
 90
       50
176
     1
 40
0.0
176
     1
 40
1.0
176
     1
 90
        0
176
     1
 62
    18
420
        0
176
     1
 90
       50
176
     1
 90
        3
176
     1
 62
     5
420
      255
176
     1
290
     0
176
     1
 90
       50
176
     1
 90
       50
176
     1
 90
       50
176
     1
290
     0
176
     1
 90
       50
176
     1
 62
   256
176
     0
 40
1.0
176
     0
 90
        2
176
     1
  1
strokes_ogs.tif
176
     1
290
     0
176
     1
 40
1.0
176
     1
 40
1.0
176
     1
  0
VISUALSTYLE
  5
34
102
{ACAD_REACTORS
330
2A
102
}
330
2A
100
AcDbVisualStyle
  2
Conceptual
 70
     9
177
     3
291
     0
 70
    58
 90
        3
176
     1
 90
        2
176
     1
 90
        0
176
     1
 90
        0
176
     1
 40
0.6
176
     1
 40
30.0
176
     1
 62
     7
420
 16777215
176
     1
 90
        2
176
     1
 90
        2
176
     1
 62
     7
176
     1
 62
   257
176
     1
 90
        1
176
     1
 90
        1
176
     1
 40
179.0
176
     1
 90
        8
176
     1
 62
     7
176
     1
 40
1.0
176
     1
 90
        1
176
     1
 90
        6
176
     1
 90
        2
176
     1
 62
     7
176
     1
 90
        3
176
     1
 90
        0
176
     1
 90
        0
176
     1
290
     0
176
     1
 90
        1
176
     1
 40
0.0
176
     1
 90
        0
176
     1
290
     0
176
     1
290
     1
176
     1
290
     1
176
     1
290
     0
176
     1
290
     0
176
     1
290
     0
176
     1
290
     0
176
     1
290
     0
176
     1
290
     0
176
     1
 90
       50
176
     1
 40
0.0
176
     1
 40
1.0
176
     1
 90
        0
176
     1
 62
    18
420
        0
176
     1
 90
       50
176
     1
 90
        3
176
     1
 62
     5
420
      255
176
     1
290
     0
176
     1
 90
       50
176
     1
 90
       50
176
     1
 90
       50
176
     1
290
     0
176
     1
 90
       50
176
     1
 62
   256
176
     0
 40
1.0
176
     0
 90
        2
176
     1
  1
strokes_ogs.tif
176
     1
290
     0
176
     1
 40
1.0
176
     1
 40
1.0
176
     1
  0
VISUALSTYLE
  5
35
102
{ACAD_REACTORS
330
2A
102
}
330
2A
100
AcDbVisualStyle
  2
Dim
 70
    11
177
     3
291
     1
 70
    58
 90
        2
176
     1
 90
        2
176
     1
 90
        0
176
     1
 90
        0
176
     1
 40
0.6
176
     1
 40
30.0
176
     1
 62
     7
420
 16777215
176
     1
 90
        1
176
     1
 90
        4
176
     1
 62
     7
176
     1
 62
   257
176
     1
 90
        1
176
     1
 90
        1
176
     1
 40
1.0
176
     1
 90
        8
176
     1
 62
     7
176
     1
 40
1.0
176
     1
 90
        1
176
     1
 90
        6
176
     1
 90
        2
176
     1
 62
     7
176
     1
 90
        5
176
     1
 90
        0
176
     1
 90
        0
176
     1
290
     0
176
     1
 90
        1
176
     1
 40
-50.0
176
     1
 90
        0
176
     1
290
     0
176
     1
290
     1
176
     1
290
     1
176
     1
290
     0
176
     1
290
     0
176
     1
290
     0
176
     1
290
     0
176
     1
290
     0
176
     1
290
     0
176
     1
 90
       50
176
     1
 40
0.0
176
     1
 40
1.0
176
     1
 90
        0
176
     1
 62
    18
420
        0
176
     1
 90
       50
176
     1
 90
        3
176
     1
 62
     5
420
      255
176
     1
290
     0
176
     1
 90
       50
176
     1
 90
       50
176
     1
 90
       50
176
     1
290
     0
176
     1
 90
       50
176
     1
 62
   256
176
     0
 40
1.0
176
     0
 90
        2
176
     1
  1
strokes_ogs.tif
176
     1
290
     0
176
     1
 40
1.0
176
     1
 40
1.0
176
     1
  0
VISUALSTYLE
  5
3D
102
{ACAD_REACTORS
330
2A
102
}
330
2A
100
AcDbVisualStyle
  2
EdgeColorOff
 70
    22
177
     3
291
     1
 70
    58
 90
        2
176
     0
 90
        2
176
     0
 90
        0
176
     0
 90
        0
176
     0
 40
0.6
176
     0
 40
30.0
176
     0
 62
     7
420
 16777215
176
     0
 90
        1
176
     0
 90
        4
176
     0
 62
     7
176
     0
 62
   257
176
     0
 90
        1
176
     0
 90
        1
176
     0
 40
1.0
176
     0
 90
        8
176
     2
 62
     7
176
     0
 40
1.0
176
     0
 90
        1
176
     0
 90
        6
176
     0
 90
        2
176
     0
 62
     7
176
     0
 90
        5
176
     0
 90
        0
176
     0
 90
        0
176
     0
290
     0
176
     0
 90
        1
176
     0
 40
0.0
176
     0
 90
        0
176
     0
290
     0
176
     0
290
     1
176
     0
290
     1
176
     0
290
     0
176
     0
290
     0
176
     0
290
     0
176
     0
290
     0
176
     0
290
     0
176
     0
290
     0
176
     0
 90
       50
176
     0
 40
0.0
176
     0
 40
1.0
176
     0
 90
        0
176
     0
 62
    18
420
        0
176
     0
 90
       50
176
     0
 90
        3
176
     0
 62
     5
420
      255
176
     0
290
     0
176
     0
 90
       50
176
     0
 90
       50
176
     0
 90
       50
176
     0
290
     0
176
     0
 90
       50
176
     0
 62
   256
176
     0
 40
1.0
176
     0
 90
        2
176
     0
  1
strokes_ogs.tif
176
     0
290
     0
176
     0
 40
1.0
176
     0
 40
1.0
176
     0
  0
VISUALSTYLE
  5
39
102
{ACAD_REACTORS
330
2A
102
}
330
2A
100
AcDbVisualStyle
  2
Facepattern
 70
    15
177
     3
291
     1
 70
    58
 90
        2
176
     1
 90
        2
176
     1
 90
        0
176
     1
 90
        0
176
     1
 40
0.6
176
     1
 40
30.0
176
     1
 62
     7
420
 16777215
176
     1
 90
        1
176
     1
 90
        4
176
     1
 62
     7
176
     1
 62
   257
176
     1
 90
        1
176
     1
 90
        1
176
     1
 40
1.0
176
     1
 90
        8
176
     1
 62
     7
176
     1
 40
1.0
176
     1
 90
        1
176
     1
 90
        6
176
     1
 90
        2
176
     1
 62
     7
176
     1
 90
        5
176
     1
 90
        0
176
     1
 90
        0
176
     1
290
     0
176
     1
 90
        1
176
     1
 40
0.0
176
     1
 90
        0
176
     1
290
     0
176
     1
290
     1
176
     1
290
     1
176
     1
290
     0
176
     1
290
     0
176
     1
290
     0
176
     1
290
     0
176
     1
290
     0
176
     1
290
     0
176
     1
 90
       50
176
     1
 40
0.0
176
     1
 40
1.0
176
     1
 90
        0
176
     1
 62
    18
420
        0
176
     1
 90
       50
176
     1
 90
        3
176
     1
 62
     5
420
      255
176
     1
290
     0
176
     1
 90
       50
176
     1
 90
       50
176
     1
 90
       50
176
     1
290
     0
176
     1
 90
       50
176
     1
 62
   256
176
     0
 40
1.0
176
     0
 90
        2
176
     1
  1
strokes_ogs.tif
176
     1
290
     0
176
     1
 40
1.0
176
     1
 40
1.0
176
     1
  0
VISUALSTYLE
  5
2B
102
{ACAD_REACTORS
330
2A
102
}
330
2A
100
AcDbVisualStyle
  2
Flat
 70
     0
177
     3
291
     1
 70
    58
 90
        2
176
     1
 90
        1
176
     1
 90
        1
176
     1
 90
        2
176
     1
 40
0.6
176
     1
 40
30.0
176
     1
 62
     7
420
 16777215
176
     1
 90
        0
176
     1
 90
        0
176
     1
 62
     7
176
     1
 62
   257
176
     1
 90
        1
176
     1
 90
        1
176
     1
 40
1.0
176
     1
 90
        8
176
     1
 62
     7
176
     1
 40
1.0
176
     1
 90
        1
176
     1
 90
        6
176
     1
 90
        2
176
     1
 62
     7
176
     1
 90
        5
176
     1
 90
        0
176
     1
 90
        0
176
     1
290
     0
176
     1
 90
       13
176
     1
 40
0.0
176
     1
 90
        0
176
     1
290
     0
176
     1
290
     1
176
     1
290
     1
176
     1
290
     0
176
     1
290
     0
176
     1
290
     0
176
     1
290
     0
176
     1
290
     0
176
     1
290
     0
176
     1
 90
       50
176
     1
 40
0.0
176
     1
 40
1.0
176
     1
 90
        0
176
     1
 62
    18
420
        0
176
     1
 90
       50
176
     1
 90
        3
176
     1
 62
     5
420
      255
176
     1
290
     0
176
     1
 90
       50
176
     1
 90
       50
176
     1
 90
       50
176
     1
290
     0
176
     1
 90
       50
176
     1
 62
   256
176
     0
 40
1.0
176
     0
 90
        2
176
     1
  1
strokes_ogs.tif
176
     1
290
     0
176
     1
 40
1.0
176
     1
 40
1.0
176
     1
  0
VISUALSTYLE
  5
2C
102
{ACAD_REACTORS
330
2A
102
}
330
2A
100
AcDbVisualStyle
  2
FlatWithEdges
 70
     1
177
     3
291
     1
 70
    58
 90
        2
176
     1
 90
        1
176
     1
 90
        1
176
     1
 90
        2
176
     1
 40
0.6
176
     1
 40
30.0
176
     1
 62
     7
420
 16777215
176
     1
 90
        1
176
     1
 90
        0
176
     1
 62
     7
176
     1
 62
   257
176
     1
 90
        1
176
     1
 90
        1
176
     1
 40
1.0
176
     1
 90
        0
176
     1
 62
   257
176
     1
 40
1.0
176
     1
 90
        1
176
     1
 90
        6
176
     1
 90
        2
176
     1
 62
     7
176
     1
 90
        5
176
     1
 90
        0
176
     1
 90
        0
176
     1
290
     0
176
     1
 90
       13
176
     1
 40
0.0
176
     1
 90
        0
176
     1
290
     0
176
     1
290
     1
176
     1
290
     1
176
     1
290
     0
176
     1
290
     0
176
     1
290
     0
176
     1
290
     0
176
     1
290
     0
176
     1
290
     0
176
     1
 90
       50
176
     1
 40
0.0
176
     1
 40
1.0
176
     1
 90
        0
176
     1
 62
    18
420
        0
176
     1
 90
       50
176
     1
 90
        3
176
     1
 62
     5
420
      255
176
     1
290
     0
176
     1
 90
       50
176
     1
 90
       50
176
     1
 90
       50
176
     1
290
     0
176
     1
 90
       50
176
     1
 62
   256
176
     0
 40
1.0
176
     0
 90
        2
176
     1
  1
strokes_ogs.tif
176
     1
290
     0
176
     1
 40
1.0
176
     1
 40
1.0
176
     1
  0
VISUALSTYLE
  5
2D
102
{ACAD_REACTORS
330
2A
102
}
330
2A
100
AcDbVisualStyle
  2
Gouraud
 70
     2
177
     3
291
     1
 70
    58
 90
        2
176
     1
 90
        2
176
     1
 90
        1
176
     1
 90
        2
176
     1
 40
0.6
176
     1
 40
30.0
176
     1
 62
     7
420
 16777215
176
     1
 90
        0
176
     1
 90
        0
176
     1
 62
     7
176
     1
 62
   257
176
     1
 90
        1
176
     1
 90
        1
176
     1
 40
1.0
176
     1
 90
        0
176
     1
 62
     7
176
     1
 40
1.0
176
     1
 90
        1
176
     1
 90
        6
176
     1
 90
        2
176
     1
 62
     7
176
     1
 90
        5
176
     1
 90
        0
176
     1
 90
        0
176
     1
290
     0
176
     1
 90
       13
176
     1
 40
0.0
176
     1
 90
        0
176
     1
290
     0
176
     1
290
     1
176
     1
290
     1
176
     1
290
     0
176
     1
290
     0
176
     1
290
     0
176
     1
290
     0
176
     1
290
     0
176
     1
290
     0
176
     1
 90
       50
176
     1
 40
0.0
176
     1
 40
1.0
176
     1
 90
        0
176
     1
 62
    18
420
        0
176
     1
 90
       50
176
     1
 90
        3
176
     1
 62
     5
420
      255
176
     1
290
     0
176
     1
 90
       50
176
     1
 90
       50
176
     1
 90
       50
176
     1
290
     0
176
     1
 90
       50
176
     1
 62
   256
176
     0
 40
1.0
176
     0
 90
        2
176
     1
  1
strokes_ogs.tif
176
     1
290
     0
176
     1
 40
1.0
176
     1
 40
1.0
176
     1
  0
VISUALSTYLE
  5
2E
102
{ACAD_REACTORS
330
2A
102
}
330
2A
100
AcDbVisualStyle
  2
GouraudWithEdges
 70
     3
177
     3
291
     1
 70
    58
 90
        2
176
     1
 90
        2
176
     1
 90
        1
176
     1
 90
        2
176
     1
 40
0.6
176
     1
 40
30.0
176
     1
 62
     7
420
 16777215
176
     1
 90
        1
176
     1
 90
        0
176
     1
 62
     7
176
     1
 62
   257
176
     1
 90
        1
176
     1
 90
        1
176
     1
 40
1.0
176
     1
 90
        0
176
     1
 62
   257
176
     1
 40
1.0
176
     1
 90
        1
176
     1
 90
        6
176
     1
 90
        2
176
     1
 62
     7
176
     1
 90
        5
176
     1
 90
        0
176
     1
 90
        0
176
     1
290
     0
176
     1
 90
       13
176
     1
 40
0.0
176
     1
 90
        0
176
     1
290
     0
176
     1
290
     1
176
     1
290
     1
176
     1
290
     0
176
     1
290
     0
176
     1
290
     0
176
     1
290
     0
176
     1
290
     0
176
     1
290
     0
176
     1
 90
       50
176
     1
 40
0.0
176
     1
 40
1.0
176
     1
 90
        0
176
     1
 62
    18
420
        0
176
     1
 90
       50
176
     1
 90
        3
176
     1
 62
     5
420
      255
176
     1
290
     0
176
     1
 90
       50
176
     1
 90
       50
176
     1
 90
       50
176
     1
290
     0
176
     1
 90
       50
176
     1
 62
   256
176
     0
 40
1.0
176
     0
 90
        2
176
     1
  1
strokes_ogs.tif
176
     1
290
     0
176
     1
 40
1.0
176
     1
 40
1.0
176
     1
  0
VISUALSTYLE
  5
31
102
{ACAD_REACTORS
330
2A
102
}
330
2A
100
AcDbVisualStyle
  2
Hidden
 70
     6
177
     3
291
     0
 70
    58
 90
        1
176
     1
 90
        2
176
     1
 90
        2
176
     1
 90
        0
176
     1
 40
0.6
176
     1
 40
30.0
176
     1
 62
     7
420
 16777215
176
     1
 90
        2
176
     1
 90
        2
176
     1
 62
     7
176
     1
 62
   257
176
     1
 90
        2
176
     1
 90
        1
176
     1
 40
40.0
176
     1
 90
        0
176
     1
 62
   257
176
     1
 40
1.0
176
     1
 90
        1
176
     1
 90
        6
176
     1
 90
        2
176
     1
 62
     7
176
     1
 90
        3
176
     1
 90
        0
176
     1
 90
        0
176
     1
290
     0
176
     1
 90
        1
176
     1
 40
0.0
176
     1
 90
        0
176
     1
290
     0
176
     1
290
     1
176
     1
290
     1
176
     1
290
     0
176
     1
290
     0
176
     1
290
     0
176
     1
290
     0
176
     1
290
     0
176
     1
290
     0
176
     1
 90
       50
176
     1
 40
0.0
176
     1
 40
1.0
176
     1
 90
        0
176
     1
 62
    18
420
        0
176
     1
 90
       50
176
     1
 90
        3
176
     1
 62
     5
420
      255
176
     1
290
     0
176
     1
 90
       50
176
     1
 90
       50
176
     1
 90
       50
176
     1
290
     0
176
     1
 90
       50
176
     1
 62
   256
176
     0
 40
1.0
176
     0
 90
        2
176
     1
  1
strokes_ogs.tif
176
     1
290
     0
176
     1
 40
1.0
176
     1
 40
1.0
176
     1
  0
VISUALSTYLE
  5
3B
102
{ACAD_REACTORS
330
2A
102
}
330
2A
100
AcDbVisualStyle
  2
JitterOff
 70
    20
177
     3
291
     1
 70
    58
 90
        2
176
     0
 90
        2
176
     0
 90
        0
176
     0
 90
        0
176
     0
 40
0.6
176
     0
 40
30.0
176
     0
 62
     7
420
 16777215
176
     0
 90
        1
176
     0
 90
        4
176
     0
 62
     7
176
     0
 62
   257
176
     0
 90
        1
176
     0
 90
        1
176
     0
 40
1.0
176
     0
 90
       10
176
     2
 62
     7
176
     0
 40
1.0
176
     0
 90
        1
176
     0
 90
        6
176
     0
 90
        2
176
     0
 62
     7
176
     0
 90
        5
176
     0
 90
        0
176
     0
 90
        0
176
     0
290
     0
176
     0
 90
        1
176
     0
 40
0.0
176
     0
 90
        0
176
     0
290
     0
176
     0
290
     1
176
     0
290
     1
176
     0
290
     0
176
     0
290
     0
176
     0
290
     0
176
     0
290
     0
176
     0
290
     0
176
     0
290
     0
176
     0
 90
       50
176
     0
 40
0.0
176
     0
 40
1.0
176
     0
 90
        0
176
     0
 62
    18
420
        0
176
     0
 90
       50
176
     0
 90
        3
176
     0
 62
     5
420
      255
176
     0
290
     0
176
     0
 90
       50
176
     0
 90
       50
176
     0
 90
       50
176
     0
290
     0
176
     0
 90
       50
176
     0
 62
   256
176
     0
 40
1.0
176
     0
 90
        2
176
     0
  1
strokes_ogs.tif
176
     0
290
     0
176
     0
 40
1.0
176
     0
 40
1.0
176
     0
  0
VISUALSTYLE
  5
38
102
{ACAD_REACTORS
330
2A
102
}
330
2A
100
AcDbVisualStyle
  2
Linepattern
 70
    14
177
     3
291
     1
 70
    58
 90
        2
176
     1
 90
        2
176
     1
 90
        0
176
     1
 90
        0
176
     1
 40
0.6
176
     1
 40
30.0
176
     1
 62
     7
420
 16777215
176
     1
 90
        1
176
     1
 90
        4
176
     1
 62
     7
176
     1
 62
   257
176
     1
 90
        7
176
     1
 90
        7
176
     1
 40
1.0
176
     1
 90
        8
176
     1
 62
     7
176
     1
 40
1.0
176
     1
 90
        1
176
     1
 90
        6
176
     1
 90
        2
176
     1
 62
     7
176
     1
 90
        5
176
     1
 90
        0
176
     1
 90
        0
176
     1
290
     0
176
     1
 90
        1
176
     1
 40
0.0
176
     1
 90
        0
176
     1
290
     0
176
     1
290
     1
176
     1
290
     1
176
     1
290
     0
176
     1
290
     0
176
     1
290
     0
176
     1
290
     0
176
     1
290
     0
176
     1
290
     0
176
     1
 90
       50
176
     1
 40
0.0
176
     1
 40
1.0
176
     1
 90
        0
176
     1
 62
    18
420
        0
176
     1
 90
       50
176
     1
 90
        3
176
     1
 62
     5
420
      255
176
     1
290
     0
176
     1
 90
       50
176
     1
 90
       50
176
     1
 90
       50
176
     1
290
     0
176
     1
 90
       50
176
     1
 62
   256
176
     0
 40
1.0
176
     0
 90
        2
176
     1
  1
strokes_ogs.tif
176
     1
290
     0
176
     1
 40
1.0
176
     1
 40
1.0
176
     1
  0
VISUALSTYLE
  5
3C
102
{ACAD_REACTORS
330
2A
102
}
330
2A
100
AcDbVisualStyle
  2
OverhangOff
 70
    21
177
     3
291
     1
 70
    58
 90
        2
176
     0
 90
        2
176
     0
 90
        0
176
     0
 90
        0
176
     0
 40
0.6
176
     0
 40
30.0
176
     0
 62
     7
420
 16777215
176
     0
 90
        1
176
     0
 90
        4
176
     0
 62
     7
176
     0
 62
   257
176
     0
 90
        1
176
     0
 90
        1
176
     0
 40
1.0
176
     0
 90
        9
176
     2
 62
     7
176
     0
 40
1.0
176
     0
 90
        1
176
     0
 90
        6
176
     0
 90
        2
176
     0
 62
     7
176
     0
 90
        5
176
     0
 90
        0
176
     0
 90
        0
176
     0
290
     0
176
     0
 90
        1
176
     0
 40
0.0
176
     0
 90
        0
176
     0
290
     0
176
     0
290
     1
176
     0
290
     1
176
     0
290
     0
176
     0
290
     0
176
     0
290
     0
176
     0
290
     0
176
     0
290
     0
176
     0
290
     0
176
     0
 90
       50
176
     0
 40
0.0
176
     0
 40
1.0
176
     0
 90
        0
176
     0
 62
    18
420
        0
176
     0
 90
       50
176
     0
 90
        3
176
     0
 62
     5
420
      255
176
     0
290
     0
176
     0
 90
       50
176
     0
 90
       50
176
     0
 90
       50
176
     0
290
     0
176
     0
 90
       50
176
     0
 62
   256
176
     0
 40
1.0
176
     0
 90
        2
176
     0
  1
strokes_ogs.tif
176
     0
290
     0
176
     0
 40
1.0
176
     0
 40
1.0
176
     0
  0
VISUALSTYLE
  5
33
102
{ACAD_REACTORS
330
2A
102
}
330
2A
100
AcDbVisualStyle
  2
Realistic
 70
     8
177
     3
291
     0
 70
    58
 90
        2
176
     1
 90
        3
176
     1
 90
        0
176
     1
 90
        2
176
     1
 40
0.6
176
     1
 40
30.0
176
     1
 62
     7
420
 16777215
176
     1
 90
        0
176
     1
 90
        0
176
     1
 62
     7
176
     1
 62
   257
176
     1
 90
        1
176
     1
 90
        1
176
     1
 40
1.0
176
     1
 90
        8
176
     1
 62
   257
176
     1
 40
1.0
176
     1
 90
        1
176
     1
 90
        6
176
     1
 90
        2
176
     1
 62
     7
176
     1
 90
        3
176
     1
 90
        0
176
     1
 90
        0
176
     1
290
     0
176
     1
 90
       13
176
     1
 40
0.0
176
     1
 90
        0
176
     1
290
     0
176
     1
290
     1
176
     1
290
     1
176
     1
290
     0
176
     1
290
     0
176
     1
290
     0
176
     1
290
     0
176
     1
290
     0
176
     1
290
     0
176
     1
 90
       50
176
     1
 40
0.0
176
     1
 40
1.0
176
     1
 90
        0
176
     1
 62
    18
420
        0
176
     1
 90
       50
176
     1
 90
        3
176
     1
 62
     5
420
      255
176
     1
290
     0
176
     1
 90
       50
176
     1
 90
       50
176
     1
 90
       50
176
     1
290
     0
176
     1
 90
       50
176
     1
 62
   256
176
     0
 40
1.0
176
     0
 90
        2
176
     1
  1
strokes_ogs.tif
176
     1
290
     0
176
     1
 40
1.0
176
     1
 40
1.0
176
     1
  0
VISUALSTYLE
  5
42
102
{ACAD_REACTORS
330
2A
102
}
330
2A
100
AcDbVisualStyle
  2
Shaded
 70
    27
177
     3
291
     0
 70
    58
 90
        2
176
     1
 90
        2
176
     1
 90
        1
176
     1
 90
        2
176
     1
 40
0.6
176
     1
 40
30.0
176
     1
 62
     7
420
 16777215
176
     1
 90
        0
176
     1
 90
        4
176
     1
 62
     7
176
     1
 62
   257
176
     1
 90
        1
176
     1
 90
        1
176
     1
 40
1.0
176
     1
 90
        8
176
     1
 62
   257
176
     1
 40
1.0
176
     1
 90
        1
176
     1
 90
        6
176
     1
 90
        2
176
     1
 62
     8
420
  7895160
176
     1
 90
        3
176
     1
 90
        0
176
     1
 90
        0
176
     1
290
     0
176
     1
 90
        5
176
     1
 40
0.0
176
     1
 90
        0
176
     1
290
     0
176
     1
290
     1
176
     1
290
     1
176
     1
290
     0
176
     1
290
     0
176
     1
290
     0
176
     1
290
     0
176
     1
290
     0
176
     1
290
     0
176
     1
 90
       50
176
     1
 40
0.0
176
     1
 40
1.0
176
     1
 90
        0
176
     1
 62
    18
420
        0
176
     1
 90
       50
176
     1
 90
        3
176
     1
 62
     5
420
      255
176
     1
290
     0
176
     1
 90
       50
176
     1
 90
       50
176
     1
 90
       50
176
     1
290
     0
176
     1
 90
       50
176
     1
 62
   256
176
     0
 40
1.0
176
     0
 90
        2
176
     1
  1
strokes_ogs.tif
176
     1
290
     0
176
     1
 40
1.0
176
     1
 40
1.0
176
     1
  0
VISUALSTYLE
  5
41
102
{ACAD_REACTORS
330
2A
102
}
330
2A
100
AcDbVisualStyle
  2
Shaded with edges
 70
    26
177
     3
291
     0
 70
    58
 90
        2
176
     1
 90
        2
176
     1
 90
        1
176
     1
 90
        2
176
     1
 40
0.6
176
     1
 40
30.0
176
     1
 62
     7
420
 16777215
176
     1
 90
        1
176
     1
 90
       10
176
     1
 62
     7
176
     1
 62
   257
176
     1
 90
        2
176
     1
 90
        1
176
     1
 40
1.0
176
     1
 90
        8
176
     1
 62
   257
176
     1
 40
1.0
176
     1
 90
        1
176
     1
 90
        6
176
     1
 90
        2
176
     1
 62
     7
176
     1
 90
        3
176
     1
 90
        0
176
     1
 90
        0
176
     1
290
     0
176
     1
 90
        5
176
     1
 40
0.0
176
     1
 90
        0
176
     1
290
     0
176
     1
290
     1
176
     1
290
     1
176
     1
290
     0
176
     1
290
     0
176
     1
290
     0
176
     1
290
     0
176
     1
290
     0
176
     1
290
     0
176
     1
 90
       50
176
     1
 40
0.0
176
     1
 40
1.0
176
     1
 90
        0
176
     1
 62
    18
420
        0
176
     1
 90
       50
176
     1
 90
        3
176
     1
 62
     5
420
      255
176
     1
290
     0
176
     1
 90
       50
176
     1
 90
       50
176
     1
 90
       50
176
     1
290
     0
176
     1
 90
       50
176
     1
 62
   256
176
     0
 40
1.0
176
     0
 90
        2
176
     1
  1
strokes_ogs.tif
176
     1
290
     0
176
     1
 40
1.0
176
     1
 40
1.0
176
     1
  0
VISUALSTYLE
  5
3E
102
{ACAD_REACTORS
330
2A
102
}
330
2A
100
AcDbVisualStyle
  2
Shades of Gray
 70
    23
177
     3
291
     0
 70
    58
 90
        2
176
     1
 90
        2
176
     1
 90
        3
176
     1
 90
        0
176
     1
 40
0.6
176
     1
 40
30.0
176
     1
 62
     7
420
 16777215
176
     1
 90
        2
176
     1
 90
        2
176
     1
 62
     7
176
     1
 62
     7
176
     1
 90
        1
176
     1
 90
        1
176
     1
 40
40.0
176
     1
 90
        8
176
     1
 62
     7
176
     1
 40
1.0
176
     1
 90
        1
176
     1
 90
        6
176
     1
 90
        2
176
     1
 62
     7
176
     1
 90
        3
176
     1
 90
        0
176
     1
 90
        0
176
     1
290
     0
176
     1
 90
        1
176
     1
 40
0.0
176
     1
 90
        0
176
     1
290
     0
176
     1
290
     1
176
     1
290
     1
176
     1
290
     0
176
     1
290
     0
176
     1
290
     0
176
     1
290
     0
176
     1
290
     0
176
     1
290
     0
176
     1
 90
       50
176
     1
 40
0.0
176
     1
 40
1.0
176
     1
 90
        0
176
     1
 62
    18
420
        0
176
     1
 90
       50
176
     1
 90
        3
176
     1
 62
     5
420
      255
176
     1
290
     0
176
     1
 90
       50
176
     1
 90
       50
176
     1
 90
       50
176
     1
290
     0
176
     1
 90
       50
176
     1
 62
   256
176
     0
 40
1.0
176
     0
 90
        2
176
     1
  1
strokes_ogs.tif
176
     1
290
     0
176
     1
 40
1.0
176
     1
 40
1.0
176
     1
  0
VISUALSTYLE
  5
3F
102
{ACAD_REACTORS
330
2A
102
}
330
2A
100
AcDbVisualStyle
  2
Sketchy
 70
    24
177
     3
291
     0
 70
    58
 90
        1
176
     1
 90
        2
176
     1
 90
        2
176
     1
 90
        0
176
     1
 40
0.6
176
     1
 40
30.0
176
     1
 62
     7
420
 16777215
176
     1
 90
        2
176
     1
 90
        2
176
     1
 62
     7
176
     1
 62
     7
176
     1
 90
        1
176
     1
 90
        1
176
     1
 40
40.0
176
     1
 90
       11
176
     1
 62
     7
176
     1
 40
1.0
176
     1
 90
        1
176
     1
 90
        6
176
     1
 90
        2
176
     1
 62
     7
176
     1
 90
        6
176
     1
 90
        0
176
     1
 90
        0
176
     1
290
     0
176
     1
 90
        1
176
     1
 40
0.0
176
     1
 90
        0
176
     1
290
     0
176
     1
290
     1
176
     1
290
     1
176
     1
290
     0
176
     1
290
     0
176
     1
290
     0
176
     1
290
     0
176
     1
290
     0
176
     1
290
     0
176
     1
 90
       50
176
     1
 40
0.0
176
     1
 40
1.0
176
     1
 90
        0
176
     1
 62
    18
420
        0
176
     1
 90
       50
176
     1
 90
        3
176
     1
 62
     5
420
      255
176
     1
290
     0
176
     1
 90
       50
176
     1
 90
       50
176
     1
 90
       50
176
     1
290
     0
176
     1
 90
       50
176
     1
 62
   256
176
     0
 40
1.0
176
     0
 90
        2
176
     1
  1
strokes_ogs.tif
176
     1
290
     0
176
     1
 40
1.0
176
     1
 40
1.0
176
     1
  0
VISUALSTYLE
  5
37
102
{ACAD_REACTORS
330
2A
102
}
330
2A
100
AcDbVisualStyle
  2
Thicken
 70
    13
177
     3
291
     1
 70
    58
 90
        2
176
     1
 90
        2
176
     1
 90
        0
176
     1
 90
        0
176
     1
 40
0.6
176
     1
 40
30.0
176
     1
 62
     7
420
 16777215
176
     1
 90
        1
176
     1
 90
        4
176
     1
 62
     7
176
     1
 62
   257
176
     1
 90
        1
176
     1
 90
        1
176
     1
 40
1.0
176
     1
 90
       12
176
     1
 62
     7
176
     1
 40
1.0
176
     1
 90
        1
176
     1
 90
        6
176
     1
 90
        2
176
     1
 62
     7
176
     1
 90
        5
176
     1
 90
        0
176
     1
 90
        0
176
     1
290
     0
176
     1
 90
        1
176
     1
 40
0.0
176
     1
 90
        0
176
     1
290
     0
176
     1
290
     1
176
     1
290
     1
176
     1
290
     0
176
     1
290
     0
176
     1
290
     0
176
     1
290
     0
176
     1
290
     0
176
     1
290
     0
176
     1
 90
       50
176
     1
 40
0.0
176
     1
 40
1.0
176
     1
 90
        0
176
     1
 62
    18
420
        0
176
     1
 90
       50
176
     1
 90
        3
176
     1
 62
     5
420
      255
176
     1
290
     0
176
     1
 90
       50
176
     1
 90
       50
176
     1
 90
       50
176
     1
290
     0
176
     1
 90
       50
176
     1
 62
   256
176
     0
 40
1.0
176
     0
 90
        2
176
     1
  1
strokes_ogs.tif
176
     1
290
     0
176
     1
 40
1.0
176
     1
 40
1.0
176
     1
  0
VISUALSTYLE
  5
30
102
{ACAD_REACTORS
330
2A
102
}
330
2A
100
AcDbVisualStyle
  2
Wireframe
 70
     5
177
     3
291
     0
 70
    58
 90
        0
176
     1
 90
        2
176
     1
 90
        0
176
     1
 90
        0
176
     1
 40
0.6
176
     1
 40
30.0
176
     1
 62
     7
420
 16777215
176
     1
 90
        1
176
     1
 90
        4
176
     1
 62
     7
176
     1
 62
   257
176
     1
 90
        1
176
     1
 90
        1
176
     1
 40
1.0
176
     1
 90
        0
176
     1
 62
   257
176
     1
 40
1.0
176
     1
 90
        1
176
     1
 90
        6
176
     1
 90
        2
176
     1
 62
     7
176
     1
 90
        3
176
     1
 90
        0
176
     1
 90
        0
176
     1
290
     0
176
     1
 90
        1
176
     1
 40
0.0
176
     1
 90
        0
176
     1
290
     0
176
     1
290
     1
176
     1
290
     1
176
     1
290
     0
176
     1
290
     0
176
     1
290
     0
176
     1
290
     0
176
     1
290
     0
176
     1
290
     0
176
     1
 90
       50
176
     1
 40
0.0
176
     1
 40
1.0
176
     1
 90
        0
176
     1
 62
    18
420
        0
176
     1
 90
       50
176
     1
 90
        3
176
     1
 62
     5
420
      255
176
     1
290
     0
176
     1
 90
       50
176
     1
 90
       50
176
     1
 90
       50
176
     1
290
     0
176
     1
 90
       50
176
     1
 62
   256
176
     0
 40
1.0
176
     0
 90
        2
176
     1
  1
strokes_ogs.tif
176
     1
290
     0
176
     1
 40
1.0
176
     1
 40
1.0
176
     1
  0
VISUALSTYLE
  5
40
102
{ACAD_REACTORS
330
2A
102
}
330
2A
100
AcDbVisualStyle
  2
X-Ray
 70
    25
177
     3
291
     0
 70
    58
 90
        2
176
     1
 90
        2
176
     1
 90
        1
176
     1
 90
        1
176
     1
 40
0.5
176
     1
 40
30.0
176
     1
 62
     7
420
 16777215
176
     1
 90
        1
176
     1
 90
        0
176
     1
 62
     7
176
     1
 62
   257
176
     1
 90
        1
176
     1
 90
        1
176
     1
 40
1.0
176
     1
 90
        8
176
     1
 62
     7
176
     1
 40
1.0
176
     1
 90
        1
176
     1
 90
        6
176
     1
 90
        2
176
     1
 62
     7
176
     1
 90
        3
176
     1
 90
        0
176
     1
 90
        0
176
     1
290
     0
176
     1
 90
       13
176
     1
 40
0.0
176
     1
 90
        0
176
     1
290
     0
176
     1
290
     1
176
     1
290
     1
176
     1
290
     0
176
     1
290
     0
176
     1
290
     0
176
     1
290
     0
176
     1
290
     0
176
     1
290
     0
176
     1
 90
       50
176
     1
 40
0.0
176
     1
 40
1.0
176
     1
 90
        0
176
     1
 62
    18
420
        0
176
     1
 90
       50
176
     1
 90
        3
176
     1
 62
     5
420
      255
176
     1
290
     0
176
     1
 90
       50
176
     1
 90
       50
176
     1
 90
       50
176
     1
290
     0
176
     1
 90
       50
176
     1
 62
   256
176
     0
 40
1.0
176
     0
 90
        2
176
     1
  1
strokes_ogs.tif
176
     1
290
     0
176
     1
 40
1.0
176
     1
 40
1.0
176
     1
  0
DICTIONARYVAR
  5
2B2
102
{ACAD_REACTORS
330
2B1
102
}
330
2B1
100
DictionaryVariables
280
     0
  1
1:1
  0
DICTIONARYVAR
  5
2BA
102
{ACAD_REACTORS
330
2B1
102
}
330
2B1
100
DictionaryVariables
280
     0
  1
3.500000
  0
DICTIONARYVAR
  5
2BB
102
{ACAD_REACTORS
330
2B1
102
}
330
2B1
100
DictionaryVariables
280
     0
  1
acadiso.lin
  0
DICTIONARYVAR
  5
2B7
102
{ACAD_REACTORS
330
2B1
102
}
330
2B1
100
DictionaryVariables
280
     0
  1
Standard
  0
DICTIONARYVAR
  5
2B6
102
{ACAD_REACTORS
330
2B1
102
}
330
2B1
100
DictionaryVariables
280
     0
  1
Standard
  0
DICTIONARY
  5
2B3
330
6A
100
AcDbDictionary
280
     1
281
     1
  3
ACAD_ROUNDTRIP_2008_TABLESTYLE_CELLSTYLEMAP
360
2B4
  0
CELLSTYLEMAP
  5
2B4
102
{ACAD_REACTORS
330
2B3
102
}
330
2B3
100
AcDbCellStyleMap
 90
        3
300
CELLSTYLE
  1
TABLEFORMAT_BEGIN
 90
        5
170
     1
 91
        0
 92
    32768
 62
   257
 93
        1
300
CONTENTFORMAT
  1
CONTENTFORMAT_BEGIN
 90
        0
 91
        0
 92
        4
 93
        0
300

 40
0.0
140
1.0
 94
        5
 62
     0
340
11
144
6.0
309
CONTENTFORMAT_END
171
     1
301
MARGIN
  1
CELLMARGIN_BEGIN
 40
1.5
 40
1.5
 40
1.5
 40
1.5
 40
1.5
 40
1.5
309
CELLMARGIN_END
 94
        6
 95
        1
302
GRIDFORMAT
  1
GRIDFORMAT_BEGIN
 90
        0
 91
        1
 62
     0
 92
       -2
340
14
 93
        0
 40
0.045
309
GRIDFORMAT_END
 95
        2
302
GRIDFORMAT
  1
GRIDFORMAT_BEGIN
 90
        0
 91
        1
 62
     0
 92
       -2
340
14
 93
        0
 40
0.045
309
GRIDFORMAT_END
 95
        4
302
GRIDFORMAT
  1
GRIDFORMAT_BEGIN
 90
        0
 91
        1
 62
     0
 92
       -2
340
14
 93
        0
 40
0.045
309
GRIDFORMAT_END
 95
        8
302
GRIDFORMAT
  1
GRIDFORMAT_BEGIN
 90
        0
 91
        1
 62
     0
 92
       -2
340
14
 93
        0
 40
0.045
309
GRIDFORMAT_END
 95
       16
302
GRIDFORMAT
  1
GRIDFORMAT_BEGIN
 90
        0
 91
        1
 62
     0
 92
       -2
340
14
 93
        0
 40
0.045
309
GRIDFORMAT_END
 95
       32
302
GRIDFORMAT
  1
GRIDFORMAT_BEGIN
 90
        0
 91
        1
 62
     0
 92
       -2
340
14
 93
        0
 40
0.045
309
GRIDFORMAT_END
309
TABLEFORMAT_END
  1
CELLSTYLE_BEGIN
 90
        1
 91
        1
300
_TITLE
309
CELLSTYLE_END
300
CELLSTYLE
  1
TABLEFORMAT_BEGIN
 90
        5
170
     1
 91
        0
 92
        0
 62
   257
 93
        1
300
CONTENTFORMAT
  1
CONTENTFORMAT_BEGIN
 90
        0
 91
        0
 92
        4
 93
        0
300

 40
0.0
140
1.0
 94
        5
 62
     0
340
11
144
4.5
309
CONTENTFORMAT_END
171
     1
301
MARGIN
  1
CELLMARGIN_BEGIN
 40
1.5
 40
1.5
 40
1.5
 40
1.5
 40
1.5
 40
1.5
309
CELLMARGIN_END
 94
        6
 95
        1
302
GRIDFORMAT
  1
GRIDFORMAT_BEGIN
 90
        0
 91
        1
 62
     0
 92
       -2
340
14
 93
        0
 40
0.045
309
GRIDFORMAT_END
 95
        2
302
GRIDFORMAT
  1
GRIDFORMAT_BEGIN
 90
        0
 91
        1
 62
     0
 92
       -2
340
14
 93
        0
 40
0.045
309
GRIDFORMAT_END
 95
        4
302
GRIDFORMAT
  1
GRIDFORMAT_BEGIN
 90
        0
 91
        1
 62
     0
 92
       -2
340
14
 93
        0
 40
0.045
309
GRIDFORMAT_END
 95
        8
302
GRIDFORMAT
  1
GRIDFORMAT_BEGIN
 90
        0
 91
        1
 62
     0
 92
       -2
340
14
 93
        0
 40
0.045
309
GRIDFORMAT_END
 95
       16
302
GRIDFORMAT
  1
GRIDFORMAT_BEGIN
 90
        0
 91
        1
 62
     0
 92
       -2
340
14
 93
        0
 40
0.045
309
GRIDFORMAT_END
 95
       32
302
GRIDFORMAT
  1
GRIDFORMAT_BEGIN
 90
        0
 91
        1
 62
     0
 92
       -2
340
14
 93
        0
 40
0.045
309
GRIDFORMAT_END
309
TABLEFORMAT_END
  1
CELLSTYLE_BEGIN
 90
        2
 91
        1
300
_HEADER
309
CELLSTYLE_END
300
CELLSTYLE
  1
TABLEFORMAT_BEGIN
 90
        5
170
     1
 91
        0
 92
        0
 62
   257
 93
        1
300
CONTENTFORMAT
  1
CONTENTFORMAT_BEGIN
 90
        0
 91
        0
 92
        4
 93
        0
300

 40
0.0
140
1.0
 94
        2
 62
     0
340
11
144
4.5
309
CONTENTFORMAT_END
171
     1
301
MARGIN
  1
CELLMARGIN_BEGIN
 40
1.5
 40
1.5
 40
1.5
 40
1.5
 40
1.5
 40
1.5
309
CELLMARGIN_END
 94
        6
 95
        1
302
GRIDFORMAT
  1
GRIDFORMAT_BEGIN
 90
        0
 91
        1
 62
     0
 92
       -2
340
14
 93
        0
 40
0.045
309
GRIDFORMAT_END
 95
        2
302
GRIDFORMAT
  1
GRIDFORMAT_BEGIN
 90
        0
 91
        1
 62
     0
 92
       -2
340
14
 93
        0
 40
0.045
309
GRIDFORMAT_END
 95
        4
302
GRIDFORMAT
  1
GRIDFORMAT_BEGIN
 90
        0
 91
        1
 62
     0
 92
       -2
340
14
 93
        0
 40
0.045
309
GRIDFORMAT_END
 95
        8
302
GRIDFORMAT
  1
GRIDFORMAT_BEGIN
 90
        0
 91
        1
 62
     0
 92
       -2
340
14
 93
        0
 40
0.045
309
GRIDFORMAT_END
 95
       16
302
GRIDFORMAT
  1
GRIDFORMAT_BEGIN
 90
        0
 91
        1
 62
     0
 92
       -2
340
14
 93
        0
 40
0.045
309
GRIDFORMAT_END
 95
       32
302
GRIDFORMAT
  1
GRIDFORMAT_BEGIN
 90
        0
 91
        1
 62
     0
 92
       -2
340
14
 93
        0
 40
0.045
309
GRIDFORMAT_END
309
TABLEFORMAT_END
  1
CELLSTYLE_BEGIN
 90
        3
 91
        2
300
_DATA
309
CELLSTYLE_END
  0
ENDSEC
  0
EOF
