  0
SECTION
  2
HEADER
  9
$ACADVER
  1
AC1032
  9
$ACADMAINTVER
 90
        4
  9
$DWGCODEPAGE
  3
ANSI_932
  9
$LASTSAVEDBY
  1
mizuki.kobayashi
  9
$REQUIREDVERSIONS
160
                 0
  9
$INSBASE
 10
0.0
 20
0.0
 30
0.0
  9
$EXTMIN
 10
-2100.0
 20
-1485.0
 30
0.0
  9
$EXTMAX
 10
2100.0
 20
1485.0
 30
0.0
  9
$LIMMIN
 10
-2100.0
 20
-1485.0
  9
$LIMMAX
 10
2100.0
 20
1485.0
  9
$ORTHOMODE
 70
     0
  9
$REGENMODE
 70
     1
  9
$FILLMODE
 70
     1
  9
$QTEXTMODE
 70
     0
  9
$MIRRTEXT
 70
     1
  9
$LTSCALE
 40
10.0
  9
$ATTMODE
 70
     1
  9
$TEXTSIZE
 40
2.5
  9
$TRACEWID
 40
1.0
  9
$TEXTSTYLE
  7
Standard
  9
$CLAYER
  8
0
  9
$CELTYPE
  6
ByLayer
  9
$CECOLOR
 62
   256
  9
$CELTSCALE
 40
1.0
  9
$DISPSILH
 70
     0
  9
$DIMSCALE
 40
1.0
  9
$DIMASZ
 40
2.5
  9
$DIMEXO
 40
0.625
  9
$DIMDLI
 40
3.75
  9
$DIMRND
 40
0.0
  9
$DIMDLE
 40
0.0
  9
$DIMEXE
 40
1.25
  9
$DIMTP
 40
0.0
  9
$DIMTM
 40
0.0
  9
$DIMTXT
 40
2.5
  9
$DIMCEN
 40
2.5
  9
$DIMTSZ
 40
0.0
  9
$DIMTOL
 70
     0
  9
$DIMLIM
 70
     0
  9
$DIMTIH
 70
     0
  9
$DIMTOH
 70
     0
  9
$DIMSE1
 70
     0
  9
$DIMSE2
 70
     0
  9
$DIMTAD
 70
     1
  9
$DIMZIN
 70
     8
  9
$DIMBLK
  1

  9
$DIMASO
 70
     1
  9
$DIMSHO
 70
     1
  9
$DIMPOST
  1

  9
$DIMAPOST
  1

  9
$DIMALT
 70
     0
  9
$DIMALTD
 70
     3
  9
$DIMALTF
 40
0.03937007874016
  9
$DIMLFAC
 40
1.0
  9
$DIMTOFL
 70
     1
  9
$DIMTVP
 40
0.0
  9
$DIMTIX
 70
     0
  9
$DIMSOXD
 70
     0
  9
$DIMSAH
 70
     0
  9
$DIMBLK1
  1

  9
$DIMBLK2
  1

  9
$DIMSTYLE
  2
ISO-25
  9
$DIMCLRD
 70
     0
  9
$DIMCLRE
 70
     0
  9
$DIMCLRT
 70
     0
  9
$DIMTFAC
 40
1.0
  9
$DIMGAP
 40
0.625
  9
$DIMJUST
 70
     0
  9
$DIMSD1
 70
     0
  9
$DIMSD2
 70
     0
  9
$DIMTOLJ
 70
     0
  9
$DIMTZIN
 70
     8
  9
$DIMALTZ
 70
     0
  9
$DIMALTTZ
 70
     0
  9
$DIMUPT
 70
     0
  9
$DIMDEC
 70
     2
  9
$DIMTDEC
 70
     2
  9
$DIMALTU
 70
     2
  9
$DIMALTTD
 70
     3
  9
$DIMTXSTY
  7
Standard
  9
$DIMAUNIT
 70
     0
  9
$DIMADEC
 70
     0
  9
$DIMALTRND
 40
0.0
  9
$DIMAZIN
 70
     0
  9
$DIMDSEP
 70
    44
  9
$DIMATFIT
 70
     3
  9
$DIMFRAC
 70
     0
  9
$DIMLDRBLK
  1

  9
$DIMLUNIT
 70
     2
  9
$DIMLWD
 70
    -2
  9
$DIMLWE
 70
    -2
  9
$DIMTMOVE
 70
     0
  9
$DIMFXL
 40
1.0
  9
$DIMFXLON
 70
     0
  9
$DIMJOGANG
 40
0.7853981633974483
  9
$DIMTFILL
 70
     0
  9
$DIMTFILLCLR
 70
     0
  9
$DIMARCSYM
 70
     0
  9
$DIMLTYPE
  6

  9
$DIMLTEX1
  6

  9
$DIMLTEX2
  6

  9
$DIMTXTDIRECTION
 70
     0
  9
$LUNITS
 70
     2
  9
$LUPREC
 70
     4
  9
$SKETCHINC
 40
1.0
  9
$FILLETRAD
 40
10.0
  9
$AUNITS
 70
     0
  9
$AUPREC
 70
     0
  9
$MENU
  1
.
  9
$ELEVATION
 40
0.0
  9
$PELEVATION
 40
0.0
  9
$THICKNESS
 40
0.0
  9
$LIMCHECK
 70
     0
  9
$CHAMFERA
 40
0.0
  9
$CHAMFERB
 40
0.0
  9
$CHAMFERC
 40
0.0
  9
$CHAMFERD
 40
0.0
  9
$SKPOLY
 70
     0
  9
$TDCREATE
 40
2459192.417855845
  9
$TDUCREATE
 40
2459192.042855845
  9
$TDUPDATE
 40
2459192.417855949
  9
$TDUUPDATE
 40
2459192.042855949
  9
$TDINDWG
 40
0.0000000116
  9
$TDUSRTIMER
 40
0.0000000116
  9
$USRTIMER
 70
     1
  9
$ANGBASE
 50
0.0
  9
$ANGDIR
 70
     0
  9
$PDMODE
 70
     0
  9
$PDSIZE
 40
0.0
  9
$PLINEWID
 40
0.0
  9
$SPLFRAME
 70
     0
  9
$SPLINETYPE
 70
     6
  9
$SPLINESEGS
 70
     8
  9
$HANDSEED
  5
2D8
  9
$SURFTAB1
 70
     6
  9
$SURFTAB2
 70
     6
  9
$SURFTYPE
 70
     6
  9
$SURFU
 70
     6
  9
$SURFV
 70
     6
  9
$UCSBASE
  2

  9
$UCSNAME
  2

  9
$UCSORG
 10
0.0
 20
0.0
 30
0.0
  9
$UCSXDIR
 10
1.0
 20
0.0
 30
0.0
  9
$UCSYDIR
 10
0.0
 20
1.0
 30
0.0
  9
$UCSORTHOREF
  2

  9
$UCSORTHOVIEW
 70
     0
  9
$UCSORGTOP
 10
0.0
 20
0.0
 30
0.0
  9
$UCSORGBOTTOM
 10
0.0
 20
0.0
 30
0.0
  9
$UCSORGLEFT
 10
0.0
 20
0.0
 30
0.0
  9
$UCSORGRIGHT
 10
0.0
 20
0.0
 30
0.0
  9
$UCSORGFRONT
 10
0.0
 20
0.0
 30
0.0
  9
$UCSORGBACK
 10
0.0
 20
0.0
 30
0.0
  9
$PUCSBASE
  2

  9
$PUCSNAME
  2

  9
$PUCSORG
 10
0.0
 20
0.0
 30
0.0
  9
$PUCSXDIR
 10
1.0
 20
0.0
 30
0.0
  9
$PUCSYDIR
 10
0.0
 20
1.0
 30
0.0
  9
$PUCSORTHOREF
  2

  9
$PUCSORTHOVIEW
 70
     0
  9
$PUCSORGTOP
 10
0.0
 20
0.0
 30
0.0
  9
$PUCSORGBOTTOM
 10
0.0
 20
0.0
 30
0.0
  9
$PUCSORGLEFT
 10
0.0
 20
0.0
 30
0.0
  9
$PUCSORGRIGHT
 10
0.0
 20
0.0
 30
0.0
  9
$PUCSORGFRONT
 10
0.0
 20
0.0
 30
0.0
  9
$PUCSORGBACK
 10
0.0
 20
0.0
 30
0.0
  9
$USERI1
 70
     0
  9
$USERI2
 70
     0
  9
$USERI3
 70
     0
  9
$USERI4
 70
     0
  9
$USERI5
 70
     0
  9
$USERR1
 40
0.0
  9
$USERR2
 40
0.0
  9
$USERR3
 40
0.0
  9
$USERR4
 40
0.0
  9
$USERR5
 40
0.0
  9
$WORLDVIEW
 70
     1
  9
$SHADEDGE
 70
     3
  9
$SHADEDIF
 70
    70
  9
$TILEMODE
 70
     1
  9
$MAXACTVP
 70
    64
  9
$PINSBASE
 10
0.0
 20
0.0
 30
0.0
  9
$PLIMCHECK
 70
     0
  9
$PEXTMIN
 10
1.000000000000000E+20
 20
1.000000000000000E+20
 30
1.000000000000000E+20
  9
$PEXTMAX
 10
-1.000000000000000E+20
 20
-1.000000000000000E+20
 30
-1.000000000000000E+20
  9
$PLIMMIN
 10
0.0
 20
0.0
  9
$PLIMMAX
 10
420.0
 20
297.0
  9
$UNITMODE
 70
     0
  9
$VISRETAIN
 70
     1
  9
$PLINEGEN
 70
     0
  9
$PSLTSCALE
 70
     1
  9
$TREEDEPTH
 70
  3020
  9
$CMLSTYLE
  2
Standard
  9
$CMLJUST
 70
     0
  9
$CMLSCALE
 40
20.0
  9
$PROXYGRAPHICS
 70
     1
  9
$MEASUREMENT
 70
     1
  9
$CELWEIGHT
370
    -1
  9
$ENDCAPS
280
     0
  9
$JOINSTYLE
280
     0
  9
$LWDISPLAY
290
     0
  9
$INSUNITS
 70
     4
  9
$HYPERLINKBASE
  1

  9
$STYLESHEET
  1

  9
$XEDIT
290
     1
  9
$CEPSNTYPE
380
     0
  9
$PSTYLEMODE
290
     1
  9
$FINGERPRINTGUID
  2
{f971c832-1949-40c4-9f63-738a3b97c7f3}
  9
$VERSIONGUID
  2
{FAEB1C32-E019-11D5-929B-00C0DF256EC4}
  9
$EXTNAMES
290
     1
  9
$PSVPSCALE
 40
0.0
  9
$OLESTARTUP
290
     0
  9
$SORTENTS
280
   127
  9
$INDEXCTL
280
     0
  9
$HIDETEXT
280
     1
  9
$XCLIPFRAME
280
     2
  9
$HALOGAP
280
     0
  9
$OBSCOLOR
 70
   257
  9
$OBSLTYPE
280
     0
  9
$INTERSECTIONDISPLAY
280
     0
  9
$INTERSECTIONCOLOR
 70
   257
  9
$DIMASSOC
280
     2
  9
$PROJECTNAME
  1

  9
$CAMERADISPLAY
290
     0
  9
$LENSLENGTH
 40
50.0
  9
$CAMERAHEIGHT
 40
0.0
  9
$STEPSPERSEC
 40
2.0
  9
$STEPSIZE
 40
6.0
  9
$3DDWFPREC
 40
2.0
  9
$PSOLWIDTH
 40
5.0
  9
$PSOLHEIGHT
 40
80.0
  9
$LOFTANG1
 40
1.570796326794897
  9
$LOFTANG2
 40
1.570796326794897
  9
$LOFTMAG1
 40
0.0
  9
$LOFTMAG2
 40
0.0
  9
$LOFTPARAM
 70
     7
  9
$LOFTNORMALS
280
     1
  9
$LATITUDE
 40
37.795
  9
$LONGITUDE
 40
-122.394
  9
$NORTHDIRECTION
 40
0.0
  9
$TIMEZONE
 70
 -8000
  9
$LIGHTGLYPHDISPLAY
280
     1
  9
$TILEMODELIGHTSYNCH
280
     1
  9
$CMATERIAL
347
44
  9
$SOLIDHIST
280
     0
  9
$SHOWHIST
280
     1
  9
$DWFFRAME
280
     2
  9
$DGNFRAME
280
     2
  9
$REALWORLDSCALE
290
     1
  9
$INTERFERECOLOR
 62
   256
  9
$CSHADOW
280
     0
  9
$SHADOWPLANELOCATION
 40
0.0
  0
ENDSEC
  0
SECTION
  2
CLASSES
  0
CLASS
  1
ACDBDICTIONARYWDFLT
  2
AcDbDictionaryWithDefault
  3
ObjectDBX Classes
 90
        0
 91
        3
280
     0
281
     0
  0
CLASS
  1
VISUALSTYLE
  2
AcDbVisualStyle
  3
ObjectDBX Classes
 90
     4095
 91
        3
280
     0
281
     0
  0
CLASS
  1
MATERIAL
  2
AcDbMaterial
  3
ObjectDBX Classes
 90
     1153
 91
        3
280
     0
281
     0
  0
CLASS
  1
SCALE
  2
AcDbScale
  3
ObjectDBX Classes
 90
     1153
 91
        3
280
     0
281
     0
  0
CLASS
  1
TABLESTYLE
  2
AcDbTableStyle
  3
ObjectDBX Classes
 90
     4095
 91
        3
280
     0
281
     0
  0
CLASS
  1
MLEADERSTYLE
  2
AcDbMLeaderStyle
  3
ACDB_MLEADERSTYLE_CLASS
 90
     4095
 91
        3
280
     0
281
     0
  0
CLASS
  1
SUN
  2
AcDbSun
  3
SCENEOE
 90
     1153
 91
        3
280
     0
281
     0
  0
CLASS
  1
DICTIONARYVAR
  2
AcDbDictionaryVar
  3
ObjectDBX Classes
 90
        0
 91
        3
280
     0
281
     0
  0
CLASS
  1
CELLSTYLEMAP
  2
AcDbCellStyleMap
  3
ObjectDBX Classes
 90
     1152
 91
        3
280
     0
281
     0
  0
ENDSEC
  0
SECTION
  2
TABLES
  0
TABLE
  2
VPORT
  5
8
330
0
100
AcDbSymbolTable
 70
     1
  0
VPORT
  5
29
330
8
100
AcDbSymbolTableRecord
100
AcDbViewportTableRecord
  2
*Active
 70
     0
 10
0.0
 20
0.0
 11
1.0
 21
1.0
 12
0.0
 22
0.0
 13
0.0
 23
0.0
 14
10.0
 24
10.0
 15
10.0
 25
10.0
 16
0.0
 26
0.0
 36
1.0
 17
0.0
 27
0.0
 37
0.0
 40
3267.0
 41
1.414141414141414
 42
50.0
 43
0.0
 44
0.0
 50
0.0
 51
0.0
 71
     0
 72
 10000
 73
     1
 74
     3
 75
     0
 76
     0
 77
     0
 78
     0
281
     0
 65
     1
110
0.0
120
0.0
130
0.0
111
1.0
121
0.0
131
0.0
112
0.0
122
1.0
132
0.0
 79
     0
146
0.0
348
2F
 60
     3
 61
     5
292
     1
282
     1
141
0.0
142
0.0
 63
   250
361
6D
  0
ENDTAB
  0
TABLE
  2
LTYPE
  5
5
330
0
100
AcDbSymbolTable
 70
     4
  0
LTYPE
  5
14
330
5
100
AcDbSymbolTableRecord
100
AcDbLinetypeTableRecord
  2
ByBlock
 70
     0
  3

 72
    65
 73
     0
 40
0.0
  0
LTYPE
  5
15
330
5
100
AcDbSymbolTableRecord
100
AcDbLinetypeTableRecord
  2
ByLayer
 70
     0
  3

 72
    65
 73
     0
 40
0.0
  0
LTYPE
  5
16
330
5
100
AcDbSymbolTableRecord
100
AcDbLinetypeTableRecord
  2
Continuous
 70
     0
  3
Solid line
 72
    65
 73
     0
 40
0.0
  0
LTYPE
  5
6F
330
5
100
AcDbSymbolTableRecord
100
AcDbLinetypeTableRecord
  2
JWW_CENTER1
 70
     0
  3
-----  --  ----------  --  -----
 72
    65
 73
     8
 40
13.54666666666667
 49
4.233333333333333
 74
     0
 49
-0.8466666666666667
 74
     0
 49
0.8466666666666667
 74
     0
 49
-0.8466666666666667
 74
     0
 49
4.233333333333333
 74
     0
 49
-0.8466666666666667
 74
     0
 49
0.8466666666666667
 74
     0
 49
-0.8466666666666667
 74
     0
  0
LTYPE
  5
70
330
5
100
AcDbSymbolTableRecord
100
AcDbLinetypeTableRecord
  2
JWW_DASHED1
 70
     0
  3
-  --  --  --  --  --  --  --  -
 72
    65
 73
    12
 40
10.16
 49
0.8466666666666667
 74
     0
 49
-0.8466666666666667
 74
     0
 49
0.8466666666666667
 74
     0
 49
-0.8466666666666667
 74
     0
 49
0.8466666666666667
 74
     0
 49
-0.8466666666666667
 74
     0
 49
0.8466666666666667
 74
     0
 49
-0.8466666666666667
 74
     0
 49
0.8466666666666667
 74
     0
 49
-0.8466666666666667
 74
     0
 49
0.8466666666666667
 74
     0
 49
-0.8466666666666667
 74
     0
  0
LTYPE
  5
71
330
5
100
AcDbSymbolTableRecord
100
AcDbLinetypeTableRecord
  2
JWW_HOJO
 70
     0
  3
  -   -   -   -   -   -   -   - 
 72
    65
 73
    12
 40
10.16
 49
-1.27
 74
     0
 49
0.4233333333333333
 74
     0
 49
-1.27
 74
     0
 49
0.4233333333333333
 74
     0
 49
-1.27
 74
     0
 49
0.4233333333333333
 74
     0
 49
-1.27
 74
     0
 49
0.4233333333333333
 74
     0
 49
-1.27
 74
     0
 49
0.4233333333333333
 74
     0
 49
-1.27
 74
     0
 49
0.4233333333333333
 74
     0
  0
ENDTAB
  0
TABLE
  2
LAYER
  5
2
330
0
100
AcDbSymbolTable
 70
    14
  0
LAYER
  5
10
330
2
100
AcDbSymbolTableRecord
100
AcDbLayerTableRecord
  2
0
 70
     0
 62
     7
  6
Continuous
370
    -3
390
F
347
46
348
0
  0
LAYER
  5
72
330
2
100
AcDbSymbolTableRecord
100
AcDbLayerTableRecord
  2
1-1
 70
     0
 62
     7
  6
Continuous
370
    -3
390
F
347
46
348
0
  0
LAYER
  5
73
330
2
100
AcDbSymbolTableRecord
100
AcDbLayerTableRecord
  2
1-8
 70
     0
 62
     7
  6
Continuous
370
    -3
390
F
347
46
348
0
  0
LAYER
  5
74
330
2
100
AcDbSymbolTableRecord
100
AcDbLayerTableRecord
  2
0-4
 70
     0
 62
     7
  6
Continuous
370
    -3
390
F
347
46
348
0
  0
LAYER
  5
75
330
2
100
AcDbSymbolTableRecord
100
AcDbLayerTableRecord
  2
1-4
 70
     0
 62
     7
  6
Continuous
370
    -3
390
F
347
46
348
0
  0
LAYER
  5
76
330
2
100
AcDbSymbolTableRecord
100
AcDbLayerTableRecord
  2
1-3
 70
     0
 62
     7
  6
Continuous
370
    -3
390
F
347
46
348
0
  0
LAYER
  5
77
330
2
100
AcDbSymbolTableRecord
100
AcDbLayerTableRecord
  2
0-1
 70
     0
 62
     7
  6
Continuous
370
    -3
390
F
347
46
348
0
  0
LAYER
  5
78
330
2
100
AcDbSymbolTableRecord
100
AcDbLayerTableRecord
  2
0-3
 70
     0
 62
     7
  6
Continuous
370
    -3
390
F
347
46
348
0
  0
LAYER
  5
79
330
2
100
AcDbSymbolTableRecord
100
AcDbLayerTableRecord
  2
0-B
 70
     0
 62
     7
  6
Continuous
370
    -3
390
F
347
46
348
0
  0
LAYER
  5
7A
330
2
100
AcDbSymbolTableRecord
100
AcDbLayerTableRecord
  2
0-6
 70
     0
 62
     7
  6
Continuous
370
    -3
390
F
347
46
348
0
  0
LAYER
  5
7B
330
2
100
AcDbSymbolTableRecord
100
AcDbLayerTableRecord
  2
1-5
 70
     0
 62
     7
  6
Continuous
370
    -3
390
F
347
46
348
0
  0
LAYER
  5
7C
330
2
100
AcDbSymbolTableRecord
100
AcDbLayerTableRecord
  2
1-9
 70
     0
 62
     7
  6
Continuous
370
    -3
390
F
347
46
348
0
  0
LAYER
  5
7D
330
2
100
AcDbSymbolTableRecord
100
AcDbLayerTableRecord
  2
1-A
 70
     0
 62
     7
  6
Continuous
370
    -3
390
F
347
46
348
0
  0
LAYER
  5
7E
330
2
100
AcDbSymbolTableRecord
100
AcDbLayerTableRecord
  2
1-0
 70
     0
 62
     7
  6
Continuous
370
    -3
390
F
347
46
348
0
  0
ENDTAB
  0
TABLE
  2
STYLE
  5
3
330
0
100
AcDbSymbolTable
 70
     2
  0
STYLE
  5
11
330
3
100
AcDbSymbolTableRecord
100
AcDbTextStyleTableRecord
  2
Standard
 70
     0
 40
0.0
 41
1.0
 50
0.0
 71
     0
 42
2.5
  3
txt
  4

  0
STYLE
  5
6E
330
3
100
AcDbSymbolTableRecord
100
AcDbTextStyleTableRecord
  2
ＭＳ ゴシック
 70
     0
 40
0.0
 41
1.0
 50
0.0
 71
     0
 42
2.5
  3

  4

1001
ACAD
1000
MS Gothic
1071
    32817
  0
ENDTAB
  0
TABLE
  2
VIEW
  5
6
330
0
100
AcDbSymbolTable
 70
     0
  0
ENDTAB
  0
TABLE
  2
UCS
  5
7
330
0
100
AcDbSymbolTable
 70
     0
  0
ENDTAB
  0
TABLE
  2
APPID
  5
9
330
0
100
AcDbSymbolTable
 70
     1
  0
APPID
  5
12
330
9
100
AcDbSymbolTableRecord
100
AcDbRegAppTableRecord
  2
ACAD
 70
     0
  0
ENDTAB
  0
TABLE
  2
DIMSTYLE
  5
A
330
0
100
AcDbSymbolTable
 70
     2
100
AcDbDimStyleTable
  0
DIMSTYLE
105
27
330
A
100
AcDbSymbolTableRecord
100
AcDbDimStyleTableRecord
  2
ISO-25
 70
     0
 41
2.5
 42
0.625
 43
3.75
 44
1.25
 73
     0
 74
     0
 77
     1
 78
     8
140
2.5
141
2.5
143
0.03937007874016
147
0.625
171
     3
172
     1
178
     0
271
     2
272
     2
274
     3
278
    44
283
     0
284
     8
340
11
  0
DIMSTYLE
105
7F
330
A
100
AcDbSymbolTableRecord
100
AcDbDimStyleTableRecord
  2
JWAC_DIMSTYLE
 70
     0
  3
x
  4
mm
 41
0.0
 42
0.625
 43
3.75
 44
1.25
 73
     0
 74
     0
 75
     1
 76
     1
 77
     1
 78
     8
140
2.5
141
2.5
143
0.03937007874016
147
0.625
171
     3
172
     1
173
     1
178
     0
271
     2
272
     2
274
     3
278
    32
283
     0
284
     8
340
11
371
     0
372
     0
  0
ENDTAB
  0
TABLE
  2
BLOCK_RECORD
  5
1
330
0
100
AcDbSymbolTable
 70
     1
  0
BLOCK_RECORD
  5
1F
330
1
100
AcDbSymbolTableRecord
100
AcDbBlockTableRecord
  2
*Model_Space
340
22
 70
     0
280
     1
281
     0
  0
BLOCK_RECORD
  5
1B
330
1
100
AcDbSymbolTableRecord
100
AcDbBlockTableRecord
  2
*Paper_Space
340
1E
 70
     0
280
     1
281
     0
  0
BLOCK_RECORD
  5
23
330
1
100
AcDbSymbolTableRecord
100
AcDbBlockTableRecord
  2
*Paper_Space0
340
26
 70
     0
280
     1
281
     0
  0
ENDTAB
  0
ENDSEC
  0
SECTION
  2
BLOCKS
  0
BLOCK
  5
20
330
1F
100
AcDbEntity
  8
0
100
AcDbBlockBegin
  2
*Model_Space
 70
     0
 10
0.0
 20
0.0
 30
0.0
  3
*Model_Space
  1

  0
ENDBLK
  5
21
330
1F
100
AcDbEntity
  8
0
100
AcDbBlockEnd
  0
BLOCK
  5
1C
330
1B
100
AcDbEntity
 67
     1
  8
0
100
AcDbBlockBegin
  2
*Paper_Space
 70
     0
 10
0.0
 20
0.0
 30
0.0
  3
*Paper_Space
  1

  0
ENDBLK
  5
1D
330
1B
100
AcDbEntity
 67
     1
  8
0
100
AcDbBlockEnd
  0
BLOCK
  5
24
330
23
100
AcDbEntity
  8
0
100
AcDbBlockBegin
  2
*Paper_Space0
 70
     0
 10
0.0
 20
0.0
 30
0.0
  3
*Paper_Space0
  1

  0
ENDBLK
  5
25
330
23
100
AcDbEntity
  8
0
100
AcDbBlockEnd
  0
ENDSEC
  0
SECTION
  2
ENTITIES
  0
LINE
  5
80
330
1F
100
AcDbEntity
  8
1-1
  6
JWW_CENTER1
 62
     2
370
     9
100
AcDbLine
 10
-1067.365141172667
 20
827.5790157833617
 30
0.0
 11
-1067.365141172667
 21
-109.0158493454391
 31
0.0
  0
LINE
  5
81
330
1F
100
AcDbEntity
  8
1-8
  6
Continuous
 62
     4
370
     9
100
AcDbLine
 10
-1122.115160967853
 20
736.995750633446
 30
0.0
 11
-1122.115160967853
 21
692.6248416385135
 31
0.0
  0
LINE
  5
82
330
1F
100
AcDbEntity
  8
1-8
  6
Continuous
 62
     4
370
     9
100
AcDbLine
 10
-1122.115160967853
 20
692.6248416385135
 30
0.0
 11
-1012.615059517525
 21
692.6248416385135
 31
0.0
  0
LINE
  5
83
330
1F
100
AcDbEntity
  8
1-8
  6
Continuous
 62
     4
370
     9
100
AcDbLine
 10
-1012.615059517525
 20
736.995750633446
 30
0.0
 11
-1012.615059517525
 21
692.6248416385135
 31
0.0
  0
LINE
  5
84
330
1F
100
AcDbEntity
  8
1-8
  6
Continuous
 62
     4
370
     9
100
AcDbLine
 10
-1094.691157985378
 20
736.995750633446
 30
0.0
 11
-1094.691157985378
 21
692.6248416385135
 31
0.0
  0
LINE
  5
85
330
1F
100
AcDbEntity
  8
1-8
  6
Continuous
 62
     4
370
     9
100
AcDbLine
 10
-1040.0390625
 20
736.995750633446
 30
0.0
 11
-1040.0390625
 21
692.6248416385135
 31
0.0
  0
LINE
  5
86
330
1F
100
AcDbEntity
  8
1-8
  6
Continuous
 62
     4
370
     9
100
AcDbLine
 10
-1108.403035756704
 20
742.6250065983953
 30
0.0
 11
-1026.327184728674
 21
742.6250065983953
 31
0.0
  0
LINE
  5
87
330
1F
100
AcDbEntity
  8
1-8
  6
Continuous
 62
     6
370
     5
100
AcDbLine
 10
-1127.365091684702
 20
692.6248416385135
 30
0.0
 11
-1127.365091684702
 21
680.1246766786318
 31
0.0
  0
LINE
  5
88
330
1F
100
AcDbEntity
  8
1-8
  6
Continuous
 62
     6
370
     5
100
AcDbLine
 10
-1007.365128800676
 20
692.6248416385135
 30
0.0
 11
-1007.365128800676
 21
680.1246766786318
 31
0.0
  0
LINE
  5
89
330
1F
100
AcDbEntity
  8
1-8
  6
Continuous
 62
     6
370
     5
100
AcDbLine
 10
-1007.365128800676
 20
692.6248416385135
 30
0.0
 11
-1012.615059517525
 21
692.6248416385135
 31
0.0
  0
LINE
  5
8A
330
1F
100
AcDbEntity
  8
1-8
  6
Continuous
 62
     6
370
     5
100
AcDbLine
 10
-1122.115160967853
 20
692.6248416385135
 30
0.0
 11
-1127.365091684702
 21
692.6248416385135
 31
0.0
  0
LINE
  5
8B
330
1F
100
AcDbEntity
  8
1-8
  6
Continuous
 62
     4
370
     9
100
AcDbLine
 10
-1122.115160967853
 20
578.2543202993033
 30
0.0
 11
-1122.115160967853
 21
622.6251055743245
 31
0.0
  0
LINE
  5
8C
330
1F
100
AcDbEntity
  8
1-8
  6
Continuous
 62
     4
370
     9
100
AcDbLine
 10
-1122.115160967853
 20
622.6251055743245
 30
0.0
 11
-1012.615059517525
 21
622.6251055743245
 31
0.0
  0
LINE
  5
8D
330
1F
100
AcDbEntity
  8
1-8
  6
Continuous
 62
     4
370
     9
100
AcDbLine
 10
-1012.615059517525
 20
578.2543202993033
 30
0.0
 11
-1012.615059517525
 21
622.6251055743245
 31
0.0
  0
LINE
  5
8E
330
1F
100
AcDbEntity
  8
1-8
  6
Continuous
 62
     4
370
     9
100
AcDbLine
 10
-1094.691157985378
 20
578.2543202993033
 30
0.0
 11
-1094.691157985378
 21
622.6251055743245
 31
0.0
  0
LINE
  5
8F
330
1F
100
AcDbEntity
  8
1-8
  6
Continuous
 62
     4
370
     9
100
AcDbLine
 10
-1040.0390625
 20
578.2543202993033
 30
0.0
 11
-1040.0390625
 21
622.6251055743245
 31
0.0
  0
LINE
  5
90
330
1F
100
AcDbEntity
  8
1-8
  6
Continuous
 62
     4
370
     9
100
AcDbLine
 10
-1108.403035756704
 20
572.625064334354
 30
0.0
 11
-1026.327184728674
 21
572.625064334354
 31
0.0
  0
LINE
  5
91
330
1F
100
AcDbEntity
  8
1-8
  6
Continuous
 62
     6
370
     5
100
AcDbLine
 10
-1127.365091684702
 20
622.6251055743245
 30
0.0
 11
-1127.365091684702
 21
635.124775654561
 31
0.0
  0
LINE
  5
92
330
1F
100
AcDbEntity
  8
1-8
  6
Continuous
 62
     6
370
     5
100
AcDbLine
 10
-1007.365128800676
 20
622.6251055743245
 30
0.0
 11
-1007.365128800676
 21
635.124775654561
 31
0.0
  0
LINE
  5
93
330
1F
100
AcDbEntity
  8
1-8
  6
Continuous
 62
     6
370
     5
100
AcDbLine
 10
-1007.365128800676
 20
622.6251055743245
 30
0.0
 11
-1012.615059517525
 21
622.6251055743245
 31
0.0
  0
LINE
  5
94
330
1F
100
AcDbEntity
  8
1-8
  6
Continuous
 62
     6
370
     5
100
AcDbLine
 10
-1122.115160967853
 20
622.6251055743245
 30
0.0
 11
-1127.365091684702
 21
622.6251055743245
 31
0.0
  0
LINE
  5
95
330
1F
100
AcDbEntity
  8
1-8
  6
Continuous
 62
     3
370
     9
100
AcDbLine
 10
-1097.364992708773
 20
680.1246766786318
 30
0.0
 11
-1097.364992708773
 21
635.124775654561
 31
0.0
  0
LINE
  5
96
330
1F
100
AcDbEntity
  8
1-8
  6
Continuous
 62
     3
370
     9
100
AcDbLine
 10
-1037.364980336782
 20
680.1246766786318
 30
0.0
 11
-1037.364980336782
 21
635.124775654561
 31
0.0
  0
LINE
  5
97
330
1F
100
AcDbEntity
  8
1-8
  6
Continuous
 62
     3
370
     9
100
AcDbLine
 10
-1092.364976212785
 20
680.1246766786318
 30
0.0
 11
-1092.364976212785
 21
635.124775654561
 31
0.0
  0
LINE
  5
98
330
1F
100
AcDbEntity
  8
1-8
  6
Continuous
 62
     3
370
     9
100
AcDbLine
 10
-1042.36499683277
 20
680.1246766786318
 30
0.0
 11
-1042.36499683277
 21
635.124775654561
 31
0.0
  0
LINE
  5
99
330
1F
100
AcDbEntity
  8
1-8
  6
Continuous
 62
     3
370
     9
100
AcDbLine
 10
-1092.364976212785
 20
810.13500316723
 30
0.0
 11
-1092.364976212785
 21
742.6250065983953
 31
0.0
  0
LINE
  5
9A
330
1F
100
AcDbEntity
  8
1-8
  6
Continuous
 62
     3
370
     9
100
AcDbLine
 10
-1042.36499683277
 20
810.13500316723
 30
0.0
 11
-1042.36499683277
 21
742.6250065983953
 31
0.0
  0
LINE
  5
9B
330
1F
100
AcDbEntity
  8
1-8
  6
Continuous
 62
     3
370
     9
100
AcDbLine
 10
-1092.364976212785
 20
810.13500316723
 30
0.0
 11
-1042.36499683277
 21
810.13500316723
 31
0.0
  0
LINE
  5
9C
330
1F
100
AcDbEntity
  8
1-8
  6
Continuous
 62
     3
370
     9
100
AcDbLine
 10
-1037.364980336782
 20
805.134739231419
 30
0.0
 11
-1037.364980336782
 21
742.6250065983953
 31
0.0
  0
LINE
  5
9D
330
1F
100
AcDbEntity
  8
1-8
  6
Continuous
 62
     3
370
     9
100
AcDbLine
 10
-1097.364992708773
 20
805.134739231419
 30
0.0
 11
-1037.364980336782
 21
805.134739231419
 31
0.0
  0
LINE
  5
9E
330
1F
100
AcDbEntity
  8
1-8
  6
Continuous
 62
     3
370
     9
100
AcDbLine
 10
-1097.364992708773
 20
805.134739231419
 30
0.0
 11
-1097.364992708773
 21
742.6250065983953
 31
0.0
  0
LINE
  5
9F
330
1F
100
AcDbEntity
  8
1-8
  6
Continuous
 62
     3
370
     9
100
AcDbLine
 10
-1097.364992708773
 20
805.134739231419
 30
0.0
 11
-1092.364976212785
 21
810.13500316723
 31
0.0
  0
LINE
  5
A0
330
1F
100
AcDbEntity
  8
1-8
  6
Continuous
 62
     3
370
     9
100
AcDbLine
 10
-1042.36499683277
 20
810.13500316723
 30
0.0
 11
-1037.364980336782
 21
805.134739231419
 31
0.0
  0
LINE
  5
A1
330
1F
100
AcDbEntity
  8
0-4
  6
Continuous
 62
     2
370
     9
100
AcDbLine
 10
844.974084802576
 20
-327.1617662584458
 30
0.0
 11
844.974084802576
 21
-262.1624178499787
 31
0.0
  0
LINE
  5
A2
330
1F
100
AcDbEntity
  8
0-4
  6
Continuous
 62
     2
370
     9
100
AcDbLine
 10
844.974084802576
 20
-262.1624178499787
 30
0.0
 11
1310.700370169975
 21
-262.1624178499787
 31
0.0
  0
LINE
  5
A3
330
1F
100
AcDbEntity
  8
0-4
  6
Continuous
 62
     2
370
     9
100
AcDbLine
 10
1310.700370169975
 20
-262.1624178499787
 30
0.0
 11
1310.700370169975
 21
-327.1617662584458
 31
0.0
  0
LINE
  5
A4
330
1F
100
AcDbEntity
  8
0-4
  6
Continuous
 62
     2
370
     9
100
AcDbLine
 10
1310.700370169975
 20
-327.1617662584458
 30
0.0
 11
844.974084802576
 21
-327.1617662584458
 31
0.0
  0
LINE
  5
A5
330
1F
100
AcDbEntity
  8
1-4
  6
Continuous
 62
     2
370
     9
100
AcDbLine
 10
-982.4922303895692
 20
-365.7325620908995
 30
0.0
 11
-982.4922303895692
 21
-300.7333374023438
 31
0.0
  0
LINE
  5
A6
330
1F
100
AcDbEntity
  8
1-4
  6
Continuous
 62
     2
370
     9
100
AcDbLine
 10
-982.4922303895692
 20
-300.7333374023438
 30
0.0
 11
-359.7379117398648
 21
-300.7333374023438
 31
0.0
  0
LINE
  5
A7
330
1F
100
AcDbEntity
  8
1-4
  6
Continuous
 62
     2
370
     9
100
AcDbLine
 10
-359.7379117398648
 20
-300.7333374023438
 30
0.0
 11
-359.7379117398648
 21
-365.7325620908995
 31
0.0
  0
LINE
  5
A8
330
1F
100
AcDbEntity
  8
1-4
  6
Continuous
 62
     2
370
     9
100
AcDbLine
 10
-359.7379117398648
 20
-365.7325620908995
 30
0.0
 11
-982.4922303895692
 21
-365.7325620908995
 31
0.0
  0
LINE
  5
A9
330
1F
100
AcDbEntity
  8
1-4
  6
Continuous
 62
     7
370
     9
100
AcDbLine
 10
-1067.365141172667
 20
810.13500316723
 30
0.0
 11
-1076.932154475032
 21
833.2320259712839
 31
0.0
  0
LINE
  5
AA
330
1F
100
AcDbEntity
  8
1-4
  6
Continuous
 62
     7
370
     9
100
AcDbLine
 10
-1067.365141172667
 20
810.13500316723
 30
0.0
 11
-1070.628253833667
 21
834.9210502005915
 31
0.0
  0
LINE
  5
AB
330
1F
100
AcDbEntity
  8
1-3
  6
Continuous
 62
     4
370
     9
100
AcDbLine
 10
-372.1148516680742
 20
1160.134673247466
 30
0.0
 11
-327.1149506440034
 21
1160.134673247466
 31
0.0
  0
LINE
  5
AC
330
1F
100
AcDbEntity
  8
1-4
  6
Continuous
 62
     7
370
     9
100
AcDbLine
 10
-372.1148516680742
 20
-249.8651535446578
 30
0.0
 11
-127.1147856841216
 21
-249.8651535446578
 31
0.0
  0
LINE
  5
AD
330
1F
100
AcDbEntity
  8
1-4
  6
Continuous
 62
     7
370
     9
100
AcDbLine
 10
-372.1148516680742
 20
-114.8652030326224
 30
0.0
 11
-372.1148516680742
 21
-252.8651139542862
 31
0.0
  0
LINE
  5
AE
330
1F
100
AcDbEntity
  8
1-8
  6
Continuous
 62
     6
370
     5
100
AcDbLine
 10
-1317.365099932696
 20
-149.8651947846284
 30
0.0
 11
-394.9248442778716
 21
-149.8651947846284
 31
0.0
  0
LINE
  5
AF
330
1F
100
AcDbEntity
  8
1-8
  6
Continuous
 62
     6
370
     5
100
AcDbLine
 10
-348.9891258445945
 20
-149.8651947846284
 30
0.0
 11
-127.1147856841216
 21
-149.8651947846284
 31
0.0
  0
LINE
  5
B0
330
1F
100
AcDbEntity
  8
1-8
  6
Continuous
 62
     6
370
     5
100
AcDbLine
 10
-1317.365099932696
 20
-99.86527726456927
 30
0.0
 11
-394.9248442778716
 21
-99.86527726456927
 31
0.0
  0
LINE
  5
B1
330
1F
100
AcDbEntity
  8
1-8
  6
Continuous
 62
     6
370
     5
100
AcDbLine
 10
-348.9891258445945
 20
-99.86527726456927
 30
0.0
 11
-127.1147856841216
 21
-99.86527726456927
 31
0.0
  0
LINE
  5
B2
330
1F
100
AcDbEntity
  8
1-8
  6
Continuous
 62
     6
370
     5
100
AcDbLine
 10
-1317.365099932696
 20
-109.8653102565456
 30
0.0
 11
-394.9248442778716
 21
-109.8653102565456
 31
0.0
  0
LINE
  5
B3
330
1F
100
AcDbEntity
  8
1-8
  6
Continuous
 62
     6
370
     5
100
AcDbLine
 10
-348.9891258445945
 20
-109.8653102565456
 30
0.0
 11
-127.1147856841216
 21
-109.8653102565456
 31
0.0
  0
LINE
  5
B4
330
1F
100
AcDbEntity
  8
1-8
  6
Continuous
 62
     6
370
     5
100
AcDbLine
 10
-1317.365099932696
 20
-119.8653432485219
 30
0.0
 11
-394.9248442778716
 21
-119.8653432485219
 31
0.0
  0
LINE
  5
B5
330
1F
100
AcDbEntity
  8
1-8
  6
Continuous
 62
     6
370
     5
100
AcDbLine
 10
-348.9891258445945
 20
-119.8653432485219
 30
0.0
 11
-127.1147856841216
 21
-119.8653432485219
 31
0.0
  0
LINE
  5
B6
330
1F
100
AcDbEntity
  8
1-8
  6
Continuous
 62
     6
370
     5
100
AcDbLine
 10
-1317.365099932696
 20
-129.8653762404982
 30
0.0
 11
-394.9248442778716
 21
-129.8653762404982
 31
0.0
  0
LINE
  5
B7
330
1F
100
AcDbEntity
  8
1-8
  6
Continuous
 62
     6
370
     5
100
AcDbLine
 10
-348.9891258445945
 20
-129.8653762404982
 30
0.0
 11
-127.1147856841216
 21
-129.8653762404982
 31
0.0
  0
LINE
  5
B8
330
1F
100
AcDbEntity
  8
1-8
  6
Continuous
 62
     6
370
     5
100
AcDbLine
 10
-1317.365099932696
 20
-139.8654092324745
 30
0.0
 11
-394.9248442778716
 21
-139.8654092324745
 31
0.0
  0
LINE
  5
B9
330
1F
100
AcDbEntity
  8
1-8
  6
Continuous
 62
     6
370
     5
100
AcDbLine
 10
-348.9891258445945
 20
-139.8654092324745
 30
0.0
 11
-127.1147856841216
 21
-139.8654092324745
 31
0.0
  0
LINE
  5
BA
330
1F
100
AcDbEntity
  8
1-4
  6
Continuous
 62
     7
370
     9
100
AcDbLine
 10
-1417.365058692726
 20
-89.86524427259269
 30
0.0
 11
-1417.365058692726
 21
810.13500316723
 31
0.0
  0
LINE
  5
BB
330
1F
100
AcDbEntity
  8
1-4
  6
Continuous
 62
     7
370
     9
100
AcDbLine
 10
-1117.364934972815
 20
810.13500316723
 30
0.0
 11
-1420.365142822266
 21
810.13500316723
 31
0.0
  0
LINE
  5
BC
330
1F
100
AcDbEntity
  8
1-4
  6
Continuous
 62
     7
370
     9
100
AcDbLine
 10
-1517.365141172667
 20
-89.86524427259269
 30
0.0
 11
-1517.365141172667
 21
910.1348382073481
 31
0.0
  0
LINE
  5
BD
330
1F
100
AcDbEntity
  8
1-4
  6
Continuous
 62
     7
370
     9
100
AcDbLine
 10
-1342.365058692726
 20
-89.86524427259269
 30
0.0
 11
-1520.365101582295
 21
-89.86524427259269
 31
0.0
  0
LINE
  5
BE
330
1F
100
AcDbEntity
  8
1-4
  6
Continuous
 62
     7
370
     9
100
AcDbLine
 10
-1067.365141172667
 20
810.13500316723
 30
0.0
 11
-1126.313967318148
 21
1030.134739231419
 31
0.0
  0
LINE
  5
BF
330
1F
100
AcDbEntity
  8
1-4
  6
Continuous
 62
     7
370
     9
100
AcDbLine
 10
-1126.313967318148
 20
1030.134739231419
 30
0.0
 11
-1457.844976476721
 21
1030.134739231419
 31
0.0
  0
LINE
  5
C0
330
1F
100
AcDbEntity
  8
1-4
  6
Continuous
 62
     7
370
     9
100
AcDbLine
 10
-372.1148516680742
 20
1160.134673247466
 30
0.0
 11
-387.3338853990708
 21
1179.968459670608
 31
0.0
  0
LINE
  5
C1
330
1F
100
AcDbEntity
  8
1-4
  6
Continuous
 62
     7
370
     9
100
AcDbLine
 10
-372.1148516680742
 20
1160.134673247466
 30
0.0
 11
-381.6821124102617
 21
1183.23169605152
 31
0.0
  0
LINE
  5
C2
330
1F
100
AcDbEntity
  8
1-4
  6
Continuous
 62
     7
370
     9
100
AcDbLine
 10
-372.1148516680742
 20
1160.134673247466
 30
0.0
 11
-435.6232514252534
 21
1270.134541279561
 31
0.0
  0
LINE
  5
C3
330
1F
100
AcDbEntity
  8
1-4
  6
Continuous
 62
     7
370
     9
100
AcDbLine
 10
-539.6073624894425
 20
910.1348382073481
 30
0.0
 11
-1520.365101582295
 21
910.1348382073481
 31
0.0
  0
LINE
  5
C4
330
1F
100
AcDbEntity
  8
1-3
  6
Continuous
 62
     4
370
     9
100
AcDbLine
 10
-372.1148516680742
 20
620.124973606419
 30
0.0
 11
-327.1149506440034
 21
620.124973606419
 31
0.0
  0
LINE
  5
C5
330
1F
100
AcDbEntity
  8
1-4
  6
Continuous
 62
     7
370
     9
100
AcDbLine
 10
-755.1079002586571
 20
1270.134541279561
 30
0.0
 11
-435.6232514252534
 21
1270.134541279561
 31
0.0
  0
LINE
  5
C6
330
1F
100
AcDbEntity
  8
1-4
  6
Continuous
 62
     7
370
     9
100
AcDbLine
 10
-465.6320107949745
 20
997.2702768686656
 30
0.0
 11
-480.8510445259711
 21
1017.104063291808
 31
0.0
  0
LINE
  5
C7
330
1F
100
AcDbEntity
  8
1-4
  6
Continuous
 62
     7
370
     9
100
AcDbLine
 10
-465.6320107949745
 20
997.2702768686656
 30
0.0
 11
-475.199271537162
 21
1020.36729967272
 31
0.0
  0
LINE
  5
C8
330
1F
100
AcDbEntity
  8
1-4
  6
Continuous
 62
     7
370
     9
100
AcDbLine
 10
-465.6320107949745
 20
997.2702768686656
 30
0.0
 11
-553.8883518528294
 21
1150.13464025549
 31
0.0
  0
LINE
  5
C9
330
1F
100
AcDbEntity
  8
1-4
  6
Continuous
 62
     7
370
     9
100
AcDbLine
 10
-910.7769940350506
 20
1150.13464025549
 30
0.0
 11
-553.8883518528294
 21
1150.13464025549
 31
0.0
  0
LINE
  5
CA
330
1F
100
AcDbEntity
  8
1-3
  6
Continuous
 62
     4
370
     9
100
AcDbLine
 10
-372.1148516680742
 20
758.7100797086151
 30
0.0
 11
-372.1148516680742
 21
1160.134673247466
 31
0.0
  0
LINE
  5
CB
330
1F
100
AcDbEntity
  8
0-1
  6
Continuous
 62
     2
370
     9
100
AcDbLine
 10
1552.837557406039
 20
1037.83655115076
 30
0.0
 11
602.8383822054479
 21
1037.837540910051
 31
0.0
  0
LINE
  5
CC
330
1F
100
AcDbEntity
  8
0-1
  6
Continuous
 62
     2
370
     9
100
AcDbLine
 10
1652.837887325803
 20
937.8367161106419
 30
0.0
 11
1652.837392446157
 21
-12.16233537003802
 31
0.0
  0
LINE
  5
CD
330
1F
100
AcDbEntity
  8
0-1
  6
Continuous
 62
     2
370
     9
100
AcDbLine
 10
1552.837557406039
 20
1036.16979650549
 30
0.0
 11
602.8383822054479
 21
1036.17078626478
 31
0.0
  0
LINE
  5
CE
330
1F
100
AcDbEntity
  8
0-1
  6
Continuous
 62
     2
370
     9
100
AcDbLine
 10
1651.171132680532
 20
937.8367161106419
 30
0.0
 11
1651.170637800887
 21
-12.16233537003802
 31
0.0
  0
LINE
  5
CF
330
1F
100
AcDbEntity
  8
0-1
  6
JWW_CENTER1
 62
     2
370
     9
100
AcDbLine
 10
1573.574004302154
 20
999.5967060810813
 30
0.0
 11
1614.597547376478
 21
958.5731630067568
 31
0.0
  0
LINE
  5
D0
330
1F
100
AcDbEntity
  8
0-1
  6
Continuous
 62
     2
370
     9
100
AcDbLine
 10
1615.81940522065
 20
927.7505740603885
 30
0.0
 11
1635.604693438556
 21
947.5363571579394
 31
0.0
  0
LINE
  5
D1
330
1F
100
AcDbEntity
  8
0-1
  6
Continuous
 62
     2
370
     9
100
AcDbLine
 10
1542.750425596495
 20
1000.818069045608
 30
0.0
 11
1562.536208694046
 21
1020.603852143159
 31
0.0
  0
LINE
  5
D2
330
1F
100
AcDbEntity
  8
0-1
  6
JWW_CENTER1
 62
     2
370
     9
100
AcDbLine
 10
1573.574004302154
 20
958.5736578864021
 30
0.0
 11
1614.597547376478
 21
999.5967060810813
 31
0.0
  0
LINE
  5
D3
330
1F
100
AcDbEntity
  8
0-1
  6
Continuous
 62
     2
370
     9
100
AcDbLine
 10
1537.007347313134
 20
997.432102512669
 30
0.0
 11
1433.56463458087
 21
893.9893897804054
 31
0.0
  0
LINE
  5
D4
330
1F
100
AcDbEntity
  8
0-1
  6
Continuous
 62
     2
370
     9
100
AcDbLine
 10
1435.921251451648
 20
891.631783150338
 30
0.0
 11
1563.140951620566
 21
1018.850988439612
 31
0.0
  0
LINE
  5
D5
330
1F
100
AcDbEntity
  8
0-1
  6
Continuous
 62
     2
370
     9
100
AcDbLine
 10
1506.632624445735
 20
820.9209050358953
 30
0.0
 11
1633.851829735009
 21
948.1406052048144
 31
0.0
  0
LINE
  5
D6
330
1F
100
AcDbEntity
  8
0-1
  6
Continuous
 62
     2
370
     9
100
AcDbLine
 10
1612.433438687711
 20
922.0079906566724
 30
0.0
 11
1508.989241316512
 21
818.5637932854731
 31
0.0
  0
LINE
  5
D7
330
1F
100
AcDbEntity
  8
0-1
  6
Continuous
 62
     2
370
     9
100
AcDbLine
 10
1529.936506941512
 20
1014.503470755912
 30
0.0
 11
1219.955279376056
 21
1014.503470755912
 31
0.0
  0
LINE
  5
D8
330
1F
100
AcDbEntity
  8
0-1
  6
Continuous
 62
     2
370
     9
100
AcDbLine
 10
1529.936506941512
 20
1017.836485166808
 30
0.0
 11
1219.955279376056
 21
1017.836980046453
 31
0.0
  0
LINE
  5
D9
330
1F
100
AcDbEntity
  8
0-1
  6
Continuous
 62
     2
370
     9
100
AcDbLine
 10
1629.504806930955
 20
914.9366554054054
 30
0.0
 11
1629.504312051309
 21
604.9539432010135
 31
0.0
  0
LINE
  5
DA
330
1F
100
AcDbEntity
  8
0-1
  6
Continuous
 62
     2
370
     9
100
AcDbLine
 10
1632.83782134185
 20
914.9366554054054
 30
0.0
 11
1632.83782134185
 21
604.9539432010135
 31
0.0
  0
LINE
  5
DB
330
1F
100
AcDbEntity
  8
0-1
  6
Continuous
 62
     2
370
     9
100
AcDbLine
 10
502.8385471653297
 20
937.8377058699325
 30
0.0
 11
502.8375574060391
 21
-12.16171677048123
 31
0.0
  0
LINE
  5
DC
330
1F
100
AcDbEntity
  8
0-1
  6
Continuous
 62
     2
370
     9
100
AcDbLine
 10
504.5053018106
 20
937.8377058699325
 30
0.0
 11
504.5043120513094
 21
-12.16171677048123
 31
0.0
  0
LINE
  5
DD
330
1F
100
AcDbEntity
  8
0-1
  6
JWW_CENTER1
 62
     2
370
     9
100
AcDbLine
 10
541.0783922350083
 20
958.5736578864021
 30
0.0
 11
582.1019353093328
 21
999.5972009607266
 31
0.0
  0
LINE
  5
DE
330
1F
100
AcDbEntity
  8
0-1
  6
Continuous
 62
     2
370
     9
100
AcDbLine
 10
612.924524255701
 20
1000.819058804899
 30
0.0
 11
593.1387411581505
 21
1020.604347022804
 31
0.0
  0
LINE
  5
DF
330
1F
100
AcDbEntity
  8
0-1
  6
Continuous
 62
     2
370
     9
100
AcDbLine
 10
539.8570292704818
 20
927.7500791807436
 30
0.0
 11
520.0712461729307
 21
947.5363571579394
 31
0.0
  0
LINE
  5
E0
330
1F
100
AcDbEntity
  8
0-1
  6
Continuous
 62
     2
370
     9
100
AcDbLine
 10
543.2425009237755
 20
922.0074957770271
 30
0.0
 11
646.6862034153297
 21
818.5642881651186
 31
0.0
  0
LINE
  5
E1
330
1F
100
AcDbEntity
  8
0-1
  6
Continuous
 62
     2
370
     9
100
AcDbLine
 10
649.0428202861068
 20
820.9213999155406
 30
0.0
 11
521.8241098764781
 21
948.1406052048144
 31
0.0
  0
LINE
  5
E2
330
1F
100
AcDbEntity
  8
0-1
  6
Continuous
 62
     2
370
     9
100
AcDbLine
 10
719.7541932801943
 20
891.6322780299834
 30
0.0
 11
592.5344931112755
 21
1018.851483319257
 31
0.0
  0
LINE
  5
E3
330
1F
100
AcDbEntity
  8
0-1
  6
Continuous
 62
     2
370
     9
100
AcDbLine
 10
618.6671076594172
 20
997.4330922719596
 30
0.0
 11
722.1113050306167
 21
893.9893897804054
 31
0.0
  0
LINE
  5
E4
330
1F
100
AcDbEntity
  8
0-1
  6
Continuous
 62
     2
370
     9
100
AcDbLine
 10
526.1716275601776
 20
914.9361605257602
 30
0.0
 11
526.1711326805323
 21
604.9549329603042
 31
0.0
  0
LINE
  5
E5
330
1F
100
AcDbEntity
  8
0-1
  6
Continuous
 62
     2
370
     9
100
AcDbLine
 10
522.8386131492823
 20
914.9361605257602
 30
0.0
 11
522.838118269637
 21
604.9549329603042
 31
0.0
  0
LINE
  5
E6
330
1F
100
AcDbEntity
  8
0-1
  6
Continuous
 62
     2
370
     9
100
AcDbLine
 10
625.7379480310391
 20
1014.504460515203
 30
0.0
 11
935.7206602354307
 21
1014.503965635558
 31
0.0
  0
LINE
  5
E7
330
1F
100
AcDbEntity
  8
0-1
  6
Continuous
 62
     2
370
     9
100
AcDbLine
 10
625.7379480310391
 20
1017.837474926098
 30
0.0
 11
935.7206602354307
 21
1017.837474926098
 31
0.0
  0
LINE
  5
E8
330
1F
100
AcDbEntity
  8
0-1
  6
Continuous
 62
     2
370
     9
100
AcDbLine
 10
602.8378873258026
 20
-112.1617992504221
 30
0.0
 11
1552.837062526394
 21
-112.1627890097128
 31
0.0
  0
LINE
  5
E9
330
1F
100
AcDbEntity
  8
0-1
  6
Continuous
 62
     2
370
     9
100
AcDbLine
 10
602.8378873258026
 20
-110.4950446051521
 30
0.0
 11
1552.837062526394
 21
-110.4960343644424
 31
0.0
  0
LINE
  5
EA
330
1F
100
AcDbEntity
  8
0-1
  6
JWW_CENTER1
 62
     2
370
     9
100
AcDbLine
 10
582.1014404296875
 20
-73.92170674092057
 30
0.0
 11
541.0778973553636
 21
-32.89816366659608
 31
0.0
  0
LINE
  5
EB
330
1F
100
AcDbEntity
  8
0-1
  6
Continuous
 62
     2
370
     9
100
AcDbLine
 10
539.8565343908365
 20
-2.075822160050507
 30
0.0
 11
520.0707512932854
 21
-21.86135781777864
 31
0.0
  0
LINE
  5
EC
330
1F
100
AcDbEntity
  8
0-1
  6
Continuous
 62
     2
370
     9
100
AcDbLine
 10
612.9250191353464
 20
-75.14306970544766
 30
0.0
 11
593.1392360377959
 21
-94.92910024282082
 31
0.0
  0
LINE
  5
ED
330
1F
100
AcDbEntity
  8
0-1
  6
JWW_CENTER1
 62
     2
370
     9
100
AcDbLine
 10
582.1014404296875
 20
-32.89865854624139
 30
0.0
 11
541.0778973553636
 21
-73.92195418074323
 31
0.0
  0
LINE
  5
EE
330
1F
100
AcDbEntity
  8
0-1
  6
Continuous
 62
     2
370
     9
100
AcDbLine
 10
618.6680974187078
 20
-71.75735061233098
 30
0.0
 11
722.1113050306167
 21
31.68585699957788
 31
0.0
  0
LINE
  5
EF
330
1F
100
AcDbEntity
  8
0-1
  6
Continuous
 62
     2
370
     9
100
AcDbLine
 10
719.7541932801943
 20
34.04296875
 30
0.0
 11
592.5344931112755
 21
-93.1762365392737
 31
0.0
  0
LINE
  5
F0
330
1F
100
AcDbEntity
  8
0-1
  6
Continuous
 62
     2
370
     9
100
AcDbLine
 10
649.0428202861068
 20
104.7538468644427
 30
0.0
 11
521.8236149968328
 21
-22.46560586465364
 31
0.0
  0
LINE
  5
F1
330
1F
100
AcDbEntity
  8
0-1
  6
Continuous
 62
     2
370
     9
100
AcDbLine
 10
543.2420060441302
 20
3.667008683488291
 30
0.0
 11
646.6862034153297
 21
107.1109586148648
 31
0.0
  0
LINE
  5
F2
330
1F
100
AcDbEntity
  8
0-1
  6
Continuous
 62
     2
370
     9
100
AcDbLine
 10
625.7389377903297
 20
-88.82847141575155
 30
0.0
 11
935.7201653557854
 21
-88.82871885557421
 31
0.0
  0
LINE
  5
F3
330
1F
100
AcDbEntity
  8
0-1
  6
Continuous
 62
     2
370
     9
100
AcDbLine
 10
625.7389377903297
 20
-92.16173326646953
 30
0.0
 11
935.7201653557854
 21
-92.16198070629218
 31
0.0
  0
LINE
  5
F4
330
1F
100
AcDbEntity
  8
0-1
  6
Continuous
 62
     2
370
     9
100
AcDbLine
 10
526.1711326805323
 20
10.73809649493256
 30
0.0
 11
526.1711326805323
 21
320.7208086993245
 31
0.0
  0
LINE
  5
F5
330
1F
100
AcDbEntity
  8
0-1
  6
Continuous
 62
     2
370
     9
100
AcDbLine
 10
522.8376233899917
 20
10.73809649493256
 30
0.0
 11
522.8376233899917
 21
320.7208086993245
 31
0.0
  0
LINE
  5
F6
330
1F
100
AcDbEntity
  8
0-1
  6
JWW_CENTER1
 62
     2
370
     9
100
AcDbLine
 10
1614.597052496833
 20
-32.89828738650755
 30
0.0
 11
1573.573509422509
 21
-73.92183046083176
 31
0.0
  0
LINE
  5
F7
330
1F
100
AcDbEntity
  8
0-1
  6
Continuous
 62
     2
370
     9
100
AcDbLine
 10
1542.750920476141
 20
-75.14368830500416
 30
0.0
 11
1562.536703573691
 21
-94.9292239627323
 31
0.0
  0
LINE
  5
F8
330
1F
100
AcDbEntity
  8
0-1
  6
Continuous
 62
     2
370
     9
100
AcDbLine
 10
1615.81841546136
 20
-2.074956120671345
 30
0.0
 11
1635.60419855891
 21
-21.86098665804479
 31
0.0
  0
LINE
  5
F9
330
1F
100
AcDbEntity
  8
0-1
  6
JWW_CENTER1
 62
     2
370
     9
100
AcDbLine
 10
1573.574004302154
 20
-32.89853482633021
 30
0.0
 11
1614.597547376478
 21
-73.92183046083176
 31
0.0
  0
LINE
  5
FA
330
1F
100
AcDbEntity
  8
0-1
  6
Continuous
 62
     2
370
     9
100
AcDbLine
 10
1612.432943808066
 20
3.667874722867452
 30
0.0
 11
1508.989241316512
 21
107.1110823347763
 31
0.0
  0
LINE
  5
FB
330
1F
100
AcDbEntity
  8
0-1
  6
Continuous
 62
     2
370
     9
100
AcDbLine
 10
1506.632624445735
 20
104.7539705843539
 30
0.0
 11
1633.851334855364
 21
-22.46523470491979
 31
0.0
  0
LINE
  5
FC
330
1F
100
AcDbEntity
  8
0-1
  6
Continuous
 62
     2
370
     9
100
AcDbLine
 10
1435.921251451648
 20
34.04309246991147
 30
0.0
 11
1563.140951620566
 21
-93.17636025918489
 31
0.0
  0
LINE
  5
FD
330
1F
100
AcDbEntity
  8
0-1
  6
Continuous
 62
     2
370
     9
100
AcDbLine
 10
1537.008337072424
 20
-71.75796921188748
 30
0.0
 11
1433.56463458087
 21
31.68598071948907
 31
0.0
  0
LINE
  5
FE
330
1F
100
AcDbEntity
  8
0-1
  6
Continuous
 62
     2
370
     9
100
AcDbLine
 10
1629.503817171664
 20
10.73896253431172
 30
0.0
 11
1629.504312051309
 21
320.7201900997677
 31
0.0
  0
LINE
  5
FF
330
1F
100
AcDbEntity
  8
0-1
  6
Continuous
 62
     2
370
     9
100
AcDbLine
 10
1632.837326462205
 20
10.73896253431172
 30
0.0
 11
1632.837326462205
 21
320.7201900997677
 31
0.0
  0
LINE
  5
100
330
1F
100
AcDbEntity
  8
0-1
  6
Continuous
 62
     2
370
     9
100
AcDbLine
 10
1529.937496700803
 20
-88.82909001530834
 30
0.0
 11
1219.95478449641
 21
-88.82884257548568
 31
0.0
  0
LINE
  5
101
330
1F
100
AcDbEntity
  8
0-1
  6
Continuous
 62
     2
370
     9
100
AcDbLine
 10
1529.937496700803
 20
-92.16235186602603
 30
0.0
 11
1219.95478449641
 21
-92.16210442620337
 31
0.0
  0
LINE
  5
102
330
1F
100
AcDbEntity
  8
0-1
  6
JWW_CENTER1
 62
     2
370
     9
100
AcDbLine
 10
713.263846732475
 20
930.4120367926521
 30
0.0
 11
739.8987641205662
 21
957.0469541807436
 31
0.0
  0
LINE
  5
103
330
1F
100
AcDbEntity
  8
0-1
  6
JWW_CENTER1
 62
     2
370
     9
100
AcDbLine
 10
713.263846732475
 20
957.0469541807436
 30
0.0
 11
739.8982692409209
 21
930.4120367926521
 31
0.0
  0
LINE
  5
104
330
1F
100
AcDbEntity
  8
0-1
  6
Continuous
 62
     2
370
     9
100
AcDbLine
 10
582.9358075116136
 20
964.8101311760981
 30
0.0
 11
688.0878345386401
 21
864.0828230574325
 31
0.0
  0
LINE
  5
105
330
1F
100
AcDbEntity
  8
0-1
  6
Continuous
 62
     2
370
     9
100
AcDbLine
 10
676.5927701383026
 20
852.5877586570948
 30
0.0
 11
575.8649671399917
 21
957.7392908044766
 31
0.0
  0
LINE
  5
106
330
1F
100
AcDbEntity
  8
0-1
  6
Continuous
 62
     2
370
     9
100
AcDbLine
 10
688.1759231154984
 20
859.570015572213
 30
0.0
 11
582.9358075116136
 21
964.8101311760981
 31
0.0
  0
LINE
  5
107
330
1F
100
AcDbEntity
  8
0-1
  6
Continuous
 62
     2
370
     9
100
AcDbLine
 10
681.1045878642318
 20
852.4996700802367
 30
0.0
 11
575.8649671399917
 21
957.7392908044766
 31
0.0
  0
LINE
  5
108
330
1F
100
AcDbEntity
  8
0-1
  6
Continuous
 62
     2
370
     9
100
AcDbLine
 10
1467.587610193201
 20
864.0828230574325
 30
0.0
 11
1572.739637220228
 21
964.8101311760981
 31
0.0
  0
LINE
  5
109
330
1F
100
AcDbEntity
  8
0-1
  6
Continuous
 62
     2
370
     9
100
AcDbLine
 10
1467.499521616343
 20
859.570015572213
 30
0.0
 11
1572.739637220228
 21
964.8101311760981
 31
0.0
  0
LINE
  5
10A
330
1F
100
AcDbEntity
  8
0-1
  6
Continuous
 62
     2
370
     9
100
AcDbLine
 10
1579.81047759185
 20
957.7387959248313
 30
0.0
 11
1479.082674593539
 21
852.5872637774495
 31
0.0
  0
LINE
  5
10B
330
1F
100
AcDbEntity
  8
0-1
  6
Continuous
 62
     2
370
     9
100
AcDbLine
 10
1474.57085686761
 20
852.4996700802367
 30
0.0
 11
1579.81047759185
 21
957.7387959248313
 31
0.0
  0
LINE
  5
10C
330
1F
100
AcDbEntity
  8
0-1
  6
Continuous
 62
     2
370
     9
100
AcDbLine
 10
1572.739637220228
 20
-39.13500811602603
 30
0.0
 11
1467.588105072846
 21
61.59254744246198
 31
0.0
  0
LINE
  5
10D
330
1F
100
AcDbEntity
  8
0-1
  6
Continuous
 62
     2
370
     9
100
AcDbLine
 10
1467.499521616343
 20
66.104736328125
 30
0.0
 11
1572.739637220228
 21
-39.13500811602603
 31
0.0
  0
LINE
  5
10E
330
1F
100
AcDbEntity
  8
0-1
  6
Continuous
 62
     2
370
     9
100
AcDbLine
 10
1474.57085686761
 20
73.17532925992396
 30
0.0
 11
1579.81047759185
 21
-32.06392030458176
 31
0.0
  0
LINE
  5
10F
330
1F
100
AcDbEntity
  8
0-1
  6
Continuous
 62
     2
370
     9
100
AcDbLine
 10
1479.083169473184
 20
73.08736440297736
 30
0.0
 11
1579.81047759185
 21
-32.06392030458176
 31
0.0
  0
LINE
  5
110
330
1F
100
AcDbEntity
  8
0-1
  6
Continuous
 62
     2
370
     9
100
AcDbLine
 10
575.8649671399917
 20
-32.06404402449323
 30
0.0
 11
676.5927701383026
 21
73.08736440297736
 31
0.0
  0
LINE
  5
111
330
1F
100
AcDbEntity
  8
0-1
  6
Continuous
 62
     2
370
     9
100
AcDbLine
 10
681.1045878642318
 20
73.17532925992396
 30
0.0
 11
575.8649671399917
 21
-32.06404402449323
 31
0.0
  0
LINE
  5
112
330
1F
100
AcDbEntity
  8
0-1
  6
Continuous
 62
     2
370
     9
100
AcDbLine
 10
688.0873396589953
 20
61.59242372255079
 30
0.0
 11
582.9358075116136
 21
-39.1351318359375
 31
0.0
  0
LINE
  5
113
330
1F
100
AcDbEntity
  8
0-1
  6
Continuous
 62
     2
370
     9
100
AcDbLine
 10
688.1754282358531
 20
66.10461260821381
 30
0.0
 11
582.9358075116136
 21
-39.1351318359375
 31
0.0
  0
LINE
  5
114
330
1F
100
AcDbEntity
  8
0-3
  6
Continuous
 62
     4
370
     9
100
AcDbLine
 10
697.3198143211573
 20
760.859836887669
 30
0.0
 11
686.6373422983531
 21
771.5418140308279
 31
0.0
  0
LINE
  5
115
330
1F
100
AcDbEntity
  8
0-3
  6
Continuous
 62
     4
370
     9
100
AcDbLine
 10
697.3198143211573
 20
164.8150387325802
 30
0.0
 11
686.6378371779984
 21
154.1330615894216
 31
0.0
  0
LINE
  5
116
330
1F
100
AcDbEntity
  8
0-3
  6
Continuous
 62
     4
370
     9
100
AcDbLine
 10
779.8157563080662
 20
82.31959162531695
 30
0.0
 11
769.133284285262
 21
71.63711960251277
 31
0.0
  0
LINE
  5
117
330
1F
100
AcDbEntity
  8
0-3
  6
Continuous
 62
     4
370
     9
100
AcDbLine
 10
1375.860183303421
 20
82.31959162531695
 30
0.0
 11
1386.54216044658
 21
71.63761448215809
 31
0.0
  0
LINE
  5
118
330
1F
100
AcDbEntity
  8
0-3
  6
Continuous
 62
     4
370
     9
100
AcDbLine
 10
1458.355630410684
 20
164.8152861724029
 30
0.0
 11
1469.038102433489
 21
154.1329378695102
 31
0.0
  0
LINE
  5
119
330
1F
100
AcDbEntity
  8
0-3
  6
Continuous
 62
     4
370
     9
100
AcDbLine
 10
1458.355630410684
 20
760.859836887669
 30
0.0
 11
1469.037607553843
 21
771.5418140308279
 31
0.0
  0
LINE
  5
11A
330
1F
100
AcDbEntity
  8
0-3
  6
Continuous
 62
     4
370
     9
100
AcDbLine
 10
1375.859688423775
 20
843.3552839949325
 30
0.0
 11
1386.54216044658
 21
854.0377560177367
 31
0.0
  0
LINE
  5
11B
330
1F
100
AcDbEntity
  8
0-3
  6
Continuous
 62
     4
370
     9
100
AcDbLine
 10
779.8152614284209
 20
843.3552839949325
 30
0.0
 11
769.133284285262
 21
854.0372611380915
 31
0.0
  0
LINE
  5
11C
330
1F
100
AcDbEntity
  8
0-4
  6
Continuous
 62
     7
370
     9
100
AcDbLine
 10
429.0074528874578
 20
1117.56067224451
 30
0.0
 11
423.1149209512247
 21
1111.668140308277
 31
0.0
  0
LINE
  5
11D
330
1F
100
AcDbEntity
  8
0-4
  6
Continuous
 62
     7
370
     9
100
AcDbLine
 10
464.3626445048568
 20
1082.205480627111
 30
0.0
 11
429.0074528874578
 21
1117.56067224451
 31
0.0
  0
LINE
  5
11E
330
1F
100
AcDbEntity
  8
0-4
  6
Continuous
 62
     7
370
     9
100
AcDbLine
 10
458.4701125686234
 20
1076.312948690879
 30
0.0
 11
464.3626445048568
 21
1082.205480627111
 31
0.0
  0
LINE
  5
11F
330
1F
100
AcDbEntity
  8
0-4
  6
Continuous
 62
     7
370
     9
100
AcDbLine
 10
458.4701125686234
 20
1076.312948690879
 30
0.0
 11
423.1149209512247
 21
1111.668140308277
 31
0.0
  0
LINE
  5
120
330
1F
100
AcDbEntity
  8
0-4
  6
Continuous
 62
     7
370
     9
100
AcDbLine
 10
815.9503833667651
 20
730.6172468855575
 30
0.0
 11
810.0578514305323
 21
724.7247149493245
 31
0.0
  0
LINE
  5
121
330
1F
100
AcDbEntity
  8
0-4
  6
Continuous
 62
     7
370
     9
100
AcDbLine
 10
851.3055749841641
 20
695.2620552681589
 30
0.0
 11
815.9503833667651
 21
730.6172468855575
 31
0.0
  0
LINE
  5
122
330
1F
100
AcDbEntity
  8
0-4
  6
Continuous
 62
     7
370
     9
100
AcDbLine
 10
845.4130430479307
 20
689.3695233319258
 30
0.0
 11
851.3055749841641
 21
695.2620552681589
 31
0.0
  0
LINE
  5
123
330
1F
100
AcDbEntity
  8
0-4
  6
Continuous
 62
     7
370
     9
100
AcDbLine
 10
845.4130430479307
 20
689.3695233319258
 30
0.0
 11
810.0578514305323
 21
724.7247149493245
 31
0.0
  0
LINE
  5
124
330
1F
100
AcDbEntity
  8
0-4
  6
Continuous
 62
     7
370
     9
100
AcDbLine
 10
840.9170614706505
 20
693.8655049092063
 30
0.0
 11
849.9090246252115
 21
693.8655049092063
 31
0.0
  0
LINE
  5
125
330
1F
100
AcDbEntity
  8
0-4
  6
Continuous
 62
     7
370
     9
100
AcDbLine
 10
835.9172924144849
 20
698.8652739653717
 30
0.0
 11
847.702356286951
 21
698.8652739653717
 31
0.0
  0
LINE
  5
126
330
1F
100
AcDbEntity
  8
0-4
  6
Continuous
 62
     7
370
     9
100
AcDbLine
 10
830.9175233583193
 20
703.8655379011825
 30
0.0
 11
842.7025872307854
 21
703.8655379011825
 31
0.0
  0
LINE
  5
127
330
1F
100
AcDbEntity
  8
0-4
  6
Continuous
 62
     7
370
     9
100
AcDbLine
 10
825.9172594225089
 20
708.8653069573481
 30
0.0
 11
837.702323294975
 21
708.8653069573481
 31
0.0
  0
LINE
  5
128
330
1F
100
AcDbEntity
  8
0-4
  6
Continuous
 62
     7
370
     9
100
AcDbLine
 10
820.9169954866979
 20
713.8655708931589
 30
0.0
 11
832.7020593591641
 21
713.8655708931589
 31
0.0
  0
LINE
  5
129
330
1F
100
AcDbEntity
  8
0-4
  6
Continuous
 62
     7
370
     9
100
AcDbLine
 10
815.9172264305323
 20
718.8653399493245
 30
0.0
 11
827.7022903029984
 21
718.8653399493245
 31
0.0
  0
LINE
  5
12A
330
1F
100
AcDbEntity
  8
0-4
  6
Continuous
 62
     7
370
     9
100
AcDbLine
 10
810.9174573743667
 20
723.8656038851352
 30
0.0
 11
822.7025212468328
 21
723.8656038851352
 31
0.0
  0
LINE
  5
12B
330
1F
100
AcDbEntity
  8
0-4
  6
Continuous
 62
     7
370
     9
100
AcDbLine
 10
814.1985094225089
 20
728.8653729413008
 30
0.0
 11
817.7022573110219
 21
728.8653729413008
 31
0.0
  0
LINE
  5
12C
330
1F
100
AcDbEntity
  8
0-4
  6
Continuous
 62
     7
370
     9
100
AcDbLine
 10
456.5826416015625
 20
1078.200419657939
 30
0.0
 11
460.3575835356844
 21
1078.200419657939
 31
0.0
  0
LINE
  5
12D
330
1F
100
AcDbEntity
  8
0-4
  6
Continuous
 62
     7
370
     9
100
AcDbLine
 10
451.5823776657518
 20
1083.20068359375
 30
0.0
 11
463.3674415382183
 21
1083.20068359375
 31
0.0
  0
LINE
  5
12E
330
1F
100
AcDbEntity
  8
0-4
  6
Continuous
 62
     7
370
     9
100
AcDbLine
 10
446.5821137299409
 20
1088.200452649916
 30
0.0
 11
458.3671776024073
 21
1088.200452649916
 31
0.0
  0
LINE
  5
12F
330
1F
100
AcDbEntity
  8
0-4
  6
Continuous
 62
     7
370
     9
100
AcDbLine
 10
441.5823446737755
 20
1093.200716585727
 30
0.0
 11
453.3674085462417
 21
1093.200716585727
 31
0.0
  0
LINE
  5
130
330
1F
100
AcDbEntity
  8
0-4
  6
Continuous
 62
     7
370
     9
100
AcDbLine
 10
436.5825756176099
 20
1098.200485641892
 30
0.0
 11
448.367639490076
 21
1098.200485641892
 31
0.0
  0
LINE
  5
131
330
1F
100
AcDbEntity
  8
0-4
  6
Continuous
 62
     7
370
     9
100
AcDbLine
 10
431.5823116817992
 20
1103.200749577702
 30
0.0
 11
443.3673755542654
 21
1103.200749577702
 31
0.0
  0
LINE
  5
132
330
1F
100
AcDbEntity
  8
0-4
  6
Continuous
 62
     7
370
     9
100
AcDbLine
 10
426.5820477459883
 20
1108.200518633868
 30
0.0
 11
438.3671116184544
 21
1108.200518633868
 31
0.0
  0
LINE
  5
133
330
1F
100
AcDbEntity
  8
0-4
  6
Continuous
 62
     7
370
     9
100
AcDbLine
 10
424.6475632126268
 20
1113.200782569679
 30
0.0
 11
433.3673425622891
 21
1113.200782569679
 31
0.0
  0
LINE
  5
134
330
1F
100
AcDbEntity
  8
0-4
  6
Continuous
 62
     7
370
     9
100
AcDbLine
 10
440.7925167599242
 20
1093.990544499577
 30
0.0
 11
425.5734830289276
 21
1074.156758076436
 31
0.0
  0
LINE
  5
135
330
1F
100
AcDbEntity
  8
0-4
  6
Continuous
 62
     7
370
     9
100
AcDbLine
 10
440.7925167599242
 20
1093.990544499577
 30
0.0
 11
420.9587303367823
 21
1078.771510768581
 31
0.0
  0
LINE
  5
136
330
1F
100
AcDbEntity
  8
0-4
  6
Continuous
 62
     7
370
     9
100
AcDbLine
 10
440.7925167599242
 20
1093.990544499577
 30
0.0
 11
405.4368302628802
 21
1058.634858002534
 31
0.0
  0
LINE
  5
137
330
1F
100
AcDbEntity
  8
0-4
  6
Continuous
 62
     7
370
     9
100
AcDbLine
 10
827.7354472392318
 20
707.047119140625
 30
0.0
 11
812.5164135082349
 21
687.2133327174834
 31
0.0
  0
LINE
  5
138
330
1F
100
AcDbEntity
  8
0-4
  6
Continuous
 62
     7
370
     9
100
AcDbLine
 10
827.7354472392318
 20
707.047119140625
 30
0.0
 11
807.9016608160896
 21
691.8280854096283
 31
0.0
  0
LINE
  5
139
330
1F
100
AcDbEntity
  8
0-4
  6
Continuous
 62
     7
370
     9
100
AcDbLine
 10
827.7354472392318
 20
707.047119140625
 30
0.0
 11
792.3802556218328
 21
671.6919275232266
 31
0.0
  0
LINE
  5
13A
330
1F
100
AcDbEntity
  8
0-1
  6
JWW_CENTER1
 62
     2
370
     9
100
AcDbLine
 10
813.003869958826
 20
727.6712283572635
 30
0.0
 11
461.4161310969172
 21
1079.258967219173
 31
0.0
  0
LINE
  5
13B
330
1F
100
AcDbEntity
  8
0-4
  6
Continuous
 62
     7
370
     9
100
AcDbLine
 10
1288.201656857053
 20
755.697747307855
 30
0.0
 11
1370.697598843961
 21
673.201805320946
 31
0.0
  0
LINE
  5
13C
330
1F
100
AcDbEntity
  8
0-4
  6
Continuous
 62
     7
370
     9
100
AcDbLine
 10
1358.182092615076
 20
825.6776881862334
 30
0.0
 11
1286.080107817779
 21
753.5761982685813
 31
0.0
  0
LINE
  5
13D
330
1F
100
AcDbEntity
  8
0-4
  6
Continuous
 62
     7
370
     9
100
AcDbLine
 10
1440.678034601985
 20
743.1822410789698
 30
0.0
 11
1368.576049804688
 21
671.0807511613177
 31
0.0
  0
LINE
  5
13E
330
1F
100
AcDbEntity
  8
0-B
  6
Continuous
 62
     4
370
     9
100
AcDbLine
 10
548.6846923828125
 20
991.9899110536318
 30
0.0
 11
566.3444725242823
 21
996.7219502217063
 31
0.0
  0
LINE
  5
13F
330
1F
100
AcDbEntity
  8
0-B
  6
Continuous
 62
     4
370
     9
100
AcDbLine
 10
566.3444725242823
 20
996.7219502217063
 30
0.0
 11
579.2261896906672
 21
983.840233055321
 31
0.0
  0
LINE
  5
140
330
1F
100
AcDbEntity
  8
0-B
  6
Continuous
 62
     4
370
     9
100
AcDbLine
 10
574.4946454022386
 20
966.1804529138516
 30
0.0
 11
579.2261896906672
 21
983.840233055321
 31
0.0
  0
LINE
  5
141
330
1F
100
AcDbEntity
  8
0-B
  6
Continuous
 62
     4
370
     9
100
AcDbLine
 10
574.4946454022386
 20
966.1804529138516
 30
0.0
 11
556.8348652607688
 21
961.4484137457771
 31
0.0
  0
LINE
  5
142
330
1F
100
AcDbEntity
  8
0-B
  6
Continuous
 62
     4
370
     9
100
AcDbLine
 10
543.9531480943833
 20
974.3301309121623
 30
0.0
 11
556.8348652607688
 21
961.4484137457771
 31
0.0
  0
LINE
  5
143
330
1F
100
AcDbEntity
  8
0-B
  6
Continuous
 62
     4
370
     9
100
AcDbLine
 10
548.6846923828125
 20
991.9899110536318
 30
0.0
 11
543.9531480943833
 21
974.3301309121623
 31
0.0
  0
LINE
  5
144
330
1F
100
AcDbEntity
  8
0-B
  6
Continuous
 62
     4
370
     9
100
AcDbLine
 10
548.6851872624578
 20
-66.31553031302786
 30
0.0
 11
543.9531480943833
 21
-48.65575017155834
 31
0.0
  0
LINE
  5
145
330
1F
100
AcDbEntity
  8
0-B
  6
Continuous
 62
     4
370
     9
100
AcDbLine
 10
543.9531480943833
 20
-48.65575017155834
 30
0.0
 11
556.8348652607688
 21
-35.77403300517318
 31
0.0
  0
LINE
  5
146
330
1F
100
AcDbEntity
  8
0-B
  6
Continuous
 62
     4
370
     9
100
AcDbLine
 10
574.4946454022386
 20
-40.50557729360207
 30
0.0
 11
556.8348652607688
 21
-35.77403300517318
 31
0.0
  0
LINE
  5
147
330
1F
100
AcDbEntity
  8
0-B
  6
Continuous
 62
     4
370
     9
100
AcDbLine
 10
574.4946454022386
 20
-40.50557729360207
 30
0.0
 11
579.2266845703125
 21
-58.1653574350716
 31
0.0
  0
LINE
  5
148
330
1F
100
AcDbEntity
  8
0-B
  6
Continuous
 62
     4
370
     9
100
AcDbLine
 10
566.3449674039276
 20
-71.04707460145676
 30
0.0
 11
579.2266845703125
 21
-58.1653574350716
 31
0.0
  0
LINE
  5
149
330
1F
100
AcDbEntity
  8
0-B
  6
Continuous
 62
     4
370
     9
100
AcDbLine
 10
548.6851872624578
 20
-66.31553031302786
 30
0.0
 11
566.3449674039276
 21
-71.04707460145676
 31
0.0
  0
LINE
  5
14A
330
1F
100
AcDbEntity
  8
0-B
  6
Continuous
 62
     4
370
     9
100
AcDbLine
 10
1606.990752349029
 20
-66.31503543338255
 30
0.0
 11
1589.330972207559
 21
-71.04707460145676
 31
0.0
  0
LINE
  5
14B
330
1F
100
AcDbEntity
  8
0-B
  6
Continuous
 62
     4
370
     9
100
AcDbLine
 10
1589.330972207559
 20
-71.04707460145676
 30
0.0
 11
1576.449255041174
 21
-58.1653574350716
 31
0.0
  0
LINE
  5
14C
330
1F
100
AcDbEntity
  8
0-B
  6
Continuous
 62
     4
370
     9
100
AcDbLine
 10
1581.180799329603
 20
-40.50557729360207
 30
0.0
 11
1576.449255041174
 21
-58.1653574350716
 31
0.0
  0
LINE
  5
14D
330
1F
100
AcDbEntity
  8
0-B
  6
Continuous
 62
     4
370
     9
100
AcDbLine
 10
1581.180799329603
 20
-40.50557729360207
 30
0.0
 11
1598.840579471073
 21
-35.77353812552786
 31
0.0
  0
LINE
  5
14E
330
1F
100
AcDbEntity
  8
0-B
  6
Continuous
 62
     4
370
     9
100
AcDbLine
 10
1611.722296637458
 20
-48.65525529191302
 30
0.0
 11
1598.840579471073
 21
-35.77353812552786
 31
0.0
  0
LINE
  5
14F
330
1F
100
AcDbEntity
  8
0-B
  6
Continuous
 62
     4
370
     9
100
AcDbLine
 10
1606.990752349029
 20
-66.31503543338255
 30
0.0
 11
1611.722296637458
 21
-48.65525529191302
 31
0.0
  0
LINE
  5
150
330
1F
100
AcDbEntity
  8
0-B
  6
Continuous
 62
     4
370
     9
100
AcDbLine
 10
1606.990257469384
 20
991.9904059332771
 30
0.0
 11
1611.722296637458
 21
974.3306257918075
 31
0.0
  0
LINE
  5
151
330
1F
100
AcDbEntity
  8
0-B
  6
Continuous
 62
     4
370
     9
100
AcDbLine
 10
1611.722296637458
 20
974.3306257918075
 30
0.0
 11
1598.840579471073
 21
961.4489086254224
 31
0.0
  0
LINE
  5
152
330
1F
100
AcDbEntity
  8
0-B
  6
Continuous
 62
     4
370
     9
100
AcDbLine
 10
1581.180799329603
 20
966.1804529138516
 30
0.0
 11
1598.840579471073
 21
961.4489086254224
 31
0.0
  0
LINE
  5
153
330
1F
100
AcDbEntity
  8
0-B
  6
Continuous
 62
     4
370
     9
100
AcDbLine
 10
1581.180799329603
 20
966.1804529138516
 30
0.0
 11
1576.448760161529
 21
983.840233055321
 31
0.0
  0
LINE
  5
154
330
1F
100
AcDbEntity
  8
0-B
  6
Continuous
 62
     4
370
     9
100
AcDbLine
 10
1589.330477327914
 20
996.7219502217063
 30
0.0
 11
1576.448760161529
 21
983.840233055321
 31
0.0
  0
LINE
  5
155
330
1F
100
AcDbEntity
  8
0-B
  6
Continuous
 62
     4
370
     9
100
AcDbLine
 10
1606.990257469384
 20
991.9904059332771
 30
0.0
 11
1589.330477327914
 21
996.7219502217063
 31
0.0
  0
LINE
  5
156
330
1F
100
AcDbEntity
  8
1-1
  6
Continuous
 62
     2
370
     9
100
AcDbLine
 10
-1142.366130931957
 20
670.1236539273651
 30
0.0
 11
-1137.366609315614
 21
680.1236869193415
 31
0.0
  0
LINE
  5
157
330
1F
100
AcDbEntity
  8
1-1
  6
Continuous
 62
     2
370
     9
100
AcDbLine
 10
-1187.366279395851
 20
670.1236539273651
 30
0.0
 11
-1142.366130931957
 21
670.1236539273651
 31
0.0
  0
LINE
  5
158
330
1F
100
AcDbEntity
  8
1-1
  6
Continuous
 62
     2
370
     9
100
AcDbLine
 10
-489.6148681640625
 20
910.1244457347974
 30
0.0
 11
-514.6147032041807
 21
910.1244457347974
 31
0.0
  0
LINE
  5
159
330
1F
100
AcDbEntity
  8
1-1
  6
Continuous
 62
     2
370
     9
100
AcDbLine
 10
-387.1139113967482
 20
757.6248086465373
 30
0.0
 11
-407.1149671399914
 21
757.6248086465373
 31
0.0
  0
LINE
  5
15A
330
1F
100
AcDbEntity
  8
1-1
  6
Continuous
 62
     2
370
     9
100
AcDbLine
 10
-413.1945635821367
 20
678.590549778294
 30
0.0
 11
-407.1149671399914
 21
757.6248086465373
 31
0.0
  0
LINE
  5
15B
330
1F
100
AcDbEntity
  8
1-1
  6
Continuous
 62
     2
370
     9
100
AcDbLine
 10
-458.0900450010557
 20
660.1246106946792
 30
0.0
 11
-433.1354914484797
 21
660.1246106946792
 31
0.0
  0
LINE
  5
15C
330
1F
100
AcDbEntity
  8
1-1
  6
Continuous
 62
     2
370
     9
100
AcDbLine
 10
-478.0653670027448
 20
679.1260095544766
 30
0.0
 11
-489.6148681640625
 21
910.1244457347974
 31
0.0
  0
LINE
  5
15D
330
1F
100
AcDbEntity
  8
1-1
  6
Continuous
 62
     2
370
     9
100
AcDbLine
 10
-386.7768983583193
 20
753.4980072846283
 30
0.0
 11
-387.1139113967482
 21
757.6248086465373
 31
0.0
  0
LINE
  5
15E
330
1F
100
AcDbEntity
  8
1-1
  6
JWW_DASHED1
 62
     2
370
     9
100
AcDbLine
 10
-377.1148681640625
 20
635.124775654561
 30
0.0
 11
-386.7768983583193
 21
753.4980072846283
 31
0.0
  0
LINE
  5
15F
330
1F
100
AcDbEntity
  8
1-1
  6
Continuous
 62
     2
370
     9
100
AcDbLine
 10
-515.9167315508867
 20
885.1246106946792
 30
0.0
 11
-514.6147032041807
 21
910.1244457347974
 31
0.0
  0
LINE
  5
160
330
1F
100
AcDbEntity
  8
1-1
  6
Continuous
 62
     2
370
     9
100
AcDbLine
 10
-992.3663165118242
 20
680.1236869193415
 30
0.0
 11
-1137.366609315614
 21
680.1236869193415
 31
0.0
  0
LINE
  5
161
330
1F
100
AcDbEntity
  8
1-1
  6
Continuous
 62
     2
370
     9
100
AcDbLine
 10
-992.3663165118242
 20
680.1236869193415
 30
0.0
 11
-515.9167315508867
 21
885.1246106946792
 31
0.0
  0
LINE
  5
162
330
1F
100
AcDbEntity
  8
1-1
  6
JWW_HOJO
 62
     2
370
     9
100
AcDbLine
 10
-540.8326844911318
 20
680.1236869193415
 30
0.0
 11
-992.3663165118242
 21
680.1236869193415
 31
0.0
  0
LINE
  5
163
330
1F
100
AcDbEntity
  8
1-1
  6
Continuous
 62
     2
370
     9
100
AcDbLine
 10
-1112.364547317093
 20
680.1236869193415
 30
0.0
 11
-1104.864893732844
 21
635.123291015625
 31
0.0
  0
LINE
  5
164
330
1F
100
AcDbEntity
  8
1-1
  6
Continuous
 62
     2
370
     9
100
AcDbLine
 10
-1029.865326752534
 20
635.1237858952703
 30
0.0
 11
-1022.365673168285
 21
680.1236869193415
 31
0.0
  0
LINE
  5
165
330
1F
100
AcDbEntity
  8
1-1
  6
JWW_HOJO
 62
     2
370
     9
100
AcDbLine
 10
-597.1146042282516
 20
670.125633445946
 30
0.0
 11
-602.1148681640625
 21
635.1252705342063
 31
0.0
  0
LINE
  5
166
330
1F
100
AcDbEntity
  8
1-1
  6
JWW_HOJO
 62
     2
370
     9
100
AcDbLine
 10
-541.3537927576012
 20
670.125633445946
 30
0.0
 11
-597.1146042282516
 21
670.125633445946
 31
0.0
  0
LINE
  5
167
330
1F
100
AcDbEntity
  8
1-1
  6
JWW_HOJO
 62
     2
370
     9
100
AcDbLine
 10
-526.374528214738
 20
684.3455051731419
 30
0.0
 11
-515.9167315508867
 21
885.1246106946792
 31
0.0
  0
LINE
  5
168
330
1F
100
AcDbEntity
  8
1-1
  6
Continuous
 62
     2
370
     9
100
AcDbLine
 10
-1192.366295891839
 20
635.1252705342063
 30
0.0
 11
-1187.366279395851
 21
670.1236539273651
 31
0.0
  0
LINE
  5
169
330
1F
100
AcDbEntity
  8
1-1
  6
Continuous
 62
     2
370
     9
100
AcDbLine
 10
-254.6113710145693
 20
728.4239402977198
 30
0.0
 11
-244.6152970597549
 21
635.124775654561
 31
0.0
  0
LINE
  5
16A
330
1F
100
AcDbEntity
  8
1-1
  6
Continuous
 62
     2
370
     9
100
AcDbLine
 10
-1192.366295891839
 20
635.1252705342063
 30
0.0
 11
-244.6152970597549
 21
635.124775654561
 31
0.0
  0
LINE
  5
16B
330
1F
100
AcDbEntity
  8
1-1
  6
Continuous
 62
     2
370
     9
100
AcDbLine
 10
-262.0687123891469
 20
735.1251055743245
 30
0.0
 11
-366.8441360061232
 21
735.1251055743245
 31
0.0
  0
LINE
  5
16C
330
1F
100
AcDbEntity
  8
1-1
  6
Continuous
 62
     2
370
     9
100
AcDbLine
 10
-297.1150991078969
 20
635.124775654561
 30
0.0
 11
-297.1150991078969
 21
735.1251055743245
 31
0.0
  0
LINE
  5
16D
330
1F
100
AcDbEntity
  8
1-1
  6
Continuous
 62
     2
370
     9
100
AcDbLine
 10
-302.1153630437075
 20
635.124775654561
 30
0.0
 11
-302.1153630437075
 21
735.1251055743245
 31
0.0
  0
LINE
  5
16E
330
1F
100
AcDbEntity
  8
1-1
  6
Continuous
 62
     2
370
     9
100
AcDbLine
 10
-352.1150331239443
 20
635.124775654561
 30
0.0
 11
-352.1150331239443
 21
735.1251055743245
 31
0.0
  0
LINE
  5
16F
330
1F
100
AcDbEntity
  8
1-1
  6
Continuous
 62
     2
370
     9
100
AcDbLine
 10
-357.1152970597549
 20
635.124775654561
 30
0.0
 11
-357.1152970597549
 21
735.1251055743245
 31
0.0
  0
LINE
  5
170
330
1F
100
AcDbEntity
  8
1-3
  6
Continuous
 62
     4
370
     9
100
AcDbLine
 10
-327.1149506440034
 20
750.5702993032096
 30
0.0
 11
-327.1149506440034
 21
1160.134673247466
 31
0.0
  0
LINE
  5
171
330
1F
100
AcDbEntity
  8
1-8
  6
Continuous
 62
     7
370
     9
100
AcDbLine
 10
-1122.364889608847
 20
305.7456269135346
 30
0.0
 11
-1012.365145296664
 21
335.2200399862755
 31
0.0
  0
LINE
  5
172
330
1F
100
AcDbEntity
  8
1-8
  6
Continuous
 62
     7
370
     9
100
AcDbLine
 10
-1122.364889608847
 20
285.039986275338
 30
0.0
 11
-1012.365145296664
 21
314.5143993480787
 31
0.0
  0
LINE
  5
173
330
1F
100
AcDbEntity
  8
1-8
  6
Continuous
 62
     7
370
     9
100
AcDbLine
 10
-397.1149341480151
 20
307.7552094330659
 30
0.0
 11
-302.1151156038852
 21
333.2103337468328
 31
0.0
  0
LINE
  5
174
330
1F
100
AcDbEntity
  8
1-8
  6
Continuous
 62
     7
370
     9
100
AcDbLine
 10
-397.1149341480151
 20
287.0495687948693
 30
0.0
 11
-302.1151156038852
 21
312.5046931086362
 31
0.0
  0
LINE
  5
175
330
1F
100
AcDbEntity
  8
1-8
  6
Continuous
 62
     3
370
     9
100
AcDbLine
 10
-1037.364980336782
 20
572.625064334354
 30
0.0
 11
-1037.364980336782
 21
328.5213491078972
 31
0.0
  0
LINE
  5
176
330
1F
100
AcDbEntity
  8
1-8
  6
Continuous
 62
     3
370
     9
100
AcDbLine
 10
-1042.36499683277
 20
572.625064334354
 30
0.0
 11
-1042.36499683277
 21
327.1815861882391
 31
0.0
  0
LINE
  5
177
330
1F
100
AcDbEntity
  8
1-8
  6
Continuous
 62
     3
370
     9
100
AcDbLine
 10
-1097.364992708773
 20
572.625064334354
 30
0.0
 11
-1097.364992708773
 21
312.444317791913
 31
0.0
  0
LINE
  5
178
330
1F
100
AcDbEntity
  8
1-8
  6
Continuous
 62
     3
370
     9
100
AcDbLine
 10
-1092.364976212785
 20
572.625064334354
 30
0.0
 11
-1092.364976212785
 21
313.7840807115711
 31
0.0
  0
LINE
  5
179
330
1F
100
AcDbEntity
  8
1-3
  6
Continuous
 62
     4
370
     9
100
AcDbLine
 10
-327.1149506440034
 20
326.5116428684544
 30
0.0
 11
-327.1149506440034
 21
620.124973606419
 31
0.0
  0
LINE
  5
17A
330
1F
100
AcDbEntity
  8
1-3
  6
Continuous
 62
     4
370
     9
100
AcDbLine
 10
-372.1148516680742
 20
314.4540240313557
 30
0.0
 11
-372.1148516680742
 21
620.124973606419
 31
0.0
  0
LINE
  5
17B
330
1F
100
AcDbEntity
  8
1-3
  6
Continuous
 62
     4
370
     9
100
AcDbLine
 10
-372.1148516680742
 20
-89.86524427259269
 30
0.0
 11
-372.1148516680742
 21
293.7482596732477
 31
0.0
  0
LINE
  5
17C
330
1F
100
AcDbEntity
  8
1-3
  6
Continuous
 62
     4
370
     9
100
AcDbLine
 10
-327.1149506440034
 20
-89.86524427259269
 30
0.0
 11
-327.1149506440034
 21
305.8060022302578
 31
0.0
  0
LINE
  5
17D
330
1F
100
AcDbEntity
  8
0-1
  6
JWW_CENTER1
 62
     2
370
     9
100
AcDbLine
 10
457.7223494246201
 20
462.837375950169
 30
0.0
 11
1697.953095307221
 21
462.837375950169
 31
0.0
  0
LINE
  5
17E
330
1F
100
AcDbEntity
  8
0-1
  6
JWW_CENTER1
 62
     2
370
     9
100
AcDbLine
 10
1077.837722365921
 20
-157.2779969911318
 30
0.0
 11
1077.837722365921
 21
1082.95274889147
 31
0.0
  0
LINE
  5
17F
330
1F
100
AcDbEntity
  8
1-4
  6
Continuous
 62
     7
370
     9
100
AcDbLine
 10
-1012.615059517525
 20
622.6251055743245
 30
0.0
 11
-997.3960257865286
 21
602.7908242715373
 31
0.0
  0
LINE
  5
180
330
1F
100
AcDbEntity
  8
1-4
  6
Continuous
 62
     7
370
     9
100
AcDbLine
 10
-1012.615059517525
 20
622.6251055743245
 30
0.0
 11
-1003.04804621516
 21
599.5280827702703
 31
0.0
  0
LINE
  5
181
330
1F
100
AcDbEntity
  8
1-4
  6
Continuous
 62
     7
370
     9
100
AcDbLine
 10
-1012.615059517525
 20
622.6251055743245
 30
0.0
 11
-943.3331463788006
 21
502.6249571104307
 31
0.0
  0
LINE
  5
182
330
1F
100
AcDbEntity
  8
1-4
  6
Continuous
 62
     7
370
     9
100
AcDbLine
 10
-943.3331463788006
 20
502.6249571104307
 30
0.0
 11
-420.942399308488
 21
502.6249571104307
 31
0.0
  0
ARC
  5
183
330
1F
100
AcDbEntity
  8
1-8
  6
Continuous
 62
     4
370
     9
100
AcDbCircle
 10
-1108.403035756704
 20
723.1099226668075
 30
0.0
 40
19.51515159091434
100
AcDbArc
 50
45.36129760742188
 51
134.6389617919922
  0
ARC
  5
184
330
1F
100
AcDbEntity
  8
1-8
  6
Continuous
 62
     4
370
     9
100
AcDbCircle
 10
-1067.365141172667
 20
673.485371357686
 30
0.0
 40
69.13950378830368
100
AcDbArc
 50
66.71980285644531
 51
113.2803039550781
  0
ARC
  5
185
330
1F
100
AcDbEntity
  8
1-8
  6
Continuous
 62
     4
370
     9
100
AcDbCircle
 10
-1026.327308448585
 20
723.1099226668075
 30
0.0
 40
19.51530430767987
100
AcDbArc
 50
45.36129760742188
 51
134.63818359375
  0
ARC
  5
186
330
1F
100
AcDbEntity
  8
1-8
  6
Continuous
 62
     4
370
     9
100
AcDbCircle
 10
-1108.403035756704
 20
592.1400245460304
 30
0.0
 40
19.51515159091434
100
AcDbArc
 50
225.3610382080078
 51
314.6387023925781
  0
ARC
  5
187
330
1F
100
AcDbEntity
  8
1-8
  6
Continuous
 62
     4
370
     9
100
AcDbCircle
 10
-1067.365141172667
 20
641.7645758551521
 30
0.0
 40
69.13950378830368
100
AcDbArc
 50
246.7196960449219
 51
293.2801971435547
  0
ARC
  5
188
330
1F
100
AcDbEntity
  8
1-8
  6
Continuous
 62
     4
370
     9
100
AcDbCircle
 10
-1026.327308448585
 20
592.1400245460304
 30
0.0
 40
19.51530430767987
100
AcDbArc
 50
225.36181640625
 51
314.6387023925781
  0
ELLIPSE
  5
189
330
1F
100
AcDbEntity
  8
1-8
  6
Continuous
 62
     6
370
     5
100
AcDbEllipse
 10
-431.5179773279138
 20
915.2325934332771
 30
0.0
 11
-6.381359424687612
 21
36.19048768967694
 31
0.0
210
0.0
220
0.0
230
1.0
 40
0.2692
 41
0.0
 42
6.283185307179586
  0
ARC
  5
18A
330
1F
100
AcDbEntity
  8
0-1
  6
Continuous
 62
     2
370
     9
100
AcDbCircle
 10
1552.837557406039
 20
937.8367161106419
 30
0.0
 40
99.99999742250185
100
AcDbArc
 50
359.9998626708985
 51
90.00000000000006
  0
ARC
  5
18B
330
1F
100
AcDbEntity
  8
0-1
  6
Continuous
 62
     2
370
     9
100
AcDbCircle
 10
1552.837557406039
 20
937.8367161106419
 30
0.0
 40
98.3333278346706
100
AcDbArc
 50
359.9998626708985
 51
90.00000000000006
  0
CIRCLE
  5
18C
330
1F
100
AcDbEntity
  8
0-1
  6
Continuous
 62
     2
370
     9
100
AcDbCircle
 10
1077.837722365921
 20
462.837375950169
 30
0.0
 40
537.4999793800148
  0
CIRCLE
  5
18D
330
1F
100
AcDbEntity
  8
0-1
  6
Continuous
 62
     2
370
     9
100
AcDbCircle
 10
1077.837722365921
 20
462.837375950169
 30
0.0
 40
545.8333195866766
  0
ARC
  5
18E
330
1F
100
AcDbEntity
  8
0-1
  6
Continuous
 62
     2
370
     9
100
AcDbCircle
 10
1552.837557406039
 20
937.8367161106419
 30
0.0
 40
81.66666288633606
100
AcDbArc
 50
7.248153686523438
 51
82.75238037109375
  0
ARC
  5
18F
330
1F
100
AcDbEntity
  8
0-1
  6
Continuous
 62
     2
370
     9
100
AcDbCircle
 10
1552.837557406039
 20
937.8367161106419
 30
0.0
 40
83.33333247416729
100
AcDbArc
 50
6.6839599609375
 51
83.31655883789062
  0
ARC
  5
190
330
1F
100
AcDbEntity
  8
0-1
  6
Continuous
 62
     2
370
     9
100
AcDbCircle
 10
1529.936506941512
 20
1004.503437763936
 30
0.0
 40
10.00000012887491
100
AcDbArc
 50
315.0000000000001
 51
90.00000000000006
  0
ARC
  5
191
330
1F
100
AcDbEntity
  8
0-1
  6
Continuous
 62
     2
370
     9
100
AcDbCircle
 10
1619.504773938978
 20
914.9366554054054
 30
0.0
 40
10.00000012887491
100
AcDbArc
 50
0.0
 51
135.0
  0
ARC
  5
192
330
1F
100
AcDbEntity
  8
0-1
  6
Continuous
 62
     2
370
     9
100
AcDbCircle
 10
1619.504773938978
 20
914.9366554054054
 30
0.0
 40
13.33333350516654
100
AcDbArc
 50
0.0
 51
106.0455932617188
  0
ARC
  5
193
330
1F
100
AcDbEntity
  8
0-1
  6
Continuous
 62
     2
370
     9
100
AcDbCircle
 10
1529.936506941512
 20
1004.503437763936
 30
0.0
 40
13.33333350516654
100
AcDbArc
 50
343.9544067382812
 51
89.99999999999999
  0
ARC
  5
194
330
1F
100
AcDbEntity
  8
0-1
  6
Continuous
 62
     2
370
     9
100
AcDbCircle
 10
1529.267429661107
 20
914.2665883657096
 30
0.0
 40
66.66666752583272
100
AcDbArc
 50
40.69877624511719
 51
49.30122375488281
  0
ARC
  5
195
330
1F
100
AcDbEntity
  8
0-1
  6
Continuous
 62
     2
370
     9
100
AcDbCircle
 10
1426.493299329603
 20
901.0602301520271
 30
0.0
 40
10.00000012887491
100
AcDbArc
 50
231.4938507080078
 51
315.0
  0
ARC
  5
196
330
1F
100
AcDbEntity
  8
0-1
  6
Continuous
 62
     2
370
     9
100
AcDbCircle
 10
1426.493299329603
 20
901.0602301520271
 30
0.0
 40
13.33333350516654
100
AcDbArc
 50
271.318603515625
 51
315.0000000000001
  0
ARC
  5
197
330
1F
100
AcDbEntity
  8
0-1
  6
Continuous
 62
     2
370
     9
100
AcDbCircle
 10
1516.060576567779
 20
811.4929529138516
 30
0.0
 40
10.00000012887491
100
AcDbArc
 50
135.0
 51
218.5061492919922
  0
ARC
  5
198
330
1F
100
AcDbEntity
  8
0-1
  6
Continuous
 62
     2
370
     9
100
AcDbCircle
 10
1516.060576567779
 20
811.4929529138516
 30
0.0
 40
13.33333350516654
100
AcDbArc
 50
135.0
 51
178.681396484375
  0
ARC
  5
199
330
1F
100
AcDbEntity
  8
0-1
  6
Continuous
 62
     2
370
     9
100
AcDbCircle
 10
1219.955279376056
 20
1004.503932643581
 30
0.0
 40
10.00000012887491
100
AcDbArc
 50
90.0
 51
255.2990875244141
  0
ARC
  5
19A
330
1F
100
AcDbEntity
  8
0-1
  6
Continuous
 62
     2
370
     9
100
AcDbCircle
 10
1219.955279376056
 20
1004.503932643581
 30
0.0
 40
13.33333350516654
100
AcDbArc
 50
90.0
 51
214.3426971435547
  0
ARC
  5
19B
330
1F
100
AcDbEntity
  8
0-1
  6
Continuous
 62
     2
370
     9
100
AcDbCircle
 10
1077.837722365921
 20
462.837375950169
 30
0.0
 40
549.9999587600296
100
AcDbArc
 50
51.49380493164063
 51
75.29859924316408
  0
ARC
  5
19C
330
1F
100
AcDbEntity
  8
0-1
  6
Continuous
 62
     2
370
     9
100
AcDbCircle
 10
1619.504279059333
 20
604.9539432010135
 30
0.0
 40
10.00000012887491
100
AcDbArc
 50
194.7012786865234
 51
0.0000000000000254
  0
ARC
  5
19D
330
1F
100
AcDbEntity
  8
0-1
  6
Continuous
 62
     2
370
     9
100
AcDbCircle
 10
1077.837722365921
 20
462.837375950169
 30
0.0
 40
549.9999587600296
100
AcDbArc
 50
14.70132446289063
 51
38.50619506835938
  0
ARC
  5
19E
330
1F
100
AcDbEntity
  8
0-1
  6
Continuous
 62
     2
370
     9
100
AcDbCircle
 10
1619.504279059333
 20
604.9539432010135
 30
0.0
 40
13.33333350516654
100
AcDbArc
 50
235.6587677001953
 51
0.0000000000000254
  0
ARC
  5
19F
330
1F
100
AcDbEntity
  8
0-1
  6
Continuous
 62
     2
370
     9
100
AcDbCircle
 10
1077.837722365921
 20
462.837375950169
 30
0.0
 40
549.9999587600296
100
AcDbArc
 50
76.2091064453125
 51
103.7908020019531
  0
ARC
  5
1A0
330
1F
100
AcDbEntity
  8
0-1
  6
Continuous
 62
     2
370
     9
100
AcDbCircle
 10
602.8378873258026
 20
937.8377058699325
 30
0.0
 40
99.99999742250185
100
AcDbArc
 50
89.99986267089845
 51
180.0
  0
ARC
  5
1A1
330
1F
100
AcDbEntity
  8
0-1
  6
Continuous
 62
     2
370
     9
100
AcDbCircle
 10
602.8378873258026
 20
937.8377058699325
 30
0.0
 40
98.3333278346706
100
AcDbArc
 50
89.99986267089845
 51
180.0
  0
ARC
  5
1A2
330
1F
100
AcDbEntity
  8
0-1
  6
Continuous
 62
     2
370
     9
100
AcDbCircle
 10
602.8378873258026
 20
937.8377058699325
 30
0.0
 40
81.66666288633606
100
AcDbArc
 50
97.24815368652342
 51
172.7523803710938
  0
ARC
  5
1A3
330
1F
100
AcDbEntity
  8
0-1
  6
Continuous
 62
     2
370
     9
100
AcDbCircle
 10
602.8378873258026
 20
937.8377058699325
 30
0.0
 40
83.33333247416729
100
AcDbArc
 50
96.6839599609375
 51
173.3165588378906
  0
ARC
  5
1A4
330
1F
100
AcDbEntity
  8
0-1
  6
Continuous
 62
     2
370
     9
100
AcDbCircle
 10
536.1716605521536
 20
914.9361605257602
 30
0.0
 40
10.00000012887491
100
AcDbArc
 50
45.0
 51
180.0
  0
ARC
  5
1A5
330
1F
100
AcDbEntity
  8
0-1
  6
Continuous
 62
     2
370
     9
100
AcDbCircle
 10
625.7379480310391
 20
1004.504427523227
 30
0.0
 40
10.00000012887491
100
AcDbArc
 50
90.0
 51
225.0
  0
ARC
  5
1A6
330
1F
100
AcDbEntity
  8
0-1
  6
Continuous
 62
     2
370
     9
100
AcDbCircle
 10
625.7379480310391
 20
1004.504427523227
 30
0.0
 40
13.33333350516654
100
AcDbArc
 50
90.0
 51
196.0455932617188
  0
ARC
  5
1A7
330
1F
100
AcDbEntity
  8
0-1
  6
Continuous
 62
     2
370
     9
100
AcDbCircle
 10
536.1716605521536
 20
914.9361605257602
 30
0.0
 40
13.33333350516654
100
AcDbArc
 50
73.95440673828125
 51
180.0
  0
ARC
  5
1A8
330
1F
100
AcDbEntity
  8
0-1
  6
Continuous
 62
     2
370
     9
100
AcDbCircle
 10
626.4080150707349
 20
914.267083245355
 30
0.0
 40
66.66666752583272
100
AcDbArc
 50
130.6987762451172
 51
139.3012237548828
  0
ARC
  5
1A9
330
1F
100
AcDbEntity
  8
0-1
  6
Continuous
 62
     2
370
     9
100
AcDbCircle
 10
639.6148681640625
 20
811.4929529138516
 30
0.0
 40
10.00000012887491
100
AcDbArc
 50
321.4938507080078
 51
45.0
  0
ARC
  5
1AA
330
1F
100
AcDbEntity
  8
0-1
  6
Continuous
 62
     2
370
     9
100
AcDbCircle
 10
639.6148681640625
 20
811.4929529138516
 30
0.0
 40
13.33333350516654
100
AcDbArc
 50
1.318603515625
 51
45.00000000000001
  0
ARC
  5
1AB
330
1F
100
AcDbEntity
  8
0-1
  6
Continuous
 62
     2
370
     9
100
AcDbCircle
 10
729.1821454022386
 20
901.0602301520271
 30
0.0
 40
10.00000012887491
100
AcDbArc
 50
225.0
 51
308.5061492919922
  0
ARC
  5
1AC
330
1F
100
AcDbEntity
  8
0-1
  6
Continuous
 62
     2
370
     9
100
AcDbCircle
 10
729.1821454022386
 20
901.0602301520271
 30
0.0
 40
13.33333350516654
100
AcDbArc
 50
225.0
 51
268.681396484375
  0
ARC
  5
1AD
330
1F
100
AcDbEntity
  8
0-1
  6
Continuous
 62
     2
370
     9
100
AcDbCircle
 10
536.1711656725083
 20
604.9549329603042
 30
0.0
 40
10.00000012887491
100
AcDbArc
 50
180.0
 51
345.2990875244141
  0
ARC
  5
1AE
330
1F
100
AcDbEntity
  8
0-1
  6
Continuous
 62
     2
370
     9
100
AcDbCircle
 10
536.1711656725083
 20
604.9549329603042
 30
0.0
 40
13.33333350516654
100
AcDbArc
 50
180.0
 51
304.3426971435547
  0
ARC
  5
1AF
330
1F
100
AcDbEntity
  8
0-1
  6
Continuous
 62
     2
370
     9
100
AcDbCircle
 10
1077.837722365921
 20
462.8374996700802
 30
0.0
 40
549.9999587600296
100
AcDbArc
 50
141.4938049316406
 51
165.2985992431641
  0
ARC
  5
1B0
330
1F
100
AcDbEntity
  8
0-1
  6
Continuous
 62
     2
370
     9
100
AcDbCircle
 10
935.7206602354307
 20
1004.503932643581
 30
0.0
 40
10.00000012887491
100
AcDbArc
 50
284.7012786865234
 51
90.00000000000001
  0
ARC
  5
1B1
330
1F
100
AcDbEntity
  8
0-1
  6
Continuous
 62
     2
370
     9
100
AcDbCircle
 10
1077.837722365921
 20
462.8374996700802
 30
0.0
 40
549.9999587600296
100
AcDbArc
 50
104.7013244628906
 51
128.5061950683594
  0
ARC
  5
1B2
330
1F
100
AcDbEntity
  8
0-1
  6
Continuous
 62
     2
370
     9
100
AcDbCircle
 10
935.7206602354307
 20
1004.503932643581
 30
0.0
 40
13.33333350516654
100
AcDbArc
 50
325.6587677001953
 51
90.00000000000001
  0
ARC
  5
1B3
330
1F
100
AcDbEntity
  8
0-1
  6
Continuous
 62
     2
370
     9
100
AcDbCircle
 10
1077.837722365921
 20
462.8374996700802
 30
0.0
 40
549.9999587600296
100
AcDbArc
 50
166.2091064453125
 51
193.7908020019532
  0
ARC
  5
1B4
330
1F
100
AcDbEntity
  8
0-1
  6
Continuous
 62
     2
370
     9
100
AcDbCircle
 10
602.8378873258026
 20
-12.16196421030389
 30
0.0
 40
99.99999742250185
100
AcDbArc
 50
179.9998626708984
 51
270.0
  0
ARC
  5
1B5
330
1F
100
AcDbEntity
  8
0-1
  6
Continuous
 62
     2
370
     9
100
AcDbCircle
 10
602.8378873258026
 20
-12.16196421030389
 30
0.0
 40
98.3333278346706
100
AcDbArc
 50
179.9998626708984
 51
270.0
  0
ARC
  5
1B6
330
1F
100
AcDbEntity
  8
0-1
  6
Continuous
 62
     2
370
     9
100
AcDbCircle
 10
602.8378873258026
 20
-12.16196421030389
 30
0.0
 40
81.66666288633606
100
AcDbArc
 50
187.2481536865234
 51
262.7523803710938
  0
ARC
  5
1B7
330
1F
100
AcDbEntity
  8
0-1
  6
Continuous
 62
     2
370
     9
100
AcDbCircle
 10
602.8378873258026
 20
-12.16196421030389
 30
0.0
 40
83.33333247416729
100
AcDbArc
 50
186.6839599609375
 51
263.3165588378907
  0
ARC
  5
1B8
330
1F
100
AcDbEntity
  8
0-1
  6
Continuous
 62
     2
370
     9
100
AcDbCircle
 10
625.7389377903297
 20
-78.82843842377525
 30
0.0
 40
10.00000012887491
100
AcDbArc
 50
135.0
 51
270.0
  0
ARC
  5
1B9
330
1F
100
AcDbEntity
  8
0-1
  6
Continuous
 62
     2
370
     9
100
AcDbCircle
 10
536.1706707928636
 20
10.73809649493256
 30
0.0
 40
10.00000012887491
100
AcDbArc
 50
180.0
 51
315.0
  0
ARC
  5
1BA
330
1F
100
AcDbEntity
  8
0-1
  6
Continuous
 62
     2
370
     9
100
AcDbCircle
 10
536.1706707928636
 20
10.73809649493256
 30
0.0
 40
13.33333350516654
100
AcDbArc
 50
180.0
 51
286.0455932617188
  0
ARC
  5
1BB
330
1F
100
AcDbEntity
  8
0-1
  6
Continuous
 62
     2
370
     9
100
AcDbCircle
 10
625.7389377903297
 20
-78.82843842377525
 30
0.0
 40
13.33333350516654
100
AcDbArc
 50
163.9544067382813
 51
270.0
  0
ARC
  5
1BC
330
1F
100
AcDbEntity
  8
0-1
  6
Continuous
 62
     2
370
     9
100
AcDbCircle
 10
626.4080150707349
 20
11.40816353462839
 30
0.0
 40
66.66666752583272
100
AcDbArc
 50
220.6987762451172
 51
229.3012237548828
  0
ARC
  5
1BD
330
1F
100
AcDbEntity
  8
0-1
  6
Continuous
 62
     2
370
     9
100
AcDbCircle
 10
729.1821454022386
 20
24.61476918813361
 30
0.0
 40
10.00000012887491
100
AcDbArc
 50
51.49385070800781
 51
135.0
  0
ARC
  5
1BE
330
1F
100
AcDbEntity
  8
0-1
  6
Continuous
 62
     2
370
     9
100
AcDbCircle
 10
729.1821454022386
 20
24.61476918813361
 30
0.0
 40
13.33333350516654
100
AcDbArc
 50
91.318603515625
 51
135.0
  0
ARC
  5
1BF
330
1F
100
AcDbEntity
  8
0-1
  6
Continuous
 62
     2
370
     9
100
AcDbCircle
 10
639.6148681640625
 20
114.1820464263091
 30
0.0
 40
10.00000012887491
100
AcDbArc
 50
315.0000000000001
 51
38.50614929199223
  0
ARC
  5
1C0
330
1F
100
AcDbEntity
  8
0-1
  6
Continuous
 62
     2
370
     9
100
AcDbCircle
 10
639.6148681640625
 20
114.1820464263091
 30
0.0
 40
13.33333350516654
100
AcDbArc
 50
315.0000000000001
 51
358.6813964843751
  0
ARC
  5
1C1
330
1F
100
AcDbEntity
  8
0-1
  6
Continuous
 62
     2
370
     9
100
AcDbCircle
 10
935.7201653557854
 20
-78.82893330342057
 30
0.0
 40
10.00000012887491
100
AcDbArc
 50
270.0
 51
75.29908752441406
  0
ARC
  5
1C2
330
1F
100
AcDbEntity
  8
0-1
  6
Continuous
 62
     2
370
     9
100
AcDbCircle
 10
935.7201653557854
 20
-78.82893330342057
 30
0.0
 40
13.33333350516654
100
AcDbArc
 50
270.0
 51
34.34269714355469
  0
ARC
  5
1C3
330
1F
100
AcDbEntity
  8
0-1
  6
Continuous
 62
     2
370
     9
100
AcDbCircle
 10
1077.837722365921
 20
462.8376233899917
 30
0.0
 40
549.9999587600296
100
AcDbArc
 50
231.4938049316406
 51
255.2985992431641
  0
ARC
  5
1C4
330
1F
100
AcDbEntity
  8
0-1
  6
Continuous
 62
     2
370
     9
100
AcDbCircle
 10
536.1711656725083
 20
320.7208086993245
 30
0.0
 40
10.00000012887491
100
AcDbArc
 50
14.70127868652344
 51
180.0
  0
ARC
  5
1C5
330
1F
100
AcDbEntity
  8
0-1
  6
Continuous
 62
     2
370
     9
100
AcDbCircle
 10
1077.837722365921
 20
462.8376233899917
 30
0.0
 40
549.9999587600296
100
AcDbArc
 50
194.7013244628906
 51
218.5061950683594
  0
ARC
  5
1C6
330
1F
100
AcDbEntity
  8
0-1
  6
Continuous
 62
     2
370
     9
100
AcDbCircle
 10
536.1711656725083
 20
320.7208086993245
 30
0.0
 40
13.33333350516654
100
AcDbArc
 50
55.65876770019531
 51
180.0
  0
ARC
  5
1C7
330
1F
100
AcDbEntity
  8
0-1
  6
Continuous
 62
     2
370
     9
100
AcDbCircle
 10
1077.837722365921
 20
462.8376233899917
 30
0.0
 40
549.9999587600296
100
AcDbArc
 50
256.2091064453126
 51
283.7908020019532
  0
ARC
  5
1C8
330
1F
100
AcDbEntity
  8
0-1
  6
Continuous
 62
     2
370
     9
100
AcDbCircle
 10
1552.837557406039
 20
-12.16233537003802
 30
0.0
 40
99.99999742250185
100
AcDbArc
 50
269.9998626708984
 51
0.0
  0
ARC
  5
1C9
330
1F
100
AcDbEntity
  8
0-1
  6
Continuous
 62
     2
370
     9
100
AcDbCircle
 10
1552.837557406039
 20
-12.16233537003802
 30
0.0
 40
98.3333278346706
100
AcDbArc
 50
269.9998626708984
 51
0.0
  0
ARC
  5
1CA
330
1F
100
AcDbEntity
  8
0-1
  6
Continuous
 62
     2
370
     9
100
AcDbCircle
 10
1552.837557406039
 20
-12.16233537003802
 30
0.0
 40
81.66666288633606
100
AcDbArc
 50
277.2481536865234
 51
352.7523803710938
  0
ARC
  5
1CB
330
1F
100
AcDbEntity
  8
0-1
  6
Continuous
 62
     2
370
     9
100
AcDbCircle
 10
1552.837557406039
 20
-12.16233537003802
 30
0.0
 40
83.33333247416729
100
AcDbArc
 50
276.6839599609375
 51
353.3165588378907
  0
ARC
  5
1CC
330
1F
100
AcDbEntity
  8
0-1
  6
Continuous
 62
     2
370
     9
100
AcDbCircle
 10
1619.503784179688
 20
10.73896253431172
 30
0.0
 40
10.00000012887491
100
AcDbArc
 50
225.0
 51
0.0
  0
ARC
  5
1CD
330
1F
100
AcDbEntity
  8
0-1
  6
Continuous
 62
     2
370
     9
100
AcDbCircle
 10
1529.937496700803
 20
-78.82905702333176
 30
0.0
 40
10.00000012887491
100
AcDbArc
 50
270.0
 51
45.0
  0
ARC
  5
1CE
330
1F
100
AcDbEntity
  8
0-1
  6
Continuous
 62
     2
370
     9
100
AcDbCircle
 10
1529.937496700803
 20
-78.82905702333176
 30
0.0
 40
13.33333350516654
100
AcDbArc
 50
270.0
 51
16.04559326171875
  0
ARC
  5
1CF
330
1F
100
AcDbEntity
  8
0-1
  6
Continuous
 62
     2
370
     9
100
AcDbCircle
 10
1619.503784179688
 20
10.73896253431172
 30
0.0
 40
13.33333350516654
100
AcDbArc
 50
253.9544067382812
 51
0.0
  0
ARC
  5
1D0
330
1F
100
AcDbEntity
  8
0-1
  6
Continuous
 62
     2
370
     9
100
AcDbCircle
 10
1529.267429661107
 20
11.40828725453986
 30
0.0
 40
66.66666752583272
100
AcDbArc
 50
310.6987762451172
 51
319.3012237548828
  0
ARC
  5
1D1
330
1F
100
AcDbEntity
  8
0-1
  6
Continuous
 62
     2
370
     9
100
AcDbCircle
 10
1516.060576567779
 20
114.1821701462206
 30
0.0
 40
10.00000012887491
100
AcDbArc
 50
141.4938507080078
 51
225.0
  0
ARC
  5
1D2
330
1F
100
AcDbEntity
  8
0-1
  6
Continuous
 62
     2
370
     9
100
AcDbCircle
 10
1516.060576567779
 20
114.1821701462206
 30
0.0
 40
13.33333350516654
100
AcDbArc
 50
181.318603515625
 51
225.0
  0
ARC
  5
1D3
330
1F
100
AcDbEntity
  8
0-1
  6
Continuous
 62
     2
370
     9
100
AcDbCircle
 10
1426.493299329603
 20
24.61489290804479
 30
0.0
 40
10.00000012887491
100
AcDbArc
 50
45.0
 51
128.5061492919922
  0
ARC
  5
1D4
330
1F
100
AcDbEntity
  8
0-1
  6
Continuous
 62
     2
370
     9
100
AcDbCircle
 10
1426.493299329603
 20
24.61489290804479
 30
0.0
 40
13.33333350516654
100
AcDbArc
 50
45.0
 51
88.681396484375
  0
ARC
  5
1D5
330
1F
100
AcDbEntity
  8
0-1
  6
Continuous
 62
     2
370
     9
100
AcDbCircle
 10
1619.504279059333
 20
320.7201900997677
 30
0.0
 40
10.00000012887491
100
AcDbArc
 50
0.0
 51
165.2990875244141
  0
ARC
  5
1D6
330
1F
100
AcDbEntity
  8
0-1
  6
Continuous
 62
     2
370
     9
100
AcDbCircle
 10
1619.504279059333
 20
320.7201900997677
 30
0.0
 40
13.33333350516654
100
AcDbArc
 50
0.0
 51
124.3426971435547
  0
ARC
  5
1D7
330
1F
100
AcDbEntity
  8
0-1
  6
Continuous
 62
     2
370
     9
100
AcDbCircle
 10
1077.837722365921
 20
462.8377471099029
 30
0.0
 40
549.9999587600296
100
AcDbArc
 50
321.4938049316407
 51
345.2985992431641
  0
ARC
  5
1D8
330
1F
100
AcDbEntity
  8
0-1
  6
Continuous
 62
     2
370
     9
100
AcDbCircle
 10
1219.95478449641
 20
-78.8288095835091
 30
0.0
 40
10.00000012887491
100
AcDbArc
 50
104.7012786865234
 51
270.0
  0
ARC
  5
1D9
330
1F
100
AcDbEntity
  8
0-1
  6
Continuous
 62
     2
370
     9
100
AcDbCircle
 10
1077.837722365921
 20
462.8377471099029
 30
0.0
 40
549.9999587600296
100
AcDbArc
 50
284.7013244628907
 51
308.5061950683594
  0
ARC
  5
1DA
330
1F
100
AcDbEntity
  8
0-1
  6
Continuous
 62
     2
370
     9
100
AcDbCircle
 10
1219.95478449641
 20
-78.8288095835091
 30
0.0
 40
13.33333350516654
100
AcDbArc
 50
145.6587677001953
 51
270.0
  0
ARC
  5
1DB
330
1F
100
AcDbEntity
  8
0-1
  6
Continuous
 62
     2
370
     9
100
AcDbCircle
 10
1077.837722365921
 20
462.8377471099029
 30
0.0
 40
549.9999587600296
100
AcDbArc
 50
346.2091064453126
 51
13.79080200195316
  0
CIRCLE
  5
1DC
330
1F
100
AcDbEntity
  8
0-1
  6
Continuous
 62
     2
370
     9
100
AcDbCircle
 10
726.5810579866979
 20
943.7297429265203
 30
0.0
 40
8.33333344072909
  0
CIRCLE
  5
1DD
330
1F
100
AcDbEntity
  8
0-1
  6
Continuous
 62
     2
370
     9
100
AcDbCircle
 10
726.5810579866979
 20
943.7297429265203
 30
0.0
 40
10.83333298966691
  0
ARC
  5
1DE
330
1F
100
AcDbEntity
  8
0-1
  6
Continuous
 62
     2
370
     9
100
AcDbCircle
 10
1077.837722365921
 20
462.8374996700802
 30
0.0
 40
549.8262560045397
100
AcDbArc
 50
129.3960876464844
 51
133.1445617675781
  0
ARC
  5
1DF
330
1F
100
AcDbEntity
  8
0-1
  6
Continuous
 62
     2
370
     9
100
AcDbCircle
 10
695.0052622202281
 20
871.303611961571
 30
0.0
 40
10.00000012887491
100
AcDbArc
 50
226.2306518554688
 51
313.1450805664062
  0
ARC
  5
1E0
330
1F
100
AcDbEntity
  8
0-1
  6
Continuous
 62
     2
370
     9
100
AcDbCircle
 10
669.3704965952281
 20
845.6693412162165
 30
0.0
 40
10.00000012887491
100
AcDbArc
 50
316.8549194335938
 51
43.76934814453129
  0
ARC
  5
1E1
330
1F
100
AcDbEntity
  8
0-1
  6
Continuous
 62
     2
370
     9
100
AcDbCircle
 10
1077.837722365921
 20
462.8374996700802
 30
0.0
 40
549.8262560045397
100
AcDbArc
 50
136.8555297851562
 51
140.6039123535156
  0
ARC
  5
1E2
330
1F
100
AcDbEntity
  8
0-1
  6
Continuous
 62
     2
370
     9
100
AcDbCircle
 10
695.2467634871203
 20
866.64135082348
 30
0.0
 40
10.00000012887491
100
AcDbArc
 50
225.0
 51
313.4549865722656
  0
ARC
  5
1E3
330
1F
100
AcDbEntity
  8
0-1
  6
Continuous
 62
     2
370
     9
100
AcDbCircle
 10
674.0332526129646
 20
845.4278399493245
 30
0.0
 40
10.00000012887491
100
AcDbArc
 50
316.5450134277344
 51
45.0
  0
ARC
  5
1E4
330
1F
100
AcDbEntity
  8
0-1
  6
Continuous
 62
     2
370
     9
100
AcDbCircle
 10
1077.837722365921
 20
462.8374996700802
 30
0.0
 40
546.2673290355785
100
AcDbArc
 50
133.4548187255859
 51
136.5452880859375
  0
ARC
  5
1E5
330
1F
100
AcDbEntity
  8
0-1
  6
Continuous
 62
     2
370
     9
100
AcDbCircle
 10
1460.670677391259
 20
871.303611961571
 30
0.0
 40
10.00000012887491
100
AcDbArc
 50
226.8549194335938
 51
313.7693481445312
  0
ARC
  5
1E6
330
1F
100
AcDbEntity
  8
0-1
  6
Continuous
 62
     2
370
     9
100
AcDbCircle
 10
1486.304948136614
 20
845.668846336571
 30
0.0
 40
10.00000012887491
100
AcDbArc
 50
136.2306518554688
 51
223.1450805664062
  0
ARC
  5
1E7
330
1F
100
AcDbEntity
  8
0-1
  6
Continuous
 62
     2
370
     9
100
AcDbCircle
 10
1460.428681244721
 20
866.6408559438346
 30
0.0
 40
10.00000012887491
100
AcDbArc
 50
226.5450134277344
 51
315.0
  0
ARC
  5
1E8
330
1F
100
AcDbEntity
  8
0-1
  6
Continuous
 62
     2
370
     9
100
AcDbCircle
 10
1481.642686998523
 20
845.4273450696792
 30
0.0
 40
10.00000012887491
100
AcDbArc
 50
135.0
 51
223.4549865722656
  0
ARC
  5
1E9
330
1F
100
AcDbEntity
  8
0-1
  6
Continuous
 62
     2
370
     9
100
AcDbCircle
 10
1460.669687631968
 20
54.37039761929896
 30
0.0
 40
10.00000012887491
100
AcDbArc
 50
46.23065185546875
 51
133.1450805664062
  0
ARC
  5
1EA
330
1F
100
AcDbEntity
  8
0-1
  6
Continuous
 62
     2
370
     9
100
AcDbCircle
 10
1486.304453256968
 20
80.0049158044763
 30
0.0
 40
10.00000012887491
100
AcDbArc
 50
136.8549194335938
 51
223.7693481445312
  0
ARC
  5
1EB
330
1F
100
AcDbEntity
  8
0-1
  6
Continuous
 62
     2
370
     9
100
AcDbCircle
 10
1460.427691485431
 20
59.03290619721304
 30
0.0
 40
10.00000012887491
100
AcDbArc
 50
45.0
 51
133.4549865722656
  0
ARC
  5
1EC
330
1F
100
AcDbEntity
  8
0-1
  6
Continuous
 62
     2
370
     9
100
AcDbCircle
 10
1481.642192118877
 20
80.24641707136823
 30
0.0
 40
10.00000012887491
100
AcDbArc
 50
136.5450134277344
 51
225.0
  0
ARC
  5
1ED
330
1F
100
AcDbEntity
  8
0-1
  6
Continuous
 62
     2
370
     9
100
AcDbCircle
 10
1077.837722365921
 20
462.837375950169
 30
0.0
 40
546.2673290355785
100
AcDbArc
 50
313.4547424316406
 51
316.5452117919922
  0
ARC
  5
1EE
330
1F
100
AcDbEntity
  8
0-1
  6
Continuous
 62
     2
370
     9
100
AcDbCircle
 10
695.0052622202281
 20
54.37064505912161
 30
0.0
 40
10.00000012887491
100
AcDbArc
 50
46.85491943359376
 51
133.7693481445312
  0
ARC
  5
1EF
330
1F
100
AcDbEntity
  8
0-1
  6
Continuous
 62
     2
370
     9
100
AcDbCircle
 10
669.3704965952281
 20
80.00528696421043
 30
0.0
 40
10.00000012887491
100
AcDbArc
 50
316.2306518554688
 51
43.14508056640623
  0
ARC
  5
1F0
330
1F
100
AcDbEntity
  8
0-1
  6
Continuous
 62
     2
370
     9
100
AcDbCircle
 10
695.2472583667651
 20
59.0331536370357
 30
0.0
 40
10.00000012887491
100
AcDbArc
 50
46.54501342773438
 51
135.0
  0
ARC
  5
1F1
330
1F
100
AcDbEntity
  8
0-1
  6
Continuous
 62
     2
370
     9
100
AcDbCircle
 10
674.0332526129646
 20
80.24678823110236
 30
0.0
 40
10.00000012887491
100
AcDbArc
 50
315.0000000000001
 51
43.45498657226567
  0
ARC
  5
1F2
330
1F
100
AcDbEntity
  8
0-1
  6
Continuous
 62
     2
370
     9
100
AcDbCircle
 10
1077.837722365921
 20
462.837375950169
 30
0.0
 40
546.2673290355785
100
AcDbArc
 50
223.4547424316407
 51
226.5452117919922
  0
ARC
  5
1F3
330
1F
100
AcDbEntity
  8
0-1
  6
Continuous
 62
     2
370
     9
100
AcDbCircle
 10
1077.837722365921
 20
462.837375950169
 30
0.0
 40
549.8262560045397
100
AcDbArc
 50
46.85537719726562
 51
50.60391235351562
  0
ARC
  5
1F4
330
1F
100
AcDbEntity
  8
0-1
  6
Continuous
 62
     2
370
     9
100
AcDbCircle
 10
1077.837722365921
 20
462.8374996700802
 30
0.0
 40
546.2673290355785
100
AcDbArc
 50
43.45466613769531
 51
46.54513549804688
  0
ARC
  5
1F5
330
1F
100
AcDbEntity
  8
0-1
  6
Continuous
 62
     2
370
     9
100
AcDbCircle
 10
1077.837722365921
 20
462.837375950169
 30
0.0
 40
549.8262560045397
100
AcDbArc
 50
39.39608764648438
 51
43.14442443847656
  0
ARC
  5
1F6
330
1F
100
AcDbEntity
  8
0-1
  6
Continuous
 62
     2
370
     9
100
AcDbCircle
 10
1077.837722365921
 20
462.8377471099029
 30
0.0
 40
549.8262560045397
100
AcDbArc
 50
309.3960876464844
 51
313.1444549560547
  0
ARC
  5
1F7
330
1F
100
AcDbEntity
  8
0-1
  6
Continuous
 62
     2
370
     9
100
AcDbCircle
 10
1077.837722365921
 20
462.8377471099029
 30
0.0
 40
549.8262560045397
100
AcDbArc
 50
316.8554229736328
 51
320.6039123535156
  0
ARC
  5
1F8
330
1F
100
AcDbEntity
  8
0-1
  6
Continuous
 62
     2
370
     9
100
AcDbCircle
 10
1077.837722365921
 20
462.8376233899917
 30
0.0
 40
549.8262560045397
100
AcDbArc
 50
219.3960876464844
 51
223.1445159912109
  0
ARC
  5
1F9
330
1F
100
AcDbEntity
  8
0-1
  6
Continuous
 62
     2
370
     9
100
AcDbCircle
 10
1077.837722365921
 20
462.8376233899917
 30
0.0
 40
549.8262560045397
100
AcDbArc
 50
226.8554840087891
 51
230.6039123535157
  0
ARC
  5
1FA
330
1F
100
AcDbEntity
  8
0-1
  6
JWW_HOJO
 62
     2
370
     9
100
AcDbCircle
 10
1077.837722365921
 20
462.8374996700802
 30
0.0
 40
499.3878441887933
100
AcDbArc
 50
130.2937469482422
 51
139.7062225341797
  0
ARC
  5
1FB
330
1F
100
AcDbEntity
  8
0-1
  6
JWW_HOJO
 62
     2
370
     9
100
AcDbCircle
 10
1077.837722365921
 20
462.8374996700802
 30
0.0
 40
500.0000103099927
100
AcDbArc
 50
128.7986907958984
 51
141.2012634277344
  0
ARC
  5
1FC
330
1F
100
AcDbEntity
  8
0-1
  6
Continuous
 62
     2
370
     9
100
AcDbCircle
 10
736.0693854254646
 20
804.605712890625
 30
0.0
 40
24.99999935562546
100
AcDbArc
 50
237.2204895019531
 51
32.77903747558595
  0
ARC
  5
1FD
330
1F
100
AcDbEntity
  8
0-1
  6
Continuous
 62
     2
370
     9
100
AcDbCircle
 10
736.0693854254646
 20
804.605712890625
 30
0.0
 40
27.49999987112509
100
AcDbArc
 50
237.2196350097657
 51
32.77964782714846
  0
CIRCLE
  5
1FE
330
1F
100
AcDbEntity
  8
0-1
  6
Continuous
 62
     2
370
     9
100
AcDbCircle
 10
736.0693854254646
 20
804.605712890625
 30
0.0
 40
10.00000012887491
  0
CIRCLE
  5
1FF
330
1F
100
AcDbEntity
  8
0-1
  6
Continuous
 62
     2
370
     9
100
AcDbCircle
 10
736.0693854254646
 20
804.605712890625
 30
0.0
 40
8.33333344072909
  0
ARC
  5
200
330
1F
100
AcDbEntity
  8
0-6
  6
Continuous
 62
     6
370
     5
100
AcDbCircle
 10
1077.837722365921
 20
462.8374996700802
 30
0.0
 40
498.3333484546558
100
AcDbArc
 50
128.2777252197266
 51
141.7222900390625
  0
ARC
  5
201
330
1F
100
AcDbEntity
  8
0-1
  6
Continuous
 62
     2
370
     9
100
AcDbCircle
 10
707.6454781197214
 20
760.4664075696792
 30
0.0
 40
27.49999987112509
100
AcDbArc
 50
57.22035217285156
 51
108.3800048828125
  0
ARC
  5
202
330
1F
100
AcDbEntity
  8
0-1
  6
Continuous
 62
     2
370
     9
100
AcDbCircle
 10
707.6454781197214
 20
760.4664075696792
 30
0.0
 40
24.99999935562546
100
AcDbArc
 50
57.22071838378908
 51
119.6250305175782
  0
ARC
  5
203
330
1F
100
AcDbEntity
  8
0-1
  6
Continuous
 62
     2
370
     9
100
AcDbCircle
 10
780.2091856260557
 20
833.0296201963686
 30
0.0
 40
24.99999935562546
100
AcDbArc
 50
150.3744812011719
 51
212.7792816162109
  0
ARC
  5
204
330
1F
100
AcDbEntity
  8
0-1
  6
Continuous
 62
     2
370
     9
100
AcDbCircle
 10
780.2091856260557
 20
833.0296201963686
 30
0.0
 40
27.49999987112509
100
AcDbArc
 50
161.6193389892578
 51
212.7796478271485
  0
ARC
  5
205
330
1F
100
AcDbEntity
  8
0-1
  6
JWW_HOJO
 62
     2
370
     9
100
AcDbCircle
 10
1077.837722365921
 20
462.8374996700802
 30
0.0
 40
499.3878441887933
100
AcDbArc
 50
220.2937469482422
 51
229.7062225341797
  0
ARC
  5
206
330
1F
100
AcDbEntity
  8
0-1
  6
JWW_HOJO
 62
     2
370
     9
100
AcDbCircle
 10
1077.837722365921
 20
462.8374996700802
 30
0.0
 40
500.0000103099927
100
AcDbArc
 50
218.7986907958984
 51
231.2012634277344
  0
ARC
  5
207
330
1F
100
AcDbEntity
  8
0-1
  6
Continuous
 62
     2
370
     9
100
AcDbCircle
 10
736.0693854254646
 20
121.0691627296242
 30
0.0
 40
24.99999935562546
100
AcDbArc
 50
327.2204895019531
 51
122.779037475586
  0
ARC
  5
208
330
1F
100
AcDbEntity
  8
0-1
  6
Continuous
 62
     2
370
     9
100
AcDbCircle
 10
736.0693854254646
 20
121.0691627296242
 30
0.0
 40
27.49999987112509
100
AcDbArc
 50
327.2196350097656
 51
122.7796478271485
  0
CIRCLE
  5
209
330
1F
100
AcDbEntity
  8
0-1
  6
Continuous
 62
     2
370
     9
100
AcDbCircle
 10
736.0693854254646
 20
121.0691627296242
 30
0.0
 40
10.00000012887491
  0
CIRCLE
  5
20A
330
1F
100
AcDbEntity
  8
0-1
  6
Continuous
 62
     2
370
     9
100
AcDbCircle
 10
736.0693854254646
 20
121.0691627296242
 30
0.0
 40
8.33333344072909
  0
ARC
  5
20B
330
1F
100
AcDbEntity
  8
0-6
  6
Continuous
 62
     6
370
     5
100
AcDbCircle
 10
1077.837722365921
 20
462.8374996700802
 30
0.0
 40
498.3333484546558
100
AcDbArc
 50
218.2777252197266
 51
231.7222900390625
  0
ARC
  5
20C
330
1F
100
AcDbEntity
  8
0-1
  6
Continuous
 62
     2
370
     9
100
AcDbCircle
 10
780.2086907464104
 20
92.645255423881
 30
0.0
 40
27.49999987112509
100
AcDbArc
 50
147.2203521728516
 51
198.3800048828125
  0
ARC
  5
20D
330
1F
100
AcDbEntity
  8
0-1
  6
Continuous
 62
     2
370
     9
100
AcDbCircle
 10
780.2086907464104
 20
92.645255423881
 30
0.0
 40
24.99999935562546
100
AcDbArc
 50
147.2207183837891
 51
209.6250305175781
  0
ARC
  5
20E
330
1F
100
AcDbEntity
  8
0-1
  6
Continuous
 62
     2
370
     9
100
AcDbCircle
 10
707.6454781197214
 20
165.2089629302154
 30
0.0
 40
24.99999935562546
100
AcDbArc
 50
240.3744812011719
 51
302.779281616211
  0
ARC
  5
20F
330
1F
100
AcDbEntity
  8
0-1
  6
Continuous
 62
     2
370
     9
100
AcDbCircle
 10
707.6454781197214
 20
165.2089629302154
 30
0.0
 40
27.49999987112509
100
AcDbArc
 50
251.6193389892578
 51
302.7796478271485
  0
ARC
  5
210
330
1F
100
AcDbEntity
  8
0-1
  6
JWW_HOJO
 62
     2
370
     9
100
AcDbCircle
 10
1077.837722365921
 20
462.8374996700802
 30
0.0
 40
499.3878441887933
100
AcDbArc
 50
310.2937469482422
 51
319.7062225341797
  0
ARC
  5
211
330
1F
100
AcDbEntity
  8
0-1
  6
JWW_HOJO
 62
     2
370
     9
100
AcDbCircle
 10
1077.837722365921
 20
462.8374996700802
 30
0.0
 40
500.0000103099927
100
AcDbArc
 50
308.7986907958984
 51
321.2012634277344
  0
ARC
  5
212
330
1F
100
AcDbEntity
  8
0-1
  6
Continuous
 62
     2
370
     9
100
AcDbCircle
 10
1419.606059306377
 20
121.069039009713
 30
0.0
 40
24.99999935562546
100
AcDbArc
 50
57.22048950195313
 51
212.7790374755859
  0
ARC
  5
213
330
1F
100
AcDbEntity
  8
0-1
  6
Continuous
 62
     2
370
     9
100
AcDbCircle
 10
1419.606059306377
 20
121.069039009713
 30
0.0
 40
27.49999987112509
100
AcDbArc
 50
57.21963500976563
 51
212.7796478271485
  0
CIRCLE
  5
214
330
1F
100
AcDbEntity
  8
0-1
  6
Continuous
 62
     2
370
     9
100
AcDbCircle
 10
1419.606059306377
 20
121.069039009713
 30
0.0
 40
10.00000012887491
  0
CIRCLE
  5
215
330
1F
100
AcDbEntity
  8
0-1
  6
Continuous
 62
     2
370
     9
100
AcDbCircle
 10
1419.606059306377
 20
121.069039009713
 30
0.0
 40
8.33333344072909
  0
ARC
  5
216
330
1F
100
AcDbEntity
  8
0-6
  6
Continuous
 62
     6
370
     5
100
AcDbCircle
 10
1077.837722365921
 20
462.8374996700802
 30
0.0
 40
498.3333484546558
100
AcDbArc
 50
308.2777252197266
 51
321.7222900390625
  0
ARC
  5
217
330
1F
100
AcDbEntity
  8
0-1
  6
Continuous
 62
     2
370
     9
100
AcDbCircle
 10
1448.02996661212
 20
165.2085917704815
 30
0.0
 40
27.49999987112509
100
AcDbArc
 50
237.2203521728516
 51
288.3800048828125
  0
ARC
  5
218
330
1F
100
AcDbEntity
  8
0-1
  6
Continuous
 62
     2
370
     9
100
AcDbCircle
 10
1448.02996661212
 20
165.2085917704815
 30
0.0
 40
24.99999935562546
100
AcDbArc
 50
237.2207183837891
 51
299.6250305175781
  0
ARC
  5
219
330
1F
100
AcDbEntity
  8
0-1
  6
Continuous
 62
     2
370
     9
100
AcDbCircle
 10
1375.466259105785
 20
92.645255423881
 30
0.0
 40
24.99999935562546
100
AcDbArc
 50
330.3744812011719
 51
32.77928161621094
  0
ARC
  5
21A
330
1F
100
AcDbEntity
  8
0-1
  6
Continuous
 62
     2
370
     9
100
AcDbCircle
 10
1375.466259105785
 20
92.645255423881
 30
0.0
 40
27.49999987112509
100
AcDbArc
 50
341.6193389892578
 51
32.7796478271485
  0
ARC
  5
21B
330
1F
100
AcDbEntity
  8
0-1
  6
JWW_HOJO
 62
     2
370
     9
100
AcDbCircle
 10
1077.837722365921
 20
462.8374996700802
 30
0.0
 40
499.3878441887933
100
AcDbArc
 50
40.29374694824219
 51
49.70622253417969
  0
ARC
  5
21C
330
1F
100
AcDbEntity
  8
0-1
  6
JWW_HOJO
 62
     2
370
     9
100
AcDbCircle
 10
1077.837722365921
 20
462.8374996700802
 30
0.0
 40
500.0000103099927
100
AcDbArc
 50
38.79869079589843
 51
51.20126342773436
  0
ARC
  5
21D
330
1F
100
AcDbEntity
  8
0-1
  6
Continuous
 62
     2
370
     9
100
AcDbCircle
 10
1419.606059306377
 20
804.605712890625
 30
0.0
 40
24.99999935562546
100
AcDbArc
 50
147.2204895019531
 51
302.7790374755859
  0
ARC
  5
21E
330
1F
100
AcDbEntity
  8
0-1
  6
Continuous
 62
     2
370
     9
100
AcDbCircle
 10
1419.606059306377
 20
804.605712890625
 30
0.0
 40
27.49999987112509
100
AcDbArc
 50
147.2196350097657
 51
302.7796478271484
  0
CIRCLE
  5
21F
330
1F
100
AcDbEntity
  8
0-1
  6
Continuous
 62
     2
370
     9
100
AcDbCircle
 10
1419.606059306377
 20
804.605712890625
 30
0.0
 40
10.00000012887491
  0
CIRCLE
  5
220
330
1F
100
AcDbEntity
  8
0-1
  6
Continuous
 62
     2
370
     9
100
AcDbCircle
 10
1419.606059306377
 20
804.605712890625
 30
0.0
 40
8.33333344072909
  0
ARC
  5
221
330
1F
100
AcDbEntity
  8
0-6
  6
Continuous
 62
     6
370
     5
100
AcDbCircle
 10
1077.837722365921
 20
462.8374996700802
 30
0.0
 40
498.3333484546558
100
AcDbArc
 50
38.27772521972656
 51
51.7222900390625
  0
ARC
  5
222
330
1F
100
AcDbEntity
  8
0-1
  6
Continuous
 62
     2
370
     9
100
AcDbCircle
 10
1375.466753985431
 20
833.0296201963686
 30
0.0
 40
27.49999987112509
100
AcDbArc
 50
327.2203521728516
 51
18.3800048828125
  0
ARC
  5
223
330
1F
100
AcDbEntity
  8
0-1
  6
Continuous
 62
     2
370
     9
100
AcDbCircle
 10
1375.466753985431
 20
833.0296201963686
 30
0.0
 40
24.99999935562546
100
AcDbArc
 50
327.2207183837891
 51
29.62503051757819
  0
ARC
  5
224
330
1F
100
AcDbEntity
  8
0-1
  6
Continuous
 62
     2
370
     9
100
AcDbCircle
 10
1448.02996661212
 20
760.4659126900339
 30
0.0
 40
24.99999935562546
100
AcDbArc
 50
60.37448120117189
 51
122.7792816162109
  0
ARC
  5
225
330
1F
100
AcDbEntity
  8
0-1
  6
Continuous
 62
     2
370
     9
100
AcDbCircle
 10
1448.02996661212
 20
760.4659126900339
 30
0.0
 40
27.49999987112509
100
AcDbArc
 50
71.61933898925783
 51
122.7796478271485
  0
ARC
  5
226
330
1F
100
AcDbEntity
  8
0-3
  6
Continuous
 62
     4
370
     9
100
AcDbCircle
 10
1077.837722365921
 20
462.8374996700802
 30
0.0
 40
483.333360826647
100
AcDbArc
 50
141.9319000244141
 51
218.0681304931641
  0
ARC
  5
227
330
1F
100
AcDbEntity
  8
0-3
  6
Continuous
 62
     4
370
     9
100
AcDbCircle
 10
1077.837722365921
 20
462.8374996700802
 30
0.0
 40
498.3333484546558
100
AcDbArc
 50
141.7222900390625
 51
218.2777404785157
  0
ARC
  5
228
330
1F
100
AcDbEntity
  8
0-3
  6
Continuous
 62
     4
370
     9
100
AcDbCircle
 10
1077.837722365921
 20
462.8374996700802
 30
0.0
 40
483.333360826647
100
AcDbArc
 50
231.9319000244141
 51
308.0681304931641
  0
ARC
  5
229
330
1F
100
AcDbEntity
  8
0-3
  6
Continuous
 62
     4
370
     9
100
AcDbCircle
 10
1077.837722365921
 20
462.8374996700802
 30
0.0
 40
498.3333484546558
100
AcDbArc
 50
231.7222900390625
 51
308.2777404785156
  0
ARC
  5
22A
330
1F
100
AcDbEntity
  8
0-3
  6
Continuous
 62
     4
370
     9
100
AcDbCircle
 10
1077.837722365921
 20
462.8374996700802
 30
0.0
 40
483.333360826647
100
AcDbArc
 50
321.9319000244141
 51
38.06813049316412
  0
ARC
  5
22B
330
1F
100
AcDbEntity
  8
0-3
  6
Continuous
 62
     4
370
     9
100
AcDbCircle
 10
1077.837722365921
 20
462.8374996700802
 30
0.0
 40
498.3333484546558
100
AcDbArc
 50
321.7222900390625
 51
38.27774047851563
  0
ARC
  5
22C
330
1F
100
AcDbEntity
  8
0-3
  6
Continuous
 62
     4
370
     9
100
AcDbCircle
 10
1077.837722365921
 20
462.8374996700802
 30
0.0
 40
483.333360826647
100
AcDbArc
 50
51.93190002441407
 51
128.0681304931641
  0
ARC
  5
22D
330
1F
100
AcDbEntity
  8
0-3
  6
Continuous
 62
     4
370
     9
100
AcDbCircle
 10
1077.837722365921
 20
462.8374996700802
 30
0.0
 40
498.3333484546558
100
AcDbArc
 50
51.72229003906252
 51
128.2777404785157
  0
CIRCLE
  5
22E
330
1F
100
AcDbEntity
  8
0-B
  6
Continuous
 62
     4
370
     9
100
AcDbCircle
 10
561.5896688925255
 20
979.0854294235644
 30
0.0
 40
10.00000012887491
  0
CIRCLE
  5
22F
330
1F
100
AcDbEntity
  8
0-B
  6
Continuous
 62
     4
370
     9
100
AcDbCircle
 10
561.6129282358531
 20
979.0621700802367
 30
0.0
 40
15.83336205095858
  0
CIRCLE
  5
230
330
1F
100
AcDbEntity
  8
0-B
  6
Continuous
 62
     4
370
     9
100
AcDbCircle
 10
561.5896688925255
 20
979.0854294235644
 30
0.0
 40
8.421666557724413
  0
CIRCLE
  5
231
330
1F
100
AcDbEntity
  8
0-B
  6
Continuous
 62
     6
370
     5
100
AcDbCircle
 10
561.5896688925255
 20
979.0854294235644
 30
0.0
 40
20.00000025774982
  0
CIRCLE
  5
232
330
1F
100
AcDbEntity
  8
0-B
  6
Continuous
 62
     4
370
     9
100
AcDbCircle
 10
561.5896688925255
 20
-53.41055380331483
 30
0.0
 40
10.00000012887491
  0
CIRCLE
  5
233
330
1F
100
AcDbEntity
  8
0-B
  6
Continuous
 62
     4
370
     9
100
AcDbCircle
 10
561.6129282358531
 20
-53.38729445998723
 30
0.0
 40
15.83336205095858
  0
CIRCLE
  5
234
330
1F
100
AcDbEntity
  8
0-B
  6
Continuous
 62
     4
370
     9
100
AcDbCircle
 10
561.5896688925255
 20
-53.41055380331483
 30
0.0
 40
8.421666557724413
  0
CIRCLE
  5
235
330
1F
100
AcDbEntity
  8
0-B
  6
Continuous
 62
     6
370
     5
100
AcDbCircle
 10
561.5896688925255
 20
-53.41055380331483
 30
0.0
 40
20.00000025774982
  0
CIRCLE
  5
236
330
1F
100
AcDbEntity
  8
0-B
  6
Continuous
 62
     4
370
     9
100
AcDbCircle
 10
1594.085775839316
 20
-53.41030636349245
 30
0.0
 40
10.00000012887491
  0
CIRCLE
  5
237
330
1F
100
AcDbEntity
  8
0-B
  6
Continuous
 62
     4
370
     9
100
AcDbCircle
 10
1594.062516495989
 20
-53.38729445998723
 30
0.0
 40
15.83336205095858
  0
CIRCLE
  5
238
330
1F
100
AcDbEntity
  8
0-B
  6
Continuous
 62
     4
370
     9
100
AcDbCircle
 10
1594.085775839316
 20
-53.41030636349245
 30
0.0
 40
8.421666557724413
  0
CIRCLE
  5
239
330
1F
100
AcDbEntity
  8
0-B
  6
Continuous
 62
     6
370
     5
100
AcDbCircle
 10
1594.085775839316
 20
-53.41030636349245
 30
0.0
 40
20.00000025774982
  0
CIRCLE
  5
23A
330
1F
100
AcDbEntity
  8
0-B
  6
Continuous
 62
     4
370
     9
100
AcDbCircle
 10
1594.085775839316
 20
979.0854294235644
 30
0.0
 40
10.00000012887491
  0
CIRCLE
  5
23B
330
1F
100
AcDbEntity
  8
0-B
  6
Continuous
 62
     4
370
     9
100
AcDbCircle
 10
1594.062516495989
 20
979.0621700802367
 30
0.0
 40
15.83336205095858
  0
CIRCLE
  5
23C
330
1F
100
AcDbEntity
  8
0-B
  6
Continuous
 62
     4
370
     9
100
AcDbCircle
 10
1594.085775839316
 20
979.0854294235644
 30
0.0
 40
8.421666557724413
  0
CIRCLE
  5
23D
330
1F
100
AcDbEntity
  8
0-B
  6
Continuous
 62
     6
370
     5
100
AcDbCircle
 10
1594.085775839316
 20
979.0854294235644
 30
0.0
 40
20.00000025774982
  0
ARC
  5
23E
330
1F
100
AcDbEntity
  8
1-1
  6
Continuous
 62
     2
370
     9
100
AcDbCircle
 10
-433.1354914484797
 20
680.1251715582771
 30
0.0
 40
20.00000025774982
100
AcDbArc
 50
270.0
 51
355.5999908447265
  0
ARC
  5
23F
330
1F
100
AcDbEntity
  8
1-1
  6
Continuous
 62
     2
370
     9
100
AcDbCircle
 10
-458.0900450010557
 20
680.1251715582771
 30
0.0
 40
20.00000025774982
100
AcDbArc
 50
182.8635711669922
 51
270.0
  0
ARC
  5
240
330
1F
100
AcDbEntity
  8
1-1
  6
Continuous
 62
     2
370
     9
100
AcDbCircle
 10
-366.8441360061232
 20
755.1251715582771
 30
0.0
 40
20.00000025774982
100
AcDbArc
 50
184.6666870117188
 51
270.0
  0
ARC
  5
241
330
1F
100
AcDbEntity
  8
1-1
  6
Continuous
 62
     2
370
     9
100
AcDbCircle
 10
-262.0687123891469
 20
727.6252045502533
 30
0.0
 40
7.500000096656181
100
AcDbArc
 50
6.113494873046876
 51
90.0
  0
ARC
  5
242
330
1F
100
AcDbEntity
  8
1-1
  6
JWW_HOJO
 62
     2
370
     9
100
AcDbCircle
 10
-540.8326844911318
 20
695.1234889674834
 30
0.0
 40
15.00000019331236
100
AcDbArc
 50
270.0
 51
357.0185089111328
  0
ARC
  5
243
330
1F
100
AcDbEntity
  8
1-1
  6
JWW_HOJO
 62
     2
370
     9
100
AcDbCircle
 10
-541.3537927576012
 20
685.125435494088
 30
0.0
 40
15.00000019331236
100
AcDbArc
 50
270.0
 51
357.0185089111328
  0
ARC
  5
244
330
1F
100
AcDbEntity
  8
1-8
  6
Continuous
 62
     6
370
     5
100
AcDbCircle
 10
-433.4616171347128
 20
941.5493032094596
 30
0.0
 40
64.34079505301811
100
AcDbArc
 50
17.54776000976563
 51
209.2363128662109
  0
ARC
  5
245
330
1F
100
AcDbEntity
  8
1-8
  6
Continuous
 62
     6
370
     5
100
AcDbCircle
 10
-432.3164656355573
 20
881.3570919552367
 30
0.0
 40
61.56368899989773
100
AcDbArc
 50
207.8739318847656
 51
347.9251251220703
  0
TEXT
  5
246
330
1F
100
AcDbEntity
  8
1-4
  6
Continuous
 62
     7
370
     0
100
AcDbText
 10
-1448.059457314981
 20
1043.01770982897
 30
0.0
 40
22.86
  1
ボルト：ＳＳ４００
 41
1.148148148148148
  7
ＭＳ ゴシック
100
AcDbText
  0
TEXT
  5
247
330
1F
100
AcDbEntity
  8
1-4
  6
Continuous
 62
     7
370
     0
100
AcDbText
 10
-910.7769816630594
 20
1162.830546347129
 30
0.0
 40
22.86
  1
養生材：ポリエチレン
 41
1.15
  7
ＭＳ ゴシック
100
AcDbText
  0
TEXT
  5
248
330
1F
100
AcDbEntity
  8
0-4
  6
Continuous
 62
     2
370
     0
100
AcDbText
 10
877.8371037663641
 20
-309.0220961782094
 30
0.0
 40
30.48
  1
平面図　Ｓ＝１：６
 41
1.111111111111111
  7
ＭＳ ゴシック
100
AcDbText
  0
TEXT
  5
249
330
1F
100
AcDbEntity
  8
1-4
  6
Continuous
 62
     2
370
     0
100
AcDbText
 10
-244.9263330408043
 20
-234.2251205526815
 30
0.0
 40
30.48
  1
φ598
 41
1.1
  7
ＭＳ ゴシック
100
AcDbText
  0
TEXT
  5
24A
330
1F
100
AcDbEntity
  8
1-4
  6
Continuous
 62
     7
370
     0
100
AcDbText
 10
-755.1078837626688
 20
1284.979709670608
 30
0.0
 40
22.86
  1
スリーブ：ボイド管
 41
1.148148148148148
  7
ＭＳ ゴシック
100
AcDbText
  0
TEXT
  5
24B
330
1F
100
AcDbEntity
  8
1-4
  6
Continuous
 62
     7
370
     0
100
AcDbText
 10
-1414.561447968354
 20
995.7215672508448
 30
0.0
 40
22.86
  1
電気亜鉛めっき
 41
1.142857142857143
  7
ＭＳ ゴシック
100
AcDbText
  0
TEXT
  5
24C
330
1F
100
AcDbEntity
  8
0-4
  6
Continuous
 62
     2
370
     0
100
AcDbText
 10
1325.482778807629
 20
740.5349654719508
 30
0.0
 40
30.48
  1
70
 50
315.0
 41
1.062499999999998
  7
ＭＳ ゴシック
100
AcDbText
  0
TEXT
  5
24D
330
1F
100
AcDbEntity
  8
1-4
  6
Continuous
 62
     6
370
     0
100
AcDbText
 10
-931.9422450709988
 20
523.8158434728675
 30
0.0
 40
22.86
  1
平座金・・
 41
0.8866666666666665
  7
ＭＳ ゴシック
100
AcDbText
  0
TEXT
  5
24E
330
1F
100
AcDbEntity
  8
1-4
  6
Continuous
 62
     6
370
     0
100
AcDbText
 10
-931.9422648661845
 20
466.9514503932646
 30
0.0
 40
22.86
  1
六角ナット：ＳＳ４００，電気亜鉛めっき
 41
0.8964912280701754
  7
ＭＳ ゴシック
100
AcDbText
  0
TEXT
  5
24F
330
1F
100
AcDbEntity
  8
1-4
  6
Continuous
 62
     6
370
     0
100
AcDbText
 10
-796.9422896101668
 20
523.8158434728675
 30
0.0
 40
22.86
  1
：ＳＳ４００，電気亜鉛めっき
 41
0.8952380952380953
  7
ＭＳ ゴシック
100
AcDbText
  0
TEXT
  5
250
330
1F
100
AcDbEntity
  8
0-4
  6
Continuous
 62
     3
370
     0
100
AcDbText
 10
342.1404247180641
 20
1033.934599704754
 30
0.0
 40
38.1
  1
Ａ
 50
314.9997995031669
  7
ＭＳ ゴシック
100
AcDbText
  0
TEXT
  5
251
330
1F
100
AcDbEntity
  8
0-4
  6
Continuous
 62
     3
370
     0
100
AcDbText
 10
729.0828619697414
 20
646.9916675734653
 30
0.0
 40
38.1
  1
Ａ'
 50
315.0001253103563
 41
1.066666666666666
  7
ＭＳ ゴシック
100
AcDbText
  0
TEXT
  5
252
330
1F
100
AcDbEntity
  8
1-4
  6
Continuous
 62
     2
370
     0
100
AcDbText
 10
-949.8650710647169
 20
-347.5928920106629
 30
0.0
 40
30.48
  1
Ａ－Ａ'断面図　Ｓ＝１：２
 41
1.115
  7
ＭＳ ゴシック
100
AcDbText
  0
TEXT
  5
253
330
1F
100
AcDbEntity
  8
1-4
  6
Continuous
 62
     2
370
     0
100
AcDbText
 10
315.6755272117822
 20
-1039.63057750805
 30
0.0
 40
30.48
  1
※この図面は、ＭＷＡ－６００角枠にセットしたＭＳＶ－２を示します。
 41
1.121212121212121
  7
ＭＳ ゴシック
100
AcDbText
  0
LWPOLYLINE
  5
254
330
1F
100
AcDbEntity
  8
1-4
  6
Continuous
 62
     7
370
     9
100
AcDbPolyline
 90
        4
 70
     1
 43
2.0
 10
-371.1148516680742
 20
-249.8651535446578
 42
0.4142135623731
 10
-372.1148516680742
 20
-248.8651535446578
 42
0.4142135623731
 10
-373.1148516680742
 20
-249.8651535446578
 42
0.4142135623731
 10
-372.1148516680742
 20
-250.8651535446578
 42
0.4142135623731
  0
LWPOLYLINE
  5
255
330
1F
100
AcDbEntity
  8
1-4
  6
Continuous
 62
     7
370
     9
100
AcDbPolyline
 90
        4
 70
     1
 43
2.0
 10
-1416.365058692726
 20
-89.86524427259269
 42
0.4142135623731
 10
-1417.365058692726
 20
-88.86524427259269
 42
0.4142135623731
 10
-1418.365058692726
 20
-89.86524427259269
 42
0.4142135623731
 10
-1417.365058692726
 20
-90.86524427259269
 42
0.4142135623731
  0
LWPOLYLINE
  5
256
330
1F
100
AcDbEntity
  8
1-4
  6
Continuous
 62
     7
370
     9
100
AcDbPolyline
 90
        4
 70
     1
 43
2.0
 10
-1416.365058692726
 20
810.13500316723
 42
0.4142135623731
 10
-1417.365058692726
 20
811.1350031672299
 42
0.4142135623731
 10
-1418.365058692726
 20
810.13500316723
 42
0.4142135623731
 10
-1417.365058692726
 20
809.13500316723
 42
0.4142135623731
  0
LWPOLYLINE
  5
257
330
1F
100
AcDbEntity
  8
1-4
  6
Continuous
 62
     7
370
     9
100
AcDbPolyline
 90
        4
 70
     1
 43
2.0
 10
-1516.365141172667
 20
-89.86524427259269
 42
0.4142135623731
 10
-1517.365141172667
 20
-88.86524427259269
 42
0.4142135623731
 10
-1518.365141172667
 20
-89.86524427259269
 42
0.4142135623731
 10
-1517.365141172667
 20
-90.86524427259269
 42
0.4142135623731
  0
LWPOLYLINE
  5
258
330
1F
100
AcDbEntity
  8
1-4
  6
Continuous
 62
     7
370
     9
100
AcDbPolyline
 90
        4
 70
     1
 43
2.0
 10
-1516.365141172667
 20
910.1348382073481
 42
0.4142135623731
 10
-1517.365141172667
 20
911.1348382073481
 42
0.4142135623731
 10
-1518.365141172667
 20
910.1348382073481
 42
0.4142135623731
 10
-1517.365141172667
 20
909.1348382073483
 42
0.4142135623731
  0
LWPOLYLINE
  5
259
330
1F
100
AcDbEntity
  8
0-4
  6
Continuous
 62
     7
370
     9
100
AcDbPolyline
 90
        4
 70
     1
 43
2.0
 10
1289.201656857053
 20
755.697747307855
 42
0.4142135623731
 10
1288.201656857053
 20
756.6977473078549
 42
0.4142135623731
 10
1287.201656857053
 20
755.697747307855
 42
0.4142135623731
 10
1288.201656857053
 20
754.697747307855
 42
0.4142135623731
  0
LWPOLYLINE
  5
25A
330
1F
100
AcDbEntity
  8
0-4
  6
Continuous
 62
     7
370
     9
100
AcDbPolyline
 90
        4
 70
     1
 43
2.0
 10
1371.697598843961
 20
673.201805320946
 42
0.4142135623731
 10
1370.697598843961
 20
674.201805320946
 42
0.4142135623731
 10
1369.697598843961
 20
673.201805320946
 42
0.4142135623731
 10
1370.697598843961
 20
672.2018053209462
 42
0.4142135623731
  0
LINE
  5
25B
330
1F
100
AcDbEntity
  8
1-8
  6
Continuous
 62
     6
370
     5
100
AcDbLine
 10
-1317.365099932696
 20
-89.86524427259269
 30
0.0
 11
-102.154088409768
 21
-89.86524427259269
 31
0.0
  0
LINE
  5
25C
330
1F
100
AcDbEntity
  8
1-4
  6
Continuous
 62
     7
370
     9
100
AcDbLine
 10
-152.4162921418203
 20
-89.86524427259269
 30
0.0
 11
-152.4162921418203
 21
1160.134673247466
 31
0.0
  0
LINE
  5
25D
330
1F
100
AcDbEntity
  8
1-4
  6
Continuous
 62
     7
370
     9
100
AcDbLine
 10
-302.1148681640625
 20
1160.134673247466
 30
0.0
 11
-149.4163317321919
 21
1160.134673247466
 31
0.0
  0
LWPOLYLINE
  5
25E
330
1F
100
AcDbEntity
  8
1-4
  6
Continuous
 62
     7
370
     9
100
AcDbPolyline
 90
        4
 70
     1
 43
2.0
 10
-151.4162921418203
 20
-89.86524427259269
 42
0.4142135623731
 10
-152.4162921418203
 20
-88.86524427259269
 42
0.4142135623731
 10
-153.4162921418203
 20
-89.86524427259269
 42
0.4142135623731
 10
-152.4162921418203
 20
-90.86524427259269
 42
0.4142135623731
  0
LWPOLYLINE
  5
25F
330
1F
100
AcDbEntity
  8
1-4
  6
Continuous
 62
     7
370
     9
100
AcDbPolyline
 90
        4
 70
     1
 43
2.0
 10
-151.4162921418203
 20
1160.134673247466
 42
0.4142135623731
 10
-152.4162921418203
 20
1161.134673247466
 42
0.4142135623731
 10
-153.4162921418203
 20
1160.134673247466
 42
0.4142135623731
 10
-152.4162921418203
 20
1159.134673247466
 42
0.4142135623731
  0
TEXT
  5
260
330
1F
100
AcDbEntity
  8
1-4
  6
Continuous
 62
     2
370
     0
100
AcDbText
 10
-1535.445758618543
 20
378.8105381026997
 30
0.0
 40
30.48
  1
200
 50
90.0
 41
1.083333333333333
  7
ＭＳ ゴシック
100
AcDbText
  0
TEXT
  5
261
330
1F
100
AcDbEntity
  8
1-4
  6
Continuous
 62
     2
370
   211
100
AcDbText
 10
-1433.005058692726
 20
327.6348794473187
 30
0.0
 40
30.48
  1
180
 50
90.0
 41
1.083333333333333
  7
ＭＳ ゴシック
100
AcDbText
  0
TEXT
  5
262
330
1F
100
AcDbEntity
  8
1-4
  6
Continuous
 62
     2
370
   211
100
AcDbText
 10
-168.0562921418203
 20
502.6347144874367
 30
0.0
 40
30.48
  1
250
 50
90.0
 41
1.083333333333333
  7
ＭＳ ゴシック
100
AcDbText
  0
TEXT
  5
263
330
1F
100
AcDbEntity
  8
1-5
  6
Continuous
 62
     6
370
     0
100
AcDbText
 10
-840.0845863067474
 20
-1357.586154850033
 30
0.0
 40
30.48
  1
打込型マンホール鉄蓋　サポートＶ　　ＭＳＶ－２－６００　Ｃ＝２００
 41
0.9234848484848484
  7
ＭＳ ゴシック
100
AcDbText
  0
LINE
  5
264
330
1F
100
AcDbEntity
  8
1-4
  6
Continuous
 62
     2
370
     9
100
AcDbLine
 10
-1417.365182412637
 20
-1096.151257076779
 30
0.0
 11
-1417.365182412637
 21
-1031.151784948401
 31
0.0
  0
LINE
  5
265
330
1F
100
AcDbEntity
  8
1-9
  6
JWW_CENTER1
 62
     2
370
     9
100
AcDbLine
 10
-1067.365141172667
 20
-597.2246097873996
 30
0.0
 11
-1067.365141172667
 21
-855.078927117425
 31
0.0
  0
LINE
  5
266
330
1F
100
AcDbEntity
  8
1-9
  6
JWW_CENTER1
 62
     2
370
     9
100
AcDbLine
 10
-1196.292423557591
 20
-726.1517684524122
 30
0.0
 11
-938.4378587877427
 21
-726.1517684524122
 31
0.0
  0
LINE
  5
267
330
1F
100
AcDbEntity
  8
1-4
  6
Continuous
 62
     2
370
     9
100
AcDbLine
 10
-1417.365182412637
 20
-1031.151784948401
 30
0.0
 11
-717.3649762127849
 21
-1031.151784948401
 31
0.0
  0
LINE
  5
268
330
1F
100
AcDbEntity
  8
1-4
  6
Continuous
 62
     2
370
     9
100
AcDbLine
 10
-717.3649762127849
 20
-1096.151257076779
 30
0.0
 11
-717.3649762127849
 21
-1031.151784948401
 31
0.0
  0
LINE
  5
269
330
1F
100
AcDbEntity
  8
1-4
  6
Continuous
 62
     2
370
     9
100
AcDbLine
 10
-717.3649762127849
 20
-1096.151257076779
 30
0.0
 11
-1417.365182412637
 21
-1096.151257076779
 31
0.0
  0
LINE
  5
26A
330
1F
100
AcDbEntity
  8
1-4
  6
Continuous
 62
     7
370
     9
100
AcDbLine
 10
-1172.365116428685
 20
-931.1518261883708
 30
0.0
 11
-962.365165916649
 21
-931.1518261883708
 31
0.0
  0
LINE
  5
26B
330
1F
100
AcDbEntity
  8
1-4
  6
Continuous
 62
     7
370
     9
100
AcDbLine
 10
-1172.365116428685
 20
-751.1517272124418
 30
0.0
 11
-1172.365116428685
 21
-934.1517865979993
 31
0.0
  0
LINE
  5
26C
330
1F
100
AcDbEntity
  8
1-4
  6
Continuous
 62
     7
370
     9
100
AcDbLine
 10
-962.365165916649
 20
-751.1517272124418
 30
0.0
 11
-962.365165916649
 21
-934.1517865979993
 31
0.0
  0
LINE
  5
26D
330
1F
100
AcDbEntity
  8
1-4
  6
Continuous
 62
     7
370
     9
100
AcDbLine
 10
-862.3652071566194
 20
-811.1518014443886
 30
0.0
 11
-862.3652071566194
 21
-641.1517354604359
 31
0.0
  0
LINE
  5
26E
330
1F
100
AcDbEntity
  8
1-4
  6
Continuous
 62
     7
370
     9
100
AcDbLine
 10
-1042.365058692726
 20
-811.1518014443886
 30
0.0
 11
-859.365246746991
 21
-811.1518014443886
 31
0.0
  0
LINE
  5
26F
330
1F
100
AcDbEntity
  8
1-4
  6
Continuous
 62
     7
370
     9
100
AcDbLine
 10
-1042.365058692726
 20
-641.1517354604359
 30
0.0
 11
-859.365246746991
 21
-641.1517354604359
 31
0.0
  0
LINE
  5
270
330
1F
100
AcDbEntity
  8
1-4
  6
Continuous
 62
     7
370
     9
100
AcDbLine
 10
-1062.365124676679
 20
-632.4914653881176
 30
0.0
 11
-1052.798111374314
 21
-609.3945663039747
 31
0.0
  0
LINE
  5
271
330
1F
100
AcDbEntity
  8
1-4
  6
Continuous
 62
     7
370
     9
100
AcDbLine
 10
-1062.365124676679
 20
-632.4914653881176
 30
0.0
 11
-1047.146090945682
 21
-612.6575552450643
 31
0.0
  0
LINE
  5
272
330
1F
100
AcDbEntity
  8
1-4
  6
Continuous
 62
     7
370
     9
100
AcDbLine
 10
-1062.365124676679
 20
-632.4914653881176
 30
0.0
 11
-1024.063914530986
 21
-566.1517354604359
 31
0.0
  0
LINE
  5
273
330
1F
100
AcDbEntity
  8
1-4
  6
Continuous
 62
     7
370
     9
100
AcDbLine
 10
-1024.063914530986
 20
-566.1517354604359
 30
0.0
 11
-866.9500196302259
 21
-566.1517354604359
 31
0.0
  0
TEXT
  5
274
330
1F
100
AcDbEntity
  8
1-4
  6
Continuous
 62
     7
370
     0
100
AcDbText
 10
-1011.978112298089
 20
-553.973844637484
 30
0.0
 40
22.86
  1
４－φ４
 41
1.125
  7
ＭＳ ゴシック
100
AcDbText
  0
TEXT
  5
275
330
1F
100
AcDbEntity
  8
1-4
  6
Continuous
 62
     2
370
     0
100
AcDbText
 10
-878.0052401485958
 20
-747.4017684524122
 30
0.0
 40
30.48
  1
34
 50
90.0
 41
1.0625
  7
ＭＳ ゴシック
100
AcDbText
  0
TEXT
  5
276
330
1F
100
AcDbEntity
  8
1-4
  6
Continuous
 62
     2
370
     0
100
AcDbText
 10
-1111.1152339626
 20
-915.5117931963945
 30
0.0
 40
30.48
  1
φ42
 41
1.09375
  7
ＭＳ ゴシック
100
AcDbText
  0
TEXT
  5
277
330
1F
100
AcDbEntity
  8
1-4
  6
Continuous
 62
     2
370
     0
100
AcDbText
 10
-1402.365017452755
 20
-1078.011586996542
 30
0.0
 40
30.48
  1
固定プレート平面図　Ｓ＝１：２
 41
1.116666666666666
  7
ＭＳ ゴシック
100
AcDbText
  0
LWPOLYLINE
  5
278
330
1F
100
AcDbEntity
  8
1-4
  6
Continuous
 62
     7
370
     9
100
AcDbPolyline
 90
        4
 70
     1
 43
2.0
 10
-1171.365116428685
 20
-931.1518261883708
 42
0.4142135623731
 10
-1172.365116428685
 20
-930.1518261883709
 42
0.4142135623731
 10
-1173.365116428684
 20
-931.1518261883708
 42
0.4142135623731
 10
-1172.365116428685
 20
-932.1518261883707
 42
0.4142135623731
  0
LWPOLYLINE
  5
279
330
1F
100
AcDbEntity
  8
1-4
  6
Continuous
 62
     7
370
     9
100
AcDbPolyline
 90
        4
 70
     1
 43
2.0
 10
-961.365165916649
 20
-931.1518261883708
 42
0.4142135623731
 10
-962.365165916649
 20
-930.1518261883709
 42
0.4142135623731
 10
-963.365165916649
 20
-931.1518261883708
 42
0.4142135623731
 10
-962.365165916649
 20
-932.1518261883707
 42
0.4142135623731
  0
LWPOLYLINE
  5
27A
330
1F
100
AcDbEntity
  8
1-4
  6
Continuous
 62
     7
370
     9
100
AcDbPolyline
 90
        4
 70
     1
 43
2.0
 10
-861.3652071566195
 20
-811.1518014443886
 42
0.4142135623731
 10
-862.3652071566194
 20
-810.1518014443888
 42
0.4142135623731
 10
-863.3652071566194
 20
-811.1518014443886
 42
0.4142135623731
 10
-862.3652071566194
 20
-812.1518014443886
 42
0.4142135623731
  0
LWPOLYLINE
  5
27B
330
1F
100
AcDbEntity
  8
1-4
  6
Continuous
 62
     7
370
     9
100
AcDbPolyline
 90
        4
 70
     1
 43
2.0
 10
-861.3652071566195
 20
-641.1517354604359
 42
0.4142135623731
 10
-862.3652071566194
 20
-640.1517354604359
 42
0.4142135623731
 10
-863.3652071566194
 20
-641.1517354604359
 42
0.4142135623731
 10
-862.3652071566194
 20
-642.1517354604359
 42
0.4142135623731
  0
CIRCLE
  5
27C
330
1F
100
AcDbEntity
  8
1-A
  6
Continuous
 62
     2
370
     9
100
AcDbCircle
 10
-1067.365141172667
 20
-726.1517684524122
 30
0.0
 40
30.0
  0
CIRCLE
  5
27D
330
1F
100
AcDbEntity
  8
1-A
  6
Continuous
 62
     2
370
     9
100
AcDbCircle
 10
-1067.365141172667
 20
-726.1517684524122
 30
0.0
 40
21.25
  0
LINE
  5
27E
330
1F
100
AcDbEntity
  8
1-A
  6
Continuous
 62
     2
370
     9
100
AcDbLine
 10
-1112.365266548036
 20
-693.1238920379133
 30
0.0
 11
-1112.3653432553
 21
-681.151566369779
 31
0.0
  0
LINE
  5
27F
330
1F
100
AcDbEntity
  8
1-A
  6
Continuous
 62
     2
370
     9
100
AcDbLine
 10
-1112.3653432553
 20
-681.151566369779
 30
0.0
 11
-1100.39283551278
 21
-681.151649820539
 31
0.0
  0
ARC
  5
280
330
1F
100
AcDbEntity
  8
1-A
  6
Continuous
 62
     2
370
     9
100
AcDbCircle
 10
-1079.865166584016
 20
-713.6517430410631
 30
0.0
 40
35.0
100
AcDbArc
 50
121.0026092529297
 51
148.9973449707031
  0
LINE
  5
281
330
1F
100
AcDbEntity
  8
1-A
  6
Continuous
 62
     2
370
     9
100
AcDbLine
 10
-1100.393017587166
 20
-771.1518938277812
 30
0.0
 11
-1112.3653432553
 21
-771.1519705350454
 31
0.0
  0
LINE
  5
282
330
1F
100
AcDbEntity
  8
1-A
  6
Continuous
 62
     2
370
     9
100
AcDbLine
 10
-1112.3653432553
 20
-771.1519705350454
 30
0.0
 11
-1112.36525980454
 21
-759.1794627925256
 31
0.0
  0
ARC
  5
283
330
1F
100
AcDbEntity
  8
1-A
  6
Continuous
 62
     2
370
     9
100
AcDbCircle
 10
-1079.865166584016
 20
-738.6517938637612
 30
0.0
 40
35.0
100
AcDbArc
 50
211.0026092529297
 51
238.9973449707031
  0
LINE
  5
284
330
1F
100
AcDbEntity
  8
1-A
  6
Continuous
 62
     2
370
     9
100
AcDbLine
 10
-1022.365015797298
 20
-759.1796448669112
 30
0.0
 11
-1022.364939090034
 21
-771.1519705350454
 31
0.0
  0
LINE
  5
285
330
1F
100
AcDbEntity
  8
1-A
  6
Continuous
 62
     2
370
     9
100
AcDbLine
 10
-1022.364939090034
 20
-771.1519705350454
 30
0.0
 11
-1034.337446832553
 21
-771.1518870842855
 31
0.0
  0
ARC
  5
286
330
1F
100
AcDbEntity
  8
1-A
  6
Continuous
 62
     2
370
     9
100
AcDbCircle
 10
-1054.865115761318
 20
-738.6517938637614
 30
0.0
 40
35.0
100
AcDbArc
 50
301.0026092529297
 51
328.9973449707031
  0
LINE
  5
287
330
1F
100
AcDbEntity
  8
1-A
  6
Continuous
 62
     2
370
     9
100
AcDbLine
 10
-1034.337264758168
 20
-681.1516430770432
 30
0.0
 11
-1022.364939090033
 21
-681.151566369779
 31
0.0
  0
LINE
  5
288
330
1F
100
AcDbEntity
  8
1-A
  6
Continuous
 62
     2
370
     9
100
AcDbLine
 10
-1022.364939090033
 20
-681.151566369779
 30
0.0
 11
-1022.365022540793
 21
-693.1240741122988
 31
0.0
  0
ARC
  5
289
330
1F
100
AcDbEntity
  8
1-A
  6
Continuous
 62
     2
370
     9
100
AcDbCircle
 10
-1054.865115761318
 20
-713.6517430410631
 30
0.0
 40
35.0
100
AcDbArc
 50
31.00260925292969
 51
58.99734497070312
  0
LINE
  5
28A
330
1F
100
AcDbEntity
  8
1-A
  6
Continuous
 62
     2
370
     9
100
AcDbLine
 10
-1097.892892213779
 20
-683.6517684524122
 30
0.0
 11
-1100.39283551278
 21
-681.151649820539
 31
0.0
  0
LINE
  5
28B
330
1F
100
AcDbEntity
  8
1-A
  6
Continuous
 62
     2
370
     9
100
AcDbLine
 10
-1109.865141172667
 20
-695.6240174132822
 30
0.0
 11
-1112.365266548036
 21
-693.1238920379133
 31
0.0
  0
LINE
  5
28C
330
1F
100
AcDbEntity
  8
1-A
  6
Continuous
 62
     2
370
     9
100
AcDbLine
 10
-1036.837390133537
 20
-683.6517684524122
 30
0.0
 11
-1034.337264758168
 21
-681.1516430770432
 31
0.0
  0
LINE
  5
28D
330
1F
100
AcDbEntity
  8
1-A
  6
Continuous
 62
     2
370
     9
100
AcDbLine
 10
-1036.837390133537
 20
-683.6517684524122
 30
0.0
 11
-1097.892892213779
 21
-683.6517684524122
 31
0.0
  0
LINE
  5
28E
330
1F
100
AcDbEntity
  8
1-A
  6
Continuous
 62
     2
370
     9
100
AcDbLine
 10
-1024.865141172667
 20
-695.6240174112997
 30
0.0
 11
-1022.365022540793
 21
-693.1240741122988
 31
0.0
  0
LINE
  5
28F
330
1F
100
AcDbEntity
  8
1-A
  6
Continuous
 62
     2
370
     9
100
AcDbLine
 10
-1024.865141172667
 20
-756.6795194915424
 30
0.0
 11
-1022.365015797298
 21
-759.1796448669112
 31
0.0
  0
LINE
  5
290
330
1F
100
AcDbEntity
  8
1-A
  6
Continuous
 62
     2
370
     9
100
AcDbLine
 10
-1024.865141172667
 20
-756.6795194915424
 30
0.0
 11
-1024.865141172667
 21
-695.6240174112997
 31
0.0
  0
LINE
  5
291
330
1F
100
AcDbEntity
  8
1-A
  6
Continuous
 62
     2
370
     9
100
AcDbLine
 10
-1036.837390131554
 20
-768.6517684524122
 30
0.0
 11
-1034.337446832553
 21
-771.1518870842855
 31
0.0
  0
LINE
  5
292
330
1F
100
AcDbEntity
  8
1-A
  6
Continuous
 62
     2
370
     9
100
AcDbLine
 10
-1097.892892211797
 20
-768.6517684524122
 30
0.0
 11
-1100.393017587166
 21
-771.1518938277812
 31
0.0
  0
LINE
  5
293
330
1F
100
AcDbEntity
  8
1-A
  6
Continuous
 62
     2
370
     9
100
AcDbLine
 10
-1097.892892211797
 20
-768.6517684524122
 30
0.0
 11
-1036.837390131554
 21
-768.6517684524122
 31
0.0
  0
LINE
  5
294
330
1F
100
AcDbEntity
  8
1-A
  6
Continuous
 62
     2
370
     9
100
AcDbLine
 10
-1109.865141172667
 20
-756.6795194935248
 30
0.0
 11
-1112.36525980454
 21
-759.1794627925256
 31
0.0
  0
LINE
  5
295
330
1F
100
AcDbEntity
  8
1-A
  6
Continuous
 62
     2
370
     9
100
AcDbLine
 10
-1109.865141172667
 20
-695.6240174132822
 30
0.0
 11
-1109.865141172667
 21
-756.6795194935248
 31
0.0
  0
CIRCLE
  5
296
330
1F
100
AcDbEntity
  8
1-0
  6
Continuous
 62
     4
370
     9
100
AcDbCircle
 10
-1067.365141172667
 20
-726.1517684524122
 30
0.0
 40
105.0
  0
CIRCLE
  5
297
330
1F
100
AcDbEntity
  8
1-0
  6
Continuous
 62
     4
370
     9
100
AcDbCircle
 10
-982.3651411726668
 20
-726.1517684524122
 30
0.0
 40
10.0
  0
LINE
  5
298
330
1F
100
AcDbEntity
  8
1-0
  6
JWW_CENTER1
 62
     4
370
     9
100
AcDbLine
 10
-982.3651411726668
 20
-710.4413520924775
 30
0.0
 11
-982.3651411726668
 21
-742.1456038219096
 31
0.0
  0
CIRCLE
  5
299
330
1F
100
AcDbEntity
  8
1-0
  6
Continuous
 62
     4
370
     9
100
AcDbCircle
 10
-1067.365141172667
 20
-641.1517684524122
 30
0.0
 40
10.0
  0
LINE
  5
29A
330
1F
100
AcDbEntity
  8
1-0
  6
JWW_CENTER1
 62
     4
370
     9
100
AcDbLine
 10
-1083.075557532602
 20
-641.1517684524122
 30
0.0
 11
-1051.371305803169
 21
-641.1517684524122
 31
0.0
  0
CIRCLE
  5
29B
330
1F
100
AcDbEntity
  8
1-0
  6
Continuous
 62
     4
370
     9
100
AcDbCircle
 10
-1152.365141172667
 20
-726.1517684524122
 30
0.0
 40
10.0
  0
LINE
  5
29C
330
1F
100
AcDbEntity
  8
1-0
  6
JWW_CENTER1
 62
     4
370
     9
100
AcDbLine
 10
-1152.365141172667
 20
-741.8621848123471
 30
0.0
 11
-1152.365141172667
 21
-710.1579330829147
 31
0.0
  0
CIRCLE
  5
29D
330
1F
100
AcDbEntity
  8
1-0
  6
Continuous
 62
     4
370
     9
100
AcDbCircle
 10
-1067.365141172667
 20
-811.1517684524122
 30
0.0
 40
10.0
  0
LINE
  5
29E
330
1F
100
AcDbEntity
  8
1-0
  6
JWW_CENTER1
 62
     4
370
     9
100
AcDbLine
 10
-1051.654724812732
 20
-811.1517684524122
 30
0.0
 11
-1083.358976542164
 21
-811.1517684524122
 31
0.0
  0
LINE
  5
29F
330
1F
100
AcDbEntity
  8
1-8
  6
Continuous
 62
     3
370
     9
100
AcDbLine
 10
-1164.865215404614
 20
-76.8653745908992
 30
0.0
 11
-1164.865215404614
 21
-81.86514364706483
 31
0.0
  0
LINE
  5
2A0
330
1F
100
AcDbEntity
  8
1-8
  6
Continuous
 62
     3
370
     9
100
AcDbLine
 10
-1139.865132924673
 20
-76.8653745908992
 30
0.0
 11
-1164.865215404614
 21
-76.8653745908992
 31
0.0
  0
LINE
  5
2A1
330
1F
100
AcDbEntity
  8
1-8
  6
Continuous
 62
     3
370
     9
100
AcDbLine
 10
-1139.865132924673
 20
-76.8653745908992
 30
0.0
 11
-1139.865132924673
 21
-81.86514364706483
 31
0.0
  0
LINE
  5
2A2
330
1F
100
AcDbEntity
  8
1-8
  6
Continuous
 62
     3
370
     9
100
AcDbLine
 10
-969.8651906606312
 20
-76.8653745908992
 30
0.0
 11
-969.8651906606312
 21
-81.86514364706483
 31
0.0
  0
LINE
  5
2A3
330
1F
100
AcDbEntity
  8
1-8
  6
Continuous
 62
     3
370
     9
100
AcDbLine
 10
-994.8652731405721
 20
-76.8653745908992
 30
0.0
 11
-969.8651906606312
 21
-76.8653745908992
 31
0.0
  0
LINE
  5
2A4
330
1F
100
AcDbEntity
  8
1-8
  6
Continuous
 62
     3
370
     9
100
AcDbLine
 10
-994.8652731405721
 20
-76.8653745908992
 30
0.0
 11
-994.8652731405721
 21
-81.86514364706483
 31
0.0
  0
LINE
  5
2A5
330
1F
100
AcDbEntity
  8
1-8
  6
JWW_DASHED1
 62
     3
370
     9
100
AcDbLine
 10
-987.3650009567672
 20
-206.8655560467693
 30
0.0
 11
-987.3650009567672
 21
-81.86514364706483
 31
0.0
  0
LINE
  5
2A6
330
1F
100
AcDbEntity
  8
1-8
  6
JWW_DASHED1
 62
     3
370
     9
100
AcDbLine
 10
-977.3650916847022
 20
-206.8655560467693
 30
0.0
 11
-977.3650916847022
 21
-81.86514364706483
 31
0.0
  0
LINE
  5
2A7
330
1F
100
AcDbEntity
  8
1-8
  6
JWW_DASHED1
 62
     3
370
     9
100
AcDbLine
 10
-977.3650916847022
 20
-206.8655560467693
 30
0.0
 11
-982.3651081806904
 21
-231.8653910868875
 31
0.0
  0
LINE
  5
2A8
330
1F
100
AcDbEntity
  8
1-8
  6
JWW_DASHED1
 62
     3
370
     9
100
AcDbLine
 10
-987.3650009567672
 20
-206.8655560467693
 30
0.0
 11
-982.3651081806904
 21
-231.8653910868875
 31
0.0
  0
LINE
  5
2A9
330
1F
100
AcDbEntity
  8
1-8
  6
JWW_DASHED1
 62
     3
370
     9
100
AcDbLine
 10
-1147.365281388566
 20
-206.8655560467693
 30
0.0
 11
-1147.365281388566
 21
-81.86514364706483
 31
0.0
  0
LINE
  5
2AA
330
1F
100
AcDbEntity
  8
1-8
  6
JWW_DASHED1
 62
     3
370
     9
100
AcDbLine
 10
-1157.365190660631
 20
-206.8655560467693
 30
0.0
 11
-1157.365190660631
 21
-81.86514364706483
 31
0.0
  0
LINE
  5
2AB
330
1F
100
AcDbEntity
  8
1-8
  6
JWW_DASHED1
 62
     3
370
     9
100
AcDbLine
 10
-1157.365190660631
 20
-206.8655560467693
 30
0.0
 11
-1152.365174164643
 21
-231.8653910868875
 31
0.0
  0
LINE
  5
2AC
330
1F
100
AcDbEntity
  8
1-8
  6
JWW_DASHED1
 62
     3
370
     9
100
AcDbLine
 10
-1147.365281388566
 20
-206.8655560467693
 30
0.0
 11
-1152.365174164643
 21
-231.8653910868875
 31
0.0
  0
LINE
  5
2AD
330
1F
100
AcDbEntity
  8
1-A
  6
Continuous
 62
     2
370
     9
100
AcDbLine
 10
-1104.613879870561
 20
-70.53642539768873
 30
0.0
 11
-1112.365282111089
 21
-76.86526697679
 31
0.0
  0
LINE
  5
2AE
330
1F
100
AcDbEntity
  8
1-A
  6
Continuous
 62
     2
370
     9
100
AcDbLine
 10
-1104.613879870561
 20
-70.53642539768873
 30
0.0
 11
-1097.892893897671
 21
-70.53642539768873
 31
0.0
  0
LINE
  5
2AF
330
1F
100
AcDbEntity
  8
1-A
  6
Continuous
 62
     2
370
     9
100
AcDbLine
 10
-1097.892893897671
 20
-70.53642539768873
 30
0.0
 11
-1097.892893897671
 21
-81.86532294652721
 31
0.0
  0
LINE
  5
2B0
330
1F
100
AcDbEntity
  8
1-A
  6
Continuous
 62
     2
370
     9
100
AcDbLine
 10
-1112.365282111089
 20
-76.86526697679
 30
0.0
 11
-1112.365278739341
 21
-81.86527574205684
 31
0.0
  0
LINE
  5
2B1
330
1F
100
AcDbEntity
  8
1-A
  6
Continuous
 62
     2
370
     9
100
AcDbLine
 10
-1109.865141172667
 20
-41.86532160613282
 30
0.0
 11
-1109.865141172667
 21
-74.82397372048368
 31
0.0
  0
LINE
  5
2B2
330
1F
100
AcDbEntity
  8
1-A
  6
Continuous
 62
     2
370
     9
100
AcDbLine
 10
-1030.11636707142
 20
-70.53638325084023
 30
0.0
 11
-1022.364958087396
 21
-76.86530575189067
 31
0.0
  0
LINE
  5
2B3
330
1F
100
AcDbEntity
  8
1-A
  6
Continuous
 62
     2
370
     9
100
AcDbLine
 10
-1030.11636707142
 20
-70.53638325084023
 30
0.0
 11
-1036.83734461494
 21
-70.53637819321835
 31
0.0
  0
LINE
  5
2B4
330
1F
100
AcDbEntity
  8
1-A
  6
Continuous
 62
     2
370
     9
100
AcDbLine
 10
-1036.83734461494
 20
-70.53637819321835
 30
0.0
 11
-1036.83734461494
 21
-81.86527574205684
 31
0.0
  0
LINE
  5
2B5
330
1F
100
AcDbEntity
  8
1-A
  6
Continuous
 62
     2
370
     9
100
AcDbLine
 10
-1022.364958087396
 20
-76.86530575189067
 30
0.0
 11
-1022.36495977327
 21
-81.86532294652721
 31
0.0
  0
LINE
  5
2B6
330
1F
100
AcDbEntity
  8
1-A
  6
Continuous
 62
     2
370
     9
100
AcDbLine
 10
-1024.865141172667
 20
-41.86540589982982
 30
0.0
 11
-1024.86509565407
 21
-74.82392820188721
 31
0.0
  0
LINE
  5
2B7
330
1F
100
AcDbEntity
  8
1-A
  6
Continuous
 62
     2
370
     9
100
AcDbLine
 10
-1109.865141172667
 20
-41.86532160613282
 30
0.0
 11
-1024.865141172667
 21
-41.86540589982982
 31
0.0
  0
LINE
  5
2B8
330
1F
100
AcDbEntity
  8
1-0
  6
Continuous
 62
     4
370
     9
100
AcDbLine
 10
-1172.365144835885
 20
-89.86524427259269
 30
0.0
 11
-962.3651448358918
 21
-89.86535441596658
 31
0.0
  0
LINE
  5
2B9
330
1F
100
AcDbEntity
  8
1-0
  6
Continuous
 62
     4
370
     9
100
AcDbLine
 10
-1172.365144271362
 20
-81.86524427259201
 30
0.0
 11
-1172.365144835885
 21
-89.86524427259269
 31
0.0
  0
LINE
  5
2BA
330
1F
100
AcDbEntity
  8
1-0
  6
Continuous
 62
     4
370
     9
100
AcDbLine
 10
-1172.365144271362
 20
-81.86524427259201
 30
0.0
 11
-962.3651442713698
 21
-81.86535441596575
 31
0.0
  0
LINE
  5
2BB
330
1F
100
AcDbEntity
  8
1-0
  6
Continuous
 62
     4
370
     9
100
AcDbLine
 10
-962.3651442713698
 20
-81.86535441596575
 30
0.0
 11
-962.3651448358918
 21
-89.86535441596658
 31
0.0
  0
LINE
  5
2BC
330
1F
100
AcDbEntity
  8
1-0
  6
JWW_CENTER1
 62
     4
370
     9
100
AcDbLine
 10
-1152.365141172667
 20
-96.05405958343411
 30
0.0
 11
-1152.365141172667
 21
-73.20563294187025
 31
0.0
  0
LINE
  5
2BD
330
1F
100
AcDbEntity
  8
1-0
  6
Continuous
 62
     4
370
     9
100
AcDbLine
 10
-1142.365141172667
 20
-89.86526000736234
 30
0.0
 11
-1142.365141172667
 21
-81.86526000736137
 31
0.0
  0
LINE
  5
2BE
330
1F
100
AcDbEntity
  8
1-0
  6
Continuous
 62
     4
370
     9
100
AcDbLine
 10
-1162.365141172667
 20
-89.86524951751733
 30
0.0
 11
-1162.365141172667
 21
-81.86524951751608
 31
0.0
  0
LINE
  5
2BF
330
1F
100
AcDbEntity
  8
1-0
  6
JWW_CENTER1
 62
     4
370
     9
100
AcDbLine
 10
-982.3651478764641
 20
-96.05407157952698
 30
0.0
 11
-982.3651478764641
 21
-73.20564493796297
 31
0.0
  0
LINE
  5
2C0
330
1F
100
AcDbEntity
  8
1-0
  6
Continuous
 62
     4
370
     9
100
AcDbLine
 10
-992.3651478764641
 20
-89.8652720034552
 30
0.0
 11
-992.3651478764641
 21
-81.8652720034541
 31
0.0
  0
LINE
  5
2C1
330
1F
100
AcDbEntity
  8
1-0
  6
Continuous
 62
     4
370
     9
100
AcDbLine
 10
-972.3651478764641
 20
-89.86526151361005
 30
0.0
 11
-972.3651478764641
 21
-81.86526151360908
 31
0.0
  0
LINE
  5
2C2
330
1F
100
AcDbEntity
  8
1-0
  6
Continuous
 62
     4
370
     9
100
AcDbLine
 10
-1034.865144271367
 20
-81.8653163902772
 30
0.0
 11
-1034.865144835889
 21
-89.86531639027802
 31
0.0
  0
LINE
  5
2C3
330
1F
100
AcDbEntity
  8
1-0
  6
Continuous
 62
     4
370
     9
100
AcDbLine
 10
-1099.865144271365
 20
-81.86528229828056
 30
0.0
 11
-1099.865144835887
 21
-89.86528229828139
 31
0.0
  0
LINE
  5
2C4
330
1F
100
AcDbEntity
  8
1-4
  6
Continuous
 62
     7
370
     9
100
AcDbLine
 10
-1033.365177463841
 20
-41.86539350379604
 30
0.0
 11
-1023.797916721653
 21
-18.76849441965334
 31
0.0
  0
LINE
  5
2C5
330
1F
100
AcDbEntity
  8
1-4
  6
Continuous
 62
     7
370
     9
100
AcDbLine
 10
-1033.365177463841
 20
-41.86539350379604
 30
0.0
 11
-1018.146143732844
 21
-22.03160708065411
 31
0.0
  0
LINE
  5
2C6
330
1F
100
AcDbEntity
  8
1-4
  6
Continuous
 62
     7
370
     9
100
AcDbLine
 10
-1033.365177463841
 20
-41.86539350379604
 30
0.0
 11
-975.6300436483846
 21
58.13456525623366
 31
0.0
  0
TEXT
  5
2C7
330
1F
100
AcDbEntity
  8
1-4
  6
Continuous
 62
     6
370
     0
100
AcDbText
 10
-965.4983759699642
 20
73.14861132622922
 30
0.0
 40
22.86
  1
固定プレート：ＳＧＨＣ他
 41
0.8944444444444445
  7
ＭＳ ゴシック
100
AcDbText
  0
LINE
  5
2C8
330
1F
100
AcDbEntity
  8
1-4
  6
Continuous
 62
     7
370
     9
100
AcDbLine
 10
-975.6300436483846
 20
58.13456525623366
 30
0.0
 11
-642.1487029375413
 21
58.13456525623366
 31
0.0
  0
LINE
  5
2C9
330
1F
100
AcDbEntity
  8
1-8
  6
Continuous
 62
     3
370
     9
100
AcDbLine
 10
-1037.364980336782
 20
307.8157084697003
 30
0.0
 11
-1037.364980336782
 21
-41.86539350385743
 31
0.0
  0
LINE
  5
2CA
330
1F
100
AcDbEntity
  8
1-8
  6
Continuous
 62
     3
370
     9
100
AcDbLine
 10
-1042.36499683277
 20
306.4759455500425
 30
0.0
 11
-1042.36499683277
 21
-41.86538854538831
 31
0.0
  0
LINE
  5
2CB
330
1F
100
AcDbEntity
  8
1-8
  6
Continuous
 62
     3
370
     9
100
AcDbLine
 10
-1092.364976212785
 20
293.0784400733742
 30
0.0
 11
-1092.364976212785
 21
-41.86533896088108
 31
0.0
  0
LINE
  5
2CC
330
1F
100
AcDbEntity
  8
1-8
  6
Continuous
 62
     3
370
     9
100
AcDbLine
 10
-1097.364992708773
 20
291.7386771537164
 30
0.0
 11
-1097.364992708773
 21
-41.86533400241196
 31
0.0
  0
ENDSEC
  0
SECTION
  2
OBJECTS
  0
DICTIONARY
  5
C
330
0
100
AcDbDictionary
281
     1
  3
ACAD_DETAILVIEWSTYLE
350
2D4
  3
ACAD_GROUP
350
D
  3
ACAD_LAYOUT
350
1A
  3
ACAD_MATERIAL
350
43
  3
ACAD_MLEADERSTYLE
350
6B
  3
ACAD_MLINESTYLE
350
17
  3
ACAD_PLOTSETTINGS
350
19
  3
ACAD_PLOTSTYLENAME
350
E
  3
ACAD_SCALELIST
350
47
  3
ACAD_SECTIONVIEWSTYLE
350
2D5
  3
ACAD_TABLESTYLE
350
69
  3
ACAD_VISUALSTYLE
350
2A
  3
ACDB_RECOMPOSE_DATA
350
2D1
  3
AcDbVariableDictionary
350
2CD
  0
SUN
  5
6D
330
29
100
AcDbSun
 90
        1
290
     0
 63
     7
421
 16777215
 40
1.0
291
     1
 91
  2455826
 92
 54000000
292
     0
 70
     2
 71
   256
280
     1
  0
DICTIONARY
  5
2D4
102
{ACAD_REACTORS
330
C
102
}
330
C
100
AcDbDictionary
281
     1
  0
DICTIONARY
  5
D
102
{ACAD_REACTORS
330
C
102
}
330
C
100
AcDbDictionary
281
     1
  0
DICTIONARY
  5
1A
102
{ACAD_REACTORS
330
C
102
}
330
C
100
AcDbDictionary
281
     1
  3
Layout1
350
1E
  3
Layout2
350
26
  3
Model
350
22
  0
DICTIONARY
  5
43
102
{ACAD_REACTORS
330
C
102
}
330
C
100
AcDbDictionary
281
     1
  3
ByBlock
350
45
  3
ByLayer
350
44
  3
Global
350
46
  0
DICTIONARY
  5
6B
102
{ACAD_REACTORS
330
C
102
}
330
C
100
AcDbDictionary
281
     1
  3
Standard
350
6C
  0
DICTIONARY
  5
17
102
{ACAD_REACTORS
330
C
102
}
330
C
100
AcDbDictionary
281
     1
  3
Standard
350
18
  0
DICTIONARY
  5
19
102
{ACAD_REACTORS
330
C
102
}
330
C
100
AcDbDictionary
281
     1
  0
ACDBDICTIONARYWDFLT
  5
E
102
{ACAD_REACTORS
330
C
102
}
330
C
100
AcDbDictionary
281
     1
  3
Normal
350
F
100
AcDbDictionaryWithDefault
340
F
  0
DICTIONARY
  5
47
102
{ACAD_REACTORS
330
C
102
}
330
C
100
AcDbDictionary
281
     1
  3
A0
350
48
  3
A1
350
49
  3
A2
350
4A
  3
A3
350
4B
  3
A4
350
4C
  3
A5
350
4D
  3
A6
350
4E
  3
A7
350
4F
  3
A8
350
50
  3
A9
350
51
  3
B0
350
52
  3
B1
350
53
  3
B2
350
54
  3
B3
350
55
  3
B4
350
56
  3
B5
350
57
  3
B6
350
58
  3
B7
350
59
  3
B8
350
5A
  3
B9
350
5B
  3
C0
350
5C
  3
C1
350
5D
  3
C2
350
5E
  3
C3
350
5F
  3
C4
350
60
  3
C5
350
61
  3
C6
350
62
  3
C7
350
63
  3
C8
350
64
  3
C9
350
65
  3
D0
350
66
  3
D1
350
67
  3
D2
350
68
  0
DICTIONARY
  5
2D5
102
{ACAD_REACTORS
330
C
102
}
330
C
100
AcDbDictionary
281
     1
  0
DICTIONARY
  5
69
102
{ACAD_REACTORS
330
C
102
}
330
C
100
AcDbDictionary
281
     1
  3
Standard
350
6A
  0
DICTIONARY
  5
2A
102
{ACAD_REACTORS
330
C
102
}
330
C
100
AcDbDictionary
281
     1
  3
2dWireframe
350
2F
  3
Basic
350
32
  3
Brighten
350
36
  3
ColorChange
350
3A
  3
Conceptual
350
34
  3
Dim
350
35
  3
EdgeColorOff
350
3D
  3
Facepattern
350
39
  3
Flat
350
2B
  3
FlatWithEdges
350
2C
  3
Gouraud
350
2D
  3
GouraudWithEdges
350
2E
  3
Hidden
350
31
  3
JitterOff
350
3B
  3
Linepattern
350
38
  3
OverhangOff
350
3C
  3
Realistic
350
33
  3
Shaded
350
42
  3
Shaded with edges
350
41
  3
Shades of Gray
350
3E
  3
Sketchy
350
3F
  3
Thicken
350
37
  3
Wireframe
350
30
  3
X-Ray
350
40
  0
XRECORD
  5
2D1
102
{ACAD_REACTORS
330
C
102
}
330
C
100
AcDbXrecord
280
     1
 90
        1
330
6A
  0
DICTIONARY
  5
2CD
102
{ACAD_REACTORS
330
C
102
}
330
C
100
AcDbDictionary
281
     1
  3
CANNOSCALE
350
2CE
  3
CENTEREXE
350
2D6
  3
CENTERLTYPEFILE
350
2D7
  3
CMLEADERSTYLE
350
2D3
  3
CTABLESTYLE
350
2D2
  0
LAYOUT
  5
1E
102
{ACAD_REACTORS
330
1A
102
}
330
1A
100
AcDbPlotSettings
  1

  2
none_device
  4

  6

 40
0.0
 41
0.0
 42
0.0
 43
0.0
 44
0.0
 45
0.0
 46
0.0
 47
0.0
 48
0.0
 49
0.0
140
0.0
141
0.0
142
1.0
143
1.0
 70
   688
 72
     1
 73
     0
 74
     5
  7

 75
    16
 76
     0
 77
     5
 78
   300
147
1.0
148
0.0
149
0.0
100
AcDbLayout
  1
Layout1
 70
     1
 71
     1
 10
0.0
 20
0.0
 11
420.0
 21
297.0
 12
0.0
 22
0.0
 32
0.0
 14
1.000000000000000E+20
 24
1.000000000000000E+20
 34
1.000000000000000E+20
 15
-1.000000000000000E+20
 25
-1.000000000000000E+20
 35
-1.000000000000000E+20
146
0.0
 13
0.0
 23
0.0
 33
0.0
 16
1.0
 26
0.0
 36
0.0
 17
0.0
 27
1.0
 37
0.0
 76
     0
330
1B
  0
LAYOUT
  5
26
102
{ACAD_REACTORS
330
1A
102
}
330
1A
100
AcDbPlotSettings
  1

  2
none_device
  4

  6

 40
0.0
 41
0.0
 42
0.0
 43
0.0
 44
0.0
 45
0.0
 46
0.0
 47
0.0
 48
0.0
 49
0.0
140
0.0
141
0.0
142
1.0
143
1.0
 70
   688
 72
     1
 73
     0
 74
     5
  7

 75
    16
 76
     0
 77
     5
 78
   300
147
1.0
148
0.0
149
0.0
100
AcDbLayout
  1
Layout2
 70
     1
 71
     2
 10
0.0
 20
0.0
 11
0.0
 21
0.0
 12
0.0
 22
0.0
 32
0.0
 14
0.0
 24
0.0
 34
0.0
 15
0.0
 25
0.0
 35
0.0
146
0.0
 13
0.0
 23
0.0
 33
0.0
 16
1.0
 26
0.0
 36
0.0
 17
0.0
 27
1.0
 37
0.0
 76
     0
330
23
  0
LAYOUT
  5
22
102
{ACAD_REACTORS
330
1A
102
}
330
1A
100
AcDbPlotSettings
  1

  2
none_device
  4
Letter_(8.50_x_11.00_Inches)
  6

 40
6.35
 41
6.35
 42
6.35000508
 43
6.35000508
 44
215.9
 45
279.4
 46
0.0
 47
0.0
 48
0.0
 49
0.0
140
0.0
141
0.0
142
1.0
143
1.0
 70
  1712
 72
     1
 73
     0
 74
     0
  7

 75
     0
 76
     0
 77
     5
 78
   300
147
1.0
148
0.0
149
0.0
100
AcDbLayout
  1
Model
 70
     1
 71
     0
 10
-2100.0
 20
-1485.0
 11
2100.0
 21
1485.0
 12
0.0
 22
0.0
 32
0.0
 14
-2100.0
 24
-1485.0
 34
0.0
 15
2100.0
 25
1485.0
 35
0.0
146
0.0
 13
0.0
 23
0.0
 33
0.0
 16
1.0
 26
0.0
 36
0.0
 17
0.0
 27
1.0
 37
0.0
 76
     0
330
1F
331
29
  0
MATERIAL
  5
45
102
{ACAD_REACTORS
330
43
102
}
330
43
100
AcDbMaterial
  1
ByBlock
 72
     1
 94
      127
  0
MATERIAL
  5
44
102
{ACAD_REACTORS
330
43
102
}
330
43
100
AcDbMaterial
  1
ByLayer
 72
     1
 94
      127
  0
MATERIAL
  5
46
102
{ACAD_REACTORS
330
43
102
}
330
43
100
AcDbMaterial
  1
Global
 72
     1
 94
      127
  0
MLEADERSTYLE
  5
6C
102
{ACAD_REACTORS
330
6B
102
}
330
6B
100
AcDbMLeaderStyle
179
     2
170
     2
171
     1
172
     0
 90
        2
 40
0.0
 41
0.0
173
     1
 91
-1056964608
340
14
 92
       -2
290
     1
 42
2.0
291
     1
 43
8.0
  3
Standard
341
0
 44
4.0
300

342
11
174
     1
178
     6
175
     1
176
     0
 93
-1056964608
 45
4.0
292
     0
297
     0
 46
4.0
343
0
 94
-1056964608
 47
1.0
 49
1.0
140
1.0
293
     1
141
0.0
294
     1
177
     0
142
1.0
295
     0
296
     0
143
3.75
271
     0
272
     9
273
     9
298
     0
  0
MLINESTYLE
  5
18
102
{ACAD_REACTORS
330
17
102
}
330
17
100
AcDbMlineStyle
  2
Standard
 70
     0
  3

 62
   256
 51
90.0
 52
90.0
 71
     2
 49
0.5
 62
   256
  6
BYLAYER
 49
-0.5
 62
   256
  6
BYLAYER
  0
ACDBPLACEHOLDER
  5
F
102
{ACAD_REACTORS
330
E
102
}
330
E
  0
SCALE
  5
48
102
{ACAD_REACTORS
330
47
102
}
330
47
100
AcDbScale
 70
     0
300
1:1
140
1.0
141
1.0
290
     1
  0
SCALE
  5
49
102
{ACAD_REACTORS
330
47
102
}
330
47
100
AcDbScale
 70
     0
300
1:2
140
1.0
141
2.0
290
     0
  0
SCALE
  5
4A
102
{ACAD_REACTORS
330
47
102
}
330
47
100
AcDbScale
 70
     0
300
1:4
140
1.0
141
4.0
290
     0
  0
SCALE
  5
4B
102
{ACAD_REACTORS
330
47
102
}
330
47
100
AcDbScale
 70
     0
300
1:5
140
1.0
141
5.0
290
     0
  0
SCALE
  5
4C
102
{ACAD_REACTORS
330
47
102
}
330
47
100
AcDbScale
 70
     0
300
1:8
140
1.0
141
8.0
290
     0
  0
SCALE
  5
4D
102
{ACAD_REACTORS
330
47
102
}
330
47
100
AcDbScale
 70
     0
300
1:10
140
1.0
141
10.0
290
     0
  0
SCALE
  5
4E
102
{ACAD_REACTORS
330
47
102
}
330
47
100
AcDbScale
 70
     0
300
1:16
140
1.0
141
16.0
290
     0
  0
SCALE
  5
4F
102
{ACAD_REACTORS
330
47
102
}
330
47
100
AcDbScale
 70
     0
300
1:20
140
1.0
141
20.0
290
     0
  0
SCALE
  5
50
102
{ACAD_REACTORS
330
47
102
}
330
47
100
AcDbScale
 70
     0
300
1:30
140
1.0
141
30.0
290
     0
  0
SCALE
  5
51
102
{ACAD_REACTORS
330
47
102
}
330
47
100
AcDbScale
 70
     0
300
1:40
140
1.0
141
40.0
290
     0
  0
SCALE
  5
52
102
{ACAD_REACTORS
330
47
102
}
330
47
100
AcDbScale
 70
     0
300
1:50
140
1.0
141
50.0
290
     0
  0
SCALE
  5
53
102
{ACAD_REACTORS
330
47
102
}
330
47
100
AcDbScale
 70
     0
300
1:100
140
1.0
141
100.0
290
     0
  0
SCALE
  5
54
102
{ACAD_REACTORS
330
47
102
}
330
47
100
AcDbScale
 70
     0
300
2:1
140
2.0
141
1.0
290
     0
  0
SCALE
  5
55
102
{ACAD_REACTORS
330
47
102
}
330
47
100
AcDbScale
 70
     0
300
4:1
140
4.0
141
1.0
290
     0
  0
SCALE
  5
56
102
{ACAD_REACTORS
330
47
102
}
330
47
100
AcDbScale
 70
     0
300
8:1
140
8.0
141
1.0
290
     0
  0
SCALE
  5
57
102
{ACAD_REACTORS
330
47
102
}
330
47
100
AcDbScale
 70
     0
300
10:1
140
10.0
141
1.0
290
     0
  0
SCALE
  5
58
102
{ACAD_REACTORS
330
47
102
}
330
47
100
AcDbScale
 70
     0
300
100:1
140
100.0
141
1.0
290
     0
  0
SCALE
  5
59
102
{ACAD_REACTORS
330
47
102
}
330
47
100
AcDbScale
 70
     0
300
1/128" = 1'-0"
140
0.0078125
141
12.0
290
     0
  0
SCALE
  5
5A
102
{ACAD_REACTORS
330
47
102
}
330
47
100
AcDbScale
 70
     0
300
1/64" = 1'-0"
140
0.015625
141
12.0
290
     0
  0
SCALE
  5
5B
102
{ACAD_REACTORS
330
47
102
}
330
47
100
AcDbScale
 70
     0
300
1/32" = 1'-0"
140
0.03125
141
12.0
290
     0
  0
SCALE
  5
5C
102
{ACAD_REACTORS
330
47
102
}
330
47
100
AcDbScale
 70
     0
300
1/16" = 1'-0"
140
0.0625
141
12.0
290
     0
  0
SCALE
  5
5D
102
{ACAD_REACTORS
330
47
102
}
330
47
100
AcDbScale
 70
     0
300
3/32" = 1'-0"
140
0.09375
141
12.0
290
     0
  0
SCALE
  5
5E
102
{ACAD_REACTORS
330
47
102
}
330
47
100
AcDbScale
 70
     0
300
1/8" = 1'-0"
140
0.125
141
12.0
290
     0
  0
SCALE
  5
5F
102
{ACAD_REACTORS
330
47
102
}
330
47
100
AcDbScale
 70
     0
300
3/16" = 1'-0"
140
0.1875
141
12.0
290
     0
  0
SCALE
  5
60
102
{ACAD_REACTORS
330
47
102
}
330
47
100
AcDbScale
 70
     0
300
1/4" = 1'-0"
140
0.25
141
12.0
290
     0
  0
SCALE
  5
61
102
{ACAD_REACTORS
330
47
102
}
330
47
100
AcDbScale
 70
     0
300
3/8" = 1'-0"
140
0.375
141
12.0
290
     0
  0
SCALE
  5
62
102
{ACAD_REACTORS
330
47
102
}
330
47
100
AcDbScale
 70
     0
300
1/2" = 1'-0"
140
0.5
141
12.0
290
     0
  0
SCALE
  5
63
102
{ACAD_REACTORS
330
47
102
}
330
47
100
AcDbScale
 70
     0
300
3/4" = 1'-0"
140
0.75
141
12.0
290
     0
  0
SCALE
  5
64
102
{ACAD_REACTORS
330
47
102
}
330
47
100
AcDbScale
 70
     0
300
1" = 1'-0"
140
1.0
141
12.0
290
     0
  0
SCALE
  5
65
102
{ACAD_REACTORS
330
47
102
}
330
47
100
AcDbScale
 70
     0
300
1-1/2" = 1'-0"
140
1.5
141
12.0
290
     0
  0
SCALE
  5
66
102
{ACAD_REACTORS
330
47
102
}
330
47
100
AcDbScale
 70
     0
300
3" = 1'-0"
140
3.0
141
12.0
290
     0
  0
SCALE
  5
67
102
{ACAD_REACTORS
330
47
102
}
330
47
100
AcDbScale
 70
     0
300
6" = 1'-0"
140
6.0
141
12.0
290
     0
  0
SCALE
  5
68
102
{ACAD_REACTORS
330
47
102
}
330
47
100
AcDbScale
 70
     0
300
1'-0" = 1'-0"
140
12.0
141
12.0
290
     0
  0
TABLESTYLE
  5
6A
102
{ACAD_REACTORS
330
69
102
}
102
{ACAD_XDICTIONARY
360
2CF
102
}
330
69
100
AcDbTableStyle
  3
Standard
 70
     0
 71
     0
 40
0.06
 41
0.06
280
     0
281
     0
  7
Standard
140
4.5
170
     2
 62
     0
 63
   257
283
     0
 90
        4
 91
        0
  1

274
    -2
284
     1
 64
     0
275
    -2
285
     1
 65
     0
276
    -2
286
     1
 66
     0
277
    -2
287
     1
 67
     0
278
    -2
288
     1
 68
     0
279
    -2
289
     1
 69
     0
  7
Standard
140
6.0
170
     5
 62
     0
 63
   257
283
     0
 90
        4
 91
        0
  1

274
    -2
284
     1
 64
     0
275
    -2
285
     1
 65
     0
276
    -2
286
     1
 66
     0
277
    -2
287
     1
 67
     0
278
    -2
288
     1
 68
     0
279
    -2
289
     1
 69
     0
  7
Standard
140
4.5
170
     5
 62
     0
 63
   257
283
     0
 90
        4
 91
        0
  1

274
    -2
284
     1
 64
     0
275
    -2
285
     1
 65
     0
276
    -2
286
     1
 66
     0
277
    -2
287
     1
 67
     0
278
    -2
288
     1
 68
     0
279
    -2
289
     1
 69
     0
  0
VISUALSTYLE
  5
2F
102
{ACAD_REACTORS
330
2A
102
}
330
2A
100
AcDbVisualStyle
  2
2dWireframe
 70
     4
177
     3
291
     0
 70
    58
 90
        0
176
     1
 90
        2
176
     1
 90
        0
176
     1
 90
        0
176
     1
 40
0.6
176
     1
 40
30.0
176
     1
 62
     7
420
 16777215
176
     1
 90
        1
176
     1
 90
        4
176
     1
 62
     7
176
     1
 62
   257
176
     1
 90
        1
176
     1
 90
        1
176
     1
 40
1.0
176
     1
 90
        0
176
     1
 62
   257
176
     1
 40
1.0
176
     1
 90
        1
176
     1
 90
        6
176
     1
 90
        2
176
     1
 62
     7
176
     1
 90
        5
176
     1
 90
        0
176
     1
 90
        0
176
     1
290
     0
176
     1
 90
        1
176
     1
 40
0.0
176
     1
 90
        0
176
     1
290
     1
176
     1
290
     1
176
     1
290
     0
176
     1
290
     0
176
     1
290
     0
176
     1
290
     0
176
     1
290
     0
176
     1
290
     0
176
     1
290
     0
176
     1
 90
       50
176
     1
 40
0.0
176
     1
 40
1.0
176
     1
 90
        0
176
     1
 62
    18
420
        0
176
     1
 90
       50
176
     1
 90
        3
176
     1
 62
     5
420
      255
176
     1
290
     0
176
     1
 90
       50
176
     1
 90
       50
176
     1
 90
       50
176
     1
290
     0
176
     1
 90
       50
176
     1
 62
   256
176
     0
 40
1.0
176
     0
 90
        2
176
     1
  1
strokes_ogs.tif
176
     1
290
     0
176
     1
 40
1.0
176
     1
 40
1.0
176
     1
  0
VISUALSTYLE
  5
32
102
{ACAD_REACTORS
330
2A
102
}
330
2A
100
AcDbVisualStyle
  2
Basic
 70
     7
177
     3
291
     1
 70
    58
 90
        1
176
     1
 90
        0
176
     1
 90
        1
176
     1
 90
        0
176
     1
 40
0.6
176
     1
 40
30.0
176
     1
 62
     7
420
 16777215
176
     1
 90
        0
176
     1
 90
        4
176
     1
 62
     7
176
     1
 62
   257
176
     1
 90
        1
176
     1
 90
        1
176
     1
 40
1.0
176
     1
 90
        8
176
     1
 62
     7
176
     1
 40
1.0
176
     1
 90
        1
176
     1
 90
        6
176
     1
 90
        2
176
     1
 62
     7
176
     1
 90
        5
176
     1
 90
        0
176
     1
 90
        0
176
     1
290
     0
176
     1
 90
        1
176
     1
 40
0.0
176
     1
 90
        0
176
     1
290
     0
176
     1
290
     1
176
     1
290
     1
176
     1
290
     0
176
     1
290
     0
176
     1
290
     0
176
     1
290
     0
176
     1
290
     0
176
     1
290
     0
176
     1
 90
       50
176
     1
 40
0.0
176
     1
 40
1.0
176
     1
 90
        0
176
     1
 62
    18
420
        0
176
     1
 90
       50
176
     1
 90
        3
176
     1
 62
     5
420
      255
176
     1
290
     0
176
     1
 90
       50
176
     1
 90
       50
176
     1
 90
       50
176
     1
290
     0
176
     1
 90
       50
176
     1
 62
   256
176
     0
 40
1.0
176
     0
 90
        2
176
     1
  1
strokes_ogs.tif
176
     1
290
     0
176
     1
 40
1.0
176
     1
 40
1.0
176
     1
  0
VISUALSTYLE
  5
36
102
{ACAD_REACTORS
330
2A
102
}
330
2A
100
AcDbVisualStyle
  2
Brighten
 70
    12
177
     3
291
     1
 70
    58
 90
        2
176
     1
 90
        2
176
     1
 90
        0
176
     1
 90
        0
176
     1
 40
0.6
176
     1
 40
30.0
176
     1
 62
     7
420
 16777215
176
     1
 90
        1
176
     1
 90
        4
176
     1
 62
     7
176
     1
 62
   257
176
     1
 90
        1
176
     1
 90
        1
176
     1
 40
1.0
176
     1
 90
        8
176
     1
 62
     7
176
     1
 40
1.0
176
     1
 90
        1
176
     1
 90
        6
176
     1
 90
        2
176
     1
 62
     7
176
     1
 90
        5
176
     1
 90
        0
176
     1
 90
        0
176
     1
290
     0
176
     1
 90
        1
176
     1
 40
50.0
176
     1
 90
        0
176
     1
290
     0
176
     1
290
     1
176
     1
290
     1
176
     1
290
     0
176
     1
290
     0
176
     1
290
     0
176
     1
290
     0
176
     1
290
     0
176
     1
290
     0
176
     1
 90
       50
176
     1
 40
0.0
176
     1
 40
1.0
176
     1
 90
        0
176
     1
 62
    18
420
        0
176
     1
 90
       50
176
     1
 90
        3
176
     1
 62
     5
420
      255
176
     1
290
     0
176
     1
 90
       50
176
     1
 90
       50
176
     1
 90
       50
176
     1
290
     0
176
     1
 90
       50
176
     1
 62
   256
176
     0
 40
1.0
176
     0
 90
        2
176
     1
  1
strokes_ogs.tif
176
     1
290
     0
176
     1
 40
1.0
176
     1
 40
1.0
176
     1
  0
VISUALSTYLE
  5
3A
102
{ACAD_REACTORS
330
2A
102
}
330
2A
100
AcDbVisualStyle
  2
ColorChange
 70
    16
177
     3
291
     1
 70
    58
 90
        2
176
     1
 90
        2
176
     1
 90
        3
176
     1
 90
        0
176
     1
 40
0.6
176
     1
 40
30.0
176
     1
 62
     8
420
  8421504
176
     1
 90
        1
176
     1
 90
        4
176
     1
 62
     7
176
     1
 62
   257
176
     1
 90
        1
176
     1
 90
        1
176
     1
 40
1.0
176
     1
 90
        8
176
     1
 62
     8
420
  8421504
176
     1
 40
1.0
176
     1
 90
        1
176
     1
 90
        6
176
     1
 90
        2
176
     1
 62
     7
176
     1
 90
        5
176
     1
 90
        0
176
     1
 90
        0
176
     1
290
     0
176
     1
 90
        1
176
     1
 40
0.0
176
     1
 90
        0
176
     1
290
     0
176
     1
290
     1
176
     1
290
     1
176
     1
290
     0
176
     1
290
     0
176
     1
290
     0
176
     1
290
     0
176
     1
290
     0
176
     1
290
     0
176
     1
 90
       50
176
     1
 40
0.0
176
     1
 40
1.0
176
     1
 90
        0
176
     1
 62
    18
420
        0
176
     1
 90
       50
176
     1
 90
        3
176
     1
 62
     5
420
      255
176
     1
290
     0
176
     1
 90
       50
176
     1
 90
       50
176
     1
 90
       50
176
     1
290
     0
176
     1
 90
       50
176
     1
 62
   256
176
     0
 40
1.0
176
     0
 90
        2
176
     1
  1
strokes_ogs.tif
176
     1
290
     0
176
     1
 40
1.0
176
     1
 40
1.0
176
     1
  0
VISUALSTYLE
  5
34
102
{ACAD_REACTORS
330
2A
102
}
330
2A
100
AcDbVisualStyle
  2
Conceptual
 70
     9
177
     3
291
     0
 70
    58
 90
        3
176
     1
 90
        2
176
     1
 90
        0
176
     1
 90
        0
176
     1
 40
0.6
176
     1
 40
30.0
176
     1
 62
     7
420
 16777215
176
     1
 90
        2
176
     1
 90
        2
176
     1
 62
     7
176
     1
 62
   257
176
     1
 90
        1
176
     1
 90
        1
176
     1
 40
179.0
176
     1
 90
        8
176
     1
 62
     7
176
     1
 40
1.0
176
     1
 90
        1
176
     1
 90
        6
176
     1
 90
        2
176
     1
 62
     7
176
     1
 90
        3
176
     1
 90
        0
176
     1
 90
        0
176
     1
290
     0
176
     1
 90
        1
176
     1
 40
0.0
176
     1
 90
        0
176
     1
290
     0
176
     1
290
     1
176
     1
290
     1
176
     1
290
     0
176
     1
290
     0
176
     1
290
     0
176
     1
290
     0
176
     1
290
     0
176
     1
290
     0
176
     1
 90
       50
176
     1
 40
0.0
176
     1
 40
1.0
176
     1
 90
        0
176
     1
 62
    18
420
        0
176
     1
 90
       50
176
     1
 90
        3
176
     1
 62
     5
420
      255
176
     1
290
     0
176
     1
 90
       50
176
     1
 90
       50
176
     1
 90
       50
176
     1
290
     0
176
     1
 90
       50
176
     1
 62
   256
176
     0
 40
1.0
176
     0
 90
        2
176
     1
  1
strokes_ogs.tif
176
     1
290
     0
176
     1
 40
1.0
176
     1
 40
1.0
176
     1
  0
VISUALSTYLE
  5
35
102
{ACAD_REACTORS
330
2A
102
}
330
2A
100
AcDbVisualStyle
  2
Dim
 70
    11
177
     3
291
     1
 70
    58
 90
        2
176
     1
 90
        2
176
     1
 90
        0
176
     1
 90
        0
176
     1
 40
0.6
176
     1
 40
30.0
176
     1
 62
     7
420
 16777215
176
     1
 90
        1
176
     1
 90
        4
176
     1
 62
     7
176
     1
 62
   257
176
     1
 90
        1
176
     1
 90
        1
176
     1
 40
1.0
176
     1
 90
        8
176
     1
 62
     7
176
     1
 40
1.0
176
     1
 90
        1
176
     1
 90
        6
176
     1
 90
        2
176
     1
 62
     7
176
     1
 90
        5
176
     1
 90
        0
176
     1
 90
        0
176
     1
290
     0
176
     1
 90
        1
176
     1
 40
-50.0
176
     1
 90
        0
176
     1
290
     0
176
     1
290
     1
176
     1
290
     1
176
     1
290
     0
176
     1
290
     0
176
     1
290
     0
176
     1
290
     0
176
     1
290
     0
176
     1
290
     0
176
     1
 90
       50
176
     1
 40
0.0
176
     1
 40
1.0
176
     1
 90
        0
176
     1
 62
    18
420
        0
176
     1
 90
       50
176
     1
 90
        3
176
     1
 62
     5
420
      255
176
     1
290
     0
176
     1
 90
       50
176
     1
 90
       50
176
     1
 90
       50
176
     1
290
     0
176
     1
 90
       50
176
     1
 62
   256
176
     0
 40
1.0
176
     0
 90
        2
176
     1
  1
strokes_ogs.tif
176
     1
290
     0
176
     1
 40
1.0
176
     1
 40
1.0
176
     1
  0
VISUALSTYLE
  5
3D
102
{ACAD_REACTORS
330
2A
102
}
330
2A
100
AcDbVisualStyle
  2
EdgeColorOff
 70
    22
177
     3
291
     1
 70
    58
 90
        2
176
     0
 90
        2
176
     0
 90
        0
176
     0
 90
        0
176
     0
 40
0.6
176
     0
 40
30.0
176
     0
 62
     7
420
 16777215
176
     0
 90
        1
176
     0
 90
        4
176
     0
 62
     7
176
     0
 62
   257
176
     0
 90
        1
176
     0
 90
        1
176
     0
 40
1.0
176
     0
 90
        8
176
     2
 62
     7
176
     0
 40
1.0
176
     0
 90
        1
176
     0
 90
        6
176
     0
 90
        2
176
     0
 62
     7
176
     0
 90
        5
176
     0
 90
        0
176
     0
 90
        0
176
     0
290
     0
176
     0
 90
        1
176
     0
 40
0.0
176
     0
 90
        0
176
     0
290
     0
176
     0
290
     1
176
     0
290
     1
176
     0
290
     0
176
     0
290
     0
176
     0
290
     0
176
     0
290
     0
176
     0
290
     0
176
     0
290
     0
176
     0
 90
       50
176
     0
 40
0.0
176
     0
 40
1.0
176
     0
 90
        0
176
     0
 62
    18
420
        0
176
     0
 90
       50
176
     0
 90
        3
176
     0
 62
     5
420
      255
176
     0
290
     0
176
     0
 90
       50
176
     0
 90
       50
176
     0
 90
       50
176
     0
290
     0
176
     0
 90
       50
176
     0
 62
   256
176
     0
 40
1.0
176
     0
 90
        2
176
     0
  1
strokes_ogs.tif
176
     0
290
     0
176
     0
 40
1.0
176
     0
 40
1.0
176
     0
  0
VISUALSTYLE
  5
39
102
{ACAD_REACTORS
330
2A
102
}
330
2A
100
AcDbVisualStyle
  2
Facepattern
 70
    15
177
     3
291
     1
 70
    58
 90
        2
176
     1
 90
        2
176
     1
 90
        0
176
     1
 90
        0
176
     1
 40
0.6
176
     1
 40
30.0
176
     1
 62
     7
420
 16777215
176
     1
 90
        1
176
     1
 90
        4
176
     1
 62
     7
176
     1
 62
   257
176
     1
 90
        1
176
     1
 90
        1
176
     1
 40
1.0
176
     1
 90
        8
176
     1
 62
     7
176
     1
 40
1.0
176
     1
 90
        1
176
     1
 90
        6
176
     1
 90
        2
176
     1
 62
     7
176
     1
 90
        5
176
     1
 90
        0
176
     1
 90
        0
176
     1
290
     0
176
     1
 90
        1
176
     1
 40
0.0
176
     1
 90
        0
176
     1
290
     0
176
     1
290
     1
176
     1
290
     1
176
     1
290
     0
176
     1
290
     0
176
     1
290
     0
176
     1
290
     0
176
     1
290
     0
176
     1
290
     0
176
     1
 90
       50
176
     1
 40
0.0
176
     1
 40
1.0
176
     1
 90
        0
176
     1
 62
    18
420
        0
176
     1
 90
       50
176
     1
 90
        3
176
     1
 62
     5
420
      255
176
     1
290
     0
176
     1
 90
       50
176
     1
 90
       50
176
     1
 90
       50
176
     1
290
     0
176
     1
 90
       50
176
     1
 62
   256
176
     0
 40
1.0
176
     0
 90
        2
176
     1
  1
strokes_ogs.tif
176
     1
290
     0
176
     1
 40
1.0
176
     1
 40
1.0
176
     1
  0
VISUALSTYLE
  5
2B
102
{ACAD_REACTORS
330
2A
102
}
330
2A
100
AcDbVisualStyle
  2
Flat
 70
     0
177
     3
291
     1
 70
    58
 90
        2
176
     1
 90
        1
176
     1
 90
        1
176
     1
 90
        2
176
     1
 40
0.6
176
     1
 40
30.0
176
     1
 62
     7
420
 16777215
176
     1
 90
        0
176
     1
 90
        0
176
     1
 62
     7
176
     1
 62
   257
176
     1
 90
        1
176
     1
 90
        1
176
     1
 40
1.0
176
     1
 90
        8
176
     1
 62
     7
176
     1
 40
1.0
176
     1
 90
        1
176
     1
 90
        6
176
     1
 90
        2
176
     1
 62
     7
176
     1
 90
        5
176
     1
 90
        0
176
     1
 90
        0
176
     1
290
     0
176
     1
 90
       13
176
     1
 40
0.0
176
     1
 90
        0
176
     1
290
     0
176
     1
290
     1
176
     1
290
     1
176
     1
290
     0
176
     1
290
     0
176
     1
290
     0
176
     1
290
     0
176
     1
290
     0
176
     1
290
     0
176
     1
 90
       50
176
     1
 40
0.0
176
     1
 40
1.0
176
     1
 90
        0
176
     1
 62
    18
420
        0
176
     1
 90
       50
176
     1
 90
        3
176
     1
 62
     5
420
      255
176
     1
290
     0
176
     1
 90
       50
176
     1
 90
       50
176
     1
 90
       50
176
     1
290
     0
176
     1
 90
       50
176
     1
 62
   256
176
     0
 40
1.0
176
     0
 90
        2
176
     1
  1
strokes_ogs.tif
176
     1
290
     0
176
     1
 40
1.0
176
     1
 40
1.0
176
     1
  0
VISUALSTYLE
  5
2C
102
{ACAD_REACTORS
330
2A
102
}
330
2A
100
AcDbVisualStyle
  2
FlatWithEdges
 70
     1
177
     3
291
     1
 70
    58
 90
        2
176
     1
 90
        1
176
     1
 90
        1
176
     1
 90
        2
176
     1
 40
0.6
176
     1
 40
30.0
176
     1
 62
     7
420
 16777215
176
     1
 90
        1
176
     1
 90
        0
176
     1
 62
     7
176
     1
 62
   257
176
     1
 90
        1
176
     1
 90
        1
176
     1
 40
1.0
176
     1
 90
        0
176
     1
 62
   257
176
     1
 40
1.0
176
     1
 90
        1
176
     1
 90
        6
176
     1
 90
        2
176
     1
 62
     7
176
     1
 90
        5
176
     1
 90
        0
176
     1
 90
        0
176
     1
290
     0
176
     1
 90
       13
176
     1
 40
0.0
176
     1
 90
        0
176
     1
290
     0
176
     1
290
     1
176
     1
290
     1
176
     1
290
     0
176
     1
290
     0
176
     1
290
     0
176
     1
290
     0
176
     1
290
     0
176
     1
290
     0
176
     1
 90
       50
176
     1
 40
0.0
176
     1
 40
1.0
176
     1
 90
        0
176
     1
 62
    18
420
        0
176
     1
 90
       50
176
     1
 90
        3
176
     1
 62
     5
420
      255
176
     1
290
     0
176
     1
 90
       50
176
     1
 90
       50
176
     1
 90
       50
176
     1
290
     0
176
     1
 90
       50
176
     1
 62
   256
176
     0
 40
1.0
176
     0
 90
        2
176
     1
  1
strokes_ogs.tif
176
     1
290
     0
176
     1
 40
1.0
176
     1
 40
1.0
176
     1
  0
VISUALSTYLE
  5
2D
102
{ACAD_REACTORS
330
2A
102
}
330
2A
100
AcDbVisualStyle
  2
Gouraud
 70
     2
177
     3
291
     1
 70
    58
 90
        2
176
     1
 90
        2
176
     1
 90
        1
176
     1
 90
        2
176
     1
 40
0.6
176
     1
 40
30.0
176
     1
 62
     7
420
 16777215
176
     1
 90
        0
176
     1
 90
        0
176
     1
 62
     7
176
     1
 62
   257
176
     1
 90
        1
176
     1
 90
        1
176
     1
 40
1.0
176
     1
 90
        0
176
     1
 62
     7
176
     1
 40
1.0
176
     1
 90
        1
176
     1
 90
        6
176
     1
 90
        2
176
     1
 62
     7
176
     1
 90
        5
176
     1
 90
        0
176
     1
 90
        0
176
     1
290
     0
176
     1
 90
       13
176
     1
 40
0.0
176
     1
 90
        0
176
     1
290
     0
176
     1
290
     1
176
     1
290
     1
176
     1
290
     0
176
     1
290
     0
176
     1
290
     0
176
     1
290
     0
176
     1
290
     0
176
     1
290
     0
176
     1
 90
       50
176
     1
 40
0.0
176
     1
 40
1.0
176
     1
 90
        0
176
     1
 62
    18
420
        0
176
     1
 90
       50
176
     1
 90
        3
176
     1
 62
     5
420
      255
176
     1
290
     0
176
     1
 90
       50
176
     1
 90
       50
176
     1
 90
       50
176
     1
290
     0
176
     1
 90
       50
176
     1
 62
   256
176
     0
 40
1.0
176
     0
 90
        2
176
     1
  1
strokes_ogs.tif
176
     1
290
     0
176
     1
 40
1.0
176
     1
 40
1.0
176
     1
  0
VISUALSTYLE
  5
2E
102
{ACAD_REACTORS
330
2A
102
}
330
2A
100
AcDbVisualStyle
  2
GouraudWithEdges
 70
     3
177
     3
291
     1
 70
    58
 90
        2
176
     1
 90
        2
176
     1
 90
        1
176
     1
 90
        2
176
     1
 40
0.6
176
     1
 40
30.0
176
     1
 62
     7
420
 16777215
176
     1
 90
        1
176
     1
 90
        0
176
     1
 62
     7
176
     1
 62
   257
176
     1
 90
        1
176
     1
 90
        1
176
     1
 40
1.0
176
     1
 90
        0
176
     1
 62
   257
176
     1
 40
1.0
176
     1
 90
        1
176
     1
 90
        6
176
     1
 90
        2
176
     1
 62
     7
176
     1
 90
        5
176
     1
 90
        0
176
     1
 90
        0
176
     1
290
     0
176
     1
 90
       13
176
     1
 40
0.0
176
     1
 90
        0
176
     1
290
     0
176
     1
290
     1
176
     1
290
     1
176
     1
290
     0
176
     1
290
     0
176
     1
290
     0
176
     1
290
     0
176
     1
290
     0
176
     1
290
     0
176
     1
 90
       50
176
     1
 40
0.0
176
     1
 40
1.0
176
     1
 90
        0
176
     1
 62
    18
420
        0
176
     1
 90
       50
176
     1
 90
        3
176
     1
 62
     5
420
      255
176
     1
290
     0
176
     1
 90
       50
176
     1
 90
       50
176
     1
 90
       50
176
     1
290
     0
176
     1
 90
       50
176
     1
 62
   256
176
     0
 40
1.0
176
     0
 90
        2
176
     1
  1
strokes_ogs.tif
176
     1
290
     0
176
     1
 40
1.0
176
     1
 40
1.0
176
     1
  0
VISUALSTYLE
  5
31
102
{ACAD_REACTORS
330
2A
102
}
330
2A
100
AcDbVisualStyle
  2
Hidden
 70
     6
177
     3
291
     0
 70
    58
 90
        1
176
     1
 90
        2
176
     1
 90
        2
176
     1
 90
        0
176
     1
 40
0.6
176
     1
 40
30.0
176
     1
 62
     7
420
 16777215
176
     1
 90
        2
176
     1
 90
        2
176
     1
 62
     7
176
     1
 62
   257
176
     1
 90
        2
176
     1
 90
        1
176
     1
 40
40.0
176
     1
 90
        0
176
     1
 62
   257
176
     1
 40
1.0
176
     1
 90
        1
176
     1
 90
        6
176
     1
 90
        2
176
     1
 62
     7
176
     1
 90
        3
176
     1
 90
        0
176
     1
 90
        0
176
     1
290
     0
176
     1
 90
        1
176
     1
 40
0.0
176
     1
 90
        0
176
     1
290
     0
176
     1
290
     1
176
     1
290
     1
176
     1
290
     0
176
     1
290
     0
176
     1
290
     0
176
     1
290
     0
176
     1
290
     0
176
     1
290
     0
176
     1
 90
       50
176
     1
 40
0.0
176
     1
 40
1.0
176
     1
 90
        0
176
     1
 62
    18
420
        0
176
     1
 90
       50
176
     1
 90
        3
176
     1
 62
     5
420
      255
176
     1
290
     0
176
     1
 90
       50
176
     1
 90
       50
176
     1
 90
       50
176
     1
290
     0
176
     1
 90
       50
176
     1
 62
   256
176
     0
 40
1.0
176
     0
 90
        2
176
     1
  1
strokes_ogs.tif
176
     1
290
     0
176
     1
 40
1.0
176
     1
 40
1.0
176
     1
  0
VISUALSTYLE
  5
3B
102
{ACAD_REACTORS
330
2A
102
}
330
2A
100
AcDbVisualStyle
  2
JitterOff
 70
    20
177
     3
291
     1
 70
    58
 90
        2
176
     0
 90
        2
176
     0
 90
        0
176
     0
 90
        0
176
     0
 40
0.6
176
     0
 40
30.0
176
     0
 62
     7
420
 16777215
176
     0
 90
        1
176
     0
 90
        4
176
     0
 62
     7
176
     0
 62
   257
176
     0
 90
        1
176
     0
 90
        1
176
     0
 40
1.0
176
     0
 90
       10
176
     2
 62
     7
176
     0
 40
1.0
176
     0
 90
        1
176
     0
 90
        6
176
     0
 90
        2
176
     0
 62
     7
176
     0
 90
        5
176
     0
 90
        0
176
     0
 90
        0
176
     0
290
     0
176
     0
 90
        1
176
     0
 40
0.0
176
     0
 90
        0
176
     0
290
     0
176
     0
290
     1
176
     0
290
     1
176
     0
290
     0
176
     0
290
     0
176
     0
290
     0
176
     0
290
     0
176
     0
290
     0
176
     0
290
     0
176
     0
 90
       50
176
     0
 40
0.0
176
     0
 40
1.0
176
     0
 90
        0
176
     0
 62
    18
420
        0
176
     0
 90
       50
176
     0
 90
        3
176
     0
 62
     5
420
      255
176
     0
290
     0
176
     0
 90
       50
176
     0
 90
       50
176
     0
 90
       50
176
     0
290
     0
176
     0
 90
       50
176
     0
 62
   256
176
     0
 40
1.0
176
     0
 90
        2
176
     0
  1
strokes_ogs.tif
176
     0
290
     0
176
     0
 40
1.0
176
     0
 40
1.0
176
     0
  0
VISUALSTYLE
  5
38
102
{ACAD_REACTORS
330
2A
102
}
330
2A
100
AcDbVisualStyle
  2
Linepattern
 70
    14
177
     3
291
     1
 70
    58
 90
        2
176
     1
 90
        2
176
     1
 90
        0
176
     1
 90
        0
176
     1
 40
0.6
176
     1
 40
30.0
176
     1
 62
     7
420
 16777215
176
     1
 90
        1
176
     1
 90
        4
176
     1
 62
     7
176
     1
 62
   257
176
     1
 90
        7
176
     1
 90
        7
176
     1
 40
1.0
176
     1
 90
        8
176
     1
 62
     7
176
     1
 40
1.0
176
     1
 90
        1
176
     1
 90
        6
176
     1
 90
        2
176
     1
 62
     7
176
     1
 90
        5
176
     1
 90
        0
176
     1
 90
        0
176
     1
290
     0
176
     1
 90
        1
176
     1
 40
0.0
176
     1
 90
        0
176
     1
290
     0
176
     1
290
     1
176
     1
290
     1
176
     1
290
     0
176
     1
290
     0
176
     1
290
     0
176
     1
290
     0
176
     1
290
     0
176
     1
290
     0
176
     1
 90
       50
176
     1
 40
0.0
176
     1
 40
1.0
176
     1
 90
        0
176
     1
 62
    18
420
        0
176
     1
 90
       50
176
     1
 90
        3
176
     1
 62
     5
420
      255
176
     1
290
     0
176
     1
 90
       50
176
     1
 90
       50
176
     1
 90
       50
176
     1
290
     0
176
     1
 90
       50
176
     1
 62
   256
176
     0
 40
1.0
176
     0
 90
        2
176
     1
  1
strokes_ogs.tif
176
     1
290
     0
176
     1
 40
1.0
176
     1
 40
1.0
176
     1
  0
VISUALSTYLE
  5
3C
102
{ACAD_REACTORS
330
2A
102
}
330
2A
100
AcDbVisualStyle
  2
OverhangOff
 70
    21
177
     3
291
     1
 70
    58
 90
        2
176
     0
 90
        2
176
     0
 90
        0
176
     0
 90
        0
176
     0
 40
0.6
176
     0
 40
30.0
176
     0
 62
     7
420
 16777215
176
     0
 90
        1
176
     0
 90
        4
176
     0
 62
     7
176
     0
 62
   257
176
     0
 90
        1
176
     0
 90
        1
176
     0
 40
1.0
176
     0
 90
        9
176
     2
 62
     7
176
     0
 40
1.0
176
     0
 90
        1
176
     0
 90
        6
176
     0
 90
        2
176
     0
 62
     7
176
     0
 90
        5
176
     0
 90
        0
176
     0
 90
        0
176
     0
290
     0
176
     0
 90
        1
176
     0
 40
0.0
176
     0
 90
        0
176
     0
290
     0
176
     0
290
     1
176
     0
290
     1
176
     0
290
     0
176
     0
290
     0
176
     0
290
     0
176
     0
290
     0
176
     0
290
     0
176
     0
290
     0
176
     0
 90
       50
176
     0
 40
0.0
176
     0
 40
1.0
176
     0
 90
        0
176
     0
 62
    18
420
        0
176
     0
 90
       50
176
     0
 90
        3
176
     0
 62
     5
420
      255
176
     0
290
     0
176
     0
 90
       50
176
     0
 90
       50
176
     0
 90
       50
176
     0
290
     0
176
     0
 90
       50
176
     0
 62
   256
176
     0
 40
1.0
176
     0
 90
        2
176
     0
  1
strokes_ogs.tif
176
     0
290
     0
176
     0
 40
1.0
176
     0
 40
1.0
176
     0
  0
VISUALSTYLE
  5
33
102
{ACAD_REACTORS
330
2A
102
}
330
2A
100
AcDbVisualStyle
  2
Realistic
 70
     8
177
     3
291
     0
 70
    58
 90
        2
176
     1
 90
        3
176
     1
 90
        0
176
     1
 90
        2
176
     1
 40
0.6
176
     1
 40
30.0
176
     1
 62
     7
420
 16777215
176
     1
 90
        0
176
     1
 90
        0
176
     1
 62
     7
176
     1
 62
   257
176
     1
 90
        1
176
     1
 90
        1
176
     1
 40
1.0
176
     1
 90
        8
176
     1
 62
   257
176
     1
 40
1.0
176
     1
 90
        1
176
     1
 90
        6
176
     1
 90
        2
176
     1
 62
     7
176
     1
 90
        3
176
     1
 90
        0
176
     1
 90
        0
176
     1
290
     0
176
     1
 90
       13
176
     1
 40
0.0
176
     1
 90
        0
176
     1
290
     0
176
     1
290
     1
176
     1
290
     1
176
     1
290
     0
176
     1
290
     0
176
     1
290
     0
176
     1
290
     0
176
     1
290
     0
176
     1
290
     0
176
     1
 90
       50
176
     1
 40
0.0
176
     1
 40
1.0
176
     1
 90
        0
176
     1
 62
    18
420
        0
176
     1
 90
       50
176
     1
 90
        3
176
     1
 62
     5
420
      255
176
     1
290
     0
176
     1
 90
       50
176
     1
 90
       50
176
     1
 90
       50
176
     1
290
     0
176
     1
 90
       50
176
     1
 62
   256
176
     0
 40
1.0
176
     0
 90
        2
176
     1
  1
strokes_ogs.tif
176
     1
290
     0
176
     1
 40
1.0
176
     1
 40
1.0
176
     1
  0
VISUALSTYLE
  5
42
102
{ACAD_REACTORS
330
2A
102
}
330
2A
100
AcDbVisualStyle
  2
Shaded
 70
    27
177
     3
291
     0
 70
    58
 90
        2
176
     1
 90
        2
176
     1
 90
        1
176
     1
 90
        2
176
     1
 40
0.6
176
     1
 40
30.0
176
     1
 62
     7
420
 16777215
176
     1
 90
        0
176
     1
 90
        4
176
     1
 62
     7
176
     1
 62
   257
176
     1
 90
        1
176
     1
 90
        1
176
     1
 40
1.0
176
     1
 90
        8
176
     1
 62
   257
176
     1
 40
1.0
176
     1
 90
        1
176
     1
 90
        6
176
     1
 90
        2
176
     1
 62
     8
420
  7895160
176
     1
 90
        3
176
     1
 90
        0
176
     1
 90
        0
176
     1
290
     0
176
     1
 90
        5
176
     1
 40
0.0
176
     1
 90
        0
176
     1
290
     0
176
     1
290
     1
176
     1
290
     1
176
     1
290
     0
176
     1
290
     0
176
     1
290
     0
176
     1
290
     0
176
     1
290
     0
176
     1
290
     0
176
     1
 90
       50
176
     1
 40
0.0
176
     1
 40
1.0
176
     1
 90
        0
176
     1
 62
    18
420
        0
176
     1
 90
       50
176
     1
 90
        3
176
     1
 62
     5
420
      255
176
     1
290
     0
176
     1
 90
       50
176
     1
 90
       50
176
     1
 90
       50
176
     1
290
     0
176
     1
 90
       50
176
     1
 62
   256
176
     0
 40
1.0
176
     0
 90
        2
176
     1
  1
strokes_ogs.tif
176
     1
290
     0
176
     1
 40
1.0
176
     1
 40
1.0
176
     1
  0
VISUALSTYLE
  5
41
102
{ACAD_REACTORS
330
2A
102
}
330
2A
100
AcDbVisualStyle
  2
Shaded with edges
 70
    26
177
     3
291
     0
 70
    58
 90
        2
176
     1
 90
        2
176
     1
 90
        1
176
     1
 90
        2
176
     1
 40
0.6
176
     1
 40
30.0
176
     1
 62
     7
420
 16777215
176
     1
 90
        1
176
     1
 90
       10
176
     1
 62
     7
176
     1
 62
   257
176
     1
 90
        2
176
     1
 90
        1
176
     1
 40
1.0
176
     1
 90
        8
176
     1
 62
   257
176
     1
 40
1.0
176
     1
 90
        1
176
     1
 90
        6
176
     1
 90
        2
176
     1
 62
     7
176
     1
 90
        3
176
     1
 90
        0
176
     1
 90
        0
176
     1
290
     0
176
     1
 90
        5
176
     1
 40
0.0
176
     1
 90
        0
176
     1
290
     0
176
     1
290
     1
176
     1
290
     1
176
     1
290
     0
176
     1
290
     0
176
     1
290
     0
176
     1
290
     0
176
     1
290
     0
176
     1
290
     0
176
     1
 90
       50
176
     1
 40
0.0
176
     1
 40
1.0
176
     1
 90
        0
176
     1
 62
    18
420
        0
176
     1
 90
       50
176
     1
 90
        3
176
     1
 62
     5
420
      255
176
     1
290
     0
176
     1
 90
       50
176
     1
 90
       50
176
     1
 90
       50
176
     1
290
     0
176
     1
 90
       50
176
     1
 62
   256
176
     0
 40
1.0
176
     0
 90
        2
176
     1
  1
strokes_ogs.tif
176
     1
290
     0
176
     1
 40
1.0
176
     1
 40
1.0
176
     1
  0
VISUALSTYLE
  5
3E
102
{ACAD_REACTORS
330
2A
102
}
330
2A
100
AcDbVisualStyle
  2
Shades of Gray
 70
    23
177
     3
291
     0
 70
    58
 90
        2
176
     1
 90
        2
176
     1
 90
        3
176
     1
 90
        0
176
     1
 40
0.6
176
     1
 40
30.0
176
     1
 62
     7
420
 16777215
176
     1
 90
        2
176
     1
 90
        2
176
     1
 62
     7
176
     1
 62
     7
176
     1
 90
        1
176
     1
 90
        1
176
     1
 40
40.0
176
     1
 90
        8
176
     1
 62
     7
176
     1
 40
1.0
176
     1
 90
        1
176
     1
 90
        6
176
     1
 90
        2
176
     1
 62
     7
176
     1
 90
        3
176
     1
 90
        0
176
     1
 90
        0
176
     1
290
     0
176
     1
 90
        1
176
     1
 40
0.0
176
     1
 90
        0
176
     1
290
     0
176
     1
290
     1
176
     1
290
     1
176
     1
290
     0
176
     1
290
     0
176
     1
290
     0
176
     1
290
     0
176
     1
290
     0
176
     1
290
     0
176
     1
 90
       50
176
     1
 40
0.0
176
     1
 40
1.0
176
     1
 90
        0
176
     1
 62
    18
420
        0
176
     1
 90
       50
176
     1
 90
        3
176
     1
 62
     5
420
      255
176
     1
290
     0
176
     1
 90
       50
176
     1
 90
       50
176
     1
 90
       50
176
     1
290
     0
176
     1
 90
       50
176
     1
 62
   256
176
     0
 40
1.0
176
     0
 90
        2
176
     1
  1
strokes_ogs.tif
176
     1
290
     0
176
     1
 40
1.0
176
     1
 40
1.0
176
     1
  0
VISUALSTYLE
  5
3F
102
{ACAD_REACTORS
330
2A
102
}
330
2A
100
AcDbVisualStyle
  2
Sketchy
 70
    24
177
     3
291
     0
 70
    58
 90
        1
176
     1
 90
        2
176
     1
 90
        2
176
     1
 90
        0
176
     1
 40
0.6
176
     1
 40
30.0
176
     1
 62
     7
420
 16777215
176
     1
 90
        2
176
     1
 90
        2
176
     1
 62
     7
176
     1
 62
     7
176
     1
 90
        1
176
     1
 90
        1
176
     1
 40
40.0
176
     1
 90
       11
176
     1
 62
     7
176
     1
 40
1.0
176
     1
 90
        1
176
     1
 90
        6
176
     1
 90
        2
176
     1
 62
     7
176
     1
 90
        6
176
     1
 90
        0
176
     1
 90
        0
176
     1
290
     0
176
     1
 90
        1
176
     1
 40
0.0
176
     1
 90
        0
176
     1
290
     0
176
     1
290
     1
176
     1
290
     1
176
     1
290
     0
176
     1
290
     0
176
     1
290
     0
176
     1
290
     0
176
     1
290
     0
176
     1
290
     0
176
     1
 90
       50
176
     1
 40
0.0
176
     1
 40
1.0
176
     1
 90
        0
176
     1
 62
    18
420
        0
176
     1
 90
       50
176
     1
 90
        3
176
     1
 62
     5
420
      255
176
     1
290
     0
176
     1
 90
       50
176
     1
 90
       50
176
     1
 90
       50
176
     1
290
     0
176
     1
 90
       50
176
     1
 62
   256
176
     0
 40
1.0
176
     0
 90
        2
176
     1
  1
strokes_ogs.tif
176
     1
290
     0
176
     1
 40
1.0
176
     1
 40
1.0
176
     1
  0
VISUALSTYLE
  5
37
102
{ACAD_REACTORS
330
2A
102
}
330
2A
100
AcDbVisualStyle
  2
Thicken
 70
    13
177
     3
291
     1
 70
    58
 90
        2
176
     1
 90
        2
176
     1
 90
        0
176
     1
 90
        0
176
     1
 40
0.6
176
     1
 40
30.0
176
     1
 62
     7
420
 16777215
176
     1
 90
        1
176
     1
 90
        4
176
     1
 62
     7
176
     1
 62
   257
176
     1
 90
        1
176
     1
 90
        1
176
     1
 40
1.0
176
     1
 90
       12
176
     1
 62
     7
176
     1
 40
1.0
176
     1
 90
        1
176
     1
 90
        6
176
     1
 90
        2
176
     1
 62
     7
176
     1
 90
        5
176
     1
 90
        0
176
     1
 90
        0
176
     1
290
     0
176
     1
 90
        1
176
     1
 40
0.0
176
     1
 90
        0
176
     1
290
     0
176
     1
290
     1
176
     1
290
     1
176
     1
290
     0
176
     1
290
     0
176
     1
290
     0
176
     1
290
     0
176
     1
290
     0
176
     1
290
     0
176
     1
 90
       50
176
     1
 40
0.0
176
     1
 40
1.0
176
     1
 90
        0
176
     1
 62
    18
420
        0
176
     1
 90
       50
176
     1
 90
        3
176
     1
 62
     5
420
      255
176
     1
290
     0
176
     1
 90
       50
176
     1
 90
       50
176
     1
 90
       50
176
     1
290
     0
176
     1
 90
       50
176
     1
 62
   256
176
     0
 40
1.0
176
     0
 90
        2
176
     1
  1
strokes_ogs.tif
176
     1
290
     0
176
     1
 40
1.0
176
     1
 40
1.0
176
     1
  0
VISUALSTYLE
  5
30
102
{ACAD_REACTORS
330
2A
102
}
330
2A
100
AcDbVisualStyle
  2
Wireframe
 70
     5
177
     3
291
     0
 70
    58
 90
        0
176
     1
 90
        2
176
     1
 90
        0
176
     1
 90
        0
176
     1
 40
0.6
176
     1
 40
30.0
176
     1
 62
     7
420
 16777215
176
     1
 90
        1
176
     1
 90
        4
176
     1
 62
     7
176
     1
 62
   257
176
     1
 90
        1
176
     1
 90
        1
176
     1
 40
1.0
176
     1
 90
        0
176
     1
 62
   257
176
     1
 40
1.0
176
     1
 90
        1
176
     1
 90
        6
176
     1
 90
        2
176
     1
 62
     7
176
     1
 90
        3
176
     1
 90
        0
176
     1
 90
        0
176
     1
290
     0
176
     1
 90
        1
176
     1
 40
0.0
176
     1
 90
        0
176
     1
290
     0
176
     1
290
     1
176
     1
290
     1
176
     1
290
     0
176
     1
290
     0
176
     1
290
     0
176
     1
290
     0
176
     1
290
     0
176
     1
290
     0
176
     1
 90
       50
176
     1
 40
0.0
176
     1
 40
1.0
176
     1
 90
        0
176
     1
 62
    18
420
        0
176
     1
 90
       50
176
     1
 90
        3
176
     1
 62
     5
420
      255
176
     1
290
     0
176
     1
 90
       50
176
     1
 90
       50
176
     1
 90
       50
176
     1
290
     0
176
     1
 90
       50
176
     1
 62
   256
176
     0
 40
1.0
176
     0
 90
        2
176
     1
  1
strokes_ogs.tif
176
     1
290
     0
176
     1
 40
1.0
176
     1
 40
1.0
176
     1
  0
VISUALSTYLE
  5
40
102
{ACAD_REACTORS
330
2A
102
}
330
2A
100
AcDbVisualStyle
  2
X-Ray
 70
    25
177
     3
291
     0
 70
    58
 90
        2
176
     1
 90
        2
176
     1
 90
        1
176
     1
 90
        1
176
     1
 40
0.5
176
     1
 40
30.0
176
     1
 62
     7
420
 16777215
176
     1
 90
        1
176
     1
 90
        0
176
     1
 62
     7
176
     1
 62
   257
176
     1
 90
        1
176
     1
 90
        1
176
     1
 40
1.0
176
     1
 90
        8
176
     1
 62
     7
176
     1
 40
1.0
176
     1
 90
        1
176
     1
 90
        6
176
     1
 90
        2
176
     1
 62
     7
176
     1
 90
        3
176
     1
 90
        0
176
     1
 90
        0
176
     1
290
     0
176
     1
 90
       13
176
     1
 40
0.0
176
     1
 90
        0
176
     1
290
     0
176
     1
290
     1
176
     1
290
     1
176
     1
290
     0
176
     1
290
     0
176
     1
290
     0
176
     1
290
     0
176
     1
290
     0
176
     1
290
     0
176
     1
 90
       50
176
     1
 40
0.0
176
     1
 40
1.0
176
     1
 90
        0
176
     1
 62
    18
420
        0
176
     1
 90
       50
176
     1
 90
        3
176
     1
 62
     5
420
      255
176
     1
290
     0
176
     1
 90
       50
176
     1
 90
       50
176
     1
 90
       50
176
     1
290
     0
176
     1
 90
       50
176
     1
 62
   256
176
     0
 40
1.0
176
     0
 90
        2
176
     1
  1
strokes_ogs.tif
176
     1
290
     0
176
     1
 40
1.0
176
     1
 40
1.0
176
     1
  0
DICTIONARYVAR
  5
2CE
102
{ACAD_REACTORS
330
2CD
102
}
330
2CD
100
DictionaryVariables
280
     0
  1
1:1
  0
DICTIONARYVAR
  5
2D6
102
{ACAD_REACTORS
330
2CD
102
}
330
2CD
100
DictionaryVariables
280
     0
  1
3.500000
  0
DICTIONARYVAR
  5
2D7
102
{ACAD_REACTORS
330
2CD
102
}
330
2CD
100
DictionaryVariables
280
     0
  1
acadiso.lin
  0
DICTIONARYVAR
  5
2D3
102
{ACAD_REACTORS
330
2CD
102
}
330
2CD
100
DictionaryVariables
280
     0
  1
Standard
  0
DICTIONARYVAR
  5
2D2
102
{ACAD_REACTORS
330
2CD
102
}
330
2CD
100
DictionaryVariables
280
     0
  1
Standard
  0
DICTIONARY
  5
2CF
330
6A
100
AcDbDictionary
280
     1
281
     1
  3
ACAD_ROUNDTRIP_2008_TABLESTYLE_CELLSTYLEMAP
360
2D0
  0
CELLSTYLEMAP
  5
2D0
102
{ACAD_REACTORS
330
2CF
102
}
330
2CF
100
AcDbCellStyleMap
 90
        3
300
CELLSTYLE
  1
TABLEFORMAT_BEGIN
 90
        5
170
     1
 91
        0
 92
    32768
 62
   257
 93
        1
300
CONTENTFORMAT
  1
CONTENTFORMAT_BEGIN
 90
        0
 91
        0
 92
        4
 93
        0
300

 40
0.0
140
1.0
 94
        5
 62
     0
340
11
144
6.0
309
CONTENTFORMAT_END
171
     1
301
MARGIN
  1
CELLMARGIN_BEGIN
 40
1.5
 40
1.5
 40
1.5
 40
1.5
 40
1.5
 40
1.5
309
CELLMARGIN_END
 94
        6
 95
        1
302
GRIDFORMAT
  1
GRIDFORMAT_BEGIN
 90
        0
 91
        1
 62
     0
 92
       -2
340
14
 93
        0
 40
0.045
309
GRIDFORMAT_END
 95
        2
302
GRIDFORMAT
  1
GRIDFORMAT_BEGIN
 90
        0
 91
        1
 62
     0
 92
       -2
340
14
 93
        0
 40
0.045
309
GRIDFORMAT_END
 95
        4
302
GRIDFORMAT
  1
GRIDFORMAT_BEGIN
 90
        0
 91
        1
 62
     0
 92
       -2
340
14
 93
        0
 40
0.045
309
GRIDFORMAT_END
 95
        8
302
GRIDFORMAT
  1
GRIDFORMAT_BEGIN
 90
        0
 91
        1
 62
     0
 92
       -2
340
14
 93
        0
 40
0.045
309
GRIDFORMAT_END
 95
       16
302
GRIDFORMAT
  1
GRIDFORMAT_BEGIN
 90
        0
 91
        1
 62
     0
 92
       -2
340
14
 93
        0
 40
0.045
309
GRIDFORMAT_END
 95
       32
302
GRIDFORMAT
  1
GRIDFORMAT_BEGIN
 90
        0
 91
        1
 62
     0
 92
       -2
340
14
 93
        0
 40
0.045
309
GRIDFORMAT_END
309
TABLEFORMAT_END
  1
CELLSTYLE_BEGIN
 90
        1
 91
        1
300
_TITLE
309
CELLSTYLE_END
300
CELLSTYLE
  1
TABLEFORMAT_BEGIN
 90
        5
170
     1
 91
        0
 92
        0
 62
   257
 93
        1
300
CONTENTFORMAT
  1
CONTENTFORMAT_BEGIN
 90
        0
 91
        0
 92
        4
 93
        0
300

 40
0.0
140
1.0
 94
        5
 62
     0
340
11
144
4.5
309
CONTENTFORMAT_END
171
     1
301
MARGIN
  1
CELLMARGIN_BEGIN
 40
1.5
 40
1.5
 40
1.5
 40
1.5
 40
1.5
 40
1.5
309
CELLMARGIN_END
 94
        6
 95
        1
302
GRIDFORMAT
  1
GRIDFORMAT_BEGIN
 90
        0
 91
        1
 62
     0
 92
       -2
340
14
 93
        0
 40
0.045
309
GRIDFORMAT_END
 95
        2
302
GRIDFORMAT
  1
GRIDFORMAT_BEGIN
 90
        0
 91
        1
 62
     0
 92
       -2
340
14
 93
        0
 40
0.045
309
GRIDFORMAT_END
 95
        4
302
GRIDFORMAT
  1
GRIDFORMAT_BEGIN
 90
        0
 91
        1
 62
     0
 92
       -2
340
14
 93
        0
 40
0.045
309
GRIDFORMAT_END
 95
        8
302
GRIDFORMAT
  1
GRIDFORMAT_BEGIN
 90
        0
 91
        1
 62
     0
 92
       -2
340
14
 93
        0
 40
0.045
309
GRIDFORMAT_END
 95
       16
302
GRIDFORMAT
  1
GRIDFORMAT_BEGIN
 90
        0
 91
        1
 62
     0
 92
       -2
340
14
 93
        0
 40
0.045
309
GRIDFORMAT_END
 95
       32
302
GRIDFORMAT
  1
GRIDFORMAT_BEGIN
 90
        0
 91
        1
 62
     0
 92
       -2
340
14
 93
        0
 40
0.045
309
GRIDFORMAT_END
309
TABLEFORMAT_END
  1
CELLSTYLE_BEGIN
 90
        2
 91
        1
300
_HEADER
309
CELLSTYLE_END
300
CELLSTYLE
  1
TABLEFORMAT_BEGIN
 90
        5
170
     1
 91
        0
 92
        0
 62
   257
 93
        1
300
CONTENTFORMAT
  1
CONTENTFORMAT_BEGIN
 90
        0
 91
        0
 92
        4
 93
        0
300

 40
0.0
140
1.0
 94
        2
 62
     0
340
11
144
4.5
309
CONTENTFORMAT_END
171
     1
301
MARGIN
  1
CELLMARGIN_BEGIN
 40
1.5
 40
1.5
 40
1.5
 40
1.5
 40
1.5
 40
1.5
309
CELLMARGIN_END
 94
        6
 95
        1
302
GRIDFORMAT
  1
GRIDFORMAT_BEGIN
 90
        0
 91
        1
 62
     0
 92
       -2
340
14
 93
        0
 40
0.045
309
GRIDFORMAT_END
 95
        2
302
GRIDFORMAT
  1
GRIDFORMAT_BEGIN
 90
        0
 91
        1
 62
     0
 92
       -2
340
14
 93
        0
 40
0.045
309
GRIDFORMAT_END
 95
        4
302
GRIDFORMAT
  1
GRIDFORMAT_BEGIN
 90
        0
 91
        1
 62
     0
 92
       -2
340
14
 93
        0
 40
0.045
309
GRIDFORMAT_END
 95
        8
302
GRIDFORMAT
  1
GRIDFORMAT_BEGIN
 90
        0
 91
        1
 62
     0
 92
       -2
340
14
 93
        0
 40
0.045
309
GRIDFORMAT_END
 95
       16
302
GRIDFORMAT
  1
GRIDFORMAT_BEGIN
 90
        0
 91
        1
 62
     0
 92
       -2
340
14
 93
        0
 40
0.045
309
GRIDFORMAT_END
 95
       32
302
GRIDFORMAT
  1
GRIDFORMAT_BEGIN
 90
        0
 91
        1
 62
     0
 92
       -2
340
14
 93
        0
 40
0.045
309
GRIDFORMAT_END
309
TABLEFORMAT_END
  1
CELLSTYLE_BEGIN
 90
        3
 91
        2
300
_DATA
309
CELLSTYLE_END
  0
ENDSEC
  0
EOF
