  0
SECTION
  2
HEADER
  9
$ACADVER
  1
AC1032
  9
$ACADMAINTVER
 90
        4
  9
$DWGCODEPAGE
  3
ANSI_932
  9
$LASTSAVEDBY
  1
mizuki.kobayashi
  9
$REQUIREDVERSIONS
160
                 0
  9
$INSBASE
 10
0.0
 20
0.0
 30
0.0
  9
$EXTMIN
 10
-2100.0
 20
-1485.0
 30
0.0
  9
$EXTMAX
 10
2100.0
 20
1485.0
 30
0.0
  9
$LIMMIN
 10
-2100.0
 20
-1485.0
  9
$LIMMAX
 10
2100.0
 20
1485.0
  9
$ORTHOMODE
 70
     0
  9
$REGENMODE
 70
     1
  9
$FILLMODE
 70
     1
  9
$QTEXTMODE
 70
     0
  9
$MIRRTEXT
 70
     1
  9
$LTSCALE
 40
10.0
  9
$ATTMODE
 70
     1
  9
$TEXTSIZE
 40
2.5
  9
$TRACEWID
 40
1.0
  9
$TEXTSTYLE
  7
Standard
  9
$CLAYER
  8
0
  9
$CELTYPE
  6
ByLayer
  9
$CECOLOR
 62
   256
  9
$CELTSCALE
 40
1.0
  9
$DISPSILH
 70
     0
  9
$DIMSCALE
 40
1.0
  9
$DIMASZ
 40
2.5
  9
$DIMEXO
 40
0.625
  9
$DIMDLI
 40
3.75
  9
$DIMRND
 40
0.0
  9
$DIMDLE
 40
0.0
  9
$DIMEXE
 40
1.25
  9
$DIMTP
 40
0.0
  9
$DIMTM
 40
0.0
  9
$DIMTXT
 40
2.5
  9
$DIMCEN
 40
2.5
  9
$DIMTSZ
 40
0.0
  9
$DIMTOL
 70
     0
  9
$DIMLIM
 70
     0
  9
$DIMTIH
 70
     0
  9
$DIMTOH
 70
     0
  9
$DIMSE1
 70
     0
  9
$DIMSE2
 70
     0
  9
$DIMTAD
 70
     1
  9
$DIMZIN
 70
     8
  9
$DIMBLK
  1

  9
$DIMASO
 70
     1
  9
$DIMSHO
 70
     1
  9
$DIMPOST
  1

  9
$DIMAPOST
  1

  9
$DIMALT
 70
     0
  9
$DIMALTD
 70
     3
  9
$DIMALTF
 40
0.03937007874016
  9
$DIMLFAC
 40
1.0
  9
$DIMTOFL
 70
     1
  9
$DIMTVP
 40
0.0
  9
$DIMTIX
 70
     0
  9
$DIMSOXD
 70
     0
  9
$DIMSAH
 70
     0
  9
$DIMBLK1
  1

  9
$DIMBLK2
  1

  9
$DIMSTYLE
  2
ISO-25
  9
$DIMCLRD
 70
     0
  9
$DIMCLRE
 70
     0
  9
$DIMCLRT
 70
     0
  9
$DIMTFAC
 40
1.0
  9
$DIMGAP
 40
0.625
  9
$DIMJUST
 70
     0
  9
$DIMSD1
 70
     0
  9
$DIMSD2
 70
     0
  9
$DIMTOLJ
 70
     0
  9
$DIMTZIN
 70
     8
  9
$DIMALTZ
 70
     0
  9
$DIMALTTZ
 70
     0
  9
$DIMUPT
 70
     0
  9
$DIMDEC
 70
     2
  9
$DIMTDEC
 70
     2
  9
$DIMALTU
 70
     2
  9
$DIMALTTD
 70
     3
  9
$DIMTXSTY
  7
Standard
  9
$DIMAUNIT
 70
     0
  9
$DIMADEC
 70
     0
  9
$DIMALTRND
 40
0.0
  9
$DIMAZIN
 70
     0
  9
$DIMDSEP
 70
    44
  9
$DIMATFIT
 70
     3
  9
$DIMFRAC
 70
     0
  9
$DIMLDRBLK
  1

  9
$DIMLUNIT
 70
     2
  9
$DIMLWD
 70
    -2
  9
$DIMLWE
 70
    -2
  9
$DIMTMOVE
 70
     0
  9
$DIMFXL
 40
1.0
  9
$DIMFXLON
 70
     0
  9
$DIMJOGANG
 40
0.7853981633974483
  9
$DIMTFILL
 70
     0
  9
$DIMTFILLCLR
 70
     0
  9
$DIMARCSYM
 70
     0
  9
$DIMLTYPE
  6

  9
$DIMLTEX1
  6

  9
$DIMLTEX2
  6

  9
$DIMTXTDIRECTION
 70
     0
  9
$LUNITS
 70
     2
  9
$LUPREC
 70
     4
  9
$SKETCHINC
 40
1.0
  9
$FILLETRAD
 40
10.0
  9
$AUNITS
 70
     0
  9
$AUPREC
 70
     0
  9
$MENU
  1
.
  9
$ELEVATION
 40
0.0
  9
$PELEVATION
 40
0.0
  9
$THICKNESS
 40
0.0
  9
$LIMCHECK
 70
     0
  9
$CHAMFERA
 40
0.0
  9
$CHAMFERB
 40
0.0
  9
$CHAMFERC
 40
0.0
  9
$CHAMFERD
 40
0.0
  9
$SKPOLY
 70
     0
  9
$TDCREATE
 40
2459192.417859213
  9
$TDUCREATE
 40
2459192.042859213
  9
$TDUPDATE
 40
2459192.417859398
  9
$TDUUPDATE
 40
2459192.042859398
  9
$TDINDWG
 40
0.0000000116
  9
$TDUSRTIMER
 40
0.0000000116
  9
$USRTIMER
 70
     1
  9
$ANGBASE
 50
0.0
  9
$ANGDIR
 70
     0
  9
$PDMODE
 70
     0
  9
$PDSIZE
 40
0.0
  9
$PLINEWID
 40
0.0
  9
$SPLFRAME
 70
     0
  9
$SPLINETYPE
 70
     6
  9
$SPLINESEGS
 70
     8
  9
$HANDSEED
  5
30B
  9
$SURFTAB1
 70
     6
  9
$SURFTAB2
 70
     6
  9
$SURFTYPE
 70
     6
  9
$SURFU
 70
     6
  9
$SURFV
 70
     6
  9
$UCSBASE
  2

  9
$UCSNAME
  2

  9
$UCSORG
 10
0.0
 20
0.0
 30
0.0
  9
$UCSXDIR
 10
1.0
 20
0.0
 30
0.0
  9
$UCSYDIR
 10
0.0
 20
1.0
 30
0.0
  9
$UCSORTHOREF
  2

  9
$UCSORTHOVIEW
 70
     0
  9
$UCSORGTOP
 10
0.0
 20
0.0
 30
0.0
  9
$UCSORGBOTTOM
 10
0.0
 20
0.0
 30
0.0
  9
$UCSORGLEFT
 10
0.0
 20
0.0
 30
0.0
  9
$UCSORGRIGHT
 10
0.0
 20
0.0
 30
0.0
  9
$UCSORGFRONT
 10
0.0
 20
0.0
 30
0.0
  9
$UCSORGBACK
 10
0.0
 20
0.0
 30
0.0
  9
$PUCSBASE
  2

  9
$PUCSNAME
  2

  9
$PUCSORG
 10
0.0
 20
0.0
 30
0.0
  9
$PUCSXDIR
 10
1.0
 20
0.0
 30
0.0
  9
$PUCSYDIR
 10
0.0
 20
1.0
 30
0.0
  9
$PUCSORTHOREF
  2

  9
$PUCSORTHOVIEW
 70
     0
  9
$PUCSORGTOP
 10
0.0
 20
0.0
 30
0.0
  9
$PUCSORGBOTTOM
 10
0.0
 20
0.0
 30
0.0
  9
$PUCSORGLEFT
 10
0.0
 20
0.0
 30
0.0
  9
$PUCSORGRIGHT
 10
0.0
 20
0.0
 30
0.0
  9
$PUCSORGFRONT
 10
0.0
 20
0.0
 30
0.0
  9
$PUCSORGBACK
 10
0.0
 20
0.0
 30
0.0
  9
$USERI1
 70
     0
  9
$USERI2
 70
     0
  9
$USERI3
 70
     0
  9
$USERI4
 70
     0
  9
$USERI5
 70
     0
  9
$USERR1
 40
0.0
  9
$USERR2
 40
0.0
  9
$USERR3
 40
0.0
  9
$USERR4
 40
0.0
  9
$USERR5
 40
0.0
  9
$WORLDVIEW
 70
     1
  9
$SHADEDGE
 70
     3
  9
$SHADEDIF
 70
    70
  9
$TILEMODE
 70
     1
  9
$MAXACTVP
 70
    64
  9
$PINSBASE
 10
0.0
 20
0.0
 30
0.0
  9
$PLIMCHECK
 70
     0
  9
$PEXTMIN
 10
1.000000000000000E+20
 20
1.000000000000000E+20
 30
1.000000000000000E+20
  9
$PEXTMAX
 10
-1.000000000000000E+20
 20
-1.000000000000000E+20
 30
-1.000000000000000E+20
  9
$PLIMMIN
 10
0.0
 20
0.0
  9
$PLIMMAX
 10
420.0
 20
297.0
  9
$UNITMODE
 70
     0
  9
$VISRETAIN
 70
     1
  9
$PLINEGEN
 70
     0
  9
$PSLTSCALE
 70
     1
  9
$TREEDEPTH
 70
  3020
  9
$CMLSTYLE
  2
Standard
  9
$CMLJUST
 70
     0
  9
$CMLSCALE
 40
20.0
  9
$PROXYGRAPHICS
 70
     1
  9
$MEASUREMENT
 70
     1
  9
$CELWEIGHT
370
    -1
  9
$ENDCAPS
280
     0
  9
$JOINSTYLE
280
     0
  9
$LWDISPLAY
290
     0
  9
$INSUNITS
 70
     4
  9
$HYPERLINKBASE
  1

  9
$STYLESHEET
  1

  9
$XEDIT
290
     1
  9
$CEPSNTYPE
380
     0
  9
$PSTYLEMODE
290
     1
  9
$FINGERPRINTGUID
  2
{9ac36608-94ae-4085-a24f-c45e5874d9f5}
  9
$VERSIONGUID
  2
{FAEB1C32-E019-11D5-929B-00C0DF256EC4}
  9
$EXTNAMES
290
     1
  9
$PSVPSCALE
 40
0.0
  9
$OLESTARTUP
290
     0
  9
$SORTENTS
280
   127
  9
$INDEXCTL
280
     0
  9
$HIDETEXT
280
     1
  9
$XCLIPFRAME
280
     2
  9
$HALOGAP
280
     0
  9
$OBSCOLOR
 70
   257
  9
$OBSLTYPE
280
     0
  9
$INTERSECTIONDISPLAY
280
     0
  9
$INTERSECTIONCOLOR
 70
   257
  9
$DIMASSOC
280
     2
  9
$PROJECTNAME
  1

  9
$CAMERADISPLAY
290
     0
  9
$LENSLENGTH
 40
50.0
  9
$CAMERAHEIGHT
 40
0.0
  9
$STEPSPERSEC
 40
2.0
  9
$STEPSIZE
 40
6.0
  9
$3DDWFPREC
 40
2.0
  9
$PSOLWIDTH
 40
5.0
  9
$PSOLHEIGHT
 40
80.0
  9
$LOFTANG1
 40
1.570796326794897
  9
$LOFTANG2
 40
1.570796326794897
  9
$LOFTMAG1
 40
0.0
  9
$LOFTMAG2
 40
0.0
  9
$LOFTPARAM
 70
     7
  9
$LOFTNORMALS
280
     1
  9
$LATITUDE
 40
37.795
  9
$LONGITUDE
 40
-122.394
  9
$NORTHDIRECTION
 40
0.0
  9
$TIMEZONE
 70
 -8000
  9
$LIGHTGLYPHDISPLAY
280
     1
  9
$TILEMODELIGHTSYNCH
280
     1
  9
$CMATERIAL
347
44
  9
$SOLIDHIST
280
     0
  9
$SHOWHIST
280
     1
  9
$DWFFRAME
280
     2
  9
$DGNFRAME
280
     2
  9
$REALWORLDSCALE
290
     1
  9
$INTERFERECOLOR
 62
   256
  9
$CSHADOW
280
     0
  9
$SHADOWPLANELOCATION
 40
0.0
  0
ENDSEC
  0
SECTION
  2
CLASSES
  0
CLASS
  1
ACDBDICTIONARYWDFLT
  2
AcDbDictionaryWithDefault
  3
ObjectDBX Classes
 90
        0
 91
        3
280
     0
281
     0
  0
CLASS
  1
VISUALSTYLE
  2
AcDbVisualStyle
  3
ObjectDBX Classes
 90
     4095
 91
        3
280
     0
281
     0
  0
CLASS
  1
MATERIAL
  2
AcDbMaterial
  3
ObjectDBX Classes
 90
     1153
 91
        3
280
     0
281
     0
  0
CLASS
  1
SCALE
  2
AcDbScale
  3
ObjectDBX Classes
 90
     1153
 91
        3
280
     0
281
     0
  0
CLASS
  1
TABLESTYLE
  2
AcDbTableStyle
  3
ObjectDBX Classes
 90
     4095
 91
        3
280
     0
281
     0
  0
CLASS
  1
MLEADERSTYLE
  2
AcDbMLeaderStyle
  3
ACDB_MLEADERSTYLE_CLASS
 90
     4095
 91
        3
280
     0
281
     0
  0
CLASS
  1
SUN
  2
AcDbSun
  3
SCENEOE
 90
     1153
 91
        3
280
     0
281
     0
  0
CLASS
  1
DICTIONARYVAR
  2
AcDbDictionaryVar
  3
ObjectDBX Classes
 90
        0
 91
        3
280
     0
281
     0
  0
CLASS
  1
CELLSTYLEMAP
  2
AcDbCellStyleMap
  3
ObjectDBX Classes
 90
     1152
 91
        3
280
     0
281
     0
  0
ENDSEC
  0
SECTION
  2
TABLES
  0
TABLE
  2
VPORT
  5
8
330
0
100
AcDbSymbolTable
 70
     1
  0
VPORT
  5
29
330
8
100
AcDbSymbolTableRecord
100
AcDbViewportTableRecord
  2
*Active
 70
     0
 10
0.0
 20
0.0
 11
1.0
 21
1.0
 12
0.0
 22
0.0
 13
0.0
 23
0.0
 14
10.0
 24
10.0
 15
10.0
 25
10.0
 16
0.0
 26
0.0
 36
1.0
 17
0.0
 27
0.0
 37
0.0
 40
3267.0
 41
1.414141414141414
 42
50.0
 43
0.0
 44
0.0
 50
0.0
 51
0.0
 71
     0
 72
 10000
 73
     1
 74
     3
 75
     0
 76
     0
 77
     0
 78
     0
281
     0
 65
     1
110
0.0
120
0.0
130
0.0
111
1.0
121
0.0
131
0.0
112
0.0
122
1.0
132
0.0
 79
     0
146
0.0
348
2F
 60
     3
 61
     5
292
     1
282
     1
141
0.0
142
0.0
 63
   250
361
6D
  0
ENDTAB
  0
TABLE
  2
LTYPE
  5
5
330
0
100
AcDbSymbolTable
 70
     4
  0
LTYPE
  5
14
330
5
100
AcDbSymbolTableRecord
100
AcDbLinetypeTableRecord
  2
ByBlock
 70
     0
  3

 72
    65
 73
     0
 40
0.0
  0
LTYPE
  5
15
330
5
100
AcDbSymbolTableRecord
100
AcDbLinetypeTableRecord
  2
ByLayer
 70
     0
  3

 72
    65
 73
     0
 40
0.0
  0
LTYPE
  5
16
330
5
100
AcDbSymbolTableRecord
100
AcDbLinetypeTableRecord
  2
Continuous
 70
     0
  3
Solid line
 72
    65
 73
     0
 40
0.0
  0
LTYPE
  5
6F
330
5
100
AcDbSymbolTableRecord
100
AcDbLinetypeTableRecord
  2
JWW_CENTER1
 70
     0
  3
-----  --  ----------  --  -----
 72
    65
 73
     8
 40
13.54666666666667
 49
4.233333333333333
 74
     0
 49
-0.8466666666666667
 74
     0
 49
0.8466666666666667
 74
     0
 49
-0.8466666666666667
 74
     0
 49
4.233333333333333
 74
     0
 49
-0.8466666666666667
 74
     0
 49
0.8466666666666667
 74
     0
 49
-0.8466666666666667
 74
     0
  0
LTYPE
  5
70
330
5
100
AcDbSymbolTableRecord
100
AcDbLinetypeTableRecord
  2
JWW_DASHED1
 70
     0
  3
-  --  --  --  --  --  --  --  -
 72
    65
 73
    12
 40
10.16
 49
0.8466666666666667
 74
     0
 49
-0.8466666666666667
 74
     0
 49
0.8466666666666667
 74
     0
 49
-0.8466666666666667
 74
     0
 49
0.8466666666666667
 74
     0
 49
-0.8466666666666667
 74
     0
 49
0.8466666666666667
 74
     0
 49
-0.8466666666666667
 74
     0
 49
0.8466666666666667
 74
     0
 49
-0.8466666666666667
 74
     0
 49
0.8466666666666667
 74
     0
 49
-0.8466666666666667
 74
     0
  0
LTYPE
  5
71
330
5
100
AcDbSymbolTableRecord
100
AcDbLinetypeTableRecord
  2
JWW_HOJO
 70
     0
  3
  -   -   -   -   -   -   -   - 
 72
    65
 73
    12
 40
10.16
 49
-1.27
 74
     0
 49
0.4233333333333333
 74
     0
 49
-1.27
 74
     0
 49
0.4233333333333333
 74
     0
 49
-1.27
 74
     0
 49
0.4233333333333333
 74
     0
 49
-1.27
 74
     0
 49
0.4233333333333333
 74
     0
 49
-1.27
 74
     0
 49
0.4233333333333333
 74
     0
 49
-1.27
 74
     0
 49
0.4233333333333333
 74
     0
  0
ENDTAB
  0
TABLE
  2
LAYER
  5
2
330
0
100
AcDbSymbolTable
 70
    16
  0
LAYER
  5
10
330
2
100
AcDbSymbolTableRecord
100
AcDbLayerTableRecord
  2
0
 70
     0
 62
     7
  6
Continuous
370
    -3
390
F
347
46
348
0
  0
LAYER
  5
72
330
2
100
AcDbSymbolTableRecord
100
AcDbLayerTableRecord
  2
1-8
 70
     0
 62
     7
  6
Continuous
370
    -3
390
F
347
46
348
0
  0
LAYER
  5
73
330
2
100
AcDbSymbolTableRecord
100
AcDbLayerTableRecord
  2
2-4
 70
     0
 62
     7
  6
Continuous
370
    -3
390
F
347
46
348
0
  0
LAYER
  5
74
330
2
100
AcDbSymbolTableRecord
100
AcDbLayerTableRecord
  2
1-4
 70
     0
 62
     7
  6
Continuous
370
    -3
390
F
347
46
348
0
  0
LAYER
  5
75
330
2
100
AcDbSymbolTableRecord
100
AcDbLayerTableRecord
  2
1-3
 70
     0
 62
     7
  6
Continuous
370
    -3
390
F
347
46
348
0
  0
LAYER
  5
76
330
2
100
AcDbSymbolTableRecord
100
AcDbLayerTableRecord
  2
1-1
 70
     0
 62
     7
  6
Continuous
370
    -3
390
F
347
46
348
0
  0
LAYER
  5
77
330
2
100
AcDbSymbolTableRecord
100
AcDbLayerTableRecord
  2
2-1
 70
     0
 62
     7
  6
Continuous
370
    -3
390
F
347
46
348
0
  0
LAYER
  5
78
330
2
100
AcDbSymbolTableRecord
100
AcDbLayerTableRecord
  2
2-3
 70
     0
 62
     7
  6
Continuous
370
    -3
390
F
347
46
348
0
  0
LAYER
  5
79
330
2
100
AcDbSymbolTableRecord
100
AcDbLayerTableRecord
  2
2-B
 70
     0
 62
     7
  6
Continuous
370
    -3
390
F
347
46
348
0
  0
LAYER
  5
7A
330
2
100
AcDbSymbolTableRecord
100
AcDbLayerTableRecord
  2
1-0
 70
     0
 62
     7
  6
Continuous
370
    -3
390
F
347
46
348
0
  0
LAYER
  5
7B
330
2
100
AcDbSymbolTableRecord
100
AcDbLayerTableRecord
  2
2-6
 70
     0
 62
     7
  6
Continuous
370
    -3
390
F
347
46
348
0
  0
LAYER
  5
7C
330
2
100
AcDbSymbolTableRecord
100
AcDbLayerTableRecord
  2
F-0
 70
     0
 62
     7
  6
Continuous
370
    -3
390
F
347
46
348
0
  0
LAYER
  5
7D
330
2
100
AcDbSymbolTableRecord
100
AcDbLayerTableRecord
  2
F-4
 70
     0
 62
     7
  6
Continuous
370
    -3
390
F
347
46
348
0
  0
LAYER
  5
7E
330
2
100
AcDbSymbolTableRecord
100
AcDbLayerTableRecord
  2
1-5
 70
     0
 62
     7
  6
Continuous
370
    -3
390
F
347
46
348
0
  0
LAYER
  5
7F
330
2
100
AcDbSymbolTableRecord
100
AcDbLayerTableRecord
  2
1-A
 70
     0
 62
     7
  6
Continuous
370
    -3
390
F
347
46
348
0
  0
LAYER
  5
80
330
2
100
AcDbSymbolTableRecord
100
AcDbLayerTableRecord
  2
1-9
 70
     0
 62
     7
  6
Continuous
370
    -3
390
F
347
46
348
0
  0
ENDTAB
  0
TABLE
  2
STYLE
  5
3
330
0
100
AcDbSymbolTable
 70
     2
  0
STYLE
  5
11
330
3
100
AcDbSymbolTableRecord
100
AcDbTextStyleTableRecord
  2
Standard
 70
     0
 40
0.0
 41
1.0
 50
0.0
 71
     0
 42
2.5
  3
txt
  4

  0
STYLE
  5
6E
330
3
100
AcDbSymbolTableRecord
100
AcDbTextStyleTableRecord
  2
ＭＳ ゴシック
 70
     0
 40
0.0
 41
1.0
 50
0.0
 71
     0
 42
2.5
  3

  4

1001
ACAD
1000
MS Gothic
1071
    32817
  0
ENDTAB
  0
TABLE
  2
VIEW
  5
6
330
0
100
AcDbSymbolTable
 70
     0
  0
ENDTAB
  0
TABLE
  2
UCS
  5
7
330
0
100
AcDbSymbolTable
 70
     0
  0
ENDTAB
  0
TABLE
  2
APPID
  5
9
330
0
100
AcDbSymbolTable
 70
     1
  0
APPID
  5
12
330
9
100
AcDbSymbolTableRecord
100
AcDbRegAppTableRecord
  2
ACAD
 70
     0
  0
ENDTAB
  0
TABLE
  2
DIMSTYLE
  5
A
330
0
100
AcDbSymbolTable
 70
     2
100
AcDbDimStyleTable
  0
DIMSTYLE
105
27
330
A
100
AcDbSymbolTableRecord
100
AcDbDimStyleTableRecord
  2
ISO-25
 70
     0
 41
2.5
 42
0.625
 43
3.75
 44
1.25
 73
     0
 74
     0
 77
     1
 78
     8
140
2.5
141
2.5
143
0.03937007874016
147
0.625
171
     3
172
     1
178
     0
271
     2
272
     2
274
     3
278
    44
283
     0
284
     8
340
11
  0
DIMSTYLE
105
81
330
A
100
AcDbSymbolTableRecord
100
AcDbDimStyleTableRecord
  2
JWAC_DIMSTYLE
 70
     0
  3
x
  4
mm
 41
0.0
 42
0.625
 43
3.75
 44
1.25
 73
     0
 74
     0
 75
     1
 76
     1
 77
     1
 78
     8
140
2.5
141
2.5
143
0.03937007874016
147
0.625
171
     3
172
     1
173
     1
178
     0
271
     2
272
     2
274
     3
278
    32
283
     0
284
     8
340
11
371
     0
372
     0
  0
ENDTAB
  0
TABLE
  2
BLOCK_RECORD
  5
1
330
0
100
AcDbSymbolTable
 70
     1
  0
BLOCK_RECORD
  5
1F
330
1
100
AcDbSymbolTableRecord
100
AcDbBlockTableRecord
  2
*Model_Space
340
22
 70
     0
280
     1
281
     0
  0
BLOCK_RECORD
  5
1B
330
1
100
AcDbSymbolTableRecord
100
AcDbBlockTableRecord
  2
*Paper_Space
340
1E
 70
     0
280
     1
281
     0
  0
BLOCK_RECORD
  5
23
330
1
100
AcDbSymbolTableRecord
100
AcDbBlockTableRecord
  2
*Paper_Space0
340
26
 70
     0
280
     1
281
     0
  0
ENDTAB
  0
ENDSEC
  0
SECTION
  2
BLOCKS
  0
BLOCK
  5
20
330
1F
100
AcDbEntity
  8
0
100
AcDbBlockBegin
  2
*Model_Space
 70
     0
 10
0.0
 20
0.0
 30
0.0
  3
*Model_Space
  1

  0
ENDBLK
  5
21
330
1F
100
AcDbEntity
  8
0
100
AcDbBlockEnd
  0
BLOCK
  5
1C
330
1B
100
AcDbEntity
 67
     1
  8
0
100
AcDbBlockBegin
  2
*Paper_Space
 70
     0
 10
0.0
 20
0.0
 30
0.0
  3
*Paper_Space
  1

  0
ENDBLK
  5
1D
330
1B
100
AcDbEntity
 67
     1
  8
0
100
AcDbBlockEnd
  0
BLOCK
  5
24
330
23
100
AcDbEntity
  8
0
100
AcDbBlockBegin
  2
*Paper_Space0
 70
     0
 10
0.0
 20
0.0
 30
0.0
  3
*Paper_Space0
  1

  0
ENDBLK
  5
25
330
23
100
AcDbEntity
  8
0
100
AcDbBlockEnd
  0
ENDSEC
  0
SECTION
  2
ENTITIES
  0
LINE
  5
82
330
1F
100
AcDbEntity
  8
1-8
  6
Continuous
 62
     4
370
     9
100
AcDbLine
 10
-1072.92579444679
 20
695.1143336940459
 30
0.0
 11
-1072.92579444679
 21
650.743672138936
 31
0.0
  0
LINE
  5
83
330
1F
100
AcDbEntity
  8
1-8
  6
Continuous
 62
     4
370
     9
100
AcDbLine
 10
-1072.92579444679
 20
650.743672138936
 30
0.0
 11
-963.4257548564188
 21
650.743672138936
 31
0.0
  0
LINE
  5
84
330
1F
100
AcDbEntity
  8
1-8
  6
Continuous
 62
     4
370
     9
100
AcDbLine
 10
-963.4257548564188
 20
695.1143336940459
 30
0.0
 11
-963.4257548564188
 21
650.743672138936
 31
0.0
  0
LINE
  5
85
330
1F
100
AcDbEntity
  8
1-8
  6
Continuous
 62
     4
370
     9
100
AcDbLine
 10
-1045.501791464316
 20
695.1143336940459
 30
0.0
 11
-1045.501791464316
 21
650.743672138936
 31
0.0
  0
LINE
  5
86
330
1F
100
AcDbEntity
  8
1-8
  6
Continuous
 62
     4
370
     9
100
AcDbLine
 10
-990.8497578388935
 20
695.1143336940459
 30
0.0
 11
-990.8497578388935
 21
650.743672138936
 31
0.0
  0
LINE
  5
87
330
1F
100
AcDbEntity
  8
1-8
  6
Continuous
 62
     4
370
     9
100
AcDbLine
 10
-1059.213669235642
 20
700.743589658995
 30
0.0
 11
-977.1378800675675
 21
700.743589658995
 31
0.0
  0
LINE
  5
88
330
1F
100
AcDbEntity
  8
1-8
  6
Continuous
 62
     6
370
     5
100
AcDbLine
 10
-1078.17572516364
 20
650.743672138936
 30
0.0
 11
-1078.17572516364
 21
638.2437546188769
 31
0.0
  0
LINE
  5
89
330
1F
100
AcDbEntity
  8
1-8
  6
Continuous
 62
     6
370
     5
100
AcDbLine
 10
-958.1755766997467
 20
650.743672138936
 30
0.0
 11
-958.1755766997467
 21
638.2437546188769
 31
0.0
  0
LINE
  5
8A
330
1F
100
AcDbEntity
  8
1-8
  6
Continuous
 62
     6
370
     5
100
AcDbLine
 10
-958.1755766997467
 20
650.743672138936
 30
0.0
 11
-963.4257548564188
 21
650.743672138936
 31
0.0
  0
LINE
  5
8B
330
1F
100
AcDbEntity
  8
1-8
  6
Continuous
 62
     6
370
     5
100
AcDbLine
 10
-1072.92579444679
 20
650.743672138936
 30
0.0
 11
-1078.17572516364
 21
650.743672138936
 31
0.0
  0
LINE
  5
8C
330
1F
100
AcDbEntity
  8
1-8
  6
Continuous
 62
     4
370
     9
100
AcDbLine
 10
-1072.92579444679
 20
526.3732415276606
 30
0.0
 11
-1072.92579444679
 21
570.7439030827703
 31
0.0
  0
LINE
  5
8D
330
1F
100
AcDbEntity
  8
1-8
  6
Continuous
 62
     4
370
     9
100
AcDbLine
 10
-1072.92579444679
 20
570.7439030827703
 30
0.0
 11
-963.4257548564188
 21
570.7439030827703
 31
0.0
  0
LINE
  5
8E
330
1F
100
AcDbEntity
  8
1-8
  6
Continuous
 62
     4
370
     9
100
AcDbLine
 10
-963.4257548564188
 20
526.3732415276606
 30
0.0
 11
-963.4257548564188
 21
570.7439030827703
 31
0.0
  0
LINE
  5
8F
330
1F
100
AcDbEntity
  8
1-8
  6
Continuous
 62
     4
370
     9
100
AcDbLine
 10
-1045.501791464316
 20
526.3732415276606
 30
0.0
 11
-1045.501791464316
 21
570.7439030827703
 31
0.0
  0
LINE
  5
90
330
1F
100
AcDbEntity
  8
1-8
  6
Continuous
 62
     4
370
     9
100
AcDbLine
 10
-990.8497578388935
 20
526.3732415276606
 30
0.0
 11
-990.8497578388935
 21
570.7439030827703
 31
0.0
  0
LINE
  5
91
330
1F
100
AcDbEntity
  8
1-8
  6
Continuous
 62
     4
370
     9
100
AcDbLine
 10
-1059.213669235642
 20
520.7439855627113
 30
0.0
 11
-977.1378800675675
 21
520.7439855627113
 31
0.0
  0
LINE
  5
92
330
1F
100
AcDbEntity
  8
1-8
  6
Continuous
 62
     6
370
     5
100
AcDbLine
 10
-1078.17572516364
 20
570.7439030827703
 30
0.0
 11
-1078.17572516364
 21
583.2438206028294
 31
0.0
  0
LINE
  5
93
330
1F
100
AcDbEntity
  8
1-8
  6
Continuous
 62
     6
370
     5
100
AcDbLine
 10
-958.1755766997467
 20
570.7439030827703
 30
0.0
 11
-958.1755766997467
 21
583.2438206028294
 31
0.0
  0
LINE
  5
94
330
1F
100
AcDbEntity
  8
1-8
  6
Continuous
 62
     6
370
     5
100
AcDbLine
 10
-958.1755766997467
 20
570.7439030827703
 30
0.0
 11
-963.4257548564188
 21
570.7439030827703
 31
0.0
  0
LINE
  5
95
330
1F
100
AcDbEntity
  8
1-8
  6
Continuous
 62
     6
370
     5
100
AcDbLine
 10
-1072.92579444679
 20
570.7439030827703
 30
0.0
 11
-1078.17572516364
 21
570.7439030827703
 31
0.0
  0
LINE
  5
96
330
1F
100
AcDbEntity
  8
1-8
  6
Continuous
 62
     3
370
     9
100
AcDbLine
 10
-1048.175626187711
 20
638.2437546188769
 30
0.0
 11
-1048.175626187711
 21
583.2438206028294
 31
0.0
  0
LINE
  5
97
330
1F
100
AcDbEntity
  8
1-8
  6
Continuous
 62
     3
370
     9
100
AcDbLine
 10
-988.1756756756756
 20
638.2437546188769
 30
0.0
 11
-988.1756756756756
 21
583.2438206028294
 31
0.0
  0
LINE
  5
98
330
1F
100
AcDbEntity
  8
1-8
  6
Continuous
 62
     3
370
     9
100
AcDbLine
 10
-1043.175609691723
 20
638.2437546188769
 30
0.0
 11
-1043.175609691723
 21
583.2438206028294
 31
0.0
  0
LINE
  5
99
330
1F
100
AcDbEntity
  8
1-8
  6
Continuous
 62
     3
370
     9
100
AcDbLine
 10
-993.1756921716637
 20
638.2437546188769
 30
0.0
 11
-993.1756921716637
 21
583.2438206028294
 31
0.0
  0
LINE
  5
9A
330
1F
100
AcDbEntity
  8
1-8
  6
Continuous
 62
     3
370
     9
100
AcDbLine
 10
-1043.175609691723
 20
808.2428308435391
 30
0.0
 11
-1043.175609691723
 21
700.743589658995
 31
0.0
  0
LINE
  5
9B
330
1F
100
AcDbEntity
  8
1-8
  6
Continuous
 62
     3
370
     9
100
AcDbLine
 10
-993.1756921716637
 20
808.2428308435391
 30
0.0
 11
-993.1756921716637
 21
700.743589658995
 31
0.0
  0
LINE
  5
9C
330
1F
100
AcDbEntity
  8
1-8
  6
Continuous
 62
     3
370
     9
100
AcDbLine
 10
-1043.175609691723
 20
808.2428308435391
 30
0.0
 11
-993.1756921716637
 21
808.2428308435391
 31
0.0
  0
LINE
  5
9D
330
1F
100
AcDbEntity
  8
1-8
  6
Continuous
 62
     3
370
     9
100
AcDbLine
 10
-988.1756756756756
 20
803.2430617873734
 30
0.0
 11
-988.1756756756756
 21
700.743589658995
 31
0.0
  0
LINE
  5
9E
330
1F
100
AcDbEntity
  8
1-8
  6
Continuous
 62
     3
370
     9
100
AcDbLine
 10
-1048.175626187711
 20
803.2430617873734
 30
0.0
 11
-988.1756756756756
 21
803.2430617873734
 31
0.0
  0
LINE
  5
9F
330
1F
100
AcDbEntity
  8
1-8
  6
Continuous
 62
     3
370
     9
100
AcDbLine
 10
-1048.175626187711
 20
803.2430617873734
 30
0.0
 11
-1048.175626187711
 21
700.743589658995
 31
0.0
  0
LINE
  5
A0
330
1F
100
AcDbEntity
  8
1-8
  6
Continuous
 62
     3
370
     9
100
AcDbLine
 10
-1048.175626187711
 20
803.2430617873734
 30
0.0
 11
-1043.175609691723
 21
808.2428308435391
 31
0.0
  0
LINE
  5
A1
330
1F
100
AcDbEntity
  8
1-8
  6
Continuous
 62
     3
370
     9
100
AcDbLine
 10
-993.1756921716637
 20
808.2428308435391
 30
0.0
 11
-988.1756756756756
 21
803.2430617873734
 31
0.0
  0
LINE
  5
A2
330
1F
100
AcDbEntity
  8
2-4
  6
Continuous
 62
     2
370
     9
100
AcDbLine
 10
991.4297567831505
 20
-192.1614445866766
 30
0.0
 11
991.4297567831505
 21
-127.1620961782094
 31
0.0
  0
LINE
  5
A3
330
1F
100
AcDbEntity
  8
2-4
  6
Continuous
 62
     2
370
     9
100
AcDbLine
 10
991.4297567831505
 20
-127.1620961782094
 30
0.0
 11
1473.434860641892
 21
-127.1620961782094
 31
0.0
  0
LINE
  5
A4
330
1F
100
AcDbEntity
  8
2-4
  6
Continuous
 62
     2
370
     9
100
AcDbLine
 10
1473.434860641892
 20
-127.1620961782094
 30
0.0
 11
1473.434860641892
 21
-192.1614445866766
 31
0.0
  0
LINE
  5
A5
330
1F
100
AcDbEntity
  8
2-4
  6
Continuous
 62
     2
370
     9
100
AcDbLine
 10
1473.434860641892
 20
-192.1614445866766
 30
0.0
 11
991.4297567831505
 21
-192.1614445866766
 31
0.0
  0
LINE
  5
A6
330
1F
100
AcDbEntity
  8
1-4
  6
Continuous
 62
     7
370
     9
100
AcDbLine
 10
-1018.175774651605
 20
808.2428308435391
 30
0.0
 11
-1027.74278795397
 21
831.3398536475929
 31
0.0
  0
LINE
  5
A7
330
1F
100
AcDbEntity
  8
1-4
  6
Continuous
 62
     7
370
     9
100
AcDbLine
 10
-1018.175774651605
 20
808.2428308435391
 30
0.0
 11
-1021.439011032517
 21
833.0288778769005
 31
0.0
  0
LINE
  5
A8
330
1F
100
AcDbEntity
  8
1-3
  6
Continuous
 62
     4
370
     9
100
AcDbLine
 10
-177.9426368507177
 20
1158.243243243243
 30
0.0
 11
-132.9427358266469
 21
1158.243243243243
 31
0.0
  0
LINE
  5
A9
330
1F
100
AcDbEntity
  8
1-8
  6
Continuous
 62
     6
370
     5
100
AcDbLine
 10
-1268.175609691723
 20
-91.75679799672707
 30
0.0
 11
67.0574291332349
 21
-91.75679799672707
 31
0.0
  0
LINE
  5
AA
330
1F
100
AcDbEntity
  8
1-4
  6
Continuous
 62
     7
370
     9
100
AcDbLine
 10
-177.9426368507177
 20
-251.7567072687922
 30
0.0
 11
67.0574291332349
 21
-251.7567072687922
 31
0.0
  0
LINE
  5
AB
330
1F
100
AcDbEntity
  8
1-4
  6
Continuous
 62
     7
370
     9
100
AcDbLine
 10
-177.9426368507177
 20
-116.7567567567568
 30
0.0
 11
-177.9426368507177
 21
-254.7566676784206
 31
0.0
  0
LINE
  5
AC
330
1F
100
AcDbEntity
  8
1-8
  6
Continuous
 62
     6
370
     5
100
AcDbLine
 10
-1268.175609691723
 20
-151.7567485087625
 30
0.0
 11
-200.7526294605151
 21
-151.7567485087625
 31
0.0
  0
LINE
  5
AD
330
1F
100
AcDbEntity
  8
1-8
  6
Continuous
 62
     6
370
     5
100
AcDbLine
 10
-154.816911027238
 20
-151.7567485087625
 30
0.0
 11
67.0574291332349
 21
-151.7567485087625
 31
0.0
  0
LINE
  5
AE
330
1F
100
AcDbEntity
  8
1-8
  6
Continuous
 62
     6
370
     5
100
AcDbLine
 10
-1268.175609691723
 20
-101.7568309887034
 30
0.0
 11
-200.7526294605151
 21
-101.7568309887034
 31
0.0
  0
LINE
  5
AF
330
1F
100
AcDbEntity
  8
1-8
  6
Continuous
 62
     6
370
     5
100
AcDbLine
 10
-154.816911027238
 20
-101.7568309887034
 30
0.0
 11
67.0574291332349
 21
-101.7568309887034
 31
0.0
  0
LINE
  5
B0
330
1F
100
AcDbEntity
  8
1-8
  6
Continuous
 62
     6
370
     5
100
AcDbLine
 10
-1268.175609691723
 20
-111.75686398068
 30
0.0
 11
-200.7526294605151
 21
-111.75686398068
 31
0.0
  0
LINE
  5
B1
330
1F
100
AcDbEntity
  8
1-8
  6
Continuous
 62
     6
370
     5
100
AcDbLine
 10
-154.816911027238
 20
-111.75686398068
 30
0.0
 11
67.0574291332349
 21
-111.75686398068
 31
0.0
  0
LINE
  5
B2
330
1F
100
AcDbEntity
  8
1-8
  6
Continuous
 62
     6
370
     5
100
AcDbLine
 10
-1268.175609691723
 20
-121.7568969726562
 30
0.0
 11
-200.7526294605151
 21
-121.7568969726562
 31
0.0
  0
LINE
  5
B3
330
1F
100
AcDbEntity
  8
1-8
  6
Continuous
 62
     6
370
     5
100
AcDbLine
 10
-154.816911027238
 20
-121.7568969726562
 30
0.0
 11
67.0574291332349
 21
-121.7568969726562
 31
0.0
  0
LINE
  5
B4
330
1F
100
AcDbEntity
  8
1-8
  6
Continuous
 62
     6
370
     5
100
AcDbLine
 10
-1268.175609691723
 20
-131.7569299646325
 30
0.0
 11
-200.7526294605151
 21
-131.7569299646325
 31
0.0
  0
LINE
  5
B5
330
1F
100
AcDbEntity
  8
1-8
  6
Continuous
 62
     6
370
     5
100
AcDbLine
 10
-154.816911027238
 20
-131.7569299646325
 30
0.0
 11
67.0574291332349
 21
-131.7569299646325
 31
0.0
  0
LINE
  5
B6
330
1F
100
AcDbEntity
  8
1-8
  6
Continuous
 62
     6
370
     5
100
AcDbLine
 10
-1268.175609691723
 20
-141.7569629566088
 30
0.0
 11
-200.7526294605151
 21
-141.7569629566088
 31
0.0
  0
LINE
  5
B7
330
1F
100
AcDbEntity
  8
1-8
  6
Continuous
 62
     6
370
     5
100
AcDbLine
 10
-154.816911027238
 20
-141.7569629566088
 30
0.0
 11
67.0574291332349
 21
-141.7569629566088
 31
0.0
  0
LINE
  5
B8
330
1F
100
AcDbEntity
  8
1-4
  6
Continuous
 62
     7
370
     9
100
AcDbLine
 10
42.04918113914715
 20
-91.75679799672707
 30
0.0
 11
42.04918113914715
 21
1158.243243243243
 31
0.0
  0
LINE
  5
B9
330
1F
100
AcDbEntity
  8
1-4
  6
Continuous
 62
     7
370
     9
100
AcDbLine
 10
-107.942653346706
 20
1158.243243243243
 30
0.0
 11
45.04914154877554
 21
1158.243243243243
 31
0.0
  0
LINE
  5
BA
330
1F
100
AcDbEntity
  8
1-4
  6
Continuous
 62
     7
370
     9
100
AcDbLine
 10
-1368.175692171664
 20
-91.75679799672707
 30
0.0
 11
-1368.175692171664
 21
808.2428308435391
 31
0.0
  0
LINE
  5
BB
330
1F
100
AcDbEntity
  8
1-4
  6
Continuous
 62
     7
370
     9
100
AcDbLine
 10
-1068.175444731841
 20
808.2428308435391
 30
0.0
 11
-1371.175900021115
 21
808.2428308435391
 31
0.0
  0
LINE
  5
BC
330
1F
100
AcDbEntity
  8
1-4
  6
Continuous
 62
     7
370
     9
100
AcDbLine
 10
-1468.175774651605
 20
-91.75679799672707
 30
0.0
 11
-1468.175774651605
 21
908.2431607633026
 31
0.0
  0
LINE
  5
BD
330
1F
100
AcDbEntity
  8
1-4
  6
Continuous
 62
     7
370
     9
100
AcDbLine
 10
-1293.175692171664
 20
-91.75679799672707
 30
0.0
 11
-1471.175735061233
 21
-91.75679799672707
 31
0.0
  0
LINE
  5
BE
330
1F
100
AcDbEntity
  8
1-4
  6
Continuous
 62
     7
370
     9
100
AcDbLine
 10
-177.9426368507177
 20
1158.243243243243
 30
0.0
 11
-193.1616705817143
 21
1178.077029666385
 31
0.0
  0
LINE
  5
BF
330
1F
100
AcDbEntity
  8
1-4
  6
Continuous
 62
     7
370
     9
100
AcDbLine
 10
-177.9426368507177
 20
1158.243243243243
 30
0.0
 11
-187.509773872994
 21
1181.340266047298
 31
0.0
  0
LINE
  5
C0
330
1F
100
AcDbEntity
  8
1-4
  6
Continuous
 62
     7
370
     9
100
AcDbLine
 10
-177.9426368507177
 20
1158.243243243243
 30
0.0
 11
-247.2246737093539
 21
1278.243144267315
 31
0.0
  0
LINE
  5
C1
330
1F
100
AcDbEntity
  8
1-4
  6
Continuous
 62
     7
370
     9
100
AcDbLine
 10
-582.6623865076012
 20
1278.243144267315
 30
0.0
 11
-247.2246737093539
 21
1278.243144267315
 31
0.0
  0
LINE
  5
C2
330
1F
100
AcDbEntity
  8
1-4
  6
Continuous
 62
     7
370
     9
100
AcDbLine
 10
-1018.175774651605
 20
808.2428308435391
 30
0.0
 11
-1073.362030854096
 21
1028.243061787373
 31
0.0
  0
LINE
  5
C3
330
1F
100
AcDbEntity
  8
1-4
  6
Continuous
 62
     7
370
     9
100
AcDbLine
 10
-1073.362030854096
 20
1028.243061787373
 30
0.0
 11
-1409.433313318201
 21
1028.243061787373
 31
0.0
  0
LINE
  5
C4
330
1F
100
AcDbEntity
  8
1-1
  6
JWW_CENTER1
 62
     2
370
     9
100
AcDbLine
 10
-1018.175774651605
 20
827.3239053262248
 30
0.0
 11
-1018.175774651605
 21
-110.9074030695734
 31
0.0
  0
LINE
  5
C5
330
1F
100
AcDbEntity
  8
1-4
  6
Continuous
 62
     7
370
     9
100
AcDbLine
 10
-397.9491775100294
 20
908.2431607633026
 30
0.0
 11
-1471.175735061233
 21
908.2431607633026
 31
0.0
  0
LINE
  5
C6
330
1F
100
AcDbEntity
  8
1-3
  6
Continuous
 62
     4
370
     9
100
AcDbLine
 10
-177.9426368507177
 20
568.2437711148648
 30
0.0
 11
-132.9427358266469
 21
568.2437711148648
 31
0.0
  0
LINE
  5
C7
330
1F
100
AcDbEntity
  8
1-3
  6
Continuous
 62
     4
370
     9
100
AcDbLine
 10
-177.9426368507177
 20
693.6267254803633
 30
0.0
 11
-177.9426368507177
 21
1158.243243243243
 31
0.0
  0
LINE
  5
C8
330
1F
100
AcDbEntity
  8
1-3
  6
Continuous
 62
     4
370
     9
100
AcDbLine
 10
-132.9427358266469
 20
693.6267254803633
 30
0.0
 11
-132.9427358266469
 21
1158.243243243243
 31
0.0
  0
LINE
  5
C9
330
1F
100
AcDbEntity
  8
1-4
  6
Continuous
 62
     7
370
     9
100
AcDbLine
 10
-303.7583634660049
 20
1005.030979465794
 30
0.0
 11
-318.9773971970016
 21
1024.864765888936
 31
0.0
  0
LINE
  5
CA
330
1F
100
AcDbEntity
  8
1-4
  6
Continuous
 62
     7
370
     9
100
AcDbLine
 10
-303.7583634660049
 20
1005.030979465794
 30
0.0
 11
-313.3255004882812
 21
1028.128002269848
 31
0.0
  0
LINE
  5
CB
330
1F
100
AcDbEntity
  8
1-4
  6
Continuous
 62
     7
370
     9
100
AcDbLine
 10
-303.7583634660049
 20
1005.030979465794
 30
0.0
 11
-392.2155019399281
 21
1158.243243243243
 31
0.0
  0
LINE
  5
CC
330
1F
100
AcDbEntity
  8
1-4
  6
Continuous
 62
     7
370
     9
100
AcDbLine
 10
-747.6990570893158
 20
1158.243243243243
 30
0.0
 11
-392.2155019399281
 21
1158.243243243243
 31
0.0
  0
LINE
  5
CD
330
1F
100
AcDbEntity
  8
2-1
  6
Continuous
 62
     2
370
     9
100
AcDbLine
 10
1662.43236644848
 20
807.8377718538852
 30
0.0
 11
1662.43236644848
 21
97.83790382179063
 31
0.0
  0
LINE
  5
CE
330
1F
100
AcDbEntity
  8
2-1
  6
Continuous
 62
     2
370
     9
100
AcDbLine
 10
1587.43236644848
 20
880.8377157675255
 30
0.0
 11
877.4324984163854
 21
880.8377157675255
 31
0.0
  0
LINE
  5
CF
330
1F
100
AcDbEntity
  8
2-1
  6
Continuous
 62
     2
370
     9
100
AcDbLine
 10
1660.432062922298
 20
807.8377718538852
 30
0.0
 11
1660.432062922298
 21
97.83790382179063
 31
0.0
  0
LINE
  5
D0
330
1F
100
AcDbEntity
  8
2-1
  6
Continuous
 62
     2
370
     9
100
AcDbLine
 10
1566.378206820102
 20
842.6453791437925
 30
0.0
 11
1591.436932538007
 21
867.703857421875
 31
0.0
  0
LINE
  5
D1
330
1F
100
AcDbEntity
  8
2-1
  6
Continuous
 62
     2
370
     9
100
AcDbLine
 10
1622.24022117821
 20
786.7838596653294
 30
0.0
 11
1647.29845201647
 21
811.8423379434123
 31
0.0
  0
LINE
  5
D2
330
1F
100
AcDbEntity
  8
2-1
  6
Continuous
 62
     2
370
     9
100
AcDbLine
 10
1564.964335673565
 20
844.0594977301521
 30
0.0
 11
1501.478700380068
 21
780.5741098764781
 31
0.0
  0
LINE
  5
D3
330
1F
100
AcDbEntity
  8
2-1
  6
Continuous
 62
     2
370
     9
100
AcDbLine
 10
1504.307432432433
 20
777.745625263936
 30
0.0
 11
1592.203006228885
 21
865.6411990603885
 31
0.0
  0
LINE
  5
D4
330
1F
100
AcDbEntity
  8
2-1
  6
Continuous
 62
     2
370
     9
100
AcDbLine
 10
1623.654092324747
 20
785.3697410789698
 30
0.0
 11
1560.16845703125
 21
721.8841057854731
 31
0.0
  0
LINE
  5
D5
330
1F
100
AcDbEntity
  8
2-1
  6
Continuous
 62
     2
370
     9
100
AcDbLine
 10
1557.340219858531
 20
724.7125903980154
 30
0.0
 11
1645.235793654983
 21
812.6081641944679
 31
0.0
  0
LINE
  5
D6
330
1F
100
AcDbEntity
  8
2-1
  6
Continuous
 62
     2
370
     9
100
AcDbLine
 10
1557.186312288852
 20
862.8377058699325
 30
0.0
 11
1384.511916701858
 21
862.8377058699325
 31
0.0
  0
LINE
  5
D7
330
1F
100
AcDbEntity
  8
2-1
  6
Continuous
 62
     2
370
     9
100
AcDbLine
 10
1557.186312288852
 20
864.8377619562925
 30
0.0
 11
1384.511916701858
 21
864.8377619562925
 31
0.0
  0
LINE
  5
D8
330
1F
100
AcDbEntity
  8
2-1
  6
Continuous
 62
     2
370
     9
100
AcDbLine
 10
1642.432300464527
 20
777.5914702544342
 30
0.0
 11
1642.432300464527
 21
604.9170746674408
 31
0.0
  0
LINE
  5
D9
330
1F
100
AcDbEntity
  8
2-1
  6
Continuous
 62
     2
370
     9
100
AcDbLine
 10
1644.43260399071
 20
777.5914702544342
 30
0.0
 11
1644.43260399071
 21
604.9170746674408
 31
0.0
  0
LINE
  5
DA
330
1F
100
AcDbEntity
  8
2-1
  6
JWW_CENTER1
 62
     2
370
     9
100
AcDbLine
 10
1599.541576488598
 20
819.9469818940033
 30
0.0
 11
1631.891858899916
 21
852.297264305321
 31
0.0
  0
LINE
  5
DB
330
1F
100
AcDbEntity
  8
2-1
  6
JWW_CENTER1
 62
     2
370
     9
100
AcDbLine
 10
1599.541576488598
 20
852.2970168654984
 30
0.0
 11
1631.891858899916
 21
819.9469818940033
 31
0.0
  0
LINE
  5
DC
330
1F
100
AcDbEntity
  8
2-1
  6
Continuous
 62
     2
370
     9
100
AcDbLine
 10
802.4324984163854
 20
807.8377718538852
 30
0.0
 11
802.4324984163854
 21
97.83790382179063
 31
0.0
  0
LINE
  5
DD
330
1F
100
AcDbEntity
  8
2-1
  6
Continuous
 62
     2
370
     9
100
AcDbLine
 10
804.4328019425677
 20
807.8377718538852
 30
0.0
 11
804.4328019425677
 21
97.83790382179063
 31
0.0
  0
LINE
  5
DE
330
1F
100
AcDbEntity
  8
2-1
  6
Continuous
 62
     2
370
     9
100
AcDbLine
 10
842.6246436866558
 20
786.7838596653294
 30
0.0
 11
817.5664128483953
 21
811.8423379434123
 31
0.0
  0
LINE
  5
DF
330
1F
100
AcDbEntity
  8
2-1
  6
Continuous
 62
     2
370
     9
100
AcDbLine
 10
898.4866580447635
 20
842.6453791437925
 30
0.0
 11
873.4279323268584
 21
867.703857421875
 31
0.0
  0
LINE
  5
E0
330
1F
100
AcDbEntity
  8
2-1
  6
Continuous
 62
     2
370
     9
100
AcDbLine
 10
841.2107725401182
 20
785.3697410789698
 30
0.0
 11
904.6964078336151
 21
721.8841057854731
 31
0.0
  0
LINE
  5
E1
330
1F
100
AcDbEntity
  8
2-1
  6
Continuous
 62
     2
370
     9
100
AcDbLine
 10
907.5246450063344
 20
724.7125903980154
 30
0.0
 11
819.6290712098818
 21
812.6081641944679
 31
0.0
  0
LINE
  5
E2
330
1F
100
AcDbEntity
  8
2-1
  6
Continuous
 62
     2
370
     9
100
AcDbLine
 10
899.9005291913011
 20
844.0594977301521
 30
0.0
 11
963.3861644847974
 21
780.5741098764781
 31
0.0
  0
LINE
  5
E3
330
1F
100
AcDbEntity
  8
2-1
  6
Continuous
 62
     2
370
     9
100
AcDbLine
 10
960.5574324324328
 20
777.745625263936
 30
0.0
 11
872.6618586359797
 21
865.6411990603885
 31
0.0
  0
LINE
  5
E4
330
1F
100
AcDbEntity
  8
2-1
  6
Continuous
 62
     2
370
     9
100
AcDbLine
 10
822.432564400338
 20
777.5914702544342
 30
0.0
 11
822.432564400338
 21
604.9170746674408
 31
0.0
  0
LINE
  5
E5
330
1F
100
AcDbEntity
  8
2-1
  6
Continuous
 62
     2
370
     9
100
AcDbLine
 10
820.4322608741558
 20
777.5914702544342
 30
0.0
 11
820.4322608741558
 21
604.9170746674408
 31
0.0
  0
LINE
  5
E6
330
1F
100
AcDbEntity
  8
2-1
  6
Continuous
 62
     2
370
     9
100
AcDbLine
 10
907.6785525760135
 20
862.8377058699325
 30
0.0
 11
1080.352948163007
 21
862.8377058699325
 31
0.0
  0
LINE
  5
E7
330
1F
100
AcDbEntity
  8
2-1
  6
Continuous
 62
     2
370
     9
100
AcDbLine
 10
907.6785525760135
 20
864.8377619562925
 30
0.0
 11
1080.352948163007
 21
864.8377619562925
 31
0.0
  0
LINE
  5
E8
330
1F
100
AcDbEntity
  8
2-1
  6
JWW_CENTER1
 62
     2
370
     9
100
AcDbLine
 10
832.9735008445948
 20
819.9469818940033
 30
0.0
 11
865.3232883762672
 21
852.297264305321
 31
0.0
  0
LINE
  5
E9
330
1F
100
AcDbEntity
  8
2-1
  6
Continuous
 62
     2
370
     9
100
AcDbLine
 10
877.4324984163854
 20
22.83790382179063
 30
0.0
 11
1587.43236644848
 21
22.83790382179063
 31
0.0
  0
LINE
  5
EA
330
1F
100
AcDbEntity
  8
2-1
  6
Continuous
 62
     2
370
     9
100
AcDbLine
 10
877.4324984163854
 20
24.83795990815054
 30
0.0
 11
1587.43236644848
 21
24.83795990815054
 31
0.0
  0
LINE
  5
EB
330
1F
100
AcDbEntity
  8
2-1
  6
Continuous
 62
     2
370
     9
100
AcDbLine
 10
898.4866580447635
 20
63.03029653188361
 30
0.0
 11
873.4279323268584
 21
37.97181825380079
 31
0.0
  0
LINE
  5
EC
330
1F
100
AcDbEntity
  8
2-1
  6
Continuous
 62
     2
370
     9
100
AcDbLine
 10
842.6246436866558
 20
118.8918160103464
 30
0.0
 11
817.5664128483953
 21
93.83333773226354
 31
0.0
  0
LINE
  5
ED
330
1F
100
AcDbEntity
  8
2-1
  6
Continuous
 62
     2
370
     9
100
AcDbLine
 10
899.9005291913011
 20
61.6161779455237
 30
0.0
 11
963.3861644847974
 21
125.1015657991977
 31
0.0
  0
LINE
  5
EE
330
1F
100
AcDbEntity
  8
2-1
  6
Continuous
 62
     2
370
     9
100
AcDbLine
 10
960.5574324324328
 20
127.9300504117398
 30
0.0
 11
872.6618586359797
 21
40.03447661528725
 31
0.0
  0
LINE
  5
EF
330
1F
100
AcDbEntity
  8
2-1
  6
Continuous
 62
     2
370
     9
100
AcDbLine
 10
841.2107725401182
 20
120.3059345967063
 30
0.0
 11
904.6964078336151
 21
183.7914461702914
 31
0.0
  0
LINE
  5
F0
330
1F
100
AcDbEntity
  8
2-1
  6
Continuous
 62
     2
370
     9
100
AcDbLine
 10
907.5246450063344
 20
180.9630852776607
 30
0.0
 11
819.6290712098818
 21
93.06751148120782
 31
0.0
  0
LINE
  5
F1
330
1F
100
AcDbEntity
  8
2-1
  6
Continuous
 62
     2
370
     9
100
AcDbLine
 10
907.6785525760135
 20
42.83796980574323
 30
0.0
 11
1080.352948163007
 21
42.83796980574323
 31
0.0
  0
LINE
  5
F2
330
1F
100
AcDbEntity
  8
2-1
  6
Continuous
 62
     2
370
     9
100
AcDbLine
 10
907.6785525760135
 20
40.83791371938361
 30
0.0
 11
1080.352948163007
 21
40.83791371938361
 31
0.0
  0
LINE
  5
F3
330
1F
100
AcDbEntity
  8
2-1
  6
Continuous
 62
     2
370
     9
100
AcDbLine
 10
822.432564400338
 20
128.0842054212417
 30
0.0
 11
822.432564400338
 21
300.7586010082349
 31
0.0
  0
LINE
  5
F4
330
1F
100
AcDbEntity
  8
2-1
  6
Continuous
 62
     2
370
     9
100
AcDbLine
 10
820.4322608741558
 20
128.0842054212417
 30
0.0
 11
820.4322608741558
 21
300.7586010082349
 31
0.0
  0
LINE
  5
F5
330
1F
100
AcDbEntity
  8
2-1
  6
JWW_CENTER1
 62
     2
370
     9
100
AcDbLine
 10
865.3232883762672
 20
85.7286937816724
 30
0.0
 11
832.9730059649495
 21
53.37841137035468
 31
0.0
  0
LINE
  5
F6
330
1F
100
AcDbEntity
  8
2-1
  6
JWW_CENTER1
 62
     2
370
     9
100
AcDbLine
 10
865.3232883762672
 20
53.37865881017734
 30
0.0
 11
832.9730059649495
 21
85.7286937816724
 31
0.0
  0
LINE
  5
F7
330
1F
100
AcDbEntity
  8
2-1
  6
Continuous
 62
     2
370
     9
100
AcDbLine
 10
1622.24022117821
 20
118.8918160103464
 30
0.0
 11
1647.29845201647
 21
93.83333773226354
 31
0.0
  0
LINE
  5
F8
330
1F
100
AcDbEntity
  8
2-1
  6
Continuous
 62
     2
370
     9
100
AcDbLine
 10
1566.378206820102
 20
63.03029653188361
 30
0.0
 11
1591.436932538007
 21
37.97181825380079
 31
0.0
  0
LINE
  5
F9
330
1F
100
AcDbEntity
  8
2-1
  6
Continuous
 62
     2
370
     9
100
AcDbLine
 10
1623.654092324747
 20
120.3059345967063
 30
0.0
 11
1560.16845703125
 21
183.7915698902029
 31
0.0
  0
LINE
  5
FA
330
1F
100
AcDbEntity
  8
2-1
  6
Continuous
 62
     2
370
     9
100
AcDbLine
 10
1557.340219858531
 20
180.9630852776607
 30
0.0
 11
1645.235793654983
 21
93.06751148120782
 31
0.0
  0
LINE
  5
FB
330
1F
100
AcDbEntity
  8
2-1
  6
Continuous
 62
     2
370
     9
100
AcDbLine
 10
1564.964335673565
 20
61.6161779455237
 30
0.0
 11
1501.478700380068
 21
125.1015657991977
 31
0.0
  0
LINE
  5
FC
330
1F
100
AcDbEntity
  8
2-1
  6
Continuous
 62
     2
370
     9
100
AcDbLine
 10
1504.307432432433
 20
127.9300504117398
 30
0.0
 11
1592.203006228885
 21
40.03447661528725
 31
0.0
  0
LINE
  5
FD
330
1F
100
AcDbEntity
  8
2-1
  6
Continuous
 62
     2
370
     9
100
AcDbLine
 10
1642.432300464527
 20
128.0842054212417
 30
0.0
 11
1642.432300464527
 21
300.7586010082349
 31
0.0
  0
LINE
  5
FE
330
1F
100
AcDbEntity
  8
2-1
  6
Continuous
 62
     2
370
     9
100
AcDbLine
 10
1644.43260399071
 20
128.0842054212417
 30
0.0
 11
1644.43260399071
 21
300.7586010082349
 31
0.0
  0
LINE
  5
FF
330
1F
100
AcDbEntity
  8
2-1
  6
Continuous
 62
     2
370
     9
100
AcDbLine
 10
1557.186312288852
 20
42.83796980574323
 30
0.0
 11
1384.511916701858
 21
42.83796980574323
 31
0.0
  0
LINE
  5
100
330
1F
100
AcDbEntity
  8
2-1
  6
Continuous
 62
     2
370
     9
100
AcDbLine
 10
1557.186312288852
 20
40.83791371938361
 30
0.0
 11
1384.511916701858
 21
40.83791371938361
 31
0.0
  0
LINE
  5
101
330
1F
100
AcDbEntity
  8
2-1
  6
JWW_CENTER1
 62
     2
370
     9
100
AcDbLine
 10
1599.541576488598
 20
85.7286937816724
 30
0.0
 11
1631.891858899916
 21
53.37841137035468
 31
0.0
  0
LINE
  5
102
330
1F
100
AcDbEntity
  8
2-1
  6
JWW_CENTER1
 62
     2
370
     9
100
AcDbLine
 10
1631.89136402027
 20
85.7286937816724
 30
0.0
 11
1599.541576488598
 21
53.37841137035468
 31
0.0
  0
LINE
  5
103
330
1F
100
AcDbEntity
  8
2-1
  6
Continuous
 62
     2
370
     9
100
AcDbLine
 10
1587.43236644848
 20
882.8377718538852
 30
0.0
 11
877.4324984163854
 21
882.8377718538852
 31
0.0
  0
LINE
  5
104
330
1F
100
AcDbEntity
  8
2-1
  6
JWW_CENTER1
 62
     2
370
     9
100
AcDbLine
 10
867.4324654244089
 20
751.5308606946792
 30
0.0
 11
867.4324654244089
 21
724.1447160050677
 31
0.0
  0
LINE
  5
105
330
1F
100
AcDbEntity
  8
2-1
  6
JWW_CENTER1
 62
     2
370
     9
100
AcDbLine
 10
881.1257852090375
 20
737.8377883498734
 30
0.0
 11
853.7391456397808
 21
737.8377883498734
 31
0.0
  0
LINE
  5
106
330
1F
100
AcDbEntity
  8
2-1
  6
JWW_CENTER1
 62
     2
370
     9
100
AcDbLine
 10
1232.432432432433
 20
899.6112225506758
 30
0.0
 11
1232.432432432433
 21
6.064576844911471
 31
0.0
  0
LINE
  5
107
330
1F
100
AcDbEntity
  8
2-1
  6
Continuous
 62
     2
370
     9
100
AcDbLine
 10
929.2087864231422
 20
744.2863175675677
 30
0.0
 11
858.853726773649
 21
820.0526386982688
 31
0.0
  0
LINE
  5
108
330
1F
100
AcDbEntity
  8
2-1
  6
Continuous
 62
     2
370
     9
100
AcDbLine
 10
865.2178790118245
 20
826.4165434966217
 30
0.0
 11
940.9839527027026
 21
756.0614838471283
 31
0.0
  0
LINE
  5
109
330
1F
100
AcDbEntity
  8
2-1
  6
Continuous
 62
     2
370
     9
100
AcDbLine
 10
939.9308488175677
 20
751.7035736908783
 30
0.0
 11
865.2178790118245
 21
826.4165434966217
 31
0.0
  0
LINE
  5
10A
330
1F
100
AcDbEntity
  8
2-1
  6
Continuous
 62
     2
370
     9
100
AcDbLine
 10
933.5666965793922
 20
745.3396688925255
 30
0.0
 11
858.853726773649
 21
820.0526386982688
 31
0.0
  0
LINE
  5
10B
330
1F
100
AcDbEntity
  8
2-1
  6
Continuous
 62
     2
370
     9
100
AcDbLine
 10
1523.880912162163
 20
756.061731286951
 30
0.0
 11
1599.646985853041
 21
826.4165434966217
 31
0.0
  0
LINE
  5
10C
330
1F
100
AcDbEntity
  8
2-1
  6
Continuous
 62
     2
370
     9
100
AcDbLine
 10
1524.934016047298
 20
751.7035736908783
 30
0.0
 11
1599.646985853041
 21
826.4165434966217
 31
0.0
  0
LINE
  5
10D
330
1F
100
AcDbEntity
  8
2-1
  6
Continuous
 62
     2
370
     9
100
AcDbLine
 10
1531.298168285473
 20
745.3396688925255
 30
0.0
 11
1606.011138091216
 21
820.0526386982688
 31
0.0
  0
LINE
  5
10E
330
1F
100
AcDbEntity
  8
2-1
  6
Continuous
 62
     2
370
     9
100
AcDbLine
 10
1606.011138091216
 20
820.0526386982688
 30
0.0
 11
1535.656078441723
 21
744.2863175675677
 31
0.0
  0
LINE
  5
10F
330
1F
100
AcDbEntity
  8
2-1
  6
Continuous
 62
     2
370
     9
100
AcDbLine
 10
1531.298168285473
 20
160.3360067831505
 30
0.0
 11
1606.011138091216
 21
85.62303697740731
 31
0.0
  0
LINE
  5
110
330
1F
100
AcDbEntity
  8
2-1
  6
Continuous
 62
     2
370
     9
100
AcDbLine
 10
1524.934016047298
 20
153.9721019847974
 30
0.0
 11
1599.646985853041
 21
79.25913217905418
 31
0.0
  0
LINE
  5
111
330
1F
100
AcDbEntity
  8
2-1
  6
Continuous
 62
     2
370
     9
100
AcDbLine
 10
1599.646985853041
 20
79.25913217905418
 30
0.0
 11
1523.880912162163
 21
149.6140681086359
 31
0.0
  0
LINE
  5
112
330
1F
100
AcDbEntity
  8
2-1
  6
Continuous
 62
     2
370
     9
100
AcDbLine
 10
1535.656078441723
 20
161.3894818280195
 30
0.0
 11
1606.011138091216
 21
85.62303697740731
 31
0.0
  0
LINE
  5
113
330
1F
100
AcDbEntity
  8
2-1
  6
Continuous
 62
     2
370
     9
100
AcDbLine
 10
858.853726773649
 20
85.62303697740731
 30
0.0
 11
929.2087864231422
 21
161.3893581081081
 31
0.0
  0
LINE
  5
114
330
1F
100
AcDbEntity
  8
2-1
  6
Continuous
 62
     2
370
     9
100
AcDbLine
 10
933.5666965793922
 20
160.3360067831505
 30
0.0
 11
858.853726773649
 21
85.62303697740731
 31
0.0
  0
LINE
  5
115
330
1F
100
AcDbEntity
  8
2-1
  6
Continuous
 62
     2
370
     9
100
AcDbLine
 10
939.9308488175677
 20
153.9721019847974
 30
0.0
 11
865.2178790118245
 21
79.25913217905418
 31
0.0
  0
LINE
  5
116
330
1F
100
AcDbEntity
  8
2-1
  6
Continuous
 62
     2
370
     9
100
AcDbLine
 10
940.9839527027026
 20
149.6139443887247
 30
0.0
 11
865.2178790118245
 21
79.25913217905418
 31
0.0
  0
LINE
  5
117
330
1F
100
AcDbEntity
  8
2-1
  6
Continuous
 62
     2
370
     9
100
AcDbLine
 10
1062.502639358108
 20
759.1651215424408
 30
0.0
 11
1055.628761085304
 21
771.0709360483531
 31
0.0
  0
LINE
  5
118
330
1F
100
AcDbEntity
  8
2-1
  6
Continuous
 62
     2
370
     9
100
AcDbLine
 10
1052.110166807433
 20
753.1652007231842
 30
0.0
 11
1045.236288534629
 21
765.0710152290964
 31
0.0
  0
LINE
  5
119
330
1F
100
AcDbEntity
  8
2-3
  6
Continuous
 62
     4
370
     9
100
AcDbLine
 10
1020.462613492399
 20
749.98065020587
 30
0.0
 11
1015.9423828125
 21
757.8101410736908
 31
0.0
  0
LINE
  5
11A
330
1F
100
AcDbEntity
  8
2-3
  6
Continuous
 62
     4
370
     9
100
AcDbLine
 10
1081.084380278716
 20
784.9805182379646
 30
0.0
 11
1076.564149598818
 21
792.8100091057856
 31
0.0
  0
LINE
  5
11B
330
1F
100
AcDbEntity
  8
2-1
  6
Continuous
 62
     2
370
     9
100
AcDbLine
 10
882.1803737331084
 20
458.8380060969175
 30
0.0
 11
868.4326171875
 21
458.837882377006
 31
0.0
  0
LINE
  5
11C
330
1F
100
AcDbEntity
  8
2-1
  6
Continuous
 62
     2
370
     9
100
AcDbLine
 10
882.1803737331084
 20
446.8379170185813
 30
0.0
 11
868.4326171875
 21
446.8377932986698
 31
0.0
  0
LINE
  5
11D
330
1F
100
AcDbEntity
  8
2-3
  6
Continuous
 62
     4
370
     9
100
AcDbLine
 10
869.1145613386828
 20
417.8379698057432
 30
0.0
 11
860.0736050992401
 21
417.8380935256547
 31
0.0
  0
LINE
  5
11E
330
1F
100
AcDbEntity
  8
2-3
  6
Continuous
 62
     4
370
     9
100
AcDbLine
 10
869.1145613386828
 20
487.8379533097552
 30
0.0
 11
860.0736050992401
 21
487.8380770296664
 31
0.0
  0
LINE
  5
11F
330
1F
100
AcDbEntity
  8
2-1
  6
Continuous
 62
     2
370
     9
100
AcDbLine
 10
1052.110166807433
 20
152.5107223923143
 30
0.0
 11
1045.236288534629
 21
140.6047841664909
 31
0.0
  0
LINE
  5
120
330
1F
100
AcDbEntity
  8
2-1
  6
Continuous
 62
     2
370
     9
100
AcDbLine
 10
1062.502639358108
 20
146.5105541332349
 30
0.0
 11
1055.628761085304
 21
134.6046159074115
 31
0.0
  0
LINE
  5
121
330
1F
100
AcDbEntity
  8
2-3
  6
Continuous
 62
     4
370
     9
100
AcDbLine
 10
1081.083885399071
 20
120.6951574377112
 30
0.0
 11
1076.563654719173
 21
112.8657902898016
 31
0.0
  0
LINE
  5
122
330
1F
100
AcDbEntity
  8
2-3
  6
Continuous
 62
     4
370
     9
100
AcDbLine
 10
1020.462613492399
 20
155.6952729096284
 30
0.0
 11
1015.941887932855
 21
147.8659057617188
 31
0.0
  0
LINE
  5
123
330
1F
100
AcDbEntity
  8
2-1
  6
Continuous
 62
     2
370
     9
100
AcDbLine
 10
1402.362225506757
 20
146.5105541332349
 30
0.0
 11
1409.236103779561
 21
134.6047396273227
 31
0.0
  0
LINE
  5
124
330
1F
100
AcDbEntity
  8
2-1
  6
Continuous
 62
     2
370
     9
100
AcDbLine
 10
1412.754698057433
 20
152.5104749524917
 30
0.0
 11
1419.628576330236
 21
140.6046604465794
 31
0.0
  0
LINE
  5
125
330
1F
100
AcDbEntity
  8
2-3
  6
Continuous
 62
     4
370
     9
100
AcDbLine
 10
1444.402251372466
 20
155.6950254698057
 30
0.0
 11
1448.922482052365
 21
147.8655346019849
 31
0.0
  0
LINE
  5
126
330
1F
100
AcDbEntity
  8
2-3
  6
Continuous
 62
     4
370
     9
100
AcDbLine
 10
1383.780484586149
 20
120.6951574377112
 30
0.0
 11
1388.300715266048
 21
112.8656665698904
 31
0.0
  0
LINE
  5
127
330
1F
100
AcDbEntity
  8
2-1
  6
Continuous
 62
     2
370
     9
100
AcDbLine
 10
1582.684491131757
 20
446.8376695787586
 30
0.0
 11
1596.432247677365
 21
446.8377932986698
 31
0.0
  0
LINE
  5
128
330
1F
100
AcDbEntity
  8
2-1
  6
Continuous
 62
     2
370
     9
100
AcDbLine
 10
1582.684491131757
 20
458.8377586570948
 30
0.0
 11
1596.432247677365
 21
458.837882377006
 31
0.0
  0
LINE
  5
129
330
1F
100
AcDbEntity
  8
2-3
  6
Continuous
 62
     4
370
     9
100
AcDbLine
 10
1595.750303526183
 20
487.8377058699326
 30
0.0
 11
1604.791259765625
 21
487.8375821500211
 31
0.0
  0
LINE
  5
12A
330
1F
100
AcDbEntity
  8
2-3
  6
Continuous
 62
     4
370
     9
100
AcDbLine
 10
1595.750303526183
 20
417.8377223659209
 30
0.0
 11
1604.791259765625
 21
417.8375986460094
 31
0.0
  0
LINE
  5
12B
330
1F
100
AcDbEntity
  8
2-1
  6
Continuous
 62
     2
370
     9
100
AcDbLine
 10
1412.754698057433
 20
753.1649532833617
 30
0.0
 11
1419.628576330236
 21
765.0707677892738
 31
0.0
  0
LINE
  5
12C
330
1F
100
AcDbEntity
  8
2-1
  6
Continuous
 62
     2
370
     9
100
AcDbLine
 10
1402.362225506757
 20
759.1651215424408
 30
0.0
 11
1409.236103779561
 21
771.0709360483531
 31
0.0
  0
LINE
  5
12D
330
1F
100
AcDbEntity
  8
2-3
  6
Continuous
 62
     4
370
     9
100
AcDbLine
 10
1383.780979465794
 20
784.9805182379646
 30
0.0
 11
1388.301210145693
 21
792.809761665963
 31
0.0
  0
LINE
  5
12E
330
1F
100
AcDbEntity
  8
2-3
  6
Continuous
 62
     4
370
     9
100
AcDbLine
 10
1444.402251372466
 20
749.9804027660474
 30
0.0
 11
1448.92297693201
 21
757.8098936338682
 31
0.0
  0
LINE
  5
12F
330
1F
100
AcDbEntity
  8
2-B
  6
Continuous
 62
     4
370
     9
100
AcDbLine
 10
841.4052602407094
 20
843.8647625897383
 30
0.0
 11
852.0011283255911
 21
846.703887114654
 31
0.0
  0
LINE
  5
130
330
1F
100
AcDbEntity
  8
2-B
  6
Continuous
 62
     4
370
     9
100
AcDbLine
 10
852.0011283255911
 20
846.703887114654
 30
0.0
 11
859.7301586254224
 21
838.9748568148227
 31
0.0
  0
LINE
  5
131
330
1F
100
AcDbEntity
  8
2-B
  6
Continuous
 62
     4
370
     9
100
AcDbLine
 10
856.8910341005068
 20
828.3789887299408
 30
0.0
 11
859.7301586254224
 21
838.9748568148227
 31
0.0
  0
LINE
  5
132
330
1F
100
AcDbEntity
  8
2-B
  6
Continuous
 62
     4
370
     9
100
AcDbLine
 10
856.8910341005068
 20
828.3789887299408
 30
0.0
 11
846.295166015625
 21
825.5398642050255
 31
0.0
  0
LINE
  5
133
330
1F
100
AcDbEntity
  8
2-B
  6
Continuous
 62
     4
370
     9
100
AcDbLine
 10
838.5661357157943
 20
833.2688945048565
 30
0.0
 11
846.295166015625
 21
825.5398642050255
 31
0.0
  0
LINE
  5
134
330
1F
100
AcDbEntity
  8
2-B
  6
Continuous
 62
     4
370
     9
100
AcDbLine
 10
841.4052602407094
 20
843.8647625897383
 30
0.0
 11
838.5661357157943
 21
833.2688945048565
 31
0.0
  0
LINE
  5
135
330
1F
100
AcDbEntity
  8
2-B
  6
Continuous
 62
     4
370
     9
100
AcDbLine
 10
1623.459604624156
 20
843.8647625897383
 30
0.0
 11
1612.863736539274
 21
846.703887114654
 31
0.0
  0
LINE
  5
136
330
1F
100
AcDbEntity
  8
2-B
  6
Continuous
 62
     4
370
     9
100
AcDbLine
 10
1612.863736539274
 20
846.703887114654
 30
0.0
 11
1605.134706239443
 21
838.9748568148227
 31
0.0
  0
LINE
  5
137
330
1F
100
AcDbEntity
  8
2-B
  6
Continuous
 62
     4
370
     9
100
AcDbLine
 10
1607.973830764358
 20
828.3789887299408
 30
0.0
 11
1605.134706239443
 21
838.9748568148227
 31
0.0
  0
LINE
  5
138
330
1F
100
AcDbEntity
  8
2-B
  6
Continuous
 62
     4
370
     9
100
AcDbLine
 10
1607.973830764358
 20
828.3789887299408
 30
0.0
 11
1618.56969884924
 21
825.5398642050255
 31
0.0
  0
LINE
  5
139
330
1F
100
AcDbEntity
  8
2-B
  6
Continuous
 62
     4
370
     9
100
AcDbLine
 10
1626.298729149071
 20
833.2688945048565
 30
0.0
 11
1618.56969884924
 21
825.5398642050255
 31
0.0
  0
LINE
  5
13A
330
1F
100
AcDbEntity
  8
2-B
  6
Continuous
 62
     4
370
     9
100
AcDbLine
 10
1623.459604624156
 20
843.8647625897383
 30
0.0
 11
1626.298729149071
 21
833.2688945048565
 31
0.0
  0
LINE
  5
13B
330
1F
100
AcDbEntity
  8
2-B
  6
Continuous
 62
     4
370
     9
100
AcDbLine
 10
1623.459604624156
 20
61.8109130859375
 30
0.0
 11
1612.863736539274
 21
58.97178856102215
 31
0.0
  0
LINE
  5
13C
330
1F
100
AcDbEntity
  8
2-B
  6
Continuous
 62
     4
370
     9
100
AcDbLine
 10
1612.863736539274
 20
58.97178856102215
 30
0.0
 11
1605.134706239443
 21
66.70081886085313
 31
0.0
  0
LINE
  5
13D
330
1F
100
AcDbEntity
  8
2-B
  6
Continuous
 62
     4
370
     9
100
AcDbLine
 10
1607.973830764358
 20
77.2966869457349
 30
0.0
 11
1605.134706239443
 21
66.70081886085313
 31
0.0
  0
LINE
  5
13E
330
1F
100
AcDbEntity
  8
2-B
  6
Continuous
 62
     4
370
     9
100
AcDbLine
 10
1607.973830764358
 20
77.2966869457349
 30
0.0
 11
1618.56969884924
 21
80.13581147065054
 31
0.0
  0
LINE
  5
13F
330
1F
100
AcDbEntity
  8
2-B
  6
Continuous
 62
     4
370
     9
100
AcDbLine
 10
1626.298729149071
 20
72.40678117081927
 30
0.0
 11
1618.56969884924
 21
80.13581147065054
 31
0.0
  0
LINE
  5
140
330
1F
100
AcDbEntity
  8
2-B
  6
Continuous
 62
     4
370
     9
100
AcDbLine
 10
1623.459604624156
 20
61.8109130859375
 30
0.0
 11
1626.298729149071
 21
72.40678117081927
 31
0.0
  0
LINE
  5
141
330
1F
100
AcDbEntity
  8
2-B
  6
Continuous
 62
     4
370
     9
100
AcDbLine
 10
841.4052602407094
 20
61.8109130859375
 30
0.0
 11
852.0011283255911
 21
58.97178856102215
 31
0.0
  0
LINE
  5
142
330
1F
100
AcDbEntity
  8
2-B
  6
Continuous
 62
     4
370
     9
100
AcDbLine
 10
852.0011283255911
 20
58.97178856102215
 30
0.0
 11
859.7301586254224
 21
66.70081886085313
 31
0.0
  0
LINE
  5
143
330
1F
100
AcDbEntity
  8
2-B
  6
Continuous
 62
     4
370
     9
100
AcDbLine
 10
856.8910341005068
 20
77.2966869457349
 30
0.0
 11
859.7301586254224
 21
66.70081886085313
 31
0.0
  0
LINE
  5
144
330
1F
100
AcDbEntity
  8
2-B
  6
Continuous
 62
     4
370
     9
100
AcDbLine
 10
856.8910341005068
 20
77.2966869457349
 30
0.0
 11
846.295166015625
 21
80.13581147065054
 31
0.0
  0
LINE
  5
145
330
1F
100
AcDbEntity
  8
2-B
  6
Continuous
 62
     4
370
     9
100
AcDbLine
 10
838.5661357157943
 20
72.40678117081927
 30
0.0
 11
846.295166015625
 21
80.13581147065054
 31
0.0
  0
LINE
  5
146
330
1F
100
AcDbEntity
  8
2-B
  6
Continuous
 62
     4
370
     9
100
AcDbLine
 10
841.4052602407094
 20
61.8109130859375
 30
0.0
 11
838.5661357157943
 21
72.40678117081927
 31
0.0
  0
LINE
  5
147
330
1F
100
AcDbEntity
  8
2-4
  6
Continuous
 62
     7
370
     9
100
AcDbLine
 10
721.2801546663854
 20
969.8828949799408
 30
0.0
 11
715.3871278505068
 21
963.9903630437078
 31
0.0
  0
LINE
  5
148
330
1F
100
AcDbEntity
  8
2-4
  6
Continuous
 62
     7
370
     9
100
AcDbLine
 10
756.6353462837839
 20
934.5277033625425
 30
0.0
 11
721.2801546663854
 21
969.8828949799408
 31
0.0
  0
LINE
  5
149
330
1F
100
AcDbEntity
  8
2-4
  6
Continuous
 62
     7
370
     9
100
AcDbLine
 10
750.7423194679058
 20
928.6351714263092
 30
0.0
 11
756.6353462837839
 21
934.5277033625425
 31
0.0
  0
LINE
  5
14A
330
1F
100
AcDbEntity
  8
2-4
  6
Continuous
 62
     7
370
     9
100
AcDbLine
 10
750.7423194679058
 20
928.6351714263092
 30
0.0
 11
715.3871278505068
 21
963.9903630437078
 31
0.0
  0
LINE
  5
14B
330
1F
100
AcDbEntity
  8
2-4
  6
Continuous
 62
     7
370
     9
100
AcDbLine
 10
748.8548485008448
 20
930.5228898331927
 30
0.0
 11
752.6297904349661
 21
930.5228898331927
 31
0.0
  0
LINE
  5
14C
330
1F
100
AcDbEntity
  8
2-4
  6
Continuous
 62
     7
370
     9
100
AcDbLine
 10
743.8545845650339
 20
935.5229063291811
 30
0.0
 11
755.6396484375
 21
935.5229063291811
 31
0.0
  0
LINE
  5
14D
330
1F
100
AcDbEntity
  8
2-4
  6
Continuous
 62
     7
370
     9
100
AcDbLine
 10
738.8543206292229
 20
940.522922825169
 30
0.0
 11
750.6393845016896
 21
940.522922825169
 31
0.0
  0
LINE
  5
14E
330
1F
100
AcDbEntity
  8
2-4
  6
Continuous
 62
     7
370
     9
100
AcDbLine
 10
733.8550464527026
 20
945.5229393211573
 30
0.0
 11
745.6401103251693
 21
945.5229393211573
 31
0.0
  0
LINE
  5
14F
330
1F
100
AcDbEntity
  8
2-4
  6
Continuous
 62
     7
370
     9
100
AcDbLine
 10
728.8547825168922
 20
950.5229558171453
 30
0.0
 11
740.6398463893584
 21
950.5229558171453
 31
0.0
  0
LINE
  5
150
330
1F
100
AcDbEntity
  8
2-4
  6
Continuous
 62
     7
370
     9
100
AcDbLine
 10
723.8545185810813
 20
955.5229723131336
 30
0.0
 11
735.6395824535474
 21
955.5229723131336
 31
0.0
  0
LINE
  5
151
330
1F
100
AcDbEntity
  8
2-4
  6
Continuous
 62
     7
370
     9
100
AcDbLine
 10
718.8542546452703
 20
960.5229888091219
 30
0.0
 11
730.6393185177365
 21
960.5229888091219
 31
0.0
  0
LINE
  5
152
330
1F
100
AcDbEntity
  8
2-4
  6
Continuous
 62
     7
370
     9
100
AcDbLine
 10
716.9202649915542
 20
965.5230053051099
 30
0.0
 11
725.6400443412161
 21
965.5230053051099
 31
0.0
  0
LINE
  5
153
330
1F
100
AcDbEntity
  8
2-4
  6
Continuous
 62
     7
370
     9
100
AcDbLine
 10
733.0652185388516
 20
946.3127672350086
 30
0.0
 11
717.8456899282094
 21
926.4789808118667
 31
0.0
  0
LINE
  5
154
330
1F
100
AcDbEntity
  8
2-4
  6
Continuous
 62
     7
370
     9
100
AcDbLine
 10
733.0652185388516
 20
946.3127672350086
 30
0.0
 11
713.2314321157094
 21
931.093733504012
 31
0.0
  0
LINE
  5
155
330
1F
100
AcDbEntity
  8
2-4
  6
Continuous
 62
     7
370
     9
100
AcDbLine
 10
733.0652185388516
 20
946.3127672350086
 30
0.0
 11
697.7090371621625
 21
910.9573281777873
 31
0.0
  0
LINE
  5
156
330
1F
100
AcDbEntity
  8
2-1
  6
JWW_CENTER1
 62
     2
370
     9
100
AcDbLine
 10
956.3074060388516
 20
728.9631116712417
 30
0.0
 11
753.6888328758448
 21
931.5814373944258
 31
0.0
  0
LINE
  5
157
330
1F
100
AcDbEntity
  8
2-4
  6
Continuous
 62
     7
370
     9
100
AcDbLine
 10
1103.679595122466
 20
684.1782358530406
 30
0.0
 11
1096.46276525549
 21
680.0115966796875
 31
0.0
  0
LINE
  5
158
330
1F
100
AcDbEntity
  8
2-4
  6
Continuous
 62
     7
370
     9
100
AcDbLine
 10
1128.679430162584
 20
640.8772566511825
 30
0.0
 11
1103.679595122466
 21
684.1782358530406
 31
0.0
  0
LINE
  5
159
330
1F
100
AcDbEntity
  8
2-4
  6
Continuous
 62
     7
370
     9
100
AcDbLine
 10
1121.462600295608
 20
636.7106174778294
 30
0.0
 11
1128.679430162584
 21
640.8772566511825
 31
0.0
  0
LINE
  5
15A
330
1F
100
AcDbEntity
  8
2-4
  6
Continuous
 62
     7
370
     9
100
AcDbLine
 10
1121.462600295608
 20
636.7106174778294
 30
0.0
 11
1096.46276525549
 21
680.0115966796875
 31
0.0
  0
LINE
  5
15B
330
1F
100
AcDbEntity
  8
2-4
  6
Continuous
 62
     7
370
     9
100
AcDbLine
 10
1118.282998574747
 20
642.2168958509292
 30
0.0
 11
1126.968631228885
 21
639.8894768792231
 31
0.0
  0
LINE
  5
15C
330
1F
100
AcDbEntity
  8
2-4
  6
Continuous
 62
     7
370
     9
100
AcDbLine
 10
1114.748073268581
 20
648.3405365815033
 30
0.0
 11
1126.131294869088
 21
645.2900984480575
 31
0.0
  0
LINE
  5
15D
330
1F
100
AcDbEntity
  8
2-4
  6
Continuous
 62
     7
370
     9
100
AcDbLine
 10
1111.21265308277
 20
654.4641773120779
 30
0.0
 11
1122.595874683277
 21
651.4139866184544
 31
0.0
  0
LINE
  5
15E
330
1F
100
AcDbEntity
  8
2-4
  6
Continuous
 62
     7
370
     9
100
AcDbLine
 10
1107.676738017315
 20
660.5878180426521
 30
0.0
 11
1119.060454497466
 21
657.5378747888516
 31
0.0
  0
LINE
  5
15F
330
1F
100
AcDbEntity
  8
2-4
  6
Continuous
 62
     7
370
     9
100
AcDbLine
 10
1104.140822951858
 20
666.7117062130492
 30
0.0
 11
1115.52453943201
 21
663.6615155194258
 31
0.0
  0
LINE
  5
160
330
1F
100
AcDbEntity
  8
2-4
  6
Continuous
 62
     7
370
     9
100
AcDbLine
 10
1100.605897645693
 20
672.835594383446
 30
0.0
 11
1111.9891192462
 21
669.78515625
 31
0.0
  0
LINE
  5
161
330
1F
100
AcDbEntity
  8
2-4
  6
Continuous
 62
     7
370
     9
100
AcDbLine
 10
1097.070477459882
 20
678.9592351140203
 30
0.0
 11
1108.453699060389
 21
675.9087969805745
 31
0.0
  0
LINE
  5
162
330
1F
100
AcDbEntity
  8
2-4
  6
Continuous
 62
     7
370
     9
100
AcDbLine
 10
1101.533796980575
 20
682.9395521009292
 30
0.0
 11
1104.918278874578
 21
682.0326851509714
 31
0.0
  0
LINE
  5
163
330
1F
100
AcDbEntity
  8
2-4
  6
Continuous
 62
     7
370
     9
100
AcDbLine
 10
1108.962435335727
 20
658.3611070787586
 30
0.0
 11
1089.128648912584
 21
643.142073347762
 31
0.0
  0
LINE
  5
164
330
1F
100
AcDbEntity
  8
2-4
  6
Continuous
 62
     7
370
     9
100
AcDbLine
 10
1108.962435335727
 20
658.3611070787586
 30
0.0
 11
1085.865412531673
 21
648.793846336571
 31
0.0
  0
LINE
  5
165
330
1F
100
AcDbEntity
  8
2-4
  6
Continuous
 62
     7
370
     9
100
AcDbLine
 10
1108.962435335727
 20
658.3611070787586
 30
0.0
 11
1065.661456133868
 21
633.3610245988177
 31
0.0
  0
LINE
  5
166
330
1F
100
AcDbEntity
  8
2-1
  6
JWW_CENTER1
 62
     2
370
     9
100
AcDbLine
 10
1100.070932749156
 20
682.0947925464529
 30
0.0
 11
1037.1826171875
 21
791.020771748311
 31
0.0
  0
LINE
  5
167
330
1F
100
AcDbEntity
  8
2-4
  6
Continuous
 62
     7
370
     9
100
AcDbLine
 10
1479.432307062923
 20
417.8377223659209
 30
0.0
 11
1479.432307062923
 21
487.8377058699326
 31
0.0
  0
LINE
  5
168
330
1F
100
AcDbEntity
  8
2-4
  6
Continuous
 62
     7
370
     9
100
AcDbLine
 10
1570.750468486065
 20
417.8377223659209
 30
0.0
 11
1476.432346653294
 21
417.8377223659209
 31
0.0
  0
LINE
  5
169
330
1F
100
AcDbEntity
  8
2-4
  6
Continuous
 62
     7
370
     9
100
AcDbLine
 10
1570.750468486065
 20
487.8377058699326
 30
0.0
 11
1476.432346653294
 21
487.8377058699326
 31
0.0
  0
LINE
  5
16A
330
1F
100
AcDbEntity
  8
2-1
  6
JWW_CENTER1
 62
     2
370
     9
100
AcDbLine
 10
1497.889338312923
 20
452.837837837838
 30
0.0
 11
1679.20581714527
 21
452.837837837838
 31
0.0
  0
LINE
  5
16B
330
1F
100
AcDbEntity
  8
2-1
  6
JWW_CENTER1
 62
     2
370
     9
100
AcDbLine
 10
785.6590477195948
 20
452.837837837838
 30
0.0
 11
1412.125211148649
 21
452.837837837838
 31
0.0
  0
LINE
  5
16C
330
1F
100
AcDbEntity
  8
1-1
  6
Continuous
 62
     2
370
     9
100
AcDbLine
 10
-342.9423151789484
 20
908.2436556429477
 30
0.0
 11
-372.9416718354096
 21
908.2436556429477
 31
0.0
  0
LINE
  5
16D
330
1F
100
AcDbEntity
  8
1-1
  6
Continuous
 62
     2
370
     9
100
AcDbLine
 10
-192.9429337785049
 20
728.2435566670188
 30
0.0
 11
-217.9430162584458
 21
728.2435566670188
 31
0.0
  0
LINE
  5
16E
330
1F
100
AcDbEntity
  8
1-1
  6
Continuous
 62
     2
370
     9
100
AcDbLine
 10
-1183.170999063028
 20
628.2432267472552
 30
0.0
 11
-1193.17152693465
 21
583.2438206028294
 31
0.0
  0
LINE
  5
16F
330
1F
100
AcDbEntity
  8
1-1
  6
Continuous
 62
     2
370
     9
100
AcDbLine
 10
-326.6335564690667
 20
651.9739429370779
 30
0.0
 11
-342.9423151789484
 21
908.2436556429477
 31
0.0
  0
LINE
  5
170
330
1F
100
AcDbEntity
  8
1-1
  6
Continuous
 62
     2
370
     9
100
AcDbLine
 10
-250.0322496568833
 20
633.2439855627113
 30
0.0
 11
-306.6738231762034
 21
633.2439855627113
 31
0.0
  0
LINE
  5
171
330
1F
100
AcDbEntity
  8
1-1
  6
Continuous
 62
     2
370
     9
100
AcDbLine
 10
-230.2778914168073
 20
650.1243302628802
 30
0.0
 11
-217.9430162584458
 21
728.2435566670188
 31
0.0
  0
LINE
  5
172
330
1F
100
AcDbEntity
  8
1-1
  6
Continuous
 62
     2
370
     9
100
AcDbLine
 10
-190.8706252639357
 20
698.195701805321
 30
0.0
 11
-192.9429337785049
 21
728.2435566670188
 31
0.0
  0
LINE
  5
173
330
1F
100
AcDbEntity
  8
1-1
  6
JWW_DASHED1
 62
     2
370
     9
100
AcDbLine
 10
-190.8706252639357
 20
698.195701805321
 30
0.0
 11
-182.942653346706
 21
583.2438206028294
 31
0.0
  0
LINE
  5
174
330
1F
100
AcDbEntity
  8
1-1
  6
Continuous
 62
     2
370
     9
100
AcDbLine
 10
-1118.171032055004
 20
628.2432267472552
 30
0.0
 11
-1183.170999063028
 21
628.2432267472552
 31
0.0
  0
LINE
  5
175
330
1F
100
AcDbEntity
  8
1-1
  6
Continuous
 62
     2
370
     9
100
AcDbLine
 10
-1118.171032055004
 20
628.2432267472552
 30
0.0
 11
-1108.171988822318
 21
638.2435071790542
 31
0.0
  0
LINE
  5
176
330
1F
100
AcDbEntity
  8
1-1
  6
Continuous
 62
     2
370
     9
100
AcDbLine
 10
-374.2803212758656
 20
883.2435731630068
 30
0.0
 11
-372.9416718354096
 21
908.2436556429477
 31
0.0
  0
LINE
  5
177
330
1F
100
AcDbEntity
  8
1-1
  6
Continuous
 62
     2
370
     9
100
AcDbLine
 10
-928.172137286212
 20
638.2435071790542
 30
0.0
 11
-374.2803212758656
 21
883.2435731630068
 31
0.0
  0
LINE
  5
178
330
1F
100
AcDbEntity
  8
1-1
  6
Continuous
 62
     2
370
     9
100
AcDbLine
 10
-1108.171988822318
 20
638.2435071790542
 30
0.0
 11
-928.172137286212
 21
638.2435071790542
 31
0.0
  0
LINE
  5
179
330
1F
100
AcDbEntity
  8
1-1
  6
Continuous
 62
     2
370
     9
100
AcDbLine
 10
-1068.169877335832
 20
638.2435071790542
 30
0.0
 11
-1055.670454695418
 21
583.2438206028294
 31
0.0
  0
LINE
  5
17A
330
1F
100
AcDbEntity
  8
1-1
  6
Continuous
 62
     2
370
     9
100
AcDbLine
 10
-980.6714444547085
 20
583.2438206028294
 30
0.0
 11
-968.1720218142947
 21
638.2435071790542
 31
0.0
  0
LINE
  5
17B
330
1F
100
AcDbEntity
  8
1-1
  6
Continuous
 62
     2
370
     9
100
AcDbLine
 10
-52.20658585831927
 20
648.0916121199325
 30
0.0
 11
-42.94231517894843
 21
583.2438206028294
 31
0.0
  0
LINE
  5
17C
330
1F
100
AcDbEntity
  8
1-1
  6
Continuous
 62
     2
370
     9
100
AcDbLine
 10
-59.44791226773646
 20
653.243309227196
 30
0.0
 11
-157.9425708667651
 21
653.243309227196
 31
0.0
  0
LINE
  5
17D
330
1F
100
AcDbEntity
  8
1-1
  6
Continuous
 62
     2
370
     9
100
AcDbLine
 10
-160.6001982817779
 20
671.8458350929054
 30
0.0
 11
-157.9425708667651
 21
653.243309227196
 31
0.0
  0
LINE
  5
17E
330
1F
100
AcDbEntity
  8
1-1
  6
Continuous
 62
     2
370
     9
100
AcDbLine
 10
-58.0250095676729
 20
654.3617372255068
 30
0.0
 11
-175.2002612964526
 21
680.0360932221283
 31
0.0
  0
LINE
  5
17F
330
1F
100
AcDbEntity
  8
1-1
  6
Continuous
 62
     2
370
     9
100
AcDbLine
 10
-1193.17152693465
 20
583.2438206028294
 30
0.0
 11
-42.94231517894843
 21
583.2438206028294
 31
0.0
  0
LINE
  5
180
330
1F
100
AcDbEntity
  8
1-1
  6
Continuous
 62
     2
370
     9
100
AcDbLine
 10
-97.94262035472968
 20
653.243309227196
 30
0.0
 11
-97.94262035472968
 21
583.2438206028294
 31
0.0
  0
LINE
  5
181
330
1F
100
AcDbEntity
  8
1-1
  6
Continuous
 62
     2
370
     9
100
AcDbLine
 10
-157.9425708667651
 20
653.243309227196
 30
0.0
 11
-157.9425708667651
 21
583.2438206028294
 31
0.0
  0
LINE
  5
182
330
1F
100
AcDbEntity
  8
1-1
  6
Continuous
 62
     2
370
     9
100
AcDbLine
 10
-152.9425543707768
 20
653.243309227196
 30
0.0
 11
-152.9425543707768
 21
583.2438206028294
 31
0.0
  0
LINE
  5
183
330
1F
100
AcDbEntity
  8
1-1
  6
Continuous
 62
     2
370
     9
100
AcDbLine
 10
-102.9426368507177
 20
653.243309227196
 30
0.0
 11
-102.9426368507177
 21
583.2438206028294
 31
0.0
  0
LINE
  5
184
330
1F
100
AcDbEntity
  8
1-8
  6
Continuous
 62
     7
370
     9
100
AcDbLine
 10
-1073.175523087785
 20
278.8593106656461
 30
0.0
 11
-963.175716915646
 21
308.333723738387
 31
0.0
  0
LINE
  5
185
330
1F
100
AcDbEntity
  8
1-8
  6
Continuous
 62
     7
370
     9
100
AcDbLine
 10
-1073.175523087785
 20
258.1536700274495
 30
0.0
 11
-963.175716915646
 21
287.6280831001901
 31
0.0
  0
LINE
  5
186
330
1F
100
AcDbEntity
  8
1-8
  6
Continuous
 62
     7
370
     9
100
AcDbLine
 10
-202.9427193306586
 20
280.8688931851773
 30
0.0
 11
-107.9429007865286
 21
306.3240174989443
 31
0.0
  0
LINE
  5
187
330
1F
100
AcDbEntity
  8
1-8
  6
Continuous
 62
     7
370
     9
100
AcDbLine
 10
-202.9427193306586
 20
260.1632525469807
 30
0.0
 11
-107.9429007865286
 21
285.6183768607477
 31
0.0
  0
LINE
  5
188
330
1F
100
AcDbEntity
  8
1-3
  6
Continuous
 62
     4
370
     9
100
AcDbLine
 10
-132.9427358266469
 20
299.6253266205659
 30
0.0
 11
-132.9427358266469
 21
568.2437711148648
 31
0.0
  0
LINE
  5
189
330
1F
100
AcDbEntity
  8
1-3
  6
Continuous
 62
     4
370
     9
100
AcDbLine
 10
-177.9426368507177
 20
287.5675840635557
 30
0.0
 11
-177.9426368507177
 21
568.2437711148648
 31
0.0
  0
LINE
  5
18A
330
1F
100
AcDbEntity
  8
1-3
  6
Continuous
 62
     4
370
     9
100
AcDbLine
 10
-132.9427358266469
 20
-91.75679799672707
 30
0.0
 11
-132.9427358266469
 21
278.9196859823693
 31
0.0
  0
LINE
  5
18B
330
1F
100
AcDbEntity
  8
1-3
  6
Continuous
 62
     4
370
     9
100
AcDbLine
 10
-177.9426368507177
 20
-91.75679799672707
 30
0.0
 11
-177.9426368507177
 21
266.8620671452703
 31
0.0
  0
LINE
  5
18C
330
1F
100
AcDbEntity
  8
1-8
  6
Continuous
 62
     3
370
     9
100
AcDbLine
 10
-988.1756756756756
 20
520.7439855627113
 30
0.0
 11
-988.1756756756756
 21
301.6350328600086
 31
0.0
  0
LINE
  5
18D
330
1F
100
AcDbEntity
  8
1-8
  6
Continuous
 62
     3
370
     9
100
AcDbLine
 10
-993.1756921716637
 20
520.7439855627113
 30
0.0
 11
-993.1756921716637
 21
300.2952699403505
 31
0.0
  0
LINE
  5
18E
330
1F
100
AcDbEntity
  8
1-8
  6
Continuous
 62
     3
370
     9
100
AcDbLine
 10
-1043.175609691723
 20
520.7439855627113
 30
0.0
 11
-1043.175609691723
 21
286.8977644636826
 31
0.0
  0
LINE
  5
18F
330
1F
100
AcDbEntity
  8
1-8
  6
Continuous
 62
     3
370
     9
100
AcDbLine
 10
-1048.175626187711
 20
520.7439855627113
 30
0.0
 11
-1048.175626187711
 21
285.5580015440245
 31
0.0
  0
LINE
  5
190
330
1F
100
AcDbEntity
  8
1-0
  6
Continuous
 62
     2
370
     9
100
AcDbLine
 10
-905.5410436681798
 20
-385.1303595465582
 30
0.0
 11
-905.5410436681798
 21
-320.1313822978251
 31
0.0
  0
LINE
  5
191
330
1F
100
AcDbEntity
  8
1-0
  6
Continuous
 62
     2
370
     9
100
AcDbLine
 10
-905.5410436681798
 20
-320.1313822978251
 30
0.0
 11
-282.7864775786529
 21
-320.1313822978251
 31
0.0
  0
LINE
  5
192
330
1F
100
AcDbEntity
  8
1-0
  6
Continuous
 62
     2
370
     9
100
AcDbLine
 10
-282.7864775786529
 20
-320.1313822978251
 30
0.0
 11
-282.7864775786529
 21
-385.1303595465582
 31
0.0
  0
LINE
  5
193
330
1F
100
AcDbEntity
  8
1-0
  6
Continuous
 62
     2
370
     9
100
AcDbLine
 10
-282.7864775786529
 20
-385.1303595465582
 30
0.0
 11
-905.5410436681798
 21
-385.1303595465582
 31
0.0
  0
LINE
  5
194
330
1F
100
AcDbEntity
  8
1-0
  6
Continuous
 62
     7
370
     9
100
AcDbLine
 10
-963.4257548564188
 20
570.7439030827703
 30
0.0
 11
-948.2067211254223
 21
550.9098692198057
 31
0.0
  0
LINE
  5
195
330
1F
100
AcDbEntity
  8
1-0
  6
Continuous
 62
     7
370
     9
100
AcDbLine
 10
-963.4257548564188
 20
570.7439030827703
 30
0.0
 11
-953.8586178341427
 21
547.6468802787165
 31
0.0
  0
LINE
  5
196
330
1F
100
AcDbEntity
  8
1-0
  6
Continuous
 62
     7
370
     9
100
AcDbLine
 10
-963.4257548564188
 20
570.7439030827703
 30
0.0
 11
-894.1438417176942
 21
450.743878338788
 31
0.0
  0
LINE
  5
197
330
1F
100
AcDbEntity
  8
1-0
  6
Continuous
 62
     7
370
     9
100
AcDbLine
 10
-894.1438417176942
 20
450.743878338788
 30
0.0
 11
-222.7529989706503
 21
450.743878338788
 31
0.0
  0
ARC
  5
198
330
1F
100
AcDbEntity
  8
1-8
  6
Continuous
 62
     4
370
     9
100
AcDbCircle
 10
-1059.213669235642
 20
681.2285057274073
 30
0.0
 40
19.51515159091434
100
AcDbArc
 50
45.36129760742188
 51
134.6389617919922
  0
ARC
  5
199
330
1F
100
AcDbEntity
  8
1-8
  6
Continuous
 62
     4
370
     9
100
AcDbCircle
 10
-1018.175774651605
 20
631.6042018581084
 30
0.0
 40
69.13950378830368
100
AcDbArc
 50
66.71980285644531
 51
113.2803039550781
  0
ARC
  5
19A
330
1F
100
AcDbEntity
  8
1-8
  6
Continuous
 62
     4
370
     9
100
AcDbCircle
 10
-977.1378800675675
 20
681.2285057274073
 30
0.0
 40
19.51530430767987
100
AcDbArc
 50
45.36129760742188
 51
134.63818359375
  0
ARC
  5
19B
330
1F
100
AcDbEntity
  8
1-8
  6
Continuous
 62
     4
370
     9
100
AcDbCircle
 10
-1059.213669235642
 20
540.2590694942992
 30
0.0
 40
19.51515159091434
100
AcDbArc
 50
225.3610382080078
 51
314.6387023925781
  0
ARC
  5
19C
330
1F
100
AcDbEntity
  8
1-8
  6
Continuous
 62
     4
370
     9
100
AcDbCircle
 10
-1018.175774651605
 20
589.8833733635981
 30
0.0
 40
69.13950378830368
100
AcDbArc
 50
246.7196960449219
 51
293.2801971435547
  0
ARC
  5
19D
330
1F
100
AcDbEntity
  8
1-8
  6
Continuous
 62
     4
370
     9
100
AcDbCircle
 10
-977.1378800675675
 20
540.2590694942992
 30
0.0
 40
19.51530430767987
100
AcDbArc
 50
225.36181640625
 51
314.6387023925781
  0
ELLIPSE
  5
19E
330
1F
100
AcDbEntity
  8
1-8
  6
Continuous
 62
     6
370
     5
100
AcDbEllipse
 10
-257.4544545766469
 20
896.3482336095863
 30
0.0
 11
-9.547572852944672
 21
54.14697634238065
 31
0.0
210
0.0
220
0.0
230
1.0
 40
0.3504
 41
0.0
 42
6.283185307179586
  0
ARC
  5
19F
330
1F
100
AcDbEntity
  8
2-1
  6
Continuous
 62
     2
370
     9
100
AcDbCircle
 10
1587.43236644848
 20
807.8377718538852
 30
0.0
 40
75.0
100
AcDbArc
 50
0.0
 51
90.0
  0
ARC
  5
1A0
330
1F
100
AcDbEntity
  8
2-1
  6
Continuous
 62
     2
370
     9
100
AcDbCircle
 10
1587.43236644848
 20
807.8377718538852
 30
0.0
 40
72.9999980411014
100
AcDbArc
 50
0.0
 51
90.0
  0
CIRCLE
  5
1A1
330
1F
100
AcDbEntity
  8
2-1
  6
Continuous
 62
     2
370
     9
100
AcDbCircle
 10
1232.432432432433
 20
452.837837837838
 30
0.0
 40
406.9999694824219
  0
CIRCLE
  5
1A2
330
1F
100
AcDbEntity
  8
2-1
  6
Continuous
 62
     2
370
     9
100
AcDbCircle
 10
1232.432432432433
 20
452.837837837838
 30
0.0
 40
412.9999830916121
  0
ARC
  5
1A3
330
1F
100
AcDbEntity
  8
2-1
  6
Continuous
 62
     2
370
     9
100
AcDbCircle
 10
1587.43236644848
 20
807.8377718538852
 30
0.0
 40
57.99999881435085
100
AcDbArc
 50
4.717803955078125
 51
85.28219604492189
  0
ARC
  5
1A4
330
1F
100
AcDbEntity
  8
2-1
  6
Continuous
 62
     2
370
     9
100
AcDbCircle
 10
1587.43236644848
 20
807.8377718538852
 30
0.0
 40
59.99999690700222
100
AcDbArc
 50
3.826934814453125
 51
86.17306518554688
  0
ARC
  5
1A5
330
1F
100
AcDbEntity
  8
2-1
  6
Continuous
 62
     2
370
     9
100
AcDbCircle
 10
1557.186312288852
 20
851.8377685546875
 30
0.0
 40
10.99999917520059
100
AcDbArc
 50
315.0000000000001
 51
90.00000000000006
  0
ARC
  5
1A6
330
1F
100
AcDbEntity
  8
2-1
  6
Continuous
 62
     2
370
     9
100
AcDbCircle
 10
1631.43211570946
 20
777.5914702544342
 30
0.0
 40
10.99999917520059
100
AcDbArc
 50
0.0
 51
135.0
  0
ARC
  5
1A7
330
1F
100
AcDbEntity
  8
2-1
  6
Continuous
 62
     2
370
     9
100
AcDbCircle
 10
1557.186312288852
 20
851.8377685546875
 30
0.0
 40
12.99999920097557
100
AcDbArc
 50
315.0000000000001
 51
90.00000000000006
  0
ARC
  5
1A8
330
1F
100
AcDbEntity
  8
2-1
  6
Continuous
 62
     2
370
     9
100
AcDbCircle
 10
1631.43211570946
 20
777.5914702544342
 30
0.0
 40
12.99999920097557
100
AcDbArc
 50
0.0
 51
135.0
  0
ARC
  5
1A9
330
1F
100
AcDbEntity
  8
2-1
  6
Continuous
 62
     2
370
     9
100
AcDbCircle
 10
1571.168641786318
 20
791.5742946315459
 30
0.0
 40
44.99999768025167
100
AcDbArc
 50
39.26087951660156
 51
50.73912048339844
  0
ARC
  5
1AA
330
1F
100
AcDbEntity
  8
2-1
  6
Continuous
 62
     2
370
     9
100
AcDbCircle
 10
1495.114548141892
 20
786.9380146748313
 30
0.0
 40
8.99999914942561
100
AcDbArc
 50
231.8240966796875
 51
315.0000000000001
  0
ARC
  5
1AB
330
1F
100
AcDbEntity
  8
2-1
  6
Continuous
 62
     2
370
     9
100
AcDbCircle
 10
1495.114548141892
 20
786.9380146748313
 30
0.0
 40
12.99999920097557
100
AcDbArc
 50
276.7244873046874
 51
315.0
  0
ARC
  5
1AC
330
1F
100
AcDbEntity
  8
2-1
  6
Continuous
 62
     2
370
     9
100
AcDbCircle
 10
1566.532609269426
 20
715.52020098712
 30
0.0
 40
8.99999914942561
100
AcDbArc
 50
135.0
 51
218.1759033203125
  0
ARC
  5
1AD
330
1F
100
AcDbEntity
  8
2-1
  6
Continuous
 62
     2
370
     9
100
AcDbCircle
 10
1566.532609269426
 20
715.52020098712
 30
0.0
 40
12.99999920097557
100
AcDbArc
 50
135.0
 51
173.2755126953125
  0
ARC
  5
1AE
330
1F
100
AcDbEntity
  8
2-1
  6
Continuous
 62
     2
370
     9
100
AcDbCircle
 10
1384.511916701858
 20
851.8377685546875
 30
0.0
 40
10.99999917520059
100
AcDbArc
 50
90.0
 51
249.1356201171875
  0
ARC
  5
1AF
330
1F
100
AcDbEntity
  8
2-1
  6
Continuous
 62
     2
370
     9
100
AcDbCircle
 10
1232.432432432433
 20
452.837837837838
 30
0.0
 40
415.9999744312183
100
AcDbArc
 50
51.82421875000001
 51
69.13560485839845
  0
ARC
  5
1B0
330
1F
100
AcDbEntity
  8
2-1
  6
Continuous
 62
     2
370
     9
100
AcDbCircle
 10
1384.511916701858
 20
851.8377685546875
 30
0.0
 40
12.99999920097557
100
AcDbArc
 50
90.0
 51
217.3997039794922
  0
ARC
  5
1B1
330
1F
100
AcDbEntity
  8
2-1
  6
Continuous
 62
     2
370
     9
100
AcDbCircle
 10
1631.43211570946
 20
604.9170746674408
 30
0.0
 40
10.99999917520059
100
AcDbArc
 50
200.8643798828125
 51
0.0000000000000254
  0
ARC
  5
1B2
330
1F
100
AcDbEntity
  8
2-1
  6
Continuous
 62
     2
370
     9
100
AcDbCircle
 10
1631.43211570946
 20
604.9170746674408
 30
0.0
 40
12.99999920097557
100
AcDbArc
 50
232.6002960205079
 51
0.0000000000000509
  0
ARC
  5
1B3
330
1F
100
AcDbEntity
  8
2-1
  6
Continuous
 62
     2
370
     9
100
AcDbCircle
 10
1232.432432432433
 20
452.837837837838
 30
0.0
 40
415.9999744312183
100
AcDbArc
 50
20.86439514160156
 51
38.17578125
  0
ARC
  5
1B4
330
1F
100
AcDbEntity
  8
2-1
  6
Continuous
 62
     2
370
     9
100
AcDbCircle
 10
1232.432432432433
 20
452.837837837838
 30
0.0
 40
415.9999744312183
100
AcDbArc
 50
70.07745361328125
 51
109.9225463867188
  0
ARC
  5
1B5
330
1F
100
AcDbEntity
  8
2-1
  6
Continuous
 62
     2
370
     9
100
AcDbCircle
 10
877.4324984163854
 20
807.8377718538852
 30
0.0
 40
75.0
100
AcDbArc
 50
90.0
 51
180.0
  0
ARC
  5
1B6
330
1F
100
AcDbEntity
  8
2-1
  6
Continuous
 62
     2
370
     9
100
AcDbCircle
 10
877.4324984163854
 20
807.8377718538852
 30
0.0
 40
72.9999980411014
100
AcDbArc
 50
90.0
 51
180.0
  0
ARC
  5
1B7
330
1F
100
AcDbEntity
  8
2-1
  6
Continuous
 62
     2
370
     9
100
AcDbCircle
 10
877.4324984163854
 20
807.8377718538852
 30
0.0
 40
57.99999881435085
100
AcDbArc
 50
94.71780395507811
 51
175.2821960449219
  0
ARC
  5
1B8
330
1F
100
AcDbEntity
  8
2-1
  6
Continuous
 62
     2
370
     9
100
AcDbCircle
 10
877.4324984163854
 20
807.8377718538852
 30
0.0
 40
59.99999690700222
100
AcDbArc
 50
93.82693481445312
 51
176.1730651855469
  0
ARC
  5
1B9
330
1F
100
AcDbEntity
  8
2-1
  6
Continuous
 62
     2
370
     9
100
AcDbCircle
 10
833.4327491554058
 20
777.5914702544342
 30
0.0
 40
10.99999917520059
100
AcDbArc
 50
45.0
 51
180.0
  0
ARC
  5
1BA
330
1F
100
AcDbEntity
  8
2-1
  6
Continuous
 62
     2
370
     9
100
AcDbCircle
 10
907.6785525760135
 20
851.8377685546875
 30
0.0
 40
10.99999917520059
100
AcDbArc
 50
90.0
 51
225.0
  0
ARC
  5
1BB
330
1F
100
AcDbEntity
  8
2-1
  6
Continuous
 62
     2
370
     9
100
AcDbCircle
 10
833.4327491554058
 20
777.5914702544342
 30
0.0
 40
12.99999920097557
100
AcDbArc
 50
45.0
 51
180.0
  0
ARC
  5
1BC
330
1F
100
AcDbEntity
  8
2-1
  6
Continuous
 62
     2
370
     9
100
AcDbCircle
 10
907.6785525760135
 20
851.8377685546875
 30
0.0
 40
12.99999920097557
100
AcDbArc
 50
90.0
 51
225.0
  0
ARC
  5
1BD
330
1F
100
AcDbEntity
  8
2-1
  6
Continuous
 62
     2
370
     9
100
AcDbCircle
 10
893.6962230785474
 20
791.5742946315459
 30
0.0
 40
44.99999768025167
100
AcDbArc
 50
129.2608795166016
 51
140.7391204833984
  0
ARC
  5
1BE
330
1F
100
AcDbEntity
  8
2-1
  6
Continuous
 62
     2
370
     9
100
AcDbCircle
 10
898.3322555954396
 20
715.52020098712
 30
0.0
 40
8.99999914942561
100
AcDbArc
 50
321.8240966796875
 51
44.99999999999999
  0
ARC
  5
1BF
330
1F
100
AcDbEntity
  8
2-1
  6
Continuous
 62
     2
370
     9
100
AcDbCircle
 10
898.3322555954396
 20
715.52020098712
 30
0.0
 40
12.99999920097557
100
AcDbArc
 50
6.7244873046875
 51
45.0
  0
ARC
  5
1C0
330
1F
100
AcDbEntity
  8
2-1
  6
Continuous
 62
     2
370
     9
100
AcDbCircle
 10
969.7503167229729
 20
786.9380146748313
 30
0.0
 40
8.99999914942561
100
AcDbArc
 50
225.0
 51
308.1759033203125
  0
ARC
  5
1C1
330
1F
100
AcDbEntity
  8
2-1
  6
Continuous
 62
     2
370
     9
100
AcDbCircle
 10
969.7503167229729
 20
786.9380146748313
 30
0.0
 40
12.99999920097557
100
AcDbArc
 50
225.0
 51
263.2755126953125
  0
ARC
  5
1C2
330
1F
100
AcDbEntity
  8
2-1
  6
Continuous
 62
     2
370
     9
100
AcDbCircle
 10
833.4327491554058
 20
604.9170746674408
 30
0.0
 40
10.99999917520059
100
AcDbArc
 50
180.0
 51
339.1356201171875
  0
ARC
  5
1C3
330
1F
100
AcDbEntity
  8
2-1
  6
Continuous
 62
     2
370
     9
100
AcDbCircle
 10
1232.432432432433
 20
452.837837837838
 30
0.0
 40
415.9999744312183
100
AcDbArc
 50
141.82421875
 51
159.1356048583984
  0
ARC
  5
1C4
330
1F
100
AcDbEntity
  8
2-1
  6
Continuous
 62
     2
370
     9
100
AcDbCircle
 10
833.4327491554058
 20
604.9170746674408
 30
0.0
 40
12.99999920097557
100
AcDbArc
 50
180.0
 51
307.3997039794922
  0
ARC
  5
1C5
330
1F
100
AcDbEntity
  8
2-1
  6
Continuous
 62
     2
370
     9
100
AcDbCircle
 10
1080.352948163007
 20
851.8377685546875
 30
0.0
 40
10.99999917520059
100
AcDbArc
 50
290.8643798828125
 51
90.0
  0
ARC
  5
1C6
330
1F
100
AcDbEntity
  8
2-1
  6
Continuous
 62
     2
370
     9
100
AcDbCircle
 10
1080.352948163007
 20
851.8377685546875
 30
0.0
 40
12.99999920097557
100
AcDbArc
 50
322.6002960205078
 51
90.0
  0
ARC
  5
1C7
330
1F
100
AcDbEntity
  8
2-1
  6
Continuous
 62
     2
370
     9
100
AcDbCircle
 10
1232.432432432433
 20
452.837837837838
 30
0.0
 40
415.9999744312183
100
AcDbArc
 50
110.8643951416016
 51
128.17578125
  0
ARC
  5
1C8
330
1F
100
AcDbEntity
  8
2-1
  6
Continuous
 62
     2
370
     9
100
AcDbCircle
 10
1232.432432432433
 20
452.837837837838
 30
0.0
 40
415.9999744312183
100
AcDbArc
 50
160.0774536132813
 51
199.9225463867188
  0
ARC
  5
1C9
330
1F
100
AcDbEntity
  8
2-1
  6
Continuous
 62
     2
370
     9
100
AcDbCircle
 10
877.4324984163854
 20
97.83790382179063
 30
0.0
 40
75.0
100
AcDbArc
 50
180.0
 51
270.0
  0
ARC
  5
1CA
330
1F
100
AcDbEntity
  8
2-1
  6
Continuous
 62
     2
370
     9
100
AcDbCircle
 10
877.4324984163854
 20
97.83790382179063
 30
0.0
 40
72.9999980411014
100
AcDbArc
 50
180.0
 51
270.0
  0
ARC
  5
1CB
330
1F
100
AcDbEntity
  8
2-1
  6
Continuous
 62
     2
370
     9
100
AcDbCircle
 10
877.4324984163854
 20
97.83790382179063
 30
0.0
 40
57.99999881435085
100
AcDbArc
 50
184.7178039550782
 51
265.2821960449219
  0
ARC
  5
1CC
330
1F
100
AcDbEntity
  8
2-1
  6
Continuous
 62
     2
370
     9
100
AcDbCircle
 10
877.4324984163854
 20
97.83790382179063
 30
0.0
 40
59.99999690700222
100
AcDbArc
 50
183.8269348144531
 51
266.1730651855469
  0
ARC
  5
1CD
330
1F
100
AcDbEntity
  8
2-1
  6
Continuous
 62
     2
370
     9
100
AcDbCircle
 10
907.6785525760135
 20
53.83790712098829
 30
0.0
 40
10.99999917520059
100
AcDbArc
 50
135.0
 51
270.0
  0
ARC
  5
1CE
330
1F
100
AcDbEntity
  8
2-1
  6
Continuous
 62
     2
370
     9
100
AcDbCircle
 10
833.4327491554058
 20
128.0842054212417
 30
0.0
 40
10.99999917520059
100
AcDbArc
 50
180.0
 51
315.0
  0
ARC
  5
1CF
330
1F
100
AcDbEntity
  8
2-1
  6
Continuous
 62
     2
370
     9
100
AcDbCircle
 10
907.6785525760135
 20
53.83790712098829
 30
0.0
 40
12.99999920097557
100
AcDbArc
 50
135.0
 51
270.0
  0
ARC
  5
1D0
330
1F
100
AcDbEntity
  8
2-1
  6
Continuous
 62
     2
370
     9
100
AcDbCircle
 10
833.4327491554058
 20
128.0842054212417
 30
0.0
 40
12.99999920097557
100
AcDbArc
 50
180.0
 51
315.0
  0
ARC
  5
1D1
330
1F
100
AcDbEntity
  8
2-1
  6
Continuous
 62
     2
370
     9
100
AcDbCircle
 10
893.6962230785474
 20
114.1013810441302
 30
0.0
 40
44.99999768025167
100
AcDbArc
 50
219.2608795166016
 51
230.7391204833984
  0
ARC
  5
1D2
330
1F
100
AcDbEntity
  8
2-1
  6
Continuous
 62
     2
370
     9
100
AcDbCircle
 10
969.7503167229729
 20
118.7376610008448
 30
0.0
 40
8.99999914942561
100
AcDbArc
 50
51.82409667968751
 51
135.0
  0
ARC
  5
1D3
330
1F
100
AcDbEntity
  8
2-1
  6
Continuous
 62
     2
370
     9
100
AcDbCircle
 10
969.7503167229729
 20
118.7376610008448
 30
0.0
 40
12.99999920097557
100
AcDbArc
 50
96.72448730468751
 51
135.0
  0
ARC
  5
1D4
330
1F
100
AcDbEntity
  8
2-1
  6
Continuous
 62
     2
370
     9
100
AcDbCircle
 10
898.3322555954396
 20
190.1554746885557
 30
0.0
 40
8.99999914942561
100
AcDbArc
 50
315.0000000000001
 51
38.17590332031255
  0
ARC
  5
1D5
330
1F
100
AcDbEntity
  8
2-1
  6
Continuous
 62
     2
370
     9
100
AcDbCircle
 10
898.3322555954396
 20
190.1554746885557
 30
0.0
 40
12.99999920097557
100
AcDbArc
 50
315.0000000000001
 51
353.2755126953126
  0
ARC
  5
1D6
330
1F
100
AcDbEntity
  8
2-1
  6
Continuous
 62
     2
370
     9
100
AcDbCircle
 10
1080.352948163007
 20
53.83790712098829
 30
0.0
 40
10.99999917520059
100
AcDbArc
 50
270.0
 51
69.13562011718751
  0
ARC
  5
1D7
330
1F
100
AcDbEntity
  8
2-1
  6
Continuous
 62
     2
370
     9
100
AcDbCircle
 10
1232.432432432433
 20
452.837837837838
 30
0.0
 40
415.9999744312183
100
AcDbArc
 50
231.82421875
 51
249.1356048583984
  0
ARC
  5
1D8
330
1F
100
AcDbEntity
  8
2-1
  6
Continuous
 62
     2
370
     9
100
AcDbCircle
 10
1080.352948163007
 20
53.83790712098829
 30
0.0
 40
12.99999920097557
100
AcDbArc
 50
270.0
 51
37.3997039794922
  0
ARC
  5
1D9
330
1F
100
AcDbEntity
  8
2-1
  6
Continuous
 62
     2
370
     9
100
AcDbCircle
 10
833.4327491554058
 20
300.7586010082349
 30
0.0
 40
10.99999917520059
100
AcDbArc
 50
20.8643798828125
 51
180.0
  0
ARC
  5
1DA
330
1F
100
AcDbEntity
  8
2-1
  6
Continuous
 62
     2
370
     9
100
AcDbCircle
 10
833.4327491554058
 20
300.7586010082349
 30
0.0
 40
12.99999920097557
100
AcDbArc
 50
52.60029602050781
 51
180.0
  0
ARC
  5
1DB
330
1F
100
AcDbEntity
  8
2-1
  6
Continuous
 62
     2
370
     9
100
AcDbCircle
 10
1232.432432432433
 20
452.837837837838
 30
0.0
 40
415.9999744312183
100
AcDbArc
 50
200.8643951416016
 51
218.17578125
  0
ARC
  5
1DC
330
1F
100
AcDbEntity
  8
2-1
  6
Continuous
 62
     2
370
     9
100
AcDbCircle
 10
1232.432432432433
 20
452.837837837838
 30
0.0
 40
415.9999744312183
100
AcDbArc
 50
250.0774536132812
 51
289.9225463867188
  0
ARC
  5
1DD
330
1F
100
AcDbEntity
  8
2-1
  6
Continuous
 62
     2
370
     9
100
AcDbCircle
 10
1587.43236644848
 20
97.83790382179063
 30
0.0
 40
75.0
100
AcDbArc
 50
270.0
 51
0.0
  0
ARC
  5
1DE
330
1F
100
AcDbEntity
  8
2-1
  6
Continuous
 62
     2
370
     9
100
AcDbCircle
 10
1587.43236644848
 20
97.83790382179063
 30
0.0
 40
72.9999980411014
100
AcDbArc
 50
270.0
 51
0.0
  0
ARC
  5
1DF
330
1F
100
AcDbEntity
  8
2-1
  6
Continuous
 62
     2
370
     9
100
AcDbCircle
 10
1587.43236644848
 20
97.83790382179063
 30
0.0
 40
57.99999881435085
100
AcDbArc
 50
274.7178039550781
 51
355.2821960449219
  0
ARC
  5
1E0
330
1F
100
AcDbEntity
  8
2-1
  6
Continuous
 62
     2
370
     9
100
AcDbCircle
 10
1587.43236644848
 20
97.83790382179063
 30
0.0
 40
59.99999690700222
100
AcDbArc
 50
273.8269348144531
 51
356.1730651855469
  0
ARC
  5
1E1
330
1F
100
AcDbEntity
  8
2-1
  6
Continuous
 62
     2
370
     9
100
AcDbCircle
 10
1631.43211570946
 20
128.0842054212417
 30
0.0
 40
10.99999917520059
100
AcDbArc
 50
225.0
 51
0.0
  0
ARC
  5
1E2
330
1F
100
AcDbEntity
  8
2-1
  6
Continuous
 62
     2
370
     9
100
AcDbCircle
 10
1557.186312288852
 20
53.83790712098829
 30
0.0
 40
10.99999917520059
100
AcDbArc
 50
270.0
 51
45.0
  0
ARC
  5
1E3
330
1F
100
AcDbEntity
  8
2-1
  6
Continuous
 62
     2
370
     9
100
AcDbCircle
 10
1631.43211570946
 20
128.0842054212417
 30
0.0
 40
12.99999920097557
100
AcDbArc
 50
225.0
 51
0.0
  0
ARC
  5
1E4
330
1F
100
AcDbEntity
  8
2-1
  6
Continuous
 62
     2
370
     9
100
AcDbCircle
 10
1557.186312288852
 20
53.83790712098829
 30
0.0
 40
12.99999920097557
100
AcDbArc
 50
270.0
 51
45.0
  0
ARC
  5
1E5
330
1F
100
AcDbEntity
  8
2-1
  6
Continuous
 62
     2
370
     9
100
AcDbCircle
 10
1571.168641786318
 20
114.1013810441302
 30
0.0
 40
44.99999768025167
100
AcDbArc
 50
309.2608795166016
 51
320.7391204833984
  0
ARC
  5
1E6
330
1F
100
AcDbEntity
  8
2-1
  6
Continuous
 62
     2
370
     9
100
AcDbCircle
 10
1566.532609269426
 20
190.1554746885557
 30
0.0
 40
8.99999914942561
100
AcDbArc
 50
141.8240966796875
 51
225.0
  0
ARC
  5
1E7
330
1F
100
AcDbEntity
  8
2-1
  6
Continuous
 62
     2
370
     9
100
AcDbCircle
 10
1566.532609269426
 20
190.1554746885557
 30
0.0
 40
12.99999920097557
100
AcDbArc
 50
186.7244873046875
 51
225.0
  0
ARC
  5
1E8
330
1F
100
AcDbEntity
  8
2-1
  6
Continuous
 62
     2
370
     9
100
AcDbCircle
 10
1495.114548141892
 20
118.7376610008448
 30
0.0
 40
8.99999914942561
100
AcDbArc
 50
45.0
 51
128.1759033203125
  0
ARC
  5
1E9
330
1F
100
AcDbEntity
  8
2-1
  6
Continuous
 62
     2
370
     9
100
AcDbCircle
 10
1495.114548141892
 20
118.7376610008448
 30
0.0
 40
12.99999920097557
100
AcDbArc
 50
45.0
 51
83.27551269531251
  0
ARC
  5
1EA
330
1F
100
AcDbEntity
  8
2-1
  6
Continuous
 62
     2
370
     9
100
AcDbCircle
 10
1631.43211570946
 20
300.7586010082349
 30
0.0
 40
10.99999917520059
100
AcDbArc
 50
0.0
 51
159.1356201171875
  0
ARC
  5
1EB
330
1F
100
AcDbEntity
  8
2-1
  6
Continuous
 62
     2
370
     9
100
AcDbCircle
 10
1232.432432432433
 20
452.837837837838
 30
0.0
 40
415.9999744312183
100
AcDbArc
 50
321.82421875
 51
339.1356048583985
  0
ARC
  5
1EC
330
1F
100
AcDbEntity
  8
2-1
  6
Continuous
 62
     2
370
     9
100
AcDbCircle
 10
1631.43211570946
 20
300.7586010082349
 30
0.0
 40
12.99999920097557
100
AcDbArc
 50
0.0
 51
127.3997039794922
  0
ARC
  5
1ED
330
1F
100
AcDbEntity
  8
2-1
  6
Continuous
 62
     2
370
     9
100
AcDbCircle
 10
1384.511916701858
 20
53.83790712098829
 30
0.0
 40
10.99999917520059
100
AcDbArc
 50
110.8643798828125
 51
270.0
  0
ARC
  5
1EE
330
1F
100
AcDbEntity
  8
2-1
  6
Continuous
 62
     2
370
     9
100
AcDbCircle
 10
1384.511916701858
 20
53.83790712098829
 30
0.0
 40
12.99999920097557
100
AcDbArc
 50
142.6002960205078
 51
270.0
  0
ARC
  5
1EF
330
1F
100
AcDbEntity
  8
2-1
  6
Continuous
 62
     2
370
     9
100
AcDbCircle
 10
1232.432432432433
 20
452.837837837838
 30
0.0
 40
415.9999744312183
100
AcDbArc
 50
290.8643951416016
 51
308.17578125
  0
ARC
  5
1F0
330
1F
100
AcDbEntity
  8
2-1
  6
Continuous
 62
     2
370
     9
100
AcDbCircle
 10
1232.432432432433
 20
452.837837837838
 30
0.0
 40
415.9999744312183
100
AcDbArc
 50
340.0774536132812
 51
19.92254638671877
  0
CIRCLE
  5
1F1
330
1F
100
AcDbEntity
  8
2-1
  6
Continuous
 62
     2
370
     9
100
AcDbCircle
 10
867.4324654244089
 20
737.8377883498734
 30
0.0
 40
6.499999600487786
  0
CIRCLE
  5
1F2
330
1F
100
AcDbEntity
  8
2-1
  6
Continuous
 62
     2
370
     9
100
AcDbCircle
 10
867.4324654244089
 20
737.8377883498734
 30
0.0
 40
7.999999619819023
  0
ARC
  5
1F3
330
1F
100
AcDbEntity
  8
2-1
  6
Continuous
 62
     2
370
     9
100
AcDbCircle
 10
1232.432432432433
 20
452.837837837838
 30
0.0
 40
415.8928020580395
100
AcDbArc
 50
136.81396484375
 51
140.5599060058594
  0
ARC
  5
1F4
330
1F
100
AcDbEntity
  8
2-1
  6
Continuous
 62
     2
370
     9
100
AcDbCircle
 10
1232.432432432433
 20
452.837837837838
 30
0.0
 40
415.8928020580395
100
AcDbArc
 50
129.4400939941406
 51
133.1860504150391
  0
ARC
  5
1F5
330
1F
100
AcDbEntity
  8
2-1
  6
Continuous
 62
     2
370
     9
100
AcDbCircle
 10
944.386250263936
 20
759.7255727407096
 30
0.0
 40
4.99999958115655
100
AcDbArc
 50
227.1207275390625
 51
313.1862030029296
  0
ARC
  5
1F6
330
1F
100
AcDbEntity
  8
2-1
  6
Continuous
 62
     2
370
     9
100
AcDbCircle
 10
925.544697529561
 20
740.8840200063346
 30
0.0
 40
4.99999958115655
100
AcDbArc
 50
316.8137969970703
 51
42.87927246093754
  0
ARC
  5
1F7
330
1F
100
AcDbEntity
  8
2-1
  6
Continuous
 62
     2
370
     9
100
AcDbCircle
 10
943.4662690033787
 20
755.2389938766894
 30
0.0
 40
4.99999958115655
100
AcDbArc
 50
225.0
 51
313.6986389160156
  0
ARC
  5
1F8
330
1F
100
AcDbEntity
  8
2-1
  6
Continuous
 62
     2
370
     9
100
AcDbCircle
 10
1232.432432432433
 20
452.837837837838
 30
0.0
 40
413.267960419526
100
AcDbArc
 50
133.6985473632812
 51
136.3014526367188
  0
ARC
  5
1F9
330
1F
100
AcDbEntity
  8
2-1
  6
Continuous
 62
     2
370
     9
100
AcDbCircle
 10
930.0312763935813
 20
741.8040012668919
 30
0.0
 40
4.99999958115655
100
AcDbArc
 50
316.3013610839844
 51
45.00000000000001
  0
ARC
  5
1FA
330
1F
100
AcDbEntity
  8
2-1
  6
Continuous
 62
     2
370
     9
100
AcDbCircle
 10
925.544697529561
 20
164.7916556693414
 30
0.0
 40
4.99999958115655
100
AcDbArc
 50
317.1207275390625
 51
43.18620300292968
  0
ARC
  5
1FB
330
1F
100
AcDbEntity
  8
2-1
  6
Continuous
 62
     2
370
     9
100
AcDbCircle
 10
944.386250263936
 20
145.949979215055
 30
0.0
 40
4.99999958115655
100
AcDbArc
 50
46.81379699707035
 51
132.8792724609376
  0
ARC
  5
1FC
330
1F
100
AcDbEntity
  8
2-1
  6
Continuous
 62
     2
370
     9
100
AcDbCircle
 10
930.0312763935813
 20
163.8715506888727
 30
0.0
 40
4.99999958115655
100
AcDbArc
 50
315.0
 51
43.69863891601562
  0
ARC
  5
1FD
330
1F
100
AcDbEntity
  8
2-1
  6
Continuous
 62
     2
370
     9
100
AcDbCircle
 10
1232.432432432433
 20
452.837837837838
 30
0.0
 40
413.267960419526
100
AcDbArc
 50
223.6985473632812
 51
226.3014526367188
  0
ARC
  5
1FE
330
1F
100
AcDbEntity
  8
2-1
  6
Continuous
 62
     2
370
     9
100
AcDbCircle
 10
943.4662690033787
 20
150.4365580790753
 30
0.0
 40
4.99999958115655
100
AcDbArc
 50
46.30136108398438
 51
135.0
  0
ARC
  5
1FF
330
1F
100
AcDbEntity
  8
2-1
  6
Continuous
 62
     2
370
     9
100
AcDbCircle
 10
1520.478614600929
 20
145.9501029349664
 30
0.0
 40
4.99999958115655
100
AcDbArc
 50
47.12072753906249
 51
133.1862030029297
  0
ARC
  5
200
330
1F
100
AcDbEntity
  8
2-1
  6
Continuous
 62
     2
370
     9
100
AcDbCircle
 10
1539.320167335304
 20
164.7916556693414
 30
0.0
 40
4.99999958115655
100
AcDbArc
 50
136.8137969970703
 51
222.8792724609376
  0
ARC
  5
201
330
1F
100
AcDbEntity
  8
2-1
  6
Continuous
 62
     2
370
     9
100
AcDbCircle
 10
1521.398595861486
 20
150.4365580790753
 30
0.0
 40
4.99999958115655
100
AcDbArc
 50
45.0
 51
133.6986389160156
  0
ARC
  5
202
330
1F
100
AcDbEntity
  8
2-1
  6
Continuous
 62
     2
370
     9
100
AcDbCircle
 10
1232.432432432433
 20
452.837837837838
 30
0.0
 40
413.267960419526
100
AcDbArc
 50
313.6985473632812
 51
316.3014526367187
  0
ARC
  5
203
330
1F
100
AcDbEntity
  8
2-1
  6
Continuous
 62
     2
370
     9
100
AcDbCircle
 10
1534.833588471284
 20
163.8715506888727
 30
0.0
 40
4.99999958115655
100
AcDbArc
 50
136.3013610839844
 51
225.0
  0
ARC
  5
204
330
1F
100
AcDbEntity
  8
2-1
  6
Continuous
 62
     2
370
     9
100
AcDbCircle
 10
1539.320167335304
 20
740.8840200063346
 30
0.0
 40
4.99999958115655
100
AcDbArc
 50
137.1207275390625
 51
223.1862030029297
  0
ARC
  5
205
330
1F
100
AcDbEntity
  8
2-1
  6
Continuous
 62
     2
370
     9
100
AcDbCircle
 10
1520.478614600929
 20
759.7255727407096
 30
0.0
 40
4.99999958115655
100
AcDbArc
 50
226.8137969970703
 51
312.8792724609376
  0
ARC
  5
206
330
1F
100
AcDbEntity
  8
2-1
  6
Continuous
 62
     2
370
     9
100
AcDbCircle
 10
1534.833588471284
 20
741.8040012668919
 30
0.0
 40
4.99999958115655
100
AcDbArc
 50
135.0
 51
223.6986389160156
  0
ARC
  5
207
330
1F
100
AcDbEntity
  8
2-1
  6
Continuous
 62
     2
370
     9
100
AcDbCircle
 10
1232.432432432433
 20
452.837837837838
 30
0.0
 40
413.267960419526
100
AcDbArc
 50
43.69854736328126
 51
46.30145263671876
  0
ARC
  5
208
330
1F
100
AcDbEntity
  8
2-1
  6
Continuous
 62
     2
370
     9
100
AcDbCircle
 10
1521.398595861486
 20
755.2389938766894
 30
0.0
 40
4.99999958115655
100
AcDbArc
 50
226.3013610839844
 51
315.0
  0
ARC
  5
209
330
1F
100
AcDbEntity
  8
2-1
  6
Continuous
 62
     2
370
     9
100
AcDbCircle
 10
1232.432432432433
 20
452.837837837838
 30
0.0
 40
415.8928020580395
100
AcDbArc
 50
46.81396484375
 51
50.55990600585938
  0
ARC
  5
20A
330
1F
100
AcDbEntity
  8
2-1
  6
Continuous
 62
     2
370
     9
100
AcDbCircle
 10
1232.432432432433
 20
452.837837837838
 30
0.0
 40
415.8928020580395
100
AcDbArc
 50
39.44009399414062
 51
43.18603515625
  0
ARC
  5
20B
330
1F
100
AcDbEntity
  8
2-1
  6
Continuous
 62
     2
370
     9
100
AcDbCircle
 10
1232.432432432433
 20
452.837837837838
 30
0.0
 40
415.8928020580395
100
AcDbArc
 50
309.4400939941407
 51
313.1860504150391
  0
ARC
  5
20C
330
1F
100
AcDbEntity
  8
2-1
  6
Continuous
 62
     2
370
     9
100
AcDbCircle
 10
1232.432432432433
 20
452.837837837838
 30
0.0
 40
415.8928020580395
100
AcDbArc
 50
316.81396484375
 51
320.5599060058594
  0
ARC
  5
20D
330
1F
100
AcDbEntity
  8
2-1
  6
Continuous
 62
     2
370
     9
100
AcDbCircle
 10
1232.432432432433
 20
452.837837837838
 30
0.0
 40
415.8928020580395
100
AcDbArc
 50
219.4400939941407
 51
223.1860504150391
  0
ARC
  5
20E
330
1F
100
AcDbEntity
  8
2-1
  6
Continuous
 62
     2
370
     9
100
AcDbCircle
 10
1232.432432432433
 20
452.837837837838
 30
0.0
 40
415.8928020580395
100
AcDbArc
 50
226.81396484375
 51
230.5599060058594
  0
ARC
  5
20F
330
1F
100
AcDbEntity
  8
2-1
  6
JWW_HOJO
 62
     2
370
     9
100
AcDbCircle
 10
1232.432432432433
 20
452.837837837838
 30
0.0
 40
374.9999690700222
100
AcDbArc
 50
114.9732055664062
 51
125.0268096923828
  0
ARC
  5
210
330
1F
100
AcDbEntity
  8
2-1
  6
JWW_HOJO
 62
     2
370
     9
100
AcDbCircle
 10
1232.432432432433
 20
452.837837837838
 30
0.0
 40
374.378895115208
100
AcDbArc
 50
116.3886108398438
 51
123.6114044189453
  0
ARC
  5
211
330
1F
100
AcDbEntity
  8
2-1
  6
Continuous
 62
     2
370
     9
100
AcDbCircle
 10
1050.432524809966
 20
768.0709756387248
 30
0.0
 40
14.99999922675056
100
AcDbArc
 50
219.6860046386719
 51
20.31378173828124
  0
ARC
  5
212
330
1F
100
AcDbEntity
  8
2-1
  6
Continuous
 62
     2
370
     9
100
AcDbCircle
 10
1050.432524809966
 20
768.0709756387248
 30
0.0
 40
16.99999925252554
100
AcDbArc
 50
219.6881103515625
 51
20.31242370605469
  0
CIRCLE
  5
213
330
1F
100
AcDbEntity
  8
2-1
  6
Continuous
 62
     2
370
     9
100
AcDbCircle
 10
1050.432524809966
 20
768.0709756387248
 30
0.0
 40
5.999999594044041
  0
CIRCLE
  5
214
330
1F
100
AcDbEntity
  8
2-1
  6
Continuous
 62
     2
370
     9
100
AcDbCircle
 10
1050.432524809966
 20
768.0709756387248
 30
0.0
 40
4.99999958115655
  0
ARC
  5
215
330
1F
100
AcDbEntity
  8
2-1
  6
Continuous
 62
     2
370
     9
100
AcDbCircle
 10
1050.110358160895
 20
768.6287049989443
 30
0.0
 40
6.034515032897124
100
AcDbArc
 50
23.87232971191406
 51
216.1265258789062
  0
ARC
  5
216
330
1F
100
AcDbEntity
  8
2-6
  6
Continuous
 62
     6
370
     5
100
AcDbCircle
 10
1232.432432432433
 20
452.837837837838
 30
0.0
 40
373.9999719568201
100
AcDbArc
 50
114.6302032470703
 51
125.3697204589844
  0
ARC
  5
217
330
1F
100
AcDbEntity
  8
2-1
  6
Continuous
 62
     2
370
     9
100
AcDbCircle
 10
1080.442521378801
 20
779.1797864759292
 30
0.0
 40
16.99999925252554
100
AcDbArc
 50
150.2938079833985
 51
200.3124237060547
  0
ARC
  5
218
330
1F
100
AcDbEntity
  8
2-1
  6
Continuous
 62
     2
370
     9
100
AcDbCircle
 10
1080.442521378801
 20
779.1797864759292
 30
0.0
 40
14.99999922675056
100
AcDbArc
 50
136.4383697509766
 51
200.3137817382812
  0
ARC
  5
219
330
1F
100
AcDbEntity
  8
2-1
  6
Continuous
 62
     2
370
     9
100
AcDbCircle
 10
1025.806818781673
 20
747.6359104465794
 30
0.0
 40
16.99999925252554
100
AcDbArc
 50
39.68740844726563
 51
89.70643615722656
  0
ARC
  5
21A
330
1F
100
AcDbEntity
  8
2-1
  6
Continuous
 62
     2
370
     9
100
AcDbCircle
 10
1025.806818781673
 20
747.6359104465794
 30
0.0
 40
14.99999922675056
100
AcDbArc
 50
39.6860046386719
 51
103.5626373291016
  0
ARC
  5
21B
330
1F
100
AcDbEntity
  8
2-1
  6
JWW_HOJO
 62
     2
370
     9
100
AcDbCircle
 10
1232.432432432433
 20
452.837837837838
 30
0.0
 40
374.9999690700222
100
AcDbArc
 50
174.9732055664062
 51
185.0268096923828
  0
ARC
  5
21C
330
1F
100
AcDbEntity
  8
2-1
  6
JWW_HOJO
 62
     2
370
     9
100
AcDbCircle
 10
1232.432432432433
 20
452.837837837838
 30
0.0
 40
374.378895115208
100
AcDbArc
 50
176.3886108398438
 51
183.6114044189453
  0
ARC
  5
21D
330
1F
100
AcDbEntity
  8
2-1
  6
Continuous
 62
     2
370
     9
100
AcDbCircle
 10
868.4326171875
 20
452.837837837838
 30
0.0
 40
14.99999922675056
100
AcDbArc
 50
279.6860046386718
 51
80.31378173828124
  0
ARC
  5
21E
330
1F
100
AcDbEntity
  8
2-1
  6
Continuous
 62
     2
370
     9
100
AcDbCircle
 10
868.4326171875
 20
452.837837837838
 30
0.0
 40
16.99999925252554
100
AcDbArc
 50
279.6881103515625
 51
80.31242370605469
  0
CIRCLE
  5
21F
330
1F
100
AcDbEntity
  8
2-1
  6
Continuous
 62
     2
370
     9
100
AcDbCircle
 10
868.4326171875
 20
452.837837837838
 30
0.0
 40
5.999999594044041
  0
CIRCLE
  5
220
330
1F
100
AcDbEntity
  8
2-1
  6
Continuous
 62
     2
370
     9
100
AcDbCircle
 10
868.4326171875
 20
452.837837837838
 30
0.0
 40
4.99999958115655
  0
ARC
  5
221
330
1F
100
AcDbEntity
  8
2-1
  6
Continuous
 62
     2
370
     9
100
AcDbCircle
 10
867.7882838893584
 20
452.8377141179266
 30
0.0
 40
6.034515032897124
100
AcDbArc
 50
83.87232971191406
 51
276.1265258789063
  0
ARC
  5
222
330
1F
100
AcDbEntity
  8
2-6
  6
Continuous
 62
     6
370
     5
100
AcDbCircle
 10
1232.432432432433
 20
452.837837837838
 30
0.0
 40
373.9999719568201
100
AcDbArc
 50
174.6302032470703
 51
185.3697204589844
  0
ARC
  5
223
330
1F
100
AcDbEntity
  8
2-1
  6
Continuous
 62
     2
370
     9
100
AcDbCircle
 10
873.8169077280406
 20
484.3817138671875
 30
0.0
 40
16.99999925252554
100
AcDbArc
 50
210.2938079833985
 51
260.3124237060547
  0
ARC
  5
224
330
1F
100
AcDbEntity
  8
2-1
  6
Continuous
 62
     2
370
     9
100
AcDbCircle
 10
873.8169077280406
 20
484.3817138671875
 30
0.0
 40
14.99999922675056
100
AcDbArc
 50
196.4383697509766
 51
260.3137817382812
  0
ARC
  5
225
330
1F
100
AcDbEntity
  8
2-1
  6
Continuous
 62
     2
370
     9
100
AcDbCircle
 10
873.8169077280406
 20
421.2938380885771
 30
0.0
 40
16.99999925252554
100
AcDbArc
 50
99.68740844726562
 51
149.7064361572266
  0
ARC
  5
226
330
1F
100
AcDbEntity
  8
2-1
  6
Continuous
 62
     2
370
     9
100
AcDbCircle
 10
873.8169077280406
 20
421.2938380885771
 30
0.0
 40
14.99999922675056
100
AcDbArc
 50
99.68600463867188
 51
163.5626373291016
  0
ARC
  5
227
330
1F
100
AcDbEntity
  8
2-1
  6
JWW_HOJO
 62
     2
370
     9
100
AcDbCircle
 10
1232.432432432433
 20
452.837837837838
 30
0.0
 40
374.9999690700222
100
AcDbArc
 50
234.9732055664062
 51
245.0268096923828
  0
ARC
  5
228
330
1F
100
AcDbEntity
  8
2-1
  6
JWW_HOJO
 62
     2
370
     9
100
AcDbCircle
 10
1232.432432432433
 20
452.837837837838
 30
0.0
 40
374.378895115208
100
AcDbArc
 50
236.3886108398438
 51
243.6114044189453
  0
ARC
  5
229
330
1F
100
AcDbEntity
  8
2-1
  6
Continuous
 62
     2
370
     9
100
AcDbCircle
 10
1050.432524809966
 20
137.604700036951
 30
0.0
 40
14.99999922675056
100
AcDbArc
 50
339.6860046386719
 51
140.3137817382812
  0
ARC
  5
22A
330
1F
100
AcDbEntity
  8
2-1
  6
Continuous
 62
     2
370
     9
100
AcDbCircle
 10
1050.432524809966
 20
137.604700036951
 30
0.0
 40
16.99999925252554
100
AcDbArc
 50
339.6881103515625
 51
140.3124237060547
  0
CIRCLE
  5
22B
330
1F
100
AcDbEntity
  8
2-1
  6
Continuous
 62
     2
370
     9
100
AcDbCircle
 10
1050.432524809966
 20
137.604700036951
 30
0.0
 40
5.999999594044041
  0
CIRCLE
  5
22C
330
1F
100
AcDbEntity
  8
2-1
  6
Continuous
 62
     2
370
     9
100
AcDbCircle
 10
1050.432524809966
 20
137.604700036951
 30
0.0
 40
4.99999958115655
  0
ARC
  5
22D
330
1F
100
AcDbEntity
  8
2-1
  6
Continuous
 62
     2
370
     9
100
AcDbCircle
 10
1050.110358160895
 20
137.0468469568203
 30
0.0
 40
6.034515032897124
100
AcDbArc
 50
143.872329711914
 51
336.1265258789062
  0
ARC
  5
22E
330
1F
100
AcDbEntity
  8
2-6
  6
Continuous
 62
     6
370
     5
100
AcDbCircle
 10
1232.432432432433
 20
452.837837837838
 30
0.0
 40
373.9999719568201
100
AcDbArc
 50
234.6302032470703
 51
245.3697204589843
  0
ARC
  5
22F
330
1F
100
AcDbEntity
  8
2-1
  6
Continuous
 62
     2
370
     9
100
AcDbCircle
 10
1025.806818781673
 20
158.0397652290964
 30
0.0
 40
16.99999925252554
100
AcDbArc
 50
270.2938079833984
 51
320.3124237060547
  0
ARC
  5
230
330
1F
100
AcDbEntity
  8
2-1
  6
Continuous
 62
     2
370
     9
100
AcDbCircle
 10
1025.806818781673
 20
158.0397652290964
 30
0.0
 40
14.99999922675056
100
AcDbArc
 50
256.4383697509766
 51
320.3137817382812
  0
ARC
  5
231
330
1F
100
AcDbEntity
  8
2-1
  6
Continuous
 62
     2
370
     9
100
AcDbCircle
 10
1080.442521378801
 20
126.4957654798354
 30
0.0
 40
16.99999925252554
100
AcDbArc
 50
159.6874084472656
 51
209.7064361572265
  0
ARC
  5
232
330
1F
100
AcDbEntity
  8
2-1
  6
Continuous
 62
     2
370
     9
100
AcDbCircle
 10
1080.442521378801
 20
126.4957654798354
 30
0.0
 40
14.99999922675056
100
AcDbArc
 50
159.6860046386719
 51
223.5626373291016
  0
ARC
  5
233
330
1F
100
AcDbEntity
  8
2-1
  6
JWW_HOJO
 62
     2
370
     9
100
AcDbCircle
 10
1232.432432432433
 20
452.837837837838
 30
0.0
 40
374.9999690700222
100
AcDbArc
 50
294.9732055664062
 51
305.0268096923828
  0
ARC
  5
234
330
1F
100
AcDbEntity
  8
2-1
  6
JWW_HOJO
 62
     2
370
     9
100
AcDbCircle
 10
1232.432432432433
 20
452.837837837838
 30
0.0
 40
374.378895115208
100
AcDbArc
 50
296.3886108398438
 51
303.6114044189453
  0
ARC
  5
235
330
1F
100
AcDbEntity
  8
2-1
  6
Continuous
 62
     2
370
     9
100
AcDbCircle
 10
1414.432340054899
 20
137.604700036951
 30
0.0
 40
14.99999922675056
100
AcDbArc
 50
39.68600463867187
 51
200.3137817382812
  0
ARC
  5
236
330
1F
100
AcDbEntity
  8
2-1
  6
Continuous
 62
     2
370
     9
100
AcDbCircle
 10
1414.432340054899
 20
137.604700036951
 30
0.0
 40
16.99999925252554
100
AcDbArc
 50
39.68811035156249
 51
200.3124237060547
  0
CIRCLE
  5
237
330
1F
100
AcDbEntity
  8
2-1
  6
Continuous
 62
     2
370
     9
100
AcDbCircle
 10
1414.432340054899
 20
137.604700036951
 30
0.0
 40
5.999999594044041
  0
CIRCLE
  5
238
330
1F
100
AcDbEntity
  8
2-1
  6
Continuous
 62
     2
370
     9
100
AcDbCircle
 10
1414.432340054899
 20
137.604700036951
 30
0.0
 40
4.99999958115655
  0
ARC
  5
239
330
1F
100
AcDbEntity
  8
2-1
  6
Continuous
 62
     2
370
     9
100
AcDbCircle
 10
1414.75450670397
 20
137.0469706767315
 30
0.0
 40
6.034515032897124
100
AcDbArc
 50
203.872329711914
 51
36.12652587890625
  0
ARC
  5
23A
330
1F
100
AcDbEntity
  8
2-6
  6
Continuous
 62
     6
370
     5
100
AcDbCircle
 10
1232.432432432433
 20
452.837837837838
 30
0.0
 40
373.9999719568201
100
AcDbArc
 50
294.6302032470703
 51
305.3697204589844
  0
ARC
  5
23B
330
1F
100
AcDbEntity
  8
2-1
  6
Continuous
 62
     2
370
     9
100
AcDbCircle
 10
1384.422343486065
 20
126.4958891997466
 30
0.0
 40
16.99999925252554
100
AcDbArc
 50
330.2938079833985
 51
20.31242370605474
  0
ARC
  5
23C
330
1F
100
AcDbEntity
  8
2-1
  6
Continuous
 62
     2
370
     9
100
AcDbCircle
 10
1384.422343486065
 20
126.4958891997466
 30
0.0
 40
14.99999922675056
100
AcDbArc
 50
316.4383697509766
 51
20.31378173828125
  0
ARC
  5
23D
330
1F
100
AcDbEntity
  8
2-1
  6
Continuous
 62
     2
370
     9
100
AcDbCircle
 10
1439.058046083193
 20
158.0397652290964
 30
0.0
 40
16.99999925252554
100
AcDbArc
 50
219.6874084472656
 51
269.7064361572266
  0
ARC
  5
23E
330
1F
100
AcDbEntity
  8
2-1
  6
Continuous
 62
     2
370
     9
100
AcDbCircle
 10
1439.058046083193
 20
158.0397652290964
 30
0.0
 40
14.99999922675056
100
AcDbArc
 50
219.6860046386719
 51
283.5626373291016
  0
ARC
  5
23F
330
1F
100
AcDbEntity
  8
2-1
  6
JWW_HOJO
 62
     2
370
     9
100
AcDbCircle
 10
1232.432432432433
 20
452.837837837838
 30
0.0
 40
374.9999690700222
100
AcDbArc
 50
354.9732055664062
 51
5.026809692382802
  0
ARC
  5
240
330
1F
100
AcDbEntity
  8
2-1
  6
JWW_HOJO
 62
     2
370
     9
100
AcDbCircle
 10
1232.432432432433
 20
452.837837837838
 30
0.0
 40
374.378895115208
100
AcDbArc
 50
356.3886108398438
 51
3.611404418945316
  0
ARC
  5
241
330
1F
100
AcDbEntity
  8
2-1
  6
Continuous
 62
     2
370
     9
100
AcDbCircle
 10
1596.432247677365
 20
452.837837837838
 30
0.0
 40
14.99999922675056
100
AcDbArc
 50
99.68600463867188
 51
260.3137817382812
  0
ARC
  5
242
330
1F
100
AcDbEntity
  8
2-1
  6
Continuous
 62
     2
370
     9
100
AcDbCircle
 10
1596.432247677365
 20
452.837837837838
 30
0.0
 40
16.99999925252554
100
AcDbArc
 50
99.6881103515625
 51
260.3124237060547
  0
CIRCLE
  5
243
330
1F
100
AcDbEntity
  8
2-1
  6
Continuous
 62
     2
370
     9
100
AcDbCircle
 10
1596.432247677365
 20
452.837837837838
 30
0.0
 40
5.999999594044041
  0
CIRCLE
  5
244
330
1F
100
AcDbEntity
  8
2-1
  6
Continuous
 62
     2
370
     9
100
AcDbCircle
 10
1596.432247677365
 20
452.837837837838
 30
0.0
 40
4.99999958115655
  0
ARC
  5
245
330
1F
100
AcDbEntity
  8
2-1
  6
Continuous
 62
     2
370
     9
100
AcDbCircle
 10
1597.076580975507
 20
452.8379615577492
 30
0.0
 40
6.034515032897124
100
AcDbArc
 50
263.8723297119141
 51
96.12652587890625
  0
ARC
  5
246
330
1F
100
AcDbEntity
  8
2-6
  6
Continuous
 62
     6
370
     5
100
AcDbCircle
 10
1232.432432432433
 20
452.837837837838
 30
0.0
 40
373.9999719568201
100
AcDbArc
 50
354.6302032470703
 51
5.369720458984351
  0
ARC
  5
247
330
1F
100
AcDbEntity
  8
2-1
  6
Continuous
 62
     2
370
     9
100
AcDbCircle
 10
1591.047957136825
 20
421.2939618084883
 30
0.0
 40
16.99999925252554
100
AcDbArc
 50
30.29380798339844
 51
80.31242370605469
  0
ARC
  5
248
330
1F
100
AcDbEntity
  8
2-1
  6
Continuous
 62
     2
370
     9
100
AcDbCircle
 10
1591.047957136825
 20
421.2939618084883
 30
0.0
 40
14.99999922675056
100
AcDbArc
 50
16.43836975097655
 51
80.31378173828124
  0
ARC
  5
249
330
1F
100
AcDbEntity
  8
2-1
  6
Continuous
 62
     2
370
     9
100
AcDbCircle
 10
1591.047957136825
 20
484.381837587099
 30
0.0
 40
16.99999925252554
100
AcDbArc
 50
279.6874084472657
 51
329.7064361572266
  0
ARC
  5
24A
330
1F
100
AcDbEntity
  8
2-1
  6
Continuous
 62
     2
370
     9
100
AcDbCircle
 10
1591.047957136825
 20
484.381837587099
 30
0.0
 40
14.99999922675056
100
AcDbArc
 50
279.6860046386719
 51
343.5626373291016
  0
ARC
  5
24B
330
1F
100
AcDbEntity
  8
2-1
  6
JWW_HOJO
 62
     2
370
     9
100
AcDbCircle
 10
1232.432432432433
 20
452.837837837838
 30
0.0
 40
374.9999690700222
100
AcDbArc
 50
54.97320556640627
 51
65.02680969238284
  0
ARC
  5
24C
330
1F
100
AcDbEntity
  8
2-1
  6
JWW_HOJO
 62
     2
370
     9
100
AcDbCircle
 10
1232.432432432433
 20
452.837837837838
 30
0.0
 40
374.378895115208
100
AcDbArc
 50
56.38861083984379
 51
63.61140441894536
  0
ARC
  5
24D
330
1F
100
AcDbEntity
  8
2-1
  6
Continuous
 62
     2
370
     9
100
AcDbCircle
 10
1414.432340054899
 20
768.0709756387248
 30
0.0
 40
14.99999922675056
100
AcDbArc
 50
159.6860046386719
 51
320.3137817382812
  0
ARC
  5
24E
330
1F
100
AcDbEntity
  8
2-1
  6
Continuous
 62
     2
370
     9
100
AcDbCircle
 10
1414.432340054899
 20
768.0709756387248
 30
0.0
 40
16.99999925252554
100
AcDbArc
 50
159.6881103515625
 51
320.3124237060547
  0
CIRCLE
  5
24F
330
1F
100
AcDbEntity
  8
2-1
  6
Continuous
 62
     2
370
     9
100
AcDbCircle
 10
1414.432340054899
 20
768.0709756387248
 30
0.0
 40
5.999999594044041
  0
CIRCLE
  5
250
330
1F
100
AcDbEntity
  8
2-1
  6
Continuous
 62
     2
370
     9
100
AcDbCircle
 10
1414.432340054899
 20
768.0709756387248
 30
0.0
 40
4.99999958115655
  0
ARC
  5
251
330
1F
100
AcDbEntity
  8
2-1
  6
Continuous
 62
     2
370
     9
100
AcDbCircle
 10
1414.75450670397
 20
768.6287049989443
 30
0.0
 40
6.034515032897124
100
AcDbArc
 50
323.8723297119141
 51
156.1265258789063
  0
ARC
  5
252
330
1F
100
AcDbEntity
  8
2-6
  6
Continuous
 62
     6
370
     5
100
AcDbCircle
 10
1232.432432432433
 20
452.837837837838
 30
0.0
 40
373.9999719568201
100
AcDbArc
 50
54.63020324707032
 51
65.36972045898439
  0
ARC
  5
253
330
1F
100
AcDbEntity
  8
2-1
  6
Continuous
 62
     2
370
     9
100
AcDbCircle
 10
1439.058046083193
 20
747.6359104465794
 30
0.0
 40
16.99999925252554
100
AcDbArc
 50
90.29380798339847
 51
140.3124237060547
  0
ARC
  5
254
330
1F
100
AcDbEntity
  8
2-1
  6
Continuous
 62
     2
370
     9
100
AcDbCircle
 10
1439.058046083193
 20
747.6359104465794
 30
0.0
 40
14.99999922675056
100
AcDbArc
 50
76.43836975097659
 51
140.3137817382813
  0
ARC
  5
255
330
1F
100
AcDbEntity
  8
2-1
  6
Continuous
 62
     2
370
     9
100
AcDbCircle
 10
1384.422343486065
 20
779.1800339157519
 30
0.0
 40
16.99999925252554
100
AcDbArc
 50
339.6874084472656
 51
29.70643615722651
  0
ARC
  5
256
330
1F
100
AcDbEntity
  8
2-1
  6
Continuous
 62
     2
370
     9
100
AcDbCircle
 10
1384.422343486065
 20
779.1800339157519
 30
0.0
 40
14.99999922675056
100
AcDbArc
 50
339.6860046386719
 51
43.56263732910156
  0
ARC
  5
257
330
1F
100
AcDbEntity
  8
2-3
  6
Continuous
 62
     4
370
     9
100
AcDbCircle
 10
1232.432432432433
 20
452.837837837838
 30
0.0
 40
364.9999670080237
100
AcDbArc
 50
125.5025482177734
 51
174.4974060058593
  0
ARC
  5
258
330
1F
100
AcDbEntity
  8
2-3
  6
Continuous
 62
     4
370
     9
100
AcDbCircle
 10
1232.432432432433
 20
452.837837837838
 30
0.0
 40
373.9999719568201
100
AcDbArc
 50
125.3697204589844
 51
174.6302032470703
  0
ARC
  5
259
330
1F
100
AcDbEntity
  8
2-3
  6
Continuous
 62
     4
370
     9
100
AcDbCircle
 10
1232.432432432433
 20
452.837837837838
 30
0.0
 40
373.9999719568201
100
AcDbArc
 50
185.3697204589844
 51
234.6301879882812
  0
ARC
  5
25A
330
1F
100
AcDbEntity
  8
2-3
  6
Continuous
 62
     4
370
     9
100
AcDbCircle
 10
1232.432432432433
 20
452.837837837838
 30
0.0
 40
364.9999670080237
100
AcDbArc
 50
185.5025482177734
 51
234.4974365234376
  0
ARC
  5
25B
330
1F
100
AcDbEntity
  8
2-3
  6
Continuous
 62
     4
370
     9
100
AcDbCircle
 10
1232.432432432433
 20
452.837837837838
 30
0.0
 40
373.9999719568201
100
AcDbArc
 50
245.3697052001953
 51
294.6302032470703
  0
ARC
  5
25C
330
1F
100
AcDbEntity
  8
2-3
  6
Continuous
 62
     4
370
     9
100
AcDbCircle
 10
1232.432432432433
 20
452.837837837838
 30
0.0
 40
364.9999670080237
100
AcDbArc
 50
245.5025024414062
 51
294.4974212646484
  0
ARC
  5
25D
330
1F
100
AcDbEntity
  8
2-3
  6
Continuous
 62
     4
370
     9
100
AcDbCircle
 10
1232.432432432433
 20
452.837837837838
 30
0.0
 40
373.9999719568201
100
AcDbArc
 50
305.3697204589844
 51
354.6302032470703
  0
ARC
  5
25E
330
1F
100
AcDbEntity
  8
2-3
  6
Continuous
 62
     4
370
     9
100
AcDbCircle
 10
1232.432432432433
 20
452.837837837838
 30
0.0
 40
364.9999670080237
100
AcDbArc
 50
305.5025482177734
 51
354.4974060058594
  0
ARC
  5
25F
330
1F
100
AcDbEntity
  8
2-3
  6
Continuous
 62
     4
370
     9
100
AcDbCircle
 10
1232.432432432433
 20
452.837837837838
 30
0.0
 40
373.9999719568201
100
AcDbArc
 50
5.369720458984375
 51
54.63020324707031
  0
ARC
  5
260
330
1F
100
AcDbEntity
  8
2-3
  6
Continuous
 62
     4
370
     9
100
AcDbCircle
 10
1232.432432432433
 20
452.837837837838
 30
0.0
 40
373.9999719568201
100
AcDbArc
 50
65.36970520019531
 51
114.6302032470703
  0
ARC
  5
261
330
1F
100
AcDbEntity
  8
2-3
  6
Continuous
 62
     4
370
     9
100
AcDbCircle
 10
1232.432432432433
 20
452.837837837838
 30
0.0
 40
364.9999670080237
100
AcDbArc
 50
5.502548217773438
 51
54.4974365234375
  0
ARC
  5
262
330
1F
100
AcDbEntity
  8
2-3
  6
Continuous
 62
     4
370
     9
100
AcDbCircle
 10
1232.432432432433
 20
452.837837837838
 30
0.0
 40
364.9999670080237
100
AcDbArc
 50
65.50250244140625
 51
114.4974212646484
  0
CIRCLE
  5
263
330
1F
100
AcDbEntity
  8
2-B
  6
Continuous
 62
     4
370
     9
100
AcDbCircle
 10
849.1481471706084
 20
836.1218756598396
 30
0.0
 40
5.999999594044041
  0
CIRCLE
  5
264
330
1F
100
AcDbEntity
  8
2-B
  6
Continuous
 62
     4
370
     9
100
AcDbCircle
 10
849.1620038006761
 20
836.1080190297721
 30
0.0
 40
9.500017037262788
  0
CIRCLE
  5
265
330
1F
100
AcDbEntity
  8
2-B
  6
Continuous
 62
     4
370
     9
100
AcDbCircle
 10
849.1481471706084
 20
836.1218756598396
 30
0.0
 40
5.052999548009924
  0
CIRCLE
  5
266
330
1F
100
AcDbEntity
  8
2-B
  6
Continuous
 62
     6
370
     5
100
AcDbCircle
 10
849.1481471706084
 20
836.1218756598396
 30
0.0
 40
11.99999918808808
  0
CIRCLE
  5
267
330
1F
100
AcDbEntity
  8
2-B
  6
Continuous
 62
     4
370
     9
100
AcDbCircle
 10
1615.716717694257
 20
836.1218756598396
 30
0.0
 40
5.999999594044041
  0
CIRCLE
  5
268
330
1F
100
AcDbEntity
  8
2-B
  6
Continuous
 62
     4
370
     9
100
AcDbCircle
 10
1615.70286106419
 20
836.1080190297721
 30
0.0
 40
9.500017037262788
  0
CIRCLE
  5
269
330
1F
100
AcDbEntity
  8
2-B
  6
Continuous
 62
     4
370
     9
100
AcDbCircle
 10
1615.716717694257
 20
836.1218756598396
 30
0.0
 40
5.052999548009924
  0
CIRCLE
  5
26A
330
1F
100
AcDbEntity
  8
2-B
  6
Continuous
 62
     6
370
     5
100
AcDbCircle
 10
1615.716717694257
 20
836.1218756598396
 30
0.0
 40
11.99999918808808
  0
CIRCLE
  5
26B
330
1F
100
AcDbEntity
  8
2-B
  6
Continuous
 62
     4
370
     9
100
AcDbCircle
 10
1615.716717694257
 20
69.5538000158362
 30
0.0
 40
5.999999594044041
  0
CIRCLE
  5
26C
330
1F
100
AcDbEntity
  8
2-B
  6
Continuous
 62
     4
370
     9
100
AcDbCircle
 10
1615.70286106419
 20
69.56765664590392
 30
0.0
 40
9.500017037262788
  0
CIRCLE
  5
26D
330
1F
100
AcDbEntity
  8
2-B
  6
Continuous
 62
     4
370
     9
100
AcDbCircle
 10
1615.716717694257
 20
69.5538000158362
 30
0.0
 40
5.052999548009924
  0
CIRCLE
  5
26E
330
1F
100
AcDbEntity
  8
2-B
  6
Continuous
 62
     6
370
     5
100
AcDbCircle
 10
1615.716717694257
 20
69.5538000158362
 30
0.0
 40
11.99999918808808
  0
CIRCLE
  5
26F
330
1F
100
AcDbEntity
  8
2-B
  6
Continuous
 62
     4
370
     9
100
AcDbCircle
 10
849.1481471706084
 20
69.5538000158362
 30
0.0
 40
5.999999594044041
  0
CIRCLE
  5
270
330
1F
100
AcDbEntity
  8
2-B
  6
Continuous
 62
     4
370
     9
100
AcDbCircle
 10
849.1620038006761
 20
69.56765664590392
 30
0.0
 40
9.500017037262788
  0
CIRCLE
  5
271
330
1F
100
AcDbEntity
  8
2-B
  6
Continuous
 62
     4
370
     9
100
AcDbCircle
 10
849.1481471706084
 20
69.5538000158362
 30
0.0
 40
5.052999548009924
  0
CIRCLE
  5
272
330
1F
100
AcDbEntity
  8
2-B
  6
Continuous
 62
     6
370
     5
100
AcDbCircle
 10
849.1481471706084
 20
69.5538000158362
 30
0.0
 40
11.99999918808808
  0
ARC
  5
273
330
1F
100
AcDbEntity
  8
2-1
  6
JWW_CENTER1
 62
     2
370
     9
100
AcDbCircle
 10
1232.432432432433
 20
452.837837837838
 30
0.0
 40
390.499970719621
100
AcDbArc
 50
119.9999694824219
 51
134.9999694824219
  0
ARC
  5
274
330
1F
100
AcDbEntity
  8
1-1
  6
Continuous
 62
     2
370
     9
100
AcDbCircle
 10
-306.6738231762034
 20
653.2445464263092
 30
0.0
 40
20.00000025774982
100
AcDbArc
 50
183.6424407958985
 51
270.0
  0
ARC
  5
275
330
1F
100
AcDbEntity
  8
1-1
  6
Continuous
 62
     2
370
     9
100
AcDbCircle
 10
-250.0322496568833
 20
653.2445464263092
 30
0.0
 40
20.00000025774982
100
AcDbArc
 50
270.0
 51
351.0242462158203
  0
ARC
  5
276
330
1F
100
AcDbEntity
  8
1-1
  6
Continuous
 62
     2
370
     9
100
AcDbCircle
 10
-59.44791226773646
 20
645.743408203125
 30
0.0
 40
7.500000096656181
100
AcDbArc
 50
8.126098632812502
 51
90.00000000000001
  0
ARC
  5
277
330
1F
100
AcDbEntity
  8
1-1
  6
Continuous
 62
     2
370
     9
100
AcDbCircle
 10
-170.9183151657516
 20
699.5714672191724
 30
0.0
 40
20.00000025774982
100
AcDbArc
 50
183.9444580078125
 51
257.6368865966797
  0
ARC
  5
278
330
1F
100
AcDbEntity
  8
1-1
  6
Continuous
 62
     2
370
     9
100
AcDbCircle
 10
-168.0245064400336
 20
670.7855554529141
 30
0.0
 40
7.500000096656181
100
AcDbArc
 50
8.127426147460938
 51
77.64648437500001
  0
ARC
  5
279
330
1F
100
AcDbEntity
  8
1-1
  6
Continuous
 62
     2
370
     9
100
AcDbCircle
 10
-59.63101773648646
 20
647.0313324799408
 30
0.0
 40
7.500000096656181
100
AcDbArc
 50
8.127426147460938
 51
77.64332580566406
  0
ARC
  5
27A
330
1F
100
AcDbEntity
  8
1-8
  6
Continuous
 62
     6
370
     5
100
AcDbCircle
 10
-261.3145158097549
 20
931.51611328125
 30
0.0
 40
84.88767211501664
100
AcDbArc
 50
10.84390258789062
 51
195.9117126464844
  0
ARC
  5
27B
330
1F
100
AcDbEntity
  8
1-8
  6
Continuous
 62
     6
370
     5
100
AcDbCircle
 10
-255.5932122307854
 20
854.7931897962417
 30
0.0
 40
83.86430740356445
100
AcDbArc
 50
186.2396087646485
 51
337.8056182861329
  0
TEXT
  5
27C
330
1F
100
AcDbEntity
  8
1-4
  6
Continuous
 62
     7
370
     9
100
AcDbText
 10
-1398.870090793919
 20
1041.126032384924
 30
0.0
 40
22.86
  1
ボルト：ＳＳ４００
 41
1.148148148148148
  7
ＭＳ ゴシック
100
AcDbText
  0
TEXT
  5
27D
330
1F
100
AcDbEntity
  8
1-4
  6
Continuous
 62
     7
370
     9
100
AcDbText
 10
-747.6990447173248
 20
1173.921541517103
 30
0.0
 40
22.86
  1
養生材：ポリエチレン
 41
1.15
  7
ＭＳ ゴシック
100
AcDbText
  0
TEXT
  5
27E
330
1F
100
AcDbEntity
  8
1-4
  6
Continuous
 62
     7
370
     9
100
AcDbText
 10
-569.8271715318833
 20
1297.139644874367
 30
0.0
 40
22.86
  1
スリーブ：ボイド管
 41
1.148148148148148
  7
ＭＳ ゴシック
100
AcDbText
  0
TEXT
  5
27F
330
1F
100
AcDbEntity
  8
2-4
  6
Continuous
 62
     2
370
     9
100
AcDbText
 10
1009.932556152344
 20
-174.0217745064398
 30
0.0
 40
30.48
  1
平面図　Ｓ＝１：１０
 41
1.1125
  7
ＭＳ ゴシック
100
AcDbText
  0
TEXT
  5
280
330
1F
100
AcDbEntity
  8
1-4
  6
Continuous
 62
     2
370
     9
100
AcDbText
 10
-50.75380892366965
 20
-236.1166742768157
 30
0.0
 40
30.48
  1
φ748
 41
1.1
  7
ＭＳ ゴシック
100
AcDbText
  0
TEXT
  5
281
330
1F
100
AcDbEntity
  8
1-4
  6
Continuous
 62
     7
370
     9
100
AcDbText
 10
-1356.777630367794
 20
993.8298898067992
 30
0.0
 40
22.86
  1
電気亜鉛めっき
 41
1.142857142857143
  7
ＭＳ ゴシック
100
AcDbText
  0
TEXT
  5
282
330
1F
100
AcDbEntity
  8
2-4
  6
Continuous
 62
     2
370
     9
100
AcDbText
 10
1463.792274070946
 20
431.5877141179267
 30
0.0
 40
30.48
  1
70
 50
90.0
 41
1.0625
  7
ＭＳ ゴシック
100
AcDbText
  0
TEXT
  5
283
330
1F
100
AcDbEntity
  8
1-0
  6
Continuous
 62
     2
370
     9
100
AcDbText
 10
-872.913636903505
 20
-366.9908131862331
 30
0.0
 40
30.48
  1
Ａ－Ａ'断面図　Ｓ＝１：２
 41
1.115
  7
ＭＳ ゴシック
100
AcDbText
  0
TEXT
  5
284
330
1F
100
AcDbEntity
  8
2-4
  6
Continuous
 62
     3
370
     9
100
AcDbText
 10
634.4126316173463
 20
886.2570698800075
 30
0.0
 40
38.1
  1
Ａ
 50
314.9997995031669
 41
1.000000000000001
  7
ＭＳ ゴシック
100
AcDbText
  0
TEXT
  5
285
330
1F
100
AcDbEntity
  8
2-4
  6
Continuous
 62
     3
370
     9
100
AcDbText
 10
998.1278668020439
 20
625.8848283524991
 30
0.0
 40
38.1
  1
Ａ'
 50
300.0000802209097
 41
1.066666666666666
  7
ＭＳ ゴシック
100
AcDbText
  0
TEXT
  5
286
330
1F
100
AcDbEntity
  8
1-0
  6
Continuous
 62
     7
370
     9
100
AcDbText
 10
-882.7529783506651
 20
471.9347647012248
 30
0.0
 40
22.86
  1
平座金・・
 41
1.133333333333333
  7
ＭＳ ゴシック
100
AcDbText
  0
TEXT
  5
287
330
1F
100
AcDbEntity
  8
1-0
  6
Continuous
 62
     7
370
     9
100
AcDbText
 10
-882.7529742266679
 20
415.0703716216216
 30
0.0
 40
22.86
  1
六角ナット：ＳＳ４００，電気亜鉛めっき
 41
1.157894736842105
  7
ＭＳ ゴシック
100
AcDbText
  0
TEXT
  5
288
330
1F
100
AcDbEntity
  8
1-0
  6
Continuous
 62
     7
370
     9
100
AcDbText
 10
-707.7529948466532
 20
471.9347647012248
 30
0.0
 40
22.86
  1
：ＳＳ４００，電気亜鉛めっき
 41
1.154761904761905
  7
ＭＳ ゴシック
100
AcDbText
  0
TEXT
  5
289
330
1F
100
AcDbEntity
  8
F-0
  6
Continuous
 62
     2
370
     9
100
AcDbText
 10
259.4594264674832
 20
-1025.305945945946
 30
0.0
 40
30.48
  1
※この図面は、ＭＷＡ－７５０角枠にセットしたＭＳＶ－２を示します。
 41
1.121212121212121
  7
ＭＳ ゴシック
100
AcDbText
  0
LWPOLYLINE
  5
28A
330
1F
100
AcDbEntity
  8
1-4
  6
Continuous
 62
     7
370
     9
100
AcDbPolyline
 90
        4
 70
     1
 43
2.0
 10
-176.9426368507177
 20
-251.7567072687922
 42
0.4142135623731
 10
-177.9426368507177
 20
-250.7567072687922
 42
0.4142135623731
 10
-178.9426368507177
 20
-251.7567072687922
 42
0.4142135623731
 10
-177.9426368507177
 20
-252.7567072687922
 42
0.4142135623731
  0
LWPOLYLINE
  5
28B
330
1F
100
AcDbEntity
  8
1-4
  6
Continuous
 62
     7
370
     9
100
AcDbPolyline
 90
        4
 70
     1
 43
2.0
 10
43.04918113914715
 20
-91.75679799672707
 42
0.4142135623731
 10
42.04918113914715
 20
-90.75679799672707
 42
0.4142135623731
 10
41.04918113914715
 20
-91.75679799672707
 42
0.4142135623731
 10
42.04918113914715
 20
-92.75679799672707
 42
0.4142135623731
  0
LWPOLYLINE
  5
28C
330
1F
100
AcDbEntity
  8
1-4
  6
Continuous
 62
     7
370
     9
100
AcDbPolyline
 90
        4
 70
     1
 43
2.0
 10
43.04918113914715
 20
1158.243243243243
 42
0.4142135623731
 10
42.04918113914715
 20
1159.243243243243
 42
0.4142135623731
 10
41.04918113914715
 20
1158.243243243243
 42
0.4142135623731
 10
42.04918113914715
 20
1157.243243243243
 42
0.4142135623731
  0
LWPOLYLINE
  5
28D
330
1F
100
AcDbEntity
  8
1-4
  6
Continuous
 62
     7
370
     9
100
AcDbPolyline
 90
        4
 70
     1
 43
2.0
 10
-1367.175692171664
 20
-91.75679799672707
 42
0.4142135623731
 10
-1368.175692171664
 20
-90.75679799672707
 42
0.4142135623731
 10
-1369.175692171664
 20
-91.75679799672707
 42
0.4142135623731
 10
-1368.175692171664
 20
-92.75679799672707
 42
0.4142135623731
  0
LWPOLYLINE
  5
28E
330
1F
100
AcDbEntity
  8
1-4
  6
Continuous
 62
     7
370
     9
100
AcDbPolyline
 90
        4
 70
     1
 43
2.0
 10
-1367.175692171664
 20
808.2428308435391
 42
0.4142135623731
 10
-1368.175692171664
 20
809.242830843539
 42
0.4142135623731
 10
-1369.175692171664
 20
808.2428308435391
 42
0.4142135623731
 10
-1368.175692171664
 20
807.2428308435392
 42
0.4142135623731
  0
LWPOLYLINE
  5
28F
330
1F
100
AcDbEntity
  8
1-4
  6
Continuous
 62
     7
370
     9
100
AcDbPolyline
 90
        4
 70
     1
 43
2.0
 10
-1467.175774651605
 20
-91.75679799672707
 42
0.4142135623731
 10
-1468.175774651605
 20
-90.75679799672707
 42
0.4142135623731
 10
-1469.175774651605
 20
-91.75679799672707
 42
0.4142135623731
 10
-1468.175774651605
 20
-92.75679799672707
 42
0.4142135623731
  0
LWPOLYLINE
  5
290
330
1F
100
AcDbEntity
  8
1-4
  6
Continuous
 62
     7
370
     9
100
AcDbPolyline
 90
        4
 70
     1
 43
2.0
 10
-1467.175774651605
 20
908.2431607633026
 42
0.4142135623731
 10
-1468.175774651605
 20
909.2431607633025
 42
0.4142135623731
 10
-1469.175774651605
 20
908.2431607633026
 42
0.4142135623731
 10
-1468.175774651605
 20
907.2431607633027
 42
0.4142135623731
  0
LWPOLYLINE
  5
291
330
1F
100
AcDbEntity
  8
2-4
  6
Continuous
 62
     7
370
     9
100
AcDbPolyline
 90
        4
 70
     1
 43
2.0
 10
1480.432307062922
 20
417.8377223659209
 42
0.4142135623731
 10
1479.432307062923
 20
418.8377223659209
 42
0.4142135623731
 10
1478.432307062923
 20
417.8377223659209
 42
0.4142135623731
 10
1479.432307062923
 20
416.8377223659209
 42
0.4142135623731
  0
LWPOLYLINE
  5
292
330
1F
100
AcDbEntity
  8
2-4
  6
Continuous
 62
     7
370
     9
100
AcDbPolyline
 90
        4
 70
     1
 43
2.0
 10
1480.432307062922
 20
487.8377058699326
 42
0.4142135623731
 10
1479.432307062923
 20
488.8377058699326
 42
0.4142135623731
 10
1478.432307062923
 20
487.8377058699326
 42
0.4142135623731
 10
1479.432307062923
 20
486.8377058699326
 42
0.4142135623731
  0
TEXT
  5
293
330
1F
100
AcDbEntity
  8
F-4
  6
Continuous
 62
     2
370
     9
100
AcDbText
 10
-1483.815745783626
 20
375.7432432432433
 30
0.0
 40
30.48
  1
200
 50
90.0
 41
1.083333333333333
  7
ＭＳ ゴシック
100
AcDbText
  0
TEXT
  5
294
330
1F
100
AcDbEntity
  8
F-4
  6
Continuous
 62
     2
370
     9
100
AcDbText
 10
-1383.815663303684
 20
325.7429545634503
 30
0.0
 40
30.48
  1
180
 50
90.0
 41
1.083333333333333
  7
ＭＳ ゴシック
100
AcDbText
  0
TEXT
  5
295
330
1F
100
AcDbEntity
  8
F-4
  6
Continuous
 62
     2
370
     9
100
AcDbText
 10
26.40914814717085
 20
500.7431607633025
 30
0.0
 40
30.48
  1
250
 50
90.0
 41
1.083333333333333
  7
ＭＳ ゴシック
100
AcDbText
  0
TEXT
  5
296
330
1F
100
AcDbEntity
  8
1-5
  6
Continuous
 62
     6
370
     5
100
AcDbText
 10
-802.3542438948164
 20
-1357.835783277917
 30
0.0
 40
30.48
  1
打込型マンホール鉄蓋　サポートＶ　ＭＳＶ－２－７５０　Ｃ＝２００
 41
0.9234374999999998
  7
ＭＳ ゴシック
100
AcDbText
  0
LINE
  5
297
330
1F
100
AcDbEntity
  8
1-8
  6
Continuous
 62
     3
370
     9
100
AcDbLine
 10
-1115.675848883551
 20
-78.75692831503358
 30
0.0
 11
-1115.675848883551
 21
-83.75669737119921
 31
0.0
  0
LINE
  5
298
330
1F
100
AcDbEntity
  8
1-8
  6
Continuous
 62
     3
370
     9
100
AcDbLine
 10
-1090.675766403611
 20
-78.75692831503358
 30
0.0
 11
-1115.675848883551
 21
-78.75692831503358
 31
0.0
  0
LINE
  5
299
330
1F
100
AcDbEntity
  8
1-8
  6
Continuous
 62
     3
370
     9
100
AcDbLine
 10
-1090.675766403611
 20
-78.75692831503358
 30
0.0
 11
-1090.675766403611
 21
-83.75669737119921
 31
0.0
  0
LINE
  5
29A
330
1F
100
AcDbEntity
  8
1-8
  6
Continuous
 62
     3
370
     9
100
AcDbLine
 10
-920.6758241395692
 20
-78.75692831503358
 30
0.0
 11
-920.6758241395692
 21
-83.75669737119921
 31
0.0
  0
LINE
  5
29B
330
1F
100
AcDbEntity
  8
1-8
  6
Continuous
 62
     3
370
     9
100
AcDbLine
 10
-945.67590661951
 20
-78.75692831503358
 30
0.0
 11
-920.6758241395692
 21
-78.75692831503358
 31
0.0
  0
LINE
  5
29C
330
1F
100
AcDbEntity
  8
1-8
  6
Continuous
 62
     3
370
     9
100
AcDbLine
 10
-945.67590661951
 20
-78.75692831503358
 30
0.0
 11
-945.67590661951
 21
-83.75669737119921
 31
0.0
  0
LINE
  5
29D
330
1F
100
AcDbEntity
  8
1-8
  6
JWW_DASHED1
 62
     3
370
     9
100
AcDbLine
 10
-938.1756344357051
 20
-208.7571097709036
 30
0.0
 11
-938.1756344357051
 21
-83.75669737119921
 31
0.0
  0
LINE
  5
29E
330
1F
100
AcDbEntity
  8
1-8
  6
JWW_DASHED1
 62
     3
370
     9
100
AcDbLine
 10
-928.1757251636401
 20
-208.7571097709036
 30
0.0
 11
-928.1757251636401
 21
-83.75669737119921
 31
0.0
  0
LINE
  5
29F
330
1F
100
AcDbEntity
  8
1-8
  6
JWW_DASHED1
 62
     3
370
     9
100
AcDbLine
 10
-928.1757251636401
 20
-208.7571097709036
 30
0.0
 11
-933.1757416596282
 21
-233.7569448110219
 31
0.0
  0
LINE
  5
2A0
330
1F
100
AcDbEntity
  8
1-8
  6
JWW_DASHED1
 62
     3
370
     9
100
AcDbLine
 10
-938.1756344357051
 20
-208.7571097709036
 30
0.0
 11
-933.1757416596282
 21
-233.7569448110219
 31
0.0
  0
LINE
  5
2A1
330
1F
100
AcDbEntity
  8
1-8
  6
JWW_DASHED1
 62
     3
370
     9
100
AcDbLine
 10
-1098.175914867504
 20
-208.7571097709036
 30
0.0
 11
-1098.175914867504
 21
-83.75669737119921
 31
0.0
  0
LINE
  5
2A2
330
1F
100
AcDbEntity
  8
1-8
  6
JWW_DASHED1
 62
     3
370
     9
100
AcDbLine
 10
-1108.175824139569
 20
-208.7571097709036
 30
0.0
 11
-1108.175824139569
 21
-83.75669737119921
 31
0.0
  0
LINE
  5
2A3
330
1F
100
AcDbEntity
  8
1-8
  6
JWW_DASHED1
 62
     3
370
     9
100
AcDbLine
 10
-1108.175824139569
 20
-208.7571097709036
 30
0.0
 11
-1103.175807643581
 21
-233.7569448110219
 31
0.0
  0
LINE
  5
2A4
330
1F
100
AcDbEntity
  8
1-8
  6
JWW_DASHED1
 62
     3
370
     9
100
AcDbLine
 10
-1098.175914867504
 20
-208.7571097709036
 30
0.0
 11
-1103.175807643581
 21
-233.7569448110219
 31
0.0
  0
LINE
  5
2A5
330
1F
100
AcDbEntity
  8
1-A
  6
Continuous
 62
     2
370
     9
100
AcDbLine
 10
-1055.424513349499
 20
-72.42797912182311
 30
0.0
 11
-1063.175915590027
 21
-78.75682070092438
 31
0.0
  0
LINE
  5
2A6
330
1F
100
AcDbEntity
  8
1-A
  6
Continuous
 62
     2
370
     9
100
AcDbLine
 10
-1055.424513349499
 20
-72.42797912182311
 30
0.0
 11
-1048.703527376608
 21
-72.42797912182311
 31
0.0
  0
LINE
  5
2A7
330
1F
100
AcDbEntity
  8
1-A
  6
Continuous
 62
     2
370
     9
100
AcDbLine
 10
-1048.703527376608
 20
-72.42797912182311
 30
0.0
 11
-1048.703527376608
 21
-83.7568766706616
 31
0.0
  0
LINE
  5
2A8
330
1F
100
AcDbEntity
  8
1-A
  6
Continuous
 62
     2
370
     9
100
AcDbLine
 10
-1063.175915590027
 20
-78.75682070092438
 30
0.0
 11
-1063.175912218279
 21
-83.75682946619122
 31
0.0
  0
LINE
  5
2A9
330
1F
100
AcDbEntity
  8
1-A
  6
Continuous
 62
     2
370
     9
100
AcDbLine
 10
-1060.675774651605
 20
-43.75687533026721
 30
0.0
 11
-1060.675774651605
 21
-76.71552744461806
 31
0.0
  0
LINE
  5
2AA
330
1F
100
AcDbEntity
  8
1-A
  6
Continuous
 62
     2
370
     9
100
AcDbLine
 10
-980.9270005503574
 20
-72.42793697497461
 30
0.0
 11
-973.1755915663334
 21
-78.75685947602506
 31
0.0
  0
LINE
  5
2AB
330
1F
100
AcDbEntity
  8
1-A
  6
Continuous
 62
     2
370
     9
100
AcDbLine
 10
-980.9270005503574
 20
-72.42793697497461
 30
0.0
 11
-987.6479780938782
 21
-72.42793191735274
 31
0.0
  0
LINE
  5
2AC
330
1F
100
AcDbEntity
  8
1-A
  6
Continuous
 62
     2
370
     9
100
AcDbLine
 10
-987.6479780938782
 20
-72.42793191735274
 30
0.0
 11
-987.6479780938782
 21
-83.75682946619122
 31
0.0
  0
LINE
  5
2AD
330
1F
100
AcDbEntity
  8
1-A
  6
Continuous
 62
     2
370
     9
100
AcDbLine
 10
-973.1755915663334
 20
-78.75685947602506
 30
0.0
 11
-973.1755932522074
 21
-83.7568766706616
 31
0.0
  0
LINE
  5
2AE
330
1F
100
AcDbEntity
  8
1-A
  6
Continuous
 62
     2
370
     9
100
AcDbLine
 10
-975.6757746516047
 20
-43.75695962396421
 30
0.0
 11
-975.6757291330081
 21
-76.7154819260216
 31
0.0
  0
LINE
  5
2AF
330
1F
100
AcDbEntity
  8
1-A
  6
Continuous
 62
     2
370
     9
100
AcDbLine
 10
-1060.675774651605
 20
-43.75687533026721
 30
0.0
 11
-975.6757746516047
 21
-43.75695962396421
 31
0.0
  0
LINE
  5
2B0
330
1F
100
AcDbEntity
  8
1-0
  6
Continuous
 62
     4
370
     9
100
AcDbLine
 10
-1123.175778314822
 20
-91.75679799672707
 30
0.0
 11
-913.1757783148296
 21
-91.75690814010096
 31
0.0
  0
LINE
  5
2B1
330
1F
100
AcDbEntity
  8
1-0
  6
Continuous
 62
     4
370
     9
100
AcDbLine
 10
-1123.1757777503
 20
-83.75679799672639
 30
0.0
 11
-1123.175778314822
 21
-91.75679799672707
 31
0.0
  0
LINE
  5
2B2
330
1F
100
AcDbEntity
  8
1-0
  6
Continuous
 62
     4
370
     9
100
AcDbLine
 10
-1123.1757777503
 20
-83.75679799672639
 30
0.0
 11
-913.1757777503077
 21
-83.75690814010014
 31
0.0
  0
LINE
  5
2B3
330
1F
100
AcDbEntity
  8
1-0
  6
Continuous
 62
     4
370
     9
100
AcDbLine
 10
-913.1757777503077
 20
-83.75690814010014
 30
0.0
 11
-913.1757783148296
 21
-91.75690814010096
 31
0.0
  0
LINE
  5
2B4
330
1F
100
AcDbEntity
  8
1-0
  6
JWW_CENTER1
 62
     4
370
     9
100
AcDbLine
 10
-1103.175774651605
 20
-97.9456133075685
 30
0.0
 11
-1103.175774651605
 21
-75.09718666600463
 31
0.0
  0
LINE
  5
2B5
330
1F
100
AcDbEntity
  8
1-0
  6
Continuous
 62
     4
370
     9
100
AcDbLine
 10
-1093.175774651605
 20
-91.75681373149672
 30
0.0
 11
-1093.175774651605
 21
-83.75681373149575
 31
0.0
  0
LINE
  5
2B6
330
1F
100
AcDbEntity
  8
1-0
  6
Continuous
 62
     4
370
     9
100
AcDbLine
 10
-1113.175774651605
 20
-91.75680324165171
 30
0.0
 11
-1113.175774651605
 21
-83.75680324165046
 31
0.0
  0
LINE
  5
2B7
330
1F
100
AcDbEntity
  8
1-0
  6
JWW_CENTER1
 62
     4
370
     9
100
AcDbLine
 10
-933.175781355402
 20
-97.94562530366136
 30
0.0
 11
-933.175781355402
 21
-75.09719866209736
 31
0.0
  0
LINE
  5
2B8
330
1F
100
AcDbEntity
  8
1-0
  6
Continuous
 62
     4
370
     9
100
AcDbLine
 10
-943.175781355402
 20
-91.75682572758959
 30
0.0
 11
-943.175781355402
 21
-83.75682572758848
 31
0.0
  0
LINE
  5
2B9
330
1F
100
AcDbEntity
  8
1-0
  6
Continuous
 62
     4
370
     9
100
AcDbLine
 10
-923.175781355402
 20
-91.75681523774443
 30
0.0
 11
-923.175781355402
 21
-83.75681523774347
 31
0.0
  0
LINE
  5
2BA
330
1F
100
AcDbEntity
  8
1-0
  6
Continuous
 62
     4
370
     9
100
AcDbLine
 10
-985.6757777503051
 20
-83.75687011441158
 30
0.0
 11
-985.6757783148271
 21
-91.75687011441241
 31
0.0
  0
LINE
  5
2BB
330
1F
100
AcDbEntity
  8
1-0
  6
Continuous
 62
     4
370
     9
100
AcDbLine
 10
-1050.675777750303
 20
-83.75683602241494
 30
0.0
 11
-1050.675778314825
 21
-91.75683602241577
 31
0.0
  0
LINE
  5
2BC
330
1F
100
AcDbEntity
  8
1-4
  6
Continuous
 62
     7
370
     9
100
AcDbLine
 10
-984.1758109427786
 20
-43.75694722793043
 30
0.0
 11
-974.6085502005911
 21
-20.66004814378772
 31
0.0
  0
LINE
  5
2BD
330
1F
100
AcDbEntity
  8
1-4
  6
Continuous
 62
     7
370
     9
100
AcDbLine
 10
-984.1758109427786
 20
-43.75694722793043
 30
0.0
 11
-968.9567772117821
 21
-23.92316080478849
 31
0.0
  0
LINE
  5
2BE
330
1F
100
AcDbEntity
  8
1-4
  6
Continuous
 62
     7
370
     9
100
AcDbLine
 10
-984.1758109427786
 20
-43.75694722793043
 30
0.0
 11
-926.4406771273225
 21
56.24301153209927
 31
0.0
  0
TEXT
  5
2BF
330
1F
100
AcDbEntity
  8
1-4
  6
Continuous
 62
     6
370
     0
100
AcDbText
 10
-916.309009448902
 20
71.25705760209483
 30
0.0
 40
22.86
  1
固定プレート：ＳＧＨＣ他
 41
0.8944444444444445
  7
ＭＳ ゴシック
100
AcDbText
  0
LINE
  5
2C0
330
1F
100
AcDbEntity
  8
1-4
  6
Continuous
 62
     7
370
     9
100
AcDbLine
 10
-926.4406771273225
 20
56.24301153209927
 30
0.0
 11
-592.9593364164792
 21
56.24301153209927
 31
0.0
  0
LINE
  5
2C1
330
1F
100
AcDbEntity
  8
1-8
  6
Continuous
 62
     3
370
     9
100
AcDbLine
 10
-1048.175626187711
 20
264.8523609058279
 30
0.0
 11
-1048.175626187711
 21
-43.75688772654637
 31
0.0
  0
LINE
  5
2C2
330
1F
100
AcDbEntity
  8
1-8
  6
Continuous
 62
     3
370
     9
100
AcDbLine
 10
-1043.175609691723
 20
266.1921238254857
 30
0.0
 11
-1043.175609691723
 21
-43.75689268501546
 31
0.0
  0
LINE
  5
2C3
330
1F
100
AcDbEntity
  8
1-8
  6
Continuous
 62
     3
370
     9
100
AcDbLine
 10
-993.1756921716637
 20
279.5896293021539
 30
0.0
 11
-993.1756921716637
 21
-43.75694226946131
 31
0.0
  0
LINE
  5
2C4
330
1F
100
AcDbEntity
  8
1-8
  6
Continuous
 62
     3
370
     9
100
AcDbLine
 10
-988.1756756756756
 20
280.9293922218117
 30
0.0
 11
-988.1756756756756
 21
-43.75694722793043
 31
0.0
  0
LINE
  5
2C5
330
1F
100
AcDbEntity
  8
1-4
  6
Continuous
 62
     2
370
     9
100
AcDbLine
 10
-1368.175815891575
 20
-1036.08081714527
 30
0.0
 11
-1368.175815891575
 21
-971.0813450168919
 31
0.0
  0
LINE
  5
2C6
330
1F
100
AcDbEntity
  8
1-9
  6
JWW_CENTER1
 62
     2
370
     9
100
AcDbLine
 10
-1018.175774651605
 20
-537.154169855891
 30
0.0
 11
-1018.175774651605
 21
-795.0084871859165
 31
0.0
  0
LINE
  5
2C7
330
1F
100
AcDbEntity
  8
1-9
  6
JWW_CENTER1
 62
     2
370
     9
100
AcDbLine
 10
-1147.103057036529
 20
-666.0813285209036
 30
0.0
 11
-889.2484922666804
 21
-666.0813285209036
 31
0.0
  0
LINE
  5
2C8
330
1F
100
AcDbEntity
  8
1-4
  6
Continuous
 62
     2
370
     9
100
AcDbLine
 10
-1368.175815891575
 20
-971.0813450168919
 30
0.0
 11
-668.1756096917227
 21
-971.0813450168919
 31
0.0
  0
LINE
  5
2C9
330
1F
100
AcDbEntity
  8
1-4
  6
Continuous
 62
     2
370
     9
100
AcDbLine
 10
-668.1756096917227
 20
-1036.08081714527
 30
0.0
 11
-668.1756096917227
 21
-971.0813450168919
 31
0.0
  0
LINE
  5
2CA
330
1F
100
AcDbEntity
  8
1-4
  6
Continuous
 62
     2
370
     9
100
AcDbLine
 10
-668.1756096917227
 20
-1036.08081714527
 30
0.0
 11
-1368.175815891575
 21
-1036.08081714527
 31
0.0
  0
LINE
  5
2CB
330
1F
100
AcDbEntity
  8
1-4
  6
Continuous
 62
     7
370
     9
100
AcDbLine
 10
-1123.175749907622
 20
-871.0813862568623
 30
0.0
 11
-913.1757993955866
 21
-871.0813862568623
 31
0.0
  0
LINE
  5
2CC
330
1F
100
AcDbEntity
  8
1-4
  6
Continuous
 62
     7
370
     9
100
AcDbLine
 10
-1123.175749907622
 20
-691.0812872809332
 30
0.0
 11
-1123.175749907622
 21
-874.0813466664906
 31
0.0
  0
LINE
  5
2CD
330
1F
100
AcDbEntity
  8
1-4
  6
Continuous
 62
     7
370
     9
100
AcDbLine
 10
-913.1757993955866
 20
-691.0812872809332
 30
0.0
 11
-913.1757993955866
 21
-874.0813466664906
 31
0.0
  0
LINE
  5
2CE
330
1F
100
AcDbEntity
  8
1-4
  6
Continuous
 62
     7
370
     9
100
AcDbLine
 10
-813.1758406355572
 20
-751.0813615128801
 30
0.0
 11
-813.1758406355572
 21
-581.0812955289273
 31
0.0
  0
LINE
  5
2CF
330
1F
100
AcDbEntity
  8
1-4
  6
Continuous
 62
     7
370
     9
100
AcDbLine
 10
-993.1756921716636
 20
-751.0813615128801
 30
0.0
 11
-810.1758802259287
 21
-751.0813615128801
 31
0.0
  0
LINE
  5
2D0
330
1F
100
AcDbEntity
  8
1-4
  6
Continuous
 62
     7
370
     9
100
AcDbLine
 10
-993.1756921716636
 20
-581.0812955289273
 30
0.0
 11
-810.1758802259287
 21
-581.0812955289273
 31
0.0
  0
LINE
  5
2D1
330
1F
100
AcDbEntity
  8
1-4
  6
Continuous
 62
     7
370
     9
100
AcDbLine
 10
-1013.175758155616
 20
-572.421025456609
 30
0.0
 11
-1003.608744853251
 21
-549.3241263724661
 31
0.0
  0
LINE
  5
2D2
330
1F
100
AcDbEntity
  8
1-4
  6
Continuous
 62
     7
370
     9
100
AcDbLine
 10
-1013.175758155616
 20
-572.421025456609
 30
0.0
 11
-997.9567244246197
 21
-552.5871153135557
 31
0.0
  0
LINE
  5
2D3
330
1F
100
AcDbEntity
  8
1-4
  6
Continuous
 62
     7
370
     9
100
AcDbLine
 10
-1013.175758155616
 20
-572.421025456609
 30
0.0
 11
-974.8745480099237
 21
-506.0812955289273
 31
0.0
  0
LINE
  5
2D4
330
1F
100
AcDbEntity
  8
1-4
  6
Continuous
 62
     7
370
     9
100
AcDbLine
 10
-974.8745480099237
 20
-506.0812955289273
 30
0.0
 11
-817.7606531091636
 21
-506.0812955289273
 31
0.0
  0
TEXT
  5
2D5
330
1F
100
AcDbEntity
  8
1-4
  6
Continuous
 62
     7
370
     0
100
AcDbText
 10
-962.7887457770269
 20
-493.9034047059755
 30
0.0
 40
22.86
  1
４－φ４
 41
1.125
  7
ＭＳ ゴシック
100
AcDbText
  0
TEXT
  5
2D6
330
1F
100
AcDbEntity
  8
1-4
  6
Continuous
 62
     2
370
     0
100
AcDbText
 10
-828.8158736275335
 20
-687.3313285209036
 30
0.0
 40
30.48
  1
34
 50
90.0
 41
1.0625
  7
ＭＳ ゴシック
100
AcDbText
  0
TEXT
  5
2D7
330
1F
100
AcDbEntity
  8
1-4
  6
Continuous
 62
     2
370
     0
100
AcDbText
 10
-1061.925867441538
 20
-855.441353264886
 30
0.0
 40
30.48
  1
φ42
 41
1.09375
  7
ＭＳ ゴシック
100
AcDbText
  0
TEXT
  5
2D8
330
1F
100
AcDbEntity
  8
1-4
  6
Continuous
 62
     2
370
     0
100
AcDbText
 10
-1353.175650931693
 20
-1017.941147065034
 30
0.0
 40
30.48
  1
固定プレート平面図　Ｓ＝１：２
 41
1.116666666666666
  7
ＭＳ ゴシック
100
AcDbText
  0
LWPOLYLINE
  5
2D9
330
1F
100
AcDbEntity
  8
1-4
  6
Continuous
 62
     7
370
     9
100
AcDbPolyline
 90
        4
 70
     1
 43
2.0
 10
-1122.175749907622
 20
-871.0813862568623
 42
0.4142135623731
 10
-1123.175749907622
 20
-870.0813862568623
 42
0.4142135623731
 10
-1124.175749907622
 20
-871.0813862568623
 42
0.4142135623731
 10
-1123.175749907622
 20
-872.0813862568622
 42
0.4142135623731
  0
LWPOLYLINE
  5
2DA
330
1F
100
AcDbEntity
  8
1-4
  6
Continuous
 62
     7
370
     9
100
AcDbPolyline
 90
        4
 70
     1
 43
2.0
 10
-912.1757993955868
 20
-871.0813862568623
 42
0.4142135623731
 10
-913.1757993955866
 20
-870.0813862568623
 42
0.4142135623731
 10
-914.1757993955866
 20
-871.0813862568623
 42
0.4142135623731
 10
-913.1757993955866
 20
-872.0813862568622
 42
0.4142135623731
  0
LWPOLYLINE
  5
2DB
330
1F
100
AcDbEntity
  8
1-4
  6
Continuous
 62
     7
370
     9
100
AcDbPolyline
 90
        4
 70
     1
 43
2.0
 10
-812.1758406355572
 20
-751.0813615128801
 42
0.4142135623731
 10
-813.1758406355572
 20
-750.0813615128801
 42
0.4142135623731
 10
-814.175840635557
 20
-751.0813615128801
 42
0.4142135623731
 10
-813.1758406355572
 20
-752.08136151288
 42
0.4142135623731
  0
LWPOLYLINE
  5
2DC
330
1F
100
AcDbEntity
  8
1-4
  6
Continuous
 62
     7
370
     9
100
AcDbPolyline
 90
        4
 70
     1
 43
2.0
 10
-812.1758406355572
 20
-581.0812955289273
 42
0.4142135623731
 10
-813.1758406355572
 20
-580.0812955289273
 42
0.4142135623731
 10
-814.175840635557
 20
-581.0812955289273
 42
0.4142135623731
 10
-813.1758406355572
 20
-582.0812955289274
 42
0.4142135623731
  0
CIRCLE
  5
2DD
330
1F
100
AcDbEntity
  8
1-A
  6
Continuous
 62
     2
370
     9
100
AcDbCircle
 10
-1018.175774651605
 20
-666.0813285209036
 30
0.0
 40
30.0
  0
CIRCLE
  5
2DE
330
1F
100
AcDbEntity
  8
1-A
  6
Continuous
 62
     2
370
     9
100
AcDbCircle
 10
-1018.175774651605
 20
-666.0813285209036
 30
0.0
 40
21.25
  0
LINE
  5
2DF
330
1F
100
AcDbEntity
  8
1-A
  6
Continuous
 62
     2
370
     9
100
AcDbLine
 10
-1063.175900026974
 20
-633.0534521064046
 30
0.0
 11
-1063.175976734238
 21
-621.0811264382703
 31
0.0
  0
LINE
  5
2E0
330
1F
100
AcDbEntity
  8
1-A
  6
Continuous
 62
     2
370
     9
100
AcDbLine
 10
-1063.175976734238
 20
-621.0811264382703
 30
0.0
 11
-1051.203468991718
 21
-621.0812098890303
 31
0.0
  0
ARC
  5
2E1
330
1F
100
AcDbEntity
  8
1-A
  6
Continuous
 62
     2
370
     9
100
AcDbCircle
 10
-1030.675800062954
 20
-653.5813031095546
 30
0.0
 40
35.0
100
AcDbArc
 50
121.0026092529297
 51
148.9973449707031
  0
LINE
  5
2E2
330
1F
100
AcDbEntity
  8
1-A
  6
Continuous
 62
     2
370
     9
100
AcDbLine
 10
-1051.203651066103
 20
-711.0814538962727
 30
0.0
 11
-1063.175976734238
 21
-711.0815306035369
 31
0.0
  0
LINE
  5
2E3
330
1F
100
AcDbEntity
  8
1-A
  6
Continuous
 62
     2
370
     9
100
AcDbLine
 10
-1063.175976734238
 20
-711.0815306035369
 30
0.0
 11
-1063.175893283478
 21
-699.109022861017
 31
0.0
  0
ARC
  5
2E4
330
1F
100
AcDbEntity
  8
1-A
  6
Continuous
 62
     2
370
     9
100
AcDbCircle
 10
-1030.675800062954
 20
-678.5813539322527
 30
0.0
 40
35.0
100
AcDbArc
 50
211.0026092529297
 51
238.9973449707031
  0
LINE
  5
2E5
330
1F
100
AcDbEntity
  8
1-A
  6
Continuous
 62
     2
370
     9
100
AcDbLine
 10
-973.1756492762355
 20
-699.1092049354027
 30
0.0
 11
-973.1755725689713
 21
-711.0815306035369
 31
0.0
  0
LINE
  5
2E6
330
1F
100
AcDbEntity
  8
1-A
  6
Continuous
 62
     2
370
     9
100
AcDbLine
 10
-973.1755725689713
 20
-711.0815306035369
 30
0.0
 11
-985.1480803114912
 21
-711.081447152777
 31
0.0
  0
ARC
  5
2E7
330
1F
100
AcDbEntity
  8
1-A
  6
Continuous
 62
     2
370
     9
100
AcDbCircle
 10
-1005.675749240256
 20
-678.5813539322528
 30
0.0
 40
35.0
100
AcDbArc
 50
301.0026092529297
 51
328.9973449707031
  0
LINE
  5
2E8
330
1F
100
AcDbEntity
  8
1-A
  6
Continuous
 62
     2
370
     9
100
AcDbLine
 10
-985.1478982371056
 20
-621.0812031455346
 30
0.0
 11
-973.1755725689711
 21
-621.0811264382704
 31
0.0
  0
LINE
  5
2E9
330
1F
100
AcDbEntity
  8
1-A
  6
Continuous
 62
     2
370
     9
100
AcDbLine
 10
-973.1755725689711
 20
-621.0811264382704
 30
0.0
 11
-973.1756560197312
 21
-633.0536341807903
 31
0.0
  0
ARC
  5
2EA
330
1F
100
AcDbEntity
  8
1-A
  6
Continuous
 62
     2
370
     9
100
AcDbCircle
 10
-1005.675749240255
 20
-653.5813031095546
 30
0.0
 40
35.0
100
AcDbArc
 50
31.00260925292969
 51
58.99734497070312
  0
LINE
  5
2EB
330
1F
100
AcDbEntity
  8
1-A
  6
Continuous
 62
     2
370
     9
100
AcDbLine
 10
-1048.703525692717
 20
-623.5813285209036
 30
0.0
 11
-1051.203468991718
 21
-621.0812098890303
 31
0.0
  0
LINE
  5
2EC
330
1F
100
AcDbEntity
  8
1-A
  6
Continuous
 62
     2
370
     9
100
AcDbLine
 10
-1060.675774651605
 20
-635.5535774817736
 30
0.0
 11
-1063.175900026974
 21
-633.0534521064046
 31
0.0
  0
LINE
  5
2ED
330
1F
100
AcDbEntity
  8
1-A
  6
Continuous
 62
     2
370
     9
100
AcDbLine
 10
-987.6480236124745
 20
-623.5813285209036
 30
0.0
 11
-985.1478982371056
 21
-621.0812031455346
 31
0.0
  0
LINE
  5
2EE
330
1F
100
AcDbEntity
  8
1-A
  6
Continuous
 62
     2
370
     9
100
AcDbLine
 10
-987.6480236124745
 20
-623.5813285209036
 30
0.0
 11
-1048.703525692717
 21
-623.5813285209036
 31
0.0
  0
LINE
  5
2EF
330
1F
100
AcDbEntity
  8
1-A
  6
Continuous
 62
     2
370
     9
100
AcDbLine
 10
-975.6757746516046
 20
-635.5535774797911
 30
0.0
 11
-973.1756560197312
 21
-633.0536341807903
 31
0.0
  0
LINE
  5
2F0
330
1F
100
AcDbEntity
  8
1-A
  6
Continuous
 62
     2
370
     9
100
AcDbLine
 10
-975.6757746516046
 20
-696.6090795600337
 30
0.0
 11
-973.1756492762355
 21
-699.1092049354027
 31
0.0
  0
LINE
  5
2F1
330
1F
100
AcDbEntity
  8
1-A
  6
Continuous
 62
     2
370
     9
100
AcDbLine
 10
-975.6757746516046
 20
-696.6090795600337
 30
0.0
 11
-975.6757746516046
 21
-635.5535774797911
 31
0.0
  0
LINE
  5
2F2
330
1F
100
AcDbEntity
  8
1-A
  6
Continuous
 62
     2
370
     9
100
AcDbLine
 10
-987.648023610492
 20
-708.5813285209036
 30
0.0
 11
-985.1480803114912
 21
-711.081447152777
 31
0.0
  0
LINE
  5
2F3
330
1F
100
AcDbEntity
  8
1-A
  6
Continuous
 62
     2
370
     9
100
AcDbLine
 10
-1048.703525690735
 20
-708.5813285209036
 30
0.0
 11
-1051.203651066103
 21
-711.0814538962727
 31
0.0
  0
LINE
  5
2F4
330
1F
100
AcDbEntity
  8
1-A
  6
Continuous
 62
     2
370
     9
100
AcDbLine
 10
-1048.703525690735
 20
-708.5813285209036
 30
0.0
 11
-987.648023610492
 21
-708.5813285209036
 31
0.0
  0
LINE
  5
2F5
330
1F
100
AcDbEntity
  8
1-A
  6
Continuous
 62
     2
370
     9
100
AcDbLine
 10
-1060.675774651605
 20
-696.6090795620163
 30
0.0
 11
-1063.175893283478
 21
-699.109022861017
 31
0.0
  0
LINE
  5
2F6
330
1F
100
AcDbEntity
  8
1-A
  6
Continuous
 62
     2
370
     9
100
AcDbLine
 10
-1060.675774651605
 20
-635.5535774817736
 30
0.0
 11
-1060.675774651605
 21
-696.6090795620163
 31
0.0
  0
CIRCLE
  5
2F7
330
1F
100
AcDbEntity
  8
1-0
  6
Continuous
 62
     4
370
     9
100
AcDbCircle
 10
-1018.175774651605
 20
-666.0813285209036
 30
0.0
 40
105.0
  0
CIRCLE
  5
2F8
330
1F
100
AcDbEntity
  8
1-0
  6
Continuous
 62
     4
370
     9
100
AcDbCircle
 10
-933.1757746516046
 20
-666.0813285209036
 30
0.0
 40
10.0
  0
LINE
  5
2F9
330
1F
100
AcDbEntity
  8
1-0
  6
JWW_CENTER1
 62
     4
370
     9
100
AcDbLine
 10
-933.1757746516046
 20
-650.3709121609688
 30
0.0
 11
-933.1757746516046
 21
-682.0751638904011
 31
0.0
  0
CIRCLE
  5
2FA
330
1F
100
AcDbEntity
  8
1-0
  6
Continuous
 62
     4
370
     9
100
AcDbCircle
 10
-1018.175774651605
 20
-581.0813285209036
 30
0.0
 40
10.0
  0
LINE
  5
2FB
330
1F
100
AcDbEntity
  8
1-0
  6
JWW_CENTER1
 62
     4
370
     9
100
AcDbLine
 10
-1033.886191011539
 20
-581.0813285209036
 30
0.0
 11
-1002.181939282107
 21
-581.0813285209036
 31
0.0
  0
CIRCLE
  5
2FC
330
1F
100
AcDbEntity
  8
1-0
  6
Continuous
 62
     4
370
     9
100
AcDbCircle
 10
-1103.175774651605
 20
-666.0813285209036
 30
0.0
 40
10.0
  0
LINE
  5
2FD
330
1F
100
AcDbEntity
  8
1-0
  6
JWW_CENTER1
 62
     4
370
     9
100
AcDbLine
 10
-1103.175774651605
 20
-681.7917448808385
 30
0.0
 11
-1103.175774651605
 21
-650.0874931514062
 31
0.0
  0
CIRCLE
  5
2FE
330
1F
100
AcDbEntity
  8
1-0
  6
Continuous
 62
     4
370
     9
100
AcDbCircle
 10
-1018.175774651605
 20
-751.0813285209036
 30
0.0
 40
10.0
  0
LINE
  5
2FF
330
1F
100
AcDbEntity
  8
1-0
  6
JWW_CENTER1
 62
     4
370
     9
100
AcDbLine
 10
-1002.46535829167
 20
-751.0813285209036
 30
0.0
 11
-1034.169610021102
 21
-751.0813285209036
 31
0.0
  0
ENDSEC
  0
SECTION
  2
OBJECTS
  0
DICTIONARY
  5
C
330
0
100
AcDbDictionary
281
     1
  3
ACAD_DETAILVIEWSTYLE
350
307
  3
ACAD_GROUP
350
D
  3
ACAD_LAYOUT
350
1A
  3
ACAD_MATERIAL
350
43
  3
ACAD_MLEADERSTYLE
350
6B
  3
ACAD_MLINESTYLE
350
17
  3
ACAD_PLOTSETTINGS
350
19
  3
ACAD_PLOTSTYLENAME
350
E
  3
ACAD_SCALELIST
350
47
  3
ACAD_SECTIONVIEWSTYLE
350
308
  3
ACAD_TABLESTYLE
350
69
  3
ACAD_VISUALSTYLE
350
2A
  3
ACDB_RECOMPOSE_DATA
350
304
  3
AcDbVariableDictionary
350
300
  0
SUN
  5
6D
330
29
100
AcDbSun
 90
        1
290
     0
 63
     7
421
 16777215
 40
1.0
291
     1
 91
  2455826
 92
 54000000
292
     0
 70
     2
 71
   256
280
     1
  0
DICTIONARY
  5
307
102
{ACAD_REACTORS
330
C
102
}
330
C
100
AcDbDictionary
281
     1
  0
DICTIONARY
  5
D
102
{ACAD_REACTORS
330
C
102
}
330
C
100
AcDbDictionary
281
     1
  0
DICTIONARY
  5
1A
102
{ACAD_REACTORS
330
C
102
}
330
C
100
AcDbDictionary
281
     1
  3
Layout1
350
1E
  3
Layout2
350
26
  3
Model
350
22
  0
DICTIONARY
  5
43
102
{ACAD_REACTORS
330
C
102
}
330
C
100
AcDbDictionary
281
     1
  3
ByBlock
350
45
  3
ByLayer
350
44
  3
Global
350
46
  0
DICTIONARY
  5
6B
102
{ACAD_REACTORS
330
C
102
}
330
C
100
AcDbDictionary
281
     1
  3
Standard
350
6C
  0
DICTIONARY
  5
17
102
{ACAD_REACTORS
330
C
102
}
330
C
100
AcDbDictionary
281
     1
  3
Standard
350
18
  0
DICTIONARY
  5
19
102
{ACAD_REACTORS
330
C
102
}
330
C
100
AcDbDictionary
281
     1
  0
ACDBDICTIONARYWDFLT
  5
E
102
{ACAD_REACTORS
330
C
102
}
330
C
100
AcDbDictionary
281
     1
  3
Normal
350
F
100
AcDbDictionaryWithDefault
340
F
  0
DICTIONARY
  5
47
102
{ACAD_REACTORS
330
C
102
}
330
C
100
AcDbDictionary
281
     1
  3
A0
350
48
  3
A1
350
49
  3
A2
350
4A
  3
A3
350
4B
  3
A4
350
4C
  3
A5
350
4D
  3
A6
350
4E
  3
A7
350
4F
  3
A8
350
50
  3
A9
350
51
  3
B0
350
52
  3
B1
350
53
  3
B2
350
54
  3
B3
350
55
  3
B4
350
56
  3
B5
350
57
  3
B6
350
58
  3
B7
350
59
  3
B8
350
5A
  3
B9
350
5B
  3
C0
350
5C
  3
C1
350
5D
  3
C2
350
5E
  3
C3
350
5F
  3
C4
350
60
  3
C5
350
61
  3
C6
350
62
  3
C7
350
63
  3
C8
350
64
  3
C9
350
65
  3
D0
350
66
  3
D1
350
67
  3
D2
350
68
  0
DICTIONARY
  5
308
102
{ACAD_REACTORS
330
C
102
}
330
C
100
AcDbDictionary
281
     1
  0
DICTIONARY
  5
69
102
{ACAD_REACTORS
330
C
102
}
330
C
100
AcDbDictionary
281
     1
  3
Standard
350
6A
  0
DICTIONARY
  5
2A
102
{ACAD_REACTORS
330
C
102
}
330
C
100
AcDbDictionary
281
     1
  3
2dWireframe
350
2F
  3
Basic
350
32
  3
Brighten
350
36
  3
ColorChange
350
3A
  3
Conceptual
350
34
  3
Dim
350
35
  3
EdgeColorOff
350
3D
  3
Facepattern
350
39
  3
Flat
350
2B
  3
FlatWithEdges
350
2C
  3
Gouraud
350
2D
  3
GouraudWithEdges
350
2E
  3
Hidden
350
31
  3
JitterOff
350
3B
  3
Linepattern
350
38
  3
OverhangOff
350
3C
  3
Realistic
350
33
  3
Shaded
350
42
  3
Shaded with edges
350
41
  3
Shades of Gray
350
3E
  3
Sketchy
350
3F
  3
Thicken
350
37
  3
Wireframe
350
30
  3
X-Ray
350
40
  0
XRECORD
  5
304
102
{ACAD_REACTORS
330
C
102
}
330
C
100
AcDbXrecord
280
     1
 90
        1
330
6A
  0
DICTIONARY
  5
300
102
{ACAD_REACTORS
330
C
102
}
330
C
100
AcDbDictionary
281
     1
  3
CANNOSCALE
350
301
  3
CENTEREXE
350
309
  3
CENTERLTYPEFILE
350
30A
  3
CMLEADERSTYLE
350
306
  3
CTABLESTYLE
350
305
  0
LAYOUT
  5
1E
102
{ACAD_REACTORS
330
1A
102
}
330
1A
100
AcDbPlotSettings
  1

  2
none_device
  4

  6

 40
0.0
 41
0.0
 42
0.0
 43
0.0
 44
0.0
 45
0.0
 46
0.0
 47
0.0
 48
0.0
 49
0.0
140
0.0
141
0.0
142
1.0
143
1.0
 70
   688
 72
     1
 73
     0
 74
     5
  7

 75
    16
 76
     0
 77
     5
 78
   300
147
1.0
148
0.0
149
0.0
100
AcDbLayout
  1
Layout1
 70
     1
 71
     1
 10
0.0
 20
0.0
 11
420.0
 21
297.0
 12
0.0
 22
0.0
 32
0.0
 14
1.000000000000000E+20
 24
1.000000000000000E+20
 34
1.000000000000000E+20
 15
-1.000000000000000E+20
 25
-1.000000000000000E+20
 35
-1.000000000000000E+20
146
0.0
 13
0.0
 23
0.0
 33
0.0
 16
1.0
 26
0.0
 36
0.0
 17
0.0
 27
1.0
 37
0.0
 76
     0
330
1B
  0
LAYOUT
  5
26
102
{ACAD_REACTORS
330
1A
102
}
330
1A
100
AcDbPlotSettings
  1

  2
none_device
  4

  6

 40
0.0
 41
0.0
 42
0.0
 43
0.0
 44
0.0
 45
0.0
 46
0.0
 47
0.0
 48
0.0
 49
0.0
140
0.0
141
0.0
142
1.0
143
1.0
 70
   688
 72
     1
 73
     0
 74
     5
  7

 75
    16
 76
     0
 77
     5
 78
   300
147
1.0
148
0.0
149
0.0
100
AcDbLayout
  1
Layout2
 70
     1
 71
     2
 10
0.0
 20
0.0
 11
0.0
 21
0.0
 12
0.0
 22
0.0
 32
0.0
 14
0.0
 24
0.0
 34
0.0
 15
0.0
 25
0.0
 35
0.0
146
0.0
 13
0.0
 23
0.0
 33
0.0
 16
1.0
 26
0.0
 36
0.0
 17
0.0
 27
1.0
 37
0.0
 76
     0
330
23
  0
LAYOUT
  5
22
102
{ACAD_REACTORS
330
1A
102
}
330
1A
100
AcDbPlotSettings
  1

  2
none_device
  4
Letter_(8.50_x_11.00_Inches)
  6

 40
6.35
 41
6.35
 42
6.35000508
 43
6.35000508
 44
215.9
 45
279.4
 46
0.0
 47
0.0
 48
0.0
 49
0.0
140
0.0
141
0.0
142
1.0
143
1.0
 70
  1712
 72
     1
 73
     0
 74
     0
  7

 75
     0
 76
     0
 77
     5
 78
   300
147
1.0
148
0.0
149
0.0
100
AcDbLayout
  1
Model
 70
     1
 71
     0
 10
-2100.0
 20
-1485.0
 11
2100.0
 21
1485.0
 12
0.0
 22
0.0
 32
0.0
 14
-2100.0
 24
-1485.0
 34
0.0
 15
2100.0
 25
1485.0
 35
0.0
146
0.0
 13
0.0
 23
0.0
 33
0.0
 16
1.0
 26
0.0
 36
0.0
 17
0.0
 27
1.0
 37
0.0
 76
     0
330
1F
331
29
  0
MATERIAL
  5
45
102
{ACAD_REACTORS
330
43
102
}
330
43
100
AcDbMaterial
  1
ByBlock
 72
     1
 94
      127
  0
MATERIAL
  5
44
102
{ACAD_REACTORS
330
43
102
}
330
43
100
AcDbMaterial
  1
ByLayer
 72
     1
 94
      127
  0
MATERIAL
  5
46
102
{ACAD_REACTORS
330
43
102
}
330
43
100
AcDbMaterial
  1
Global
 72
     1
 94
      127
  0
MLEADERSTYLE
  5
6C
102
{ACAD_REACTORS
330
6B
102
}
330
6B
100
AcDbMLeaderStyle
179
     2
170
     2
171
     1
172
     0
 90
        2
 40
0.0
 41
0.0
173
     1
 91
-1056964608
340
14
 92
       -2
290
     1
 42
2.0
291
     1
 43
8.0
  3
Standard
341
0
 44
4.0
300

342
11
174
     1
178
     6
175
     1
176
     0
 93
-1056964608
 45
4.0
292
     0
297
     0
 46
4.0
343
0
 94
-1056964608
 47
1.0
 49
1.0
140
1.0
293
     1
141
0.0
294
     1
177
     0
142
1.0
295
     0
296
     0
143
3.75
271
     0
272
     9
273
     9
298
     0
  0
MLINESTYLE
  5
18
102
{ACAD_REACTORS
330
17
102
}
330
17
100
AcDbMlineStyle
  2
Standard
 70
     0
  3

 62
   256
 51
90.0
 52
90.0
 71
     2
 49
0.5
 62
   256
  6
BYLAYER
 49
-0.5
 62
   256
  6
BYLAYER
  0
ACDBPLACEHOLDER
  5
F
102
{ACAD_REACTORS
330
E
102
}
330
E
  0
SCALE
  5
48
102
{ACAD_REACTORS
330
47
102
}
330
47
100
AcDbScale
 70
     0
300
1:1
140
1.0
141
1.0
290
     1
  0
SCALE
  5
49
102
{ACAD_REACTORS
330
47
102
}
330
47
100
AcDbScale
 70
     0
300
1:2
140
1.0
141
2.0
290
     0
  0
SCALE
  5
4A
102
{ACAD_REACTORS
330
47
102
}
330
47
100
AcDbScale
 70
     0
300
1:4
140
1.0
141
4.0
290
     0
  0
SCALE
  5
4B
102
{ACAD_REACTORS
330
47
102
}
330
47
100
AcDbScale
 70
     0
300
1:5
140
1.0
141
5.0
290
     0
  0
SCALE
  5
4C
102
{ACAD_REACTORS
330
47
102
}
330
47
100
AcDbScale
 70
     0
300
1:8
140
1.0
141
8.0
290
     0
  0
SCALE
  5
4D
102
{ACAD_REACTORS
330
47
102
}
330
47
100
AcDbScale
 70
     0
300
1:10
140
1.0
141
10.0
290
     0
  0
SCALE
  5
4E
102
{ACAD_REACTORS
330
47
102
}
330
47
100
AcDbScale
 70
     0
300
1:16
140
1.0
141
16.0
290
     0
  0
SCALE
  5
4F
102
{ACAD_REACTORS
330
47
102
}
330
47
100
AcDbScale
 70
     0
300
1:20
140
1.0
141
20.0
290
     0
  0
SCALE
  5
50
102
{ACAD_REACTORS
330
47
102
}
330
47
100
AcDbScale
 70
     0
300
1:30
140
1.0
141
30.0
290
     0
  0
SCALE
  5
51
102
{ACAD_REACTORS
330
47
102
}
330
47
100
AcDbScale
 70
     0
300
1:40
140
1.0
141
40.0
290
     0
  0
SCALE
  5
52
102
{ACAD_REACTORS
330
47
102
}
330
47
100
AcDbScale
 70
     0
300
1:50
140
1.0
141
50.0
290
     0
  0
SCALE
  5
53
102
{ACAD_REACTORS
330
47
102
}
330
47
100
AcDbScale
 70
     0
300
1:100
140
1.0
141
100.0
290
     0
  0
SCALE
  5
54
102
{ACAD_REACTORS
330
47
102
}
330
47
100
AcDbScale
 70
     0
300
2:1
140
2.0
141
1.0
290
     0
  0
SCALE
  5
55
102
{ACAD_REACTORS
330
47
102
}
330
47
100
AcDbScale
 70
     0
300
4:1
140
4.0
141
1.0
290
     0
  0
SCALE
  5
56
102
{ACAD_REACTORS
330
47
102
}
330
47
100
AcDbScale
 70
     0
300
8:1
140
8.0
141
1.0
290
     0
  0
SCALE
  5
57
102
{ACAD_REACTORS
330
47
102
}
330
47
100
AcDbScale
 70
     0
300
10:1
140
10.0
141
1.0
290
     0
  0
SCALE
  5
58
102
{ACAD_REACTORS
330
47
102
}
330
47
100
AcDbScale
 70
     0
300
100:1
140
100.0
141
1.0
290
     0
  0
SCALE
  5
59
102
{ACAD_REACTORS
330
47
102
}
330
47
100
AcDbScale
 70
     0
300
1/128" = 1'-0"
140
0.0078125
141
12.0
290
     0
  0
SCALE
  5
5A
102
{ACAD_REACTORS
330
47
102
}
330
47
100
AcDbScale
 70
     0
300
1/64" = 1'-0"
140
0.015625
141
12.0
290
     0
  0
SCALE
  5
5B
102
{ACAD_REACTORS
330
47
102
}
330
47
100
AcDbScale
 70
     0
300
1/32" = 1'-0"
140
0.03125
141
12.0
290
     0
  0
SCALE
  5
5C
102
{ACAD_REACTORS
330
47
102
}
330
47
100
AcDbScale
 70
     0
300
1/16" = 1'-0"
140
0.0625
141
12.0
290
     0
  0
SCALE
  5
5D
102
{ACAD_REACTORS
330
47
102
}
330
47
100
AcDbScale
 70
     0
300
3/32" = 1'-0"
140
0.09375
141
12.0
290
     0
  0
SCALE
  5
5E
102
{ACAD_REACTORS
330
47
102
}
330
47
100
AcDbScale
 70
     0
300
1/8" = 1'-0"
140
0.125
141
12.0
290
     0
  0
SCALE
  5
5F
102
{ACAD_REACTORS
330
47
102
}
330
47
100
AcDbScale
 70
     0
300
3/16" = 1'-0"
140
0.1875
141
12.0
290
     0
  0
SCALE
  5
60
102
{ACAD_REACTORS
330
47
102
}
330
47
100
AcDbScale
 70
     0
300
1/4" = 1'-0"
140
0.25
141
12.0
290
     0
  0
SCALE
  5
61
102
{ACAD_REACTORS
330
47
102
}
330
47
100
AcDbScale
 70
     0
300
3/8" = 1'-0"
140
0.375
141
12.0
290
     0
  0
SCALE
  5
62
102
{ACAD_REACTORS
330
47
102
}
330
47
100
AcDbScale
 70
     0
300
1/2" = 1'-0"
140
0.5
141
12.0
290
     0
  0
SCALE
  5
63
102
{ACAD_REACTORS
330
47
102
}
330
47
100
AcDbScale
 70
     0
300
3/4" = 1'-0"
140
0.75
141
12.0
290
     0
  0
SCALE
  5
64
102
{ACAD_REACTORS
330
47
102
}
330
47
100
AcDbScale
 70
     0
300
1" = 1'-0"
140
1.0
141
12.0
290
     0
  0
SCALE
  5
65
102
{ACAD_REACTORS
330
47
102
}
330
47
100
AcDbScale
 70
     0
300
1-1/2" = 1'-0"
140
1.5
141
12.0
290
     0
  0
SCALE
  5
66
102
{ACAD_REACTORS
330
47
102
}
330
47
100
AcDbScale
 70
     0
300
3" = 1'-0"
140
3.0
141
12.0
290
     0
  0
SCALE
  5
67
102
{ACAD_REACTORS
330
47
102
}
330
47
100
AcDbScale
 70
     0
300
6" = 1'-0"
140
6.0
141
12.0
290
     0
  0
SCALE
  5
68
102
{ACAD_REACTORS
330
47
102
}
330
47
100
AcDbScale
 70
     0
300
1'-0" = 1'-0"
140
12.0
141
12.0
290
     0
  0
TABLESTYLE
  5
6A
102
{ACAD_REACTORS
330
69
102
}
102
{ACAD_XDICTIONARY
360
302
102
}
330
69
100
AcDbTableStyle
  3
Standard
 70
     0
 71
     0
 40
0.06
 41
0.06
280
     0
281
     0
  7
Standard
140
4.5
170
     2
 62
     0
 63
   257
283
     0
 90
        4
 91
        0
  1

274
    -2
284
     1
 64
     0
275
    -2
285
     1
 65
     0
276
    -2
286
     1
 66
     0
277
    -2
287
     1
 67
     0
278
    -2
288
     1
 68
     0
279
    -2
289
     1
 69
     0
  7
Standard
140
6.0
170
     5
 62
     0
 63
   257
283
     0
 90
        4
 91
        0
  1

274
    -2
284
     1
 64
     0
275
    -2
285
     1
 65
     0
276
    -2
286
     1
 66
     0
277
    -2
287
     1
 67
     0
278
    -2
288
     1
 68
     0
279
    -2
289
     1
 69
     0
  7
Standard
140
4.5
170
     5
 62
     0
 63
   257
283
     0
 90
        4
 91
        0
  1

274
    -2
284
     1
 64
     0
275
    -2
285
     1
 65
     0
276
    -2
286
     1
 66
     0
277
    -2
287
     1
 67
     0
278
    -2
288
     1
 68
     0
279
    -2
289
     1
 69
     0
  0
VISUALSTYLE
  5
2F
102
{ACAD_REACTORS
330
2A
102
}
330
2A
100
AcDbVisualStyle
  2
2dWireframe
 70
     4
177
     3
291
     0
 70
    58
 90
        0
176
     1
 90
        2
176
     1
 90
        0
176
     1
 90
        0
176
     1
 40
0.6
176
     1
 40
30.0
176
     1
 62
     7
420
 16777215
176
     1
 90
        1
176
     1
 90
        4
176
     1
 62
     7
176
     1
 62
   257
176
     1
 90
        1
176
     1
 90
        1
176
     1
 40
1.0
176
     1
 90
        0
176
     1
 62
   257
176
     1
 40
1.0
176
     1
 90
        1
176
     1
 90
        6
176
     1
 90
        2
176
     1
 62
     7
176
     1
 90
        5
176
     1
 90
        0
176
     1
 90
        0
176
     1
290
     0
176
     1
 90
        1
176
     1
 40
0.0
176
     1
 90
        0
176
     1
290
     1
176
     1
290
     1
176
     1
290
     0
176
     1
290
     0
176
     1
290
     0
176
     1
290
     0
176
     1
290
     0
176
     1
290
     0
176
     1
290
     0
176
     1
 90
       50
176
     1
 40
0.0
176
     1
 40
1.0
176
     1
 90
        0
176
     1
 62
    18
420
        0
176
     1
 90
       50
176
     1
 90
        3
176
     1
 62
     5
420
      255
176
     1
290
     0
176
     1
 90
       50
176
     1
 90
       50
176
     1
 90
       50
176
     1
290
     0
176
     1
 90
       50
176
     1
 62
   256
176
     0
 40
1.0
176
     0
 90
        2
176
     1
  1
strokes_ogs.tif
176
     1
290
     0
176
     1
 40
1.0
176
     1
 40
1.0
176
     1
  0
VISUALSTYLE
  5
32
102
{ACAD_REACTORS
330
2A
102
}
330
2A
100
AcDbVisualStyle
  2
Basic
 70
     7
177
     3
291
     1
 70
    58
 90
        1
176
     1
 90
        0
176
     1
 90
        1
176
     1
 90
        0
176
     1
 40
0.6
176
     1
 40
30.0
176
     1
 62
     7
420
 16777215
176
     1
 90
        0
176
     1
 90
        4
176
     1
 62
     7
176
     1
 62
   257
176
     1
 90
        1
176
     1
 90
        1
176
     1
 40
1.0
176
     1
 90
        8
176
     1
 62
     7
176
     1
 40
1.0
176
     1
 90
        1
176
     1
 90
        6
176
     1
 90
        2
176
     1
 62
     7
176
     1
 90
        5
176
     1
 90
        0
176
     1
 90
        0
176
     1
290
     0
176
     1
 90
        1
176
     1
 40
0.0
176
     1
 90
        0
176
     1
290
     0
176
     1
290
     1
176
     1
290
     1
176
     1
290
     0
176
     1
290
     0
176
     1
290
     0
176
     1
290
     0
176
     1
290
     0
176
     1
290
     0
176
     1
 90
       50
176
     1
 40
0.0
176
     1
 40
1.0
176
     1
 90
        0
176
     1
 62
    18
420
        0
176
     1
 90
       50
176
     1
 90
        3
176
     1
 62
     5
420
      255
176
     1
290
     0
176
     1
 90
       50
176
     1
 90
       50
176
     1
 90
       50
176
     1
290
     0
176
     1
 90
       50
176
     1
 62
   256
176
     0
 40
1.0
176
     0
 90
        2
176
     1
  1
strokes_ogs.tif
176
     1
290
     0
176
     1
 40
1.0
176
     1
 40
1.0
176
     1
  0
VISUALSTYLE
  5
36
102
{ACAD_REACTORS
330
2A
102
}
330
2A
100
AcDbVisualStyle
  2
Brighten
 70
    12
177
     3
291
     1
 70
    58
 90
        2
176
     1
 90
        2
176
     1
 90
        0
176
     1
 90
        0
176
     1
 40
0.6
176
     1
 40
30.0
176
     1
 62
     7
420
 16777215
176
     1
 90
        1
176
     1
 90
        4
176
     1
 62
     7
176
     1
 62
   257
176
     1
 90
        1
176
     1
 90
        1
176
     1
 40
1.0
176
     1
 90
        8
176
     1
 62
     7
176
     1
 40
1.0
176
     1
 90
        1
176
     1
 90
        6
176
     1
 90
        2
176
     1
 62
     7
176
     1
 90
        5
176
     1
 90
        0
176
     1
 90
        0
176
     1
290
     0
176
     1
 90
        1
176
     1
 40
50.0
176
     1
 90
        0
176
     1
290
     0
176
     1
290
     1
176
     1
290
     1
176
     1
290
     0
176
     1
290
     0
176
     1
290
     0
176
     1
290
     0
176
     1
290
     0
176
     1
290
     0
176
     1
 90
       50
176
     1
 40
0.0
176
     1
 40
1.0
176
     1
 90
        0
176
     1
 62
    18
420
        0
176
     1
 90
       50
176
     1
 90
        3
176
     1
 62
     5
420
      255
176
     1
290
     0
176
     1
 90
       50
176
     1
 90
       50
176
     1
 90
       50
176
     1
290
     0
176
     1
 90
       50
176
     1
 62
   256
176
     0
 40
1.0
176
     0
 90
        2
176
     1
  1
strokes_ogs.tif
176
     1
290
     0
176
     1
 40
1.0
176
     1
 40
1.0
176
     1
  0
VISUALSTYLE
  5
3A
102
{ACAD_REACTORS
330
2A
102
}
330
2A
100
AcDbVisualStyle
  2
ColorChange
 70
    16
177
     3
291
     1
 70
    58
 90
        2
176
     1
 90
        2
176
     1
 90
        3
176
     1
 90
        0
176
     1
 40
0.6
176
     1
 40
30.0
176
     1
 62
     8
420
  8421504
176
     1
 90
        1
176
     1
 90
        4
176
     1
 62
     7
176
     1
 62
   257
176
     1
 90
        1
176
     1
 90
        1
176
     1
 40
1.0
176
     1
 90
        8
176
     1
 62
     8
420
  8421504
176
     1
 40
1.0
176
     1
 90
        1
176
     1
 90
        6
176
     1
 90
        2
176
     1
 62
     7
176
     1
 90
        5
176
     1
 90
        0
176
     1
 90
        0
176
     1
290
     0
176
     1
 90
        1
176
     1
 40
0.0
176
     1
 90
        0
176
     1
290
     0
176
     1
290
     1
176
     1
290
     1
176
     1
290
     0
176
     1
290
     0
176
     1
290
     0
176
     1
290
     0
176
     1
290
     0
176
     1
290
     0
176
     1
 90
       50
176
     1
 40
0.0
176
     1
 40
1.0
176
     1
 90
        0
176
     1
 62
    18
420
        0
176
     1
 90
       50
176
     1
 90
        3
176
     1
 62
     5
420
      255
176
     1
290
     0
176
     1
 90
       50
176
     1
 90
       50
176
     1
 90
       50
176
     1
290
     0
176
     1
 90
       50
176
     1
 62
   256
176
     0
 40
1.0
176
     0
 90
        2
176
     1
  1
strokes_ogs.tif
176
     1
290
     0
176
     1
 40
1.0
176
     1
 40
1.0
176
     1
  0
VISUALSTYLE
  5
34
102
{ACAD_REACTORS
330
2A
102
}
330
2A
100
AcDbVisualStyle
  2
Conceptual
 70
     9
177
     3
291
     0
 70
    58
 90
        3
176
     1
 90
        2
176
     1
 90
        0
176
     1
 90
        0
176
     1
 40
0.6
176
     1
 40
30.0
176
     1
 62
     7
420
 16777215
176
     1
 90
        2
176
     1
 90
        2
176
     1
 62
     7
176
     1
 62
   257
176
     1
 90
        1
176
     1
 90
        1
176
     1
 40
179.0
176
     1
 90
        8
176
     1
 62
     7
176
     1
 40
1.0
176
     1
 90
        1
176
     1
 90
        6
176
     1
 90
        2
176
     1
 62
     7
176
     1
 90
        3
176
     1
 90
        0
176
     1
 90
        0
176
     1
290
     0
176
     1
 90
        1
176
     1
 40
0.0
176
     1
 90
        0
176
     1
290
     0
176
     1
290
     1
176
     1
290
     1
176
     1
290
     0
176
     1
290
     0
176
     1
290
     0
176
     1
290
     0
176
     1
290
     0
176
     1
290
     0
176
     1
 90
       50
176
     1
 40
0.0
176
     1
 40
1.0
176
     1
 90
        0
176
     1
 62
    18
420
        0
176
     1
 90
       50
176
     1
 90
        3
176
     1
 62
     5
420
      255
176
     1
290
     0
176
     1
 90
       50
176
     1
 90
       50
176
     1
 90
       50
176
     1
290
     0
176
     1
 90
       50
176
     1
 62
   256
176
     0
 40
1.0
176
     0
 90
        2
176
     1
  1
strokes_ogs.tif
176
     1
290
     0
176
     1
 40
1.0
176
     1
 40
1.0
176
     1
  0
VISUALSTYLE
  5
35
102
{ACAD_REACTORS
330
2A
102
}
330
2A
100
AcDbVisualStyle
  2
Dim
 70
    11
177
     3
291
     1
 70
    58
 90
        2
176
     1
 90
        2
176
     1
 90
        0
176
     1
 90
        0
176
     1
 40
0.6
176
     1
 40
30.0
176
     1
 62
     7
420
 16777215
176
     1
 90
        1
176
     1
 90
        4
176
     1
 62
     7
176
     1
 62
   257
176
     1
 90
        1
176
     1
 90
        1
176
     1
 40
1.0
176
     1
 90
        8
176
     1
 62
     7
176
     1
 40
1.0
176
     1
 90
        1
176
     1
 90
        6
176
     1
 90
        2
176
     1
 62
     7
176
     1
 90
        5
176
     1
 90
        0
176
     1
 90
        0
176
     1
290
     0
176
     1
 90
        1
176
     1
 40
-50.0
176
     1
 90
        0
176
     1
290
     0
176
     1
290
     1
176
     1
290
     1
176
     1
290
     0
176
     1
290
     0
176
     1
290
     0
176
     1
290
     0
176
     1
290
     0
176
     1
290
     0
176
     1
 90
       50
176
     1
 40
0.0
176
     1
 40
1.0
176
     1
 90
        0
176
     1
 62
    18
420
        0
176
     1
 90
       50
176
     1
 90
        3
176
     1
 62
     5
420
      255
176
     1
290
     0
176
     1
 90
       50
176
     1
 90
       50
176
     1
 90
       50
176
     1
290
     0
176
     1
 90
       50
176
     1
 62
   256
176
     0
 40
1.0
176
     0
 90
        2
176
     1
  1
strokes_ogs.tif
176
     1
290
     0
176
     1
 40
1.0
176
     1
 40
1.0
176
     1
  0
VISUALSTYLE
  5
3D
102
{ACAD_REACTORS
330
2A
102
}
330
2A
100
AcDbVisualStyle
  2
EdgeColorOff
 70
    22
177
     3
291
     1
 70
    58
 90
        2
176
     0
 90
        2
176
     0
 90
        0
176
     0
 90
        0
176
     0
 40
0.6
176
     0
 40
30.0
176
     0
 62
     7
420
 16777215
176
     0
 90
        1
176
     0
 90
        4
176
     0
 62
     7
176
     0
 62
   257
176
     0
 90
        1
176
     0
 90
        1
176
     0
 40
1.0
176
     0
 90
        8
176
     2
 62
     7
176
     0
 40
1.0
176
     0
 90
        1
176
     0
 90
        6
176
     0
 90
        2
176
     0
 62
     7
176
     0
 90
        5
176
     0
 90
        0
176
     0
 90
        0
176
     0
290
     0
176
     0
 90
        1
176
     0
 40
0.0
176
     0
 90
        0
176
     0
290
     0
176
     0
290
     1
176
     0
290
     1
176
     0
290
     0
176
     0
290
     0
176
     0
290
     0
176
     0
290
     0
176
     0
290
     0
176
     0
290
     0
176
     0
 90
       50
176
     0
 40
0.0
176
     0
 40
1.0
176
     0
 90
        0
176
     0
 62
    18
420
        0
176
     0
 90
       50
176
     0
 90
        3
176
     0
 62
     5
420
      255
176
     0
290
     0
176
     0
 90
       50
176
     0
 90
       50
176
     0
 90
       50
176
     0
290
     0
176
     0
 90
       50
176
     0
 62
   256
176
     0
 40
1.0
176
     0
 90
        2
176
     0
  1
strokes_ogs.tif
176
     0
290
     0
176
     0
 40
1.0
176
     0
 40
1.0
176
     0
  0
VISUALSTYLE
  5
39
102
{ACAD_REACTORS
330
2A
102
}
330
2A
100
AcDbVisualStyle
  2
Facepattern
 70
    15
177
     3
291
     1
 70
    58
 90
        2
176
     1
 90
        2
176
     1
 90
        0
176
     1
 90
        0
176
     1
 40
0.6
176
     1
 40
30.0
176
     1
 62
     7
420
 16777215
176
     1
 90
        1
176
     1
 90
        4
176
     1
 62
     7
176
     1
 62
   257
176
     1
 90
        1
176
     1
 90
        1
176
     1
 40
1.0
176
     1
 90
        8
176
     1
 62
     7
176
     1
 40
1.0
176
     1
 90
        1
176
     1
 90
        6
176
     1
 90
        2
176
     1
 62
     7
176
     1
 90
        5
176
     1
 90
        0
176
     1
 90
        0
176
     1
290
     0
176
     1
 90
        1
176
     1
 40
0.0
176
     1
 90
        0
176
     1
290
     0
176
     1
290
     1
176
     1
290
     1
176
     1
290
     0
176
     1
290
     0
176
     1
290
     0
176
     1
290
     0
176
     1
290
     0
176
     1
290
     0
176
     1
 90
       50
176
     1
 40
0.0
176
     1
 40
1.0
176
     1
 90
        0
176
     1
 62
    18
420
        0
176
     1
 90
       50
176
     1
 90
        3
176
     1
 62
     5
420
      255
176
     1
290
     0
176
     1
 90
       50
176
     1
 90
       50
176
     1
 90
       50
176
     1
290
     0
176
     1
 90
       50
176
     1
 62
   256
176
     0
 40
1.0
176
     0
 90
        2
176
     1
  1
strokes_ogs.tif
176
     1
290
     0
176
     1
 40
1.0
176
     1
 40
1.0
176
     1
  0
VISUALSTYLE
  5
2B
102
{ACAD_REACTORS
330
2A
102
}
330
2A
100
AcDbVisualStyle
  2
Flat
 70
     0
177
     3
291
     1
 70
    58
 90
        2
176
     1
 90
        1
176
     1
 90
        1
176
     1
 90
        2
176
     1
 40
0.6
176
     1
 40
30.0
176
     1
 62
     7
420
 16777215
176
     1
 90
        0
176
     1
 90
        0
176
     1
 62
     7
176
     1
 62
   257
176
     1
 90
        1
176
     1
 90
        1
176
     1
 40
1.0
176
     1
 90
        8
176
     1
 62
     7
176
     1
 40
1.0
176
     1
 90
        1
176
     1
 90
        6
176
     1
 90
        2
176
     1
 62
     7
176
     1
 90
        5
176
     1
 90
        0
176
     1
 90
        0
176
     1
290
     0
176
     1
 90
       13
176
     1
 40
0.0
176
     1
 90
        0
176
     1
290
     0
176
     1
290
     1
176
     1
290
     1
176
     1
290
     0
176
     1
290
     0
176
     1
290
     0
176
     1
290
     0
176
     1
290
     0
176
     1
290
     0
176
     1
 90
       50
176
     1
 40
0.0
176
     1
 40
1.0
176
     1
 90
        0
176
     1
 62
    18
420
        0
176
     1
 90
       50
176
     1
 90
        3
176
     1
 62
     5
420
      255
176
     1
290
     0
176
     1
 90
       50
176
     1
 90
       50
176
     1
 90
       50
176
     1
290
     0
176
     1
 90
       50
176
     1
 62
   256
176
     0
 40
1.0
176
     0
 90
        2
176
     1
  1
strokes_ogs.tif
176
     1
290
     0
176
     1
 40
1.0
176
     1
 40
1.0
176
     1
  0
VISUALSTYLE
  5
2C
102
{ACAD_REACTORS
330
2A
102
}
330
2A
100
AcDbVisualStyle
  2
FlatWithEdges
 70
     1
177
     3
291
     1
 70
    58
 90
        2
176
     1
 90
        1
176
     1
 90
        1
176
     1
 90
        2
176
     1
 40
0.6
176
     1
 40
30.0
176
     1
 62
     7
420
 16777215
176
     1
 90
        1
176
     1
 90
        0
176
     1
 62
     7
176
     1
 62
   257
176
     1
 90
        1
176
     1
 90
        1
176
     1
 40
1.0
176
     1
 90
        0
176
     1
 62
   257
176
     1
 40
1.0
176
     1
 90
        1
176
     1
 90
        6
176
     1
 90
        2
176
     1
 62
     7
176
     1
 90
        5
176
     1
 90
        0
176
     1
 90
        0
176
     1
290
     0
176
     1
 90
       13
176
     1
 40
0.0
176
     1
 90
        0
176
     1
290
     0
176
     1
290
     1
176
     1
290
     1
176
     1
290
     0
176
     1
290
     0
176
     1
290
     0
176
     1
290
     0
176
     1
290
     0
176
     1
290
     0
176
     1
 90
       50
176
     1
 40
0.0
176
     1
 40
1.0
176
     1
 90
        0
176
     1
 62
    18
420
        0
176
     1
 90
       50
176
     1
 90
        3
176
     1
 62
     5
420
      255
176
     1
290
     0
176
     1
 90
       50
176
     1
 90
       50
176
     1
 90
       50
176
     1
290
     0
176
     1
 90
       50
176
     1
 62
   256
176
     0
 40
1.0
176
     0
 90
        2
176
     1
  1
strokes_ogs.tif
176
     1
290
     0
176
     1
 40
1.0
176
     1
 40
1.0
176
     1
  0
VISUALSTYLE
  5
2D
102
{ACAD_REACTORS
330
2A
102
}
330
2A
100
AcDbVisualStyle
  2
Gouraud
 70
     2
177
     3
291
     1
 70
    58
 90
        2
176
     1
 90
        2
176
     1
 90
        1
176
     1
 90
        2
176
     1
 40
0.6
176
     1
 40
30.0
176
     1
 62
     7
420
 16777215
176
     1
 90
        0
176
     1
 90
        0
176
     1
 62
     7
176
     1
 62
   257
176
     1
 90
        1
176
     1
 90
        1
176
     1
 40
1.0
176
     1
 90
        0
176
     1
 62
     7
176
     1
 40
1.0
176
     1
 90
        1
176
     1
 90
        6
176
     1
 90
        2
176
     1
 62
     7
176
     1
 90
        5
176
     1
 90
        0
176
     1
 90
        0
176
     1
290
     0
176
     1
 90
       13
176
     1
 40
0.0
176
     1
 90
        0
176
     1
290
     0
176
     1
290
     1
176
     1
290
     1
176
     1
290
     0
176
     1
290
     0
176
     1
290
     0
176
     1
290
     0
176
     1
290
     0
176
     1
290
     0
176
     1
 90
       50
176
     1
 40
0.0
176
     1
 40
1.0
176
     1
 90
        0
176
     1
 62
    18
420
        0
176
     1
 90
       50
176
     1
 90
        3
176
     1
 62
     5
420
      255
176
     1
290
     0
176
     1
 90
       50
176
     1
 90
       50
176
     1
 90
       50
176
     1
290
     0
176
     1
 90
       50
176
     1
 62
   256
176
     0
 40
1.0
176
     0
 90
        2
176
     1
  1
strokes_ogs.tif
176
     1
290
     0
176
     1
 40
1.0
176
     1
 40
1.0
176
     1
  0
VISUALSTYLE
  5
2E
102
{ACAD_REACTORS
330
2A
102
}
330
2A
100
AcDbVisualStyle
  2
GouraudWithEdges
 70
     3
177
     3
291
     1
 70
    58
 90
        2
176
     1
 90
        2
176
     1
 90
        1
176
     1
 90
        2
176
     1
 40
0.6
176
     1
 40
30.0
176
     1
 62
     7
420
 16777215
176
     1
 90
        1
176
     1
 90
        0
176
     1
 62
     7
176
     1
 62
   257
176
     1
 90
        1
176
     1
 90
        1
176
     1
 40
1.0
176
     1
 90
        0
176
     1
 62
   257
176
     1
 40
1.0
176
     1
 90
        1
176
     1
 90
        6
176
     1
 90
        2
176
     1
 62
     7
176
     1
 90
        5
176
     1
 90
        0
176
     1
 90
        0
176
     1
290
     0
176
     1
 90
       13
176
     1
 40
0.0
176
     1
 90
        0
176
     1
290
     0
176
     1
290
     1
176
     1
290
     1
176
     1
290
     0
176
     1
290
     0
176
     1
290
     0
176
     1
290
     0
176
     1
290
     0
176
     1
290
     0
176
     1
 90
       50
176
     1
 40
0.0
176
     1
 40
1.0
176
     1
 90
        0
176
     1
 62
    18
420
        0
176
     1
 90
       50
176
     1
 90
        3
176
     1
 62
     5
420
      255
176
     1
290
     0
176
     1
 90
       50
176
     1
 90
       50
176
     1
 90
       50
176
     1
290
     0
176
     1
 90
       50
176
     1
 62
   256
176
     0
 40
1.0
176
     0
 90
        2
176
     1
  1
strokes_ogs.tif
176
     1
290
     0
176
     1
 40
1.0
176
     1
 40
1.0
176
     1
  0
VISUALSTYLE
  5
31
102
{ACAD_REACTORS
330
2A
102
}
330
2A
100
AcDbVisualStyle
  2
Hidden
 70
     6
177
     3
291
     0
 70
    58
 90
        1
176
     1
 90
        2
176
     1
 90
        2
176
     1
 90
        0
176
     1
 40
0.6
176
     1
 40
30.0
176
     1
 62
     7
420
 16777215
176
     1
 90
        2
176
     1
 90
        2
176
     1
 62
     7
176
     1
 62
   257
176
     1
 90
        2
176
     1
 90
        1
176
     1
 40
40.0
176
     1
 90
        0
176
     1
 62
   257
176
     1
 40
1.0
176
     1
 90
        1
176
     1
 90
        6
176
     1
 90
        2
176
     1
 62
     7
176
     1
 90
        3
176
     1
 90
        0
176
     1
 90
        0
176
     1
290
     0
176
     1
 90
        1
176
     1
 40
0.0
176
     1
 90
        0
176
     1
290
     0
176
     1
290
     1
176
     1
290
     1
176
     1
290
     0
176
     1
290
     0
176
     1
290
     0
176
     1
290
     0
176
     1
290
     0
176
     1
290
     0
176
     1
 90
       50
176
     1
 40
0.0
176
     1
 40
1.0
176
     1
 90
        0
176
     1
 62
    18
420
        0
176
     1
 90
       50
176
     1
 90
        3
176
     1
 62
     5
420
      255
176
     1
290
     0
176
     1
 90
       50
176
     1
 90
       50
176
     1
 90
       50
176
     1
290
     0
176
     1
 90
       50
176
     1
 62
   256
176
     0
 40
1.0
176
     0
 90
        2
176
     1
  1
strokes_ogs.tif
176
     1
290
     0
176
     1
 40
1.0
176
     1
 40
1.0
176
     1
  0
VISUALSTYLE
  5
3B
102
{ACAD_REACTORS
330
2A
102
}
330
2A
100
AcDbVisualStyle
  2
JitterOff
 70
    20
177
     3
291
     1
 70
    58
 90
        2
176
     0
 90
        2
176
     0
 90
        0
176
     0
 90
        0
176
     0
 40
0.6
176
     0
 40
30.0
176
     0
 62
     7
420
 16777215
176
     0
 90
        1
176
     0
 90
        4
176
     0
 62
     7
176
     0
 62
   257
176
     0
 90
        1
176
     0
 90
        1
176
     0
 40
1.0
176
     0
 90
       10
176
     2
 62
     7
176
     0
 40
1.0
176
     0
 90
        1
176
     0
 90
        6
176
     0
 90
        2
176
     0
 62
     7
176
     0
 90
        5
176
     0
 90
        0
176
     0
 90
        0
176
     0
290
     0
176
     0
 90
        1
176
     0
 40
0.0
176
     0
 90
        0
176
     0
290
     0
176
     0
290
     1
176
     0
290
     1
176
     0
290
     0
176
     0
290
     0
176
     0
290
     0
176
     0
290
     0
176
     0
290
     0
176
     0
290
     0
176
     0
 90
       50
176
     0
 40
0.0
176
     0
 40
1.0
176
     0
 90
        0
176
     0
 62
    18
420
        0
176
     0
 90
       50
176
     0
 90
        3
176
     0
 62
     5
420
      255
176
     0
290
     0
176
     0
 90
       50
176
     0
 90
       50
176
     0
 90
       50
176
     0
290
     0
176
     0
 90
       50
176
     0
 62
   256
176
     0
 40
1.0
176
     0
 90
        2
176
     0
  1
strokes_ogs.tif
176
     0
290
     0
176
     0
 40
1.0
176
     0
 40
1.0
176
     0
  0
VISUALSTYLE
  5
38
102
{ACAD_REACTORS
330
2A
102
}
330
2A
100
AcDbVisualStyle
  2
Linepattern
 70
    14
177
     3
291
     1
 70
    58
 90
        2
176
     1
 90
        2
176
     1
 90
        0
176
     1
 90
        0
176
     1
 40
0.6
176
     1
 40
30.0
176
     1
 62
     7
420
 16777215
176
     1
 90
        1
176
     1
 90
        4
176
     1
 62
     7
176
     1
 62
   257
176
     1
 90
        7
176
     1
 90
        7
176
     1
 40
1.0
176
     1
 90
        8
176
     1
 62
     7
176
     1
 40
1.0
176
     1
 90
        1
176
     1
 90
        6
176
     1
 90
        2
176
     1
 62
     7
176
     1
 90
        5
176
     1
 90
        0
176
     1
 90
        0
176
     1
290
     0
176
     1
 90
        1
176
     1
 40
0.0
176
     1
 90
        0
176
     1
290
     0
176
     1
290
     1
176
     1
290
     1
176
     1
290
     0
176
     1
290
     0
176
     1
290
     0
176
     1
290
     0
176
     1
290
     0
176
     1
290
     0
176
     1
 90
       50
176
     1
 40
0.0
176
     1
 40
1.0
176
     1
 90
        0
176
     1
 62
    18
420
        0
176
     1
 90
       50
176
     1
 90
        3
176
     1
 62
     5
420
      255
176
     1
290
     0
176
     1
 90
       50
176
     1
 90
       50
176
     1
 90
       50
176
     1
290
     0
176
     1
 90
       50
176
     1
 62
   256
176
     0
 40
1.0
176
     0
 90
        2
176
     1
  1
strokes_ogs.tif
176
     1
290
     0
176
     1
 40
1.0
176
     1
 40
1.0
176
     1
  0
VISUALSTYLE
  5
3C
102
{ACAD_REACTORS
330
2A
102
}
330
2A
100
AcDbVisualStyle
  2
OverhangOff
 70
    21
177
     3
291
     1
 70
    58
 90
        2
176
     0
 90
        2
176
     0
 90
        0
176
     0
 90
        0
176
     0
 40
0.6
176
     0
 40
30.0
176
     0
 62
     7
420
 16777215
176
     0
 90
        1
176
     0
 90
        4
176
     0
 62
     7
176
     0
 62
   257
176
     0
 90
        1
176
     0
 90
        1
176
     0
 40
1.0
176
     0
 90
        9
176
     2
 62
     7
176
     0
 40
1.0
176
     0
 90
        1
176
     0
 90
        6
176
     0
 90
        2
176
     0
 62
     7
176
     0
 90
        5
176
     0
 90
        0
176
     0
 90
        0
176
     0
290
     0
176
     0
 90
        1
176
     0
 40
0.0
176
     0
 90
        0
176
     0
290
     0
176
     0
290
     1
176
     0
290
     1
176
     0
290
     0
176
     0
290
     0
176
     0
290
     0
176
     0
290
     0
176
     0
290
     0
176
     0
290
     0
176
     0
 90
       50
176
     0
 40
0.0
176
     0
 40
1.0
176
     0
 90
        0
176
     0
 62
    18
420
        0
176
     0
 90
       50
176
     0
 90
        3
176
     0
 62
     5
420
      255
176
     0
290
     0
176
     0
 90
       50
176
     0
 90
       50
176
     0
 90
       50
176
     0
290
     0
176
     0
 90
       50
176
     0
 62
   256
176
     0
 40
1.0
176
     0
 90
        2
176
     0
  1
strokes_ogs.tif
176
     0
290
     0
176
     0
 40
1.0
176
     0
 40
1.0
176
     0
  0
VISUALSTYLE
  5
33
102
{ACAD_REACTORS
330
2A
102
}
330
2A
100
AcDbVisualStyle
  2
Realistic
 70
     8
177
     3
291
     0
 70
    58
 90
        2
176
     1
 90
        3
176
     1
 90
        0
176
     1
 90
        2
176
     1
 40
0.6
176
     1
 40
30.0
176
     1
 62
     7
420
 16777215
176
     1
 90
        0
176
     1
 90
        0
176
     1
 62
     7
176
     1
 62
   257
176
     1
 90
        1
176
     1
 90
        1
176
     1
 40
1.0
176
     1
 90
        8
176
     1
 62
   257
176
     1
 40
1.0
176
     1
 90
        1
176
     1
 90
        6
176
     1
 90
        2
176
     1
 62
     7
176
     1
 90
        3
176
     1
 90
        0
176
     1
 90
        0
176
     1
290
     0
176
     1
 90
       13
176
     1
 40
0.0
176
     1
 90
        0
176
     1
290
     0
176
     1
290
     1
176
     1
290
     1
176
     1
290
     0
176
     1
290
     0
176
     1
290
     0
176
     1
290
     0
176
     1
290
     0
176
     1
290
     0
176
     1
 90
       50
176
     1
 40
0.0
176
     1
 40
1.0
176
     1
 90
        0
176
     1
 62
    18
420
        0
176
     1
 90
       50
176
     1
 90
        3
176
     1
 62
     5
420
      255
176
     1
290
     0
176
     1
 90
       50
176
     1
 90
       50
176
     1
 90
       50
176
     1
290
     0
176
     1
 90
       50
176
     1
 62
   256
176
     0
 40
1.0
176
     0
 90
        2
176
     1
  1
strokes_ogs.tif
176
     1
290
     0
176
     1
 40
1.0
176
     1
 40
1.0
176
     1
  0
VISUALSTYLE
  5
42
102
{ACAD_REACTORS
330
2A
102
}
330
2A
100
AcDbVisualStyle
  2
Shaded
 70
    27
177
     3
291
     0
 70
    58
 90
        2
176
     1
 90
        2
176
     1
 90
        1
176
     1
 90
        2
176
     1
 40
0.6
176
     1
 40
30.0
176
     1
 62
     7
420
 16777215
176
     1
 90
        0
176
     1
 90
        4
176
     1
 62
     7
176
     1
 62
   257
176
     1
 90
        1
176
     1
 90
        1
176
     1
 40
1.0
176
     1
 90
        8
176
     1
 62
   257
176
     1
 40
1.0
176
     1
 90
        1
176
     1
 90
        6
176
     1
 90
        2
176
     1
 62
     8
420
  7895160
176
     1
 90
        3
176
     1
 90
        0
176
     1
 90
        0
176
     1
290
     0
176
     1
 90
        5
176
     1
 40
0.0
176
     1
 90
        0
176
     1
290
     0
176
     1
290
     1
176
     1
290
     1
176
     1
290
     0
176
     1
290
     0
176
     1
290
     0
176
     1
290
     0
176
     1
290
     0
176
     1
290
     0
176
     1
 90
       50
176
     1
 40
0.0
176
     1
 40
1.0
176
     1
 90
        0
176
     1
 62
    18
420
        0
176
     1
 90
       50
176
     1
 90
        3
176
     1
 62
     5
420
      255
176
     1
290
     0
176
     1
 90
       50
176
     1
 90
       50
176
     1
 90
       50
176
     1
290
     0
176
     1
 90
       50
176
     1
 62
   256
176
     0
 40
1.0
176
     0
 90
        2
176
     1
  1
strokes_ogs.tif
176
     1
290
     0
176
     1
 40
1.0
176
     1
 40
1.0
176
     1
  0
VISUALSTYLE
  5
41
102
{ACAD_REACTORS
330
2A
102
}
330
2A
100
AcDbVisualStyle
  2
Shaded with edges
 70
    26
177
     3
291
     0
 70
    58
 90
        2
176
     1
 90
        2
176
     1
 90
        1
176
     1
 90
        2
176
     1
 40
0.6
176
     1
 40
30.0
176
     1
 62
     7
420
 16777215
176
     1
 90
        1
176
     1
 90
       10
176
     1
 62
     7
176
     1
 62
   257
176
     1
 90
        2
176
     1
 90
        1
176
     1
 40
1.0
176
     1
 90
        8
176
     1
 62
   257
176
     1
 40
1.0
176
     1
 90
        1
176
     1
 90
        6
176
     1
 90
        2
176
     1
 62
     7
176
     1
 90
        3
176
     1
 90
        0
176
     1
 90
        0
176
     1
290
     0
176
     1
 90
        5
176
     1
 40
0.0
176
     1
 90
        0
176
     1
290
     0
176
     1
290
     1
176
     1
290
     1
176
     1
290
     0
176
     1
290
     0
176
     1
290
     0
176
     1
290
     0
176
     1
290
     0
176
     1
290
     0
176
     1
 90
       50
176
     1
 40
0.0
176
     1
 40
1.0
176
     1
 90
        0
176
     1
 62
    18
420
        0
176
     1
 90
       50
176
     1
 90
        3
176
     1
 62
     5
420
      255
176
     1
290
     0
176
     1
 90
       50
176
     1
 90
       50
176
     1
 90
       50
176
     1
290
     0
176
     1
 90
       50
176
     1
 62
   256
176
     0
 40
1.0
176
     0
 90
        2
176
     1
  1
strokes_ogs.tif
176
     1
290
     0
176
     1
 40
1.0
176
     1
 40
1.0
176
     1
  0
VISUALSTYLE
  5
3E
102
{ACAD_REACTORS
330
2A
102
}
330
2A
100
AcDbVisualStyle
  2
Shades of Gray
 70
    23
177
     3
291
     0
 70
    58
 90
        2
176
     1
 90
        2
176
     1
 90
        3
176
     1
 90
        0
176
     1
 40
0.6
176
     1
 40
30.0
176
     1
 62
     7
420
 16777215
176
     1
 90
        2
176
     1
 90
        2
176
     1
 62
     7
176
     1
 62
     7
176
     1
 90
        1
176
     1
 90
        1
176
     1
 40
40.0
176
     1
 90
        8
176
     1
 62
     7
176
     1
 40
1.0
176
     1
 90
        1
176
     1
 90
        6
176
     1
 90
        2
176
     1
 62
     7
176
     1
 90
        3
176
     1
 90
        0
176
     1
 90
        0
176
     1
290
     0
176
     1
 90
        1
176
     1
 40
0.0
176
     1
 90
        0
176
     1
290
     0
176
     1
290
     1
176
     1
290
     1
176
     1
290
     0
176
     1
290
     0
176
     1
290
     0
176
     1
290
     0
176
     1
290
     0
176
     1
290
     0
176
     1
 90
       50
176
     1
 40
0.0
176
     1
 40
1.0
176
     1
 90
        0
176
     1
 62
    18
420
        0
176
     1
 90
       50
176
     1
 90
        3
176
     1
 62
     5
420
      255
176
     1
290
     0
176
     1
 90
       50
176
     1
 90
       50
176
     1
 90
       50
176
     1
290
     0
176
     1
 90
       50
176
     1
 62
   256
176
     0
 40
1.0
176
     0
 90
        2
176
     1
  1
strokes_ogs.tif
176
     1
290
     0
176
     1
 40
1.0
176
     1
 40
1.0
176
     1
  0
VISUALSTYLE
  5
3F
102
{ACAD_REACTORS
330
2A
102
}
330
2A
100
AcDbVisualStyle
  2
Sketchy
 70
    24
177
     3
291
     0
 70
    58
 90
        1
176
     1
 90
        2
176
     1
 90
        2
176
     1
 90
        0
176
     1
 40
0.6
176
     1
 40
30.0
176
     1
 62
     7
420
 16777215
176
     1
 90
        2
176
     1
 90
        2
176
     1
 62
     7
176
     1
 62
     7
176
     1
 90
        1
176
     1
 90
        1
176
     1
 40
40.0
176
     1
 90
       11
176
     1
 62
     7
176
     1
 40
1.0
176
     1
 90
        1
176
     1
 90
        6
176
     1
 90
        2
176
     1
 62
     7
176
     1
 90
        6
176
     1
 90
        0
176
     1
 90
        0
176
     1
290
     0
176
     1
 90
        1
176
     1
 40
0.0
176
     1
 90
        0
176
     1
290
     0
176
     1
290
     1
176
     1
290
     1
176
     1
290
     0
176
     1
290
     0
176
     1
290
     0
176
     1
290
     0
176
     1
290
     0
176
     1
290
     0
176
     1
 90
       50
176
     1
 40
0.0
176
     1
 40
1.0
176
     1
 90
        0
176
     1
 62
    18
420
        0
176
     1
 90
       50
176
     1
 90
        3
176
     1
 62
     5
420
      255
176
     1
290
     0
176
     1
 90
       50
176
     1
 90
       50
176
     1
 90
       50
176
     1
290
     0
176
     1
 90
       50
176
     1
 62
   256
176
     0
 40
1.0
176
     0
 90
        2
176
     1
  1
strokes_ogs.tif
176
     1
290
     0
176
     1
 40
1.0
176
     1
 40
1.0
176
     1
  0
VISUALSTYLE
  5
37
102
{ACAD_REACTORS
330
2A
102
}
330
2A
100
AcDbVisualStyle
  2
Thicken
 70
    13
177
     3
291
     1
 70
    58
 90
        2
176
     1
 90
        2
176
     1
 90
        0
176
     1
 90
        0
176
     1
 40
0.6
176
     1
 40
30.0
176
     1
 62
     7
420
 16777215
176
     1
 90
        1
176
     1
 90
        4
176
     1
 62
     7
176
     1
 62
   257
176
     1
 90
        1
176
     1
 90
        1
176
     1
 40
1.0
176
     1
 90
       12
176
     1
 62
     7
176
     1
 40
1.0
176
     1
 90
        1
176
     1
 90
        6
176
     1
 90
        2
176
     1
 62
     7
176
     1
 90
        5
176
     1
 90
        0
176
     1
 90
        0
176
     1
290
     0
176
     1
 90
        1
176
     1
 40
0.0
176
     1
 90
        0
176
     1
290
     0
176
     1
290
     1
176
     1
290
     1
176
     1
290
     0
176
     1
290
     0
176
     1
290
     0
176
     1
290
     0
176
     1
290
     0
176
     1
290
     0
176
     1
 90
       50
176
     1
 40
0.0
176
     1
 40
1.0
176
     1
 90
        0
176
     1
 62
    18
420
        0
176
     1
 90
       50
176
     1
 90
        3
176
     1
 62
     5
420
      255
176
     1
290
     0
176
     1
 90
       50
176
     1
 90
       50
176
     1
 90
       50
176
     1
290
     0
176
     1
 90
       50
176
     1
 62
   256
176
     0
 40
1.0
176
     0
 90
        2
176
     1
  1
strokes_ogs.tif
176
     1
290
     0
176
     1
 40
1.0
176
     1
 40
1.0
176
     1
  0
VISUALSTYLE
  5
30
102
{ACAD_REACTORS
330
2A
102
}
330
2A
100
AcDbVisualStyle
  2
Wireframe
 70
     5
177
     3
291
     0
 70
    58
 90
        0
176
     1
 90
        2
176
     1
 90
        0
176
     1
 90
        0
176
     1
 40
0.6
176
     1
 40
30.0
176
     1
 62
     7
420
 16777215
176
     1
 90
        1
176
     1
 90
        4
176
     1
 62
     7
176
     1
 62
   257
176
     1
 90
        1
176
     1
 90
        1
176
     1
 40
1.0
176
     1
 90
        0
176
     1
 62
   257
176
     1
 40
1.0
176
     1
 90
        1
176
     1
 90
        6
176
     1
 90
        2
176
     1
 62
     7
176
     1
 90
        3
176
     1
 90
        0
176
     1
 90
        0
176
     1
290
     0
176
     1
 90
        1
176
     1
 40
0.0
176
     1
 90
        0
176
     1
290
     0
176
     1
290
     1
176
     1
290
     1
176
     1
290
     0
176
     1
290
     0
176
     1
290
     0
176
     1
290
     0
176
     1
290
     0
176
     1
290
     0
176
     1
 90
       50
176
     1
 40
0.0
176
     1
 40
1.0
176
     1
 90
        0
176
     1
 62
    18
420
        0
176
     1
 90
       50
176
     1
 90
        3
176
     1
 62
     5
420
      255
176
     1
290
     0
176
     1
 90
       50
176
     1
 90
       50
176
     1
 90
       50
176
     1
290
     0
176
     1
 90
       50
176
     1
 62
   256
176
     0
 40
1.0
176
     0
 90
        2
176
     1
  1
strokes_ogs.tif
176
     1
290
     0
176
     1
 40
1.0
176
     1
 40
1.0
176
     1
  0
VISUALSTYLE
  5
40
102
{ACAD_REACTORS
330
2A
102
}
330
2A
100
AcDbVisualStyle
  2
X-Ray
 70
    25
177
     3
291
     0
 70
    58
 90
        2
176
     1
 90
        2
176
     1
 90
        1
176
     1
 90
        1
176
     1
 40
0.5
176
     1
 40
30.0
176
     1
 62
     7
420
 16777215
176
     1
 90
        1
176
     1
 90
        0
176
     1
 62
     7
176
     1
 62
   257
176
     1
 90
        1
176
     1
 90
        1
176
     1
 40
1.0
176
     1
 90
        8
176
     1
 62
     7
176
     1
 40
1.0
176
     1
 90
        1
176
     1
 90
        6
176
     1
 90
        2
176
     1
 62
     7
176
     1
 90
        3
176
     1
 90
        0
176
     1
 90
        0
176
     1
290
     0
176
     1
 90
       13
176
     1
 40
0.0
176
     1
 90
        0
176
     1
290
     0
176
     1
290
     1
176
     1
290
     1
176
     1
290
     0
176
     1
290
     0
176
     1
290
     0
176
     1
290
     0
176
     1
290
     0
176
     1
290
     0
176
     1
 90
       50
176
     1
 40
0.0
176
     1
 40
1.0
176
     1
 90
        0
176
     1
 62
    18
420
        0
176
     1
 90
       50
176
     1
 90
        3
176
     1
 62
     5
420
      255
176
     1
290
     0
176
     1
 90
       50
176
     1
 90
       50
176
     1
 90
       50
176
     1
290
     0
176
     1
 90
       50
176
     1
 62
   256
176
     0
 40
1.0
176
     0
 90
        2
176
     1
  1
strokes_ogs.tif
176
     1
290
     0
176
     1
 40
1.0
176
     1
 40
1.0
176
     1
  0
DICTIONARYVAR
  5
301
102
{ACAD_REACTORS
330
300
102
}
330
300
100
DictionaryVariables
280
     0
  1
1:1
  0
DICTIONARYVAR
  5
309
102
{ACAD_REACTORS
330
300
102
}
330
300
100
DictionaryVariables
280
     0
  1
3.500000
  0
DICTIONARYVAR
  5
30A
102
{ACAD_REACTORS
330
300
102
}
330
300
100
DictionaryVariables
280
     0
  1
acadiso.lin
  0
DICTIONARYVAR
  5
306
102
{ACAD_REACTORS
330
300
102
}
330
300
100
DictionaryVariables
280
     0
  1
Standard
  0
DICTIONARYVAR
  5
305
102
{ACAD_REACTORS
330
300
102
}
330
300
100
DictionaryVariables
280
     0
  1
Standard
  0
DICTIONARY
  5
302
330
6A
100
AcDbDictionary
280
     1
281
     1
  3
ACAD_ROUNDTRIP_2008_TABLESTYLE_CELLSTYLEMAP
360
303
  0
CELLSTYLEMAP
  5
303
102
{ACAD_REACTORS
330
302
102
}
330
302
100
AcDbCellStyleMap
 90
        3
300
CELLSTYLE
  1
TABLEFORMAT_BEGIN
 90
        5
170
     1
 91
        0
 92
    32768
 62
   257
 93
        1
300
CONTENTFORMAT
  1
CONTENTFORMAT_BEGIN
 90
        0
 91
        0
 92
        4
 93
        0
300

 40
0.0
140
1.0
 94
        5
 62
     0
340
11
144
6.0
309
CONTENTFORMAT_END
171
     1
301
MARGIN
  1
CELLMARGIN_BEGIN
 40
1.5
 40
1.5
 40
1.5
 40
1.5
 40
1.5
 40
1.5
309
CELLMARGIN_END
 94
        6
 95
        1
302
GRIDFORMAT
  1
GRIDFORMAT_BEGIN
 90
        0
 91
        1
 62
     0
 92
       -2
340
14
 93
        0
 40
0.045
309
GRIDFORMAT_END
 95
        2
302
GRIDFORMAT
  1
GRIDFORMAT_BEGIN
 90
        0
 91
        1
 62
     0
 92
       -2
340
14
 93
        0
 40
0.045
309
GRIDFORMAT_END
 95
        4
302
GRIDFORMAT
  1
GRIDFORMAT_BEGIN
 90
        0
 91
        1
 62
     0
 92
       -2
340
14
 93
        0
 40
0.045
309
GRIDFORMAT_END
 95
        8
302
GRIDFORMAT
  1
GRIDFORMAT_BEGIN
 90
        0
 91
        1
 62
     0
 92
       -2
340
14
 93
        0
 40
0.045
309
GRIDFORMAT_END
 95
       16
302
GRIDFORMAT
  1
GRIDFORMAT_BEGIN
 90
        0
 91
        1
 62
     0
 92
       -2
340
14
 93
        0
 40
0.045
309
GRIDFORMAT_END
 95
       32
302
GRIDFORMAT
  1
GRIDFORMAT_BEGIN
 90
        0
 91
        1
 62
     0
 92
       -2
340
14
 93
        0
 40
0.045
309
GRIDFORMAT_END
309
TABLEFORMAT_END
  1
CELLSTYLE_BEGIN
 90
        1
 91
        1
300
_TITLE
309
CELLSTYLE_END
300
CELLSTYLE
  1
TABLEFORMAT_BEGIN
 90
        5
170
     1
 91
        0
 92
        0
 62
   257
 93
        1
300
CONTENTFORMAT
  1
CONTENTFORMAT_BEGIN
 90
        0
 91
        0
 92
        4
 93
        0
300

 40
0.0
140
1.0
 94
        5
 62
     0
340
11
144
4.5
309
CONTENTFORMAT_END
171
     1
301
MARGIN
  1
CELLMARGIN_BEGIN
 40
1.5
 40
1.5
 40
1.5
 40
1.5
 40
1.5
 40
1.5
309
CELLMARGIN_END
 94
        6
 95
        1
302
GRIDFORMAT
  1
GRIDFORMAT_BEGIN
 90
        0
 91
        1
 62
     0
 92
       -2
340
14
 93
        0
 40
0.045
309
GRIDFORMAT_END
 95
        2
302
GRIDFORMAT
  1
GRIDFORMAT_BEGIN
 90
        0
 91
        1
 62
     0
 92
       -2
340
14
 93
        0
 40
0.045
309
GRIDFORMAT_END
 95
        4
302
GRIDFORMAT
  1
GRIDFORMAT_BEGIN
 90
        0
 91
        1
 62
     0
 92
       -2
340
14
 93
        0
 40
0.045
309
GRIDFORMAT_END
 95
        8
302
GRIDFORMAT
  1
GRIDFORMAT_BEGIN
 90
        0
 91
        1
 62
     0
 92
       -2
340
14
 93
        0
 40
0.045
309
GRIDFORMAT_END
 95
       16
302
GRIDFORMAT
  1
GRIDFORMAT_BEGIN
 90
        0
 91
        1
 62
     0
 92
       -2
340
14
 93
        0
 40
0.045
309
GRIDFORMAT_END
 95
       32
302
GRIDFORMAT
  1
GRIDFORMAT_BEGIN
 90
        0
 91
        1
 62
     0
 92
       -2
340
14
 93
        0
 40
0.045
309
GRIDFORMAT_END
309
TABLEFORMAT_END
  1
CELLSTYLE_BEGIN
 90
        2
 91
        1
300
_HEADER
309
CELLSTYLE_END
300
CELLSTYLE
  1
TABLEFORMAT_BEGIN
 90
        5
170
     1
 91
        0
 92
        0
 62
   257
 93
        1
300
CONTENTFORMAT
  1
CONTENTFORMAT_BEGIN
 90
        0
 91
        0
 92
        4
 93
        0
300

 40
0.0
140
1.0
 94
        2
 62
     0
340
11
144
4.5
309
CONTENTFORMAT_END
171
     1
301
MARGIN
  1
CELLMARGIN_BEGIN
 40
1.5
 40
1.5
 40
1.5
 40
1.5
 40
1.5
 40
1.5
309
CELLMARGIN_END
 94
        6
 95
        1
302
GRIDFORMAT
  1
GRIDFORMAT_BEGIN
 90
        0
 91
        1
 62
     0
 92
       -2
340
14
 93
        0
 40
0.045
309
GRIDFORMAT_END
 95
        2
302
GRIDFORMAT
  1
GRIDFORMAT_BEGIN
 90
        0
 91
        1
 62
     0
 92
       -2
340
14
 93
        0
 40
0.045
309
GRIDFORMAT_END
 95
        4
302
GRIDFORMAT
  1
GRIDFORMAT_BEGIN
 90
        0
 91
        1
 62
     0
 92
       -2
340
14
 93
        0
 40
0.045
309
GRIDFORMAT_END
 95
        8
302
GRIDFORMAT
  1
GRIDFORMAT_BEGIN
 90
        0
 91
        1
 62
     0
 92
       -2
340
14
 93
        0
 40
0.045
309
GRIDFORMAT_END
 95
       16
302
GRIDFORMAT
  1
GRIDFORMAT_BEGIN
 90
        0
 91
        1
 62
     0
 92
       -2
340
14
 93
        0
 40
0.045
309
GRIDFORMAT_END
 95
       32
302
GRIDFORMAT
  1
GRIDFORMAT_BEGIN
 90
        0
 91
        1
 62
     0
 92
       -2
340
14
 93
        0
 40
0.045
309
GRIDFORMAT_END
309
TABLEFORMAT_END
  1
CELLSTYLE_BEGIN
 90
        3
 91
        2
300
_DATA
309
CELLSTYLE_END
  0
ENDSEC
  0
EOF
