  0
SECTION
  2
HEADER
  9
$ACADVER
  1
AC1032
  9
$ACADMAINTVER
 90
        4
  9
$DWGCODEPAGE
  3
ANSI_932
  9
$LASTSAVEDBY
  1
mizuki.kobayashi
  9
$REQUIREDVERSIONS
160
                 0
  9
$INSBASE
 10
0.0
 20
0.0
 30
0.0
  9
$EXTMIN
 10
-2100.0
 20
-1485.0
 30
0.0
  9
$EXTMAX
 10
2100.0
 20
1485.0
 30
0.0
  9
$LIMMIN
 10
-2100.0
 20
-1485.0
  9
$LIMMAX
 10
2100.0
 20
1485.0
  9
$ORTHOMODE
 70
     0
  9
$REGENMODE
 70
     1
  9
$FILLMODE
 70
     1
  9
$QTEXTMODE
 70
     0
  9
$MIRRTEXT
 70
     1
  9
$LTSCALE
 40
10.0
  9
$ATTMODE
 70
     1
  9
$TEXTSIZE
 40
2.5
  9
$TRACEWID
 40
1.0
  9
$TEXTSTYLE
  7
Standard
  9
$CLAYER
  8
0
  9
$CELTYPE
  6
ByLayer
  9
$CECOLOR
 62
   256
  9
$CELTSCALE
 40
1.0
  9
$DISPSILH
 70
     0
  9
$DIMSCALE
 40
1.0
  9
$DIMASZ
 40
2.5
  9
$DIMEXO
 40
0.625
  9
$DIMDLI
 40
3.75
  9
$DIMRND
 40
0.0
  9
$DIMDLE
 40
0.0
  9
$DIMEXE
 40
1.25
  9
$DIMTP
 40
0.0
  9
$DIMTM
 40
0.0
  9
$DIMTXT
 40
2.5
  9
$DIMCEN
 40
2.5
  9
$DIMTSZ
 40
0.0
  9
$DIMTOL
 70
     0
  9
$DIMLIM
 70
     0
  9
$DIMTIH
 70
     0
  9
$DIMTOH
 70
     0
  9
$DIMSE1
 70
     0
  9
$DIMSE2
 70
     0
  9
$DIMTAD
 70
     1
  9
$DIMZIN
 70
     8
  9
$DIMBLK
  1

  9
$DIMASO
 70
     1
  9
$DIMSHO
 70
     1
  9
$DIMPOST
  1

  9
$DIMAPOST
  1

  9
$DIMALT
 70
     0
  9
$DIMALTD
 70
     3
  9
$DIMALTF
 40
0.03937007874016
  9
$DIMLFAC
 40
1.0
  9
$DIMTOFL
 70
     1
  9
$DIMTVP
 40
0.0
  9
$DIMTIX
 70
     0
  9
$DIMSOXD
 70
     0
  9
$DIMSAH
 70
     0
  9
$DIMBLK1
  1

  9
$DIMBLK2
  1

  9
$DIMSTYLE
  2
ISO-25
  9
$DIMCLRD
 70
     0
  9
$DIMCLRE
 70
     0
  9
$DIMCLRT
 70
     0
  9
$DIMTFAC
 40
1.0
  9
$DIMGAP
 40
0.625
  9
$DIMJUST
 70
     0
  9
$DIMSD1
 70
     0
  9
$DIMSD2
 70
     0
  9
$DIMTOLJ
 70
     0
  9
$DIMTZIN
 70
     8
  9
$DIMALTZ
 70
     0
  9
$DIMALTTZ
 70
     0
  9
$DIMUPT
 70
     0
  9
$DIMDEC
 70
     2
  9
$DIMTDEC
 70
     2
  9
$DIMALTU
 70
     2
  9
$DIMALTTD
 70
     3
  9
$DIMTXSTY
  7
Standard
  9
$DIMAUNIT
 70
     0
  9
$DIMADEC
 70
     0
  9
$DIMALTRND
 40
0.0
  9
$DIMAZIN
 70
     0
  9
$DIMDSEP
 70
    44
  9
$DIMATFIT
 70
     3
  9
$DIMFRAC
 70
     0
  9
$DIMLDRBLK
  1

  9
$DIMLUNIT
 70
     2
  9
$DIMLWD
 70
    -2
  9
$DIMLWE
 70
    -2
  9
$DIMTMOVE
 70
     0
  9
$DIMFXL
 40
1.0
  9
$DIMFXLON
 70
     0
  9
$DIMJOGANG
 40
0.7853981633974483
  9
$DIMTFILL
 70
     0
  9
$DIMTFILLCLR
 70
     0
  9
$DIMARCSYM
 70
     0
  9
$DIMLTYPE
  6

  9
$DIMLTEX1
  6

  9
$DIMLTEX2
  6

  9
$DIMTXTDIRECTION
 70
     0
  9
$LUNITS
 70
     2
  9
$LUPREC
 70
     4
  9
$SKETCHINC
 40
1.0
  9
$FILLETRAD
 40
10.0
  9
$AUNITS
 70
     0
  9
$AUPREC
 70
     0
  9
$MENU
  1
.
  9
$ELEVATION
 40
0.0
  9
$PELEVATION
 40
0.0
  9
$THICKNESS
 40
0.0
  9
$LIMCHECK
 70
     0
  9
$CHAMFERA
 40
0.0
  9
$CHAMFERB
 40
0.0
  9
$CHAMFERC
 40
0.0
  9
$CHAMFERD
 40
0.0
  9
$SKPOLY
 70
     0
  9
$TDCREATE
 40
2459192.418282963
  9
$TDUCREATE
 40
2459192.043282963
  9
$TDUPDATE
 40
2459192.418283067
  9
$TDUUPDATE
 40
2459192.043283067
  9
$TDINDWG
 40
0.0000000116
  9
$TDUSRTIMER
 40
0.0000000116
  9
$USRTIMER
 70
     1
  9
$ANGBASE
 50
0.0
  9
$ANGDIR
 70
     0
  9
$PDMODE
 70
     0
  9
$PDSIZE
 40
0.0
  9
$PLINEWID
 40
0.0
  9
$SPLFRAME
 70
     0
  9
$SPLINETYPE
 70
     6
  9
$SPLINESEGS
 70
     8
  9
$HANDSEED
  5
2C3
  9
$SURFTAB1
 70
     6
  9
$SURFTAB2
 70
     6
  9
$SURFTYPE
 70
     6
  9
$SURFU
 70
     6
  9
$SURFV
 70
     6
  9
$UCSBASE
  2

  9
$UCSNAME
  2

  9
$UCSORG
 10
0.0
 20
0.0
 30
0.0
  9
$UCSXDIR
 10
1.0
 20
0.0
 30
0.0
  9
$UCSYDIR
 10
0.0
 20
1.0
 30
0.0
  9
$UCSORTHOREF
  2

  9
$UCSORTHOVIEW
 70
     0
  9
$UCSORGTOP
 10
0.0
 20
0.0
 30
0.0
  9
$UCSORGBOTTOM
 10
0.0
 20
0.0
 30
0.0
  9
$UCSORGLEFT
 10
0.0
 20
0.0
 30
0.0
  9
$UCSORGRIGHT
 10
0.0
 20
0.0
 30
0.0
  9
$UCSORGFRONT
 10
0.0
 20
0.0
 30
0.0
  9
$UCSORGBACK
 10
0.0
 20
0.0
 30
0.0
  9
$PUCSBASE
  2

  9
$PUCSNAME
  2

  9
$PUCSORG
 10
0.0
 20
0.0
 30
0.0
  9
$PUCSXDIR
 10
1.0
 20
0.0
 30
0.0
  9
$PUCSYDIR
 10
0.0
 20
1.0
 30
0.0
  9
$PUCSORTHOREF
  2

  9
$PUCSORTHOVIEW
 70
     0
  9
$PUCSORGTOP
 10
0.0
 20
0.0
 30
0.0
  9
$PUCSORGBOTTOM
 10
0.0
 20
0.0
 30
0.0
  9
$PUCSORGLEFT
 10
0.0
 20
0.0
 30
0.0
  9
$PUCSORGRIGHT
 10
0.0
 20
0.0
 30
0.0
  9
$PUCSORGFRONT
 10
0.0
 20
0.0
 30
0.0
  9
$PUCSORGBACK
 10
0.0
 20
0.0
 30
0.0
  9
$USERI1
 70
     0
  9
$USERI2
 70
     0
  9
$USERI3
 70
     0
  9
$USERI4
 70
     0
  9
$USERI5
 70
     0
  9
$USERR1
 40
0.0
  9
$USERR2
 40
0.0
  9
$USERR3
 40
0.0
  9
$USERR4
 40
0.0
  9
$USERR5
 40
0.0
  9
$WORLDVIEW
 70
     1
  9
$SHADEDGE
 70
     3
  9
$SHADEDIF
 70
    70
  9
$TILEMODE
 70
     1
  9
$MAXACTVP
 70
    64
  9
$PINSBASE
 10
0.0
 20
0.0
 30
0.0
  9
$PLIMCHECK
 70
     0
  9
$PEXTMIN
 10
1.000000000000000E+20
 20
1.000000000000000E+20
 30
1.000000000000000E+20
  9
$PEXTMAX
 10
-1.000000000000000E+20
 20
-1.000000000000000E+20
 30
-1.000000000000000E+20
  9
$PLIMMIN
 10
0.0
 20
0.0
  9
$PLIMMAX
 10
420.0
 20
297.0
  9
$UNITMODE
 70
     0
  9
$VISRETAIN
 70
     1
  9
$PLINEGEN
 70
     0
  9
$PSLTSCALE
 70
     1
  9
$TREEDEPTH
 70
  3020
  9
$CMLSTYLE
  2
Standard
  9
$CMLJUST
 70
     0
  9
$CMLSCALE
 40
20.0
  9
$PROXYGRAPHICS
 70
     1
  9
$MEASUREMENT
 70
     1
  9
$CELWEIGHT
370
    -1
  9
$ENDCAPS
280
     0
  9
$JOINSTYLE
280
     0
  9
$LWDISPLAY
290
     0
  9
$INSUNITS
 70
     4
  9
$HYPERLINKBASE
  1

  9
$STYLESHEET
  1

  9
$XEDIT
290
     1
  9
$CEPSNTYPE
380
     0
  9
$PSTYLEMODE
290
     1
  9
$FINGERPRINTGUID
  2
{4dc2ede6-ed8e-4e6e-88f8-c8a3ad664cf7}
  9
$VERSIONGUID
  2
{FAEB1C32-E019-11D5-929B-00C0DF256EC4}
  9
$EXTNAMES
290
     1
  9
$PSVPSCALE
 40
0.0
  9
$OLESTARTUP
290
     0
  9
$SORTENTS
280
   127
  9
$INDEXCTL
280
     0
  9
$HIDETEXT
280
     1
  9
$XCLIPFRAME
280
     2
  9
$HALOGAP
280
     0
  9
$OBSCOLOR
 70
   257
  9
$OBSLTYPE
280
     0
  9
$INTERSECTIONDISPLAY
280
     0
  9
$INTERSECTIONCOLOR
 70
   257
  9
$DIMASSOC
280
     2
  9
$PROJECTNAME
  1

  9
$CAMERADISPLAY
290
     0
  9
$LENSLENGTH
 40
50.0
  9
$CAMERAHEIGHT
 40
0.0
  9
$STEPSPERSEC
 40
2.0
  9
$STEPSIZE
 40
6.0
  9
$3DDWFPREC
 40
2.0
  9
$PSOLWIDTH
 40
5.0
  9
$PSOLHEIGHT
 40
80.0
  9
$LOFTANG1
 40
1.570796326794897
  9
$LOFTANG2
 40
1.570796326794897
  9
$LOFTMAG1
 40
0.0
  9
$LOFTMAG2
 40
0.0
  9
$LOFTPARAM
 70
     7
  9
$LOFTNORMALS
280
     1
  9
$LATITUDE
 40
37.795
  9
$LONGITUDE
 40
-122.394
  9
$NORTHDIRECTION
 40
0.0
  9
$TIMEZONE
 70
 -8000
  9
$LIGHTGLYPHDISPLAY
280
     1
  9
$TILEMODELIGHTSYNCH
280
     1
  9
$CMATERIAL
347
44
  9
$SOLIDHIST
280
     0
  9
$SHOWHIST
280
     1
  9
$DWFFRAME
280
     2
  9
$DGNFRAME
280
     2
  9
$REALWORLDSCALE
290
     1
  9
$INTERFERECOLOR
 62
   256
  9
$CSHADOW
280
     0
  9
$SHADOWPLANELOCATION
 40
0.0
  0
ENDSEC
  0
SECTION
  2
CLASSES
  0
CLASS
  1
ACDBDICTIONARYWDFLT
  2
AcDbDictionaryWithDefault
  3
ObjectDBX Classes
 90
        0
 91
        3
280
     0
281
     0
  0
CLASS
  1
VISUALSTYLE
  2
AcDbVisualStyle
  3
ObjectDBX Classes
 90
     4095
 91
        3
280
     0
281
     0
  0
CLASS
  1
MATERIAL
  2
AcDbMaterial
  3
ObjectDBX Classes
 90
     1153
 91
        3
280
     0
281
     0
  0
CLASS
  1
SCALE
  2
AcDbScale
  3
ObjectDBX Classes
 90
     1153
 91
        3
280
     0
281
     0
  0
CLASS
  1
TABLESTYLE
  2
AcDbTableStyle
  3
ObjectDBX Classes
 90
     4095
 91
        3
280
     0
281
     0
  0
CLASS
  1
MLEADERSTYLE
  2
AcDbMLeaderStyle
  3
ACDB_MLEADERSTYLE_CLASS
 90
     4095
 91
        3
280
     0
281
     0
  0
CLASS
  1
SUN
  2
AcDbSun
  3
SCENEOE
 90
     1153
 91
        3
280
     0
281
     0
  0
CLASS
  1
DICTIONARYVAR
  2
AcDbDictionaryVar
  3
ObjectDBX Classes
 90
        0
 91
        3
280
     0
281
     0
  0
CLASS
  1
CELLSTYLEMAP
  2
AcDbCellStyleMap
  3
ObjectDBX Classes
 90
     1152
 91
        3
280
     0
281
     0
  0
ENDSEC
  0
SECTION
  2
TABLES
  0
TABLE
  2
VPORT
  5
8
330
0
100
AcDbSymbolTable
 70
     1
  0
VPORT
  5
29
330
8
100
AcDbSymbolTableRecord
100
AcDbViewportTableRecord
  2
*Active
 70
     0
 10
0.0
 20
0.0
 11
1.0
 21
1.0
 12
0.0
 22
0.0
 13
0.0
 23
0.0
 14
10.0
 24
10.0
 15
10.0
 25
10.0
 16
0.0
 26
0.0
 36
1.0
 17
0.0
 27
0.0
 37
0.0
 40
3267.0
 41
1.414141414141414
 42
50.0
 43
0.0
 44
0.0
 50
0.0
 51
0.0
 71
     0
 72
 10000
 73
     1
 74
     3
 75
     0
 76
     0
 77
     0
 78
     0
281
     0
 65
     1
110
0.0
120
0.0
130
0.0
111
1.0
121
0.0
131
0.0
112
0.0
122
1.0
132
0.0
 79
     0
146
0.0
348
2F
 60
     3
 61
     5
292
     1
282
     1
141
0.0
142
0.0
 63
   250
361
6D
  0
ENDTAB
  0
TABLE
  2
LTYPE
  5
5
330
0
100
AcDbSymbolTable
 70
     3
  0
LTYPE
  5
14
330
5
100
AcDbSymbolTableRecord
100
AcDbLinetypeTableRecord
  2
ByBlock
 70
     0
  3

 72
    65
 73
     0
 40
0.0
  0
LTYPE
  5
15
330
5
100
AcDbSymbolTableRecord
100
AcDbLinetypeTableRecord
  2
ByLayer
 70
     0
  3

 72
    65
 73
     0
 40
0.0
  0
LTYPE
  5
16
330
5
100
AcDbSymbolTableRecord
100
AcDbLinetypeTableRecord
  2
Continuous
 70
     0
  3
Solid line
 72
    65
 73
     0
 40
0.0
  0
LTYPE
  5
6F
330
5
100
AcDbSymbolTableRecord
100
AcDbLinetypeTableRecord
  2
JWW_CENTER1
 70
     0
  3
-----  --  ----------  --  -----
 72
    65
 73
     8
 40
13.54666666666667
 49
4.233333333333333
 74
     0
 49
-0.8466666666666667
 74
     0
 49
0.8466666666666667
 74
     0
 49
-0.8466666666666667
 74
     0
 49
4.233333333333333
 74
     0
 49
-0.8466666666666667
 74
     0
 49
0.8466666666666667
 74
     0
 49
-0.8466666666666667
 74
     0
  0
LTYPE
  5
70
330
5
100
AcDbSymbolTableRecord
100
AcDbLinetypeTableRecord
  2
JWW_DASHED1
 70
     0
  3
-  --  --  --  --  --  --  --  -
 72
    65
 73
    12
 40
10.16
 49
0.8466666666666667
 74
     0
 49
-0.8466666666666667
 74
     0
 49
0.8466666666666667
 74
     0
 49
-0.8466666666666667
 74
     0
 49
0.8466666666666667
 74
     0
 49
-0.8466666666666667
 74
     0
 49
0.8466666666666667
 74
     0
 49
-0.8466666666666667
 74
     0
 49
0.8466666666666667
 74
     0
 49
-0.8466666666666667
 74
     0
 49
0.8466666666666667
 74
     0
 49
-0.8466666666666667
 74
     0
  0
ENDTAB
  0
TABLE
  2
LAYER
  5
2
330
0
100
AcDbSymbolTable
 70
    16
  0
LAYER
  5
10
330
2
100
AcDbSymbolTableRecord
100
AcDbLayerTableRecord
  2
0
 70
     0
 62
     7
  6
Continuous
370
    -3
390
F
347
46
348
0
  0
LAYER
  5
71
330
2
100
AcDbSymbolTableRecord
100
AcDbLayerTableRecord
  2
1-8
 70
     0
 62
     7
  6
Continuous
370
    -3
390
F
347
46
348
0
  0
LAYER
  5
72
330
2
100
AcDbSymbolTableRecord
100
AcDbLayerTableRecord
  2
0-4
 70
     0
 62
     7
  6
Continuous
370
    -3
390
F
347
46
348
0
  0
LAYER
  5
73
330
2
100
AcDbSymbolTableRecord
100
AcDbLayerTableRecord
  2
1-4
 70
     0
 62
     7
  6
Continuous
370
    -3
390
F
347
46
348
0
  0
LAYER
  5
74
330
2
100
AcDbSymbolTableRecord
100
AcDbLayerTableRecord
  2
1-3
 70
     0
 62
     7
  6
Continuous
370
    -3
390
F
347
46
348
0
  0
LAYER
  5
75
330
2
100
AcDbSymbolTableRecord
100
AcDbLayerTableRecord
  2
0-1
 70
     0
 62
     7
  6
Continuous
370
    -3
390
F
347
46
348
0
  0
LAYER
  5
76
330
2
100
AcDbSymbolTableRecord
100
AcDbLayerTableRecord
  2
0-3
 70
     0
 62
     7
  6
Continuous
370
    -3
390
F
347
46
348
0
  0
LAYER
  5
77
330
2
100
AcDbSymbolTableRecord
100
AcDbLayerTableRecord
  2
0-2
 70
     0
 62
     7
  6
Continuous
370
    -3
390
F
347
46
348
0
  0
LAYER
  5
78
330
2
100
AcDbSymbolTableRecord
100
AcDbLayerTableRecord
  2
1-0
 70
     0
 62
     7
  6
Continuous
370
    -3
390
F
347
46
348
0
  0
LAYER
  5
79
330
2
100
AcDbSymbolTableRecord
100
AcDbLayerTableRecord
  2
1-1
 70
     0
 62
     7
  6
Continuous
370
    -3
390
F
347
46
348
0
  0
LAYER
  5
7A
330
2
100
AcDbSymbolTableRecord
100
AcDbLayerTableRecord
  2
1-E
 70
     0
 62
     7
  6
Continuous
370
    -3
390
F
347
46
348
0
  0
LAYER
  5
7B
330
2
100
AcDbSymbolTableRecord
100
AcDbLayerTableRecord
  2
1-6
 70
     0
 62
     7
  6
Continuous
370
    -3
390
F
347
46
348
0
  0
LAYER
  5
7C
330
2
100
AcDbSymbolTableRecord
100
AcDbLayerTableRecord
  2
1-5
 70
     0
 62
     7
  6
Continuous
370
    -3
390
F
347
46
348
0
  0
LAYER
  5
7D
330
2
100
AcDbSymbolTableRecord
100
AcDbLayerTableRecord
  2
F-5
 70
     0
 62
     7
  6
Continuous
370
    -3
390
F
347
46
348
0
  0
LAYER
  5
7E
330
2
100
AcDbSymbolTableRecord
100
AcDbLayerTableRecord
  2
1-9
 70
     0
 62
     7
  6
Continuous
370
    -3
390
F
347
46
348
0
  0
LAYER
  5
7F
330
2
100
AcDbSymbolTableRecord
100
AcDbLayerTableRecord
  2
1-A
 70
     0
 62
     7
  6
Continuous
370
    -3
390
F
347
46
348
0
  0
ENDTAB
  0
TABLE
  2
STYLE
  5
3
330
0
100
AcDbSymbolTable
 70
     2
  0
STYLE
  5
11
330
3
100
AcDbSymbolTableRecord
100
AcDbTextStyleTableRecord
  2
Standard
 70
     0
 40
0.0
 41
1.0
 50
0.0
 71
     0
 42
2.5
  3
txt
  4

  0
STYLE
  5
6E
330
3
100
AcDbSymbolTableRecord
100
AcDbTextStyleTableRecord
  2
ＭＳ ゴシック
 70
     0
 40
0.0
 41
1.0
 50
0.0
 71
     0
 42
2.5
  3

  4

1001
ACAD
1000
MS Gothic
1071
    32817
  0
ENDTAB
  0
TABLE
  2
VIEW
  5
6
330
0
100
AcDbSymbolTable
 70
     0
  0
ENDTAB
  0
TABLE
  2
UCS
  5
7
330
0
100
AcDbSymbolTable
 70
     0
  0
ENDTAB
  0
TABLE
  2
APPID
  5
9
330
0
100
AcDbSymbolTable
 70
     1
  0
APPID
  5
12
330
9
100
AcDbSymbolTableRecord
100
AcDbRegAppTableRecord
  2
ACAD
 70
     0
  0
ENDTAB
  0
TABLE
  2
DIMSTYLE
  5
A
330
0
100
AcDbSymbolTable
 70
     2
100
AcDbDimStyleTable
  0
DIMSTYLE
105
27
330
A
100
AcDbSymbolTableRecord
100
AcDbDimStyleTableRecord
  2
ISO-25
 70
     0
 41
2.5
 42
0.625
 43
3.75
 44
1.25
 73
     0
 74
     0
 77
     1
 78
     8
140
2.5
141
2.5
143
0.03937007874016
147
0.625
171
     3
172
     1
178
     0
271
     2
272
     2
274
     3
278
    44
283
     0
284
     8
340
11
  0
DIMSTYLE
105
80
330
A
100
AcDbSymbolTableRecord
100
AcDbDimStyleTableRecord
  2
JWAC_DIMSTYLE
 70
     0
  3
x
  4
mm
 41
0.0
 42
0.625
 43
3.75
 44
1.25
 73
     0
 74
     0
 75
     1
 76
     1
 77
     1
 78
     8
140
2.5
141
2.5
143
0.03937007874016
147
0.625
171
     3
172
     1
173
     1
178
     0
271
     2
272
     2
274
     3
278
    32
283
     0
284
     8
340
11
371
     0
372
     0
  0
ENDTAB
  0
TABLE
  2
BLOCK_RECORD
  5
1
330
0
100
AcDbSymbolTable
 70
     1
  0
BLOCK_RECORD
  5
1F
330
1
100
AcDbSymbolTableRecord
100
AcDbBlockTableRecord
  2
*Model_Space
340
22
 70
     0
280
     1
281
     0
  0
BLOCK_RECORD
  5
1B
330
1
100
AcDbSymbolTableRecord
100
AcDbBlockTableRecord
  2
*Paper_Space
340
1E
 70
     0
280
     1
281
     0
  0
BLOCK_RECORD
  5
23
330
1
100
AcDbSymbolTableRecord
100
AcDbBlockTableRecord
  2
*Paper_Space0
340
26
 70
     0
280
     1
281
     0
  0
ENDTAB
  0
ENDSEC
  0
SECTION
  2
BLOCKS
  0
BLOCK
  5
20
330
1F
100
AcDbEntity
  8
0
100
AcDbBlockBegin
  2
*Model_Space
 70
     0
 10
0.0
 20
0.0
 30
0.0
  3
*Model_Space
  1

  0
ENDBLK
  5
21
330
1F
100
AcDbEntity
  8
0
100
AcDbBlockEnd
  0
BLOCK
  5
1C
330
1B
100
AcDbEntity
 67
     1
  8
0
100
AcDbBlockBegin
  2
*Paper_Space
 70
     0
 10
0.0
 20
0.0
 30
0.0
  3
*Paper_Space
  1

  0
ENDBLK
  5
1D
330
1B
100
AcDbEntity
 67
     1
  8
0
100
AcDbBlockEnd
  0
BLOCK
  5
24
330
23
100
AcDbEntity
  8
0
100
AcDbBlockBegin
  2
*Paper_Space0
 70
     0
 10
0.0
 20
0.0
 30
0.0
  3
*Paper_Space0
  1

  0
ENDBLK
  5
25
330
23
100
AcDbEntity
  8
0
100
AcDbBlockEnd
  0
ENDSEC
  0
SECTION
  2
ENTITIES
  0
LINE
  5
81
330
1F
100
AcDbEntity
  8
1-8
  6
Continuous
 62
     4
370
     9
100
AcDbLine
 10
-802.0977134741051
 20
503.2663634384284
 30
0.0
 11
-802.0977134741051
 21
458.8957018833185
 31
0.0
  0
LINE
  5
82
330
1F
100
AcDbEntity
  8
1-8
  6
Continuous
 62
     4
370
     9
100
AcDbLine
 10
-802.0977134741051
 20
458.8957018833185
 30
0.0
 11
-692.5976738837335
 21
458.8957018833185
 31
0.0
  0
LINE
  5
83
330
1F
100
AcDbEntity
  8
1-8
  6
Continuous
 62
     4
370
     9
100
AcDbLine
 10
-692.5976738837335
 20
503.2663634384284
 30
0.0
 11
-692.5976738837335
 21
458.8957018833185
 31
0.0
  0
LINE
  5
84
330
1F
100
AcDbEntity
  8
1-8
  6
Continuous
 62
     4
370
     9
100
AcDbLine
 10
-774.6737104916303
 20
503.2663634384284
 30
0.0
 11
-774.6737104916303
 21
458.8957018833185
 31
0.0
  0
LINE
  5
85
330
1F
100
AcDbEntity
  8
1-8
  6
Continuous
 62
     4
370
     9
100
AcDbLine
 10
-720.0216768662083
 20
503.2663634384284
 30
0.0
 11
-720.0216768662083
 21
458.8957018833185
 31
0.0
  0
LINE
  5
86
330
1F
100
AcDbEntity
  8
1-8
  6
Continuous
 62
     4
370
     9
100
AcDbLine
 10
-788.3855882629565
 20
508.8956194033776
 30
0.0
 11
-706.3097990948822
 21
508.8956194033776
 31
0.0
  0
LINE
  5
87
330
1F
100
AcDbEntity
  8
1-8
  6
Continuous
 62
     6
370
     5
100
AcDbLine
 10
-807.3476441909548
 20
458.8957018833185
 30
0.0
 11
-807.3476441909548
 21
446.3957843632593
 31
0.0
  0
LINE
  5
88
330
1F
100
AcDbEntity
  8
1-8
  6
Continuous
 62
     6
370
     5
100
AcDbLine
 10
-687.3476194469725
 20
458.8957018833185
 30
0.0
 11
-687.3476194469725
 21
446.3957843632593
 31
0.0
  0
LINE
  5
89
330
1F
100
AcDbEntity
  8
1-8
  6
Continuous
 62
     6
370
     5
100
AcDbLine
 10
-687.3476194469725
 20
458.8957018833185
 30
0.0
 11
-692.5976738837335
 21
458.8957018833185
 31
0.0
  0
LINE
  5
8A
330
1F
100
AcDbEntity
  8
1-8
  6
Continuous
 62
     6
370
     5
100
AcDbLine
 10
-802.0977134741051
 20
458.8957018833185
 30
0.0
 11
-807.3476441909548
 21
458.8957018833185
 31
0.0
  0
LINE
  5
8B
330
1F
100
AcDbEntity
  8
1-8
  6
Continuous
 62
     4
370
     9
100
AcDbLine
 10
-802.0977134741051
 20
339.5247928883862
 30
0.0
 11
-802.0977134741051
 21
383.8954544434958
 31
0.0
  0
LINE
  5
8C
330
1F
100
AcDbEntity
  8
1-8
  6
Continuous
 62
     4
370
     9
100
AcDbLine
 10
-802.0977134741051
 20
383.8954544434958
 30
0.0
 11
-692.5976738837335
 21
383.8954544434958
 31
0.0
  0
LINE
  5
8D
330
1F
100
AcDbEntity
  8
1-8
  6
Continuous
 62
     4
370
     9
100
AcDbLine
 10
-692.5976738837335
 20
339.5247928883862
 30
0.0
 11
-692.5976738837335
 21
383.8954544434958
 31
0.0
  0
LINE
  5
8E
330
1F
100
AcDbEntity
  8
1-8
  6
Continuous
 62
     4
370
     9
100
AcDbLine
 10
-774.6737104916303
 20
339.5247928883862
 30
0.0
 11
-774.6737104916303
 21
383.8954544434958
 31
0.0
  0
LINE
  5
8F
330
1F
100
AcDbEntity
  8
1-8
  6
Continuous
 62
     4
370
     9
100
AcDbLine
 10
-720.0216768662083
 20
339.5247928883862
 30
0.0
 11
-720.0216768662083
 21
383.8954544434958
 31
0.0
  0
LINE
  5
90
330
1F
100
AcDbEntity
  8
1-8
  6
Continuous
 62
     4
370
     9
100
AcDbLine
 10
-788.3855882629565
 20
333.8955369234367
 30
0.0
 11
-706.3097990948822
 21
333.8955369234367
 31
0.0
  0
LINE
  5
91
330
1F
100
AcDbEntity
  8
1-8
  6
Continuous
 62
     6
370
     5
100
AcDbLine
 10
-807.3476441909548
 20
383.8954544434958
 30
0.0
 11
-807.3476441909548
 21
396.3953719635549
 31
0.0
  0
LINE
  5
92
330
1F
100
AcDbEntity
  8
1-8
  6
Continuous
 62
     6
370
     5
100
AcDbLine
 10
-687.3476194469725
 20
383.8954544434958
 30
0.0
 11
-687.3476194469725
 21
396.3953719635549
 31
0.0
  0
LINE
  5
93
330
1F
100
AcDbEntity
  8
1-8
  6
Continuous
 62
     6
370
     5
100
AcDbLine
 10
-687.3476194469725
 20
383.8954544434958
 30
0.0
 11
-692.5976738837335
 21
383.8954544434958
 31
0.0
  0
LINE
  5
94
330
1F
100
AcDbEntity
  8
1-8
  6
Continuous
 62
     6
370
     5
100
AcDbLine
 10
-802.0977134741051
 20
383.8954544434958
 30
0.0
 11
-807.3476441909548
 21
383.8954544434958
 31
0.0
  0
LINE
  5
95
330
1F
100
AcDbEntity
  8
1-8
  6
Continuous
 62
     3
370
     9
100
AcDbLine
 10
-777.3475452150257
 20
446.3957843632593
 30
0.0
 11
-777.3475452150257
 21
396.3953719635549
 31
0.0
  0
LINE
  5
96
330
1F
100
AcDbEntity
  8
1-8
  6
Continuous
 62
     3
370
     9
100
AcDbLine
 10
-717.3475947029902
 20
446.3957843632593
 30
0.0
 11
-717.3475947029902
 21
396.3953719635549
 31
0.0
  0
LINE
  5
97
330
1F
100
AcDbEntity
  8
1-8
  6
Continuous
 62
     3
370
     9
100
AcDbLine
 10
-772.3475287190377
 20
446.3957843632593
 30
0.0
 11
-772.3475287190377
 21
396.3953719635549
 31
0.0
  0
LINE
  5
98
330
1F
100
AcDbEntity
  8
1-8
  6
Continuous
 62
     3
370
     9
100
AcDbLine
 10
-722.3476111989785
 20
446.3957843632593
 30
0.0
 11
-722.3476111989785
 21
396.3953719635549
 31
0.0
  0
LINE
  5
99
330
1F
100
AcDbEntity
  8
1-8
  6
Continuous
 62
     3
370
     9
100
AcDbLine
 10
-772.3475287190377
 20
596.3964029628162
 30
0.0
 11
-772.3475287190377
 21
508.8956194033776
 31
0.0
  0
LINE
  5
9A
330
1F
100
AcDbEntity
  8
1-8
  6
Continuous
 62
     3
370
     9
100
AcDbLine
 10
-722.3476111989785
 20
596.3964029628162
 30
0.0
 11
-722.3476111989785
 21
508.8956194033776
 31
0.0
  0
LINE
  5
9B
330
1F
100
AcDbEntity
  8
1-8
  6
Continuous
 62
     3
370
     9
100
AcDbLine
 10
-772.3475287190377
 20
596.3964029628162
 30
0.0
 11
-722.3476111989785
 21
596.3964029628162
 31
0.0
  0
LINE
  5
9C
330
1F
100
AcDbEntity
  8
1-8
  6
Continuous
 62
     3
370
     9
100
AcDbLine
 10
-717.3475947029902
 20
591.3962627469166
 30
0.0
 11
-717.3475947029902
 21
508.8956194033776
 31
0.0
  0
LINE
  5
9D
330
1F
100
AcDbEntity
  8
1-8
  6
Continuous
 62
     3
370
     9
100
AcDbLine
 10
-777.3475452150257
 20
591.3962627469166
 30
0.0
 11
-717.3475947029902
 21
591.3962627469166
 31
0.0
  0
LINE
  5
9E
330
1F
100
AcDbEntity
  8
1-8
  6
Continuous
 62
     3
370
     9
100
AcDbLine
 10
-777.3475452150257
 20
591.3962627469166
 30
0.0
 11
-777.3475452150257
 21
508.8956194033776
 31
0.0
  0
LINE
  5
9F
330
1F
100
AcDbEntity
  8
1-8
  6
Continuous
 62
     3
370
     9
100
AcDbLine
 10
-777.3475452150257
 20
591.3962627469166
 30
0.0
 11
-772.3475287190377
 21
596.3964029628162
 31
0.0
  0
LINE
  5
A0
330
1F
100
AcDbEntity
  8
1-8
  6
Continuous
 62
     3
370
     9
100
AcDbLine
 10
-722.3476111989785
 20
596.3964029628162
 30
0.0
 11
-717.3475947029902
 21
591.3962627469166
 31
0.0
  0
LINE
  5
A1
330
1F
100
AcDbEntity
  8
0-4
  6
Continuous
 62
     2
370
     9
100
AcDbLine
 10
800.1269767312368
 20
-531.933765890119
 30
0.0
 11
800.1269767312368
 21
-466.934417481652
 31
0.0
  0
LINE
  5
A2
330
1F
100
AcDbEntity
  8
0-4
  6
Continuous
 62
     2
370
     9
100
AcDbLine
 10
800.1269767312368
 20
-466.934417481652
 30
0.0
 11
1265.853262098636
 21
-466.934417481652
 31
0.0
  0
LINE
  5
A3
330
1F
100
AcDbEntity
  8
0-4
  6
Continuous
 62
     2
370
     9
100
AcDbLine
 10
1265.853262098636
 20
-466.934417481652
 30
0.0
 11
1265.853262098636
 21
-531.933765890119
 31
0.0
  0
LINE
  5
A4
330
1F
100
AcDbEntity
  8
0-4
  6
Continuous
 62
     2
370
     9
100
AcDbLine
 10
1265.853262098636
 20
-531.933765890119
 30
0.0
 11
800.1269767312368
 21
-531.933765890119
 31
0.0
  0
LINE
  5
A5
330
1F
100
AcDbEntity
  8
0-4
  6
Continuous
 62
     7
370
     9
100
AcDbLine
 10
266.3240576011694
 20
427.5899866832552
 30
0.0
 11
266.3240576011694
 21
419.2567083365492
 31
0.0
  0
LINE
  5
A6
330
1F
100
AcDbEntity
  8
0-4
  6
Continuous
 62
     7
370
     9
100
AcDbLine
 10
316.3237276814058
 20
427.5899866832552
 30
0.0
 11
266.3240576011694
 21
427.5899866832552
 31
0.0
  0
LINE
  5
A7
330
1F
100
AcDbEntity
  8
0-4
  6
Continuous
 62
     7
370
     9
100
AcDbLine
 10
316.3237276814058
 20
419.2567083365492
 30
0.0
 11
316.3237276814058
 21
427.5899866832552
 31
0.0
  0
LINE
  5
A8
330
1F
100
AcDbEntity
  8
0-4
  6
Continuous
 62
     7
370
     9
100
AcDbLine
 10
316.3237276814058
 20
419.2567083365492
 30
0.0
 11
266.3240576011694
 21
419.2567083365492
 31
0.0
  0
LINE
  5
A9
330
1F
100
AcDbEntity
  8
0-4
  6
Continuous
 62
     7
370
     9
100
AcDbLine
 10
1028.823727681406
 20
48.42347122981352
 30
0.0
 11
1037.157006028112
 21
48.42347122981352
 31
0.0
  0
LINE
  5
AA
330
1F
100
AcDbEntity
  8
0-4
  6
Continuous
 62
     7
370
     9
100
AcDbLine
 10
1028.823727681406
 20
98.42314131004997
 30
0.0
 11
1028.823727681406
 21
48.42347122981352
 31
0.0
  0
LINE
  5
AB
330
1F
100
AcDbEntity
  8
0-4
  6
Continuous
 62
     7
370
     9
100
AcDbLine
 10
1037.157006028112
 20
98.42314131004997
 30
0.0
 11
1028.823727681406
 21
98.42314131004997
 31
0.0
  0
LINE
  5
AC
330
1F
100
AcDbEntity
  8
0-4
  6
Continuous
 62
     7
370
     9
100
AcDbLine
 10
1037.157006028112
 20
98.42314131004997
 30
0.0
 11
1037.157006028112
 21
48.42347122981352
 31
0.0
  0
LINE
  5
AD
330
1F
100
AcDbEntity
  8
0-4
  6
Continuous
 62
     7
370
     9
100
AcDbLine
 10
1037.157006028112
 20
92.06542250726272
 30
0.0
 11
1030.799287225325
 21
98.42314131004997
 31
0.0
  0
LINE
  5
AE
330
1F
100
AcDbEntity
  8
0-4
  6
Continuous
 62
     7
370
     9
100
AcDbLine
 10
1037.157006028112
 20
84.99458213564111
 30
0.0
 11
1028.823727681406
 21
93.32786048234709
 31
0.0
  0
LINE
  5
AF
330
1F
100
AcDbEntity
  8
0-4
  6
Continuous
 62
     7
370
     9
100
AcDbLine
 10
1037.157006028112
 20
77.92324688437418
 30
0.0
 11
1028.823727681406
 21
86.25652523108045
 31
0.0
  0
LINE
  5
B0
330
1F
100
AcDbEntity
  8
0-4
  6
Continuous
 62
     7
370
     9
100
AcDbLine
 10
1037.157006028112
 20
70.85240651275257
 30
0.0
 11
1028.823727681406
 21
79.18568485945883
 31
0.0
  0
LINE
  5
B1
330
1F
100
AcDbEntity
  8
0-4
  6
Continuous
 62
     7
370
     9
100
AcDbLine
 10
1037.157006028112
 20
63.78107126148564
 30
0.0
 11
1028.823727681406
 21
72.1143496081919
 31
0.0
  0
LINE
  5
B2
330
1F
100
AcDbEntity
  8
0-4
  6
Continuous
 62
     7
370
     9
100
AcDbLine
 10
1037.157006028112
 20
56.70973601021871
 30
0.0
 11
1028.823727681406
 21
65.04350923657029
 31
0.0
  0
LINE
  5
B3
330
1F
100
AcDbEntity
  8
0-4
  6
Continuous
 62
     7
370
     9
100
AcDbLine
 10
1037.157006028112
 20
49.63889563859709
 30
0.0
 11
1028.823727681406
 21
57.97217398530336
 31
0.0
  0
LINE
  5
B4
330
1F
100
AcDbEntity
  8
0-4
  6
Continuous
 62
     7
370
     9
100
AcDbLine
 10
1031.301590065274
 20
48.42347122981352
 30
0.0
 11
1028.823727681406
 21
50.90133361368174
 31
0.0
  0
LINE
  5
B5
330
1F
100
AcDbEntity
  8
0-4
  6
Continuous
 62
     7
370
     9
100
AcDbLine
 10
313.6543468748181
 20
419.2567083365492
 30
0.0
 11
316.3237276814058
 21
421.9263365829596
 31
0.0
  0
LINE
  5
B6
330
1F
100
AcDbEntity
  8
0-4
  6
Continuous
 62
     7
370
     9
100
AcDbLine
 10
306.5830116235512
 20
419.2567083365492
 30
0.0
 11
314.9162899702571
 21
427.5899866832552
 31
0.0
  0
LINE
  5
B7
330
1F
100
AcDbEntity
  8
0-4
  6
Continuous
 62
     7
370
     9
100
AcDbLine
 10
299.5121712519295
 20
419.2567083365492
 30
0.0
 11
307.8454495986355
 21
427.5899866832552
 31
0.0
  0
LINE
  5
B8
330
1F
100
AcDbEntity
  8
0-4
  6
Continuous
 62
     7
370
     9
100
AcDbLine
 10
292.4408360006626
 20
419.2567083365492
 30
0.0
 11
300.7741143473689
 21
427.5899866832552
 31
0.0
  0
LINE
  5
B9
330
1F
100
AcDbEntity
  8
0-4
  6
Continuous
 62
     7
370
     9
100
AcDbLine
 10
285.369995629041
 20
419.2567083365492
 30
0.0
 11
293.7032739757473
 21
427.5899866832552
 31
0.0
  0
LINE
  5
BA
330
1F
100
AcDbEntity
  8
0-4
  6
Continuous
 62
     7
370
     9
100
AcDbLine
 10
278.2986603777741
 20
419.2567083365492
 30
0.0
 11
286.6319387244803
 21
427.5899866832552
 31
0.0
  0
LINE
  5
BB
330
1F
100
AcDbEntity
  8
0-4
  6
Continuous
 62
     7
370
     9
100
AcDbLine
 10
271.2278200061525
 20
419.2567083365492
 30
0.0
 11
279.5610983528587
 21
427.5899866832552
 31
0.0
  0
LINE
  5
BC
330
1F
100
AcDbEntity
  8
0-4
  6
Continuous
 62
     7
370
     9
100
AcDbLine
 10
266.3240576011694
 20
421.4241574629216
 30
0.0
 11
272.4897631015918
 21
427.5899866832552
 31
0.0
  0
LINE
  5
BD
330
1F
100
AcDbEntity
  8
0-4
  6
Continuous
 62
     7
370
     9
100
AcDbLine
 10
291.3238926412876
 20
419.2567083365492
 30
0.0
 11
294.5871290221999
 21
394.4705375832763
 31
0.0
  0
LINE
  5
BE
330
1F
100
AcDbEntity
  8
0-4
  6
Continuous
 62
     7
370
     9
100
AcDbLine
 10
291.3238926412876
 20
419.2567083365492
 30
0.0
 11
288.0606562603757
 21
394.4705375832763
 31
0.0
  0
LINE
  5
BF
330
1F
100
AcDbEntity
  8
0-4
  6
Continuous
 62
     7
370
     9
100
AcDbLine
 10
291.3238926412876
 20
419.2567083365492
 30
0.0
 11
291.3238926412876
 21
369.2565433766674
 31
0.0
  0
LINE
  5
C0
330
1F
100
AcDbEntity
  8
0-4
  6
Continuous
 62
     7
370
     9
100
AcDbLine
 10
1037.157006028112
 20
73.42330626993174
 30
0.0
 11
1061.943053061473
 21
76.6865426508437
 31
0.0
  0
LINE
  5
C1
330
1F
100
AcDbEntity
  8
0-4
  6
Continuous
 62
     7
370
     9
100
AcDbLine
 10
1037.157006028112
 20
73.42330626993174
 30
0.0
 11
1061.943053061473
 21
70.16056476866481
 31
0.0
  0
LINE
  5
C2
330
1F
100
AcDbEntity
  8
0-4
  6
Continuous
 62
     7
370
     9
100
AcDbLine
 10
1037.157006028112
 20
73.42330626993174
 30
0.0
 11
1087.157170987994
 21
73.42330626993174
 31
0.0
  0
LINE
  5
C3
330
1F
100
AcDbEntity
  8
1-4
  6
Continuous
 62
     2
370
     9
100
AcDbLine
 10
-886.2249024917361
 20
-428.6027722377753
 30
0.0
 11
-886.2249024917361
 21
-363.6035475492196
 31
0.0
  0
LINE
  5
C4
330
1F
100
AcDbEntity
  8
1-4
  6
Continuous
 62
     2
370
     9
100
AcDbLine
 10
-886.2249024917361
 20
-363.6035475492196
 30
0.0
 11
-263.4705838420317
 21
-363.6035475492196
 31
0.0
  0
LINE
  5
C5
330
1F
100
AcDbEntity
  8
1-4
  6
Continuous
 62
     2
370
     9
100
AcDbLine
 10
-263.4705838420317
 20
-363.6035475492196
 30
0.0
 11
-263.4705838420317
 21
-428.6027722377753
 31
0.0
  0
LINE
  5
C6
330
1F
100
AcDbEntity
  8
1-4
  6
Continuous
 62
     2
370
     9
100
AcDbLine
 10
-263.4705838420317
 20
-428.6027722377753
 30
0.0
 11
-886.2249024917361
 21
-428.6027722377753
 31
0.0
  0
LINE
  5
C7
330
1F
100
AcDbEntity
  8
1-3
  6
Continuous
 62
     4
370
     9
100
AcDbLine
 10
-497.3478586388009
 20
1096.396567922698
 30
0.0
 11
-452.3478338948189
 21
1096.396567922698
 31
0.0
  0
LINE
  5
C8
330
1F
100
AcDbEntity
  8
1-8
  6
Continuous
 62
     7
370
     9
100
AcDbLine
 10
-534.8477349188897
 20
153.1718001862112
 30
0.0
 11
-414.8478338948189
 21
185.3257390982679
 31
0.0
  0
LINE
  5
C9
330
1F
100
AcDbEntity
  8
1-8
  6
Continuous
 62
     7
370
     9
100
AcDbLine
 10
-534.8477349188897
 20
132.4661595480146
 30
0.0
 11
-414.8478338948189
 21
164.6200984600711
 31
0.0
  0
LINE
  5
CA
330
1F
100
AcDbEntity
  8
1-8
  6
Continuous
 62
     3
370
     9
100
AcDbLine
 10
-772.3475287190377
 20
333.8955369234367
 30
0.0
 11
-772.3475287190377
 21
162.5500169039054
 31
0.0
  0
LINE
  5
CB
330
1F
100
AcDbEntity
  8
1-8
  6
Continuous
 62
     3
370
     9
100
AcDbLine
 10
-777.3475452150257
 20
333.8955369234367
 30
0.0
 11
-777.3475452150257
 21
161.2102539842476
 31
0.0
  0
LINE
  5
CC
330
1F
100
AcDbEntity
  8
1-8
  6
Continuous
 62
     3
370
     9
100
AcDbLine
 10
-717.3475947029902
 20
333.8955369234367
 30
0.0
 11
-717.3475947029902
 21
177.2872853002315
 31
0.0
  0
LINE
  5
CD
330
1F
100
AcDbEntity
  8
1-8
  6
Continuous
 62
     3
370
     9
100
AcDbLine
 10
-722.3476111989785
 20
333.8955369234367
 30
0.0
 11
-722.3476111989785
 21
175.9475223805737
 31
0.0
  0
LINE
  5
CE
330
1F
100
AcDbEntity
  8
1-3
  6
Continuous
 62
     4
370
     9
100
AcDbLine
 10
-452.3478338948189
 20
-153.6035970371842
 30
0.0
 11
-452.3478338948189
 21
154.5719384225922
 31
0.0
  0
LINE
  5
CF
330
1F
100
AcDbEntity
  8
1-3
  6
Continuous
 62
     4
370
     9
100
AcDbLine
 10
-497.3478586388009
 20
-153.6035970371842
 30
0.0
 11
-497.3478586388009
 21
142.514195865582
 31
0.0
  0
LINE
  5
D0
330
1F
100
AcDbEntity
  8
1-8
  6
Continuous
 62
     7
370
     9
100
AcDbLine
 10
-807.3475204710435
 20
153.1718001862112
 30
0.0
 11
-687.3476194469725
 21
185.3257390982679
 31
0.0
  0
LINE
  5
D1
330
1F
100
AcDbEntity
  8
1-8
  6
Continuous
 62
     7
370
     9
100
AcDbLine
 10
-807.3475204710435
 20
132.4661595480146
 30
0.0
 11
-687.3476194469725
 21
164.6200984600711
 31
0.0
  0
LINE
  5
D2
330
1F
100
AcDbEntity
  8
1-8
  6
Continuous
 62
     6
370
     5
100
AcDbLine
 10
-997.3476524389489
 20
-153.6035970371842
 30
0.0
 11
-152.3478338948189
 21
-153.6035970371842
 31
0.0
  0
LINE
  5
D3
330
1F
100
AcDbEntity
  8
1-4
  6
Continuous
 62
     7
370
     9
100
AcDbLine
 10
-497.3478586388009
 20
-178.6035557972136
 30
0.0
 11
-497.3478586388009
 21
-316.6034667188775
 31
0.0
  0
LINE
  5
D4
330
1F
100
AcDbEntity
  8
1-8
  6
Continuous
 62
     6
370
     5
100
AcDbLine
 10
-997.3476524389489
 20
-213.6035475492196
 30
0.0
 11
-520.1578512485983
 21
-213.6035475492196
 31
0.0
  0
LINE
  5
D5
330
1F
100
AcDbEntity
  8
1-8
  6
Continuous
 62
     6
370
     5
100
AcDbLine
 10
-474.22200909541
 20
-213.6035475492196
 30
0.0
 11
-152.3478338948189
 21
-213.6035475492196
 31
0.0
  0
LINE
  5
D6
330
1F
100
AcDbEntity
  8
1-8
  6
Continuous
 62
     6
370
     5
100
AcDbLine
 10
-997.3476524389489
 20
-163.6036300291605
 30
0.0
 11
-520.1578512485983
 21
-163.6036300291605
 31
0.0
  0
LINE
  5
D7
330
1F
100
AcDbEntity
  8
1-8
  6
Continuous
 62
     6
370
     5
100
AcDbLine
 10
-474.22200909541
 20
-163.6036300291605
 30
0.0
 11
-152.3478338948189
 21
-163.6036300291605
 31
0.0
  0
LINE
  5
D8
330
1F
100
AcDbEntity
  8
1-8
  6
Continuous
 62
     6
370
     5
100
AcDbLine
 10
-997.3476524389489
 20
-173.6036630211368
 30
0.0
 11
-520.1578512485983
 21
-173.6036630211368
 31
0.0
  0
LINE
  5
D9
330
1F
100
AcDbEntity
  8
1-8
  6
Continuous
 62
     6
370
     5
100
AcDbLine
 10
-474.22200909541
 20
-173.6036630211368
 30
0.0
 11
-152.3478338948189
 21
-173.6036630211368
 31
0.0
  0
LINE
  5
DA
330
1F
100
AcDbEntity
  8
1-8
  6
Continuous
 62
     6
370
     5
100
AcDbLine
 10
-997.3476524389489
 20
-183.6036960131131
 30
0.0
 11
-520.1578512485983
 21
-183.6036960131131
 31
0.0
  0
LINE
  5
DB
330
1F
100
AcDbEntity
  8
1-8
  6
Continuous
 62
     6
370
     5
100
AcDbLine
 10
-474.22200909541
 20
-183.6036960131131
 30
0.0
 11
-152.3478338948189
 21
-183.6036960131131
 31
0.0
  0
LINE
  5
DC
330
1F
100
AcDbEntity
  8
1-8
  6
Continuous
 62
     6
370
     5
100
AcDbLine
 10
-997.3476524389489
 20
-193.6037290050893
 30
0.0
 11
-520.1578512485983
 21
-193.6037290050893
 31
0.0
  0
LINE
  5
DD
330
1F
100
AcDbEntity
  8
1-8
  6
Continuous
 62
     6
370
     5
100
AcDbLine
 10
-474.22200909541
 20
-193.6037290050893
 30
0.0
 11
-152.3478338948189
 21
-193.6037290050893
 31
0.0
  0
LINE
  5
DE
330
1F
100
AcDbEntity
  8
1-8
  6
Continuous
 62
     6
370
     5
100
AcDbLine
 10
-997.3476524389489
 20
-203.6037619970658
 30
0.0
 11
-520.1578512485983
 21
-203.6037619970658
 31
0.0
  0
LINE
  5
DF
330
1F
100
AcDbEntity
  8
1-8
  6
Continuous
 62
     6
370
     5
100
AcDbLine
 10
-474.22200909541
 20
-203.6037619970658
 30
0.0
 11
-152.3478338948189
 21
-203.6037619970658
 31
0.0
  0
LINE
  5
E0
330
1F
100
AcDbEntity
  8
1-4
  6
Continuous
 62
     7
370
     9
100
AcDbLine
 10
-252.3479163747598
 20
-153.6035970371842
 30
0.0
 11
-252.3479163747598
 21
1096.396567922698
 31
0.0
  0
LINE
  5
E1
330
1F
100
AcDbEntity
  8
1-4
  6
Continuous
 62
     7
370
     9
100
AcDbLine
 10
-427.3478751347892
 20
1096.396567922698
 30
0.0
 11
-249.3479559651314
 21
1096.396567922698
 31
0.0
  0
LINE
  5
E2
330
1F
100
AcDbEntity
  8
1-4
  6
Continuous
 62
     7
370
     9
100
AcDbLine
 10
-1447.347652438949
 20
-153.6035970371842
 30
0.0
 11
-1447.347652438949
 21
596.3964029628162
 31
0.0
  0
LINE
  5
E3
330
1F
100
AcDbEntity
  8
1-4
  6
Continuous
 62
     7
370
     9
100
AcDbLine
 10
-797.347487479067
 20
596.3964029628162
 30
0.0
 11
-1450.347736568489
 21
596.3964029628162
 31
0.0
  0
LINE
  5
E4
330
1F
100
AcDbEntity
  8
1-4
  6
Continuous
 62
     7
370
     9
100
AcDbLine
 10
-1547.34773491889
 20
-153.6035970371842
 30
0.0
 11
-1547.34773491889
 21
846.3962380029343
 31
0.0
  0
LINE
  5
E5
330
1F
100
AcDbEntity
  8
1-4
  6
Continuous
 62
     7
370
     9
100
AcDbLine
 10
-1022.347611198978
 20
-153.6035970371842
 30
0.0
 11
-1550.347695328518
 21
-153.6035970371842
 31
0.0
  0
LINE
  5
E6
330
1F
100
AcDbEntity
  8
0-1
  6
Continuous
 62
     2
370
     9
100
AcDbLine
 10
1309.681288122707
 20
972.6662641325797
 30
0.0
 11
1281.296971188585
 21
923.503435532495
 31
0.0
  0
LINE
  5
E7
330
1F
100
AcDbEntity
  8
0-1
  6
Continuous
 62
     2
370
     9
100
AcDbLine
 10
1370.302560029379
 20
937.6659012208395
 30
0.0
 11
1341.918737974902
 21
888.5035675004005
 31
0.0
  0
LINE
  5
E8
330
1F
100
AcDbEntity
  8
0-1
  6
Continuous
 62
     2
370
     9
100
AcDbLine
 10
1281.296971188585
 20
923.503435532495
 30
0.0
 11
1282.402532316119
 21
922.0851104691505
 31
0.0
  0
LINE
  5
E9
330
1F
100
AcDbEntity
  8
0-1
  6
Continuous
 62
     2
370
     9
100
AcDbLine
 10
1340.137171251929
 20
888.751502202681
 30
0.0
 11
1341.918737974902
 21
888.5035675004005
 31
0.0
  0
LINE
  5
EA
330
1F
100
AcDbEntity
  8
0-1
  6
Continuous
 62
     2
370
     9
100
AcDbLine
 10
1310.789323648467
 20
971.2528878656877
 30
0.0
 11
1282.402532316119
 21
922.0851104691505
 31
0.0
  0
LINE
  5
EB
330
1F
100
AcDbEntity
  8
0-1
  6
Continuous
 62
     2
370
     9
100
AcDbLine
 10
1368.524457463923
 20
937.9192795992179
 30
0.0
 11
1340.137171251929
 21
888.751502202681
 31
0.0
  0
LINE
  5
EC
330
1F
100
AcDbEntity
  8
0-1
  6
Continuous
 62
     2
370
     9
100
AcDbLine
 10
1309.681288122707
 20
972.6662641325797
 30
0.0
 11
1310.789323648467
 21
971.2528878656877
 31
0.0
  0
LINE
  5
ED
330
1F
100
AcDbEntity
  8
0-1
  6
Continuous
 62
     2
370
     9
100
AcDbLine
 10
1368.524457463923
 20
937.9192795992179
 30
0.0
 11
1370.302560029379
 21
937.6659012208395
 31
0.0
  0
LINE
  5
EE
330
1F
100
AcDbEntity
  8
0-1
  6
Continuous
 62
     2
370
     9
100
AcDbLine
 10
695.6776788004936
 20
937.6659012208395
 30
0.0
 11
724.0619957346155
 21
888.5035675004005
 31
0.0
  0
LINE
  5
EF
330
1F
100
AcDbEntity
  8
0-1
  6
Continuous
 62
     2
370
     9
100
AcDbLine
 10
724.0619957346155
 20
888.5035675004005
 30
0.0
 11
725.8430675779431
 21
888.751502202681
 31
0.0
  0
LINE
  5
F0
330
1F
100
AcDbEntity
  8
0-1
  6
Continuous
 62
     2
370
     9
100
AcDbLine
 10
697.4557813659499
 20
937.9192795992179
 30
0.0
 11
725.8430675779431
 21
888.751502202681
 31
0.0
  0
LINE
  5
F1
330
1F
100
AcDbEntity
  8
0-1
  6
Continuous
 62
     2
370
     9
100
AcDbLine
 10
695.6776788004936
 20
937.6659012208395
 30
0.0
 11
697.4557813659499
 21
937.9192795992179
 31
0.0
  0
LINE
  5
F2
330
1F
100
AcDbEntity
  8
0-1
  6
Continuous
 62
     2
370
     9
100
AcDbLine
 10
755.1909151814061
 20
971.2528878656877
 30
0.0
 11
756.2994455868113
 21
972.6662641325797
 31
0.0
  0
LINE
  5
F3
330
1F
100
AcDbEntity
  8
0-1
  6
Continuous
 62
     2
370
     9
100
AcDbLine
 10
1646.993728737149
 20
458.4239578614645
 30
0.0
 11
1590.225589748552
 21
458.4238341415534
 31
0.0
  0
LINE
  5
F4
330
1F
100
AcDbEntity
  8
0-1
  6
Continuous
 62
     2
370
     9
100
AcDbLine
 10
1590.225589748552
 20
458.4238341415534
 30
0.0
 11
1589.549584153112
 21
456.7574506560169
 31
0.0
  0
LINE
  5
F5
330
1F
100
AcDbEntity
  8
0-1
  6
Continuous
 62
     2
370
     9
100
AcDbLine
 10
1646.324156577098
 20
456.7572032161945
 30
0.0
 11
1589.549584153112
 21
456.7574506560169
 31
0.0
  0
LINE
  5
F6
330
1F
100
AcDbEntity
  8
0-1
  6
Continuous
 62
     2
370
     9
100
AcDbLine
 10
1646.993728737149
 20
458.4239578614645
 30
0.0
 11
1646.324156577098
 21
456.7572032161945
 31
0.0
  0
LINE
  5
F7
330
1F
100
AcDbEntity
  8
0-1
  6
Continuous
 62
     2
370
     9
100
AcDbLine
 10
755.1909151814061
 20
971.2528878656877
 30
0.0
 11
783.5782013933994
 21
922.0851104691505
 31
0.0
  0
LINE
  5
F8
330
1F
100
AcDbEntity
  8
0-1
  6
Continuous
 62
     2
370
     9
100
AcDbLine
 10
756.2994455868113
 20
972.6662641325797
 30
0.0
 11
784.6832676412879
 21
923.503435532495
 31
0.0
  0
LINE
  5
F9
330
1F
100
AcDbEntity
  8
0-1
  6
Continuous
 62
     2
370
     9
100
AcDbLine
 10
783.5782013933994
 20
922.0851104691505
 30
0.0
 11
784.6832676412879
 21
923.503435532495
 31
0.0
  0
LINE
  5
FA
330
1F
100
AcDbEntity
  8
0-1
  6
Continuous
 62
     2
370
     9
100
AcDbLine
 10
418.9865100927236
 20
458.4239578614645
 30
0.0
 11
475.7546490813215
 21
458.4239578614645
 31
0.0
  0
LINE
  5
FB
330
1F
100
AcDbEntity
  8
0-1
  6
Continuous
 62
     2
370
     9
100
AcDbLine
 10
475.7546490813215
 20
458.4239578614645
 30
0.0
 11
476.4306546767605
 21
456.7574506560169
 31
0.0
  0
LINE
  5
FC
330
1F
100
AcDbEntity
  8
0-1
  6
Continuous
 62
     2
370
     9
100
AcDbLine
 10
419.6560822527741
 20
456.7573269361057
 30
0.0
 11
476.4306546767605
 21
456.7574506560169
 31
0.0
  0
LINE
  5
FD
330
1F
100
AcDbEntity
  8
0-1
  6
Continuous
 62
     2
370
     9
100
AcDbLine
 10
418.9865100927236
 20
458.4239578614645
 30
0.0
 11
419.6560822527741
 21
456.7573269361057
 31
0.0
  0
LINE
  5
FE
330
1F
100
AcDbEntity
  8
0-1
  6
JWW_CENTER1
 62
     2
370
     9
100
AcDbLine
 10
1312.532784638754
 20
907.6054269281877
 30
0.0
 11
1347.402004444497
 21
968.0005388369714
 31
0.0
  0
LINE
  5
FF
330
1F
100
AcDbEntity
  8
0-1
  6
JWW_CENTER1
 62
     2
370
     9
100
AcDbLine
 10
1303.842203188163
 20
940.6228071013297
 30
0.0
 11
1346.603763576677
 21
915.9342513580862
 31
0.0
  0
LINE
  5
100
330
1F
100
AcDbEntity
  8
0-1
  6
JWW_CENTER1
 62
     2
370
     9
100
AcDbLine
 10
753.4474541911186
 20
907.6054269281877
 30
0.0
 11
718.5782343853754
 21
968.0005388369714
 31
0.0
  0
LINE
  5
101
330
1F
100
AcDbEntity
  8
0-1
  6
JWW_CENTER1
 62
     2
370
     9
100
AcDbLine
 10
720.5082650019295
 20
916.5879873694882
 30
0.0
 11
763.2703202700884
 21
941.2760482330862
 31
0.0
  0
LINE
  5
102
330
1F
100
AcDbEntity
  8
0-1
  6
JWW_CENTER1
 62
     2
370
     9
100
AcDbLine
 10
1616.32405760117
 20
399.3885277780609
 30
0.0
 11
1616.323562721524
 21
448.7657629844588
 31
0.0
  0
LINE
  5
103
330
1F
100
AcDbEntity
  8
0-1
  6
JWW_CENTER1
 62
     2
370
     9
100
AcDbLine
 10
449.6566761083486
 20
399.3885277780609
 30
0.0
 11
449.6566761083486
 21
448.7657629844588
 31
0.0
  0
LINE
  5
104
330
1F
100
AcDbEntity
  8
0-1
  6
Continuous
 62
     2
370
     9
100
AcDbLine
 10
1309.681288122707
 20
-125.81907423313
 30
0.0
 11
1281.296971188585
 21
-76.65624563304561
 31
0.0
  0
LINE
  5
105
330
1F
100
AcDbEntity
  8
0-1
  6
Continuous
 62
     2
370
     9
100
AcDbLine
 10
1370.302560029379
 20
-90.8189587612128
 30
0.0
 11
1341.918737974902
 21
-41.6563776009508
 31
0.0
  0
LINE
  5
106
330
1F
100
AcDbEntity
  8
0-1
  6
Continuous
 62
     2
370
     9
100
AcDbLine
 10
1281.296971188585
 20
-76.65624563304561
 30
0.0
 11
1282.402532316119
 21
-75.2379205697008
 31
0.0
  0
LINE
  5
107
330
1F
100
AcDbEntity
  8
0-1
  6
Continuous
 62
     2
370
     9
100
AcDbLine
 10
1340.137171251929
 20
-41.90455974305394
 30
0.0
 11
1341.918737974902
 21
-41.6563776009508
 31
0.0
  0
LINE
  5
108
330
1F
100
AcDbEntity
  8
0-1
  6
Continuous
 62
     2
370
     9
100
AcDbLine
 10
1310.789323648467
 20
-124.4056979662381
 30
0.0
 11
1282.402532316119
 21
-75.2379205697008
 31
0.0
  0
LINE
  5
109
330
1F
100
AcDbEntity
  8
0-1
  6
Continuous
 62
     2
370
     9
100
AcDbLine
 10
1368.524457463923
 20
-91.07233713959118
 30
0.0
 11
1340.137171251929
 21
-41.90455974305394
 31
0.0
  0
LINE
  5
10A
330
1F
100
AcDbEntity
  8
0-1
  6
Continuous
 62
     2
370
     9
100
AcDbLine
 10
1309.681288122707
 20
-125.81907423313
 30
0.0
 11
1310.789323648467
 21
-124.4056979662381
 31
0.0
  0
LINE
  5
10B
330
1F
100
AcDbEntity
  8
0-1
  6
Continuous
 62
     2
370
     9
100
AcDbLine
 10
1368.524457463923
 20
-91.07233713959118
 30
0.0
 11
1370.302560029379
 21
-90.8189587612128
 31
0.0
  0
LINE
  5
10C
330
1F
100
AcDbEntity
  8
0-1
  6
Continuous
 62
     2
370
     9
100
AcDbLine
 10
695.6776788004936
 20
-90.8189587612128
 30
0.0
 11
724.0619957346155
 21
-41.6563776009508
 31
0.0
  0
LINE
  5
10D
330
1F
100
AcDbEntity
  8
0-1
  6
Continuous
 62
     2
370
     9
100
AcDbLine
 10
724.0619957346155
 20
-41.6563776009508
 30
0.0
 11
725.8430675779431
 21
-41.90455974305394
 31
0.0
  0
LINE
  5
10E
330
1F
100
AcDbEntity
  8
0-1
  6
Continuous
 62
     2
370
     9
100
AcDbLine
 10
697.4557813659499
 20
-91.07233713959118
 30
0.0
 11
725.8430675779431
 21
-41.90455974305394
 31
0.0
  0
LINE
  5
10F
330
1F
100
AcDbEntity
  8
0-1
  6
Continuous
 62
     2
370
     9
100
AcDbLine
 10
695.6776788004936
 20
-90.8189587612128
 30
0.0
 11
697.4557813659499
 21
-91.07233713959118
 31
0.0
  0
LINE
  5
110
330
1F
100
AcDbEntity
  8
0-1
  6
Continuous
 62
     2
370
     9
100
AcDbLine
 10
755.1909151814061
 20
-124.4056979662381
 30
0.0
 11
756.2994455868113
 21
-125.8193216729526
 31
0.0
  0
LINE
  5
111
330
1F
100
AcDbEntity
  8
0-1
  6
Continuous
 62
     2
370
     9
100
AcDbLine
 10
1646.993728737149
 20
388.4229845981622
 30
0.0
 11
1590.225589748552
 21
388.4231083180737
 31
0.0
  0
LINE
  5
112
330
1F
100
AcDbEntity
  8
0-1
  6
Continuous
 62
     2
370
     9
100
AcDbLine
 10
1590.225589748552
 20
388.4231083180737
 30
0.0
 11
1589.549584153112
 21
390.0894918036099
 31
0.0
  0
LINE
  5
113
330
1F
100
AcDbEntity
  8
0-1
  6
Continuous
 62
     2
370
     9
100
AcDbLine
 10
1646.324156577098
 20
390.0897392434325
 30
0.0
 11
1589.549584153112
 21
390.0894918036099
 31
0.0
  0
LINE
  5
114
330
1F
100
AcDbEntity
  8
0-1
  6
Continuous
 62
     2
370
     9
100
AcDbLine
 10
1646.993728737149
 20
388.4229845981622
 30
0.0
 11
1646.324156577098
 21
390.0897392434325
 31
0.0
  0
LINE
  5
115
330
1F
100
AcDbEntity
  8
0-1
  6
Continuous
 62
     2
370
     9
100
AcDbLine
 10
755.1909151814061
 20
-124.4056979662381
 30
0.0
 11
783.5782013933994
 21
-75.2379205697008
 31
0.0
  0
LINE
  5
116
330
1F
100
AcDbEntity
  8
0-1
  6
Continuous
 62
     2
370
     9
100
AcDbLine
 10
756.2994455868113
 20
-125.8193216729526
 30
0.0
 11
784.6832676412879
 21
-76.65624563304561
 31
0.0
  0
LINE
  5
117
330
1F
100
AcDbEntity
  8
0-1
  6
Continuous
 62
     2
370
     9
100
AcDbLine
 10
783.5782013933994
 20
-75.2379205697008
 30
0.0
 11
784.6832676412879
 21
-76.65624563304561
 31
0.0
  0
LINE
  5
118
330
1F
100
AcDbEntity
  8
0-1
  6
Continuous
 62
     2
370
     9
100
AcDbLine
 10
418.9865100927236
 20
388.4229845981622
 30
0.0
 11
475.7546490813215
 21
388.4229845981622
 31
0.0
  0
LINE
  5
119
330
1F
100
AcDbEntity
  8
0-1
  6
Continuous
 62
     2
370
     9
100
AcDbLine
 10
475.7546490813215
 20
388.4229845981622
 30
0.0
 11
476.4306546767605
 21
390.0894918036099
 31
0.0
  0
LINE
  5
11A
330
1F
100
AcDbEntity
  8
0-1
  6
Continuous
 62
     2
370
     9
100
AcDbLine
 10
419.6560822527741
 20
390.0896155235213
 30
0.0
 11
476.4306546767605
 21
390.0894918036099
 31
0.0
  0
LINE
  5
11B
330
1F
100
AcDbEntity
  8
0-1
  6
Continuous
 62
     2
370
     9
100
AcDbLine
 10
418.9865100927236
 20
388.4229845981622
 30
0.0
 11
419.6560822527741
 21
390.0896155235213
 31
0.0
  0
LINE
  5
11C
330
1F
100
AcDbEntity
  8
0-1
  6
JWW_CENTER1
 62
     2
370
     9
100
AcDbLine
 10
1312.532784638754
 20
-60.75823702873805
 30
0.0
 11
1347.402004444497
 21
-121.1535963773446
 31
0.0
  0
LINE
  5
11D
330
1F
100
AcDbEntity
  8
0-1
  6
JWW_CENTER1
 62
     2
370
     9
100
AcDbLine
 10
1303.842203188163
 20
-93.77586464170264
 30
0.0
 11
1346.603763576677
 21
-69.08706145863675
 31
0.0
  0
LINE
  5
11E
330
1F
100
AcDbEntity
  8
0-1
  6
JWW_CENTER1
 62
     2
370
     9
100
AcDbLine
 10
753.4474541911186
 20
-60.75823702873805
 30
0.0
 11
718.5782343853754
 21
-121.1535963773446
 31
0.0
  0
LINE
  5
11F
330
1F
100
AcDbEntity
  8
0-1
  6
JWW_CENTER1
 62
     2
370
     9
100
AcDbLine
 10
720.5082650019295
 20
-69.74079747003884
 30
0.0
 11
763.2703202700884
 21
-94.42910577345941
 31
0.0
  0
LINE
  5
120
330
1F
100
AcDbEntity
  8
0-1
  6
Continuous
 62
     2
370
     9
100
AcDbLine
 10
956.9385001687368
 20
-51.57624009039353
 30
0.0
 11
1109.041738661136
 21
-51.57624009039353
 31
0.0
  0
LINE
  5
121
330
1F
100
AcDbEntity
  8
0-1
  6
Continuous
 62
     2
370
     9
100
AcDbLine
 10
968.8235297295478
 20
-63.90963060981903
 30
0.0
 11
956.9385001687368
 21
-63.90963060981903
 31
0.0
  0
LINE
  5
122
330
1F
100
AcDbEntity
  8
0-1
  6
Continuous
 62
     2
370
     9
100
AcDbLine
 10
1097.156709100325
 20
-63.90963060981903
 30
0.0
 11
1109.041738661136
 21
-63.90963060981903
 31
0.0
  0
LINE
  5
123
330
1F
100
AcDbEntity
  8
0-1
  6
Continuous
 62
     2
370
     9
100
AcDbLine
 10
1109.041738661136
 20
898.4234299898429
 30
0.0
 11
956.9385001687368
 21
898.4234299898429
 31
0.0
  0
LINE
  5
124
330
1F
100
AcDbEntity
  8
0-1
  6
Continuous
 62
     2
370
     9
100
AcDbLine
 10
1097.156709100325
 20
910.7568205092687
 30
0.0
 11
1109.041738661136
 21
910.7568205092687
 31
0.0
  0
LINE
  5
125
330
1F
100
AcDbEntity
  8
0-1
  6
Continuous
 62
     2
370
     9
100
AcDbLine
 10
968.8235297295478
 20
910.7568205092687
 30
0.0
 11
956.9385001687368
 21
910.7568205092687
 31
0.0
  0
LINE
  5
126
330
1F
100
AcDbEntity
  8
0-3
  6
Continuous
 62
     4
370
     9
100
AcDbLine
 10
1116.323397761643
 20
914.7401067740492
 30
0.0
 11
1116.323397761643
 21
899.5190935244714
 31
0.0
  0
LINE
  5
127
330
1F
100
AcDbEntity
  8
0-3
  6
Continuous
 62
     4
370
     9
100
AcDbLine
 10
949.65684106823
 20
914.7401067740492
 30
0.0
 11
949.65684106823
 21
899.5190935244714
 31
0.0
  0
LINE
  5
128
330
1F
100
AcDbEntity
  8
0-3
  6
Continuous
 62
     4
370
     9
100
AcDbLine
 10
949.65684106823
 20
-52.67190362502191
 30
0.0
 11
949.65684106823
 21
-67.8929168745995
 31
0.0
  0
LINE
  5
129
330
1F
100
AcDbEntity
  8
0-3
  6
Continuous
 62
     4
370
     9
100
AcDbLine
 10
1116.323397761643
 20
-52.67190362502191
 30
0.0
 11
1116.323397761643
 21
-67.8929168745995
 31
0.0
  0
LINE
  5
12A
330
1F
100
AcDbEntity
  8
0-1
  6
Continuous
 62
     2
370
     9
100
AcDbLine
 10
1110.708493306406
 20
-53.24299473566384
 30
0.0
 11
1110.708493306406
 21
-68.81190837586644
 31
0.0
  0
LINE
  5
12B
330
1F
100
AcDbEntity
  8
0-1
  6
Continuous
 62
     2
370
     9
100
AcDbLine
 10
1095.489954455054
 20
-70.97502730534273
 30
0.0
 11
1095.489954455054
 21
-51.57624009039353
 31
0.0
  0
LINE
  5
12C
330
1F
100
AcDbEntity
  8
0-1
  6
Continuous
 62
     2
370
     9
100
AcDbLine
 10
1037.156511148467
 20
-74.89249457730239
 30
0.0
 11
1037.156511148467
 21
-51.57624009039353
 31
0.0
  0
LINE
  5
12D
330
1F
100
AcDbEntity
  8
0-1
  6
Continuous
 62
     2
370
     9
100
AcDbLine
 10
970.4897894951728
 20
-65.57638525508935
 30
0.0
 11
970.4897894951728
 21
-70.97502730534273
 31
0.0
  0
LINE
  5
12E
330
1F
100
AcDbEntity
  8
0-1
  6
Continuous
 62
     2
370
     9
100
AcDbLine
 10
955.2717455234665
 20
-53.24299473566384
 30
0.0
 11
955.2717455234665
 21
-68.81190837586644
 31
0.0
  0
LINE
  5
12F
330
1F
100
AcDbEntity
  8
0-1
  6
Continuous
 62
     2
370
     9
100
AcDbLine
 10
1110.708493306406
 20
900.0901846351132
 30
0.0
 11
1110.708493306406
 21
915.6590982753162
 31
0.0
  0
LINE
  5
130
330
1F
100
AcDbEntity
  8
0-1
  6
Continuous
 62
     2
370
     9
100
AcDbLine
 10
1095.489954455054
 20
912.4235751545391
 30
0.0
 11
1095.489954455054
 21
917.8222172047924
 31
0.0
  0
LINE
  5
131
330
1F
100
AcDbEntity
  8
0-1
  6
Continuous
 62
     2
370
     9
100
AcDbLine
 10
970.4897894951728
 20
917.8222172047924
 30
0.0
 11
970.4897894951728
 21
898.4234299898429
 31
0.0
  0
LINE
  5
132
330
1F
100
AcDbEntity
  8
0-1
  6
Continuous
 62
     2
370
     9
100
AcDbLine
 10
955.2717455234665
 20
900.0901846351132
 30
0.0
 11
955.2717455234665
 21
915.6590982753162
 31
0.0
  0
LINE
  5
133
330
1F
100
AcDbEntity
  8
0-1
  6
Continuous
 62
     2
370
     9
100
AcDbLine
 10
1028.823727681406
 20
921.7396844767518
 30
0.0
 11
1028.823727681406
 21
898.4234299898429
 31
0.0
  0
LINE
  5
134
330
1F
100
AcDbEntity
  8
0-4
  6
Continuous
 62
     7
370
     9
100
AcDbLine
 10
949.65684106823
 20
791.7763715544544
 30
0.0
 11
1116.323397761643
 21
791.7763715544544
 31
0.0
  0
LINE
  5
135
330
1F
100
AcDbEntity
  8
0-4
  6
Continuous
 62
     7
370
     9
100
AcDbLine
 10
949.65684106823
 20
867.8720350890828
 30
0.0
 11
949.65684106823
 21
788.7764111448263
 31
0.0
  0
LINE
  5
136
330
1F
100
AcDbEntity
  8
0-4
  6
Continuous
 62
     7
370
     9
100
AcDbLine
 10
1116.323397761643
 20
867.8720350890828
 30
0.0
 11
1116.323397761643
 21
788.7764111448263
 31
0.0
  0
LINE
  5
137
330
1F
100
AcDbEntity
  8
0-3
  6
Continuous
 62
     4
370
     9
100
AcDbLine
 10
431.4069994297168
 20
423.4234712298135
 30
0.0
 11
440.5484162371491
 21
439.2568980404133
 31
0.0
  0
LINE
  5
138
330
1F
100
AcDbEntity
  8
0-3
  6
Continuous
 62
     4
370
     9
100
AcDbLine
 10
440.5484162371491
 20
439.2568980404133
 30
0.0
 11
458.7654308591931
 21
439.2568980404133
 31
0.0
  0
LINE
  5
139
330
1F
100
AcDbEntity
  8
0-3
  6
Continuous
 62
     4
370
     9
100
AcDbLine
 10
467.9068476666257
 20
423.4234712298135
 30
0.0
 11
458.7654308591931
 21
439.2568980404133
 31
0.0
  0
LINE
  5
13A
330
1F
100
AcDbEntity
  8
0-3
  6
Continuous
 62
     4
370
     9
100
AcDbLine
 10
467.9068476666257
 20
423.4234712298135
 30
0.0
 11
458.7654308591931
 21
407.5900444192138
 31
0.0
  0
LINE
  5
13B
330
1F
100
AcDbEntity
  8
0-3
  6
Continuous
 62
     4
370
     9
100
AcDbLine
 10
440.5484162371491
 20
407.5900444192138
 30
0.0
 11
458.7654308591931
 21
407.5900444192138
 31
0.0
  0
LINE
  5
13C
330
1F
100
AcDbEntity
  8
0-3
  6
Continuous
 62
     4
370
     9
100
AcDbLine
 10
431.4069994297168
 20
423.4234712298135
 30
0.0
 11
440.5484162371491
 21
407.5900444192138
 31
0.0
  0
LINE
  5
13D
330
1F
100
AcDbEntity
  8
0-2
  6
JWW_CENTER1
 62
     3
370
     9
100
AcDbLine
 10
316.3237276814058
 20
423.4234712298135
 30
0.0
 11
515.4900204390071
 21
423.4234712298135
 31
0.0
  0
LINE
  5
13E
330
1F
100
AcDbEntity
  8
0-2
  6
JWW_CENTER1
 62
     3
370
     9
100
AcDbLine
 10
610.748413597791
 20
423.4234712298135
 30
0.0
 11
1685.551781418737
 21
423.4234712298135
 31
0.0
  0
LINE
  5
13F
330
1F
100
AcDbEntity
  8
0-2
  6
JWW_CENTER1
 62
     3
370
     9
100
AcDbLine
 10
1032.990119414936
 20
1084.903483040941
 30
0.0
 11
1032.990119414936
 21
857.2073787335086
 31
0.0
  0
LINE
  5
140
330
1F
100
AcDbEntity
  8
0-2
  6
JWW_CENTER1
 62
     3
370
     9
100
AcDbLine
 10
1032.990119414936
 20
768.8114816156877
 30
0.0
 11
1032.990119414936
 21
156.1202931127315
 31
0.0
  0
LINE
  5
141
330
1F
100
AcDbEntity
  8
0-2
  6
JWW_CENTER1
 62
     3
370
     9
100
AcDbLine
 10
1032.990119414936
 20
48.42347122981352
 30
0.0
 11
1032.990119414936
 21
-94.07662774611566
 31
0.0
  0
LINE
  5
142
330
1F
100
AcDbEntity
  8
0-3
  6
Continuous
 62
     4
370
     9
100
AcDbLine
 10
732.198311982504
 20
-97.56305484704455
 30
0.0
 11
723.0568951750718
 21
-81.72962803644509
 31
0.0
  0
LINE
  5
143
330
1F
100
AcDbEntity
  8
0-3
  6
Continuous
 62
     4
370
     9
100
AcDbLine
 10
723.0568951750718
 20
-81.72962803644509
 30
0.0
 11
732.165649925916
 21
-65.95311238505133
 31
0.0
  0
LINE
  5
144
330
1F
100
AcDbEntity
  8
0-3
  6
Continuous
 62
     4
370
     9
100
AcDbLine
 10
750.4484835407811
 20
-65.9532361049628
 30
0.0
 11
732.165649925916
 21
-65.95311238505133
 31
0.0
  0
LINE
  5
145
330
1F
100
AcDbEntity
  8
0-3
  6
Continuous
 62
     4
370
     9
100
AcDbLine
 10
750.4484835407811
 20
-65.9532361049628
 30
0.0
 11
759.5899003482134
 21
-81.78653919565107
 31
0.0
  0
LINE
  5
146
330
1F
100
AcDbEntity
  8
0-3
  6
Continuous
 62
     4
370
     9
100
AcDbLine
 10
750.4816404770139
 20
-97.56305484704455
 30
0.0
 11
759.5899003482134
 21
-81.78653919565107
 31
0.0
  0
LINE
  5
147
330
1F
100
AcDbEntity
  8
0-3
  6
Continuous
 62
     4
370
     9
100
AcDbLine
 10
732.198311982504
 20
-97.56305484704455
 30
0.0
 11
750.4816404770139
 21
-97.56305484704455
 31
0.0
  0
LINE
  5
148
330
1F
100
AcDbEntity
  8
0-3
  6
Continuous
 62
     4
370
     9
100
AcDbLine
 10
1333.781926847369
 20
-97.56305484704455
 30
0.0
 11
1315.499093232504
 21
-97.56305484704455
 31
0.0
  0
LINE
  5
149
330
1F
100
AcDbEntity
  8
0-3
  6
Continuous
 62
     4
370
     9
100
AcDbLine
 10
1315.499093232504
 20
-97.56305484704455
 30
0.0
 11
1306.390338481659
 21
-81.78653919565107
 31
0.0
  0
LINE
  5
14A
330
1F
100
AcDbEntity
  8
0-3
  6
Continuous
 62
     4
370
     9
100
AcDbLine
 10
1315.531755289092
 20
-65.9532361049628
 30
0.0
 11
1306.390338481659
 21
-81.78653919565107
 31
0.0
  0
LINE
  5
14B
330
1F
100
AcDbEntity
  8
0-3
  6
Continuous
 62
     4
370
     9
100
AcDbLine
 10
1315.531755289092
 20
-65.9532361049628
 30
0.0
 11
1333.815083783602
 21
-65.95311238505133
 31
0.0
  0
LINE
  5
14C
330
1F
100
AcDbEntity
  8
0-3
  6
Continuous
 62
     4
370
     9
100
AcDbLine
 10
1342.923343654802
 20
-81.72962803644509
 30
0.0
 11
1333.815083783602
 21
-65.95311238505133
 31
0.0
  0
LINE
  5
14D
330
1F
100
AcDbEntity
  8
0-3
  6
Continuous
 62
     4
370
     9
100
AcDbLine
 10
1333.781926847369
 20
-97.56305484704455
 30
0.0
 11
1342.923343654802
 21
-81.72962803644509
 31
0.0
  0
LINE
  5
14E
330
1F
100
AcDbEntity
  8
0-3
  6
Continuous
 62
     4
370
     9
100
AcDbLine
 10
1634.573734279802
 20
423.4234712298135
 30
0.0
 11
1625.432317472369
 21
407.5900444192138
 31
0.0
  0
LINE
  5
14F
330
1F
100
AcDbEntity
  8
0-3
  6
Continuous
 62
     4
370
     9
100
AcDbLine
 10
1625.432317472369
 20
407.5900444192138
 30
0.0
 11
1607.215302850325
 21
407.5900444192138
 31
0.0
  0
LINE
  5
150
330
1F
100
AcDbEntity
  8
0-3
  6
Continuous
 62
     4
370
     9
100
AcDbLine
 10
1598.073886042893
 20
423.4234712298135
 30
0.0
 11
1607.215302850325
 21
407.5900444192138
 31
0.0
  0
LINE
  5
151
330
1F
100
AcDbEntity
  8
0-3
  6
Continuous
 62
     4
370
     9
100
AcDbLine
 10
1598.073886042893
 20
423.4234712298135
 30
0.0
 11
1607.215302850325
 21
439.2568980404133
 31
0.0
  0
LINE
  5
152
330
1F
100
AcDbEntity
  8
0-3
  6
Continuous
 62
     4
370
     9
100
AcDbLine
 10
1625.432317472369
 20
439.2568980404133
 30
0.0
 11
1607.215302850325
 21
439.2568980404133
 31
0.0
  0
LINE
  5
153
330
1F
100
AcDbEntity
  8
0-3
  6
Continuous
 62
     4
370
     9
100
AcDbLine
 10
1634.573734279802
 20
423.4234712298135
 30
0.0
 11
1625.432317472369
 21
439.2568980404133
 31
0.0
  0
LINE
  5
154
330
1F
100
AcDbEntity
  8
0-3
  6
Continuous
 62
     4
370
     9
100
AcDbLine
 10
1333.781926847369
 20
944.410121026583
 30
0.0
 11
1342.923343654802
 21
928.5764467761607
 31
0.0
  0
LINE
  5
155
330
1F
100
AcDbEntity
  8
0-3
  6
Continuous
 62
     4
370
     9
100
AcDbLine
 10
1342.923343654802
 20
928.5764467761607
 30
0.0
 11
1333.815083783602
 21
912.8001785645895
 31
0.0
  0
LINE
  5
156
330
1F
100
AcDbEntity
  8
0-3
  6
Continuous
 62
     4
370
     9
100
AcDbLine
 10
1315.531755289092
 20
912.8001785645895
 30
0.0
 11
1333.815083783602
 21
912.8001785645895
 31
0.0
  0
LINE
  5
157
330
1F
100
AcDbEntity
  8
0-3
  6
Continuous
 62
     4
370
     9
100
AcDbLine
 10
1315.531755289092
 20
912.8001785645895
 30
0.0
 11
1306.390338481659
 21
928.6333579353666
 31
0.0
  0
LINE
  5
158
330
1F
100
AcDbEntity
  8
0-3
  6
Continuous
 62
     4
370
     9
100
AcDbLine
 10
1315.499093232504
 20
944.410121026583
 30
0.0
 11
1306.390338481659
 21
928.6333579353666
 31
0.0
  0
LINE
  5
159
330
1F
100
AcDbEntity
  8
0-3
  6
Continuous
 62
     4
370
     9
100
AcDbLine
 10
1333.781926847369
 20
944.410121026583
 30
0.0
 11
1315.499093232504
 21
944.410121026583
 31
0.0
  0
LINE
  5
15A
330
1F
100
AcDbEntity
  8
0-3
  6
Continuous
 62
     4
370
     9
100
AcDbLine
 10
732.198311982504
 20
944.410121026583
 30
0.0
 11
750.4816404770139
 21
944.410121026583
 31
0.0
  0
LINE
  5
15B
330
1F
100
AcDbEntity
  8
0-3
  6
Continuous
 62
     4
370
     9
100
AcDbLine
 10
750.4816404770139
 20
944.410121026583
 30
0.0
 11
759.5899003482134
 21
928.6333579353666
 31
0.0
  0
LINE
  5
15C
330
1F
100
AcDbEntity
  8
0-3
  6
Continuous
 62
     4
370
     9
100
AcDbLine
 10
750.4484835407811
 20
912.8001785645895
 30
0.0
 11
759.5899003482134
 21
928.6333579353666
 31
0.0
  0
LINE
  5
15D
330
1F
100
AcDbEntity
  8
0-3
  6
Continuous
 62
     4
370
     9
100
AcDbLine
 10
750.4484835407811
 20
912.8001785645895
 30
0.0
 11
732.165649925916
 21
912.8001785645895
 31
0.0
  0
LINE
  5
15E
330
1F
100
AcDbEntity
  8
0-3
  6
Continuous
 62
     4
370
     9
100
AcDbLine
 10
723.0568951750718
 20
928.5764467761607
 30
0.0
 11
732.165649925916
 21
912.8001785645895
 31
0.0
  0
LINE
  5
15F
330
1F
100
AcDbEntity
  8
0-3
  6
Continuous
 62
     4
370
     9
100
AcDbLine
 10
732.198311982504
 20
944.410121026583
 30
0.0
 11
723.0568951750718
 21
928.5764467761607
 31
0.0
  0
LINE
  5
160
330
1F
100
AcDbEntity
  8
0-1
  6
Continuous
 62
     2
370
     9
100
AcDbLine
 10
420.6681111273519
 20
439.2573929200583
 30
0.0
 11
440.5484162371491
 21
439.2573929200583
 31
0.0
  0
LINE
  5
161
330
1F
100
AcDbEntity
  8
0-1
  6
Continuous
 62
     2
370
     9
100
AcDbLine
 10
418.1531327700884
 20
435.9233887498726
 30
0.0
 11
438.6238292966931
 21
435.9233887498726
 31
0.0
  0
LINE
  5
162
330
1F
100
AcDbEntity
  8
0-1
  6
Continuous
 62
     2
370
     9
100
AcDbLine
 10
418.1531327700884
 20
410.9235537097544
 30
0.0
 11
438.6238292966931
 21
410.9235537097544
 31
0.0
  0
LINE
  5
163
330
1F
100
AcDbEntity
  8
0-1
  6
Continuous
 62
     2
370
     9
100
AcDbLine
 10
420.6686060069973
 20
407.5895495395685
 30
0.0
 11
440.5484162371491
 21
407.5895495395685
 31
0.0
  0
LINE
  5
164
330
1F
100
AcDbEntity
  8
0-1
  6
Continuous
 62
     2
370
     9
100
AcDbLine
 10
736.3973657726223
 20
-115.2910046596503
 30
0.0
 11
746.632466596102
 21
-97.56305484704455
 31
0.0
  0
LINE
  5
165
330
1F
100
AcDbEntity
  8
0-1
  6
Continuous
 62
     2
370
     9
100
AcDbLine
 10
740.5414879221155
 20
-114.7795465462633
 30
0.0
 11
750.4816404770139
 21
-97.56305484704455
 31
0.0
  0
LINE
  5
166
330
1F
100
AcDbEntity
  8
0-1
  6
Continuous
 62
     2
370
     9
100
AcDbLine
 10
713.1172374998181
 20
-98.94611973566384
 30
0.0
 11
723.0568951750718
 21
-81.72987547626775
 31
0.0
  0
LINE
  5
167
330
1F
100
AcDbEntity
  8
0-1
  6
Continuous
 62
     2
370
     9
100
AcDbLine
 10
714.7463812920478
 20
-102.7908396997685
 30
0.0
 11
724.9819769951728
 21
-85.0633847668081
 31
0.0
  0
LINE
  5
168
330
1F
100
AcDbEntity
  8
0-1
  6
Continuous
 62
     2
370
     9
100
AcDbLine
 10
1351.233857537825
 20
-102.7908396997685
 30
0.0
 11
1340.998756714345
 21
-85.06301360707425
 31
0.0
  0
LINE
  5
169
330
1F
100
AcDbEntity
  8
0-1
  6
Continuous
 62
     2
370
     9
100
AcDbLine
 10
1352.863001330054
 20
-98.94611973566384
 30
0.0
 11
1342.923343654802
 21
-81.72987547626775
 31
0.0
  0
LINE
  5
16A
330
1F
100
AcDbEntity
  8
0-1
  6
Continuous
 62
     2
370
     9
100
AcDbLine
 10
1329.583367936896
 20
-115.2910046596503
 30
0.0
 11
1319.348267113416
 21
-97.56305484704455
 31
0.0
  0
LINE
  5
16B
330
1F
100
AcDbEntity
  8
0-1
  6
Continuous
 62
     2
370
     9
100
AcDbLine
 10
1325.438750907757
 20
-114.7795465462633
 30
0.0
 11
1315.499093232504
 21
-97.56305484704455
 31
0.0
  0
LINE
  5
16C
330
1F
100
AcDbEntity
  8
0-1
  6
Continuous
 62
     2
370
     9
100
AcDbLine
 10
1647.827600939429
 20
435.9238836295179
 30
0.0
 11
1627.356409533179
 21
435.9240073494291
 31
0.0
  0
LINE
  5
16D
330
1F
100
AcDbEntity
  8
0-1
  6
Continuous
 62
     2
370
     9
100
AcDbLine
 10
1645.312127702521
 20
439.2572692001471
 30
0.0
 11
1625.431822592723
 21
439.2572692001471
 31
0.0
  0
LINE
  5
16E
330
1F
100
AcDbEntity
  8
0-1
  6
Continuous
 62
     2
370
     9
100
AcDbLine
 10
1647.827600939429
 20
410.9230588301091
 30
0.0
 11
1627.356409533179
 21
410.9229351101976
 31
0.0
  0
LINE
  5
16F
330
1F
100
AcDbEntity
  8
0-1
  6
Continuous
 62
     2
370
     9
100
AcDbLine
 10
1645.312127702521
 20
407.5896732594799
 30
0.0
 11
1625.431822592723
 21
407.5896732594799
 31
0.0
  0
LINE
  5
170
330
1F
100
AcDbEntity
  8
0-1
  6
Continuous
 62
     2
370
     9
100
AcDbLine
 10
1351.233857537825
 20
949.6380295992179
 30
0.0
 11
1340.998756714345
 21
931.9099560667013
 31
0.0
  0
LINE
  5
171
330
1F
100
AcDbEntity
  8
0-1
  6
Continuous
 62
     2
370
     9
100
AcDbLine
 10
1352.863001330054
 20
945.7933096351132
 30
0.0
 11
1342.923343654802
 21
928.576941655806
 31
0.0
  0
LINE
  5
172
330
1F
100
AcDbEntity
  8
0-1
  6
Continuous
 62
     2
370
     9
100
AcDbLine
 10
1325.438750907757
 20
961.6264890058903
 30
0.0
 11
1315.499093232504
 21
944.410121026583
 31
0.0
  0
LINE
  5
173
330
1F
100
AcDbEntity
  8
0-1
  6
Continuous
 62
     2
370
     9
100
AcDbLine
 10
1329.583367936896
 20
962.1381945590997
 30
0.0
 11
1319.348267113416
 21
944.410121026583
 31
0.0
  0
LINE
  5
174
330
1F
100
AcDbEntity
  8
0-1
  6
Continuous
 62
     2
370
     9
100
AcDbLine
 10
736.3973657726223
 20
962.1381945590997
 30
0.0
 11
746.632466596102
 21
944.410121026583
 31
0.0
  0
LINE
  5
175
330
1F
100
AcDbEntity
  8
0-1
  6
Continuous
 62
     2
370
     9
100
AcDbLine
 10
740.5414879221155
 20
961.6264890058903
 30
0.0
 11
750.4811455973686
 21
944.410121026583
 31
0.0
  0
LINE
  5
176
330
1F
100
AcDbEntity
  8
0-1
  6
Continuous
 62
     2
370
     9
100
AcDbLine
 10
714.7463812920478
 20
949.6380295992179
 30
0.0
 11
724.9819769951728
 21
931.9104509463464
 31
0.0
  0
LINE
  5
177
330
1F
100
AcDbEntity
  8
0-1
  6
Continuous
 62
     2
370
     9
100
AcDbLine
 10
713.1172374998181
 20
945.7933096351132
 30
0.0
 11
723.0568951750718
 21
928.576941655806
 31
0.0
  0
LINE
  5
178
330
1F
100
AcDbEntity
  8
1-0
  6
Continuous
 62
     2
370
     9
100
AcDbLine
 10
-427.3471328153212
 20
473.895751371283
 30
0.0
 11
-492.3475947029902
 21
473.895751371283
 31
0.0
  0
LINE
  5
179
330
1F
100
AcDbEntity
  8
1-0
  6
Continuous
 62
     2
370
     9
100
AcDbLine
 10
-497.3478586388009
 20
676.3961720189815
 30
0.0
 11
-502.0007170636322
 21
722.9222818690662
 31
0.0
  0
LINE
  5
17A
330
1F
100
AcDbEntity
  8
1-0
  6
Continuous
 62
     2
370
     9
100
AcDbLine
 10
-607.0545104810731
 20
841.7072533639985
 30
0.0
 11
-600.7269793366472
 21
740.4598267381539
 31
0.0
  0
LINE
  5
17B
330
1F
100
AcDbEntity
  8
1-0
  6
Continuous
 62
     2
370
     9
100
AcDbLine
 10
-621.8288948507944
 20
604.7979747005695
 30
0.0
 11
-618.3659745330156
 21
662.2980406845221
 31
0.0
  0
LINE
  5
17C
330
1F
100
AcDbEntity
  8
1-0
  6
Continuous
 62
     2
370
     9
100
AcDbLine
 10
-611.0726857608449
 20
548.895751371283
 30
0.0
 11
-551.6618894665038
 21
548.895751371283
 31
0.0
  0
LINE
  5
17D
330
1F
100
AcDbEntity
  8
1-0
  6
Continuous
 62
     2
370
     9
100
AcDbLine
 10
-480.0124721048061
 20
600.5533919830862
 30
0.0
 11
-497.3478586388009
 21
676.3961720189815
 31
0.0
  0
LINE
  5
17E
330
1F
100
AcDbEntity
  8
1-0
  6
Continuous
 62
     2
370
     9
100
AcDbLine
 10
-422.3476111989785
 20
468.8959823151174
 30
0.0
 11
-422.3476111989785
 21
443.8963947148218
 31
0.0
  0
LINE
  5
17F
330
1F
100
AcDbEntity
  8
1-0
  6
Continuous
 62
     2
370
     9
100
AcDbLine
 10
-528.9246441645611
 20
457.2432987477612
 30
0.0
 11
-536.8652355127451
 21
536.3559960397797
 31
0.0
  0
LINE
  5
180
330
1F
100
AcDbEntity
  8
1-0
  6
Continuous
 62
     2
370
     9
100
AcDbLine
 10
-432.3473967511322
 20
588.8958833391885
 30
0.0
 11
-606.8570535026104
 21
588.8958833391885
 31
0.0
  0
LINE
  5
181
330
1F
100
AcDbEntity
  8
1-0
  6
Continuous
 62
     2
370
     9
100
AcDbLine
 10
-585.7558803079312
 20
726.3953472195728
 30
0.0
 11
-506.7619541307775
 21
726.3953472195728
 31
0.0
  0
LINE
  5
182
330
1F
100
AcDbEntity
  8
1-0
  6
Continuous
 62
     2
370
     9
100
AcDbLine
 10
-603.3926485458958
 20
676.3961720189815
 30
0.0
 11
-497.3478586388009
 21
676.3961720189815
 31
0.0
  0
LINE
  5
183
330
1F
100
AcDbEntity
  8
1-0
  6
Continuous
 62
     2
370
     9
100
AcDbLine
 10
-634.1009202942064
 20
401.0954913945093
 30
0.0
 11
-626.0460117479649
 21
534.7971251571784
 31
0.0
  0
LINE
  5
184
330
1F
100
AcDbEntity
  8
1-0
  6
Continuous
 62
     2
370
     9
100
AcDbLine
 10
-514.0166422906168
 20
443.8963947148218
 30
0.0
 11
-422.3476111989785
 21
443.8963947148218
 31
0.0
  0
LINE
  5
185
330
1F
100
AcDbEntity
  8
1-0
  6
Continuous
 62
     2
370
     9
100
AcDbLine
 10
-510.4557358030746
 20
430.2538000938338
 30
0.0
 11
-512.9751680771458
 21
410.0379665845432
 31
0.0
  0
LINE
  5
186
330
1F
100
AcDbEntity
  8
1-0
  6
Continuous
 62
     2
370
     9
100
AcDbLine
 10
-422.3476111989785
 20
536.3960812910466
 30
0.0
 11
-422.3476111989785
 21
578.8958503472122
 31
0.0
  0
LINE
  5
187
330
1F
100
AcDbEntity
  8
1-0
  6
Continuous
 62
     2
370
     9
100
AcDbLine
 10
-492.3475947029902
 20
531.396312234881
 30
0.0
 11
-427.3471328153212
 21
531.396312234881
 31
0.0
  0
LINE
  5
188
330
1F
100
AcDbEntity
  8
1-0
  6
JWW_DASHED1
 62
     2
370
     9
100
AcDbLine
 10
-497.3478586388009
 20
526.3965431787155
 30
0.0
 11
-497.3478586388009
 21
543.8959823151174
 31
0.0
  0
LINE
  5
189
330
1F
100
AcDbEntity
  8
1-0
  6
Continuous
 62
     2
370
     9
100
AcDbLine
 10
-497.3478586388009
 20
588.8958833391885
 30
0.0
 11
-497.3478586388009
 21
478.8967576265617
 31
0.0
  0
LINE
  5
18A
330
1F
100
AcDbEntity
  8
1-0
  6
Continuous
 62
     2
370
     9
100
AcDbLine
 10
-642.6398211335222
 20
846.3957431232891
 30
0.0
 11
-612.0451242638012
 21
846.3957431232891
 31
0.0
  0
LINE
  5
18B
330
1F
100
AcDbEntity
  8
1-0
  6
Continuous
 62
     2
370
     9
100
AcDbLine
 10
-827.856693890068
 20
446.3957843632593
 30
0.0
 11
-690.2759460279481
 21
446.3957843632593
 31
0.0
  0
LINE
  5
18C
330
1F
100
AcDbEntity
  8
1-0
  6
Continuous
 62
     2
370
     9
100
AcDbLine
 10
-699.8481555665882
 20
446.3957843632593
 30
0.0
 11
-709.8486834382097
 21
396.3953719635549
 31
0.0
  0
LINE
  5
18D
330
1F
100
AcDbEntity
  8
1-0
  6
Continuous
 62
     2
370
     9
100
AcDbLine
 10
-842.7416838605072
 20
433.2557400220432
 30
0.0
 11
-847.3477761588601
 21
396.3953719635549
 31
0.0
  0
LINE
  5
18E
330
1F
100
AcDbEntity
  8
1-0
  6
Continuous
 62
     2
370
     9
100
AcDbLine
 10
-647.6311772357184
 20
841.6963660118026
 30
0.0
 11
-670.3112639386322
 21
465.1935402490281
 31
0.0
  0
LINE
  5
18F
330
1F
100
AcDbEntity
  8
1-0
  6
Continuous
 62
     2
370
     9
100
AcDbLine
 10
-847.3477761588601
 20
396.3953719635549
 30
0.0
 11
-527.9136050492741
 21
396.3953719635549
 31
0.0
  0
LINE
  5
190
330
1F
100
AcDbEntity
  8
1-4
  6
Continuous
 62
     7
370
     9
100
AcDbLine
 10
-672.3480648386533
 20
846.3962380029343
 30
0.0
 11
-1550.347695328518
 21
846.3962380029343
 31
0.0
  0
LINE
  5
191
330
1F
100
AcDbEntity
  8
1-1
  6
JWW_CENTER1
 62
     2
370
     9
100
AcDbLine
 10
-747.3476936789194
 20
623.5524286173768
 30
0.0
 11
-747.3476936789194
 21
-172.7542021100302
 31
0.0
  0
LINE
  5
192
330
1F
100
AcDbEntity
  8
1-3
  6
Continuous
 62
     4
370
     9
100
AcDbLine
 10
-497.3478586388009
 20
436.3962462509284
 30
0.0
 11
-452.3478338948189
 21
436.3962462509284
 31
0.0
  0
LINE
  5
193
330
1F
100
AcDbEntity
  8
1-3
  6
Continuous
 62
     4
370
     9
100
AcDbLine
 10
-452.3478338948189
 20
175.277579060789
 30
0.0
 11
-452.3478338948189
 21
436.3962462509284
 31
0.0
  0
LINE
  5
194
330
1F
100
AcDbEntity
  8
1-3
  6
Continuous
 62
     4
370
     9
100
AcDbLine
 10
-497.3478586388009
 20
163.2198365037789
 30
0.0
 11
-497.3478586388009
 21
436.3962462509284
 31
0.0
  0
LINE
  5
195
330
1F
100
AcDbEntity
  8
1-4
  6
Continuous
 62
     7
370
     9
100
AcDbLine
 10
-497.3478586388009
 20
-313.6035063092492
 30
0.0
 11
-152.3478338948189
 21
-313.6035063092492
 31
0.0
  0
LINE
  5
196
330
1F
100
AcDbEntity
  8
1-3
  6
Continuous
 62
     4
370
     9
100
AcDbLine
 10
-497.3478586388009
 20
731.7835967972755
 30
0.0
 11
-497.3478586388009
 21
1096.396567922698
 31
0.0
  0
LINE
  5
197
330
1F
100
AcDbEntity
  8
1-3
  6
Continuous
 62
     4
370
     9
100
AcDbLine
 10
-452.3478338948189
 20
596.7398494366336
 30
0.0
 11
-452.3478338948189
 21
1096.396567922698
 31
0.0
  0
LINE
  5
198
330
1F
100
AcDbEntity
  8
1-0
  6
JWW_DASHED1
 62
     2
370
     9
100
AcDbLine
 10
-427.3471328153212
 20
548.895751371283
 30
0.0
 11
-492.3475947029902
 21
548.895751371283
 31
0.0
  0
LINE
  5
199
330
1F
100
AcDbEntity
  8
1-E
  6
Continuous
 62
     7
370
     9
100
AcDbLine
 10
-579.602670518552
 20
907.2327825552992
 30
0.0
 11
-594.8217042495486
 21
927.0665689784412
 31
0.0
  0
LINE
  5
19A
330
1F
100
AcDbEntity
  8
1-E
  6
Continuous
 62
     7
370
     9
100
AcDbLine
 10
-579.602670518552
 20
907.2327825552992
 30
0.0
 11
-589.1698075408281
 21
930.329805359353
 31
0.0
  0
LINE
  5
19B
330
1F
100
AcDbEntity
  8
1-E
  6
Continuous
 62
     7
370
     9
100
AcDbLine
 10
-497.3478586388009
 20
1096.396567922698
 30
0.0
 11
-512.5668923697979
 21
1116.23035434584
 31
0.0
  0
LINE
  5
19C
330
1F
100
AcDbEntity
  8
1-E
  6
Continuous
 62
     7
370
     9
100
AcDbLine
 10
-497.3478586388009
 20
1096.396567922698
 30
0.0
 11
-506.9149956610772
 21
1119.493590726752
 31
0.0
  0
LINE
  5
19D
330
1F
100
AcDbEntity
  8
1-E
  6
Continuous
 62
     7
370
     9
100
AcDbLine
 10
-497.3478586388009
 20
1096.396567922698
 30
0.0
 11
-578.1767985406168
 21
1236.396040051076
 31
0.0
  0
LINE
  5
19E
330
1F
100
AcDbEntity
  8
1-E
  6
Continuous
 62
     7
370
     9
100
AcDbLine
 10
-579.602670518552
 20
907.2327825552992
 30
0.0
 11
-700.3632015574033
 21
1116.396139027006
 31
0.0
  0
LINE
  5
19F
330
1F
100
AcDbEntity
  8
1-E
  6
Continuous
 62
     7
370
     9
100
AcDbLine
 10
-700.3632015574033
 20
1116.396139027006
 30
0.0
 11
-1062.361352357129
 21
1116.396139027006
 31
0.0
  0
LINE
  5
1A0
330
1F
100
AcDbEntity
  8
1-E
  6
Continuous
 62
     7
370
     9
100
AcDbLine
 10
-578.1767985406168
 20
1236.396040051076
 30
0.0
 11
-922.6074642527158
 21
1236.396040051076
 31
0.0
  0
LINE
  5
1A1
330
1F
100
AcDbEntity
  8
1-E
  6
Continuous
 62
     7
370
     9
100
AcDbLine
 10
-747.3476936789194
 20
596.3964029628162
 30
0.0
 11
-762.566727409916
 21
616.2301893859578
 31
0.0
  0
LINE
  5
1A2
330
1F
100
AcDbEntity
  8
1-E
  6
Continuous
 62
     7
370
     9
100
AcDbLine
 10
-747.3476936789194
 20
596.3964029628162
 30
0.0
 11
-756.9148307011955
 21
619.49342576687
 31
0.0
  0
LINE
  5
1A3
330
1F
100
AcDbEntity
  8
1-E
  6
Continuous
 62
     7
370
     9
100
AcDbLine
 10
-978.2878577810096
 20
996.3962380029343
 30
0.0
 11
-1308.223127523408
 21
996.3962380029343
 31
0.0
  0
LINE
  5
1A4
330
1F
100
AcDbEntity
  8
1-E
  6
Continuous
 62
     7
370
     9
100
AcDbLine
 10
-747.3476936789194
 20
596.3964029628162
 30
0.0
 11
-978.2878577810096
 21
996.3962380029343
 31
0.0
  0
LINE
  5
1A5
330
1F
100
AcDbEntity
  8
1-4
  6
Continuous
 62
     7
370
     9
100
AcDbLine
 10
-802.0977134741051
 20
383.8954544434958
 30
0.0
 11
-817.3167472051017
 21
364.0615443004427
 31
0.0
  0
LINE
  5
1A6
330
1F
100
AcDbEntity
  8
1-4
  6
Continuous
 62
     7
370
     9
100
AcDbLine
 10
-802.0977134741051
 20
383.8954544434958
 30
0.0
 11
-811.6648504963813
 21
360.7984316394419
 31
0.0
  0
LINE
  5
1A7
330
1F
100
AcDbEntity
  8
1-4
  6
Continuous
 62
     7
370
     9
100
AcDbLine
 10
-802.0977134741051
 20
383.8954544434958
 30
0.0
 11
-871.3796266128298
 21
263.8954296995135
 31
0.0
  0
LINE
  5
1A8
330
1F
100
AcDbEntity
  8
1-4
  6
Continuous
 62
     7
370
     9
100
AcDbLine
 10
-871.3796266128298
 20
263.8954296995135
 30
0.0
 11
-1393.770497403054
 21
263.8954296995135
 31
0.0
  0
ARC
  5
1A9
330
1F
100
AcDbEntity
  8
1-8
  6
Continuous
 62
     4
370
     9
100
AcDbCircle
 10
-788.3855882629565
 20
489.3805354717898
 30
0.0
 40
19.51515159091434
100
AcDbArc
 50
45.36129760742188
 51
134.6389617919922
  0
ARC
  5
1AA
330
1F
100
AcDbEntity
  8
1-8
  6
Continuous
 62
     4
370
     9
100
AcDbCircle
 10
-747.3476936789194
 20
439.7562316024909
 30
0.0
 40
69.13950378830368
100
AcDbArc
 50
66.71980285644531
 51
113.2803039550781
  0
ARC
  5
1AB
330
1F
100
AcDbEntity
  8
1-8
  6
Continuous
 62
     4
370
     9
100
AcDbCircle
 10
-706.3097990948822
 20
489.3805354717898
 30
0.0
 40
19.51530430767987
100
AcDbArc
 50
45.36129760742188
 51
134.63818359375
  0
ARC
  5
1AC
330
1F
100
AcDbEntity
  8
1-8
  6
Continuous
 62
     4
370
     9
100
AcDbCircle
 10
-788.3855882629565
 20
353.4106208550247
 30
0.0
 40
19.51515159091434
100
AcDbArc
 50
225.3610382080078
 51
314.6387023925781
  0
ARC
  5
1AD
330
1F
100
AcDbEntity
  8
1-8
  6
Continuous
 62
     4
370
     9
100
AcDbCircle
 10
-747.3476936789194
 20
403.0349247243237
 30
0.0
 40
69.13950378830368
100
AcDbArc
 50
246.7196960449219
 51
293.2801971435547
  0
ARC
  5
1AE
330
1F
100
AcDbEntity
  8
1-8
  6
Continuous
 62
     4
370
     9
100
AcDbCircle
 10
-706.3097990948822
 20
353.4106208550247
 30
0.0
 40
19.51530430767987
100
AcDbArc
 50
225.36181640625
 51
314.6387023925781
  0
ARC
  5
1AF
330
1F
100
AcDbEntity
  8
0-1
  6
Continuous
 62
     2
370
     9
100
AcDbCircle
 10
1037.165418982082
 20
430.654776326414
 30
0.0
 40
549.2219460977091
100
AcDbArc
 50
56.52049255371094
 51
63.4795379638672
  0
ARC
  5
1B0
330
1F
100
AcDbEntity
  8
0-1
  6
Continuous
 62
     2
370
     9
100
AcDbCircle
 10
1032.990119414936
 20
423.4235949497247
 30
0.0
 40
614.238553433805
100
AcDbArc
 50
61.63705444335937
 51
63.11085510253906
  0
ARC
  5
1B1
330
1F
100
AcDbEntity
  8
0-1
  6
Continuous
 62
     2
370
     9
100
AcDbCircle
 10
1323.995681862149
 20
962.4598663285255
 30
0.0
 40
1.666666688145818
100
AcDbArc
 50
330.0
 51
61.6352844238281
  0
ARC
  5
1B2
330
1F
100
AcDbEntity
  8
0-1
  6
Continuous
 62
     2
370
     9
100
AcDbCircle
 10
1328.139804011643
 20
962.9710770020895
 30
0.0
 40
1.666666688145818
100
AcDbArc
 50
330.0
 51
61.31730651855467
  0
ARC
  5
1B3
330
1F
100
AcDbEntity
  8
0-1
  6
Continuous
 62
     2
370
     9
100
AcDbCircle
 10
1354.306565255308
 20
944.959932312478
 30
0.0
 40
1.666666688145818
100
AcDbArc
 50
58.36471557617187
 51
150.0
  0
ARC
  5
1B4
330
1F
100
AcDbEntity
  8
0-1
  6
Continuous
 62
     2
370
     9
100
AcDbCircle
 10
1352.677421463079
 20
948.804652276583
 30
0.0
 40
1.666666688145818
100
AcDbArc
 50
58.68269348144531
 51
150.0
  0
ARC
  5
1B5
330
1F
100
AcDbEntity
  8
0-1
  6
Continuous
 62
     2
370
     9
100
AcDbCircle
 10
1032.990119414936
 20
423.4235949497247
 30
0.0
 40
614.238553433805
100
AcDbArc
 50
56.88917541503906
 51
58.36294555664061
  0
ARC
  5
1B6
330
1F
100
AcDbEntity
  8
0-1
  6
Continuous
 62
     2
370
     9
100
AcDbCircle
 10
1032.990119414936
 20
423.4235949497247
 30
0.0
 40
616.6666804133235
100
AcDbArc
 50
61.31993103027344
 51
118.6800842285157
  0
ARC
  5
1B7
330
1F
100
AcDbEntity
  8
0-1
  6
Continuous
 62
     2
370
     9
100
AcDbCircle
 10
1032.990119414936
 20
423.4235949497247
 30
0.0
 40
614.999987628009
100
AcDbArc
 50
63.26249694824219
 51
116.7375030517578
  0
ARC
  5
1B8
330
1F
100
AcDbEntity
  8
0-1
  6
Continuous
 62
     2
370
     9
100
AcDbCircle
 10
1032.990119414936
 20
423.4235949497247
 30
0.0
 40
614.999987628009
100
AcDbArc
 50
3.262496948242188
 51
56.73750305175781
  0
ARC
  5
1B9
330
1F
100
AcDbEntity
  8
0-1
  6
Continuous
 62
     2
370
     9
100
AcDbCircle
 10
1032.990119414936
 20
423.4235949497247
 30
0.0
 40
616.6666804133235
100
AcDbArc
 50
1.319915771484375
 51
58.68006896972657
  0
ARC
  5
1BA
330
1F
100
AcDbEntity
  8
0-1
  6
Continuous
 62
     2
370
     9
100
AcDbCircle
 10
1032.990119414936
 20
423.4235949497247
 30
0.0
 40
614.238553433805
100
AcDbArc
 50
121.6370544433594
 51
123.110855102539
  0
ARC
  5
1BB
330
1F
100
AcDbEntity
  8
0-1
  6
Continuous
 62
     2
370
     9
100
AcDbCircle
 10
711.673673574565
 20
944.959932312478
 30
0.0
 40
1.666666688145818
100
AcDbArc
 50
30.0
 51
121.6352844238281
  0
ARC
  5
1BC
330
1F
100
AcDbEntity
  8
0-1
  6
Continuous
 62
     2
370
     9
100
AcDbCircle
 10
713.3028173667947
 20
948.804652276583
 30
0.0
 40
1.666666688145818
100
AcDbArc
 50
30.0
 51
121.3173065185547
  0
ARC
  5
1BD
330
1F
100
AcDbEntity
  8
0-1
  6
Continuous
 62
     2
370
     9
100
AcDbCircle
 10
741.9850518473686
 20
962.4598663285255
 30
0.0
 40
1.666666688145818
100
AcDbArc
 50
118.3647155761719
 51
210.0
  0
ARC
  5
1BE
330
1F
100
AcDbEntity
  8
0-1
  6
Continuous
 62
     2
370
     9
100
AcDbCircle
 10
737.84043481823
 20
962.9710770020895
 30
0.0
 40
1.666666688145818
100
AcDbArc
 50
118.6826934814453
 51
210.0
  0
ARC
  5
1BF
330
1F
100
AcDbEntity
  8
0-1
  6
Continuous
 62
     2
370
     9
100
AcDbCircle
 10
1032.990119414936
 20
423.4235949497247
 30
0.0
 40
614.238553433805
100
AcDbArc
 50
116.889175415039
 51
118.3629455566406
  0
ARC
  5
1C0
330
1F
100
AcDbEntity
  8
0-1
  6
Continuous
 62
     2
370
     9
100
AcDbCircle
 10
1032.990614294582
 20
423.4238423895474
 30
0.0
 40
614.238553433805
100
AcDbArc
 50
1.637054443359375
 51
3.110855102539063
  0
ARC
  5
1C1
330
1F
100
AcDbEntity
  8
0-1
  6
Continuous
 62
     2
370
     9
100
AcDbCircle
 10
1645.312127702521
 20
440.9240238454174
 30
0.0
 40
1.666666688145818
100
AcDbArc
 50
270.0
 51
1.635284423828125
  0
ARC
  5
1C2
330
1F
100
AcDbEntity
  8
0-1
  6
Continuous
 62
     2
370
     9
100
AcDbCircle
 10
1647.827106059784
 20
437.5903908349656
 30
0.0
 40
1.666666688145818
100
AcDbArc
 50
270.0
 51
1.317306518554687
  0
ARC
  5
1C3
330
1F
100
AcDbEntity
  8
0-1
  6
Continuous
 62
     2
370
     9
100
AcDbCircle
 10
1028.815314727436
 20
430.6549000463252
 30
0.0
 40
549.2219460977091
100
AcDbArc
 50
116.5204620361328
 51
123.4795379638672
  0
ARC
  5
1C4
330
1F
100
AcDbEntity
  8
0-1
  6
Continuous
 62
     2
370
     9
100
AcDbCircle
 10
418.1531327700884
 20
437.5900196752315
 30
0.0
 40
1.666666688145818
100
AcDbArc
 50
178.6826782226563
 51
269.999984741211
  0
CIRCLE
  5
1C5
330
1F
100
AcDbEntity
  8
0-1
  6
Continuous
 62
     2
370
     9
100
AcDbCircle
 10
1032.990119414936
 20
423.4235949497247
 30
0.0
 40
536.6666639173353
  0
CIRCLE
  5
1C6
330
1F
100
AcDbEntity
  8
0-1
  6
Continuous
 62
     2
370
     9
100
AcDbCircle
 10
1032.990119414936
 20
423.4235949497247
 30
0.0
 40
550.0000206199852
  0
ARC
  5
1C7
330
1F
100
AcDbEntity
  8
0-1
  6
Continuous
 62
     2
370
     9
100
AcDbCircle
 10
1032.990119414936
 20
423.4235949497247
 30
0.0
 40
558.333360826647
100
AcDbArc
 50
3.59405517578125
 51
56.40596008300782
  0
ARC
  5
1C8
330
1F
100
AcDbEntity
  8
0-1
  6
Continuous
 62
     2
370
     9
100
AcDbCircle
 10
1032.990119414936
 20
423.4235949497247
 30
0.0
 40
558.333360826647
100
AcDbArc
 50
63.59403991699219
 51
116.4059448242188
  0
ARC
  5
1C9
330
1F
100
AcDbEntity
  8
0-1
  6
Continuous
 62
     2
370
     9
100
AcDbCircle
 10
1041.340223669582
 20
423.4237186696362
 30
0.0
 40
549.2219460977091
100
AcDbArc
 50
356.5204620361329
 51
3.479537963867214
  0
ARC
  5
1CA
330
1F
100
AcDbEntity
  8
0-1
  6
Continuous
 62
     2
370
     9
100
AcDbCircle
 10
1032.990119414936
 20
423.4235949497247
 30
0.0
 40
616.6666804133235
100
AcDbArc
 50
121.3199310302734
 51
178.6800842285156
  0
ARC
  5
1CB
330
1F
100
AcDbEntity
  8
0-1
  6
Continuous
 62
     2
370
     9
100
AcDbCircle
 10
1032.990119414936
 20
423.4238423895474
 30
0.0
 40
614.238553433805
100
AcDbArc
 50
176.8891296386719
 51
178.3629302978516
  0
ARC
  5
1CC
330
1F
100
AcDbEntity
  8
0-1
  6
Continuous
 62
     2
370
     9
100
AcDbCircle
 10
420.6686060069973
 20
440.9241475653286
 30
0.0
 40
1.666666688145818
100
AcDbArc
 50
178.3647155761719
 51
270.0
  0
ARC
  5
1CD
330
1F
100
AcDbEntity
  8
0-1
  6
Continuous
 62
     2
370
     9
100
AcDbCircle
 10
1024.640015160291
 20
423.4237186696362
 30
0.0
 40
549.2219460977091
100
AcDbArc
 50
176.5204467773438
 51
183.4795532226562
  0
ARC
  5
1CE
330
1F
100
AcDbEntity
  8
0-1
  6
Continuous
 62
     2
370
     9
100
AcDbCircle
 10
1032.990119414936
 20
423.4235949497247
 30
0.0
 40
558.333360826647
100
AcDbArc
 50
123.5940399169922
 51
176.4059295654297
  0
ARC
  5
1CF
330
1F
100
AcDbEntity
  8
0-1
  6
Continuous
 62
     2
370
     9
100
AcDbCircle
 10
1032.990119414936
 20
423.4235949497247
 30
0.0
 40
614.999987628009
100
AcDbArc
 50
123.2624969482422
 51
176.7374725341797
  0
ARC
  5
1D0
330
1F
100
AcDbEntity
  8
0-1
  6
Continuous
 62
     2
370
     9
100
AcDbCircle
 10
1037.165418982082
 20
416.192166133213
 30
0.0
 40
549.2219460977091
100
AcDbArc
 50
296.5204620361328
 51
303.4795074462891
  0
ARC
  5
1D1
330
1F
100
AcDbEntity
  8
0-1
  6
Continuous
 62
     2
370
     9
100
AcDbCircle
 10
1032.990119414936
 20
423.423347509902
 30
0.0
 40
614.238553433805
100
AcDbArc
 50
296.8891448974609
 51
298.3629455566406
  0
ARC
  5
1D2
330
1F
100
AcDbEntity
  8
0-1
  6
Continuous
 62
     2
370
     9
100
AcDbCircle
 10
1323.995681862149
 20
-115.6126764290758
 30
0.0
 40
1.666666688145818
100
AcDbArc
 50
298.3647155761718
 51
30.00000000000002
  0
ARC
  5
1D3
330
1F
100
AcDbEntity
  8
0-1
  6
Continuous
 62
     2
370
     9
100
AcDbCircle
 10
1328.139804011643
 20
-116.1238871026401
 30
0.0
 40
1.666666688145818
100
AcDbArc
 50
298.6826934814453
 51
30.00000000000002
  0
ARC
  5
1D4
330
1F
100
AcDbEntity
  8
0-1
  6
Continuous
 62
     2
370
     9
100
AcDbCircle
 10
1354.306565255308
 20
-98.11274241302868
 30
0.0
 40
1.666666688145818
100
AcDbArc
 50
210.0
 51
301.6352844238281
  0
ARC
  5
1D5
330
1F
100
AcDbEntity
  8
0-1
  6
Continuous
 62
     2
370
     9
100
AcDbCircle
 10
1352.677421463079
 20
-101.9574623771334
 30
0.0
 40
1.666666688145818
100
AcDbArc
 50
210.0
 51
301.3173065185547
  0
ARC
  5
1D6
330
1F
100
AcDbEntity
  8
0-1
  6
Continuous
 62
     2
370
     9
100
AcDbCircle
 10
1032.990119414936
 20
423.423347509902
 30
0.0
 40
614.238553433805
100
AcDbArc
 50
301.6370544433594
 51
303.1108245849609
  0
ARC
  5
1D7
330
1F
100
AcDbEntity
  8
0-1
  6
Continuous
 62
     2
370
     9
100
AcDbCircle
 10
1032.990119414936
 20
423.423347509902
 30
0.0
 40
616.6666804133235
100
AcDbArc
 50
241.3199157714844
 51
298.6800689697266
  0
ARC
  5
1D8
330
1F
100
AcDbEntity
  8
0-1
  6
Continuous
 62
     2
370
     9
100
AcDbCircle
 10
1032.990119414936
 20
423.423347509902
 30
0.0
 40
614.999987628009
100
AcDbArc
 50
243.2624969482422
 51
296.7375030517578
  0
ARC
  5
1D9
330
1F
100
AcDbEntity
  8
0-1
  6
Continuous
 62
     2
370
     9
100
AcDbCircle
 10
1032.990119414936
 20
423.423347509902
 30
0.0
 40
614.999987628009
100
AcDbArc
 50
303.2624969482422
 51
356.7375030517578
  0
ARC
  5
1DA
330
1F
100
AcDbEntity
  8
0-1
  6
Continuous
 62
     2
370
     9
100
AcDbCircle
 10
1032.990119414936
 20
423.423347509902
 30
0.0
 40
616.6666804133235
100
AcDbArc
 50
301.3199310302734
 51
358.6800842285156
  0
ARC
  5
1DB
330
1F
100
AcDbEntity
  8
0-1
  6
Continuous
 62
     2
370
     9
100
AcDbCircle
 10
1032.990119414936
 20
423.423347509902
 30
0.0
 40
614.238553433805
100
AcDbArc
 50
236.8891448974609
 51
238.3629455566406
  0
ARC
  5
1DC
330
1F
100
AcDbEntity
  8
0-1
  6
Continuous
 62
     2
370
     9
100
AcDbCircle
 10
741.9850518473686
 20
-115.6126764290758
 30
0.0
 40
1.666666688145818
100
AcDbArc
 50
150.0
 51
241.6352844238281
  0
ARC
  5
1DD
330
1F
100
AcDbEntity
  8
0-1
  6
Continuous
 62
     2
370
     9
100
AcDbCircle
 10
737.84043481823
 20
-116.1238871026401
 30
0.0
 40
1.666666688145818
100
AcDbArc
 50
150.0
 51
241.3173065185547
  0
ARC
  5
1DE
330
1F
100
AcDbEntity
  8
0-1
  6
Continuous
 62
     2
370
     9
100
AcDbCircle
 10
1032.990119414936
 20
423.423347509902
 30
0.0
 40
614.238553433805
100
AcDbArc
 50
241.6370544433594
 51
243.1108245849609
  0
ARC
  5
1DF
330
1F
100
AcDbEntity
  8
0-1
  6
Continuous
 62
     2
370
     9
100
AcDbCircle
 10
1032.990614294582
 20
423.4231000700794
 30
0.0
 40
614.238553433805
100
AcDbArc
 50
356.8891448974609
 51
358.3629455566406
  0
ARC
  5
1E0
330
1F
100
AcDbEntity
  8
0-1
  6
Continuous
 62
     2
370
     9
100
AcDbCircle
 10
1645.312127702521
 20
405.9229186142096
 30
0.0
 40
1.666666688145818
100
AcDbArc
 50
358.3647155761718
 51
90.0
  0
ARC
  5
1E1
330
1F
100
AcDbEntity
  8
0-1
  6
Continuous
 62
     2
370
     9
100
AcDbCircle
 10
1647.827106059784
 20
409.2565516246614
 30
0.0
 40
1.666666688145818
100
AcDbArc
 50
358.6826934814453
 51
90.0
  0
ARC
  5
1E2
330
1F
100
AcDbEntity
  8
0-1
  6
Continuous
 62
     2
370
     9
100
AcDbCircle
 10
1028.815314727436
 20
416.1920424133015
 30
0.0
 40
549.2219460977091
100
AcDbArc
 50
236.5204620361328
 51
243.4795379638672
  0
ARC
  5
1E3
330
1F
100
AcDbEntity
  8
0-1
  6
Continuous
 62
     2
370
     9
100
AcDbCircle
 10
1032.990119414936
 20
423.423347509902
 30
0.0
 40
558.333360826647
100
AcDbArc
 50
303.5940399169922
 51
356.4059448242188
  0
ARC
  5
1E4
330
1F
100
AcDbEntity
  8
0-1
  6
Continuous
 62
     2
370
     9
100
AcDbCircle
 10
1032.990119414936
 20
423.423347509902
 30
0.0
 40
558.333360826647
100
AcDbArc
 50
243.5940551757812
 51
296.4059600830078
  0
ARC
  5
1E5
330
1F
100
AcDbEntity
  8
0-1
  6
Continuous
 62
     2
370
     9
100
AcDbCircle
 10
1032.990119414936
 20
423.423347509902
 30
0.0
 40
616.6666804133235
100
AcDbArc
 50
181.3199157714844
 51
238.6800689697266
  0
ARC
  5
1E6
330
1F
100
AcDbEntity
  8
0-1
  6
Continuous
 62
     2
370
     9
100
AcDbCircle
 10
1032.990119414936
 20
423.4231000700794
 30
0.0
 40
614.238553433805
100
AcDbArc
 50
181.6370697021485
 51
183.1108703613281
  0
ARC
  5
1E7
330
1F
100
AcDbEntity
  8
0-1
  6
Continuous
 62
     2
370
     9
100
AcDbCircle
 10
1032.990119414936
 20
423.423347509902
 30
0.0
 40
558.333360826647
100
AcDbArc
 50
183.5940704345704
 51
236.4059600830079
  0
ARC
  5
1E8
330
1F
100
AcDbEntity
  8
0-1
  6
Continuous
 62
     2
370
     9
100
AcDbCircle
 10
1032.990119414936
 20
423.423347509902
 30
0.0
 40
614.999987628009
100
AcDbArc
 50
183.2625274658203
 51
236.7375030517578
  0
ARC
  5
1E9
330
1F
100
AcDbEntity
  8
0-1
  6
Continuous
 62
     2
370
     9
100
AcDbCircle
 10
956.9385001687368
 20
-53.24299473566384
 30
0.0
 40
1.666666688145818
100
AcDbArc
 50
90.0
 51
180.0
  0
ARC
  5
1EA
330
1F
100
AcDbEntity
  8
0-1
  6
Continuous
 62
     2
370
     9
100
AcDbCircle
 10
1109.041738661136
 20
-53.24299473566384
 30
0.0
 40
1.666666688145818
100
AcDbArc
 50
0.0
 51
90.0
  0
ARC
  5
1EB
330
1F
100
AcDbEntity
  8
0-1
  6
Continuous
 62
     2
370
     9
100
AcDbCircle
 10
956.9385001687368
 20
-65.57638525508935
 30
0.0
 40
1.666666688145818
100
AcDbArc
 50
90.0
 51
180.0
  0
ARC
  5
1EC
330
1F
100
AcDbEntity
  8
0-1
  6
Continuous
 62
     2
370
     9
100
AcDbCircle
 10
968.8235297295478
 20
-65.57638525508935
 30
0.0
 40
1.666666688145818
100
AcDbArc
 50
0.0
 51
90.0
  0
ARC
  5
1ED
330
1F
100
AcDbEntity
  8
0-1
  6
Continuous
 62
     2
370
     9
100
AcDbCircle
 10
1109.041738661136
 20
-65.57638525508935
 30
0.0
 40
1.666666688145818
100
AcDbArc
 50
0.0
 51
90.0
  0
ARC
  5
1EE
330
1F
100
AcDbEntity
  8
0-1
  6
Continuous
 62
     2
370
     9
100
AcDbCircle
 10
1097.156709100325
 20
-65.57638525508935
 30
0.0
 40
1.666666688145818
100
AcDbArc
 50
90.0
 51
180.0
  0
ARC
  5
1EF
330
1F
100
AcDbEntity
  8
0-1
  6
Continuous
 62
     2
370
     9
100
AcDbCircle
 10
1109.041738661136
 20
900.0901846351132
 30
0.0
 40
1.666666688145818
100
AcDbArc
 50
270.0
 51
0.0
  0
ARC
  5
1F0
330
1F
100
AcDbEntity
  8
0-1
  6
Continuous
 62
     2
370
     9
100
AcDbCircle
 10
956.9385001687368
 20
900.0901846351132
 30
0.0
 40
1.666666688145818
100
AcDbArc
 50
180.0
 51
270.0
  0
ARC
  5
1F1
330
1F
100
AcDbEntity
  8
0-1
  6
Continuous
 62
     2
370
     9
100
AcDbCircle
 10
1109.041738661136
 20
912.4235751545391
 30
0.0
 40
1.666666688145818
100
AcDbArc
 50
270.0
 51
0.0
  0
ARC
  5
1F2
330
1F
100
AcDbEntity
  8
0-1
  6
Continuous
 62
     2
370
     9
100
AcDbCircle
 10
1097.156709100325
 20
912.4235751545391
 30
0.0
 40
1.666666688145818
100
AcDbArc
 50
180.0
 51
270.0
  0
ARC
  5
1F3
330
1F
100
AcDbEntity
  8
0-1
  6
Continuous
 62
     2
370
     9
100
AcDbCircle
 10
956.9385001687368
 20
912.4235751545391
 30
0.0
 40
1.666666688145818
100
AcDbArc
 50
180.0
 51
270.0
  0
ARC
  5
1F4
330
1F
100
AcDbEntity
  8
0-1
  6
Continuous
 62
     2
370
     9
100
AcDbCircle
 10
968.8235297295478
 20
912.4235751545391
 30
0.0
 40
1.666666688145818
100
AcDbArc
 50
270.0
 51
0.0
  0
ARC
  5
1F5
330
1F
100
AcDbEntity
  8
0-3
  6
Continuous
 62
     4
370
     9
100
AcDbCircle
 10
1032.990119414936
 20
423.4235949497247
 30
0.0
 40
483.333360826647
100
AcDbArc
 50
279.9281768798828
 51
80.07182312011719
  0
ARC
  5
1F6
330
1F
100
AcDbEntity
  8
0-3
  6
Continuous
 62
     4
370
     9
100
AcDbCircle
 10
1032.990119414936
 20
423.4235949497247
 30
0.0
 40
483.333360826647
100
AcDbArc
 50
99.92817687988281
 51
260.0718231201172
  0
CIRCLE
  5
1F7
330
1F
100
AcDbEntity
  8
0-3
  6
Continuous
 62
     4
370
     9
100
AcDbCircle
 10
1032.990119414936
 20
423.4235949497247
 30
0.0
 40
498.3333484546558
  0
CIRCLE
  5
1F8
330
1F
100
AcDbEntity
  8
0-3
  6
Continuous
 62
     4
370
     9
100
AcDbCircle
 10
449.6566761083486
 20
423.4234712298135
 30
0.0
 40
10.00000012887491
  0
CIRCLE
  5
1F9
330
1F
100
AcDbEntity
  8
0-3
  6
Continuous
 62
     4
370
     9
100
AcDbCircle
 10
449.6893381649363
 20
423.4234712298135
 30
0.0
 40
15.83336205095858
  0
CIRCLE
  5
1FA
330
1F
100
AcDbEntity
  8
0-3
  6
Continuous
 62
     4
370
     9
100
AcDbCircle
 10
449.6566761083486
 20
423.4234712298135
 30
0.0
 40
8.421666557724413
  0
ARC
  5
1FB
330
1F
100
AcDbEntity
  8
0-2
  6
JWW_CENTER1
 62
     3
370
     9
100
AcDbCircle
 10
1032.990119414936
 20
423.423347509902
 30
0.0
 40
517.5000061859955
100
AcDbArc
 50
179.9999847412109
 51
270.0
  0
CIRCLE
  5
1FC
330
1F
100
AcDbEntity
  8
0-3
  6
Continuous
 62
     4
370
     9
100
AcDbCircle
 10
741.3233977616426
 20
-81.75808361604794
 30
0.0
 40
10.00000012887491
  0
CIRCLE
  5
1FD
330
1F
100
AcDbEntity
  8
0-3
  6
Continuous
 62
     4
370
     9
100
AcDbCircle
 10
741.3397287899363
 20
-81.72987547626775
 30
0.0
 40
15.83336205095858
  0
CIRCLE
  5
1FE
330
1F
100
AcDbEntity
  8
0-3
  6
Continuous
 62
     4
370
     9
100
AcDbCircle
 10
741.3233977616426
 20
-81.75808361604794
 30
0.0
 40
8.421666557724413
  0
CIRCLE
  5
1FF
330
1F
100
AcDbEntity
  8
0-3
  6
Continuous
 62
     4
370
     9
100
AcDbCircle
 10
1324.65684106823
 20
-81.75808361604794
 30
0.0
 40
10.00000012887491
  0
CIRCLE
  5
200
330
1F
100
AcDbEntity
  8
0-3
  6
Continuous
 62
     4
370
     9
100
AcDbCircle
 10
1324.640510039936
 20
-81.72987547626775
 30
0.0
 40
15.83336205095858
  0
CIRCLE
  5
201
330
1F
100
AcDbEntity
  8
0-3
  6
Continuous
 62
     4
370
     9
100
AcDbCircle
 10
1324.65684106823
 20
-81.75808361604794
 30
0.0
 40
8.421666557724413
  0
CIRCLE
  5
202
330
1F
100
AcDbEntity
  8
0-3
  6
Continuous
 62
     4
370
     9
100
AcDbCircle
 10
1616.323562721524
 20
423.4234712298135
 30
0.0
 40
10.00000012887491
  0
CIRCLE
  5
203
330
1F
100
AcDbEntity
  8
0-3
  6
Continuous
 62
     4
370
     9
100
AcDbCircle
 10
1616.290900664936
 20
423.4234712298135
 30
0.0
 40
15.83336205095858
  0
CIRCLE
  5
204
330
1F
100
AcDbEntity
  8
0-3
  6
Continuous
 62
     4
370
     9
100
AcDbCircle
 10
1616.323562721524
 20
423.4234712298135
 30
0.0
 40
8.421666557724413
  0
CIRCLE
  5
205
330
1F
100
AcDbEntity
  8
0-3
  6
Continuous
 62
     4
370
     9
100
AcDbCircle
 10
1324.65684106823
 20
928.6051497955862
 30
0.0
 40
10.00000012887491
  0
CIRCLE
  5
206
330
1F
100
AcDbEntity
  8
0-3
  6
Continuous
 62
     4
370
     9
100
AcDbCircle
 10
1324.640510039936
 20
928.576941655806
 30
0.0
 40
15.83336205095858
  0
CIRCLE
  5
207
330
1F
100
AcDbEntity
  8
0-3
  6
Continuous
 62
     4
370
     9
100
AcDbCircle
 10
1324.65684106823
 20
928.6051497955862
 30
0.0
 40
8.421666557724413
  0
CIRCLE
  5
208
330
1F
100
AcDbEntity
  8
0-3
  6
Continuous
 62
     4
370
     9
100
AcDbCircle
 10
741.3233977616426
 20
928.6051497955862
 30
0.0
 40
10.00000012887491
  0
CIRCLE
  5
209
330
1F
100
AcDbEntity
  8
0-3
  6
Continuous
 62
     4
370
     9
100
AcDbCircle
 10
741.3397287899363
 20
928.576941655806
 30
0.0
 40
15.83336205095858
  0
CIRCLE
  5
20A
330
1F
100
AcDbEntity
  8
0-3
  6
Continuous
 62
     4
370
     9
100
AcDbCircle
 10
741.3233977616426
 20
928.6051497955862
 30
0.0
 40
8.421666557724413
  0
ARC
  5
20B
330
1F
100
AcDbEntity
  8
0-1
  6
Continuous
 62
     2
370
     9
100
AcDbCircle
 10
418.1531327700884
 20
409.2569227843953
 30
0.0
 40
1.666666688145818
100
AcDbArc
 50
90.0
 51
181.3173217773438
  0
ARC
  5
20C
330
1F
100
AcDbEntity
  8
0-1
  6
Continuous
 62
     2
370
     9
100
AcDbCircle
 10
420.6686060069973
 20
405.9227948942981
 30
0.0
 40
1.666666688145818
100
AcDbArc
 50
90.0
 51
181.6352844238281
  0
ARC
  5
20D
330
1F
100
AcDbEntity
  8
0-1
  6
Continuous
 62
     2
370
     9
100
AcDbCircle
 10
711.673673574565
 20
-98.11224753338337
 30
0.0
 40
1.666666688145818
100
AcDbArc
 50
238.3649139404297
 51
330.0001983642579
  0
ARC
  5
20E
330
1F
100
AcDbEntity
  8
0-1
  6
Continuous
 62
     2
370
     9
100
AcDbCircle
 10
713.30331224644
 20
-101.9572149373107
 30
0.0
 40
1.666666688145818
100
AcDbArc
 50
238.6828918457032
 51
330.0001983642579
  0
ARC
  5
20F
330
1F
100
AcDbEntity
  8
1-0
  6
Continuous
 62
     2
370
     9
100
AcDbCircle
 10
-514.0166422906168
 20
458.8964442027864
 30
0.0
 40
15.00000019331236
100
AcDbArc
 50
186.3266906738282
 51
270.0
  0
ARC
  5
210
330
1F
100
AcDbEntity
  8
1-0
  6
Continuous
 62
     2
370
     9
100
AcDbCircle
 10
-492.3475947029902
 20
478.8967576265617
 30
0.0
 40
5.000000064437454
100
AcDbArc
 50
180.0
 51
270.0
  0
ARC
  5
211
330
1F
100
AcDbEntity
  8
1-0
  6
JWW_DASHED1
 62
     2
370
     9
100
AcDbCircle
 10
-492.3475947029902
 20
543.8959823151174
 30
0.0
 40
5.000000064437454
100
AcDbArc
 50
90.0
 51
180.0
  0
ARC
  5
212
330
1F
100
AcDbEntity
  8
1-0
  6
JWW_DASHED1
 62
     2
370
     9
100
AcDbCircle
 10
-427.3471328153212
 20
553.8955204274487
 30
0.0
 40
5.000000064437454
100
AcDbArc
 50
270.0
 51
0.0
  0
ARC
  5
213
330
1F
100
AcDbEntity
  8
1-0
  6
Continuous
 62
     2
370
     9
100
AcDbCircle
 10
-427.3471328153212
 20
468.8959823151174
 30
0.0
 40
5.000000064437454
100
AcDbArc
 50
0.0
 51
90.0
  0
ARC
  5
214
330
1F
100
AcDbEntity
  8
1-0
  6
Continuous
 62
     2
370
     9
100
AcDbCircle
 10
-432.3473967511322
 20
578.8958503472122
 30
0.0
 40
10.00000012887491
100
AcDbArc
 50
0.0
 51
90.0
  0
ARC
  5
215
330
1F
100
AcDbEntity
  8
1-0
  6
Continuous
 62
     2
370
     9
100
AcDbCircle
 10
-506.7619541307775
 20
721.3960730430526
 30
0.0
 40
5.000000064437454
100
AcDbArc
 50
7.12396240234375
 51
90.00000000000001
  0
ARC
  5
216
330
1F
100
AcDbEntity
  8
1-0
  6
Continuous
 62
     2
370
     9
100
AcDbCircle
 10
-585.7558803079312
 20
741.3956441473599
 30
0.0
 40
15.00000019331236
100
AcDbArc
 50
183.5759429931641
 51
270.0
  0
ARC
  5
217
330
1F
100
AcDbEntity
  8
1-0
  6
Continuous
 62
     2
370
     9
100
AcDbCircle
 10
-612.0451242638012
 20
841.3964689467687
 30
0.0
 40
5.000000064437454
100
AcDbArc
 50
3.576416015625004
 51
90.00000000000001
  0
ARC
  5
218
330
1F
100
AcDbEntity
  8
1-0
  6
Continuous
 62
     2
370
     9
100
AcDbCircle
 10
-642.6398211335222
 20
841.3964689467687
 30
0.0
 40
5.000000064437454
100
AcDbArc
 50
90.0
 51
176.5516052246094
  0
ARC
  5
219
330
1F
100
AcDbEntity
  8
1-0
  6
Continuous
 62
     2
370
     9
100
AcDbCircle
 10
-603.3926485458958
 20
661.3958750911945
 30
0.0
 40
15.00000019331236
100
AcDbArc
 50
90.0
 51
176.5525360107422
  0
ARC
  5
21A
330
1F
100
AcDbEntity
  8
1-0
  6
Continuous
 62
     2
370
     9
100
AcDbCircle
 10
-606.8570535026104
 20
603.8958091072416
 30
0.0
 40
15.00000019331236
100
AcDbArc
 50
176.5525360107422
 51
270.0
  0
ARC
  5
21B
330
1F
100
AcDbEntity
  8
1-0
  6
Continuous
 62
     2
370
     9
100
AcDbCircle
 10
-611.0726857608449
 20
533.8959493231412
 30
0.0
 40
15.00000019331236
100
AcDbArc
 50
90.0
 51
176.5530090332031
  0
ARC
  5
21C
330
1F
100
AcDbEntity
  8
1-0
  6
Continuous
 62
     2
370
     9
100
AcDbCircle
 10
-465.3895209065377
 20
603.8958091072416
 30
0.0
 40
15.00000019331236
100
AcDbArc
 50
192.8747558593751
 51
270.0000000000001
  0
ARC
  5
21D
330
1F
100
AcDbEntity
  8
1-0
  6
Continuous
 62
     2
370
     9
100
AcDbCircle
 10
-551.6618894665038
 20
533.8959493231412
 30
0.0
 40
15.00000019331236
100
AcDbArc
 50
9.439849853515627
 51
90.0
  0
ARC
  5
21E
330
1F
100
AcDbEntity
  8
1-0
  6
Continuous
 62
     2
370
     9
100
AcDbCircle
 10
-639.0915340769345
 20
401.3963782188338
 30
0.0
 40
5.000000064437454
100
AcDbArc
 50
270.0
 51
356.552230834961
  0
ARC
  5
21F
330
1F
100
AcDbEntity
  8
1-0
  6
Continuous
 62
     2
370
     9
100
AcDbCircle
 10
-527.9136050492741
 20
411.3959163311648
 30
0.0
 40
15.00000019331236
100
AcDbArc
 50
270.0
 51
354.8056335449219
  0
ARC
  5
220
330
1F
100
AcDbEntity
  8
1-0
  6
Continuous
 62
     2
370
     9
100
AcDbCircle
 10
-495.5172988309462
 20
428.8958503472122
 30
0.0
 40
15.00000019331236
100
AcDbArc
 50
90.0
 51
174.8054046630859
  0
ARC
  5
221
330
1F
100
AcDbEntity
  8
1-0
  6
Continuous
 62
     2
370
     9
100
AcDbCircle
 10
-427.3471328153212
 20
536.3960812910466
 30
0.0
 40
5.000000064437454
100
AcDbArc
 50
270.0
 51
0.0
  0
ARC
  5
222
330
1F
100
AcDbEntity
  8
1-0
  6
Continuous
 62
     2
370
     9
100
AcDbCircle
 10
-492.3475947029902
 20
526.3965431787155
 30
0.0
 40
5.000000064437454
100
AcDbArc
 50
90.0
 51
180.0
  0
ARC
  5
223
330
1F
100
AcDbEntity
  8
1-0
  6
Continuous
 62
     2
370
     9
100
AcDbCircle
 10
-690.2759460279481
 20
466.3960977870349
 30
0.0
 40
20.00000025774982
100
AcDbArc
 50
270.0
 51
356.5526580810547
  0
ARC
  5
224
330
1F
100
AcDbEntity
  8
1-0
  6
Continuous
 62
     2
370
     9
100
AcDbCircle
 10
-827.856693890068
 20
431.3957348752947
 30
0.0
 40
15.00000019331236
100
AcDbArc
 50
90.0
 51
172.8770904541016
  0
ARC
  5
225
330
1F
100
AcDbEntity
  8
1-6
  6
Continuous
 62
     6
370
     5
100
AcDbCircle
 10
-550.2727623022301
 20
856.43190232937
 30
0.0
 40
58.65992855381322
100
AcDbArc
 50
25.54682922363282
 51
194.5379486083985
  0
ELLIPSE
  5
226
330
1F
100
AcDbEntity
  8
1-6
  6
Continuous
 62
     6
370
     5
100
AcDbEllipse
 10
-549.1172183305241
 20
830.1552778044547
 30
0.0
 11
-7.469937700175706
 21
42.36412187268336
 31
0.0
210
0.0
220
0.0
230
1.0
 40
0.2575
 41
0.0
 42
6.283185307179586
  0
ARC
  5
227
330
1F
100
AcDbEntity
  8
1-6
  6
Continuous
 62
     6
370
     5
100
AcDbCircle
 10
-551.8333652635899
 20
806.587129578103
 30
0.0
 40
58.75625610351562
100
AcDbArc
 50
209.3229522705078
 51
338.0199890136719
  0
TEXT
  5
228
330
1F
100
AcDbEntity
  8
1-E
  6
Continuous
 62
     7
370
     0
100
AcDbText
 10
-1296.506464265913
 20
1011.33988744339
 30
0.0
 40
22.86
  1
ボルト：ＳＳ４００
 41
1.148148148148148
  7
ＭＳ ゴシック
100
AcDbText
  0
TEXT
  5
229
330
1F
100
AcDbEntity
  8
1-E
  6
Continuous
 62
     7
370
     0
100
AcDbText
 10
-1055.598314752874
 20
1132.304308896093
 30
0.0
 40
22.86
  1
養生材：ポリエチレン
 41
1.15
  7
ＭＳ ゴシック
100
AcDbText
  0
TEXT
  5
22A
330
1F
100
AcDbEntity
  8
0-4
  6
Continuous
 62
     2
370
     0
100
AcDbText
 10
832.9899956950251
 20
-513.7940958098826
 30
0.0
 40
30.48
  1
平面図　Ｓ＝１：６
 41
1.111111111111111
  7
ＭＳ ゴシック
100
AcDbText
  0
TEXT
  5
22B
330
1F
100
AcDbEntity
  8
1-4
  6
Continuous
 62
     2
370
     0
100
AcDbText
 10
-262.3478297708218
 20
-297.9634733172727
 30
0.0
 40
30.48
  1
φ598
 41
1.1
  7
ＭＳ ゴシック
100
AcDbText
  0
TEXT
  5
22C
330
1F
100
AcDbEntity
  8
1-E
  6
Continuous
 62
     7
370
     0
100
AcDbText
 10
-901.9846994591136
 20
1254.845911778272
 30
0.0
 40
22.86
  1
スリーブ：ボイド管
 41
1.148148148148148
  7
ＭＳ ゴシック
100
AcDbText
  0
TEXT
  5
22D
330
1F
100
AcDbEntity
  8
0-4
  6
Continuous
 62
     2
370
     0
100
AcDbText
 10
1000.489871975114
 20
807.416404546431
 30
0.0
 40
30.48
  1
100
 41
1.083333333333333
  7
ＭＳ ゴシック
100
AcDbText
  0
TEXT
  5
22E
330
1F
100
AcDbEntity
  8
0-4
  6
Continuous
 62
     3
370
     0
100
AcDbText
 10
264.031733844307
 20
307.0331669118237
 30
0.0
 40
38.1
  1
Ａ
  7
ＭＳ ゴシック
100
AcDbText
  0
TEXT
  5
22F
330
1F
100
AcDbEntity
  8
0-4
  6
Continuous
 62
     3
370
     0
100
AcDbText
 10
1149.380918612572
 20
46.1316918405609
 30
0.0
 40
38.1
  1
Ａ'
 50
90.0
 41
1.066666666666667
  7
ＭＳ ゴシック
100
AcDbText
  0
TEXT
  5
230
330
1F
100
AcDbEntity
  8
1-4
  6
Continuous
 62
     2
370
     0
100
AcDbText
 10
-853.5977431668839
 20
-410.4631021575389
 30
0.0
 40
30.48
  1
Ａ－Ａ'断面図　Ｓ＝１：２
 41
1.115
  7
ＭＳ ゴシック
100
AcDbText
  0
TEXT
  5
231
330
1F
100
AcDbEntity
  8
1-4
  6
Continuous
 62
     6
370
     0
100
AcDbText
 10
-1393.77048833026
 20
285.0863160619502
 30
0.0
 40
22.86
  1
平座金・・
 41
0.8866666666666674
  7
ＭＳ ゴシック
100
AcDbText
  0
TEXT
  5
232
330
1F
100
AcDbEntity
  8
1-4
  6
Continuous
 62
     6
370
     0
100
AcDbText
 10
-1393.770508125446
 20
228.2220467022586
 30
0.0
 40
22.86
  1
六角ナット：ＳＳ４００，電気亜鉛めっき
 41
0.8964912280701753
  7
ＭＳ ゴシック
100
AcDbText
  0
TEXT
  5
233
330
1F
100
AcDbEntity
  8
1-4
  6
Continuous
 62
     6
370
     0
100
AcDbText
 10
-1258.770532869428
 20
285.0863160619502
 30
0.0
 40
22.86
  1
：ＳＳ４００，電気亜鉛めっき
 41
0.895238095238095
  7
ＭＳ ゴシック
100
AcDbText
  0
LWPOLYLINE
  5
234
330
1F
100
AcDbEntity
  8
1-4
  6
Continuous
 62
     7
370
     9
100
AcDbPolyline
 90
        4
 70
     1
 43
2.0
 10
-496.3478586388009
 20
-313.6035063092492
 42
0.4142135623731
 10
-497.3478586388009
 20
-312.6035063092491
 42
0.4142135623731
 10
-498.3478586388009
 20
-313.6035063092492
 42
0.4142135623731
 10
-497.3478586388009
 20
-314.6035063092492
 42
0.4142135623731
  0
LWPOLYLINE
  5
235
330
1F
100
AcDbEntity
  8
1-4
  6
Continuous
 62
     7
370
     9
100
AcDbPolyline
 90
        4
 70
     1
 43
2.0
 10
-251.3479163747598
 20
-153.6035970371842
 42
0.4142135623731
 10
-252.3479163747598
 20
-152.6035970371842
 42
0.4142135623731
 10
-253.3479163747598
 20
-153.6035970371842
 42
0.4142135623731
 10
-252.3479163747598
 20
-154.6035970371842
 42
0.4142135623731
  0
LWPOLYLINE
  5
236
330
1F
100
AcDbEntity
  8
1-4
  6
Continuous
 62
     7
370
     9
100
AcDbPolyline
 90
        4
 70
     1
 43
2.0
 10
-251.3479163747598
 20
1096.396567922698
 42
0.4142135623731
 10
-252.3479163747598
 20
1097.396567922698
 42
0.4142135623731
 10
-253.3479163747598
 20
1096.396567922698
 42
0.4142135623731
 10
-252.3479163747598
 20
1095.396567922698
 42
0.4142135623731
  0
LWPOLYLINE
  5
237
330
1F
100
AcDbEntity
  8
1-4
  6
Continuous
 62
     7
370
     9
100
AcDbPolyline
 90
        4
 70
     1
 43
2.0
 10
-1446.347652438949
 20
-153.6035970371842
 42
0.4142135623731
 10
-1447.347652438949
 20
-152.6035970371842
 42
0.4142135623731
 10
-1448.347652438949
 20
-153.6035970371842
 42
0.4142135623731
 10
-1447.347652438949
 20
-154.6035970371842
 42
0.4142135623731
  0
LWPOLYLINE
  5
238
330
1F
100
AcDbEntity
  8
1-4
  6
Continuous
 62
     7
370
     9
100
AcDbPolyline
 90
        4
 70
     1
 43
2.0
 10
-1446.347652438949
 20
596.3964029628162
 42
0.4142135623731
 10
-1447.347652438949
 20
597.3964029628162
 42
0.4142135623731
 10
-1448.347652438949
 20
596.3964029628162
 42
0.4142135623731
 10
-1447.347652438949
 20
595.3964029628161
 42
0.4142135623731
  0
LWPOLYLINE
  5
239
330
1F
100
AcDbEntity
  8
1-4
  6
Continuous
 62
     7
370
     9
100
AcDbPolyline
 90
        4
 70
     1
 43
2.0
 10
-1546.34773491889
 20
-153.6035970371842
 42
0.4142135623731
 10
-1547.34773491889
 20
-152.6035970371842
 42
0.4142135623731
 10
-1548.34773491889
 20
-153.6035970371842
 42
0.4142135623731
 10
-1547.34773491889
 20
-154.6035970371842
 42
0.4142135623731
  0
LWPOLYLINE
  5
23A
330
1F
100
AcDbEntity
  8
1-4
  6
Continuous
 62
     7
370
     9
100
AcDbPolyline
 90
        4
 70
     1
 43
2.0
 10
-1546.34773491889
 20
846.3962380029343
 42
0.4142135623731
 10
-1547.34773491889
 20
847.3962380029343
 42
0.4142135623731
 10
-1548.34773491889
 20
846.3962380029343
 42
0.4142135623731
 10
-1547.34773491889
 20
845.3962380029344
 42
0.4142135623731
  0
LWPOLYLINE
  5
23B
330
1F
100
AcDbEntity
  8
0-4
  6
Continuous
 62
     7
370
     9
100
AcDbPolyline
 90
        4
 70
     1
 43
2.0
 10
950.65684106823
 20
791.7763715544544
 42
0.4142135623731
 10
949.65684106823
 20
792.7763715544543
 42
0.4142135623731
 10
948.65684106823
 20
791.7763715544544
 42
0.4142135623731
 10
949.65684106823
 20
790.7763715544545
 42
0.4142135623731
  0
LWPOLYLINE
  5
23C
330
1F
100
AcDbEntity
  8
0-4
  6
Continuous
 62
     7
370
     9
100
AcDbPolyline
 90
        4
 70
     1
 43
2.0
 10
1117.323397761643
 20
791.7763715544544
 42
0.4142135623731
 10
1116.323397761643
 20
792.7763715544543
 42
0.4142135623731
 10
1115.323397761643
 20
791.7763715544544
 42
0.4142135623731
 10
1116.323397761643
 20
790.7763715544545
 42
0.4142135623731
  0
TEXT
  5
23D
330
1F
100
AcDbEntity
  8
1-4
  6
Continuous
 62
     2
370
     0
100
AcDbText
 10
-1566.099818560148
 20
313.8963204828751
 30
0.0
 40
30.48
  1
200
 50
90.0
 41
1.083333333333333
  7
ＭＳ ゴシック
100
AcDbText
  0
TEXT
  5
23E
330
1F
100
AcDbEntity
  8
1-4
  6
Continuous
 62
     2
370
     0
100
AcDbText
 10
-271.0998762961066
 20
438.8962380029342
 30
0.0
 40
30.48
  1
250
 50
90.0
 41
1.083333333333333
  7
ＭＳ ゴシック
100
AcDbText
  0
TEXT
  5
23F
330
1F
100
AcDbEntity
  8
1-5
  6
Continuous
 62
     6
370
     0
100
AcDbText
 10
-796.4012932956741
 20
-1347.693222635988
 30
0.0
 40
30.48
  1
打込型マンホール鉄蓋　サポートＶ　ＭＳＶ－６－６００　　Ｃ＝２００
 41
0.7984848484848484
  7
ＭＳ ゴシック
100
AcDbText
  0
TEXT
  5
240
330
1F
100
AcDbEntity
  8
F-5
  6
Continuous
 62
     2
370
     0
100
AcDbText
 10
541.7741935483868
 20
-1054.682580645161
 30
0.0
 40
30.48
  1
※この図面は、ＭＷＣにセットしたＭＳＶ－６を示します。
 41
1.12037037037037
  7
ＭＳ ゴシック
100
AcDbText
  0
TEXT
  5
241
330
1F
100
AcDbEntity
  8
1-E
  6
Continuous
 62
     7
370
     0
100
AcDbText
 10
-1296.506464265913
 20
959.1419619788633
 30
0.0
 40
22.86
  1
電気亜鉛めっき
 41
1.142857142857143
  7
ＭＳ ゴシック
100
AcDbText
  0
TEXT
  5
242
330
1F
100
AcDbEntity
  8
1-4
  6
Continuous
 62
     2
370
     0
100
AcDbText
 10
-1466.099736080208
 20
200.1461555229933
 30
0.0
 40
30.48
  1
150
 50
90.0
 41
1.083333333333333
  7
ＭＳ ゴシック
100
AcDbText
  0
LINE
  5
243
330
1F
100
AcDbEntity
  8
1-4
  6
Continuous
 62
     2
370
     9
100
AcDbLine
 10
-1097.34773491889
 20
-1128.426801283911
 30
0.0
 11
-1097.34773491889
 21
-1063.427329155533
 31
0.0
  0
LINE
  5
244
330
1F
100
AcDbEntity
  8
1-9
  6
JWW_CENTER1
 62
     2
370
     9
100
AcDbLine
 10
-747.3476936789193
 20
-629.500153994532
 30
0.0
 11
-747.3476936789193
 21
-887.3544713245574
 31
0.0
  0
LINE
  5
245
330
1F
100
AcDbEntity
  8
1-9
  6
JWW_CENTER1
 62
     2
370
     9
100
AcDbLine
 10
-876.2749760638434
 20
-758.4273126595446
 30
0.0
 11
-618.4204112939951
 21
-758.4273126595446
 31
0.0
  0
LINE
  5
246
330
1F
100
AcDbEntity
  8
1-4
  6
Continuous
 62
     2
370
     9
100
AcDbLine
 10
-1097.34773491889
 20
-1063.427329155533
 30
0.0
 11
-397.3475287190374
 21
-1063.427329155533
 31
0.0
  0
LINE
  5
247
330
1F
100
AcDbEntity
  8
1-4
  6
Continuous
 62
     2
370
     9
100
AcDbLine
 10
-397.3475287190374
 20
-1128.426801283911
 30
0.0
 11
-397.3475287190374
 21
-1063.427329155533
 31
0.0
  0
LINE
  5
248
330
1F
100
AcDbEntity
  8
1-4
  6
Continuous
 62
     2
370
     9
100
AcDbLine
 10
-397.3475287190374
 20
-1128.426801283911
 30
0.0
 11
-1097.34773491889
 21
-1128.426801283911
 31
0.0
  0
LINE
  5
249
330
1F
100
AcDbEntity
  8
1-4
  6
Continuous
 62
     7
370
     9
100
AcDbLine
 10
-852.347668934937
 20
-963.4273703955032
 30
0.0
 11
-642.3477184229014
 21
-963.4273703955032
 31
0.0
  0
LINE
  5
24A
330
1F
100
AcDbEntity
  8
1-4
  6
Continuous
 62
     7
370
     9
100
AcDbLine
 10
-852.347668934937
 20
-783.4272714195741
 30
0.0
 11
-852.347668934937
 21
-966.4273308051315
 31
0.0
  0
LINE
  5
24B
330
1F
100
AcDbEntity
  8
1-4
  6
Continuous
 62
     7
370
     9
100
AcDbLine
 10
-642.3477184229014
 20
-783.4272714195741
 30
0.0
 11
-642.3477184229014
 21
-966.4273308051315
 31
0.0
  0
LINE
  5
24C
330
1F
100
AcDbEntity
  8
1-4
  6
Continuous
 62
     7
370
     9
100
AcDbLine
 10
-542.3477596628719
 20
-843.427345651521
 30
0.0
 11
-542.3477596628719
 21
-673.4272796675682
 31
0.0
  0
LINE
  5
24D
330
1F
100
AcDbEntity
  8
1-4
  6
Continuous
 62
     7
370
     9
100
AcDbLine
 10
-722.3476111989784
 20
-843.427345651521
 30
0.0
 11
-539.3477992532435
 21
-843.427345651521
 31
0.0
  0
LINE
  5
24E
330
1F
100
AcDbEntity
  8
1-4
  6
Continuous
 62
     7
370
     9
100
AcDbLine
 10
-722.3476111989784
 20
-673.4272796675682
 30
0.0
 11
-539.3477992532435
 21
-673.4272796675682
 31
0.0
  0
LINE
  5
24F
330
1F
100
AcDbEntity
  8
1-4
  6
Continuous
 62
     7
370
     9
100
AcDbLine
 10
-742.347677182931
 20
-664.7670095952499
 30
0.0
 11
-732.7806638805662
 21
-641.670110511107
 31
0.0
  0
LINE
  5
250
330
1F
100
AcDbEntity
  8
1-4
  6
Continuous
 62
     7
370
     9
100
AcDbLine
 10
-742.347677182931
 20
-664.7670095952499
 30
0.0
 11
-727.1286434519344
 21
-644.9330994521966
 31
0.0
  0
LINE
  5
251
330
1F
100
AcDbEntity
  8
1-4
  6
Continuous
 62
     7
370
     9
100
AcDbLine
 10
-742.347677182931
 20
-664.7670095952499
 30
0.0
 11
-704.0464670372385
 21
-598.4272796675682
 31
0.0
  0
LINE
  5
252
330
1F
100
AcDbEntity
  8
1-4
  6
Continuous
 62
     7
370
     9
100
AcDbLine
 10
-704.0464670372385
 20
-598.4272796675682
 30
0.0
 11
-546.9325721364784
 21
-598.4272796675682
 31
0.0
  0
TEXT
  5
253
330
1F
100
AcDbEntity
  8
1-4
  6
Continuous
 62
     7
370
     0
100
AcDbText
 10
-691.9606648043416
 20
-586.2493888446164
 30
0.0
 40
22.86
  1
４－φ４
 41
1.125
  7
ＭＳ ゴシック
100
AcDbText
  0
TEXT
  5
254
330
1F
100
AcDbEntity
  8
1-4
  6
Continuous
 62
     2
370
     0
100
AcDbText
 10
-557.9877926548482
 20
-779.6773126595446
 30
0.0
 40
30.48
  1
34
 50
90.0
 41
1.0625
  7
ＭＳ ゴシック
100
AcDbText
  0
TEXT
  5
255
330
1F
100
AcDbEntity
  8
1-4
  6
Continuous
 62
     2
370
     0
100
AcDbText
 10
-791.0977864688527
 20
-947.7873374035269
 30
0.0
 40
30.48
  1
φ42
 41
1.09375
  7
ＭＳ ゴシック
100
AcDbText
  0
TEXT
  5
256
330
1F
100
AcDbEntity
  8
1-4
  6
Continuous
 62
     2
370
     0
100
AcDbText
 10
-1082.347569959008
 20
-1110.287131203675
 30
0.0
 40
30.48
  1
固定プレート平面図　Ｓ＝１：２
 41
1.116666666666666
  7
ＭＳ ゴシック
100
AcDbText
  0
LWPOLYLINE
  5
257
330
1F
100
AcDbEntity
  8
1-4
  6
Continuous
 62
     7
370
     9
100
AcDbPolyline
 90
        4
 70
     1
 43
2.0
 10
-851.347668934937
 20
-963.4273703955032
 42
0.4142135623731
 10
-852.347668934937
 20
-962.4273703955032
 42
0.4142135623731
 10
-853.3476689349369
 20
-963.4273703955032
 42
0.4142135623731
 10
-852.347668934937
 20
-964.4273703955031
 42
0.4142135623731
  0
LWPOLYLINE
  5
258
330
1F
100
AcDbEntity
  8
1-4
  6
Continuous
 62
     7
370
     9
100
AcDbPolyline
 90
        4
 70
     1
 43
2.0
 10
-641.3477184229015
 20
-963.4273703955032
 42
0.4142135623731
 10
-642.3477184229014
 20
-962.4273703955032
 42
0.4142135623731
 10
-643.3477184229014
 20
-963.4273703955032
 42
0.4142135623731
 10
-642.3477184229014
 20
-964.4273703955031
 42
0.4142135623731
  0
LWPOLYLINE
  5
259
330
1F
100
AcDbEntity
  8
1-4
  6
Continuous
 62
     7
370
     9
100
AcDbPolyline
 90
        4
 70
     1
 43
2.0
 10
-541.3477596628719
 20
-843.427345651521
 42
0.4142135623731
 10
-542.3477596628719
 20
-842.427345651521
 42
0.4142135623731
 10
-543.3477596628719
 20
-843.427345651521
 42
0.4142135623731
 10
-542.3477596628719
 20
-844.4273456515209
 42
0.4142135623731
  0
LWPOLYLINE
  5
25A
330
1F
100
AcDbEntity
  8
1-4
  6
Continuous
 62
     7
370
     9
100
AcDbPolyline
 90
        4
 70
     1
 43
2.0
 10
-541.3477596628719
 20
-673.4272796675682
 42
0.4142135623731
 10
-542.3477596628719
 20
-672.4272796675683
 42
0.4142135623731
 10
-543.3477596628719
 20
-673.4272796675682
 42
0.4142135623731
 10
-542.3477596628719
 20
-674.4272796675682
 42
0.4142135623731
  0
CIRCLE
  5
25B
330
1F
100
AcDbEntity
  8
1-A
  6
Continuous
 62
     2
370
     9
100
AcDbCircle
 10
-747.3476936789193
 20
-758.4273126595446
 30
0.0
 40
30.0
  0
CIRCLE
  5
25C
330
1F
100
AcDbEntity
  8
1-A
  6
Continuous
 62
     2
370
     9
100
AcDbCircle
 10
-747.3476936789193
 20
-758.4273126595446
 30
0.0
 40
21.25
  0
LINE
  5
25D
330
1F
100
AcDbEntity
  8
1-A
  6
Continuous
 62
     2
370
     9
100
AcDbLine
 10
-792.3478190542883
 20
-725.3994362450455
 30
0.0
 11
-792.3478957615525
 21
-713.4271105769113
 31
0.0
  0
LINE
  5
25E
330
1F
100
AcDbEntity
  8
1-A
  6
Continuous
 62
     2
370
     9
100
AcDbLine
 10
-792.3478957615525
 20
-713.4271105769113
 30
0.0
 11
-780.3753880190327
 21
-713.4271940276712
 31
0.0
  0
ARC
  5
25F
330
1F
100
AcDbEntity
  8
1-A
  6
Continuous
 62
     2
370
     9
100
AcDbCircle
 10
-759.8477190902684
 20
-745.9272872481955
 30
0.0
 40
35.0
100
AcDbArc
 50
121.0026092529297
 51
148.9973449707031
  0
LINE
  5
260
330
1F
100
AcDbEntity
  8
1-A
  6
Continuous
 62
     2
370
     9
100
AcDbLine
 10
-780.3755700934182
 20
-803.4274380349136
 30
0.0
 11
-792.3478957615526
 21
-803.4275147421778
 31
0.0
  0
LINE
  5
261
330
1F
100
AcDbEntity
  8
1-A
  6
Continuous
 62
     2
370
     9
100
AcDbLine
 10
-792.3478957615526
 20
-803.4275147421778
 30
0.0
 11
-792.3478123107927
 21
-791.4550069996579
 31
0.0
  0
ARC
  5
262
330
1F
100
AcDbEntity
  8
1-A
  6
Continuous
 62
     2
370
     9
100
AcDbCircle
 10
-759.8477190902685
 20
-770.9273380708936
 30
0.0
 40
35.0
100
AcDbArc
 50
211.0026092529297
 51
238.9973449707031
  0
LINE
  5
263
330
1F
100
AcDbEntity
  8
1-A
  6
Continuous
 62
     2
370
     9
100
AcDbLine
 10
-702.3475683035502
 20
-791.4551890740436
 30
0.0
 11
-702.3474915962861
 21
-803.4275147421778
 31
0.0
  0
LINE
  5
264
330
1F
100
AcDbEntity
  8
1-A
  6
Continuous
 62
     2
370
     9
100
AcDbLine
 10
-702.3474915962861
 20
-803.4275147421778
 30
0.0
 11
-714.3199993388059
 21
-803.4274312914179
 31
0.0
  0
ARC
  5
265
330
1F
100
AcDbEntity
  8
1-A
  6
Continuous
 62
     2
370
     9
100
AcDbCircle
 10
-734.8476682675703
 20
-770.9273380708937
 30
0.0
 40
35.0
100
AcDbArc
 50
301.0026092529297
 51
328.9973449707031
  0
LINE
  5
266
330
1F
100
AcDbEntity
  8
1-A
  6
Continuous
 62
     2
370
     9
100
AcDbLine
 10
-714.3198172644203
 20
-713.4271872841755
 30
0.0
 11
-702.3474915962859
 21
-713.4271105769113
 31
0.0
  0
LINE
  5
267
330
1F
100
AcDbEntity
  8
1-A
  6
Continuous
 62
     2
370
     9
100
AcDbLine
 10
-702.3474915962859
 20
-713.4271105769113
 30
0.0
 11
-702.3475750470459
 21
-725.3996183194312
 31
0.0
  0
ARC
  5
268
330
1F
100
AcDbEntity
  8
1-A
  6
Continuous
 62
     2
370
     9
100
AcDbCircle
 10
-734.84766826757
 20
-745.9272872481955
 30
0.0
 40
35.0
100
AcDbArc
 50
31.00260925292969
 51
58.99734497070312
  0
LINE
  5
269
330
1F
100
AcDbEntity
  8
1-A
  6
Continuous
 62
     2
370
     9
100
AcDbLine
 10
-777.8754447200317
 20
-715.9273126595446
 30
0.0
 11
-780.3753880190327
 21
-713.4271940276712
 31
0.0
  0
LINE
  5
26A
330
1F
100
AcDbEntity
  8
1-A
  6
Continuous
 62
     2
370
     9
100
AcDbLine
 10
-789.8476936789193
 20
-727.8995616204145
 30
0.0
 11
-792.3478190542883
 21
-725.3994362450455
 31
0.0
  0
LINE
  5
26B
330
1F
100
AcDbEntity
  8
1-A
  6
Continuous
 62
     2
370
     9
100
AcDbLine
 10
-716.8199426397892
 20
-715.9273126595446
 30
0.0
 11
-714.3198172644203
 21
-713.4271872841755
 31
0.0
  0
LINE
  5
26C
330
1F
100
AcDbEntity
  8
1-A
  6
Continuous
 62
     2
370
     9
100
AcDbLine
 10
-716.8199426397892
 20
-715.9273126595446
 30
0.0
 11
-777.8754447200317
 21
-715.9273126595446
 31
0.0
  0
LINE
  5
26D
330
1F
100
AcDbEntity
  8
1-A
  6
Continuous
 62
     2
370
     9
100
AcDbLine
 10
-704.8476936789193
 20
-727.899561618432
 30
0.0
 11
-702.3475750470459
 21
-725.3996183194312
 31
0.0
  0
LINE
  5
26E
330
1F
100
AcDbEntity
  8
1-A
  6
Continuous
 62
     2
370
     9
100
AcDbLine
 10
-704.8476936789193
 20
-788.9550636986746
 30
0.0
 11
-702.3475683035502
 21
-791.4551890740436
 31
0.0
  0
LINE
  5
26F
330
1F
100
AcDbEntity
  8
1-A
  6
Continuous
 62
     2
370
     9
100
AcDbLine
 10
-704.8476936789193
 20
-788.9550636986746
 30
0.0
 11
-704.8476936789193
 21
-727.899561618432
 31
0.0
  0
LINE
  5
270
330
1F
100
AcDbEntity
  8
1-A
  6
Continuous
 62
     2
370
     9
100
AcDbLine
 10
-716.8199426378068
 20
-800.9273126595446
 30
0.0
 11
-714.3199993388059
 21
-803.4274312914179
 31
0.0
  0
LINE
  5
271
330
1F
100
AcDbEntity
  8
1-A
  6
Continuous
 62
     2
370
     9
100
AcDbLine
 10
-777.8754447180494
 20
-800.9273126595446
 30
0.0
 11
-780.3755700934182
 21
-803.4274380349136
 31
0.0
  0
LINE
  5
272
330
1F
100
AcDbEntity
  8
1-A
  6
Continuous
 62
     2
370
     9
100
AcDbLine
 10
-777.8754447180494
 20
-800.9273126595446
 30
0.0
 11
-716.8199426378068
 21
-800.9273126595446
 31
0.0
  0
LINE
  5
273
330
1F
100
AcDbEntity
  8
1-A
  6
Continuous
 62
     2
370
     9
100
AcDbLine
 10
-789.8476936789193
 20
-788.9550637006572
 30
0.0
 11
-792.3478123107927
 21
-791.4550069996579
 31
0.0
  0
LINE
  5
274
330
1F
100
AcDbEntity
  8
1-A
  6
Continuous
 62
     2
370
     9
100
AcDbLine
 10
-789.8476936789193
 20
-727.8995616204145
 30
0.0
 11
-789.8476936789193
 21
-788.9550637006572
 31
0.0
  0
CIRCLE
  5
275
330
1F
100
AcDbEntity
  8
1-0
  6
Continuous
 62
     4
370
     9
100
AcDbCircle
 10
-747.3476936789193
 20
-758.4273126595446
 30
0.0
 40
105.0
  0
CIRCLE
  5
276
330
1F
100
AcDbEntity
  8
1-0
  6
Continuous
 62
     4
370
     9
100
AcDbCircle
 10
-662.3476936789193
 20
-758.4273126595446
 30
0.0
 40
10.0
  0
LINE
  5
277
330
1F
100
AcDbEntity
  8
1-0
  6
JWW_CENTER1
 62
     4
370
     9
100
AcDbLine
 10
-662.3476936789193
 20
-742.7168962996097
 30
0.0
 11
-662.3476936789193
 21
-774.421148029042
 31
0.0
  0
CIRCLE
  5
278
330
1F
100
AcDbEntity
  8
1-0
  6
Continuous
 62
     4
370
     9
100
AcDbCircle
 10
-747.3476936789193
 20
-673.4273126595446
 30
0.0
 40
10.0
  0
LINE
  5
279
330
1F
100
AcDbEntity
  8
1-0
  6
JWW_CENTER1
 62
     4
370
     9
100
AcDbLine
 10
-763.0581100388541
 20
-673.4273126595446
 30
0.0
 11
-731.3538583094219
 21
-673.4273126595446
 31
0.0
  0
CIRCLE
  5
27A
330
1F
100
AcDbEntity
  8
1-0
  6
Continuous
 62
     4
370
     9
100
AcDbCircle
 10
-832.3476936789193
 20
-758.4273126595446
 30
0.0
 40
10.0
  0
LINE
  5
27B
330
1F
100
AcDbEntity
  8
1-0
  6
JWW_CENTER1
 62
     4
370
     9
100
AcDbLine
 10
-832.3476936789193
 20
-774.1377290194794
 30
0.0
 11
-832.3476936789193
 21
-742.4334772900471
 31
0.0
  0
CIRCLE
  5
27C
330
1F
100
AcDbEntity
  8
1-0
  6
Continuous
 62
     4
370
     9
100
AcDbCircle
 10
-747.3476936789193
 20
-843.4273126595446
 30
0.0
 40
10.0
  0
LINE
  5
27D
330
1F
100
AcDbEntity
  8
1-0
  6
JWW_CENTER1
 62
     4
370
     9
100
AcDbLine
 10
-731.6372773189846
 20
-843.4273126595446
 30
0.0
 11
-763.3415290484169
 21
-843.4273126595446
 31
0.0
  0
LINE
  5
27E
330
1F
100
AcDbEntity
  8
1-8
  6
Continuous
 62
     3
370
     9
100
AcDbLine
 10
-844.8477679108662
 20
-140.6037273554907
 30
0.0
 11
-844.8477679108662
 21
-145.6034964116563
 31
0.0
  0
LINE
  5
27F
330
1F
100
AcDbEntity
  8
1-8
  6
Continuous
 62
     3
370
     9
100
AcDbLine
 10
-819.8476854309253
 20
-140.6037273554907
 30
0.0
 11
-844.8477679108662
 21
-140.6037273554907
 31
0.0
  0
LINE
  5
280
330
1F
100
AcDbEntity
  8
1-8
  6
Continuous
 62
     3
370
     9
100
AcDbLine
 10
-819.8476854309253
 20
-140.6037273554907
 30
0.0
 11
-819.8476854309253
 21
-145.6034964116563
 31
0.0
  0
LINE
  5
281
330
1F
100
AcDbEntity
  8
1-8
  6
Continuous
 62
     3
370
     9
100
AcDbLine
 10
-649.8477431668839
 20
-140.6037273554907
 30
0.0
 11
-649.8477431668839
 21
-145.6034964116563
 31
0.0
  0
LINE
  5
282
330
1F
100
AcDbEntity
  8
1-8
  6
Continuous
 62
     3
370
     9
100
AcDbLine
 10
-674.8478256468247
 20
-140.6037273554907
 30
0.0
 11
-649.8477431668839
 21
-140.6037273554907
 31
0.0
  0
LINE
  5
283
330
1F
100
AcDbEntity
  8
1-8
  6
Continuous
 62
     3
370
     9
100
AcDbLine
 10
-674.8478256468247
 20
-140.6037273554907
 30
0.0
 11
-674.8478256468247
 21
-145.6034964116563
 31
0.0
  0
LINE
  5
284
330
1F
100
AcDbEntity
  8
1-8
  6
JWW_DASHED1
 62
     3
370
     9
100
AcDbLine
 10
-667.3475534630198
 20
-270.6039088113607
 30
0.0
 11
-667.3475534630198
 21
-145.6034964116563
 31
0.0
  0
LINE
  5
285
330
1F
100
AcDbEntity
  8
1-8
  6
JWW_DASHED1
 62
     3
370
     9
100
AcDbLine
 10
-657.3476441909548
 20
-270.6039088113607
 30
0.0
 11
-657.3476441909548
 21
-145.6034964116563
 31
0.0
  0
LINE
  5
286
330
1F
100
AcDbEntity
  8
1-8
  6
JWW_DASHED1
 62
     3
370
     9
100
AcDbLine
 10
-657.3476441909548
 20
-270.6039088113607
 30
0.0
 11
-662.347660686943
 21
-295.603743851479
 31
0.0
  0
LINE
  5
287
330
1F
100
AcDbEntity
  8
1-8
  6
JWW_DASHED1
 62
     3
370
     9
100
AcDbLine
 10
-667.3475534630198
 20
-270.6039088113607
 30
0.0
 11
-662.347660686943
 21
-295.603743851479
 31
0.0
  0
LINE
  5
288
330
1F
100
AcDbEntity
  8
1-8
  6
JWW_DASHED1
 62
     3
370
     9
100
AcDbLine
 10
-827.3478338948189
 20
-270.6039088113607
 30
0.0
 11
-827.3478338948189
 21
-145.6034964116563
 31
0.0
  0
LINE
  5
289
330
1F
100
AcDbEntity
  8
1-8
  6
JWW_DASHED1
 62
     3
370
     9
100
AcDbLine
 10
-837.3477431668839
 20
-270.6039088113607
 30
0.0
 11
-837.3477431668839
 21
-145.6034964116563
 31
0.0
  0
LINE
  5
28A
330
1F
100
AcDbEntity
  8
1-8
  6
JWW_DASHED1
 62
     3
370
     9
100
AcDbLine
 10
-837.3477431668839
 20
-270.6039088113607
 30
0.0
 11
-832.3477266708958
 21
-295.603743851479
 31
0.0
  0
LINE
  5
28B
330
1F
100
AcDbEntity
  8
1-8
  6
JWW_DASHED1
 62
     3
370
     9
100
AcDbLine
 10
-827.3478338948189
 20
-270.6039088113607
 30
0.0
 11
-832.3477266708958
 21
-295.603743851479
 31
0.0
  0
LINE
  5
28C
330
1F
100
AcDbEntity
  8
1-A
  6
Continuous
 62
     2
370
     9
100
AcDbLine
 10
-784.5964323768135
 20
-134.2747781622802
 30
0.0
 11
-792.347834617342
 21
-140.6036197413815
 31
0.0
  0
LINE
  5
28D
330
1F
100
AcDbEntity
  8
1-A
  6
Continuous
 62
     2
370
     9
100
AcDbLine
 10
-784.5964323768135
 20
-134.2747781622802
 30
0.0
 11
-777.8754464039232
 21
-134.2747781622802
 31
0.0
  0
LINE
  5
28E
330
1F
100
AcDbEntity
  8
1-A
  6
Continuous
 62
     2
370
     9
100
AcDbLine
 10
-777.8754464039232
 20
-134.2747781622802
 30
0.0
 11
-777.8754464039232
 21
-145.6036757111187
 31
0.0
  0
LINE
  5
28F
330
1F
100
AcDbEntity
  8
1-A
  6
Continuous
 62
     2
370
     9
100
AcDbLine
 10
-792.347834617342
 20
-140.6036197413815
 30
0.0
 11
-792.3478312455941
 21
-145.6036285066483
 31
0.0
  0
LINE
  5
290
330
1F
100
AcDbEntity
  8
1-A
  6
Continuous
 62
     2
370
     9
100
AcDbLine
 10
-789.8476936789194
 20
-105.6036743707243
 30
0.0
 11
-789.8476936789194
 21
-138.5623264850751
 31
0.0
  0
LINE
  5
291
330
1F
100
AcDbEntity
  8
1-A
  6
Continuous
 62
     2
370
     9
100
AcDbLine
 10
-710.0989195776722
 20
-134.2747360154317
 30
0.0
 11
-702.3475105936482
 21
-140.6036585164821
 31
0.0
  0
LINE
  5
292
330
1F
100
AcDbEntity
  8
1-A
  6
Continuous
 62
     2
370
     9
100
AcDbLine
 10
-710.0989195776722
 20
-134.2747360154317
 30
0.0
 11
-716.819897121193
 21
-134.2747309578098
 31
0.0
  0
LINE
  5
293
330
1F
100
AcDbEntity
  8
1-A
  6
Continuous
 62
     2
370
     9
100
AcDbLine
 10
-716.819897121193
 20
-134.2747309578098
 30
0.0
 11
-716.819897121193
 21
-145.6036285066483
 31
0.0
  0
LINE
  5
294
330
1F
100
AcDbEntity
  8
1-A
  6
Continuous
 62
     2
370
     9
100
AcDbLine
 10
-702.3475105936482
 20
-140.6036585164821
 30
0.0
 11
-702.3475122795221
 21
-145.6036757111187
 31
0.0
  0
LINE
  5
295
330
1F
100
AcDbEntity
  8
1-A
  6
Continuous
 62
     2
370
     9
100
AcDbLine
 10
-704.8476936789194
 20
-105.6037586644213
 30
0.0
 11
-704.8476481603228
 21
-138.5622809664787
 31
0.0
  0
LINE
  5
296
330
1F
100
AcDbEntity
  8
1-A
  6
Continuous
 62
     2
370
     9
100
AcDbLine
 10
-789.8476936789194
 20
-105.6036743707243
 30
0.0
 11
-704.8476936789194
 21
-105.6037586644213
 31
0.0
  0
LINE
  5
297
330
1F
100
AcDbEntity
  8
1-0
  6
Continuous
 62
     4
370
     9
100
AcDbLine
 10
-852.3476973421372
 20
-153.6035970371842
 30
0.0
 11
-642.3476973421443
 21
-153.603707180558
 31
0.0
  0
LINE
  5
298
330
1F
100
AcDbEntity
  8
1-0
  6
Continuous
 62
     4
370
     9
100
AcDbLine
 10
-852.347696777615
 20
-145.6035970371835
 30
0.0
 11
-852.3476973421372
 21
-153.6035970371842
 31
0.0
  0
LINE
  5
299
330
1F
100
AcDbEntity
  8
1-0
  6
Continuous
 62
     4
370
     9
100
AcDbLine
 10
-852.347696777615
 20
-145.6035970371835
 30
0.0
 11
-642.3476967776224
 21
-145.6037071805572
 31
0.0
  0
LINE
  5
29A
330
1F
100
AcDbEntity
  8
1-0
  6
Continuous
 62
     4
370
     9
100
AcDbLine
 10
-642.3476967776224
 20
-145.6037071805572
 30
0.0
 11
-642.3476973421443
 21
-153.603707180558
 31
0.0
  0
LINE
  5
29B
330
1F
100
AcDbEntity
  8
1-0
  6
JWW_CENTER1
 62
     4
370
     9
100
AcDbLine
 10
-832.3476936789194
 20
-159.7924123480256
 30
0.0
 11
-832.3476936789194
 21
-136.9439857064617
 31
0.0
  0
LINE
  5
29C
330
1F
100
AcDbEntity
  8
1-0
  6
Continuous
 62
     4
370
     9
100
AcDbLine
 10
-822.3476936789194
 20
-153.6036127719538
 30
0.0
 11
-822.3476936789194
 21
-145.6036127719528
 31
0.0
  0
LINE
  5
29D
330
1F
100
AcDbEntity
  8
1-0
  6
Continuous
 62
     4
370
     9
100
AcDbLine
 10
-842.3476936789194
 20
-153.6036022821088
 30
0.0
 11
-842.3476936789194
 21
-145.6036022821075
 31
0.0
  0
LINE
  5
29E
330
1F
100
AcDbEntity
  8
1-0
  6
JWW_CENTER1
 62
     4
370
     9
100
AcDbLine
 10
-662.3477003827168
 20
-159.7924243441184
 30
0.0
 11
-662.3477003827168
 21
-136.9439977025544
 31
0.0
  0
LINE
  5
29F
330
1F
100
AcDbEntity
  8
1-0
  6
Continuous
 62
     4
370
     9
100
AcDbLine
 10
-672.3477003827168
 20
-153.6036247680467
 30
0.0
 11
-672.3477003827168
 21
-145.6036247680456
 31
0.0
  0
LINE
  5
2A0
330
1F
100
AcDbEntity
  8
1-0
  6
Continuous
 62
     4
370
     9
100
AcDbLine
 10
-652.3477003827168
 20
-153.6036142782015
 30
0.0
 11
-652.3477003827168
 21
-145.6036142782006
 31
0.0
  0
LINE
  5
2A1
330
1F
100
AcDbEntity
  8
1-0
  6
Continuous
 62
     4
370
     9
100
AcDbLine
 10
-714.8476967776198
 20
-145.6036691548687
 30
0.0
 11
-714.8476973421418
 21
-153.6036691548695
 31
0.0
  0
LINE
  5
2A2
330
1F
100
AcDbEntity
  8
1-0
  6
Continuous
 62
     4
370
     9
100
AcDbLine
 10
-779.8476967776176
 20
-145.603635062872
 30
0.0
 11
-779.8476973421396
 21
-153.6036350628729
 31
0.0
  0
LINE
  5
2A3
330
1F
100
AcDbEntity
  8
1-4
  6
Continuous
 62
     7
370
     9
100
AcDbLine
 10
-781.3476573877455
 20
-105.6037462683876
 30
0.0
 11
-790.914918129933
 21
-82.50684718424486
 31
0.0
  0
LINE
  5
2A4
330
1F
100
AcDbEntity
  8
1-4
  6
Continuous
 62
     7
370
     9
100
AcDbLine
 10
-781.3476573877455
 20
-105.6037462683876
 30
0.0
 11
-796.566691118742
 21
-85.76995984524564
 31
0.0
  0
LINE
  5
2A5
330
1F
100
AcDbEntity
  8
1-4
  6
Continuous
 62
     7
370
     9
100
AcDbLine
 10
-781.3476573877455
 20
-105.6037462683876
 30
0.0
 11
-839.0827912032016
 21
-5.603787508357865
 31
0.0
  0
TEXT
  5
2A6
330
1F
100
AcDbEntity
  8
1-4
  6
Continuous
 62
     6
370
     0
100
AcDbText
 10
-1162.432464235624
 20
9.410258561637743
 30
0.0
 40
22.86
  1
固定プレート：ＳＧＨＣ他
 41
0.8944444444444445
  7
ＭＳ ゴシック
100
AcDbText
  0
LINE
  5
2A7
330
1F
100
AcDbEntity
  8
1-4
  6
Continuous
 62
     7
370
     9
100
AcDbLine
 10
-1172.564131914045
 20
-5.603787508357811
 30
0.0
 11
-839.0827912032016
 21
-5.603787508357811
 31
0.0
  0
LINE
  5
2A8
330
1F
100
AcDbEntity
  8
1-8
  6
Continuous
 62
     3
370
     9
100
AcDbLine
 10
-777.3475452150257
 20
140.5046133460507
 30
0.0
 11
-777.3475452150257
 21
-105.6036867670034
 31
0.0
  0
LINE
  5
2A9
330
1F
100
AcDbEntity
  8
1-8
  6
Continuous
 62
     3
370
     9
100
AcDbLine
 10
-772.3475287190377
 20
141.8443762657088
 30
0.0
 11
-772.3475287190377
 21
-105.6036917254725
 31
0.0
  0
LINE
  5
2AA
330
1F
100
AcDbEntity
  8
1-8
  6
Continuous
 62
     3
370
     9
100
AcDbLine
 10
-722.3476111989785
 20
155.2418817423768
 30
0.0
 11
-722.3476111989785
 21
-105.6037413099184
 31
0.0
  0
LINE
  5
2AB
330
1F
100
AcDbEntity
  8
1-8
  6
Continuous
 62
     3
370
     9
100
AcDbLine
 10
-717.3475947029902
 20
156.5816446620346
 30
0.0
 11
-717.3475947029902
 21
-105.6037462683875
 31
0.0
  0
CIRCLE
  5
2AC
330
1F
100
AcDbEntity
  8
0-3
  6
Continuous
 62
     6
370
     5
100
AcDbCircle
 10
449.6569235481712
 20
423.4234712298135
 30
0.0
 40
20.0
  0
CIRCLE
  5
2AD
330
1F
100
AcDbEntity
  8
0-3
  6
Continuous
 62
     6
370
     5
100
AcDbCircle
 10
741.3233653034729
 20
-81.75821829765219
 30
0.0
 40
20.0
  0
CIRCLE
  5
2AE
330
1F
100
AcDbEntity
  8
0-3
  6
Continuous
 62
     6
370
     5
100
AcDbCircle
 10
1324.656914526636
 20
-81.75828841485554
 30
0.0
 40
20.0
  0
CIRCLE
  5
2AF
330
1F
100
AcDbEntity
  8
0-3
  6
Continuous
 62
     6
370
     5
100
AcDbCircle
 10
1616.323810161347
 20
423.4234712298135
 30
0.0
 40
20.0
  0
CIRCLE
  5
2B0
330
1F
100
AcDbEntity
  8
0-3
  6
Continuous
 62
     6
370
     5
100
AcDbCircle
 10
1324.659545596778
 20
928.6094961511501
 30
0.0
 40
20.0
  0
CIRCLE
  5
2B1
330
1F
100
AcDbEntity
  8
0-3
  6
Continuous
 62
     6
370
     5
100
AcDbCircle
 10
741.3233640085082
 20
928.6052870042622
 30
0.0
 40
20.0
  0
LINE
  5
2B2
330
1F
100
AcDbEntity
  8
0-4
  6
Continuous
 62
     7
370
     9
100
AcDbLine
 10
1087.345095587536
 20
-281.5336298699131
 30
0.0
 11
1670.67802473686
 21
728.8302977464389
 31
0.0
  0
LWPOLYLINE
  5
2B3
330
1F
100
AcDbEntity
  8
0-4
  6
Continuous
 62
     7
370
     9
100
AcDbPolyline
 90
        4
 70
     1
 43
2.0
 10
1088.345095587536
 20
-281.5336298699131
 42
0.4142135623731
 10
1087.345095587536
 20
-280.5336298699131
 42
0.4142135623731
 10
1086.345095587536
 20
-281.5336298699131
 42
0.4142135623731
 10
1087.345095587536
 20
-282.5336298699131
 42
0.4142135623731
  0
LWPOLYLINE
  5
2B4
330
1F
100
AcDbEntity
  8
0-4
  6
Continuous
 62
     7
370
     9
100
AcDbPolyline
 90
        4
 70
     1
 43
2.0
 10
1671.67802473686
 20
728.8302977464389
 42
0.4142135623731
 10
1670.67802473686
 20
729.8302977464389
 42
0.4142135623731
 10
1669.67802473686
 20
728.8302977464389
 42
0.4142135623731
 10
1670.67802473686
 20
727.8302977464389
 42
0.4142135623731
  0
LINE
  5
2B5
330
1F
100
AcDbEntity
  8
0-4
  6
Continuous
 62
     7
370
     9
100
AcDbLine
 10
1089.943172863846
 20
-283.0336280253518
 30
0.0
 11
758.643703424313
 21
-91.75810377963423
 31
0.0
  0
LINE
  5
2B6
330
1F
100
AcDbEntity
  8
0-4
  6
Continuous
 62
     7
370
     9
100
AcDbLine
 10
1673.27610201317
 20
727.3302995910001
 30
0.0
 11
1341.977588631431
 21
918.6052718573976
 31
0.0
  0
TEXT
  5
2B7
330
1F
100
AcDbEntity
  8
0-4
  6
Continuous
 62
     2
370
   211
100
AcDbText
 10
1349.21693727778
 20
203.3224871619216
 30
0.0
 40
30.48
  1
700
 50
60.00004067838749
 41
1.083333333333334
  7
ＭＳ ゴシック
100
AcDbText
  0
ENDSEC
  0
SECTION
  2
OBJECTS
  0
DICTIONARY
  5
C
330
0
100
AcDbDictionary
281
     1
  3
ACAD_DETAILVIEWSTYLE
350
2BF
  3
ACAD_GROUP
350
D
  3
ACAD_LAYOUT
350
1A
  3
ACAD_MATERIAL
350
43
  3
ACAD_MLEADERSTYLE
350
6B
  3
ACAD_MLINESTYLE
350
17
  3
ACAD_PLOTSETTINGS
350
19
  3
ACAD_PLOTSTYLENAME
350
E
  3
ACAD_SCALELIST
350
47
  3
ACAD_SECTIONVIEWSTYLE
350
2C0
  3
ACAD_TABLESTYLE
350
69
  3
ACAD_VISUALSTYLE
350
2A
  3
ACDB_RECOMPOSE_DATA
350
2BC
  3
AcDbVariableDictionary
350
2B8
  0
SUN
  5
6D
330
29
100
AcDbSun
 90
        1
290
     0
 63
     7
421
 16777215
 40
1.0
291
     1
 91
  2455826
 92
 54000000
292
     0
 70
     2
 71
   256
280
     1
  0
DICTIONARY
  5
2BF
102
{ACAD_REACTORS
330
C
102
}
330
C
100
AcDbDictionary
281
     1
  0
DICTIONARY
  5
D
102
{ACAD_REACTORS
330
C
102
}
330
C
100
AcDbDictionary
281
     1
  0
DICTIONARY
  5
1A
102
{ACAD_REACTORS
330
C
102
}
330
C
100
AcDbDictionary
281
     1
  3
Layout1
350
1E
  3
Layout2
350
26
  3
Model
350
22
  0
DICTIONARY
  5
43
102
{ACAD_REACTORS
330
C
102
}
330
C
100
AcDbDictionary
281
     1
  3
ByBlock
350
45
  3
ByLayer
350
44
  3
Global
350
46
  0
DICTIONARY
  5
6B
102
{ACAD_REACTORS
330
C
102
}
330
C
100
AcDbDictionary
281
     1
  3
Standard
350
6C
  0
DICTIONARY
  5
17
102
{ACAD_REACTORS
330
C
102
}
330
C
100
AcDbDictionary
281
     1
  3
Standard
350
18
  0
DICTIONARY
  5
19
102
{ACAD_REACTORS
330
C
102
}
330
C
100
AcDbDictionary
281
     1
  0
ACDBDICTIONARYWDFLT
  5
E
102
{ACAD_REACTORS
330
C
102
}
330
C
100
AcDbDictionary
281
     1
  3
Normal
350
F
100
AcDbDictionaryWithDefault
340
F
  0
DICTIONARY
  5
47
102
{ACAD_REACTORS
330
C
102
}
330
C
100
AcDbDictionary
281
     1
  3
A0
350
48
  3
A1
350
49
  3
A2
350
4A
  3
A3
350
4B
  3
A4
350
4C
  3
A5
350
4D
  3
A6
350
4E
  3
A7
350
4F
  3
A8
350
50
  3
A9
350
51
  3
B0
350
52
  3
B1
350
53
  3
B2
350
54
  3
B3
350
55
  3
B4
350
56
  3
B5
350
57
  3
B6
350
58
  3
B7
350
59
  3
B8
350
5A
  3
B9
350
5B
  3
C0
350
5C
  3
C1
350
5D
  3
C2
350
5E
  3
C3
350
5F
  3
C4
350
60
  3
C5
350
61
  3
C6
350
62
  3
C7
350
63
  3
C8
350
64
  3
C9
350
65
  3
D0
350
66
  3
D1
350
67
  3
D2
350
68
  0
DICTIONARY
  5
2C0
102
{ACAD_REACTORS
330
C
102
}
330
C
100
AcDbDictionary
281
     1
  0
DICTIONARY
  5
69
102
{ACAD_REACTORS
330
C
102
}
330
C
100
AcDbDictionary
281
     1
  3
Standard
350
6A
  0
DICTIONARY
  5
2A
102
{ACAD_REACTORS
330
C
102
}
330
C
100
AcDbDictionary
281
     1
  3
2dWireframe
350
2F
  3
Basic
350
32
  3
Brighten
350
36
  3
ColorChange
350
3A
  3
Conceptual
350
34
  3
Dim
350
35
  3
EdgeColorOff
350
3D
  3
Facepattern
350
39
  3
Flat
350
2B
  3
FlatWithEdges
350
2C
  3
Gouraud
350
2D
  3
GouraudWithEdges
350
2E
  3
Hidden
350
31
  3
JitterOff
350
3B
  3
Linepattern
350
38
  3
OverhangOff
350
3C
  3
Realistic
350
33
  3
Shaded
350
42
  3
Shaded with edges
350
41
  3
Shades of Gray
350
3E
  3
Sketchy
350
3F
  3
Thicken
350
37
  3
Wireframe
350
30
  3
X-Ray
350
40
  0
XRECORD
  5
2BC
102
{ACAD_REACTORS
330
C
102
}
330
C
100
AcDbXrecord
280
     1
 90
        1
330
6A
  0
DICTIONARY
  5
2B8
102
{ACAD_REACTORS
330
C
102
}
330
C
100
AcDbDictionary
281
     1
  3
CANNOSCALE
350
2B9
  3
CENTEREXE
350
2C1
  3
CENTERLTYPEFILE
350
2C2
  3
CMLEADERSTYLE
350
2BE
  3
CTABLESTYLE
350
2BD
  0
LAYOUT
  5
1E
102
{ACAD_REACTORS
330
1A
102
}
330
1A
100
AcDbPlotSettings
  1

  2
none_device
  4

  6

 40
0.0
 41
0.0
 42
0.0
 43
0.0
 44
0.0
 45
0.0
 46
0.0
 47
0.0
 48
0.0
 49
0.0
140
0.0
141
0.0
142
1.0
143
1.0
 70
   688
 72
     1
 73
     0
 74
     5
  7

 75
    16
 76
     0
 77
     5
 78
   300
147
1.0
148
0.0
149
0.0
100
AcDbLayout
  1
Layout1
 70
     1
 71
     1
 10
0.0
 20
0.0
 11
420.0
 21
297.0
 12
0.0
 22
0.0
 32
0.0
 14
1.000000000000000E+20
 24
1.000000000000000E+20
 34
1.000000000000000E+20
 15
-1.000000000000000E+20
 25
-1.000000000000000E+20
 35
-1.000000000000000E+20
146
0.0
 13
0.0
 23
0.0
 33
0.0
 16
1.0
 26
0.0
 36
0.0
 17
0.0
 27
1.0
 37
0.0
 76
     0
330
1B
  0
LAYOUT
  5
26
102
{ACAD_REACTORS
330
1A
102
}
330
1A
100
AcDbPlotSettings
  1

  2
none_device
  4

  6

 40
0.0
 41
0.0
 42
0.0
 43
0.0
 44
0.0
 45
0.0
 46
0.0
 47
0.0
 48
0.0
 49
0.0
140
0.0
141
0.0
142
1.0
143
1.0
 70
   688
 72
     1
 73
     0
 74
     5
  7

 75
    16
 76
     0
 77
     5
 78
   300
147
1.0
148
0.0
149
0.0
100
AcDbLayout
  1
Layout2
 70
     1
 71
     2
 10
0.0
 20
0.0
 11
0.0
 21
0.0
 12
0.0
 22
0.0
 32
0.0
 14
0.0
 24
0.0
 34
0.0
 15
0.0
 25
0.0
 35
0.0
146
0.0
 13
0.0
 23
0.0
 33
0.0
 16
1.0
 26
0.0
 36
0.0
 17
0.0
 27
1.0
 37
0.0
 76
     0
330
23
  0
LAYOUT
  5
22
102
{ACAD_REACTORS
330
1A
102
}
330
1A
100
AcDbPlotSettings
  1

  2
none_device
  4
Letter_(8.50_x_11.00_Inches)
  6

 40
6.35
 41
6.35
 42
6.35000508
 43
6.35000508
 44
215.9
 45
279.4
 46
0.0
 47
0.0
 48
0.0
 49
0.0
140
0.0
141
0.0
142
1.0
143
1.0
 70
  1712
 72
     1
 73
     0
 74
     0
  7

 75
     0
 76
     0
 77
     5
 78
   300
147
1.0
148
0.0
149
0.0
100
AcDbLayout
  1
Model
 70
     1
 71
     0
 10
-2100.0
 20
-1485.0
 11
2100.0
 21
1485.0
 12
0.0
 22
0.0
 32
0.0
 14
-2100.0
 24
-1485.0
 34
0.0
 15
2100.0
 25
1485.0
 35
0.0
146
0.0
 13
0.0
 23
0.0
 33
0.0
 16
1.0
 26
0.0
 36
0.0
 17
0.0
 27
1.0
 37
0.0
 76
     0
330
1F
331
29
  0
MATERIAL
  5
45
102
{ACAD_REACTORS
330
43
102
}
330
43
100
AcDbMaterial
  1
ByBlock
 72
     1
 94
      127
  0
MATERIAL
  5
44
102
{ACAD_REACTORS
330
43
102
}
330
43
100
AcDbMaterial
  1
ByLayer
 72
     1
 94
      127
  0
MATERIAL
  5
46
102
{ACAD_REACTORS
330
43
102
}
330
43
100
AcDbMaterial
  1
Global
 72
     1
 94
      127
  0
MLEADERSTYLE
  5
6C
102
{ACAD_REACTORS
330
6B
102
}
330
6B
100
AcDbMLeaderStyle
179
     2
170
     2
171
     1
172
     0
 90
        2
 40
0.0
 41
0.0
173
     1
 91
-1056964608
340
14
 92
       -2
290
     1
 42
2.0
291
     1
 43
8.0
  3
Standard
341
0
 44
4.0
300

342
11
174
     1
178
     6
175
     1
176
     0
 93
-1056964608
 45
4.0
292
     0
297
     0
 46
4.0
343
0
 94
-1056964608
 47
1.0
 49
1.0
140
1.0
293
     1
141
0.0
294
     1
177
     0
142
1.0
295
     0
296
     0
143
3.75
271
     0
272
     9
273
     9
298
     0
  0
MLINESTYLE
  5
18
102
{ACAD_REACTORS
330
17
102
}
330
17
100
AcDbMlineStyle
  2
Standard
 70
     0
  3

 62
   256
 51
90.0
 52
90.0
 71
     2
 49
0.5
 62
   256
  6
BYLAYER
 49
-0.5
 62
   256
  6
BYLAYER
  0
ACDBPLACEHOLDER
  5
F
102
{ACAD_REACTORS
330
E
102
}
330
E
  0
SCALE
  5
48
102
{ACAD_REACTORS
330
47
102
}
330
47
100
AcDbScale
 70
     0
300
1:1
140
1.0
141
1.0
290
     1
  0
SCALE
  5
49
102
{ACAD_REACTORS
330
47
102
}
330
47
100
AcDbScale
 70
     0
300
1:2
140
1.0
141
2.0
290
     0
  0
SCALE
  5
4A
102
{ACAD_REACTORS
330
47
102
}
330
47
100
AcDbScale
 70
     0
300
1:4
140
1.0
141
4.0
290
     0
  0
SCALE
  5
4B
102
{ACAD_REACTORS
330
47
102
}
330
47
100
AcDbScale
 70
     0
300
1:5
140
1.0
141
5.0
290
     0
  0
SCALE
  5
4C
102
{ACAD_REACTORS
330
47
102
}
330
47
100
AcDbScale
 70
     0
300
1:8
140
1.0
141
8.0
290
     0
  0
SCALE
  5
4D
102
{ACAD_REACTORS
330
47
102
}
330
47
100
AcDbScale
 70
     0
300
1:10
140
1.0
141
10.0
290
     0
  0
SCALE
  5
4E
102
{ACAD_REACTORS
330
47
102
}
330
47
100
AcDbScale
 70
     0
300
1:16
140
1.0
141
16.0
290
     0
  0
SCALE
  5
4F
102
{ACAD_REACTORS
330
47
102
}
330
47
100
AcDbScale
 70
     0
300
1:20
140
1.0
141
20.0
290
     0
  0
SCALE
  5
50
102
{ACAD_REACTORS
330
47
102
}
330
47
100
AcDbScale
 70
     0
300
1:30
140
1.0
141
30.0
290
     0
  0
SCALE
  5
51
102
{ACAD_REACTORS
330
47
102
}
330
47
100
AcDbScale
 70
     0
300
1:40
140
1.0
141
40.0
290
     0
  0
SCALE
  5
52
102
{ACAD_REACTORS
330
47
102
}
330
47
100
AcDbScale
 70
     0
300
1:50
140
1.0
141
50.0
290
     0
  0
SCALE
  5
53
102
{ACAD_REACTORS
330
47
102
}
330
47
100
AcDbScale
 70
     0
300
1:100
140
1.0
141
100.0
290
     0
  0
SCALE
  5
54
102
{ACAD_REACTORS
330
47
102
}
330
47
100
AcDbScale
 70
     0
300
2:1
140
2.0
141
1.0
290
     0
  0
SCALE
  5
55
102
{ACAD_REACTORS
330
47
102
}
330
47
100
AcDbScale
 70
     0
300
4:1
140
4.0
141
1.0
290
     0
  0
SCALE
  5
56
102
{ACAD_REACTORS
330
47
102
}
330
47
100
AcDbScale
 70
     0
300
8:1
140
8.0
141
1.0
290
     0
  0
SCALE
  5
57
102
{ACAD_REACTORS
330
47
102
}
330
47
100
AcDbScale
 70
     0
300
10:1
140
10.0
141
1.0
290
     0
  0
SCALE
  5
58
102
{ACAD_REACTORS
330
47
102
}
330
47
100
AcDbScale
 70
     0
300
100:1
140
100.0
141
1.0
290
     0
  0
SCALE
  5
59
102
{ACAD_REACTORS
330
47
102
}
330
47
100
AcDbScale
 70
     0
300
1/128" = 1'-0"
140
0.0078125
141
12.0
290
     0
  0
SCALE
  5
5A
102
{ACAD_REACTORS
330
47
102
}
330
47
100
AcDbScale
 70
     0
300
1/64" = 1'-0"
140
0.015625
141
12.0
290
     0
  0
SCALE
  5
5B
102
{ACAD_REACTORS
330
47
102
}
330
47
100
AcDbScale
 70
     0
300
1/32" = 1'-0"
140
0.03125
141
12.0
290
     0
  0
SCALE
  5
5C
102
{ACAD_REACTORS
330
47
102
}
330
47
100
AcDbScale
 70
     0
300
1/16" = 1'-0"
140
0.0625
141
12.0
290
     0
  0
SCALE
  5
5D
102
{ACAD_REACTORS
330
47
102
}
330
47
100
AcDbScale
 70
     0
300
3/32" = 1'-0"
140
0.09375
141
12.0
290
     0
  0
SCALE
  5
5E
102
{ACAD_REACTORS
330
47
102
}
330
47
100
AcDbScale
 70
     0
300
1/8" = 1'-0"
140
0.125
141
12.0
290
     0
  0
SCALE
  5
5F
102
{ACAD_REACTORS
330
47
102
}
330
47
100
AcDbScale
 70
     0
300
3/16" = 1'-0"
140
0.1875
141
12.0
290
     0
  0
SCALE
  5
60
102
{ACAD_REACTORS
330
47
102
}
330
47
100
AcDbScale
 70
     0
300
1/4" = 1'-0"
140
0.25
141
12.0
290
     0
  0
SCALE
  5
61
102
{ACAD_REACTORS
330
47
102
}
330
47
100
AcDbScale
 70
     0
300
3/8" = 1'-0"
140
0.375
141
12.0
290
     0
  0
SCALE
  5
62
102
{ACAD_REACTORS
330
47
102
}
330
47
100
AcDbScale
 70
     0
300
1/2" = 1'-0"
140
0.5
141
12.0
290
     0
  0
SCALE
  5
63
102
{ACAD_REACTORS
330
47
102
}
330
47
100
AcDbScale
 70
     0
300
3/4" = 1'-0"
140
0.75
141
12.0
290
     0
  0
SCALE
  5
64
102
{ACAD_REACTORS
330
47
102
}
330
47
100
AcDbScale
 70
     0
300
1" = 1'-0"
140
1.0
141
12.0
290
     0
  0
SCALE
  5
65
102
{ACAD_REACTORS
330
47
102
}
330
47
100
AcDbScale
 70
     0
300
1-1/2" = 1'-0"
140
1.5
141
12.0
290
     0
  0
SCALE
  5
66
102
{ACAD_REACTORS
330
47
102
}
330
47
100
AcDbScale
 70
     0
300
3" = 1'-0"
140
3.0
141
12.0
290
     0
  0
SCALE
  5
67
102
{ACAD_REACTORS
330
47
102
}
330
47
100
AcDbScale
 70
     0
300
6" = 1'-0"
140
6.0
141
12.0
290
     0
  0
SCALE
  5
68
102
{ACAD_REACTORS
330
47
102
}
330
47
100
AcDbScale
 70
     0
300
1'-0" = 1'-0"
140
12.0
141
12.0
290
     0
  0
TABLESTYLE
  5
6A
102
{ACAD_REACTORS
330
69
102
}
102
{ACAD_XDICTIONARY
360
2BA
102
}
330
69
100
AcDbTableStyle
  3
Standard
 70
     0
 71
     0
 40
0.06
 41
0.06
280
     0
281
     0
  7
Standard
140
4.5
170
     2
 62
     0
 63
   257
283
     0
 90
        4
 91
        0
  1

274
    -2
284
     1
 64
     0
275
    -2
285
     1
 65
     0
276
    -2
286
     1
 66
     0
277
    -2
287
     1
 67
     0
278
    -2
288
     1
 68
     0
279
    -2
289
     1
 69
     0
  7
Standard
140
6.0
170
     5
 62
     0
 63
   257
283
     0
 90
        4
 91
        0
  1

274
    -2
284
     1
 64
     0
275
    -2
285
     1
 65
     0
276
    -2
286
     1
 66
     0
277
    -2
287
     1
 67
     0
278
    -2
288
     1
 68
     0
279
    -2
289
     1
 69
     0
  7
Standard
140
4.5
170
     5
 62
     0
 63
   257
283
     0
 90
        4
 91
        0
  1

274
    -2
284
     1
 64
     0
275
    -2
285
     1
 65
     0
276
    -2
286
     1
 66
     0
277
    -2
287
     1
 67
     0
278
    -2
288
     1
 68
     0
279
    -2
289
     1
 69
     0
  0
VISUALSTYLE
  5
2F
102
{ACAD_REACTORS
330
2A
102
}
330
2A
100
AcDbVisualStyle
  2
2dWireframe
 70
     4
177
     3
291
     0
 70
    58
 90
        0
176
     1
 90
        2
176
     1
 90
        0
176
     1
 90
        0
176
     1
 40
0.6
176
     1
 40
30.0
176
     1
 62
     7
420
 16777215
176
     1
 90
        1
176
     1
 90
        4
176
     1
 62
     7
176
     1
 62
   257
176
     1
 90
        1
176
     1
 90
        1
176
     1
 40
1.0
176
     1
 90
        0
176
     1
 62
   257
176
     1
 40
1.0
176
     1
 90
        1
176
     1
 90
        6
176
     1
 90
        2
176
     1
 62
     7
176
     1
 90
        5
176
     1
 90
        0
176
     1
 90
        0
176
     1
290
     0
176
     1
 90
        1
176
     1
 40
0.0
176
     1
 90
        0
176
     1
290
     1
176
     1
290
     1
176
     1
290
     0
176
     1
290
     0
176
     1
290
     0
176
     1
290
     0
176
     1
290
     0
176
     1
290
     0
176
     1
290
     0
176
     1
 90
       50
176
     1
 40
0.0
176
     1
 40
1.0
176
     1
 90
        0
176
     1
 62
    18
420
        0
176
     1
 90
       50
176
     1
 90
        3
176
     1
 62
     5
420
      255
176
     1
290
     0
176
     1
 90
       50
176
     1
 90
       50
176
     1
 90
       50
176
     1
290
     0
176
     1
 90
       50
176
     1
 62
   256
176
     0
 40
1.0
176
     0
 90
        2
176
     1
  1
strokes_ogs.tif
176
     1
290
     0
176
     1
 40
1.0
176
     1
 40
1.0
176
     1
  0
VISUALSTYLE
  5
32
102
{ACAD_REACTORS
330
2A
102
}
330
2A
100
AcDbVisualStyle
  2
Basic
 70
     7
177
     3
291
     1
 70
    58
 90
        1
176
     1
 90
        0
176
     1
 90
        1
176
     1
 90
        0
176
     1
 40
0.6
176
     1
 40
30.0
176
     1
 62
     7
420
 16777215
176
     1
 90
        0
176
     1
 90
        4
176
     1
 62
     7
176
     1
 62
   257
176
     1
 90
        1
176
     1
 90
        1
176
     1
 40
1.0
176
     1
 90
        8
176
     1
 62
     7
176
     1
 40
1.0
176
     1
 90
        1
176
     1
 90
        6
176
     1
 90
        2
176
     1
 62
     7
176
     1
 90
        5
176
     1
 90
        0
176
     1
 90
        0
176
     1
290
     0
176
     1
 90
        1
176
     1
 40
0.0
176
     1
 90
        0
176
     1
290
     0
176
     1
290
     1
176
     1
290
     1
176
     1
290
     0
176
     1
290
     0
176
     1
290
     0
176
     1
290
     0
176
     1
290
     0
176
     1
290
     0
176
     1
 90
       50
176
     1
 40
0.0
176
     1
 40
1.0
176
     1
 90
        0
176
     1
 62
    18
420
        0
176
     1
 90
       50
176
     1
 90
        3
176
     1
 62
     5
420
      255
176
     1
290
     0
176
     1
 90
       50
176
     1
 90
       50
176
     1
 90
       50
176
     1
290
     0
176
     1
 90
       50
176
     1
 62
   256
176
     0
 40
1.0
176
     0
 90
        2
176
     1
  1
strokes_ogs.tif
176
     1
290
     0
176
     1
 40
1.0
176
     1
 40
1.0
176
     1
  0
VISUALSTYLE
  5
36
102
{ACAD_REACTORS
330
2A
102
}
330
2A
100
AcDbVisualStyle
  2
Brighten
 70
    12
177
     3
291
     1
 70
    58
 90
        2
176
     1
 90
        2
176
     1
 90
        0
176
     1
 90
        0
176
     1
 40
0.6
176
     1
 40
30.0
176
     1
 62
     7
420
 16777215
176
     1
 90
        1
176
     1
 90
        4
176
     1
 62
     7
176
     1
 62
   257
176
     1
 90
        1
176
     1
 90
        1
176
     1
 40
1.0
176
     1
 90
        8
176
     1
 62
     7
176
     1
 40
1.0
176
     1
 90
        1
176
     1
 90
        6
176
     1
 90
        2
176
     1
 62
     7
176
     1
 90
        5
176
     1
 90
        0
176
     1
 90
        0
176
     1
290
     0
176
     1
 90
        1
176
     1
 40
50.0
176
     1
 90
        0
176
     1
290
     0
176
     1
290
     1
176
     1
290
     1
176
     1
290
     0
176
     1
290
     0
176
     1
290
     0
176
     1
290
     0
176
     1
290
     0
176
     1
290
     0
176
     1
 90
       50
176
     1
 40
0.0
176
     1
 40
1.0
176
     1
 90
        0
176
     1
 62
    18
420
        0
176
     1
 90
       50
176
     1
 90
        3
176
     1
 62
     5
420
      255
176
     1
290
     0
176
     1
 90
       50
176
     1
 90
       50
176
     1
 90
       50
176
     1
290
     0
176
     1
 90
       50
176
     1
 62
   256
176
     0
 40
1.0
176
     0
 90
        2
176
     1
  1
strokes_ogs.tif
176
     1
290
     0
176
     1
 40
1.0
176
     1
 40
1.0
176
     1
  0
VISUALSTYLE
  5
3A
102
{ACAD_REACTORS
330
2A
102
}
330
2A
100
AcDbVisualStyle
  2
ColorChange
 70
    16
177
     3
291
     1
 70
    58
 90
        2
176
     1
 90
        2
176
     1
 90
        3
176
     1
 90
        0
176
     1
 40
0.6
176
     1
 40
30.0
176
     1
 62
     8
420
  8421504
176
     1
 90
        1
176
     1
 90
        4
176
     1
 62
     7
176
     1
 62
   257
176
     1
 90
        1
176
     1
 90
        1
176
     1
 40
1.0
176
     1
 90
        8
176
     1
 62
     8
420
  8421504
176
     1
 40
1.0
176
     1
 90
        1
176
     1
 90
        6
176
     1
 90
        2
176
     1
 62
     7
176
     1
 90
        5
176
     1
 90
        0
176
     1
 90
        0
176
     1
290
     0
176
     1
 90
        1
176
     1
 40
0.0
176
     1
 90
        0
176
     1
290
     0
176
     1
290
     1
176
     1
290
     1
176
     1
290
     0
176
     1
290
     0
176
     1
290
     0
176
     1
290
     0
176
     1
290
     0
176
     1
290
     0
176
     1
 90
       50
176
     1
 40
0.0
176
     1
 40
1.0
176
     1
 90
        0
176
     1
 62
    18
420
        0
176
     1
 90
       50
176
     1
 90
        3
176
     1
 62
     5
420
      255
176
     1
290
     0
176
     1
 90
       50
176
     1
 90
       50
176
     1
 90
       50
176
     1
290
     0
176
     1
 90
       50
176
     1
 62
   256
176
     0
 40
1.0
176
     0
 90
        2
176
     1
  1
strokes_ogs.tif
176
     1
290
     0
176
     1
 40
1.0
176
     1
 40
1.0
176
     1
  0
VISUALSTYLE
  5
34
102
{ACAD_REACTORS
330
2A
102
}
330
2A
100
AcDbVisualStyle
  2
Conceptual
 70
     9
177
     3
291
     0
 70
    58
 90
        3
176
     1
 90
        2
176
     1
 90
        0
176
     1
 90
        0
176
     1
 40
0.6
176
     1
 40
30.0
176
     1
 62
     7
420
 16777215
176
     1
 90
        2
176
     1
 90
        2
176
     1
 62
     7
176
     1
 62
   257
176
     1
 90
        1
176
     1
 90
        1
176
     1
 40
179.0
176
     1
 90
        8
176
     1
 62
     7
176
     1
 40
1.0
176
     1
 90
        1
176
     1
 90
        6
176
     1
 90
        2
176
     1
 62
     7
176
     1
 90
        3
176
     1
 90
        0
176
     1
 90
        0
176
     1
290
     0
176
     1
 90
        1
176
     1
 40
0.0
176
     1
 90
        0
176
     1
290
     0
176
     1
290
     1
176
     1
290
     1
176
     1
290
     0
176
     1
290
     0
176
     1
290
     0
176
     1
290
     0
176
     1
290
     0
176
     1
290
     0
176
     1
 90
       50
176
     1
 40
0.0
176
     1
 40
1.0
176
     1
 90
        0
176
     1
 62
    18
420
        0
176
     1
 90
       50
176
     1
 90
        3
176
     1
 62
     5
420
      255
176
     1
290
     0
176
     1
 90
       50
176
     1
 90
       50
176
     1
 90
       50
176
     1
290
     0
176
     1
 90
       50
176
     1
 62
   256
176
     0
 40
1.0
176
     0
 90
        2
176
     1
  1
strokes_ogs.tif
176
     1
290
     0
176
     1
 40
1.0
176
     1
 40
1.0
176
     1
  0
VISUALSTYLE
  5
35
102
{ACAD_REACTORS
330
2A
102
}
330
2A
100
AcDbVisualStyle
  2
Dim
 70
    11
177
     3
291
     1
 70
    58
 90
        2
176
     1
 90
        2
176
     1
 90
        0
176
     1
 90
        0
176
     1
 40
0.6
176
     1
 40
30.0
176
     1
 62
     7
420
 16777215
176
     1
 90
        1
176
     1
 90
        4
176
     1
 62
     7
176
     1
 62
   257
176
     1
 90
        1
176
     1
 90
        1
176
     1
 40
1.0
176
     1
 90
        8
176
     1
 62
     7
176
     1
 40
1.0
176
     1
 90
        1
176
     1
 90
        6
176
     1
 90
        2
176
     1
 62
     7
176
     1
 90
        5
176
     1
 90
        0
176
     1
 90
        0
176
     1
290
     0
176
     1
 90
        1
176
     1
 40
-50.0
176
     1
 90
        0
176
     1
290
     0
176
     1
290
     1
176
     1
290
     1
176
     1
290
     0
176
     1
290
     0
176
     1
290
     0
176
     1
290
     0
176
     1
290
     0
176
     1
290
     0
176
     1
 90
       50
176
     1
 40
0.0
176
     1
 40
1.0
176
     1
 90
        0
176
     1
 62
    18
420
        0
176
     1
 90
       50
176
     1
 90
        3
176
     1
 62
     5
420
      255
176
     1
290
     0
176
     1
 90
       50
176
     1
 90
       50
176
     1
 90
       50
176
     1
290
     0
176
     1
 90
       50
176
     1
 62
   256
176
     0
 40
1.0
176
     0
 90
        2
176
     1
  1
strokes_ogs.tif
176
     1
290
     0
176
     1
 40
1.0
176
     1
 40
1.0
176
     1
  0
VISUALSTYLE
  5
3D
102
{ACAD_REACTORS
330
2A
102
}
330
2A
100
AcDbVisualStyle
  2
EdgeColorOff
 70
    22
177
     3
291
     1
 70
    58
 90
        2
176
     0
 90
        2
176
     0
 90
        0
176
     0
 90
        0
176
     0
 40
0.6
176
     0
 40
30.0
176
     0
 62
     7
420
 16777215
176
     0
 90
        1
176
     0
 90
        4
176
     0
 62
     7
176
     0
 62
   257
176
     0
 90
        1
176
     0
 90
        1
176
     0
 40
1.0
176
     0
 90
        8
176
     2
 62
     7
176
     0
 40
1.0
176
     0
 90
        1
176
     0
 90
        6
176
     0
 90
        2
176
     0
 62
     7
176
     0
 90
        5
176
     0
 90
        0
176
     0
 90
        0
176
     0
290
     0
176
     0
 90
        1
176
     0
 40
0.0
176
     0
 90
        0
176
     0
290
     0
176
     0
290
     1
176
     0
290
     1
176
     0
290
     0
176
     0
290
     0
176
     0
290
     0
176
     0
290
     0
176
     0
290
     0
176
     0
290
     0
176
     0
 90
       50
176
     0
 40
0.0
176
     0
 40
1.0
176
     0
 90
        0
176
     0
 62
    18
420
        0
176
     0
 90
       50
176
     0
 90
        3
176
     0
 62
     5
420
      255
176
     0
290
     0
176
     0
 90
       50
176
     0
 90
       50
176
     0
 90
       50
176
     0
290
     0
176
     0
 90
       50
176
     0
 62
   256
176
     0
 40
1.0
176
     0
 90
        2
176
     0
  1
strokes_ogs.tif
176
     0
290
     0
176
     0
 40
1.0
176
     0
 40
1.0
176
     0
  0
VISUALSTYLE
  5
39
102
{ACAD_REACTORS
330
2A
102
}
330
2A
100
AcDbVisualStyle
  2
Facepattern
 70
    15
177
     3
291
     1
 70
    58
 90
        2
176
     1
 90
        2
176
     1
 90
        0
176
     1
 90
        0
176
     1
 40
0.6
176
     1
 40
30.0
176
     1
 62
     7
420
 16777215
176
     1
 90
        1
176
     1
 90
        4
176
     1
 62
     7
176
     1
 62
   257
176
     1
 90
        1
176
     1
 90
        1
176
     1
 40
1.0
176
     1
 90
        8
176
     1
 62
     7
176
     1
 40
1.0
176
     1
 90
        1
176
     1
 90
        6
176
     1
 90
        2
176
     1
 62
     7
176
     1
 90
        5
176
     1
 90
        0
176
     1
 90
        0
176
     1
290
     0
176
     1
 90
        1
176
     1
 40
0.0
176
     1
 90
        0
176
     1
290
     0
176
     1
290
     1
176
     1
290
     1
176
     1
290
     0
176
     1
290
     0
176
     1
290
     0
176
     1
290
     0
176
     1
290
     0
176
     1
290
     0
176
     1
 90
       50
176
     1
 40
0.0
176
     1
 40
1.0
176
     1
 90
        0
176
     1
 62
    18
420
        0
176
     1
 90
       50
176
     1
 90
        3
176
     1
 62
     5
420
      255
176
     1
290
     0
176
     1
 90
       50
176
     1
 90
       50
176
     1
 90
       50
176
     1
290
     0
176
     1
 90
       50
176
     1
 62
   256
176
     0
 40
1.0
176
     0
 90
        2
176
     1
  1
strokes_ogs.tif
176
     1
290
     0
176
     1
 40
1.0
176
     1
 40
1.0
176
     1
  0
VISUALSTYLE
  5
2B
102
{ACAD_REACTORS
330
2A
102
}
330
2A
100
AcDbVisualStyle
  2
Flat
 70
     0
177
     3
291
     1
 70
    58
 90
        2
176
     1
 90
        1
176
     1
 90
        1
176
     1
 90
        2
176
     1
 40
0.6
176
     1
 40
30.0
176
     1
 62
     7
420
 16777215
176
     1
 90
        0
176
     1
 90
        0
176
     1
 62
     7
176
     1
 62
   257
176
     1
 90
        1
176
     1
 90
        1
176
     1
 40
1.0
176
     1
 90
        8
176
     1
 62
     7
176
     1
 40
1.0
176
     1
 90
        1
176
     1
 90
        6
176
     1
 90
        2
176
     1
 62
     7
176
     1
 90
        5
176
     1
 90
        0
176
     1
 90
        0
176
     1
290
     0
176
     1
 90
       13
176
     1
 40
0.0
176
     1
 90
        0
176
     1
290
     0
176
     1
290
     1
176
     1
290
     1
176
     1
290
     0
176
     1
290
     0
176
     1
290
     0
176
     1
290
     0
176
     1
290
     0
176
     1
290
     0
176
     1
 90
       50
176
     1
 40
0.0
176
     1
 40
1.0
176
     1
 90
        0
176
     1
 62
    18
420
        0
176
     1
 90
       50
176
     1
 90
        3
176
     1
 62
     5
420
      255
176
     1
290
     0
176
     1
 90
       50
176
     1
 90
       50
176
     1
 90
       50
176
     1
290
     0
176
     1
 90
       50
176
     1
 62
   256
176
     0
 40
1.0
176
     0
 90
        2
176
     1
  1
strokes_ogs.tif
176
     1
290
     0
176
     1
 40
1.0
176
     1
 40
1.0
176
     1
  0
VISUALSTYLE
  5
2C
102
{ACAD_REACTORS
330
2A
102
}
330
2A
100
AcDbVisualStyle
  2
FlatWithEdges
 70
     1
177
     3
291
     1
 70
    58
 90
        2
176
     1
 90
        1
176
     1
 90
        1
176
     1
 90
        2
176
     1
 40
0.6
176
     1
 40
30.0
176
     1
 62
     7
420
 16777215
176
     1
 90
        1
176
     1
 90
        0
176
     1
 62
     7
176
     1
 62
   257
176
     1
 90
        1
176
     1
 90
        1
176
     1
 40
1.0
176
     1
 90
        0
176
     1
 62
   257
176
     1
 40
1.0
176
     1
 90
        1
176
     1
 90
        6
176
     1
 90
        2
176
     1
 62
     7
176
     1
 90
        5
176
     1
 90
        0
176
     1
 90
        0
176
     1
290
     0
176
     1
 90
       13
176
     1
 40
0.0
176
     1
 90
        0
176
     1
290
     0
176
     1
290
     1
176
     1
290
     1
176
     1
290
     0
176
     1
290
     0
176
     1
290
     0
176
     1
290
     0
176
     1
290
     0
176
     1
290
     0
176
     1
 90
       50
176
     1
 40
0.0
176
     1
 40
1.0
176
     1
 90
        0
176
     1
 62
    18
420
        0
176
     1
 90
       50
176
     1
 90
        3
176
     1
 62
     5
420
      255
176
     1
290
     0
176
     1
 90
       50
176
     1
 90
       50
176
     1
 90
       50
176
     1
290
     0
176
     1
 90
       50
176
     1
 62
   256
176
     0
 40
1.0
176
     0
 90
        2
176
     1
  1
strokes_ogs.tif
176
     1
290
     0
176
     1
 40
1.0
176
     1
 40
1.0
176
     1
  0
VISUALSTYLE
  5
2D
102
{ACAD_REACTORS
330
2A
102
}
330
2A
100
AcDbVisualStyle
  2
Gouraud
 70
     2
177
     3
291
     1
 70
    58
 90
        2
176
     1
 90
        2
176
     1
 90
        1
176
     1
 90
        2
176
     1
 40
0.6
176
     1
 40
30.0
176
     1
 62
     7
420
 16777215
176
     1
 90
        0
176
     1
 90
        0
176
     1
 62
     7
176
     1
 62
   257
176
     1
 90
        1
176
     1
 90
        1
176
     1
 40
1.0
176
     1
 90
        0
176
     1
 62
     7
176
     1
 40
1.0
176
     1
 90
        1
176
     1
 90
        6
176
     1
 90
        2
176
     1
 62
     7
176
     1
 90
        5
176
     1
 90
        0
176
     1
 90
        0
176
     1
290
     0
176
     1
 90
       13
176
     1
 40
0.0
176
     1
 90
        0
176
     1
290
     0
176
     1
290
     1
176
     1
290
     1
176
     1
290
     0
176
     1
290
     0
176
     1
290
     0
176
     1
290
     0
176
     1
290
     0
176
     1
290
     0
176
     1
 90
       50
176
     1
 40
0.0
176
     1
 40
1.0
176
     1
 90
        0
176
     1
 62
    18
420
        0
176
     1
 90
       50
176
     1
 90
        3
176
     1
 62
     5
420
      255
176
     1
290
     0
176
     1
 90
       50
176
     1
 90
       50
176
     1
 90
       50
176
     1
290
     0
176
     1
 90
       50
176
     1
 62
   256
176
     0
 40
1.0
176
     0
 90
        2
176
     1
  1
strokes_ogs.tif
176
     1
290
     0
176
     1
 40
1.0
176
     1
 40
1.0
176
     1
  0
VISUALSTYLE
  5
2E
102
{ACAD_REACTORS
330
2A
102
}
330
2A
100
AcDbVisualStyle
  2
GouraudWithEdges
 70
     3
177
     3
291
     1
 70
    58
 90
        2
176
     1
 90
        2
176
     1
 90
        1
176
     1
 90
        2
176
     1
 40
0.6
176
     1
 40
30.0
176
     1
 62
     7
420
 16777215
176
     1
 90
        1
176
     1
 90
        0
176
     1
 62
     7
176
     1
 62
   257
176
     1
 90
        1
176
     1
 90
        1
176
     1
 40
1.0
176
     1
 90
        0
176
     1
 62
   257
176
     1
 40
1.0
176
     1
 90
        1
176
     1
 90
        6
176
     1
 90
        2
176
     1
 62
     7
176
     1
 90
        5
176
     1
 90
        0
176
     1
 90
        0
176
     1
290
     0
176
     1
 90
       13
176
     1
 40
0.0
176
     1
 90
        0
176
     1
290
     0
176
     1
290
     1
176
     1
290
     1
176
     1
290
     0
176
     1
290
     0
176
     1
290
     0
176
     1
290
     0
176
     1
290
     0
176
     1
290
     0
176
     1
 90
       50
176
     1
 40
0.0
176
     1
 40
1.0
176
     1
 90
        0
176
     1
 62
    18
420
        0
176
     1
 90
       50
176
     1
 90
        3
176
     1
 62
     5
420
      255
176
     1
290
     0
176
     1
 90
       50
176
     1
 90
       50
176
     1
 90
       50
176
     1
290
     0
176
     1
 90
       50
176
     1
 62
   256
176
     0
 40
1.0
176
     0
 90
        2
176
     1
  1
strokes_ogs.tif
176
     1
290
     0
176
     1
 40
1.0
176
     1
 40
1.0
176
     1
  0
VISUALSTYLE
  5
31
102
{ACAD_REACTORS
330
2A
102
}
330
2A
100
AcDbVisualStyle
  2
Hidden
 70
     6
177
     3
291
     0
 70
    58
 90
        1
176
     1
 90
        2
176
     1
 90
        2
176
     1
 90
        0
176
     1
 40
0.6
176
     1
 40
30.0
176
     1
 62
     7
420
 16777215
176
     1
 90
        2
176
     1
 90
        2
176
     1
 62
     7
176
     1
 62
   257
176
     1
 90
        2
176
     1
 90
        1
176
     1
 40
40.0
176
     1
 90
        0
176
     1
 62
   257
176
     1
 40
1.0
176
     1
 90
        1
176
     1
 90
        6
176
     1
 90
        2
176
     1
 62
     7
176
     1
 90
        3
176
     1
 90
        0
176
     1
 90
        0
176
     1
290
     0
176
     1
 90
        1
176
     1
 40
0.0
176
     1
 90
        0
176
     1
290
     0
176
     1
290
     1
176
     1
290
     1
176
     1
290
     0
176
     1
290
     0
176
     1
290
     0
176
     1
290
     0
176
     1
290
     0
176
     1
290
     0
176
     1
 90
       50
176
     1
 40
0.0
176
     1
 40
1.0
176
     1
 90
        0
176
     1
 62
    18
420
        0
176
     1
 90
       50
176
     1
 90
        3
176
     1
 62
     5
420
      255
176
     1
290
     0
176
     1
 90
       50
176
     1
 90
       50
176
     1
 90
       50
176
     1
290
     0
176
     1
 90
       50
176
     1
 62
   256
176
     0
 40
1.0
176
     0
 90
        2
176
     1
  1
strokes_ogs.tif
176
     1
290
     0
176
     1
 40
1.0
176
     1
 40
1.0
176
     1
  0
VISUALSTYLE
  5
3B
102
{ACAD_REACTORS
330
2A
102
}
330
2A
100
AcDbVisualStyle
  2
JitterOff
 70
    20
177
     3
291
     1
 70
    58
 90
        2
176
     0
 90
        2
176
     0
 90
        0
176
     0
 90
        0
176
     0
 40
0.6
176
     0
 40
30.0
176
     0
 62
     7
420
 16777215
176
     0
 90
        1
176
     0
 90
        4
176
     0
 62
     7
176
     0
 62
   257
176
     0
 90
        1
176
     0
 90
        1
176
     0
 40
1.0
176
     0
 90
       10
176
     2
 62
     7
176
     0
 40
1.0
176
     0
 90
        1
176
     0
 90
        6
176
     0
 90
        2
176
     0
 62
     7
176
     0
 90
        5
176
     0
 90
        0
176
     0
 90
        0
176
     0
290
     0
176
     0
 90
        1
176
     0
 40
0.0
176
     0
 90
        0
176
     0
290
     0
176
     0
290
     1
176
     0
290
     1
176
     0
290
     0
176
     0
290
     0
176
     0
290
     0
176
     0
290
     0
176
     0
290
     0
176
     0
290
     0
176
     0
 90
       50
176
     0
 40
0.0
176
     0
 40
1.0
176
     0
 90
        0
176
     0
 62
    18
420
        0
176
     0
 90
       50
176
     0
 90
        3
176
     0
 62
     5
420
      255
176
     0
290
     0
176
     0
 90
       50
176
     0
 90
       50
176
     0
 90
       50
176
     0
290
     0
176
     0
 90
       50
176
     0
 62
   256
176
     0
 40
1.0
176
     0
 90
        2
176
     0
  1
strokes_ogs.tif
176
     0
290
     0
176
     0
 40
1.0
176
     0
 40
1.0
176
     0
  0
VISUALSTYLE
  5
38
102
{ACAD_REACTORS
330
2A
102
}
330
2A
100
AcDbVisualStyle
  2
Linepattern
 70
    14
177
     3
291
     1
 70
    58
 90
        2
176
     1
 90
        2
176
     1
 90
        0
176
     1
 90
        0
176
     1
 40
0.6
176
     1
 40
30.0
176
     1
 62
     7
420
 16777215
176
     1
 90
        1
176
     1
 90
        4
176
     1
 62
     7
176
     1
 62
   257
176
     1
 90
        7
176
     1
 90
        7
176
     1
 40
1.0
176
     1
 90
        8
176
     1
 62
     7
176
     1
 40
1.0
176
     1
 90
        1
176
     1
 90
        6
176
     1
 90
        2
176
     1
 62
     7
176
     1
 90
        5
176
     1
 90
        0
176
     1
 90
        0
176
     1
290
     0
176
     1
 90
        1
176
     1
 40
0.0
176
     1
 90
        0
176
     1
290
     0
176
     1
290
     1
176
     1
290
     1
176
     1
290
     0
176
     1
290
     0
176
     1
290
     0
176
     1
290
     0
176
     1
290
     0
176
     1
290
     0
176
     1
 90
       50
176
     1
 40
0.0
176
     1
 40
1.0
176
     1
 90
        0
176
     1
 62
    18
420
        0
176
     1
 90
       50
176
     1
 90
        3
176
     1
 62
     5
420
      255
176
     1
290
     0
176
     1
 90
       50
176
     1
 90
       50
176
     1
 90
       50
176
     1
290
     0
176
     1
 90
       50
176
     1
 62
   256
176
     0
 40
1.0
176
     0
 90
        2
176
     1
  1
strokes_ogs.tif
176
     1
290
     0
176
     1
 40
1.0
176
     1
 40
1.0
176
     1
  0
VISUALSTYLE
  5
3C
102
{ACAD_REACTORS
330
2A
102
}
330
2A
100
AcDbVisualStyle
  2
OverhangOff
 70
    21
177
     3
291
     1
 70
    58
 90
        2
176
     0
 90
        2
176
     0
 90
        0
176
     0
 90
        0
176
     0
 40
0.6
176
     0
 40
30.0
176
     0
 62
     7
420
 16777215
176
     0
 90
        1
176
     0
 90
        4
176
     0
 62
     7
176
     0
 62
   257
176
     0
 90
        1
176
     0
 90
        1
176
     0
 40
1.0
176
     0
 90
        9
176
     2
 62
     7
176
     0
 40
1.0
176
     0
 90
        1
176
     0
 90
        6
176
     0
 90
        2
176
     0
 62
     7
176
     0
 90
        5
176
     0
 90
        0
176
     0
 90
        0
176
     0
290
     0
176
     0
 90
        1
176
     0
 40
0.0
176
     0
 90
        0
176
     0
290
     0
176
     0
290
     1
176
     0
290
     1
176
     0
290
     0
176
     0
290
     0
176
     0
290
     0
176
     0
290
     0
176
     0
290
     0
176
     0
290
     0
176
     0
 90
       50
176
     0
 40
0.0
176
     0
 40
1.0
176
     0
 90
        0
176
     0
 62
    18
420
        0
176
     0
 90
       50
176
     0
 90
        3
176
     0
 62
     5
420
      255
176
     0
290
     0
176
     0
 90
       50
176
     0
 90
       50
176
     0
 90
       50
176
     0
290
     0
176
     0
 90
       50
176
     0
 62
   256
176
     0
 40
1.0
176
     0
 90
        2
176
     0
  1
strokes_ogs.tif
176
     0
290
     0
176
     0
 40
1.0
176
     0
 40
1.0
176
     0
  0
VISUALSTYLE
  5
33
102
{ACAD_REACTORS
330
2A
102
}
330
2A
100
AcDbVisualStyle
  2
Realistic
 70
     8
177
     3
291
     0
 70
    58
 90
        2
176
     1
 90
        3
176
     1
 90
        0
176
     1
 90
        2
176
     1
 40
0.6
176
     1
 40
30.0
176
     1
 62
     7
420
 16777215
176
     1
 90
        0
176
     1
 90
        0
176
     1
 62
     7
176
     1
 62
   257
176
     1
 90
        1
176
     1
 90
        1
176
     1
 40
1.0
176
     1
 90
        8
176
     1
 62
   257
176
     1
 40
1.0
176
     1
 90
        1
176
     1
 90
        6
176
     1
 90
        2
176
     1
 62
     7
176
     1
 90
        3
176
     1
 90
        0
176
     1
 90
        0
176
     1
290
     0
176
     1
 90
       13
176
     1
 40
0.0
176
     1
 90
        0
176
     1
290
     0
176
     1
290
     1
176
     1
290
     1
176
     1
290
     0
176
     1
290
     0
176
     1
290
     0
176
     1
290
     0
176
     1
290
     0
176
     1
290
     0
176
     1
 90
       50
176
     1
 40
0.0
176
     1
 40
1.0
176
     1
 90
        0
176
     1
 62
    18
420
        0
176
     1
 90
       50
176
     1
 90
        3
176
     1
 62
     5
420
      255
176
     1
290
     0
176
     1
 90
       50
176
     1
 90
       50
176
     1
 90
       50
176
     1
290
     0
176
     1
 90
       50
176
     1
 62
   256
176
     0
 40
1.0
176
     0
 90
        2
176
     1
  1
strokes_ogs.tif
176
     1
290
     0
176
     1
 40
1.0
176
     1
 40
1.0
176
     1
  0
VISUALSTYLE
  5
42
102
{ACAD_REACTORS
330
2A
102
}
330
2A
100
AcDbVisualStyle
  2
Shaded
 70
    27
177
     3
291
     0
 70
    58
 90
        2
176
     1
 90
        2
176
     1
 90
        1
176
     1
 90
        2
176
     1
 40
0.6
176
     1
 40
30.0
176
     1
 62
     7
420
 16777215
176
     1
 90
        0
176
     1
 90
        4
176
     1
 62
     7
176
     1
 62
   257
176
     1
 90
        1
176
     1
 90
        1
176
     1
 40
1.0
176
     1
 90
        8
176
     1
 62
   257
176
     1
 40
1.0
176
     1
 90
        1
176
     1
 90
        6
176
     1
 90
        2
176
     1
 62
     8
420
  7895160
176
     1
 90
        3
176
     1
 90
        0
176
     1
 90
        0
176
     1
290
     0
176
     1
 90
        5
176
     1
 40
0.0
176
     1
 90
        0
176
     1
290
     0
176
     1
290
     1
176
     1
290
     1
176
     1
290
     0
176
     1
290
     0
176
     1
290
     0
176
     1
290
     0
176
     1
290
     0
176
     1
290
     0
176
     1
 90
       50
176
     1
 40
0.0
176
     1
 40
1.0
176
     1
 90
        0
176
     1
 62
    18
420
        0
176
     1
 90
       50
176
     1
 90
        3
176
     1
 62
     5
420
      255
176
     1
290
     0
176
     1
 90
       50
176
     1
 90
       50
176
     1
 90
       50
176
     1
290
     0
176
     1
 90
       50
176
     1
 62
   256
176
     0
 40
1.0
176
     0
 90
        2
176
     1
  1
strokes_ogs.tif
176
     1
290
     0
176
     1
 40
1.0
176
     1
 40
1.0
176
     1
  0
VISUALSTYLE
  5
41
102
{ACAD_REACTORS
330
2A
102
}
330
2A
100
AcDbVisualStyle
  2
Shaded with edges
 70
    26
177
     3
291
     0
 70
    58
 90
        2
176
     1
 90
        2
176
     1
 90
        1
176
     1
 90
        2
176
     1
 40
0.6
176
     1
 40
30.0
176
     1
 62
     7
420
 16777215
176
     1
 90
        1
176
     1
 90
       10
176
     1
 62
     7
176
     1
 62
   257
176
     1
 90
        2
176
     1
 90
        1
176
     1
 40
1.0
176
     1
 90
        8
176
     1
 62
   257
176
     1
 40
1.0
176
     1
 90
        1
176
     1
 90
        6
176
     1
 90
        2
176
     1
 62
     7
176
     1
 90
        3
176
     1
 90
        0
176
     1
 90
        0
176
     1
290
     0
176
     1
 90
        5
176
     1
 40
0.0
176
     1
 90
        0
176
     1
290
     0
176
     1
290
     1
176
     1
290
     1
176
     1
290
     0
176
     1
290
     0
176
     1
290
     0
176
     1
290
     0
176
     1
290
     0
176
     1
290
     0
176
     1
 90
       50
176
     1
 40
0.0
176
     1
 40
1.0
176
     1
 90
        0
176
     1
 62
    18
420
        0
176
     1
 90
       50
176
     1
 90
        3
176
     1
 62
     5
420
      255
176
     1
290
     0
176
     1
 90
       50
176
     1
 90
       50
176
     1
 90
       50
176
     1
290
     0
176
     1
 90
       50
176
     1
 62
   256
176
     0
 40
1.0
176
     0
 90
        2
176
     1
  1
strokes_ogs.tif
176
     1
290
     0
176
     1
 40
1.0
176
     1
 40
1.0
176
     1
  0
VISUALSTYLE
  5
3E
102
{ACAD_REACTORS
330
2A
102
}
330
2A
100
AcDbVisualStyle
  2
Shades of Gray
 70
    23
177
     3
291
     0
 70
    58
 90
        2
176
     1
 90
        2
176
     1
 90
        3
176
     1
 90
        0
176
     1
 40
0.6
176
     1
 40
30.0
176
     1
 62
     7
420
 16777215
176
     1
 90
        2
176
     1
 90
        2
176
     1
 62
     7
176
     1
 62
     7
176
     1
 90
        1
176
     1
 90
        1
176
     1
 40
40.0
176
     1
 90
        8
176
     1
 62
     7
176
     1
 40
1.0
176
     1
 90
        1
176
     1
 90
        6
176
     1
 90
        2
176
     1
 62
     7
176
     1
 90
        3
176
     1
 90
        0
176
     1
 90
        0
176
     1
290
     0
176
     1
 90
        1
176
     1
 40
0.0
176
     1
 90
        0
176
     1
290
     0
176
     1
290
     1
176
     1
290
     1
176
     1
290
     0
176
     1
290
     0
176
     1
290
     0
176
     1
290
     0
176
     1
290
     0
176
     1
290
     0
176
     1
 90
       50
176
     1
 40
0.0
176
     1
 40
1.0
176
     1
 90
        0
176
     1
 62
    18
420
        0
176
     1
 90
       50
176
     1
 90
        3
176
     1
 62
     5
420
      255
176
     1
290
     0
176
     1
 90
       50
176
     1
 90
       50
176
     1
 90
       50
176
     1
290
     0
176
     1
 90
       50
176
     1
 62
   256
176
     0
 40
1.0
176
     0
 90
        2
176
     1
  1
strokes_ogs.tif
176
     1
290
     0
176
     1
 40
1.0
176
     1
 40
1.0
176
     1
  0
VISUALSTYLE
  5
3F
102
{ACAD_REACTORS
330
2A
102
}
330
2A
100
AcDbVisualStyle
  2
Sketchy
 70
    24
177
     3
291
     0
 70
    58
 90
        1
176
     1
 90
        2
176
     1
 90
        2
176
     1
 90
        0
176
     1
 40
0.6
176
     1
 40
30.0
176
     1
 62
     7
420
 16777215
176
     1
 90
        2
176
     1
 90
        2
176
     1
 62
     7
176
     1
 62
     7
176
     1
 90
        1
176
     1
 90
        1
176
     1
 40
40.0
176
     1
 90
       11
176
     1
 62
     7
176
     1
 40
1.0
176
     1
 90
        1
176
     1
 90
        6
176
     1
 90
        2
176
     1
 62
     7
176
     1
 90
        6
176
     1
 90
        0
176
     1
 90
        0
176
     1
290
     0
176
     1
 90
        1
176
     1
 40
0.0
176
     1
 90
        0
176
     1
290
     0
176
     1
290
     1
176
     1
290
     1
176
     1
290
     0
176
     1
290
     0
176
     1
290
     0
176
     1
290
     0
176
     1
290
     0
176
     1
290
     0
176
     1
 90
       50
176
     1
 40
0.0
176
     1
 40
1.0
176
     1
 90
        0
176
     1
 62
    18
420
        0
176
     1
 90
       50
176
     1
 90
        3
176
     1
 62
     5
420
      255
176
     1
290
     0
176
     1
 90
       50
176
     1
 90
       50
176
     1
 90
       50
176
     1
290
     0
176
     1
 90
       50
176
     1
 62
   256
176
     0
 40
1.0
176
     0
 90
        2
176
     1
  1
strokes_ogs.tif
176
     1
290
     0
176
     1
 40
1.0
176
     1
 40
1.0
176
     1
  0
VISUALSTYLE
  5
37
102
{ACAD_REACTORS
330
2A
102
}
330
2A
100
AcDbVisualStyle
  2
Thicken
 70
    13
177
     3
291
     1
 70
    58
 90
        2
176
     1
 90
        2
176
     1
 90
        0
176
     1
 90
        0
176
     1
 40
0.6
176
     1
 40
30.0
176
     1
 62
     7
420
 16777215
176
     1
 90
        1
176
     1
 90
        4
176
     1
 62
     7
176
     1
 62
   257
176
     1
 90
        1
176
     1
 90
        1
176
     1
 40
1.0
176
     1
 90
       12
176
     1
 62
     7
176
     1
 40
1.0
176
     1
 90
        1
176
     1
 90
        6
176
     1
 90
        2
176
     1
 62
     7
176
     1
 90
        5
176
     1
 90
        0
176
     1
 90
        0
176
     1
290
     0
176
     1
 90
        1
176
     1
 40
0.0
176
     1
 90
        0
176
     1
290
     0
176
     1
290
     1
176
     1
290
     1
176
     1
290
     0
176
     1
290
     0
176
     1
290
     0
176
     1
290
     0
176
     1
290
     0
176
     1
290
     0
176
     1
 90
       50
176
     1
 40
0.0
176
     1
 40
1.0
176
     1
 90
        0
176
     1
 62
    18
420
        0
176
     1
 90
       50
176
     1
 90
        3
176
     1
 62
     5
420
      255
176
     1
290
     0
176
     1
 90
       50
176
     1
 90
       50
176
     1
 90
       50
176
     1
290
     0
176
     1
 90
       50
176
     1
 62
   256
176
     0
 40
1.0
176
     0
 90
        2
176
     1
  1
strokes_ogs.tif
176
     1
290
     0
176
     1
 40
1.0
176
     1
 40
1.0
176
     1
  0
VISUALSTYLE
  5
30
102
{ACAD_REACTORS
330
2A
102
}
330
2A
100
AcDbVisualStyle
  2
Wireframe
 70
     5
177
     3
291
     0
 70
    58
 90
        0
176
     1
 90
        2
176
     1
 90
        0
176
     1
 90
        0
176
     1
 40
0.6
176
     1
 40
30.0
176
     1
 62
     7
420
 16777215
176
     1
 90
        1
176
     1
 90
        4
176
     1
 62
     7
176
     1
 62
   257
176
     1
 90
        1
176
     1
 90
        1
176
     1
 40
1.0
176
     1
 90
        0
176
     1
 62
   257
176
     1
 40
1.0
176
     1
 90
        1
176
     1
 90
        6
176
     1
 90
        2
176
     1
 62
     7
176
     1
 90
        3
176
     1
 90
        0
176
     1
 90
        0
176
     1
290
     0
176
     1
 90
        1
176
     1
 40
0.0
176
     1
 90
        0
176
     1
290
     0
176
     1
290
     1
176
     1
290
     1
176
     1
290
     0
176
     1
290
     0
176
     1
290
     0
176
     1
290
     0
176
     1
290
     0
176
     1
290
     0
176
     1
 90
       50
176
     1
 40
0.0
176
     1
 40
1.0
176
     1
 90
        0
176
     1
 62
    18
420
        0
176
     1
 90
       50
176
     1
 90
        3
176
     1
 62
     5
420
      255
176
     1
290
     0
176
     1
 90
       50
176
     1
 90
       50
176
     1
 90
       50
176
     1
290
     0
176
     1
 90
       50
176
     1
 62
   256
176
     0
 40
1.0
176
     0
 90
        2
176
     1
  1
strokes_ogs.tif
176
     1
290
     0
176
     1
 40
1.0
176
     1
 40
1.0
176
     1
  0
VISUALSTYLE
  5
40
102
{ACAD_REACTORS
330
2A
102
}
330
2A
100
AcDbVisualStyle
  2
X-Ray
 70
    25
177
     3
291
     0
 70
    58
 90
        2
176
     1
 90
        2
176
     1
 90
        1
176
     1
 90
        1
176
     1
 40
0.5
176
     1
 40
30.0
176
     1
 62
     7
420
 16777215
176
     1
 90
        1
176
     1
 90
        0
176
     1
 62
     7
176
     1
 62
   257
176
     1
 90
        1
176
     1
 90
        1
176
     1
 40
1.0
176
     1
 90
        8
176
     1
 62
     7
176
     1
 40
1.0
176
     1
 90
        1
176
     1
 90
        6
176
     1
 90
        2
176
     1
 62
     7
176
     1
 90
        3
176
     1
 90
        0
176
     1
 90
        0
176
     1
290
     0
176
     1
 90
       13
176
     1
 40
0.0
176
     1
 90
        0
176
     1
290
     0
176
     1
290
     1
176
     1
290
     1
176
     1
290
     0
176
     1
290
     0
176
     1
290
     0
176
     1
290
     0
176
     1
290
     0
176
     1
290
     0
176
     1
 90
       50
176
     1
 40
0.0
176
     1
 40
1.0
176
     1
 90
        0
176
     1
 62
    18
420
        0
176
     1
 90
       50
176
     1
 90
        3
176
     1
 62
     5
420
      255
176
     1
290
     0
176
     1
 90
       50
176
     1
 90
       50
176
     1
 90
       50
176
     1
290
     0
176
     1
 90
       50
176
     1
 62
   256
176
     0
 40
1.0
176
     0
 90
        2
176
     1
  1
strokes_ogs.tif
176
     1
290
     0
176
     1
 40
1.0
176
     1
 40
1.0
176
     1
  0
DICTIONARYVAR
  5
2B9
102
{ACAD_REACTORS
330
2B8
102
}
330
2B8
100
DictionaryVariables
280
     0
  1
1:1
  0
DICTIONARYVAR
  5
2C1
102
{ACAD_REACTORS
330
2B8
102
}
330
2B8
100
DictionaryVariables
280
     0
  1
3.500000
  0
DICTIONARYVAR
  5
2C2
102
{ACAD_REACTORS
330
2B8
102
}
330
2B8
100
DictionaryVariables
280
     0
  1
acadiso.lin
  0
DICTIONARYVAR
  5
2BE
102
{ACAD_REACTORS
330
2B8
102
}
330
2B8
100
DictionaryVariables
280
     0
  1
Standard
  0
DICTIONARYVAR
  5
2BD
102
{ACAD_REACTORS
330
2B8
102
}
330
2B8
100
DictionaryVariables
280
     0
  1
Standard
  0
DICTIONARY
  5
2BA
330
6A
100
AcDbDictionary
280
     1
281
     1
  3
ACAD_ROUNDTRIP_2008_TABLESTYLE_CELLSTYLEMAP
360
2BB
  0
CELLSTYLEMAP
  5
2BB
102
{ACAD_REACTORS
330
2BA
102
}
330
2BA
100
AcDbCellStyleMap
 90
        3
300
CELLSTYLE
  1
TABLEFORMAT_BEGIN
 90
        5
170
     1
 91
        0
 92
    32768
 62
   257
 93
        1
300
CONTENTFORMAT
  1
CONTENTFORMAT_BEGIN
 90
        0
 91
        0
 92
        4
 93
        0
300

 40
0.0
140
1.0
 94
        5
 62
     0
340
11
144
6.0
309
CONTENTFORMAT_END
171
     1
301
MARGIN
  1
CELLMARGIN_BEGIN
 40
1.5
 40
1.5
 40
1.5
 40
1.5
 40
1.5
 40
1.5
309
CELLMARGIN_END
 94
        6
 95
        1
302
GRIDFORMAT
  1
GRIDFORMAT_BEGIN
 90
        0
 91
        1
 62
     0
 92
       -2
340
14
 93
        0
 40
0.045
309
GRIDFORMAT_END
 95
        2
302
GRIDFORMAT
  1
GRIDFORMAT_BEGIN
 90
        0
 91
        1
 62
     0
 92
       -2
340
14
 93
        0
 40
0.045
309
GRIDFORMAT_END
 95
        4
302
GRIDFORMAT
  1
GRIDFORMAT_BEGIN
 90
        0
 91
        1
 62
     0
 92
       -2
340
14
 93
        0
 40
0.045
309
GRIDFORMAT_END
 95
        8
302
GRIDFORMAT
  1
GRIDFORMAT_BEGIN
 90
        0
 91
        1
 62
     0
 92
       -2
340
14
 93
        0
 40
0.045
309
GRIDFORMAT_END
 95
       16
302
GRIDFORMAT
  1
GRIDFORMAT_BEGIN
 90
        0
 91
        1
 62
     0
 92
       -2
340
14
 93
        0
 40
0.045
309
GRIDFORMAT_END
 95
       32
302
GRIDFORMAT
  1
GRIDFORMAT_BEGIN
 90
        0
 91
        1
 62
     0
 92
       -2
340
14
 93
        0
 40
0.045
309
GRIDFORMAT_END
309
TABLEFORMAT_END
  1
CELLSTYLE_BEGIN
 90
        1
 91
        1
300
_TITLE
309
CELLSTYLE_END
300
CELLSTYLE
  1
TABLEFORMAT_BEGIN
 90
        5
170
     1
 91
        0
 92
        0
 62
   257
 93
        1
300
CONTENTFORMAT
  1
CONTENTFORMAT_BEGIN
 90
        0
 91
        0
 92
        4
 93
        0
300

 40
0.0
140
1.0
 94
        5
 62
     0
340
11
144
4.5
309
CONTENTFORMAT_END
171
     1
301
MARGIN
  1
CELLMARGIN_BEGIN
 40
1.5
 40
1.5
 40
1.5
 40
1.5
 40
1.5
 40
1.5
309
CELLMARGIN_END
 94
        6
 95
        1
302
GRIDFORMAT
  1
GRIDFORMAT_BEGIN
 90
        0
 91
        1
 62
     0
 92
       -2
340
14
 93
        0
 40
0.045
309
GRIDFORMAT_END
 95
        2
302
GRIDFORMAT
  1
GRIDFORMAT_BEGIN
 90
        0
 91
        1
 62
     0
 92
       -2
340
14
 93
        0
 40
0.045
309
GRIDFORMAT_END
 95
        4
302
GRIDFORMAT
  1
GRIDFORMAT_BEGIN
 90
        0
 91
        1
 62
     0
 92
       -2
340
14
 93
        0
 40
0.045
309
GRIDFORMAT_END
 95
        8
302
GRIDFORMAT
  1
GRIDFORMAT_BEGIN
 90
        0
 91
        1
 62
     0
 92
       -2
340
14
 93
        0
 40
0.045
309
GRIDFORMAT_END
 95
       16
302
GRIDFORMAT
  1
GRIDFORMAT_BEGIN
 90
        0
 91
        1
 62
     0
 92
       -2
340
14
 93
        0
 40
0.045
309
GRIDFORMAT_END
 95
       32
302
GRIDFORMAT
  1
GRIDFORMAT_BEGIN
 90
        0
 91
        1
 62
     0
 92
       -2
340
14
 93
        0
 40
0.045
309
GRIDFORMAT_END
309
TABLEFORMAT_END
  1
CELLSTYLE_BEGIN
 90
        2
 91
        1
300
_HEADER
309
CELLSTYLE_END
300
CELLSTYLE
  1
TABLEFORMAT_BEGIN
 90
        5
170
     1
 91
        0
 92
        0
 62
   257
 93
        1
300
CONTENTFORMAT
  1
CONTENTFORMAT_BEGIN
 90
        0
 91
        0
 92
        4
 93
        0
300

 40
0.0
140
1.0
 94
        2
 62
     0
340
11
144
4.5
309
CONTENTFORMAT_END
171
     1
301
MARGIN
  1
CELLMARGIN_BEGIN
 40
1.5
 40
1.5
 40
1.5
 40
1.5
 40
1.5
 40
1.5
309
CELLMARGIN_END
 94
        6
 95
        1
302
GRIDFORMAT
  1
GRIDFORMAT_BEGIN
 90
        0
 91
        1
 62
     0
 92
       -2
340
14
 93
        0
 40
0.045
309
GRIDFORMAT_END
 95
        2
302
GRIDFORMAT
  1
GRIDFORMAT_BEGIN
 90
        0
 91
        1
 62
     0
 92
       -2
340
14
 93
        0
 40
0.045
309
GRIDFORMAT_END
 95
        4
302
GRIDFORMAT
  1
GRIDFORMAT_BEGIN
 90
        0
 91
        1
 62
     0
 92
       -2
340
14
 93
        0
 40
0.045
309
GRIDFORMAT_END
 95
        8
302
GRIDFORMAT
  1
GRIDFORMAT_BEGIN
 90
        0
 91
        1
 62
     0
 92
       -2
340
14
 93
        0
 40
0.045
309
GRIDFORMAT_END
 95
       16
302
GRIDFORMAT
  1
GRIDFORMAT_BEGIN
 90
        0
 91
        1
 62
     0
 92
       -2
340
14
 93
        0
 40
0.045
309
GRIDFORMAT_END
 95
       32
302
GRIDFORMAT
  1
GRIDFORMAT_BEGIN
 90
        0
 91
        1
 62
     0
 92
       -2
340
14
 93
        0
 40
0.045
309
GRIDFORMAT_END
309
TABLEFORMAT_END
  1
CELLSTYLE_BEGIN
 90
        3
 91
        2
300
_DATA
309
CELLSTYLE_END
  0
ENDSEC
  0
EOF
