  0
SECTION
  2
HEADER
  9
$ACADVER
  1
AC1018
  9
$ACADMAINTVER
 70
     0
  9
$DWGCODEPAGE
  3
ANSI_932
  9
$INSBASE
 10
0.0
 20
0.0
 30
0.0
  9
$EXTMIN
 10
-1050.0
 20
-742.5
 30
0.0
  9
$EXTMAX
 10
1050.0
 20
742.5
 30
0.0
  9
$LIMMIN
 10
-1050.0
 20
-742.5
  9
$LIMMAX
 10
1050.0
 20
742.5
  9
$ORTHOMODE
 70
     0
  9
$REGENMODE
 70
     1
  9
$FILLMODE
 70
     1
  9
$QTEXTMODE
 70
     0
  9
$MIRRTEXT
 70
     1
  9
$LTSCALE
 40
5.0
  9
$ATTMODE
 70
     1
  9
$TEXTSIZE
 40
2.5
  9
$TRACEWID
 40
1.0
  9
$TEXTSTYLE
  7
Standard
  9
$CLAYER
  8
0
  9
$CELTYPE
  6
ByLayer
  9
$CECOLOR
 62
   256
  9
$CELTSCALE
 40
1.0
  9
$DISPSILH
 70
     0
  9
$DIMSCALE
 40
1.0
  9
$DIMASZ
 40
2.5
  9
$DIMEXO
 40
0.625
  9
$DIMDLI
 40
3.75
  9
$DIMRND
 40
0.0
  9
$DIMDLE
 40
0.0
  9
$DIMEXE
 40
1.25
  9
$DIMTP
 40
0.0
  9
$DIMTM
 40
0.0
  9
$DIMTXT
 40
2.5
  9
$DIMCEN
 40
2.5
  9
$DIMTSZ
 40
0.0
  9
$DIMTOL
 70
     0
  9
$DIMLIM
 70
     0
  9
$DIMTIH
 70
     0
  9
$DIMTOH
 70
     0
  9
$DIMSE1
 70
     0
  9
$DIMSE2
 70
     0
  9
$DIMTAD
 70
     1
  9
$DIMZIN
 70
     8
  9
$DIMBLK
  1

  9
$DIMASO
 70
     1
  9
$DIMSHO
 70
     1
  9
$DIMPOST
  1

  9
$DIMAPOST
  1

  9
$DIMALT
 70
     0
  9
$DIMALTD
 70
     3
  9
$DIMALTF
 40
0.03937007874016
  9
$DIMLFAC
 40
1.0
  9
$DIMTOFL
 70
     1
  9
$DIMTVP
 40
0.0
  9
$DIMTIX
 70
     0
  9
$DIMSOXD
 70
     0
  9
$DIMSAH
 70
     0
  9
$DIMBLK1
  1

  9
$DIMBLK2
  1

  9
$DIMSTYLE
  2
ISO-25
  9
$DIMCLRD
 70
     0
  9
$DIMCLRE
 70
     0
  9
$DIMCLRT
 70
     0
  9
$DIMTFAC
 40
1.0
  9
$DIMGAP
 40
0.625
  9
$DIMJUST
 70
     0
  9
$DIMSD1
 70
     0
  9
$DIMSD2
 70
     0
  9
$DIMTOLJ
 70
     0
  9
$DIMTZIN
 70
     8
  9
$DIMALTZ
 70
     0
  9
$DIMALTTZ
 70
     0
  9
$DIMUPT
 70
     0
  9
$DIMDEC
 70
     2
  9
$DIMTDEC
 70
     2
  9
$DIMALTU
 70
     2
  9
$DIMALTTD
 70
     3
  9
$DIMTXSTY
  7
Standard
  9
$DIMAUNIT
 70
     0
  9
$DIMADEC
 70
     0
  9
$DIMALTRND
 40
0.0
  9
$DIMAZIN
 70
     0
  9
$DIMDSEP
 70
    44
  9
$DIMATFIT
 70
     3
  9
$DIMFRAC
 70
     0
  9
$DIMLDRBLK
  1

  9
$DIMLUNIT
 70
     2
  9
$DIMLWD
 70
    -2
  9
$DIMLWE
 70
    -2
  9
$DIMTMOVE
 70
     0
  9
$LUNITS
 70
     2
  9
$LUPREC
 70
     4
  9
$SKETCHINC
 40
1.0
  9
$FILLETRAD
 40
10.0
  9
$AUNITS
 70
     0
  9
$AUPREC
 70
     0
  9
$MENU
  1
.
  9
$ELEVATION
 40
0.0
  9
$PELEVATION
 40
0.0
  9
$THICKNESS
 40
0.0
  9
$LIMCHECK
 70
     0
  9
$CHAMFERA
 40
0.0
  9
$CHAMFERB
 40
0.0
  9
$CHAMFERC
 40
0.0
  9
$CHAMFERD
 40
0.0
  9
$SKPOLY
 70
     0
  9
$TDCREATE
 40
2460398.684535278
  9
$TDUCREATE
 40
2460398.309535278
  9
$TDUPDATE
 40
2460398.684535463
  9
$TDUUPDATE
 40
2460398.309535463
  9
$TDINDWG
 40
0.0000000116
  9
$TDUSRTIMER
 40
0.0000000116
  9
$USRTIMER
 70
     1
  9
$ANGBASE
 50
0.0
  9
$ANGDIR
 70
     0
  9
$PDMODE
 70
     0
  9
$PDSIZE
 40
0.0
  9
$PLINEWID
 40
0.0
  9
$SPLFRAME
 70
     0
  9
$SPLINETYPE
 70
     6
  9
$SPLINESEGS
 70
     8
  9
$HANDSEED
  5
440
  9
$SURFTAB1
 70
     6
  9
$SURFTAB2
 70
     6
  9
$SURFTYPE
 70
     6
  9
$SURFU
 70
     6
  9
$SURFV
 70
     6
  9
$UCSBASE
  2

  9
$UCSNAME
  2

  9
$UCSORG
 10
0.0
 20
0.0
 30
0.0
  9
$UCSXDIR
 10
1.0
 20
0.0
 30
0.0
  9
$UCSYDIR
 10
0.0
 20
1.0
 30
0.0
  9
$UCSORTHOREF
  2

  9
$UCSORTHOVIEW
 70
     0
  9
$UCSORGTOP
 10
0.0
 20
0.0
 30
0.0
  9
$UCSORGBOTTOM
 10
0.0
 20
0.0
 30
0.0
  9
$UCSORGLEFT
 10
0.0
 20
0.0
 30
0.0
  9
$UCSORGRIGHT
 10
0.0
 20
0.0
 30
0.0
  9
$UCSORGFRONT
 10
0.0
 20
0.0
 30
0.0
  9
$UCSORGBACK
 10
0.0
 20
0.0
 30
0.0
  9
$PUCSBASE
  2

  9
$PUCSNAME
  2

  9
$PUCSORG
 10
0.0
 20
0.0
 30
0.0
  9
$PUCSXDIR
 10
1.0
 20
0.0
 30
0.0
  9
$PUCSYDIR
 10
0.0
 20
1.0
 30
0.0
  9
$PUCSORTHOREF
  2

  9
$PUCSORTHOVIEW
 70
     0
  9
$PUCSORGTOP
 10
0.0
 20
0.0
 30
0.0
  9
$PUCSORGBOTTOM
 10
0.0
 20
0.0
 30
0.0
  9
$PUCSORGLEFT
 10
0.0
 20
0.0
 30
0.0
  9
$PUCSORGRIGHT
 10
0.0
 20
0.0
 30
0.0
  9
$PUCSORGFRONT
 10
0.0
 20
0.0
 30
0.0
  9
$PUCSORGBACK
 10
0.0
 20
0.0
 30
0.0
  9
$USERI1
 70
     0
  9
$USERI2
 70
     0
  9
$USERI3
 70
     0
  9
$USERI4
 70
     0
  9
$USERI5
 70
     0
  9
$USERR1
 40
0.0
  9
$USERR2
 40
0.0
  9
$USERR3
 40
0.0
  9
$USERR4
 40
0.0
  9
$USERR5
 40
0.0
  9
$WORLDVIEW
 70
     1
  9
$SHADEDGE
 70
     3
  9
$SHADEDIF
 70
    70
  9
$TILEMODE
 70
     1
  9
$MAXACTVP
 70
    64
  9
$PINSBASE
 10
0.0
 20
0.0
 30
0.0
  9
$PLIMCHECK
 70
     0
  9
$PEXTMIN
 10
1.000000000000000E+20
 20
1.000000000000000E+20
 30
1.000000000000000E+20
  9
$PEXTMAX
 10
-1.000000000000000E+20
 20
-1.000000000000000E+20
 30
-1.000000000000000E+20
  9
$PLIMMIN
 10
0.0
 20
0.0
  9
$PLIMMAX
 10
420.0
 20
297.0
  9
$UNITMODE
 70
     0
  9
$VISRETAIN
 70
     1
  9
$PLINEGEN
 70
     0
  9
$PSLTSCALE
 70
     1
  9
$TREEDEPTH
 70
  3020
  9
$CMLSTYLE
  2
Standard
  9
$CMLJUST
 70
     0
  9
$CMLSCALE
 40
20.0
  9
$PROXYGRAPHICS
 70
     1
  9
$MEASUREMENT
 70
     1
  9
$CELWEIGHT
370
    -1
  9
$ENDCAPS
280
     0
  9
$JOINSTYLE
280
     0
  9
$LWDISPLAY
290
     0
  9
$INSUNITS
 70
     4
  9
$HYPERLINKBASE
  1

  9
$STYLESHEET
  1

  9
$XEDIT
290
     1
  9
$CEPSNTYPE
380
     0
  9
$PSTYLEMODE
290
     1
  9
$FINGERPRINTGUID
  2
{BDFEB063-BBBF-41B9-AB22-9C2DFFE6AF10}
  9
$VERSIONGUID
  2
{FAEB1C32-E019-11D5-929B-00C0DF256EC4}
  9
$EXTNAMES
290
     1
  9
$PSVPSCALE
 40
0.0
  9
$OLESTARTUP
290
     0
  9
$SORTENTS
280
   127
  9
$INDEXCTL
280
     0
  9
$HIDETEXT
280
     1
  9
$XCLIPFRAME
290
     0
  9
$HALOGAP
280
     0
  9
$OBSCOLOR
 70
   257
  9
$OBSLTYPE
280
     0
  9
$INTERSECTIONDISPLAY
280
     0
  9
$INTERSECTIONCOLOR
 70
   257
  9
$DIMASSOC
280
     2
  9
$PROJECTNAME
  1

  0
ENDSEC
  0
SECTION
  2
CLASSES
  0
CLASS
  1
ACDBDICTIONARYWDFLT
  2
AcDbDictionaryWithDefault
  3
ObjectDBX Classes
 90
        0
 91
        4
280
     0
281
     0
  0
CLASS
  1
VISUALSTYLE
  2
AcDbVisualStyle
  3
ObjectDBX Classes
 90
     4095
 91
        4
280
     0
281
     0
  0
CLASS
  1
MATERIAL
  2
AcDbMaterial
  3
ObjectDBX Classes
 90
     1153
 91
        4
280
     0
281
     0
  0
CLASS
  1
SCALE
  2
AcDbScale
  3
ObjectDBX Classes
 90
     1153
 91
        4
280
     0
281
     0
  0
CLASS
  1
TABLESTYLE
  2
AcDbTableStyle
  3
ObjectDBX Classes
 90
     4095
 91
        4
280
     0
281
     0
  0
CLASS
  1
MLEADERSTYLE
  2
AcDbMLeaderStyle
  3
ACDB_MLEADERSTYLE_CLASS
 90
     4095
 91
        4
280
     0
281
     0
  0
CLASS
  1
SUN
  2
AcDbSun
  3
SCENEOE
 90
     1153
 91
        4
280
     0
281
     0
  0
CLASS
  1
DICTIONARYVAR
  2
AcDbDictionaryVar
  3
ObjectDBX Classes
 90
        0
 91
        4
280
     0
281
     0
  0
CLASS
  1
CELLSTYLEMAP
  2
AcDbCellStyleMap
  3
ObjectDBX Classes
 90
     1152
 91
        4
280
     0
281
     0
  0
ENDSEC
  0
SECTION
  2
TABLES
  0
TABLE
  2
VPORT
  5
8
102
{ACAD_XDICTIONARY
360
3F7
102
}
330
0
100
AcDbSymbolTable
 70
     1
  0
VPORT
  5
29
330
8
100
AcDbSymbolTableRecord
100
AcDbViewportTableRecord
  2
*Active
 70
     0
 10
0.0
 20
0.0
 11
1.0
 21
1.0
 12
0.0
 22
0.0
 13
0.0
 23
0.0
 14
10.0
 24
10.0
 15
10.0
 25
10.0
 16
0.0
 26
0.0
 36
1.0
 17
0.0
 27
0.0
 37
0.0
 40
1633.5
 41
1.414141414141414
 42
50.0
 43
0.0
 44
0.0
 50
0.0
 51
0.0
 71
     0
 72
 10000
 73
     1
 74
     3
 75
     0
 76
     0
 77
     0
 78
     0
281
     0
 65
     1
110
0.0
120
0.0
130
0.0
111
1.0
121
0.0
131
0.0
112
0.0
122
1.0
132
0.0
 79
     0
146
0.0
  0
ENDTAB
  0
TABLE
  2
LTYPE
  5
5
330
0
100
AcDbSymbolTable
 70
     7
  0
LTYPE
  5
14
330
5
100
AcDbSymbolTableRecord
100
AcDbLinetypeTableRecord
  2
ByBlock
 70
     0
  3

 72
    65
 73
     0
 40
0.0
  0
LTYPE
  5
15
330
5
100
AcDbSymbolTableRecord
100
AcDbLinetypeTableRecord
  2
ByLayer
 70
     0
  3

 72
    65
 73
     0
 40
0.0
  0
LTYPE
  5
16
330
5
100
AcDbSymbolTableRecord
100
AcDbLinetypeTableRecord
  2
Continuous
 70
     0
  3
Solid line
 72
    65
 73
     0
 40
0.0
  0
LTYPE
  5
6F
330
5
100
AcDbSymbolTableRecord
100
AcDbLinetypeTableRecord
  2
JWW_CENTER1
 70
     0
  3
-----  --  ----------  --  -----
 72
    65
 73
     4
 40
6.773333333333333
 49
4.233333333333333
 74
     0
 49
-0.8466666666666667
 74
     0
 49
0.8466666666666667
 74
     0
 49
-0.8466666666666667
 74
     0
  0
LTYPE
  5
70
330
5
100
AcDbSymbolTableRecord
100
AcDbLinetypeTableRecord
  2
JWW_DASHED3
 70
     0
  3
---  ------  ------  ------  ---
 72
    65
 73
     2
 40
3.386666666666667
 49
2.54
 74
     0
 49
-0.8466666666666667
 74
     0
  0
LTYPE
  5
71
330
5
100
AcDbSymbolTableRecord
100
AcDbLinetypeTableRecord
  2
JWW_CENTER2
 70
     0
  3
-------------  --  -------------
 72
    65
 73
     4
 40
13.54666666666667
 49
11.00666666666667
 74
     0
 49
-0.8466666666666667
 74
     0
 49
0.8466666666666667
 74
     0
 49
-0.8466666666666667
 74
     0
  0
LTYPE
  5
72
330
5
100
AcDbSymbolTableRecord
100
AcDbLinetypeTableRecord
  2
JWW_DASHED2
 70
     0
  3
--    ----    ----    ----    --
 72
    65
 73
     2
 40
3.386666666666667
 49
1.693333333333333
 74
     0
 49
-1.693333333333333
 74
     0
  0
LTYPE
  5
73
330
5
100
AcDbSymbolTableRecord
100
AcDbLinetypeTableRecord
  2
JWW_HOJO
 70
     0
  3
  -   -   -   -   -   -   -   - 
 72
    65
 73
     2
 40
1.693333333333333
 49
-1.27
 74
     0
 49
0.4233333333333333
 74
     0
  0
LTYPE
  5
74
330
5
100
AcDbSymbolTableRecord
100
AcDbLinetypeTableRecord
  2
JWW_PHANTOM1
 70
     0
  3
----  -  -  --------  -  -  ----
 72
    65
 73
     6
 40
6.773333333333333
 49
3.386666666666667
 74
     0
 49
-0.8466666666666667
 74
     0
 49
0.4233333333333333
 74
     0
 49
-0.8466666666666667
 74
     0
 49
0.4233333333333333
 74
     0
 49
-0.8466666666666667
 74
     0
  0
ENDTAB
  0
TABLE
  2
LAYER
  5
2
330
0
100
AcDbSymbolTable
 70
    16
  0
LAYER
  5
10
330
2
100
AcDbSymbolTableRecord
100
AcDbLayerTableRecord
  2
0
 70
     0
 62
     7
  6
Continuous
370
    -3
390
F
  0
LAYER
  5
75
330
2
100
AcDbSymbolTableRecord
100
AcDbLayerTableRecord
  2
D-6
 70
     0
 62
     7
  6
Continuous
370
    -3
390
F
  0
LAYER
  5
76
330
2
100
AcDbSymbolTableRecord
100
AcDbLayerTableRecord
  2
D-4
 70
     0
 62
     7
  6
Continuous
370
    -3
390
F
  0
LAYER
  5
77
330
2
100
AcDbSymbolTableRecord
100
AcDbLayerTableRecord
  2
D-5
 70
     0
 62
     7
  6
Continuous
370
    -3
390
F
  0
LAYER
  5
78
330
2
100
AcDbSymbolTableRecord
100
AcDbLayerTableRecord
  2
D-1
 70
     0
 62
     7
  6
Continuous
370
    -3
390
F
  0
LAYER
  5
79
330
2
100
AcDbSymbolTableRecord
100
AcDbLayerTableRecord
  2
1-0ﾚｲﾔ
 70
     0
 62
     7
  6
Continuous
370
    -3
390
F
  0
LAYER
  5
7A
330
2
100
AcDbSymbolTableRecord
100
AcDbLayerTableRecord
  2
1-4ﾚｲﾔ
 70
     0
 62
     7
  6
Continuous
370
    -3
390
F
  0
LAYER
  5
7B
330
2
100
AcDbSymbolTableRecord
100
AcDbLayerTableRecord
  2
D-2
 70
     0
 62
     7
  6
Continuous
370
    -3
390
F
  0
LAYER
  5
7C
330
2
100
AcDbSymbolTableRecord
100
AcDbLayerTableRecord
  2
1-5ﾚｲﾔ
 70
     0
 62
     7
  6
Continuous
370
    -3
390
F
  0
LAYER
  5
7D
330
2
100
AcDbSymbolTableRecord
100
AcDbLayerTableRecord
  2
寸法
 70
     0
 62
     7
  6
Continuous
370
    -3
390
F
  0
LAYER
  5
7E
330
2
100
AcDbSymbolTableRecord
100
AcDbLayerTableRecord
  2
その他
 70
     0
 62
     7
  6
Continuous
370
    -3
390
F
  0
LAYER
  5
7F
330
2
100
AcDbSymbolTableRecord
100
AcDbLayerTableRecord
  2
仕上
 70
     0
 62
     7
  6
Continuous
370
    -3
390
F
  0
LAYER
  5
80
330
2
100
AcDbSymbolTableRecord
100
AcDbLayerTableRecord
  2
躯体
 70
     0
 62
     7
  6
Continuous
370
    -3
390
F
  0
LAYER
  5
81
330
2
100
AcDbSymbolTableRecord
100
AcDbLayerTableRecord
  2
0-F
 70
     0
 62
     7
  6
Continuous
370
    -3
390
F
  0
LAYER
  5
82
330
2
100
AcDbSymbolTableRecord
100
AcDbLayerTableRecord
  2
通り芯
 70
     0
 62
     7
  6
Continuous
370
    -3
390
F
  0
LAYER
  5
83
330
2
100
AcDbSymbolTableRecord
100
AcDbLayerTableRecord
  2
F-4ﾚｲﾔ
 70
     0
 62
     7
  6
Continuous
370
    -3
390
F
  0
ENDTAB
  0
TABLE
  2
STYLE
  5
3
330
0
100
AcDbSymbolTable
 70
     2
  0
STYLE
  5
11
330
3
100
AcDbSymbolTableRecord
100
AcDbTextStyleTableRecord
  2
Standard
 70
     0
 40
0.0
 41
1.0
 50
0.0
 71
     0
 42
2.5
  3
txt
  4

  0
STYLE
  5
6E
330
3
100
AcDbSymbolTableRecord
100
AcDbTextStyleTableRecord
  2
ＭＳ ゴシック
 70
     0
 40
1.0
 41
1.0
 50
0.0
 71
     0
 42
2.5
  3

  4

1001
ACAD
1000
MS Gothic
1071
    32817
  0
ENDTAB
  0
TABLE
  2
VIEW
  5
6
330
0
100
AcDbSymbolTable
 70
     0
  0
ENDTAB
  0
TABLE
  2
UCS
  5
7
330
0
100
AcDbSymbolTable
 70
     0
  0
ENDTAB
  0
TABLE
  2
APPID
  5
9
330
0
100
AcDbSymbolTable
 70
     2
  0
APPID
  5
12
330
9
100
AcDbSymbolTableRecord
100
AcDbRegAppTableRecord
  2
ACAD
 70
     0
  0
APPID
  5
436
330
9
100
AcDbSymbolTableRecord
100
AcDbRegAppTableRecord
  2
ACAD_MLEADERVER
 70
     0
  0
ENDTAB
  0
TABLE
  2
DIMSTYLE
  5
A
330
0
100
AcDbSymbolTable
 70
     1
100
AcDbDimStyleTable
  0
DIMSTYLE
105
27
330
A
100
AcDbSymbolTableRecord
100
AcDbDimStyleTableRecord
  2
ISO-25
 70
     0
 41
2.5
 42
0.625
 43
3.75
 44
1.25
 73
     0
 74
     0
 77
     1
 78
     8
140
2.5
141
2.5
143
0.03937007874016
147
0.625
171
     3
172
     1
178
     0
271
     2
272
     2
274
     3
278
    44
283
     0
284
     8
340
11
  0
ENDTAB
  0
TABLE
  2
BLOCK_RECORD
  5
1
330
0
100
AcDbSymbolTable
 70
     1
  0
BLOCK_RECORD
  5
1F
330
1
100
AcDbSymbolTableRecord
100
AcDbBlockTableRecord
  2
*Model_Space
340
22
  0
BLOCK_RECORD
  5
1B
330
1
100
AcDbSymbolTableRecord
100
AcDbBlockTableRecord
  2
*Paper_Space
340
1E
  0
BLOCK_RECORD
  5
23
330
1
100
AcDbSymbolTableRecord
100
AcDbBlockTableRecord
  2
*Paper_Space0
340
26
  0
ENDTAB
  0
ENDSEC
  0
SECTION
  2
BLOCKS
  0
BLOCK
  5
20
330
1F
100
AcDbEntity
  8
0
100
AcDbBlockBegin
  2
*Model_Space
 70
     0
 10
0.0
 20
0.0
 30
0.0
  3
*Model_Space
  1

  0
ENDBLK
  5
21
330
1F
100
AcDbEntity
  8
0
100
AcDbBlockEnd
  0
BLOCK
  5
1C
330
1B
100
AcDbEntity
 67
     1
  8
0
100
AcDbBlockBegin
  2
*Paper_Space
 70
     0
 10
0.0
 20
0.0
 30
0.0
  3
*Paper_Space
  1

  0
ENDBLK
  5
1D
330
1B
100
AcDbEntity
 67
     1
  8
0
100
AcDbBlockEnd
  0
BLOCK
  5
24
330
23
100
AcDbEntity
  8
0
100
AcDbBlockBegin
  2
*Paper_Space0
 70
     0
 10
0.0
 20
0.0
 30
0.0
  3
*Paper_Space0
  1

  0
ENDBLK
  5
25
330
23
100
AcDbEntity
  8
0
100
AcDbBlockEnd
  0
ENDSEC
  0
SECTION
  2
ENTITIES
  0
LINE
  5
84
330
1F
100
AcDbEntity
  8
D-6
  6
Continuous
 62
     6
370
     9
100
AcDbLine
 10
625.0600644858765
 20
276.3126904709008
 30
0.0
 11
625.0600644858765
 21
61.39185110297301
 31
0.0
  0
LWPOLYLINE
  5
85
330
1F
100
AcDbEntity
  8
D-6
  6
Continuous
 62
     6
370
     9
100
AcDbPolyline
 90
        4
 70
     1
 43
1.0
 10
846.2299150707206
 20
233.0432770576823
 42
0.4142135623731
 10
845.7299150707206
 20
233.5432770576824
 42
0.4142135623731
 10
845.2299150707206
 20
233.0432770576823
 42
0.4142135623731
 10
845.7299150707206
 20
232.5432770576823
 42
0.4142135623731
  0
LWPOLYLINE
  5
86
330
1F
100
AcDbEntity
  8
D-6
  6
Continuous
 62
     6
370
     9
100
AcDbPolyline
 90
        4
 70
     1
 43
1.0
 10
880.3718930443431
 20
233.6874653213357
 42
0.4142135623731
 10
879.8718930443431
 20
234.1874653213358
 42
0.4142135623731
 10
879.3718930443431
 20
233.6874653213357
 42
0.4142135623731
 10
879.8718930443431
 20
233.1874653213357
 42
0.4142135623731
  0
LWPOLYLINE
  5
87
330
1F
100
AcDbEntity
  8
D-6
  6
Continuous
 62
     6
370
     9
100
AcDbPolyline
 90
        4
 70
     1
 43
1.0
 10
880.3718930443431
 20
294.885350368395
 42
0.4142135623731
 10
879.8718930443431
 20
295.385350368395
 42
0.4142135623731
 10
879.3718930443431
 20
294.885350368395
 42
0.4142135623731
 10
879.8718930443431
 20
294.3853503683949
 42
0.4142135623731
  0
LWPOLYLINE
  5
88
330
1F
100
AcDbEntity
  8
D-6
  6
Continuous
 62
     6
370
     9
100
AcDbPolyline
 90
        4
 70
     1
 43
1.0
 10
685.8270374210604
 20
240.7735362215215
 42
0.4142135623731
 10
685.3270374210604
 20
241.2735362215215
 42
0.4142135623731
 10
684.8270374210604
 20
240.7735362215215
 42
0.4142135623731
 10
685.3270374210604
 20
240.2735362215215
 42
0.4142135623731
  0
LWPOLYLINE
  5
89
330
1F
100
AcDbEntity
  8
D-6
  6
Continuous
 62
     6
370
     9
100
AcDbPolyline
 90
        4
 70
     1
 43
1.0
 10
685.8270374210604
 20
306.4807391141537
 42
0.4142135623731
 10
685.3270374210604
 20
306.9807391141537
 42
0.4142135623731
 10
684.8270374210604
 20
306.4807391141537
 42
0.4142135623731
 10
685.3270374210604
 20
305.9807391141537
 42
0.4142135623731
  0
LWPOLYLINE
  5
8A
330
1F
100
AcDbEntity
  8
D-6
  6
Continuous
 62
     6
370
     9
100
AcDbPolyline
 90
        4
 70
     1
 43
1.0
 10
642.8811531775095
 20
179.1461923320267
 42
0.4142135623731
 10
642.3811531775095
 20
179.6461923320268
 42
0.4142135623731
 10
641.8811531775095
 20
179.1461923320267
 42
0.4142135623731
 10
642.3811531775095
 20
178.6461923320267
 42
0.4142135623731
  0
LINE
  5
8B
330
1F
100
AcDbEntity
  8
D-6
  6
Continuous
 62
     6
370
     9
100
AcDbLine
 10
673.8099336962557
 20
331.3127635247068
 30
0.0
 11
886.0669899700099
 21
331.3127635247068
 31
0.0
  0
LINE
  5
8C
330
1F
100
AcDbEntity
  8
D-6
  6
Continuous
 62
     6
370
     9
100
AcDbLine
 10
725.3102824685766
 20
263.0924186265276
 30
0.0
 11
725.3102824685766
 21
275.5924186265276
 31
0.0
  0
LINE
  5
8D
330
1F
100
AcDbEntity
  8
D-6
  6
Continuous
 62
     6
370
     9
100
AcDbLine
 10
702.8103319565412
 20
275.5924186265276
 30
0.0
 11
725.3102824685766
 21
275.5924186265276
 31
0.0
  0
LINE
  5
8E
330
1F
100
AcDbEntity
  8
D-6
  6
Continuous
 62
     6
370
     9
100
AcDbLine
 10
702.8103319565412
 20
263.0925114004956
 30
0.0
 11
702.8103319565412
 21
275.5924186265276
 31
0.0
  0
LWPOLYLINE
  5
8F
330
1F
100
AcDbEntity
  8
D-6
  6
Continuous
 62
     6
370
     9
100
AcDbPolyline
 90
        4
 70
     1
 43
1.0
 10
659.7473933137478
 20
218.6557883865266
 42
0.4142135623731
 10
659.2473933137478
 20
219.1557883865266
 42
0.4142135623731
 10
658.7473933137478
 20
218.6557883865266
 42
0.4142135623731
 10
659.2473933137478
 20
218.1557883865266
 42
0.4142135623731
  0
LINE
  5
90
330
1F
100
AcDbEntity
  8
D-6
  6
Continuous
 62
     6
370
     9
100
AcDbLine
 10
725.3102824685766
 20
184.986751467755
 30
0.0
 11
725.3102824685766
 21
259.0924186265275
 31
0.0
  0
LINE
  5
91
330
1F
100
AcDbEntity
  8
D-6
  6
Continuous
 62
     6
370
     9
100
AcDbLine
 10
702.8103319565412
 20
184.986751467755
 30
0.0
 11
702.8103319565412
 21
259.0924186265275
 31
0.0
  0
LINE
  5
92
330
1F
100
AcDbEntity
  8
D-6
  6
Continuous
 62
     6
370
     9
100
AcDbLine
 10
675.0600644858764
 20
184.986751467755
 30
0.0
 11
886.0669899700099
 21
184.986751467755
 31
0.0
  0
LINE
  5
93
330
1F
100
AcDbEntity
  8
D-6
  6
Continuous
 62
     6
370
     9
100
AcDbLine
 10
718.2130530039831
 20
61.39185110297301
 30
0.0
 11
841.8079533687649
 21
184.986751467755
 31
0.0
  0
LINE
  5
94
330
1F
100
AcDbEntity
  8
D-6
  6
Continuous
 62
     6
370
     9
100
AcDbLine
 10
725.2841208158497
 20
61.39185110297245
 30
0.0
 11
848.8790211806315
 21
184.9867514677544
 31
0.0
  0
LINE
  5
95
330
1F
100
AcDbEntity
  8
D-6
  6
Continuous
 62
     6
370
     9
100
AcDbLine
 10
732.3551886277176
 20
61.39185110297458
 30
0.0
 11
855.9500889925005
 21
184.9867514677564
 31
0.0
  0
LINE
  5
96
330
1F
100
AcDbEntity
  8
D-6
  6
Continuous
 62
     6
370
     9
100
AcDbLine
 10
675.0600644858764
 20
184.986751467755
 30
0.0
 11
675.0600644858764
 21
61.39185110297301
 31
0.0
  0
LINE
  5
97
330
1F
100
AcDbEntity
  8
D-6
  6
JWW_CENTER1
 62
     6
370
     9
100
AcDbLine
 10
714.0603072125589
 20
145.249302470061
 30
0.0
 11
714.0603072125589
 21
281.583598433978
 31
0.0
  0
LINE
  5
98
330
1F
100
AcDbEntity
  8
D-6
  6
JWW_DASHED3
 62
     6
370
     9
100
AcDbLine
 10
702.8103319565412
 20
160.2448857081189
 30
0.0
 11
702.8103319565412
 21
184.986751467755
 31
0.0
  0
LINE
  5
99
330
1F
100
AcDbEntity
  8
D-6
  6
JWW_DASHED3
 62
     6
370
     9
100
AcDbLine
 10
725.3102824685766
 20
160.2448857081189
 30
0.0
 11
725.3102824685766
 21
184.986751467755
 31
0.0
  0
LWPOLYLINE
  5
9A
330
1F
100
AcDbEntity
  8
D-6
  6
Continuous
 62
     6
370
     9
100
AcDbPolyline
 90
        4
 70
     1
 43
1.0
 10
638.586564753155
 20
89.96873443373585
 42
0.4142135623731
 10
638.0865647531551
 20
90.46873443373585
 42
0.4142135623731
 10
637.5865647531551
 20
89.96873443373585
 42
0.4142135623731
 10
638.0865647531551
 20
89.46873443373583
 42
0.4142135623731
  0
LWPOLYLINE
  5
9B
330
1F
100
AcDbEntity
  8
D-6
  6
Continuous
 62
     6
370
     9
100
AcDbPolyline
 90
        4
 70
     1
 43
1.0
 10
664.7835541417207
 20
86.53306369425178
 42
0.4142135623731
 10
664.2835541417207
 20
87.03306369425178
 42
0.4142135623731
 10
663.7835541417207
 20
86.53306369425178
 42
0.4142135623731
 10
664.2835541417207
 20
86.03306369425177
 42
0.4142135623731
  0
LWPOLYLINE
  5
9C
330
1F
100
AcDbEntity
  8
D-6
  6
Continuous
 62
     6
370
     9
100
AcDbPolyline
 90
        4
 70
     1
 43
1.0
 10
741.0203387373302
 20
296.354330579718
 42
0.4142135623731
 10
740.5203387373302
 20
296.854330579718
 42
0.4142135623731
 10
740.0203387373302
 20
296.354330579718
 42
0.4142135623731
 10
740.5203387373302
 20
295.854330579718
 42
0.4142135623731
  0
LWPOLYLINE
  5
9D
330
1F
100
AcDbEntity
  8
D-6
  6
Continuous
 62
     6
370
     9
100
AcDbPolyline
 90
        4
 70
     1
 43
1.0
 10
746.1224309543182
 20
277.1233676079946
 42
0.4142135623731
 10
745.6224309543182
 20
277.6233676079946
 42
0.4142135623731
 10
745.1224309543182
 20
277.1233676079946
 42
0.4142135623731
 10
745.6224309543182
 20
276.6233676079946
 42
0.4142135623731
  0
LWPOLYLINE
  5
9E
330
1F
100
AcDbEntity
  8
D-6
  6
Continuous
 62
     6
370
     9
100
AcDbPolyline
 90
        4
 70
     1
 43
1.0
 10
673.5157340202607
 20
283.2066314051725
 42
0.4142135623731
 10
673.0157340202607
 20
283.7066314051725
 42
0.4142135623731
 10
672.5157340202607
 20
283.2066314051725
 42
0.4142135623731
 10
673.0157340202607
 20
282.7066314051724
 42
0.4142135623731
  0
LWPOLYLINE
  5
9F
330
1F
100
AcDbEntity
  8
D-6
  6
Continuous
 62
     6
370
     9
100
AcDbPolyline
 90
        4
 70
     1
 43
1.0
 10
790.0298591678193
 20
216.0944953201785
 42
0.4142135623731
 10
789.5298591678193
 20
216.5944953201785
 42
0.4142135623731
 10
789.0298591678193
 20
216.0944953201785
 42
0.4142135623731
 10
789.5298591678193
 20
215.5944953201785
 42
0.4142135623731
  0
LWPOLYLINE
  5
A0
330
1F
100
AcDbEntity
  8
D-6
  6
Continuous
 62
     6
370
     9
100
AcDbPolyline
 90
        4
 70
     1
 43
1.0
 10
801.0680394449564
 20
193.5766075548186
 42
0.4142135623731
 10
800.5680394449564
 20
194.0766075548186
 42
0.4142135623731
 10
800.0680394449564
 20
193.5766075548186
 42
0.4142135623731
 10
800.5680394449564
 20
193.0766075548186
 42
0.4142135623731
  0
LWPOLYLINE
  5
A1
330
1F
100
AcDbEntity
  8
D-6
  6
Continuous
 62
     6
370
     9
100
AcDbPolyline
 90
        4
 70
     1
 43
1.0
 10
757.798372758579
 20
193.1350803437332
 42
0.4142135623731
 10
757.298372758579
 20
193.6350803437332
 42
0.4142135623731
 10
756.798372758579
 20
193.1350803437332
 42
0.4142135623731
 10
757.298372758579
 20
192.6350803437332
 42
0.4142135623731
  0
LWPOLYLINE
  5
A2
330
1F
100
AcDbEntity
  8
D-6
  6
Continuous
 62
     6
370
     9
100
AcDbPolyline
 90
        4
 70
     1
 43
1.0
 10
865.972539474523
 20
187.8367538107074
 42
0.4142135623731
 10
865.472539474523
 20
188.3367538107074
 42
0.4142135623731
 10
864.972539474523
 20
187.8367538107074
 42
0.4142135623731
 10
865.472539474523
 20
187.3367538107074
 42
0.4142135623731
  0
LWPOLYLINE
  5
A3
330
1F
100
AcDbEntity
  8
D-6
  6
Continuous
 62
     6
370
     9
100
AcDbPolyline
 90
        4
 70
     1
 43
1.0
 10
884.0751551290281
 20
202.8486789876138
 42
0.4142135623731
 10
883.5751551290281
 20
203.3486789876138
 42
0.4142135623731
 10
883.0751551290281
 20
202.8486789876138
 42
0.4142135623731
 10
883.5751551290281
 20
202.3486789876138
 42
0.4142135623731
  0
LWPOLYLINE
  5
A4
330
1F
100
AcDbEntity
  8
D-6
  6
Continuous
 62
     6
370
     9
100
AcDbPolyline
 90
        4
 70
     1
 43
1.0
 10
827.2530559912757
 20
211.6546939198188
 42
0.4142135623731
 10
826.7530559912757
 20
212.1546939198188
 42
0.4142135623731
 10
826.2530559912757
 20
211.6546939198188
 42
0.4142135623731
 10
826.7530559912757
 20
211.1546939198188
 42
0.4142135623731
  0
LWPOLYLINE
  5
A5
330
1F
100
AcDbEntity
  8
D-6
  6
Continuous
 62
     6
370
     9
100
AcDbPolyline
 90
        4
 70
     1
 43
1.0
 10
762.1032630666621
 20
223.4287528820984
 42
0.4142135623731
 10
761.6032630666621
 20
223.9287528820984
 42
0.4142135623731
 10
761.1032630666621
 20
223.4287528820984
 42
0.4142135623731
 10
761.6032630666621
 20
222.9287528820984
 42
0.4142135623731
  0
LWPOLYLINE
  5
A6
330
1F
100
AcDbEntity
  8
D-6
  6
Continuous
 62
     6
370
     9
100
AcDbPolyline
 90
        4
 70
     1
 43
1.0
 10
794.6453435321699
 20
239.5423243990262
 42
0.4142135623731
 10
794.1453435321699
 20
240.0423243990262
 42
0.4142135623731
 10
793.6453435321699
 20
239.5423243990262
 42
0.4142135623731
 10
794.1453435321699
 20
239.0423243990262
 42
0.4142135623731
  0
LWPOLYLINE
  5
A7
330
1F
100
AcDbEntity
  8
D-6
  6
Continuous
 62
     6
370
     9
100
AcDbPolyline
 90
        4
 70
     1
 43
1.0
 10
829.9675204190088
 20
248.667220094793
 42
0.4142135623731
 10
829.4675204190088
 20
249.167220094793
 42
0.4142135623731
 10
828.9675204190088
 20
248.667220094793
 42
0.4142135623731
 10
829.4675204190088
 20
248.167220094793
 42
0.4142135623731
  0
LWPOLYLINE
  5
A8
330
1F
100
AcDbEntity
  8
D-6
  6
Continuous
 62
     6
370
     9
100
AcDbPolyline
 90
        4
 70
     1
 43
1.0
 10
727.5332074471759
 20
317.2375027716744
 42
0.4142135623731
 10
727.0332074471759
 20
317.7375027716744
 42
0.4142135623731
 10
726.5332074471759
 20
317.2375027716744
 42
0.4142135623731
 10
727.0332074471759
 20
316.7375027716744
 42
0.4142135623731
  0
LWPOLYLINE
  5
A9
330
1F
100
AcDbEntity
  8
D-6
  6
Continuous
 62
     6
370
     9
100
AcDbPolyline
 90
        4
 70
     1
 43
1.0
 10
734.3032913504867
 20
230.992520872976
 42
0.4142135623731
 10
733.8032913504867
 20
231.4925208729761
 42
0.4142135623731
 10
733.3032913504867
 20
230.992520872976
 42
0.4142135623731
 10
733.8032913504867
 20
230.492520872976
 42
0.4142135623731
  0
LWPOLYLINE
  5
AA
330
1F
100
AcDbEntity
  8
D-6
  6
Continuous
 62
     6
370
     9
100
AcDbPolyline
 90
        4
 70
     1
 43
1.0
 10
854.1043412916822
 20
299.870765802312
 42
0.4142135623731
 10
853.6043412916822
 20
300.370765802312
 42
0.4142135623731
 10
853.1043412916823
 20
299.870765802312
 42
0.4142135623731
 10
853.6043412916822
 20
299.3707658023119
 42
0.4142135623731
  0
LWPOLYLINE
  5
AB
330
1F
100
AcDbEntity
  8
D-6
  6
Continuous
 62
     6
370
     9
100
AcDbPolyline
 90
        4
 70
     1
 43
1.0
 10
862.6405340393349
 20
248.6536093163955
 42
0.4142135623731
 10
862.1405340393349
 20
249.1536093163955
 42
0.4142135623731
 10
861.640534039335
 20
248.6536093163955
 42
0.4142135623731
 10
862.1405340393349
 20
248.1536093163955
 42
0.4142135623731
  0
LWPOLYLINE
  5
AC
330
1F
100
AcDbEntity
  8
D-6
  6
Continuous
 62
     6
370
     9
100
AcDbPolyline
 90
        4
 70
     1
 43
1.0
 10
847.9229603364853
 20
200.085616096992
 42
0.4142135623731
 10
847.4229603364853
 20
200.585616096992
 42
0.4142135623731
 10
846.9229603364853
 20
200.085616096992
 42
0.4142135623731
 10
847.4229603364853
 20
199.5856160969919
 42
0.4142135623731
  0
LWPOLYLINE
  5
AD
330
1F
100
AcDbEntity
  8
D-6
  6
Continuous
 62
     6
370
     9
100
AcDbPolyline
 90
        4
 70
     1
 43
1.0
 10
649.3093032165307
 20
142.1719635762791
 42
0.4142135623731
 10
648.8093032165307
 20
142.6719635762791
 42
0.4142135623731
 10
648.3093032165307
 20
142.1719635762791
 42
0.4142135623731
 10
648.8093032165307
 20
141.6719635762791
 42
0.4142135623731
  0
LWPOLYLINE
  5
AE
330
1F
100
AcDbEntity
  8
D-4
  6
Continuous
 62
     7
370
     9
100
AcDbPolyline
 90
        4
 70
     1
 43
1.0
 10
660.5597979885333
 20
111.1270815468307
 42
0.4142135623731
 10
660.0597979885333
 20
111.6270815468307
 42
0.4142135623731
 10
659.5597979885333
 20
111.1270815468307
 42
0.4142135623731
 10
660.0597979885333
 20
110.6270815468307
 42
0.4142135623731
  0
LINE
  5
AF
330
1F
100
AcDbEntity
  8
D-4
  6
Continuous
 62
     7
370
     9
100
AcDbLine
 10
660.0597979885333
 20
111.1270815468307
 30
0.0
 11
625.0600644858765
 21
111.1270815468307
 31
0.0
  0
LWPOLYLINE
  5
B0
330
1F
100
AcDbEntity
  8
D-4
  6
Continuous
 62
     7
370
     9
100
AcDbPolyline
 90
        4
 70
     1
 43
1.0
 10
625.5600644858764
 20
111.1270815468307
 42
0.4142135623731
 10
625.0600644858765
 20
111.6270815468307
 42
0.4142135623731
 10
624.5600644858765
 20
111.1270815468307
 42
0.4142135623731
 10
625.0600644858765
 20
110.6270815468307
 42
0.4142135623731
  0
TEXT
  5
B1
330
1F
100
AcDbEntity
  8
D-4
  6
Continuous
 62
     2
370
   211
100
AcDbText
 10
631.934931237205
 20
116.4470815468307
 30
0.0
 40
15.24
  1
14
 41
1.062499999999996
  7
ＭＳ ゴシック
100
AcDbText
  0
LWPOLYLINE
  5
B2
330
1F
100
AcDbEntity
  8
D-4
  6
Continuous
 62
     7
370
     9
100
AcDbPolyline
 90
        4
 70
     1
 43
1.0
 10
738.0597979885324
 20
111.1270815468307
 42
0.4142135623731
 10
737.5597979885324
 20
111.6270815468307
 42
0.4142135623731
 10
737.0597979885325
 20
111.1270815468307
 42
0.4142135623731
 10
737.5597979885324
 20
110.6270815468307
 42
0.4142135623731
  0
LINE
  5
B3
330
1F
100
AcDbEntity
  8
D-4
  6
Continuous
 62
     7
370
     9
100
AcDbLine
 10
737.5597979885324
 20
109.6270815468307
 30
0.0
 11
737.5597979885324
 21
249.0922742864869
 31
0.0
  0
LINE
  5
B4
330
1F
100
AcDbEntity
  8
D-4
  6
Continuous
 62
     7
370
     9
100
AcDbLine
 10
737.5597979885324
 20
111.1270815468307
 30
0.0
 11
660.0597979885333
 21
111.1270815468307
 31
0.0
  0
TEXT
  5
B5
330
1F
100
AcDbEntity
  8
D-4
  6
Continuous
 62
     2
370
   211
100
AcDbText
 10
688.1847979885328
 20
116.4470815468307
 30
0.0
 40
15.24
  1
31
 41
1.0625
  7
ＭＳ ゴシック
100
AcDbText
  0
LINE
  5
B6
330
1F
100
AcDbEntity
  8
D-4
  6
Continuous
 62
     7
370
     9
100
AcDbLine
 10
660.0597979885333
 20
109.6270815468307
 30
0.0
 11
660.0597979885333
 21
249.2729360225487
 31
0.0
  0
LINE
  5
B7
330
1F
100
AcDbEntity
  8
D-4
  6
Continuous
 62
     7
370
     9
100
AcDbLine
 10
637.5598759602975
 20
355.7797528936881
 30
0.0
 11
637.5598759602975
 21
434.8940585445538
 31
0.0
  0
LINE
  5
B8
330
1F
100
AcDbEntity
  8
D-4
  6
Continuous
 62
     7
370
     9
100
AcDbLine
 10
655.0599336962563
 20
355.7797528936881
 30
0.0
 11
655.0599336962563
 21
434.8940585445538
 31
0.0
  0
LINE
  5
B9
330
1F
100
AcDbEntity
  8
D-4
  6
Continuous
 62
     7
370
     9
100
AcDbLine
 10
621.9837865652387
 20
433.3940783397396
 30
0.0
 11
694.8934149436172
 21
433.3940783397396
 31
0.0
  0
LINE
  5
BA
330
1F
100
AcDbEntity
  8
D-4
  6
Continuous
 62
     7
370
     9
100
AcDbLine
 10
657.5599419442506
 20
355.7797528936881
 30
0.0
 11
657.5599419442506
 21
434.8940585445538
 31
0.0
  0
TEXT
  5
BB
330
1F
100
AcDbEntity
  8
D-4
  6
Continuous
 62
     2
370
     9
100
AcDbText
 10
623.7485438762606
 20
438.7140865877338
 30
0.0
 40
15.24
  1
7
 41
0.9999999999999998
  7
ＭＳ ゴシック
100
AcDbText
  0
TEXT
  5
BC
330
1F
100
AcDbEntity
  8
D-4
  6
Continuous
 62
     2
370
     9
100
AcDbText
 10
651.3099996802089
 20
438.7140865877338
 30
0.0
 40
15.24
  1
1
 41
0.9999999999999998
  7
ＭＳ ゴシック
100
AcDbText
  0
TEXT
  5
BD
330
1F
100
AcDbEntity
  8
D-4
  6
Continuous
 62
     2
370
     9
100
AcDbText
 10
680.4977537184266
 20
438.7140865877338
 30
0.0
 40
15.24
  1
7
 41
0.9999999999999998
  7
ＭＳ ゴシック
100
AcDbText
  0
LWPOLYLINE
  5
BE
330
1F
100
AcDbEntity
  8
D-4
  6
Continuous
 62
     7
370
     9
100
AcDbPolyline
 90
        4
 70
     1
 43
1.0
 10
638.0598759602974
 20
433.3940783397396
 42
0.4142135623731
 10
637.5598759602975
 20
433.8940783397396
 42
0.4142135623731
 10
637.0598759602975
 20
433.3940783397396
 42
0.4142135623731
 10
637.5598759602975
 20
432.8940783397397
 42
0.4142135623731
  0
LWPOLYLINE
  5
BF
330
1F
100
AcDbEntity
  8
D-4
  6
Continuous
 62
     7
370
     9
100
AcDbPolyline
 90
        4
 70
     1
 43
1.0
 10
655.5599336962563
 20
433.3940783397396
 42
0.4142135623731
 10
655.0599336962563
 20
433.8940783397396
 42
0.4142135623731
 10
654.5599336962563
 20
433.3940783397396
 42
0.4142135623731
 10
655.0599336962563
 20
432.8940783397397
 42
0.4142135623731
  0
LWPOLYLINE
  5
C0
330
1F
100
AcDbEntity
  8
D-4
  6
Continuous
 62
     7
370
     9
100
AcDbPolyline
 90
        4
 70
     1
 43
1.0
 10
658.0599419442506
 20
433.3940783397396
 42
0.4142135623731
 10
657.5599419442506
 20
433.8940783397396
 42
0.4142135623731
 10
657.0599419442506
 20
433.3940783397396
 42
0.4142135623731
 10
657.5599419442506
 20
432.8940783397397
 42
0.4142135623731
  0
LWPOLYLINE
  5
C1
330
1F
100
AcDbEntity
  8
D-4
  6
Continuous
 62
     7
370
     9
100
AcDbPolyline
 90
        4
 70
     1
 43
1.0
 10
675.5598759602974
 20
433.3940783397396
 42
0.4142135623731
 10
675.0598759602974
 20
433.8940783397396
 42
0.4142135623731
 10
674.5598759602974
 20
433.3940783397396
 42
0.4142135623731
 10
675.0598759602974
 20
432.8940783397397
 42
0.4142135623731
  0
TEXT
  5
C2
330
1F
100
AcDbEntity
  8
D-5
  6
Continuous
 62
     7
370
     9
100
AcDbText
 10
438.2365277588128
 20
427.8838362854776
 30
0.0
 40
11.43
  1
ロックボルト
 41
1.138888888888889
  7
ＭＳ ゴシック
100
AcDbText
  0
LINE
  5
C3
330
1F
100
AcDbEntity
  8
D-5
  6
Continuous
 62
     7
370
     9
100
AcDbLine
 10
429.4570081879721
 20
419.7687917463097
 30
0.0
 11
551.1772345789138
 21
419.7687917463097
 31
0.0
  0
LINE
  5
C4
330
1F
100
AcDbEntity
  8
D-5
  6
Continuous
 62
     7
370
     9
100
AcDbLine
 10
551.1772345789138
 20
419.7687917463097
 30
0.0
 11
581.8570091820648
 21
331.312761372956
 31
0.0
  0
LINE
  5
C5
330
1F
100
AcDbEntity
  8
D-5
  6
Continuous
 62
     7
370
     9
100
AcDbLine
 10
581.8570091820648
 20
331.312761372956
 30
0.0
 11
579.3374640691753
 21
343.5562042067392
 31
0.0
  0
LINE
  5
C6
330
1F
100
AcDbEntity
  8
D-5
  6
Continuous
 62
     7
370
     9
100
AcDbLine
 10
581.8570091820648
 20
331.312761372956
 30
0.0
 11
576.2544793040173
 21
342.4869127485902
 31
0.0
  0
LINE
  5
C7
330
1F
100
AcDbEntity
  8
D-5
  6
Continuous
 62
     7
370
     9
100
AcDbLine
 10
673.8099336962557
 20
331.3127057726389
 30
0.0
 11
715.8604243769463
 21
398.0851793949291
 31
0.0
  0
LINE
  5
C8
330
1F
100
AcDbEntity
  8
D-5
  6
Continuous
 62
     7
370
     9
100
AcDbLine
 10
750.1585413513044
 20
359.9258082965335
 30
0.0
 11
919.5247213598356
 21
359.9258082965335
 31
0.0
  0
LINE
  5
C9
330
1F
100
AcDbEntity
  8
D-5
  6
Continuous
 62
     7
370
     9
100
AcDbLine
 10
689.1769285484065
 20
263.0923809949106
 30
0.0
 11
750.1585413513044
 21
359.9258082965335
 31
0.0
  0
TEXT
  5
CA
330
1F
100
AcDbEntity
  8
D-5
  6
Continuous
 62
     7
370
     9
100
AcDbText
 10
752.0413410679225
 20
364.6861874403259
 30
0.0
 40
11.43
  1
アンカー（ＳＧＨＣ）
 41
1.15
  7
ＭＳ ゴシック
100
AcDbText
  0
LINE
  5
CB
330
1F
100
AcDbEntity
  8
D-5
  6
Continuous
 62
     7
370
     9
100
AcDbLine
 10
689.1769285484065
 20
263.0923809949106
 30
0.0
 11
694.4004642428729
 21
274.4486424769583
 31
0.0
  0
LINE
  5
CC
330
1F
100
AcDbEntity
  8
D-5
  6
Continuous
 62
     7
370
     9
100
AcDbLine
 10
689.1769285484065
 20
263.0923809949106
 30
0.0
 11
697.1616933329523
 21
272.7097367300116
 31
0.0
  0
LINE
  5
CD
330
1F
100
AcDbEntity
  8
D-5
  6
Continuous
 62
     7
370
     9
100
AcDbLine
 10
673.8099336962557
 20
331.3127057726389
 30
0.0
 11
679.0334693907221
 21
342.6689672546865
 31
0.0
  0
LINE
  5
CE
330
1F
100
AcDbEntity
  8
D-5
  6
Continuous
 62
     7
370
     9
100
AcDbLine
 10
673.8099336962557
 20
331.3127057726389
 30
0.0
 11
681.7946984808015
 21
340.9300615077399
 31
0.0
  0
LINE
  5
CF
330
1F
100
AcDbEntity
  8
D-5
  6
Continuous
 62
     7
370
     9
100
AcDbLine
 10
631.6907188393089
 20
278.8126929011133
 30
0.0
 11
627.3137503350871
 21
267.1040573395694
 31
0.0
  0
LINE
  5
D0
330
1F
100
AcDbEntity
  8
D-5
  6
Continuous
 62
     7
370
     9
100
AcDbLine
 10
631.6907188393089
 20
278.8126929011133
 30
0.0
 11
624.4324740447349
 21
268.6358622303179
 31
0.0
  0
LINE
  5
D1
330
1F
100
AcDbEntity
  8
D-5
  6
Continuous
 62
     7
370
     9
100
AcDbLine
 10
591.5669469393096
 20
203.3411538342341
 30
0.0
 11
631.6907188393089
 21
278.8126929011133
 31
0.0
  0
LINE
  5
D2
330
1F
100
AcDbEntity
  8
D-5
  6
Continuous
 62
     7
370
     9
100
AcDbLine
 10
158.3835549981405
 20
256.7764122715395
 30
0.0
 11
23.74383812928279
 21
256.7764122715395
 31
0.0
  0
TEXT
  5
D3
330
1F
100
AcDbEntity
  8
D-5
  6
Continuous
 62
     7
370
     9
100
AcDbText
 10
32.98027226510619
 20
262.695737684599
 30
0.0
 40
11.43
  1
蓋　ｔ＝１．０
 41
1.142857142857143
  7
ＭＳ ゴシック
100
AcDbText
  0
LINE
  5
D4
330
1F
100
AcDbEntity
  8
D-5
  6
Continuous
 62
     7
370
     9
100
AcDbLine
 10
196.3653848323344
 20
322.5627057726388
 30
0.0
 11
191.5818781811521
 21
311.0141943706116
 31
0.0
  0
LINE
  5
D5
330
1F
100
AcDbEntity
  8
D-5
  6
Continuous
 62
     7
370
     9
100
AcDbLine
 10
196.3653848323344
 20
322.5627057726388
 30
0.0
 11
188.7558679668365
 21
312.6458125610678
 31
0.0
  0
LINE
  5
D6
330
1F
100
AcDbEntity
  8
D-5
  6
Continuous
 62
     7
370
     9
100
AcDbLine
 10
196.3653848323344
 20
322.5627057726388
 30
0.0
 11
158.3835549981405
 21
256.7764122715395
 31
0.0
  0
LINE
  5
D7
330
1F
100
AcDbEntity
  8
D-4
  6
Continuous
 62
     7
370
     9
100
AcDbLine
 10
675.0598759602974
 20
355.7797528936881
 30
0.0
 11
675.0598759602974
 21
477.4405215542515
 31
0.0
  0
LINE
  5
D8
330
1F
100
AcDbEntity
  8
D-4
  6
Continuous
 62
     7
370
     9
100
AcDbLine
 10
2.59390718390371
 20
475.9405413494375
 30
0.0
 11
675.0598759602974
 21
475.9405413494375
 31
0.0
  0
LWPOLYLINE
  5
D9
330
1F
100
AcDbEntity
  8
D-4
  6
Continuous
 62
     7
370
     9
100
AcDbPolyline
 90
        4
 70
     1
 43
1.0
 10
675.5598759602974
 20
475.9405413494375
 42
0.4142135623731
 10
675.0598759602974
 20
476.4405413494375
 42
0.4142135623731
 10
674.5598759602974
 20
475.9405413494375
 42
0.4142135623731
 10
675.0598759602974
 20
475.4405413494375
 42
0.4142135623731
  0
LINE
  5
DA
330
1F
100
AcDbEntity
  8
D-1
  6
Continuous
 62
     2
370
     9
100
AcDbLine
 10
478.8498664854562
 20
-446.2051235824867
 30
0.0
 11
461.3498865162994
 21
-463.7053660145986
 31
0.0
  0
LINE
  5
DB
330
1F
100
AcDbEntity
  8
D-1
  6
Continuous
 62
     2
370
     9
100
AcDbLine
 10
461.3498865162994
 20
-463.7053660145986
 30
0.0
 11
748.7820977089563
 21
-463.7053660145986
 31
0.0
  0
LINE
  5
DC
330
1F
100
AcDbEntity
  8
D-1
  6
Continuous
 62
     2
370
     9
100
AcDbLine
 10
748.7820977089563
 20
-446.2051719423673
 30
0.0
 11
478.8498664854562
 21
-446.2051235824867
 31
0.0
  0
LINE
  5
DD
330
1F
100
AcDbEntity
  8
D-1
  6
JWW_DASHED3
 62
     2
370
     9
100
AcDbLine
 10
748.7820977089563
 20
-413.7053857508701
 30
0.0
 11
511.349998011505
 21
-413.7053857508701
 31
0.0
  0
LINE
  5
DE
330
1F
100
AcDbEntity
  8
D-4
  6
Continuous
 62
     7
370
     9
100
AcDbLine
 10
821.6944337194535
 20
-463.7053660145986
 30
0.0
 11
821.6944337194535
 21
-446.2051719423673
 31
0.0
  0
LWPOLYLINE
  5
DF
330
1F
100
AcDbEntity
  8
D-4
  6
Continuous
 62
     7
370
     9
100
AcDbPolyline
 90
        4
 70
     1
 43
1.0
 10
822.1944337194534
 20
-463.7053660145986
 42
0.4142135623731
 10
821.6944337194535
 20
-463.2053660145987
 42
0.4142135623731
 10
821.1944337194535
 20
-463.7053660145986
 42
0.4142135623731
 10
821.6944337194535
 20
-464.2053660145986
 42
0.4142135623731
  0
LWPOLYLINE
  5
E0
330
1F
100
AcDbEntity
  8
D-4
  6
Continuous
 62
     7
370
     9
100
AcDbPolyline
 90
        4
 70
     1
 43
1.0
 10
822.1944337194534
 20
-446.2051719423673
 42
0.4142135623731
 10
821.6944337194535
 20
-445.7051719423673
 42
0.4142135623731
 10
821.1944337194535
 20
-446.2051719423673
 42
0.4142135623731
 10
821.6944337194535
 20
-446.7051719423672
 42
0.4142135623731
  0
LINE
  5
E1
330
1F
100
AcDbEntity
  8
D-4
  6
Continuous
 62
     7
370
     9
100
AcDbLine
 10
822.6944337194537
 20
-463.7053660145986
 30
0.0
 11
758.7820977089563
 21
-463.7053660145986
 31
0.0
  0
LINE
  5
E2
330
1F
100
AcDbEntity
  8
D-4
  6
Continuous
 62
     7
370
     9
100
AcDbLine
 10
822.6944337194537
 20
-446.2051719423673
 30
0.0
 11
758.7820977089563
 21
-446.2051719423673
 31
0.0
  0
TEXT
  5
E3
330
1F
100
AcDbEntity
  8
D-4
  6
Continuous
 62
     2
370
   211
100
AcDbText
 10
816.3744337194535
 20
-459.9552689784829
 30
0.0
 40
15.24
  1
7
 50
90.0
 41
0.9999999999999998
  7
ＭＳ ゴシック
100
AcDbText
  0
LINE
  5
E4
330
1F
100
AcDbEntity
  8
D-4
  6
Continuous
 62
     7
370
     9
100
AcDbLine
 10
821.6944337194535
 20
-446.2051719423673
 30
0.0
 11
821.6944337194535
 21
-443.705187976759
 31
0.0
  0
LWPOLYLINE
  5
E5
330
1F
100
AcDbEntity
  8
D-4
  6
Continuous
 62
     7
370
     9
100
AcDbPolyline
 90
        4
 70
     1
 43
1.0
 10
822.1944337194534
 20
-443.705187976759
 42
0.4142135623731
 10
821.6944337194535
 20
-443.205187976759
 42
0.4142135623731
 10
821.1944337194535
 20
-443.705187976759
 42
0.4142135623731
 10
821.6944337194535
 20
-444.205187976759
 42
0.4142135623731
  0
LINE
  5
E6
330
1F
100
AcDbEntity
  8
D-4
  6
Continuous
 62
     7
370
     9
100
AcDbLine
 10
822.6944337194537
 20
-443.705187976759
 30
0.0
 11
758.7820977089563
 21
-443.705187976759
 31
0.0
  0
LINE
  5
E7
330
1F
100
AcDbEntity
  8
D-4
  6
Continuous
 62
     7
370
     9
100
AcDbLine
 10
821.6944337194535
 20
-443.705187976759
 30
0.0
 11
821.6944337194535
 21
-426.2052069863955
 31
0.0
  0
LWPOLYLINE
  5
E8
330
1F
100
AcDbEntity
  8
D-4
  6
Continuous
 62
     7
370
     9
100
AcDbPolyline
 90
        4
 70
     1
 43
1.0
 10
822.1944337194534
 20
-426.2052069863955
 42
0.4142135623731
 10
821.6944337194535
 20
-425.7052069863955
 42
0.4142135623731
 10
821.1944337194535
 20
-426.2052069863955
 42
0.4142135623731
 10
821.6944337194535
 20
-426.7052069863955
 42
0.4142135623731
  0
LINE
  5
E9
330
1F
100
AcDbEntity
  8
D-4
  6
Continuous
 62
     7
370
     9
100
AcDbLine
 10
822.6944337194537
 20
-426.2052069863955
 30
0.0
 11
758.7820977089563
 21
-426.2052069863955
 31
0.0
  0
TEXT
  5
EA
330
1F
100
AcDbEntity
  8
D-4
  6
Continuous
 62
     2
370
   211
100
AcDbText
 10
816.3744337194535
 20
-439.9551974815773
 30
0.0
 40
15.24
  1
7
 50
90.0
 41
0.9999999999999998
  7
ＭＳ ゴシック
100
AcDbText
  0
LINE
  5
EB
330
1F
100
AcDbEntity
  8
D-4
  6
Continuous
 62
     7
370
     9
100
AcDbLine
 10
821.6944337194535
 20
-426.2052069863955
 30
0.0
 11
821.6944337194535
 21
-263.7052069863962
 31
0.0
  0
LWPOLYLINE
  5
EC
330
1F
100
AcDbEntity
  8
D-4
  6
Continuous
 62
     7
370
     9
100
AcDbPolyline
 90
        4
 70
     1
 43
1.0
 10
822.1944337194534
 20
-263.7052069863962
 42
0.4142135623731
 10
821.6944337194535
 20
-263.2052069863962
 42
0.4142135623731
 10
821.1944337194535
 20
-263.7052069863962
 42
0.4142135623731
 10
821.6944337194535
 20
-264.2052069863962
 42
0.4142135623731
  0
TEXT
  5
ED
330
1F
100
AcDbEntity
  8
D-4
  6
Continuous
 62
     2
370
   211
100
AcDbText
 10
816.3744337194535
 20
-355.580206986396
 30
0.0
 40
15.24
  1
65
 50
90.0
 41
1.0625
  7
ＭＳ ゴシック
100
AcDbText
  0
LINE
  5
EE
330
1F
100
AcDbEntity
  8
D-4
  6
Continuous
 62
     7
370
     9
100
AcDbLine
 10
822.6944337194537
 20
-263.7052069863962
 30
0.0
 11
526.5338818200082
 21
-263.7052069863962
 31
0.0
  0
LINE
  5
EF
330
1F
100
AcDbEntity
  8
D-1
  6
Continuous
 62
     2
370
     9
100
AcDbLine
 10
461.3498865162994
 20
-463.7053660145986
 30
0.0
 11
461.3498865162994
 21
-197.358026447726
 31
0.0
  0
LINE
  5
F0
330
1F
100
AcDbEntity
  8
D-1
  6
Continuous
 62
     2
370
     9
100
AcDbLine
 10
478.8499556501761
 20
-197.358026447726
 30
0.0
 11
478.8498664854562
 21
-446.2051235824867
 31
0.0
  0
LINE
  5
F1
330
1F
100
AcDbEntity
  8
D-1
  6
JWW_DASHED3
 62
     2
370
     9
100
AcDbLine
 10
511.349998011505
 20
-413.7053857508701
 30
0.0
 11
511.349998011505
 21
-197.358026447726
 31
0.0
  0
LINE
  5
F2
330
1F
100
AcDbEntity
  8
D-4
  6
Continuous
 62
     7
370
     9
100
AcDbLine
 10
461.3498865162994
 20
-151.7737095307134
 30
0.0
 11
478.8499556501761
 21
-151.7737095307134
 31
0.0
  0
LWPOLYLINE
  5
F3
330
1F
100
AcDbEntity
  8
D-4
  6
Continuous
 62
     7
370
     9
100
AcDbPolyline
 90
        4
 70
     1
 43
1.0
 10
461.8498865162994
 20
-151.7737095307134
 42
0.4142135623731
 10
461.3498865162994
 20
-151.2737095307134
 42
0.4142135623731
 10
460.8498865162994
 20
-151.7737095307134
 42
0.4142135623731
 10
461.3498865162994
 20
-152.2737095307134
 42
0.4142135623731
  0
LWPOLYLINE
  5
F4
330
1F
100
AcDbEntity
  8
D-4
  6
Continuous
 62
     7
370
     9
100
AcDbPolyline
 90
        4
 70
     1
 43
1.0
 10
479.349955650176
 20
-151.7737095307134
 42
0.4142135623731
 10
478.8499556501761
 20
-151.2737095307134
 42
0.4142135623731
 10
478.3499556501761
 20
-151.7737095307134
 42
0.4142135623731
 10
478.8499556501761
 20
-152.2737095307134
 42
0.4142135623731
  0
LINE
  5
F5
330
1F
100
AcDbEntity
  8
D-4
  6
Continuous
 62
     7
370
     9
100
AcDbLine
 10
461.3498865162994
 20
-150.7737095307135
 30
0.0
 11
461.3498865162994
 21
-187.358026447726
 31
0.0
  0
LINE
  5
F6
330
1F
100
AcDbEntity
  8
D-4
  6
Continuous
 62
     7
370
     9
100
AcDbLine
 10
478.8499556501761
 20
-150.7737095307135
 30
0.0
 11
478.8499556501761
 21
-187.358026447726
 31
0.0
  0
LINE
  5
F7
330
1F
100
AcDbEntity
  8
D-4
  6
Continuous
 62
     7
370
     9
100
AcDbLine
 10
478.8499556501761
 20
-151.7737095307134
 30
0.0
 11
481.3500885921543
 21
-151.7737095307134
 31
0.0
  0
LWPOLYLINE
  5
F8
330
1F
100
AcDbEntity
  8
D-4
  6
Continuous
 62
     7
370
     9
100
AcDbPolyline
 90
        4
 70
     1
 43
1.0
 10
481.8500885921543
 20
-151.7737095307134
 42
0.4142135623731
 10
481.3500885921543
 20
-151.2737095307134
 42
0.4142135623731
 10
480.8500885921543
 20
-151.7737095307134
 42
0.4142135623731
 10
481.3500885921543
 20
-152.2737095307134
 42
0.4142135623731
  0
LINE
  5
F9
330
1F
100
AcDbEntity
  8
D-4
  6
Continuous
 62
     7
370
     9
100
AcDbLine
 10
481.3500885921543
 20
-150.7737095307135
 30
0.0
 11
481.3500885921543
 21
-187.358026447726
 31
0.0
  0
TEXT
  5
FA
330
1F
100
AcDbEntity
  8
D-4
  6
Continuous
 62
     2
370
   211
100
AcDbText
 10
475.100022121165
 20
-146.4537095307134
 30
0.0
 40
15.24
  1
1
 41
0.9999999999999998
  7
ＭＳ ゴシック
100
AcDbText
  0
LINE
  5
FB
330
1F
100
AcDbEntity
  8
D-4
  6
Continuous
 62
     7
370
     9
100
AcDbLine
 10
481.3500885921543
 20
-151.7737095307134
 30
0.0
 11
498.8500896363711
 21
-151.7737095307134
 31
0.0
  0
LWPOLYLINE
  5
FC
330
1F
100
AcDbEntity
  8
D-4
  6
Continuous
 62
     7
370
     9
100
AcDbPolyline
 90
        4
 70
     1
 43
1.0
 10
499.350089636371
 20
-151.7737095307134
 42
0.4142135623731
 10
498.8500896363711
 20
-151.2737095307134
 42
0.4142135623731
 10
498.3500896363711
 20
-151.7737095307134
 42
0.4142135623731
 10
498.8500896363711
 20
-152.2737095307134
 42
0.4142135623731
  0
LINE
  5
FD
330
1F
100
AcDbEntity
  8
D-4
  6
Continuous
 62
     7
370
     9
100
AcDbLine
 10
498.8500896363711
 20
-150.7737095307135
 30
0.0
 11
498.8500896363711
 21
-187.358026447726
 31
0.0
  0
LINE
  5
FE
330
1F
100
AcDbEntity
  8
D-4
  6
Continuous
 62
     7
370
     9
100
AcDbLine
 10
498.8500896363711
 20
-151.7737095307134
 30
0.0
 11
661.3500896363705
 21
-151.7737095307134
 31
0.0
  0
LWPOLYLINE
  5
FF
330
1F
100
AcDbEntity
  8
D-4
  6
Continuous
 62
     7
370
     9
100
AcDbPolyline
 90
        4
 70
     1
 43
1.0
 10
661.8500896363705
 20
-151.7737095307134
 42
0.4142135623731
 10
661.3500896363705
 20
-151.2737095307134
 42
0.4142135623731
 10
660.8500896363705
 20
-151.7737095307134
 42
0.4142135623731
 10
661.3500896363705
 20
-152.2737095307134
 42
0.4142135623731
  0
TEXT
  5
100
330
1F
100
AcDbEntity
  8
D-4
  6
Continuous
 62
     2
370
   211
100
AcDbText
 10
569.4750896363707
 20
-146.4537095307134
 30
0.0
 40
15.24
  1
65
 41
1.0625
  7
ＭＳ ゴシック
100
AcDbText
  0
TEXT
  5
101
330
1F
100
AcDbEntity
  8
D-4
  6
Continuous
 62
     2
370
   211
100
AcDbText
 10
457.7372277408876
 20
-145.7929735750252
 30
0.0
 40
15.24
  1
7
 41
0.9999999999999998
  7
ＭＳ ゴシック
100
AcDbText
  0
TEXT
  5
102
330
1F
100
AcDbEntity
  8
D-4
  6
Continuous
 62
     2
370
   211
100
AcDbText
 10
491.9249182913551
 20
-146.7046453230376
 30
0.0
 40
15.24
  1
7
 41
0.9999999999999998
  7
ＭＳ ゴシック
100
AcDbText
  0
TEXT
  5
103
330
1F
100
AcDbEntity
  8
D-4
  6
Continuous
 62
     2
370
   211
100
AcDbText
 10
841.9916571709375
 20
-451.4027181040109
 30
0.0
 40
15.24
  1
1
 50
90.0
 41
0.9999999999999998
  7
ＭＳ ゴシック
100
AcDbText
  0
LINE
  5
104
330
1F
100
AcDbEntity
  8
D-4
  6
Continuous
 62
     7
370
     9
100
AcDbLine
 10
704.9839337384508
 20
-443.7051840399792
 30
0.0
 11
704.9839337384508
 21
-376.2050724743804
 31
0.0
  0
LWPOLYLINE
  5
105
330
1F
100
AcDbEntity
  8
D-4
  6
Continuous
 62
     7
370
     9
100
AcDbPolyline
 90
        4
 70
     1
 43
1.0
 10
705.4839337384508
 20
-443.7051840399792
 42
0.4142135623731
 10
704.9839337384508
 20
-443.2051840399793
 42
0.4142135623731
 10
704.4839337384508
 20
-443.7051840399792
 42
0.4142135623731
 10
704.9839337384508
 20
-444.2051840399791
 42
0.4142135623731
  0
LWPOLYLINE
  5
106
330
1F
100
AcDbEntity
  8
D-4
  6
Continuous
 62
     7
370
     9
100
AcDbPolyline
 90
        4
 70
     1
 43
1.0
 10
705.4839337384508
 20
-376.2050724743804
 42
0.4142135623731
 10
704.9839337384508
 20
-375.7050724743805
 42
0.4142135623731
 10
704.4839337384508
 20
-376.2050724743804
 42
0.4142135623731
 10
704.9839337384508
 20
-376.7050724743804
 42
0.4142135623731
  0
LINE
  5
107
330
1F
100
AcDbEntity
  8
D-4
  6
Continuous
 62
     7
370
     9
100
AcDbLine
 10
705.9839337384507
 20
-376.2050724743804
 30
0.0
 11
592.5996331965588
 21
-376.2050724743804
 31
0.0
  0
LINE
  5
108
330
1F
100
AcDbEntity
  8
D-4
  6
Continuous
 62
     7
370
     9
100
AcDbLine
 10
481.3500885921543
 20
-228.7850969454491
 30
0.0
 11
548.8496551306081
 21
-228.7850969454491
 31
0.0
  0
LWPOLYLINE
  5
109
330
1F
100
AcDbEntity
  8
D-4
  6
Continuous
 62
     7
370
     9
100
AcDbPolyline
 90
        4
 70
     1
 43
1.0
 10
481.8500885921543
 20
-228.7850969454491
 42
0.4142135623731
 10
481.3500885921543
 20
-228.2850969454491
 42
0.4142135623731
 10
480.8500885921543
 20
-228.7850969454491
 42
0.4142135623731
 10
481.3500885921543
 20
-229.2850969454491
 42
0.4142135623731
  0
LWPOLYLINE
  5
10A
330
1F
100
AcDbEntity
  8
D-4
  6
Continuous
 62
     7
370
     9
100
AcDbPolyline
 90
        4
 70
     1
 43
1.0
 10
549.349655130608
 20
-228.7850969454491
 42
0.4142135623731
 10
548.8496551306081
 20
-228.2850969454491
 42
0.4142135623731
 10
548.3496551306081
 20
-228.7850969454491
 42
0.4142135623731
 10
548.8496551306081
 20
-229.2850969454491
 42
0.4142135623731
  0
LINE
  5
10B
330
1F
100
AcDbEntity
  8
D-4
  6
Continuous
 62
     7
370
     9
100
AcDbLine
 10
548.8496551306081
 20
-227.7850969454491
 30
0.0
 11
548.8496551306081
 21
-332.4552256401619
 31
0.0
  0
TEXT
  5
10C
330
1F
100
AcDbEntity
  8
D-4
  6
Continuous
 62
     2
370
   211
100
AcDbText
 10
514.4055773006307
 20
-224.3848452336928
 30
0.0
 40
15.24
  1
27
 41
1.0625
  7
ＭＳ ゴシック
100
AcDbText
  0
TEXT
  5
10D
330
1F
100
AcDbEntity
  8
D-4
  6
Continuous
 62
     2
370
   211
100
AcDbText
 10
701.2157827113969
 20
-412.4103458515413
 30
0.0
 40
15.24
  1
27
 50
90.0
 41
1.0625
  7
ＭＳ ゴシック
100
AcDbText
  0
LINE
  5
10E
330
1F
100
AcDbEntity
  8
D-4
  6
Continuous
 62
     7
370
     9
100
AcDbLine
 10
661.3500896363705
 20
-150.7737095307135
 30
0.0
 11
661.3500896363705
 21
-397.7207118479815
 31
0.0
  0
LINE
  5
10F
330
1F
100
AcDbEntity
  8
D-4
  6
Continuous
 62
     7
370
     9
100
AcDbLine
 10
771.4489477470338
 20
331.3127635247068
 30
0.0
 11
771.4489477470338
 21
293.8127057726387
 31
0.0
  0
LWPOLYLINE
  5
110
330
1F
100
AcDbEntity
  8
D-4
  6
Continuous
 62
     7
370
     9
100
AcDbPolyline
 90
        4
 70
     1
 43
1.0
 10
771.9489477470337
 20
331.3127635247068
 42
0.4142135623731
 10
771.4489477470338
 20
331.8127635247067
 42
0.4142135623731
 10
770.9489477470338
 20
331.3127635247068
 42
0.4142135623731
 10
771.4489477470338
 20
330.8127635247068
 42
0.4142135623731
  0
LWPOLYLINE
  5
111
330
1F
100
AcDbEntity
  8
D-4
  6
Continuous
 62
     7
370
     9
100
AcDbPolyline
 90
        4
 70
     1
 43
1.0
 10
771.9489477470337
 20
293.8127057726387
 42
0.4142135623731
 10
771.4489477470338
 20
294.3127057726387
 42
0.4142135623731
 10
770.9489477470338
 20
293.8127057726387
 42
0.4142135623731
 10
771.4489477470338
 20
293.3127057726387
 42
0.4142135623731
  0
LINE
  5
112
330
1F
100
AcDbEntity
  8
D-4
  6
Continuous
 62
     7
370
     9
100
AcDbLine
 10
802.2068598015817
 20
331.3127635247068
 30
0.0
 11
802.2068598015817
 21
273.8128083730305
 31
0.0
  0
LWPOLYLINE
  5
113
330
1F
100
AcDbEntity
  8
D-4
  6
Continuous
 62
     7
370
     9
100
AcDbPolyline
 90
        4
 70
     1
 43
1.0
 10
802.7068598015817
 20
331.3127635247068
 42
0.4142135623731
 10
802.2068598015817
 20
331.8127635247067
 42
0.4142135623731
 10
801.7068598015817
 20
331.3127635247068
 42
0.4142135623731
 10
802.2068598015817
 20
330.8127635247068
 42
0.4142135623731
  0
LWPOLYLINE
  5
114
330
1F
100
AcDbEntity
  8
D-4
  6
Continuous
 62
     7
370
     9
100
AcDbPolyline
 90
        4
 70
     1
 43
1.0
 10
802.7068598015817
 20
273.8128083730305
 42
0.4142135623731
 10
802.2068598015817
 20
274.3128083730305
 42
0.4142135623731
 10
801.7068598015817
 20
273.8128083730305
 42
0.4142135623731
 10
802.2068598015817
 20
273.3128083730305
 42
0.4142135623731
  0
LINE
  5
115
330
1F
100
AcDbEntity
  8
D-4
  6
Continuous
 62
     7
370
     9
100
AcDbLine
 10
803.7068598015817
 20
273.8128083730305
 30
0.0
 11
668.8098842082911
 21
273.8128083730305
 31
0.0
  0
TEXT
  5
116
330
1F
100
AcDbEntity
  8
D-4
  6
Continuous
 62
     2
370
   211
100
AcDbText
 10
796.8868598015816
 20
291.9377859488686
 30
0.0
 40
15.24
  1
23
 50
90.0
 41
1.0625
  7
ＭＳ ゴシック
100
AcDbText
  0
LINE
  5
117
330
1F
100
AcDbEntity
  8
D-4
  6
Continuous
 62
     7
370
     9
100
AcDbLine
 10
834.214857128668
 20
331.3127635247068
 30
0.0
 11
834.214857128668
 21
259.0922742864869
 31
0.0
  0
LWPOLYLINE
  5
118
330
1F
100
AcDbEntity
  8
D-4
  6
Continuous
 62
     7
370
     9
100
AcDbPolyline
 90
        4
 70
     1
 43
1.0
 10
834.714857128668
 20
331.3127635247068
 42
0.4142135623731
 10
834.214857128668
 20
331.8127635247067
 42
0.4142135623731
 10
833.714857128668
 20
331.3127635247068
 42
0.4142135623731
 10
834.214857128668
 20
330.8127635247068
 42
0.4142135623731
  0
LWPOLYLINE
  5
119
330
1F
100
AcDbEntity
  8
D-4
  6
Continuous
 62
     7
370
     9
100
AcDbPolyline
 90
        4
 70
     1
 43
1.0
 10
834.714857128668
 20
259.0922742864869
 42
0.4142135623731
 10
834.214857128668
 20
259.5922742864869
 42
0.4142135623731
 10
833.714857128668
 20
259.0922742864869
 42
0.4142135623731
 10
834.214857128668
 20
258.5922742864869
 42
0.4142135623731
  0
LINE
  5
11A
330
1F
100
AcDbEntity
  8
D-4
  6
Continuous
 62
     7
370
     9
100
AcDbLine
 10
835.714857128668
 20
259.0922742864869
 30
0.0
 11
747.5597979885324
 21
259.0922742864869
 31
0.0
  0
TEXT
  5
11B
330
1F
100
AcDbEntity
  8
D-4
  6
Continuous
 62
     2
370
   211
100
AcDbText
 10
828.8948571286679
 20
286.0184475099
 30
0.0
 40
15.24
  1
29
 50
90.0
 41
1.0625
  7
ＭＳ ゴシック
100
AcDbText
  0
LINE
  5
11C
330
1F
100
AcDbEntity
  8
D-4
  6
Continuous
 62
     7
370
     9
100
AcDbLine
 10
772.9489477470338
 20
293.8127057726387
 30
0.0
 11
665.4571307201757
 21
293.8127057726387
 31
0.0
  0
LINE
  5
11D
330
1F
100
AcDbEntity
  8
1-0ﾚｲﾔ
  6
Continuous
 62
     7
370
     9
100
AcDbLine
 10
-80.12372043798175
 20
-425.8983082713427
 30
0.0
 11
-80.12372043798175
 21
-431.8983528105107
 31
0.0
  0
LINE
  5
11E
330
1F
100
AcDbEntity
  8
1-0ﾚｲﾔ
  6
Continuous
 62
     7
370
     9
100
AcDbLine
 10
-42.12364455643618
 20
-431.8983528105107
 30
0.0
 11
-80.12372043798175
 21
-431.8983528105107
 31
0.0
  0
LINE
  5
11F
330
1F
100
AcDbEntity
  8
1-0ﾚｲﾔ
  6
Continuous
 62
     7
370
     9
100
AcDbLine
 10
-42.1237682763475
 20
-425.8983082713427
 30
0.0
 11
-80.12372043798175
 21
-425.8983082713427
 31
0.0
  0
LINE
  5
120
330
1F
100
AcDbEntity
  8
1-0ﾚｲﾔ
  6
Continuous
 62
     7
370
     9
100
AcDbLine
 10
131.8762861604134
 20
-425.8983082713427
 30
0.0
 11
169.8762383220478
 21
-425.8983082713427
 31
0.0
  0
LINE
  5
121
330
1F
100
AcDbEntity
  8
1-0ﾚｲﾔ
  6
Continuous
 62
     7
370
     9
100
AcDbLine
 10
131.8764098803248
 20
-431.8983528105107
 30
0.0
 11
169.8762383220478
 21
-431.8983528105107
 31
0.0
  0
LINE
  5
122
330
1F
100
AcDbEntity
  8
1-0ﾚｲﾔ
  6
Continuous
 62
     7
370
     9
100
AcDbLine
 10
169.8762383220478
 20
-425.8983082713427
 30
0.0
 11
169.8762383220478
 21
-431.8983528105107
 31
0.0
  0
LINE
  5
123
330
1F
100
AcDbEntity
  8
1-4ﾚｲﾔ
  6
Continuous
 62
     7
370
     9
100
AcDbLine
 10
-30.12367919801131
 20
-394.617831933188
 30
0.0
 11
119.8763208019887
 21
-394.617831933188
 31
0.0
  0
LINE
  5
124
330
1F
100
AcDbEntity
  8
1-4ﾚｲﾔ
  6
Continuous
 62
     7
370
     9
100
AcDbLine
 10
-30.12367919801131
 20
-423.3092216871999
 30
0.0
 11
-30.12367919801131
 21
-393.1178517283738
 31
0.0
  0
LINE
  5
125
330
1F
100
AcDbEntity
  8
1-4ﾚｲﾔ
  6
Continuous
 62
     7
370
     9
100
AcDbLine
 10
119.8763208019887
 20
-423.3092216871999
 30
0.0
 11
119.8763208019887
 21
-393.1178517283738
 31
0.0
  0
LINE
  5
126
330
1F
100
AcDbEntity
  8
1-4ﾚｲﾔ
  6
Continuous
 62
     7
370
     9
100
AcDbLine
 10
203.5305285986525
 20
-431.8983528105107
 30
0.0
 11
203.5305285986525
 21
-390.6161114016213
 31
0.0
  0
LINE
  5
127
330
1F
100
AcDbEntity
  8
1-4ﾚｲﾔ
  6
Continuous
 62
     7
370
     9
100
AcDbLine
 10
173.7355572356881
 20
-431.8983528105107
 30
0.0
 11
205.0305088034667
 21
-431.8983528105107
 31
0.0
  0
LINE
  5
128
330
1F
100
AcDbEntity
  8
1-4ﾚｲﾔ
  6
Continuous
 62
     7
370
     9
100
AcDbLine
 10
173.7355572356881
 20
-425.8983082713427
 30
0.0
 11
231.3427646628417
 21
-425.8983082713427
 31
0.0
  0
ARC
  5
129
330
1F
100
AcDbEntity
  8
1-0ﾚｲﾔ
  6
Continuous
 62
     7
370
     9
100
AcDbCircle
 10
131.8764098803248
 20
-437.8983973496787
 30
0.0
 40
6.000000077324945
100
AcDbArc
 50
90.0
 51
180.0
  0
ARC
  5
12A
330
1F
100
AcDbEntity
  8
1-0ﾚｲﾔ
  6
Continuous
 62
     7
370
     9
100
AcDbCircle
 10
-42.12364455643618
 20
-437.8983973496787
 30
0.0
 40
6.000000077324945
100
AcDbArc
 50
0.0
 51
90.0
  0
ARC
  5
12B
330
1F
100
AcDbEntity
  8
1-0ﾚｲﾔ
  6
Continuous
 62
     7
370
     9
100
AcDbCircle
 10
-42.1237682763475
 20
-437.8982736297673
 30
0.0
 40
12.00000015464989
100
AcDbArc
 50
0.0
 51
90.0
  0
ARC
  5
12C
330
1F
100
AcDbEntity
  8
1-0ﾚｲﾔ
  6
Continuous
 62
     7
370
     9
100
AcDbCircle
 10
131.8762861604134
 20
-437.8982736297673
 30
0.0
 40
12.00000015464989
100
AcDbArc
 50
90.0
 51
180.0
  0
TEXT
  5
12D
330
1F
100
AcDbEntity
  8
1-4ﾚｲﾔ
  6
Continuous
 62
     2
370
     9
100
AcDbText
 10
34.25150638185562
 20
-389.2978236851939
 30
0.0
 40
15.24
  1
30
 41
1.0625
  7
ＭＳ ゴシック
100
AcDbText
  0
TEXT
  5
12E
330
1F
100
AcDbEntity
  8
1-4ﾚｲﾔ
  6
Continuous
 62
     2
370
     9
100
AcDbText
 10
198.2105203506585
 20
-421.9028902382582
 30
0.0
 40
15.24
  1
1.2
 50
90.0
 41
1.083333333333333
  7
ＭＳ ゴシック
100
AcDbText
  0
LWPOLYLINE
  5
12F
330
1F
100
AcDbEntity
  8
1-4ﾚｲﾔ
  6
Continuous
 62
     7
370
     9
100
AcDbPolyline
 90
        4
 70
     1
 43
1.0
 10
-29.62367919801131
 20
-394.617831933188
 42
0.4142135623731
 10
-30.12367919801131
 20
-394.117831933188
 42
0.4142135623731
 10
-30.6236791980113
 20
-394.617831933188
 42
0.4142135623731
 10
-30.12367919801131
 20
-395.117831933188
 42
0.4142135623731
  0
LWPOLYLINE
  5
130
330
1F
100
AcDbEntity
  8
1-4ﾚｲﾔ
  6
Continuous
 62
     7
370
     9
100
AcDbPolyline
 90
        4
 70
     1
 43
1.0
 10
120.3763208019887
 20
-394.617831933188
 42
0.4142135623731
 10
119.8763208019887
 20
-394.117831933188
 42
0.4142135623731
 10
119.3763208019887
 20
-394.617831933188
 42
0.4142135623731
 10
119.8763208019887
 20
-395.117831933188
 42
0.4142135623731
  0
LWPOLYLINE
  5
131
330
1F
100
AcDbEntity
  8
1-4ﾚｲﾔ
  6
Continuous
 62
     7
370
     9
100
AcDbPolyline
 90
        4
 70
     1
 43
1.0
 10
204.0305285986525
 20
-431.8983528105107
 42
0.4142135623731
 10
203.5305285986525
 20
-431.3983528105107
 42
0.4142135623731
 10
203.0305285986525
 20
-431.8983528105107
 42
0.4142135623731
 10
203.5305285986525
 20
-432.3983528105106
 42
0.4142135623731
  0
LWPOLYLINE
  5
132
330
1F
100
AcDbEntity
  8
1-4ﾚｲﾔ
  6
Continuous
 62
     7
370
     9
100
AcDbPolyline
 90
        4
 70
     1
 43
1.0
 10
204.0305285986525
 20
-425.8983082713427
 42
0.4142135623731
 10
203.5305285986525
 20
-425.3983082713427
 42
0.4142135623731
 10
203.0305285986525
 20
-425.8983082713427
 42
0.4142135623731
 10
203.5305285986525
 20
-426.3983082713426
 42
0.4142135623731
  0
LWPOLYLINE
  5
133
330
1F
100
AcDbEntity
  8
1-4ﾚｲﾔ
  6
Continuous
 62
     7
370
     9
100
AcDbPolyline
 90
        4
 70
     1
 43
1.0
 10
230.3427844580275
 20
-425.8983082713427
 42
0.4142135623731
 10
229.8427844580275
 20
-425.3983082713427
 42
0.4142135623731
 10
229.3427844580275
 20
-425.8983082713427
 42
0.4142135623731
 10
229.8427844580275
 20
-426.3983082713426
 42
0.4142135623731
  0
LINE
  5
134
330
1F
100
AcDbEntity
  8
1-0ﾚｲﾔ
  6
Continuous
 62
     7
370
     9
100
AcDbLine
 10
113.8762762628206
 20
-464.8982637321745
 30
0.0
 11
-24.12375837875453
 21
-464.8982637321745
 31
0.0
  0
LINE
  5
135
330
1F
100
AcDbEntity
  8
1-0ﾚｲﾔ
  6
Continuous
 62
     7
370
     9
100
AcDbLine
 10
-30.12367919801131
 20
-437.8982736297673
 30
0.0
 11
-30.12367919801131
 21
-458.8982191930064
 31
0.0
  0
LINE
  5
136
330
1F
100
AcDbEntity
  8
1-0ﾚｲﾔ
  6
Continuous
 62
     7
370
     9
100
AcDbLine
 10
-36.12360001726807
 20
-458.8983429129178
 30
0.0
 11
-36.12360001726807
 21
-437.8983973496787
 31
0.0
  0
LINE
  5
137
330
1F
100
AcDbEntity
  8
1-0ﾚｲﾔ
  6
Continuous
 62
     7
370
     9
100
AcDbLine
 10
113.8763999827319
 20
-470.8983082713427
 30
0.0
 11
-24.12363465884335
 21
-470.8983082713427
 31
0.0
  0
LINE
  5
138
330
1F
100
AcDbEntity
  8
1-0ﾚｲﾔ
  6
Continuous
 62
     7
370
     9
100
AcDbLine
 10
125.8763653411568
 20
-458.8983429129178
 30
0.0
 11
125.8763653411568
 21
-437.8983973496787
 31
0.0
  0
LINE
  5
139
330
1F
100
AcDbEntity
  8
1-0ﾚｲﾔ
  6
Continuous
 62
     7
370
     9
100
AcDbLine
 10
119.8763208019887
 20
-437.8982736297673
 30
0.0
 11
119.8763208019887
 21
-458.8982191930064
 31
0.0
  0
LINE
  5
13A
330
1F
100
AcDbEntity
  8
1-4ﾚｲﾔ
  6
Continuous
 62
     7
370
     9
100
AcDbLine
 10
125.2591267035934
 20
-470.8983082713427
 30
0.0
 11
231.3427646628417
 21
-470.8983082713427
 31
0.0
  0
ARC
  5
13B
330
1F
100
AcDbEntity
  8
1-0ﾚｲﾔ
  6
Continuous
 62
     7
370
     9
100
AcDbCircle
 10
-24.12375837875453
 20
-458.8982191930064
 30
0.0
 40
6.000000077324945
100
AcDbArc
 50
180.0
 51
270.0
  0
ARC
  5
13C
330
1F
100
AcDbEntity
  8
1-0ﾚｲﾔ
  6
Continuous
 62
     7
370
     9
100
AcDbCircle
 10
113.8762762628206
 20
-458.8982191930064
 30
0.0
 40
6.000000077324945
100
AcDbArc
 50
270.0
 51
0.0
  0
ARC
  5
13D
330
1F
100
AcDbEntity
  8
1-0ﾚｲﾔ
  6
Continuous
 62
     7
370
     9
100
AcDbCircle
 10
-24.12363465884335
 20
-458.8983429129178
 30
0.0
 40
12.00000015464989
100
AcDbArc
 50
180.0
 51
270.0
  0
ARC
  5
13E
330
1F
100
AcDbEntity
  8
1-0ﾚｲﾔ
  6
Continuous
 62
     7
370
     9
100
AcDbCircle
 10
113.8763999827319
 20
-458.8983429129178
 30
0.0
 40
12.00000015464989
100
AcDbArc
 50
270.0
 51
0.0
  0
LWPOLYLINE
  5
13F
330
1F
100
AcDbEntity
  8
1-4ﾚｲﾔ
  6
Continuous
 62
     7
370
     9
100
AcDbPolyline
 90
        4
 70
     1
 43
1.0
 10
230.3427844580275
 20
-470.8983082713427
 42
0.4142135623731
 10
229.8427844580275
 20
-470.3983082713427
 42
0.4142135623731
 10
229.3427844580275
 20
-470.8983082713427
 42
0.4142135623731
 10
229.8427844580275
 20
-471.3983082713426
 42
0.4142135623731
  0
LINE
  5
140
330
1F
100
AcDbEntity
  8
D-5
  6
Continuous
 62
     7
370
     9
100
AcDbLine
 10
715.8604243769463
 20
398.0851793949291
 30
0.0
 11
885.7104843001598
 21
398.0851793949291
 31
0.0
  0
LINE
  5
141
330
1F
100
AcDbEntity
  8
D-6
  6
Continuous
 62
     6
370
     9
100
AcDbLine
 10
675.0598759602974
 20
322.5627057726388
 30
0.0
 11
886.0669899700099
 21
322.5627057726388
 31
0.0
  0
LINE
  5
142
330
1F
100
AcDbEntity
  8
D-6
  6
Continuous
 62
     6
370
     9
100
AcDbLine
 10
683.1871641777752
 20
322.5627057726388
 30
0.0
 11
691.9372219298454
 21
331.3127635247088
 31
0.0
  0
LINE
  5
143
330
1F
100
AcDbEntity
  8
D-6
  6
Continuous
 62
     6
370
     9
100
AcDbLine
 10
874.105995098148
 20
322.5627057726388
 30
0.0
 11
882.8560528502157
 21
331.3127635247064
 31
0.0
  0
LINE
  5
144
330
1F
100
AcDbEntity
  8
D-6
  6
Continuous
 62
     6
370
     9
100
AcDbLine
 10
852.892791662548
 20
322.5627057726388
 30
0.0
 11
861.6428494146174
 21
331.3127635247081
 31
0.0
  0
LINE
  5
145
330
1F
100
AcDbEntity
  8
D-6
  6
Continuous
 62
     6
370
     9
100
AcDbLine
 10
831.6795882269572
 20
322.5627057726388
 30
0.0
 11
840.4296459790265
 21
331.312763524708
 31
0.0
  0
LINE
  5
146
330
1F
100
AcDbEntity
  8
D-6
  6
Continuous
 62
     6
370
     9
100
AcDbLine
 10
810.4663847913571
 20
322.5627057726388
 30
0.0
 11
819.2164425434257
 21
331.3127635247072
 31
0.0
  0
LINE
  5
147
330
1F
100
AcDbEntity
  8
D-6
  6
Continuous
 62
     6
370
     9
100
AcDbLine
 10
789.2531813557572
 20
322.5627057726388
 30
0.0
 11
798.0032391078248
 21
331.3127635247064
 31
0.0
  0
LINE
  5
148
330
1F
100
AcDbEntity
  8
D-6
  6
Continuous
 62
     6
370
     9
100
AcDbLine
 10
768.0399779201663
 20
322.5627057726388
 30
0.0
 11
776.7900356722337
 21
331.3127635247062
 31
0.0
  0
LINE
  5
149
330
1F
100
AcDbEntity
  8
D-6
  6
Continuous
 62
     6
370
     9
100
AcDbLine
 10
746.8267744845663
 20
322.5627057726388
 30
0.0
 11
755.5768322366356
 21
331.312763524708
 31
0.0
  0
LINE
  5
14A
330
1F
100
AcDbEntity
  8
D-6
  6
Continuous
 62
     6
370
     9
100
AcDbLine
 10
725.6135710489752
 20
322.5627057726388
 30
0.0
 11
734.3636288010443
 21
331.3127635247079
 31
0.0
  0
LINE
  5
14B
330
1F
100
AcDbEntity
  8
D-6
  6
Continuous
 62
     6
370
     9
100
AcDbLine
 10
704.4003676133754
 20
322.5627057726388
 30
0.0
 11
713.1504253654435
 21
331.3127635247071
 31
0.0
  0
TEXT
  5
14C
330
1F
100
AcDbEntity
  8
D-4
  6
Continuous
 62
     2
370
   211
100
AcDbText
 10
766.1289477470337
 20
299.7396455006638
 30
0.0
 40
15.24
  1
15
 50
90.0
 41
1.0625
  7
ＭＳ ゴシック
100
AcDbText
  0
LINE
  5
14D
330
1F
100
AcDbEntity
  8
D-2
  6
JWW_CENTER2
 62
     3
370
     9
100
AcDbLine
 10
548.8496551306081
 20
-336.5264479051614
 30
0.0
 11
548.8496551306081
 21
-413.7719201098926
 31
0.0
  0
LINE
  5
14E
330
1F
100
AcDbEntity
  8
D-2
  6
Continuous
 62
     3
370
     9
100
AcDbLine
 10
638.243093963248
 20
-426.2053152010637
 30
0.0
 11
503.8501190802752
 21
-426.2053152010637
 31
0.0
  0
LINE
  5
14F
330
1F
100
AcDbEntity
  8
D-2
  6
Continuous
 62
     3
370
     9
100
AcDbLine
 10
659.51939092497
 20
-415.5359336285906
 30
0.0
 11
509.5194501337845
 21
-265.535205448541
 31
0.0
  0
LINE
  5
150
330
1F
100
AcDbEntity
  8
D-2
  6
Continuous
 62
     3
370
     9
100
AcDbLine
 10
498.8500685613117
 20
-421.2053959135773
 30
0.0
 11
498.8500685613117
 21
-269.9548191431334
 31
0.0
  0
CIRCLE
  5
151
330
1F
100
AcDbEntity
  8
D-2
  6
Continuous
 62
     3
370
     9
100
AcDbCircle
 10
548.8499175935629
 20
-376.2052037058579
 30
0.0
 40
28.12448037637247
  0
CIRCLE
  5
152
330
1F
100
AcDbEntity
  8
D-2
  6
Continuous
 62
     3
370
     9
100
AcDbCircle
 10
548.8497863620852
 20
-376.2050724743804
 30
0.0
 40
28.74992959747903
  0
CIRCLE
  5
153
330
1F
100
AcDbEntity
  8
D-2
  6
Continuous
 62
     3
370
     9
100
AcDbCircle
 10
548.8497863620852
 20
-376.2050724743804
 30
0.0
 40
33.74984683447362
  0
ARC
  5
154
330
1F
100
AcDbEntity
  8
D-2
  6
Continuous
 62
     3
370
     9
100
AcDbCircle
 10
503.8501190802752
 20
-421.2053959135773
 30
0.0
 40
4.999999769290903
100
AcDbArc
 50
180.0
 51
270.0
  0
ARC
  5
155
330
1F
100
AcDbEntity
  8
D-2
  6
Continuous
 62
     3
370
     9
100
AcDbCircle
 10
505.100098902147
 20
-269.9548191431334
 30
0.0
 40
6.249999583457888
100
AcDbArc
 50
45.0
 51
180.0
  0
LINE
  5
156
330
1F
100
AcDbEntity
  8
D-2
  6
Continuous
 62
     3
370
     9
100
AcDbLine
 10
500.3143493857151
 20
-424.7409031451828
 30
0.0
 11
481.3500885921543
 21
-443.7051639387434
 31
0.0
  0
LINE
  5
157
330
1F
100
AcDbEntity
  8
D-2
  6
Continuous
 62
     3
370
     9
100
AcDbLine
 10
655.1000396933323
 20
-426.2053152010637
 30
0.0
 11
638.243093963248
 21
-426.2053152010637
 31
0.0
  0
ARC
  5
158
330
1F
100
AcDbEntity
  8
D-2
  6
Continuous
 62
     3
370
     9
100
AcDbCircle
 10
655.1000396933323
 20
-419.9552848602283
 30
0.0
 40
6.249999583457888
100
AcDbArc
 50
270.0
 51
45.0
  0
LINE
  5
159
330
1F
100
AcDbEntity
  8
D-2
  6
Continuous
 62
     3
370
     9
100
AcDbLine
 10
481.3500885921543
 20
-443.7051639387434
 30
0.0
 11
748.7820977089563
 21
-443.705187976759
 31
0.0
  0
LINE
  5
15A
330
1F
100
AcDbEntity
  8
D-2
  6
Continuous
 62
     3
370
     9
100
AcDbLine
 10
748.7820977089563
 20
-426.2052069863955
 30
0.0
 11
498.8500685613117
 21
-426.2051839695863
 31
0.0
  0
LINE
  5
15B
330
1F
100
AcDbEntity
  8
D-2
  6
JWW_CENTER2
 62
     3
370
     9
100
AcDbLine
 10
512.2350230948335
 20
-376.2050724743804
 30
0.0
 11
587.2889296276218
 21
-376.2050724743804
 31
0.0
  0
LINE
  5
15C
330
1F
100
AcDbEntity
  8
D-2
  6
Continuous
 62
     3
370
     9
100
AcDbLine
 10
498.8500896363711
 20
-197.358026447726
 30
0.0
 11
498.8500685613117
 21
-426.2051839695863
 31
0.0
  0
LINE
  5
15D
330
1F
100
AcDbEntity
  8
D-2
  6
Continuous
 62
     3
370
     9
100
AcDbLine
 10
481.3500885921543
 20
-443.7051639387434
 30
0.0
 11
481.3500885921543
 21
-197.358026447726
 31
0.0
  0
CIRCLE
  5
15E
330
1F
100
AcDbEntity
  8
D-2
  6
Continuous
 62
     3
370
     9
100
AcDbCircle
 10
548.8494618182468
 20
-376.2050415444025
 30
0.0
 40
25.0
  0
CIRCLE
  5
15F
330
1F
100
AcDbEntity
  8
D-2
  6
Continuous
 62
     3
370
     9
100
AcDbCircle
 10
548.8494618182468
 20
-376.2050415444025
 30
0.0
 40
24.2498589003867
  0
LINE
  5
160
330
1F
100
AcDbEntity
  8
D-2
  6
Continuous
 62
     3
370
     9
100
AcDbLine
 10
536.5997678188269
 20
-369.7098699201416
 30
0.0
 11
549.3497232796589
 21
-362.3487826365689
 31
0.0
  0
LINE
  5
161
330
1F
100
AcDbEntity
  8
D-2
  6
Continuous
 62
     3
370
     9
100
AcDbLine
 10
549.3497232796589
 20
-390.0614241721477
 30
0.0
 11
536.5997678188269
 21
-382.7002131686637
 31
0.0
  0
LINE
  5
162
330
1F
100
AcDbEntity
  8
D-2
  6
Continuous
 62
     3
370
     9
100
AcDbLine
 10
560.5993892358985
 20
-383.5662525478865
 30
0.0
 11
560.5993892358985
 21
-368.8439542608302
 31
0.0
  0
ARC
  5
163
330
1F
100
AcDbEntity
  8
D-2
  6
Continuous
 62
     3
370
     9
100
AcDbCircle
 10
553.0997975116062
 20
-368.8439542608302
 30
0.0
 40
7.50000009665618
100
AcDbArc
 50
0.0
 51
120.0005493164062
  0
ARC
  5
164
330
1F
100
AcDbEntity
  8
D-2
  6
Continuous
 62
     3
370
     9
100
AcDbCircle
 10
540.3498420507741
 20
-376.2050415444025
 30
0.0
 40
7.50000009665618
100
AcDbArc
 50
120.0005493164062
 51
239.9994506835938
  0
ARC
  5
165
330
1F
100
AcDbEntity
  8
D-2
  6
Continuous
 62
     3
370
     9
100
AcDbCircle
 10
553.0997975116062
 20
-383.5662525478865
 30
0.0
 40
7.50000009665618
100
AcDbArc
 50
239.9994506835938
 51
0.0000000000000254
  0
LINE
  5
166
330
1F
100
AcDbEntity
  8
D-5
  6
Continuous
 62
     7
370
     9
100
AcDbLine
 10
479.2417200761087
 20
-545.9177292299048
 30
0.0
 11
763.7221706805218
 21
-545.9177292299048
 31
0.0
  0
TEXT
  5
167
330
1F
100
AcDbEntity
  8
D-5
  6
Continuous
 62
     2
370
     9
100
AcDbText
 10
490.6616947382709
 20
-534.2214441924259
 30
0.0
 40
15.24
  1
把手部詳細図　Ｓ＝１：２
 41
1.114583333333334
  7
ＭＳ ゴシック
100
AcDbText
  0
LINE
  5
168
330
1F
100
AcDbEntity
  8
1-5ﾚｲﾔ
  6
Continuous
 62
     7
370
     9
100
AcDbLine
 10
-69.85981300063172
 20
-529.1382440689565
 30
0.0
 11
206.5985148340389
 21
-529.1382440689565
 31
0.0
  0
TEXT
  5
169
330
1F
100
AcDbEntity
  8
1-5ﾚｲﾔ
  6
Continuous
 62
     2
370
     9
100
AcDbText
 10
-62.77250963281083
 20
-523.1001654556752
 30
0.0
 40
15.24
  1
補強材詳細図　Ｓ＝１：１
 41
1.114583333333333
  7
ＭＳ ゴシック
100
AcDbText
  0
LINE
  5
16A
330
1F
100
AcDbEntity
  8
D-5
  6
Continuous
 62
     7
370
     9
100
AcDbLine
 10
270.518289529532
 20
15.22480930510608
 30
0.0
 11
536.904455663928
 21
15.22480930510608
 31
0.0
  0
TEXT
  5
16B
330
1F
100
AcDbEntity
  8
D-5
  6
Continuous
 62
     2
370
     9
100
AcDbText
 10
278.0595459959596
 20
24.00817089056844
 30
0.0
 40
15.24
  1
断面詳細図　Ｓ＝１：２
 41
1.113636363636364
  7
ＭＳ ゴシック
100
AcDbText
  0
ARC
  5
16C
330
1F
100
AcDbEntity
  8
D-2
  6
Continuous
 62
     3
370
     9
100
AcDbCircle
 10
653.8099696339441
 20
330.0627259507672
 30
0.0
 40
1.249999942322725
100
AcDbArc
 50
0.0
 51
90.0
  0
LINE
  5
16D
330
1F
100
AcDbEntity
  8
D-2
  6
Continuous
 62
     3
370
     9
100
AcDbLine
 10
652.5601210435502
 20
328.8127057726388
 30
0.0
 11
640.0598182243385
 21
328.8127057726388
 31
0.0
  0
ARC
  5
16E
330
1F
100
AcDbEntity
  8
D-2
  6
Continuous
 62
     3
370
     9
100
AcDbCircle
 10
638.8098182243386
 20
330.0627057726388
 30
0.0
 40
1.25
100
AcDbArc
 50
90.0
 51
180.0
  0
LINE
  5
16F
330
1F
100
AcDbEntity
  8
D-2
  6
Continuous
 62
     3
370
     9
100
AcDbLine
 10
652.5601210435502
 20
296.3127511525718
 30
0.0
 11
640.0599291304019
 21
296.3127511525718
 31
0.0
  0
LINE
  5
170
330
1F
100
AcDbEntity
  8
D-2
  6
Continuous
 62
     3
370
     9
100
AcDbLine
 10
640.0599291304019
 20
296.3127511525718
 30
0.0
 11
640.0599291304019
 21
306.3127865747608
 31
0.0
  0
ARC
  5
171
330
1F
100
AcDbEntity
  8
D-2
  6
Continuous
 62
     3
370
     9
100
AcDbCircle
 10
638.8099493085305
 20
295.0627057149614
 30
0.0
 40
1.249999942322725
100
AcDbArc
 50
180.0
 51
270.0
  0
ARC
  5
172
330
1F
100
AcDbEntity
  8
D-2
  6
Continuous
 62
     3
370
     9
100
AcDbCircle
 10
653.8099696339441
 20
295.0627057149614
 30
0.0
 40
1.249999942322725
100
AcDbArc
 50
270.0
 51
0.0
  0
LINE
  5
173
330
1F
100
AcDbEntity
  8
D-2
  6
Continuous
 62
     3
370
     9
100
AcDbLine
 10
655.0598182243385
 20
330.0627259507672
 30
0.0
 11
655.0598182243385
 21
295.0627057149614
 31
0.0
  0
LINE
  5
174
330
1F
100
AcDbEntity
  8
D-2
  6
Continuous
 62
     3
370
     9
100
AcDbLine
 10
652.5601210435502
 20
296.3127511525718
 30
0.0
 11
652.5601210435502
 21
328.8127057726388
 31
0.0
  0
LINE
  5
175
330
1F
100
AcDbEntity
  8
D-2
  6
Continuous
 62
     3
370
     9
100
AcDbLine
 10
637.5598182243392
 20
330.0627057726388
 30
0.0
 11
637.5598182243392
 21
322.5627057726388
 31
0.0
  0
LINE
  5
176
330
1F
100
AcDbEntity
  8
D-2
  6
Continuous
 62
     3
370
     9
100
AcDbLine
 10
640.0598182243385
 20
321.3127057726389
 30
0.0
 11
640.0598182243385
 21
328.8127057726388
 31
0.0
  0
ARC
  5
177
330
1F
100
AcDbEntity
  8
D-2
  6
Continuous
 62
     3
370
     9
100
AcDbCircle
 10
638.8098182243386
 20
321.3127057726389
 30
0.0
 40
1.25
100
AcDbArc
 50
270.0
 51
0.0
  0
LINE
  5
178
330
1F
100
AcDbEntity
  8
D-2
  6
Continuous
 62
     3
370
     9
100
AcDbLine
 10
638.8098182243386
 20
320.0627057726389
 30
0.0
 11
621.5126365146615
 21
320.0627057726389
 31
0.0
  0
LINE
  5
179
330
1F
100
AcDbEntity
  8
D-2
  6
Continuous
 62
     3
370
     9
100
AcDbLine
 10
637.5598987318893
 20
322.5627057726388
 30
0.0
 11
622.3459556836088
 21
322.5627057726388
 31
0.0
  0
LINE
  5
17A
330
1F
100
AcDbEntity
  8
D-2
  6
Continuous
 62
     3
370
     9
100
AcDbLine
 10
637.5599694866589
 20
295.0627057149614
 30
0.0
 11
637.5599694866589
 21
306.3127865747608
 31
0.0
  0
LINE
  5
17B
330
1F
100
AcDbEntity
  8
D-2
  6
Continuous
 62
     3
370
     9
100
AcDbLine
 10
612.559777368548
 20
312.5627359661885
 30
0.0
 11
612.559777368548
 21
286.3127258930899
 31
0.0
  0
LINE
  5
17C
330
1F
100
AcDbEntity
  8
D-2
  6
Continuous
 62
     3
370
     9
100
AcDbLine
 10
607.5598580810613
 20
312.5627359661885
 30
0.0
 11
607.5598580810613
 21
286.3127258930899
 31
0.0
  0
LINE
  5
17D
330
1F
100
AcDbEntity
  8
D-2
  6
Continuous
 62
     3
370
     9
100
AcDbLine
 10
567.5597163923056
 20
312.5627359661885
 30
0.0
 11
567.5597163923056
 21
286.3127258930899
 31
0.0
  0
LINE
  5
17E
330
1F
100
AcDbEntity
  8
D-2
  6
Continuous
 62
     3
370
     9
100
AcDbLine
 10
562.5597971048195
 20
312.5627359661885
 30
0.0
 11
562.5597971048195
 21
286.3127258930899
 31
0.0
  0
LINE
  5
17F
330
1F
100
AcDbEntity
  8
D-2
  6
Continuous
 62
     3
370
     9
100
AcDbLine
 10
612.559777368548
 20
306.3127865747608
 30
0.0
 11
640.0599291304019
 21
306.3127865747608
 31
0.0
  0
LINE
  5
180
330
1F
100
AcDbEntity
  8
D-2
  6
Continuous
 62
     3
370
     9
100
AcDbLine
 10
653.8099696339441
 20
293.8127258930899
 30
0.0
 11
612.559777368548
 21
293.8127258930899
 31
0.0
  0
LINE
  5
181
330
1F
100
AcDbEntity
  8
D-2
  6
Continuous
 62
     3
370
     9
100
AcDbLine
 10
653.8099696339441
 20
331.3127057726388
 30
0.0
 11
2.59390718390371
 21
331.3127057726388
 31
0.0
  0
LINE
  5
182
330
1F
100
AcDbEntity
  8
D-2
  6
Continuous
 62
     3
370
     9
100
AcDbLine
 10
552.3570746658448
 20
322.5627057726388
 30
0.0
 11
2.59390718390371
 21
322.5627057726388
 31
0.0
  0
LINE
  5
183
330
1F
100
AcDbEntity
  8
D-2
  6
Continuous
 62
     3
370
     9
100
AcDbLine
 10
2.59390718390371
 20
320.0627057726389
 30
0.0
 11
553.606937958706
 21
320.0627057726389
 31
0.0
  0
LINE
  5
184
330
1F
100
AcDbEntity
  8
D-2
  6
Continuous
 62
     3
370
     9
100
AcDbLine
 10
471.0551298218115
 20
322.5627057726387
 30
0.0
 11
475.0593723331241
 21
326.5669482839513
 31
0.0
  0
LINE
  5
185
330
1F
100
AcDbEntity
  8
D-2
  6
Continuous
 62
     3
370
     9
100
AcDbLine
 10
449.8419263862206
 20
322.5627057726387
 30
0.0
 11
458.5919263862194
 21
331.3127057726375
 31
0.0
  0
LINE
  5
186
330
1F
100
AcDbEntity
  8
D-2
  6
Continuous
 62
     3
370
     9
100
AcDbLine
 10
428.6287229506198
 20
322.5627057726379
 30
0.0
 11
437.3787229506213
 21
331.3127057726394
 31
0.0
  0
LINE
  5
187
330
1F
100
AcDbEntity
  8
D-2
  6
Continuous
 62
     3
370
     9
100
AcDbLine
 10
407.4155195150189
 20
322.562705772637
 30
0.0
 11
416.1655195150178
 21
331.3127057726359
 31
0.0
  0
LINE
  5
188
330
1F
100
AcDbEntity
  8
D-2
  6
Continuous
 62
     3
370
     9
100
AcDbLine
 10
386.2023160794279
 20
322.5627057726368
 30
0.0
 11
394.9523160794294
 21
331.3127057726384
 31
0.0
  0
LINE
  5
189
330
1F
100
AcDbEntity
  8
D-2
  6
Continuous
 62
     3
370
     9
100
AcDbLine
 10
364.9891126438297
 20
322.5627057726387
 30
0.0
 11
373.7391126438286
 21
331.3127057726376
 31
0.0
  0
LINE
  5
18A
330
1F
100
AcDbEntity
  8
D-2
  6
Continuous
 62
     3
370
     9
100
AcDbLine
 10
343.7759092082387
 20
322.5627057726387
 30
0.0
 11
352.5259092082376
 21
331.3127057726375
 31
0.0
  0
LINE
  5
18B
330
1F
100
AcDbEntity
  8
D-2
  6
Continuous
 62
     3
370
     9
100
AcDbLine
 10
322.5627057726377
 20
322.5627057726377
 30
0.0
 11
331.3127057726394
 21
331.3127057726394
 31
0.0
  0
LINE
  5
18C
330
1F
100
AcDbEntity
  8
D-2
  6
Continuous
 62
     3
370
     9
100
AcDbLine
 10
301.3495023370379
 20
322.5627057726379
 30
0.0
 11
310.0995023370368
 21
331.3127057726368
 31
0.0
  0
LINE
  5
18D
330
1F
100
AcDbEntity
  8
D-2
  6
Continuous
 62
     3
370
     9
100
AcDbLine
 10
280.136298901446
 20
322.5627057726368
 30
0.0
 11
288.8862989014475
 21
331.3127057726384
 31
0.0
  0
LINE
  5
18E
330
1F
100
AcDbEntity
  8
D-2
  6
Continuous
 62
     3
370
     9
100
AcDbLine
 10
258.9230954658477
 20
322.5627057726387
 30
0.0
 11
267.6730954658467
 21
331.3127057726376
 31
0.0
  0
LINE
  5
18F
330
1F
100
AcDbEntity
  8
D-2
  6
Continuous
 62
     3
370
     9
100
AcDbLine
 10
237.7098920302568
 20
322.5627057726387
 30
0.0
 11
246.4598920302556
 21
331.3127057726375
 31
0.0
  0
LINE
  5
190
330
1F
100
AcDbEntity
  8
D-2
  6
Continuous
 62
     3
370
     9
100
AcDbLine
 10
216.4966885946559
 20
322.5627057726377
 30
0.0
 11
225.2466885946575
 21
331.3127057726393
 31
0.0
  0
LINE
  5
191
330
1F
100
AcDbEntity
  8
D-2
  6
Continuous
 62
     3
370
     9
100
AcDbLine
 10
195.2834851590566
 20
322.5627057726385
 30
0.0
 11
204.0334851590555
 21
331.3127057726373
 31
0.0
  0
LINE
  5
192
330
1F
100
AcDbEntity
  8
D-2
  6
Continuous
 62
     3
370
     9
100
AcDbLine
 10
174.0702817234641
 20
322.5627057726368
 30
0.0
 11
182.8202817234657
 21
331.3127057726383
 31
0.0
  0
LINE
  5
193
330
1F
100
AcDbEntity
  8
D-2
  6
Continuous
 62
     3
370
     9
100
AcDbLine
 10
152.8570782878658
 20
322.5627057726387
 30
0.0
 11
161.6070782878648
 21
331.3127057726376
 31
0.0
  0
LINE
  5
194
330
1F
100
AcDbEntity
  8
D-2
  6
Continuous
 62
     3
370
     9
100
AcDbLine
 10
131.6438748522748
 20
322.5627057726385
 30
0.0
 11
140.3938748522738
 21
331.3127057726374
 31
0.0
  0
LINE
  5
195
330
1F
100
AcDbEntity
  8
D-2
  6
Continuous
 62
     3
370
     9
100
AcDbLine
 10
110.430671416674
 20
322.5627057726376
 30
0.0
 11
119.1806714166755
 21
331.3127057726392
 31
0.0
  0
LINE
  5
196
330
1F
100
AcDbEntity
  8
D-2
  6
Continuous
 62
     3
370
     9
100
AcDbLine
 10
89.2174679810758
 20
322.5627057726394
 30
0.0
 11
97.96746798107478
 21
331.3127057726385
 31
0.0
  0
LINE
  5
197
330
1F
100
AcDbEntity
  8
D-2
  6
Continuous
 62
     3
370
     9
100
AcDbLine
 10
68.00426454548213
 20
322.5627057726367
 30
0.0
 11
76.7542645454837
 21
331.3127057726383
 31
0.0
  0
LINE
  5
198
330
1F
100
AcDbEntity
  8
D-2
  6
Continuous
 62
     3
370
     9
100
AcDbLine
 10
46.79106110988393
 20
322.5627057726385
 30
0.0
 11
55.54106110988549
 21
331.31270577264
 31
0.0
  0
LINE
  5
199
330
1F
100
AcDbEntity
  8
D-2
  6
Continuous
 62
     3
370
     9
100
AcDbLine
 10
25.57785767429294
 20
322.5627057726385
 30
0.0
 11
34.32785767429188
 21
331.3127057726373
 31
0.0
  0
LINE
  5
19A
330
1F
100
AcDbEntity
  8
D-2
  6
Continuous
 62
     3
370
     9
100
AcDbLine
 10
4.364654238692083
 20
322.5627057726376
 30
0.0
 11
13.11465423869365
 21
331.3127057726392
 31
0.0
  0
LINE
  5
19B
330
1F
100
AcDbEntity
  8
D-2
  6
Continuous
 62
     3
370
     9
100
AcDbLine
 10
603.8097840540778
 20
321.3127915665058
 30
0.0
 11
603.8097840540778
 21
316.312741047542
 31
0.0
  0
LINE
  5
19C
330
1F
100
AcDbEntity
  8
D-2
  6
Continuous
 62
     3
370
     9
100
AcDbLine
 10
571.3100462224614
 20
321.3123988439286
 30
0.0
 11
571.3100462224614
 21
316.312741047542
 31
0.0
  0
LINE
  5
19D
330
1F
100
AcDbEntity
  8
D-2
  6
Continuous
 62
     3
370
     9
100
AcDbLine
 10
513.6905039201492
 20
286.3127258930899
 30
0.0
 11
513.6905039201492
 21
282.5626551959975
 31
0.0
  0
LINE
  5
19E
330
1F
100
AcDbEntity
  8
D-2
  6
Continuous
 62
     3
370
     9
100
AcDbLine
 10
520.5675582598196
 20
282.5626551959975
 30
0.0
 11
520.5675582598196
 21
276.3126904709009
 31
0.0
  0
LINE
  5
19F
330
1F
100
AcDbEntity
  8
D-2
  6
Continuous
 62
     3
370
     9
100
AcDbLine
 10
518.7996077968007
 20
282.5626551959975
 30
0.0
 11
518.7996077968007
 21
276.3126904709009
 31
0.0
  0
LINE
  5
1A0
330
1F
100
AcDbEntity
  8
D-2
  6
Continuous
 62
     3
370
     9
100
AcDbLine
 10
572.5598948128556
 20
286.3127258930899
 30
0.0
 11
572.5598948128556
 21
282.5626551959975
 31
0.0
  0
LINE
  5
1A1
330
1F
100
AcDbEntity
  8
D-2
  6
Continuous
 62
     3
370
     9
100
AcDbLine
 10
602.5599354636837
 20
286.3127258930899
 30
0.0
 11
602.5599354636837
 21
282.5626551959975
 31
0.0
  0
LINE
  5
1A2
330
1F
100
AcDbEntity
  8
D-2
  6
Continuous
 62
     3
370
     9
100
AcDbLine
 10
625.0598347203272
 20
282.5626551959975
 30
0.0
 11
513.6905039201492
 21
282.5626551959975
 31
0.0
  0
LINE
  5
1A3
330
1F
100
AcDbEntity
  8
D-2
  6
Continuous
 62
     3
370
     9
100
AcDbLine
 10
568.8099151382696
 20
268.1168091152175
 30
0.0
 11
568.8099151382696
 21
282.5626551959975
 31
0.0
  0
LINE
  5
1A4
330
1F
100
AcDbEntity
  8
D-2
  6
Continuous
 62
     3
370
     9
100
AcDbLine
 10
578.1918435821783
 20
268.1168091152175
 30
0.0
 11
578.1918435821783
 21
282.5626551959975
 31
0.0
  0
LINE
  5
1A5
330
1F
100
AcDbEntity
  8
D-2
  6
Continuous
 62
     3
370
     9
100
AcDbLine
 10
596.9279866943613
 20
268.1168091152175
 30
0.0
 11
596.9279866943613
 21
282.5626551959975
 31
0.0
  0
LINE
  5
1A6
330
1F
100
AcDbEntity
  8
D-2
  6
Continuous
 62
     3
370
     9
100
AcDbLine
 10
573.5008793602243
 20
266.3126015518172
 30
0.0
 11
601.6189509163153
 21
266.3126015518172
 31
0.0
  0
ARC
  5
1A7
330
1F
100
AcDbEntity
  8
D-2
  6
Continuous
 62
     3
370
     9
100
AcDbCircle
 10
573.5008793602243
 20
273.3130454872115
 30
0.0
 40
7.000433206558228
100
AcDbArc
 50
227.9253692626954
 51
312.0744323730469
  0
ARC
  5
1A8
330
1F
100
AcDbEntity
  8
D-2
  6
Continuous
 62
     3
370
     9
100
AcDbCircle
 10
587.5599151382696
 20
291.5361219499572
 30
0.0
 40
25.22352457046509
100
AcDbArc
 50
248.1978607177735
 51
291.8021392822266
  0
ARC
  5
1A9
330
1F
100
AcDbEntity
  8
D-2
  6
Continuous
 62
     3
370
     9
100
AcDbCircle
 10
601.6189509163153
 20
273.3131074760421
 30
0.0
 40
7.000473737716675
100
AcDbArc
 50
227.9257202148438
 51
312.0742797851563
  0
LINE
  5
1AA
330
1F
100
AcDbEntity
  8
D-2
  6
Continuous
 62
     3
370
     9
100
AcDbLine
 10
606.3099151382696
 20
268.1168091152175
 30
0.0
 11
606.3099151382696
 21
282.5626551959975
 31
0.0
  0
LINE
  5
1AB
330
1F
100
AcDbEntity
  8
D-2
  6
Continuous
 62
     3
370
     9
100
AcDbLine
 10
570.8271143857698
 20
316.312741047542
 30
0.0
 11
571.3100462224618
 21
316.7956728842336
 31
0.0
  0
LINE
  5
1AC
330
1F
100
AcDbEntity
  8
D-2
  6
Continuous
 62
     3
370
     9
100
AcDbLine
 10
567.6450135226999
 20
316.312741047542
 30
0.0
 11
571.3100462224618
 21
319.9777737473038
 31
0.0
  0
LINE
  5
1AD
330
1F
100
AcDbEntity
  8
D-2
  6
Continuous
 62
     3
370
     9
100
AcDbLine
 10
615.3746892280683
 20
316.312741047542
 30
0.0
 11
615.6846579775971
 21
316.622644181332
 31
0.0
  0
LINE
  5
1AE
330
1F
100
AcDbEntity
  8
D-2
  6
Continuous
 62
     3
370
     9
100
AcDbLine
 10
612.1928508279531
 20
316.312741047542
 30
0.0
 11
615.6846579775971
 21
319.8046138129249
 31
0.0
  0
LINE
  5
1AF
330
1F
100
AcDbEntity
  8
D-2
  6
Continuous
 62
     3
370
     9
100
AcDbLine
 10
603.8097840540781
 20
320.6578808787315
 30
0.0
 11
604.4645735313669
 21
321.3127359661885
 31
0.0
  0
LINE
  5
1B0
330
1F
100
AcDbEntity
  8
D-2
  6
Continuous
 62
     3
370
     9
100
AcDbLine
 10
564.4629126596298
 20
316.312741047542
 30
0.0
 11
569.4629075782764
 21
321.3127359661885
 31
0.0
  0
LINE
  5
1B1
330
1F
100
AcDbEntity
  8
D-2
  6
Continuous
 62
     3
370
     9
100
AcDbLine
 10
625.0598347203272
 20
276.3126904709009
 30
0.0
 11
606.3099151382696
 21
276.3126904709009
 31
0.0
  0
LINE
  5
1B2
330
1F
100
AcDbEntity
  8
D-2
  6
Continuous
 62
     3
370
     9
100
AcDbLine
 10
568.8099151382696
 20
276.3126904709009
 30
0.0
 11
518.7996077968007
 21
276.3126904709009
 31
0.0
  0
LINE
  5
1B3
330
1F
100
AcDbEntity
  8
D-2
  6
Continuous
 62
     3
370
     9
100
AcDbLine
 10
576.3099661567677
 20
321.3127359661885
 30
0.0
 11
576.3099661567677
 21
316.3127410475419
 31
0.0
  0
LINE
  5
1B4
330
1F
100
AcDbEntity
  8
D-2
  6
Continuous
 62
     3
370
     9
100
AcDbLine
 10
598.8099151382696
 20
321.3127359661885
 30
0.0
 11
598.8099151382696
 21
316.3127410475419
 31
0.0
  0
LINE
  5
1B5
330
1F
100
AcDbEntity
  8
D-2
  6
Continuous
 62
     3
370
     9
100
AcDbLine
 10
593.80991513827
 20
257.5625711534486
 30
0.0
 11
597.5599758199406
 21
264.0578667855685
 31
0.0
  0
LINE
  5
1B6
330
1F
100
AcDbEntity
  8
D-2
  6
Continuous
 62
     3
370
     9
100
AcDbLine
 10
581.30991513827
 20
257.5625711534486
 30
0.0
 11
593.80991513827
 21
257.5625711534486
 31
0.0
  0
LINE
  5
1B7
330
1F
100
AcDbEntity
  8
D-2
  6
Continuous
 62
     3
370
     9
100
AcDbLine
 10
581.30991513827
 20
257.5625711534486
 30
0.0
 11
577.5598544565989
 21
264.0578667855687
 31
0.0
  0
LINE
  5
1B8
330
1F
100
AcDbEntity
  8
D-2
  6
Continuous
 62
     3
370
     9
100
AcDbLine
 10
616.3098480656403
 20
316.3127410475419
 30
0.0
 11
558.8097264077272
 21
316.3127410475419
 31
0.0
  0
LINE
  5
1B9
330
1F
100
AcDbEntity
  8
D-2
  6
Continuous
 62
     3
370
     9
100
AcDbLine
 10
612.5599976182108
 20
331.3127057726388
 30
0.0
 11
612.5599976182108
 21
328.8126975246447
 31
0.0
  0
LINE
  5
1BA
330
1F
100
AcDbEntity
  8
D-2
  6
Continuous
 62
     3
370
     9
100
AcDbLine
 10
562.5602656780186
 20
328.8126975246447
 30
0.0
 11
562.5602656780186
 21
331.3127057726388
 31
0.0
  0
LINE
  5
1BB
330
1F
100
AcDbEntity
  8
D-2
  6
Continuous
 62
     3
370
     9
100
AcDbLine
 10
612.5599976182108
 20
328.8126975246447
 30
0.0
 11
605.060407219423
 21
321.3127359661885
 31
0.0
  0
LINE
  5
1BC
330
1F
100
AcDbEntity
  8
D-2
  6
Continuous
 62
     3
370
     9
100
AcDbLine
 10
570.0604128163088
 20
321.3127359661885
 30
0.0
 11
605.060407219423
 21
321.3127359661885
 31
0.0
  0
LINE
  5
1BD
330
1F
100
AcDbEntity
  8
D-2
  6
Continuous
 62
     3
370
     9
100
AcDbLine
 10
562.5602656780186
 20
328.8126975246447
 30
0.0
 11
570.0604128163088
 21
321.3127359661885
 31
0.0
  0
LINE
  5
1BE
330
1F
100
AcDbEntity
  8
D-2
  6
Continuous
 62
     3
370
     9
100
AcDbLine
 10
612.5599976182108
 20
328.8126975246447
 30
0.0
 11
562.5602656780186
 21
328.8126975246447
 31
0.0
  0
LINE
  5
1BF
330
1F
100
AcDbEntity
  8
D-2
  6
JWW_CENTER1
 62
     3
370
     9
100
AcDbLine
 10
587.5599151382696
 20
339.4607639440821
 30
0.0
 11
587.5599151382696
 21
251.1729571769015
 31
0.0
  0
LINE
  5
1C0
330
1F
100
AcDbEntity
  8
D-2
  6
Continuous
 62
     3
370
     9
100
AcDbLine
 10
580.0599151382696
 20
286.3127258930899
 30
0.0
 11
513.6905039201492
 21
286.3127258930899
 31
0.0
  0
LINE
  5
1C1
330
1F
100
AcDbEntity
  8
D-2
  6
Continuous
 62
     3
370
     9
100
AcDbLine
 10
625.0598347203272
 20
286.3127258930899
 30
0.0
 11
595.0599151382696
 21
286.3127258930899
 31
0.0
  0
LINE
  5
1C2
330
1F
100
AcDbEntity
  8
D-2
  6
Continuous
 62
     3
370
     9
100
AcDbLine
 10
580.0599151382696
 20
316.3127410475419
 30
0.0
 11
580.0599151382696
 21
282.5626551959975
 31
0.0
  0
LINE
  5
1C3
330
1F
100
AcDbEntity
  8
D-2
  6
Continuous
 62
     3
370
     9
100
AcDbLine
 10
595.0599151382696
 20
316.3127410475419
 30
0.0
 11
595.0599151382696
 21
282.5626551959975
 31
0.0
  0
LINE
  5
1C4
330
1F
100
AcDbEntity
  8
D-2
  6
Continuous
 62
     3
370
     9
100
AcDbLine
 10
597.5599758199406
 20
266.3126015518172
 30
0.0
 11
597.5599758199406
 21
264.0578667855685
 31
0.0
  0
LINE
  5
1C5
330
1F
100
AcDbEntity
  8
D-2
  6
Continuous
 62
     3
370
     9
100
AcDbLine
 10
595.5298248651528
 20
266.3126015518172
 30
0.0
 11
595.5298248651528
 21
260.5415421848417
 31
0.0
  0
LINE
  5
1C6
330
1F
100
AcDbEntity
  8
D-2
  6
Continuous
 62
     3
370
     9
100
AcDbLine
 10
579.589742948432
 20
266.3126015518172
 30
0.0
 11
579.589742948432
 21
260.5419967840145
 31
0.0
  0
LINE
  5
1C7
330
1F
100
AcDbEntity
  8
D-2
  6
Continuous
 62
     3
370
     9
100
AcDbLine
 10
577.5598544565989
 20
266.3126015518172
 30
0.0
 11
577.5598544565989
 21
264.0578667855687
 31
0.0
  0
LINE
  5
1C8
330
1F
100
AcDbEntity
  8
D-2
  6
Continuous
 62
     3
370
     9
100
AcDbLine
 10
559.4351722989425
 20
323.812741047542
 30
0.0
 11
559.4351722989425
 21
316.312741047542
 31
0.0
  0
LINE
  5
1C9
330
1F
100
AcDbEntity
  8
D-2
  6
Continuous
 62
     3
370
     9
100
AcDbLine
 10
615.6846579775968
 20
323.812741047542
 30
0.0
 11
615.6846579775968
 21
316.312741047542
 31
0.0
  0
LINE
  5
1CA
330
1F
100
AcDbEntity
  8
D-2
  6
Continuous
 62
     3
370
     9
100
AcDbLine
 10
559.4351722989425
 20
323.812741047542
 30
0.0
 11
567.5603458745679
 21
323.812741047542
 31
0.0
  0
LINE
  5
1CB
330
1F
100
AcDbEntity
  8
D-2
  6
Continuous
 62
     3
370
     9
100
AcDbLine
 10
607.5602885800013
 20
323.812741047542
 30
0.0
 11
615.6846579775968
 21
323.812741047542
 31
0.0
  0
LINE
  5
1CC
330
1F
100
AcDbEntity
  8
D-2
  6
Continuous
 62
     3
370
     9
100
AcDbLine
 10
559.4351722989428
 20
320.8310408131104
 30
0.0
 11
562.4169077651483
 21
323.812741047542
 31
0.0
  0
LINE
  5
1CD
330
1F
100
AcDbEntity
  8
D-2
  6
Continuous
 62
     3
370
     9
100
AcDbLine
 10
559.4351722989428
 20
317.6489399500403
 30
0.0
 11
565.5989733964442
 21
323.812741047542
 31
0.0
  0
LINE
  5
1CE
330
1F
100
AcDbEntity
  8
D-2
  6
Continuous
 62
     3
370
     9
100
AcDbLine
 10
603.8097840540781
 20
317.4757800156614
 30
0.0
 11
610.1468184397542
 21
323.812741047542
 31
0.0
  0
LINE
  5
1CF
330
1F
100
AcDbEntity
  8
D-2
  6
Continuous
 62
     3
370
     9
100
AcDbLine
 10
605.8286491018126
 20
316.312741047542
 30
0.0
 11
613.3286491018126
 21
323.812741047542
 31
0.0
  0
LINE
  5
1D0
330
1F
100
AcDbEntity
  8
D-2
  6
Continuous
 62
     3
370
     9
100
AcDbLine
 10
609.0107499648827
 20
316.312741047542
 30
0.0
 11
615.6846579775968
 21
322.9867146759946
 31
0.0
  0
LINE
  5
1D1
330
1F
100
AcDbEntity
  8
D-2
  6
Continuous
 62
     3
370
     9
100
AcDbLine
 10
561.2808117965598
 20
316.312741047542
 30
0.0
 11
568.1705535753546
 21
323.2025484454249
 31
0.0
  0
LINE
  5
1D2
330
1F
100
AcDbEntity
  8
D-2
  6
JWW_DASHED2
 62
     3
370
     9
100
AcDbLine
 10
571.8095662481196
 20
325.5627057726388
 30
0.0
 11
571.8095662481196
 21
331.3127057726388
 31
0.0
  0
ARC
  5
1D3
330
1F
100
AcDbEntity
  8
D-2
  6
JWW_DASHED2
 62
     3
370
     9
100
AcDbCircle
 10
572.3095662481197
 20
325.5627057726388
 30
0.0
 40
0.5
100
AcDbArc
 50
180.0
 51
270.0
  0
LINE
  5
1D4
330
1F
100
AcDbEntity
  8
D-2
  6
JWW_DASHED2
 62
     3
370
     9
100
AcDbLine
 10
598.8723829710927
 20
325.0627057726388
 30
0.0
 11
572.3095662481197
 21
325.0627057726388
 31
0.0
  0
LINE
  5
1D5
330
1F
100
AcDbEntity
  8
D-2
  6
JWW_DASHED2
 62
     3
370
     9
100
AcDbLine
 10
599.3723829710925
 20
325.5627057726388
 30
0.0
 11
599.3723829710925
 21
331.3127057726388
 31
0.0
  0
ARC
  5
1D6
330
1F
100
AcDbEntity
  8
D-2
  6
JWW_DASHED2
 62
     3
370
     9
100
AcDbCircle
 10
598.8723829710927
 20
325.5627057726388
 30
0.0
 40
0.5
100
AcDbArc
 50
270.0
 51
0.0
  0
LINE
  5
1D7
330
1F
100
AcDbEntity
  8
D-2
  6
Continuous
 62
     3
370
     9
100
AcDbLine
 10
475.0593723331236
 20
328.8127361134742
 30
0.0
 11
475.0593723331236
 21
322.5627057726388
 31
0.0
  0
LINE
  5
1D8
330
1F
100
AcDbEntity
  8
D-2
  6
Continuous
 62
     3
370
     9
100
AcDbLine
 10
637.5598987318893
 20
328.8127361134742
 30
0.0
 11
637.5598987318893
 21
322.5627057726388
 31
0.0
  0
LINE
  5
1D9
330
1F
100
AcDbEntity
  8
D-2
  6
Continuous
 62
     3
370
     9
100
AcDbLine
 10
478.8094430302158
 20
327.5627562916026
 30
0.0
 11
478.8094430302158
 21
322.5627057726388
 31
0.0
  0
LINE
  5
1DA
330
1F
100
AcDbEntity
  8
D-2
  6
Continuous
 62
     3
370
     9
100
AcDbLine
 10
478.8094430302158
 20
327.5627562916026
 30
0.0
 11
551.1069636124962
 21
327.5627562916026
 31
0.0
  0
LINE
  5
1DB
330
1F
100
AcDbEntity
  8
D-2
  6
Continuous
 62
     3
370
     9
100
AcDbLine
 10
554.9672687505723
 20
315.981644030158
 30
0.0
 11
551.1069636124962
 21
327.5627562916026
 31
0.0
  0
LINE
  5
1DC
330
1F
100
AcDbEntity
  8
D-2
  6
Continuous
 62
     3
370
     9
100
AcDbLine
 10
633.8098280347971
 20
327.5627562916026
 30
0.0
 11
633.8098280347971
 21
322.5627057726388
 31
0.0
  0
LINE
  5
1DD
330
1F
100
AcDbEntity
  8
D-2
  6
Continuous
 62
     3
370
     9
100
AcDbLine
 10
633.8098280347971
 20
327.5627562916026
 30
0.0
 11
624.0126108608707
 21
327.5627562916026
 31
0.0
  0
LINE
  5
1DE
330
1F
100
AcDbEntity
  8
D-2
  6
Continuous
 62
     3
370
     9
100
AcDbLine
 10
620.1523057227952
 20
315.981644030158
 30
0.0
 11
624.0126108608707
 21
327.5627562916026
 31
0.0
  0
LINE
  5
1DF
330
1F
100
AcDbEntity
  8
D-2
  6
Continuous
 62
     3
370
     9
100
AcDbLine
 10
635.0599390881463
 20
331.312761372956
 30
0.0
 11
477.559594439822
 21
331.312761372956
 31
0.0
  0
LINE
  5
1E0
330
1F
100
AcDbEntity
  8
D-2
  6
Continuous
 62
     3
370
     9
100
AcDbLine
 10
620.4550567410685
 20
328.7484983053056
 30
0.0
 11
616.3098480656403
 21
316.3127410475419
 31
0.0
  0
LINE
  5
1E1
330
1F
100
AcDbEntity
  8
D-2
  6
Continuous
 62
     3
370
     9
100
AcDbLine
 10
558.8097264077272
 20
316.3127410475419
 30
0.0
 11
554.6645177322985
 21
328.7484983053056
 31
0.0
  0
ARC
  5
1E2
330
1F
100
AcDbEntity
  8
D-2
  6
Continuous
 62
     3
370
     9
100
AcDbCircle
 10
551.1069636124962
 20
327.562690675864
 30
0.0
 40
3.749999955123916
100
AcDbArc
 50
18.43449401855469
 51
90.0
  0
ARC
  5
1E3
330
1F
100
AcDbEntity
  8
D-2
  6
Continuous
 62
     3
370
     9
100
AcDbCircle
 10
559.7107617312942
 20
317.5627208694137
 30
0.0
 40
1.249999942322725
100
AcDbArc
 50
198.4344940185547
 51
270.0
  0
ARC
  5
1E4
330
1F
100
AcDbEntity
  8
D-2
  6
Continuous
 62
     3
370
     9
100
AcDbCircle
 10
624.0126108608707
 20
327.562690675864
 30
0.0
 40
3.749999955123916
100
AcDbArc
 50
90.0
 51
161.5655059814453
  0
ARC
  5
1E5
330
1F
100
AcDbEntity
  8
D-2
  6
Continuous
 62
     3
370
     9
100
AcDbCircle
 10
615.4088127420733
 20
317.5627208694137
 30
0.0
 40
1.249999942322725
100
AcDbArc
 50
270.0
 51
341.5655059814453
  0
ARC
  5
1E6
330
1F
100
AcDbEntity
  8
D-2
  6
Continuous
 62
     3
370
     9
100
AcDbCircle
 10
477.559594439822
 20
328.8127361134742
 30
0.0
 40
2.499999884645451
100
AcDbArc
 50
90.0
 51
180.0
  0
ARC
  5
1E7
330
1F
100
AcDbEntity
  8
D-2
  6
Continuous
 62
     3
370
     9
100
AcDbCircle
 10
635.0599390881463
 20
328.8127361134742
 30
0.0
 40
2.499999884645451
100
AcDbArc
 50
0.0
 51
90.0
  0
ARC
  5
1E8
330
1F
100
AcDbEntity
  8
D-2
  6
Continuous
 62
     3
370
     9
100
AcDbCircle
 10
559.7107617312942
 20
317.5627208694137
 30
0.0
 40
4.999999769290902
100
AcDbArc
 50
198.4344940185547
 51
270.0
  0
ARC
  5
1E9
330
1F
100
AcDbEntity
  8
D-2
  6
Continuous
 62
     3
370
     9
100
AcDbCircle
 10
615.4088127420733
 20
317.5627208694137
 30
0.0
 40
4.999999769290902
100
AcDbArc
 50
270.0
 51
341.5655059814453
  0
ARC
  5
1EA
330
1F
100
AcDbEntity
  8
D-2
  6
Continuous
 62
     3
370
     9
100
AcDbCircle
 10
597.5599184681608
 20
313.8127410475419
 30
0.0
 40
2.5
100
AcDbArc
 50
90.0
 51
180.0
  0
ARC
  5
1EB
330
1F
100
AcDbEntity
  8
D-2
  6
Continuous
 62
     3
370
     9
100
AcDbCircle
 10
600.0599184681608
 20
311.3127359661885
 30
0.0
 40
1.25
100
AcDbArc
 50
90.0
 51
180.0
  0
LINE
  5
1EC
330
1F
100
AcDbEntity
  8
D-2
  6
Continuous
 62
     3
370
     9
100
AcDbLine
 10
595.0599184681608
 20
313.8127410475419
 30
0.0
 11
595.0599184681608
 21
306.3127410475419
 31
0.0
  0
LINE
  5
1ED
330
1F
100
AcDbEntity
  8
D-2
  6
Continuous
 62
     3
370
     9
100
AcDbLine
 10
597.5599184681608
 20
316.3127410475419
 30
0.0
 11
597.5599184681608
 21
306.3127410475419
 31
0.0
  0
LINE
  5
1EE
330
1F
100
AcDbEntity
  8
D-2
  6
Continuous
 62
     3
370
     9
100
AcDbLine
 10
598.8099184681608
 20
311.3127359661885
 30
0.0
 11
598.8099184681608
 21
306.3127410475419
 31
0.0
  0
ARC
  5
1EF
330
1F
100
AcDbEntity
  8
D-2
  6
Continuous
 62
     3
370
     9
100
AcDbCircle
 10
577.5599184681608
 20
313.8127410475419
 30
0.0
 40
2.5
100
AcDbArc
 50
0.0000000000000127
 51
90.00000000000001
  0
ARC
  5
1F0
330
1F
100
AcDbEntity
  8
D-2
  6
Continuous
 62
     3
370
     9
100
AcDbCircle
 10
575.0599184681608
 20
311.3127359661885
 30
0.0
 40
1.25
100
AcDbArc
 50
0.0000000000000127
 51
90.00000000000001
  0
LINE
  5
1F1
330
1F
100
AcDbEntity
  8
D-2
  6
Continuous
 62
     3
370
     9
100
AcDbLine
 10
580.0599184681608
 20
313.8127410475419
 30
0.0
 11
580.0599184681608
 21
306.3127410475419
 31
0.0
  0
LINE
  5
1F2
330
1F
100
AcDbEntity
  8
D-2
  6
Continuous
 62
     3
370
     9
100
AcDbLine
 10
577.5599184681608
 20
316.3127410475419
 30
0.0
 11
577.5599184681608
 21
306.3127410475419
 31
0.0
  0
LINE
  5
1F3
330
1F
100
AcDbEntity
  8
D-2
  6
Continuous
 62
     3
370
     9
100
AcDbLine
 10
615.4088127420733
 20
312.5627359661885
 30
0.0
 11
600.0599184681608
 21
312.5627359661885
 31
0.0
  0
LINE
  5
1F4
330
1F
100
AcDbEntity
  8
D-2
  6
Continuous
 62
     3
370
     9
100
AcDbLine
 10
575.0599184681608
 20
312.5627359661885
 30
0.0
 11
559.7107617312942
 21
312.5627359661885
 31
0.0
  0
LINE
  5
1F5
330
1F
100
AcDbEntity
  8
D-2
  6
Continuous
 62
     3
370
     9
100
AcDbLine
 10
576.3099184681608
 20
311.3127359661885
 30
0.0
 11
576.3099184681608
 21
306.3127410475419
 31
0.0
  0
LINE
  5
1F6
330
1F
100
AcDbEntity
  8
D-2
  6
JWW_HOJO
 62
     3
370
     9
100
AcDbLine
 10
554.1751555532165
 20
330.2168473055073
 30
0.0
 11
553.216047439703
 21
333.0938271388209
 31
0.0
  0
LINE
  5
1F7
330
1F
100
AcDbEntity
  8
D-2
  6
JWW_HOJO
 62
     3
370
     9
100
AcDbLine
 10
621.8122330692689
 20
332.8203566545517
 30
0.0
 11
620.9769643265367
 21
330.3142210617098
 31
0.0
  0
LINE
  5
1F8
330
1F
100
AcDbEntity
  8
D-2
  6
Continuous
 62
     3
370
     9
100
AcDbLine
 10
595.0599184681608
 20
306.3127410475419
 30
0.0
 11
598.8099184681608
 21
306.3127410475419
 31
0.0
  0
LINE
  5
1F9
330
1F
100
AcDbEntity
  8
D-2
  6
Continuous
 62
     3
370
     9
100
AcDbLine
 10
576.3099184681608
 20
306.3127410475419
 30
0.0
 11
580.0599184681608
 21
306.3127410475419
 31
0.0
  0
LINE
  5
1FA
330
1F
100
AcDbEntity
  8
D-1
  6
Continuous
 62
     2
370
     9
100
AcDbLine
 10
660.0598298022243
 20
328.8125738047335
 30
0.0
 11
672.559994762106
 21
328.8125738047335
 31
0.0
  0
LINE
  5
1FB
330
1F
100
AcDbEntity
  8
D-1
  6
Continuous
 62
     2
370
     9
100
AcDbLine
 10
675.0598792901889
 20
330.0627635085975
 30
0.0
 11
675.0598792901889
 21
318.8127882525798
 31
0.0
  0
ARC
  5
1FC
330
1F
100
AcDbEntity
  8
D-1
  6
Continuous
 62
     2
370
     9
100
AcDbCircle
 10
673.8099370261472
 20
330.0627635085975
 30
0.0
 40
1.250000016109364
100
AcDbArc
 50
0.0
 51
90.0
  0
ARC
  5
1FD
330
1F
100
AcDbEntity
  8
D-1
  6
Continuous
 62
     2
370
     9
100
AcDbCircle
 10
658.8098875381826
 20
330.0627635085975
 30
0.0
 40
1.250000016109364
100
AcDbArc
 50
90.0
 51
180.0
  0
LINE
  5
1FE
330
1F
100
AcDbEntity
  8
D-1
  6
Continuous
 62
     2
370
     9
100
AcDbLine
 10
658.797871846923
 20
331.3127057726389
 30
0.0
 11
673.8099370261472
 21
331.3127057726389
 31
0.0
  0
LINE
  5
1FF
330
1F
100
AcDbEntity
  8
D-1
  6
Continuous
 62
     2
370
     9
100
AcDbLine
 10
672.559994762106
 20
318.8127882525798
 30
0.0
 11
675.0598792901889
 21
318.8127882525798
 31
0.0
  0
LINE
  5
200
330
1F
100
AcDbEntity
  8
D-1
  6
Continuous
 62
     2
370
     9
100
AcDbLine
 10
672.559994762106
 20
328.8125738047335
 30
0.0
 11
672.559994762106
 21
318.8127882525798
 31
0.0
  0
ARC
  5
201
330
1F
100
AcDbEntity
  8
D-1
  6
Continuous
 62
     2
370
     9
100
AcDbCircle
 10
626.3099040341713
 20
275.0626269171606
 30
0.0
 40
1.250000016109364
100
AcDbArc
 50
180.0
 51
270.0
  0
ARC
  5
202
330
1F
100
AcDbEntity
  8
D-1
  6
Continuous
 62
     2
370
     9
100
AcDbCircle
 10
658.8098875381826
 20
275.0626269171606
 30
0.0
 40
1.250000016109364
100
AcDbArc
 50
270.0
 51
0.0
  0
LINE
  5
203
330
1F
100
AcDbEntity
  8
D-1
  6
Continuous
 62
     2
370
     9
100
AcDbLine
 10
657.55982155423
 20
330.0627635085975
 30
0.0
 11
657.55982155423
 21
276.3126929011133
 31
0.0
  0
LINE
  5
204
330
1F
100
AcDbEntity
  8
D-1
  6
Continuous
 62
     2
370
     9
100
AcDbLine
 10
627.5599700181239
 20
276.3126929011133
 30
0.0
 11
657.55982155423
 21
276.3126929011133
 31
0.0
  0
LINE
  5
205
330
1F
100
AcDbEntity
  8
D-1
  6
Continuous
 62
     2
370
     9
100
AcDbLine
 10
625.0598380502187
 20
286.3127258930899
 30
0.0
 11
627.5599700181239
 21
286.3127258930899
 31
0.0
  0
LINE
  5
206
330
1F
100
AcDbEntity
  8
D-1
  6
Continuous
 62
     2
370
     9
100
AcDbLine
 10
627.5599700181239
 20
286.3127258930899
 30
0.0
 11
627.5599700181239
 21
276.3126929011133
 31
0.0
  0
LINE
  5
207
330
1F
100
AcDbEntity
  8
D-1
  6
Continuous
 62
     2
370
     9
100
AcDbLine
 10
660.0598298022243
 20
275.0626269171606
 30
0.0
 11
660.0598298022243
 21
328.8125738047335
 31
0.0
  0
LINE
  5
208
330
1F
100
AcDbEntity
  8
D-1
  6
Continuous
 62
     2
370
     9
100
AcDbLine
 10
626.3099040341713
 20
273.8128083730305
 30
0.0
 11
658.8098875381826
 21
273.8128083730305
 31
0.0
  0
LINE
  5
209
330
1F
100
AcDbEntity
  8
D-1
  6
Continuous
 62
     2
370
     9
100
AcDbLine
 10
625.0598347203272
 20
286.3127258930899
 30
0.0
 11
625.0598347203272
 21
275.0626269171606
 31
0.0
  0
LINE
  5
20A
330
1F
100
AcDbEntity
  8
D-1
  6
Continuous
 62
     2
370
     9
100
AcDbLine
 10
627.6554047231759
 20
287.5053753775795
 30
0.0
 11
633.8675256514388
 21
293.7173242233413
 31
0.0
  0
LINE
  5
20B
330
1F
100
AcDbEntity
  8
D-1
  6
Continuous
 62
     2
370
     9
100
AcDbLine
 10
627.5599700181239
 20
284.2278736626384
 30
0.0
 11
637.145112557887
 21
293.8127258930899
 31
0.0
  0
LINE
  5
20C
330
1F
100
AcDbEntity
  8
D-1
  6
Continuous
 62
     2
370
     9
100
AcDbLine
 10
627.5599700181239
 20
281.0457218284787
 30
0.0
 11
640.3269740827358
 21
293.8127258930899
 31
0.0
  0
LINE
  5
20D
330
1F
100
AcDbEntity
  8
D-1
  6
Continuous
 62
     2
370
     9
100
AcDbLine
 10
628.5086368794493
 20
278.8126929011133
 30
0.0
 11
643.508758550833
 21
293.8127258930899
 31
0.0
  0
LINE
  5
20E
330
1F
100
AcDbEntity
  8
D-1
  6
Continuous
 62
     2
370
     9
100
AcDbLine
 10
631.6907221692004
 20
278.8126929011133
 30
0.0
 11
646.6907551611774
 21
293.8127258930899
 31
0.0
  0
LINE
  5
20F
330
1F
100
AcDbEntity
  8
D-1
  6
Continuous
 62
     2
370
     9
100
AcDbLine
 10
634.872677657349
 20
278.8126929011133
 30
0.0
 11
649.8728033290803
 21
293.8127258930899
 31
0.0
  0
LINE
  5
210
330
1F
100
AcDbEntity
  8
D-1
  6
Continuous
 62
     2
370
     9
100
AcDbLine
 10
638.0546303756269
 20
278.8126929011133
 30
0.0
 11
652.6084493133186
 21
293.3664126273872
 31
0.0
  0
LINE
  5
211
330
1F
100
AcDbEntity
  8
D-1
  6
Continuous
 62
     2
370
     9
100
AcDbLine
 10
641.23657936673
 20
278.8126929011133
 30
0.0
 11
654.6600872851843
 21
292.2362008195675
 31
0.0
  0
LINE
  5
212
330
1F
100
AcDbEntity
  8
D-1
  6
Continuous
 62
     2
370
     9
100
AcDbLine
 10
644.418655485818
 20
278.8126929011133
 30
0.0
 11
656.2104764669874
 21
290.6045138822827
 31
0.0
  0
LINE
  5
213
330
1F
100
AcDbEntity
  8
D-1
  6
Continuous
 62
     2
370
     9
100
AcDbLine
 10
647.6004841650837
 20
278.8126929011133
 30
0.0
 11
657.2463076904893
 21
288.4585164265193
 31
0.0
  0
LINE
  5
214
330
1F
100
AcDbEntity
  8
D-1
  6
Continuous
 62
     2
370
     9
100
AcDbLine
 10
657.1459702028795
 20
278.8126929011133
 30
0.0
 11
657.55982155423
 21
279.2265442524637
 31
0.0
  0
LINE
  5
215
330
1F
100
AcDbEntity
  8
D-1
  6
Continuous
 62
     2
370
     9
100
AcDbLine
 10
653.9641415236139
 20
278.8126929011133
 30
0.0
 11
657.55982155423
 21
282.4083729317293
 31
0.0
  0
LINE
  5
216
330
1F
100
AcDbEntity
  8
D-1
  6
Continuous
 62
     2
370
     9
100
AcDbLine
 10
650.7823128443488
 20
278.8126929011133
 30
0.0
 11
657.55982155423
 21
285.5902016109948
 31
0.0
  0
ARC
  5
217
330
1F
100
AcDbEntity
  8
D-1
  6
Continuous
 62
     2
370
     9
100
AcDbCircle
 10
650.05982155423
 20
286.3127258930899
 30
0.0
 40
7.5
100
AcDbArc
 50
0.0
 51
90.0
  0
ARC
  5
218
330
1F
100
AcDbEntity
  8
D-1
  6
Continuous
 62
     2
370
     9
100
AcDbCircle
 10
635.0599700181239
 20
286.3127258930899
 30
0.0
 40
7.5
100
AcDbArc
 50
90.0
 51
180.0
  0
LINE
  5
219
330
1F
100
AcDbEntity
  8
D-1
  6
Continuous
 62
     2
370
     9
100
AcDbLine
 10
635.0599700181239
 20
293.8127258930899
 30
0.0
 11
650.05982155423
 21
293.8127258930899
 31
0.0
  0
LINE
  5
21A
330
1F
100
AcDbEntity
  8
D-1
  6
Continuous
 62
     2
370
     9
100
AcDbLine
 10
627.5599700181239
 20
278.8126929011133
 30
0.0
 11
657.55982155423
 21
278.8126929011133
 31
0.0
  0
LINE
  5
21B
330
1F
100
AcDbEntity
  8
D-1
  6
Continuous
 62
     2
370
     9
100
AcDbLine
 10
637.5598924562861
 20
277.1189213925416
 30
0.0
 11
639.2536639648575
 21
278.8126929011138
 31
0.0
  0
LINE
  5
21C
330
1F
100
AcDbEntity
  8
D-1
  6
Continuous
 62
     2
370
     9
100
AcDbLine
 10
638.5214309178242
 20
276.3126929011136
 30
0.0
 11
641.0214309178241
 21
278.8126929011136
 31
0.0
  0
LINE
  5
21D
330
1F
100
AcDbEntity
  8
D-1
  6
Continuous
 62
     2
370
     9
100
AcDbLine
 10
640.2891978707908
 20
276.3126929011136
 30
0.0
 11
642.7891978707908
 21
278.8126929011136
 31
0.0
  0
LINE
  5
21E
330
1F
100
AcDbEntity
  8
D-1
  6
Continuous
 62
     2
370
     9
100
AcDbLine
 10
642.0569648237574
 20
276.3126929011133
 30
0.0
 11
644.5569648237574
 21
278.8126929011133
 31
0.0
  0
LINE
  5
21F
330
1F
100
AcDbEntity
  8
D-1
  6
Continuous
 62
     2
370
     9
100
AcDbLine
 10
643.8247317767241
 20
276.3126929011133
 30
0.0
 11
646.3247317767241
 21
278.8126929011132
 31
0.0
  0
LINE
  5
220
330
1F
100
AcDbEntity
  8
D-1
  6
Continuous
 62
     2
370
     9
100
AcDbLine
 10
645.5924987296879
 20
276.3126929011129
 30
0.0
 11
647.559892456286
 21
278.2800866277109
 31
0.0
  0
LINE
  5
221
330
1F
100
AcDbEntity
  8
D-1
  6
Continuous
 62
     2
370
     9
100
AcDbLine
 10
647.3602656826546
 20
276.3126929011127
 30
0.0
 11
647.559892456286
 21
276.5123196747444
 31
0.0
  0
LINE
  5
222
330
1F
100
AcDbEntity
  8
D-1
  6
Continuous
 62
     2
370
     9
100
AcDbLine
 10
637.5598924562855
 20
278.8126929011133
 30
0.0
 11
637.5598924562855
 21
276.3126929011133
 31
0.0
  0
LINE
  5
223
330
1F
100
AcDbEntity
  8
D-1
  6
Continuous
 62
     2
370
     9
100
AcDbLine
 10
647.5598924562854
 20
278.8126929011133
 30
0.0
 11
647.5598924562854
 21
276.3126929011133
 31
0.0
  0
LINE
  5
224
330
1F
100
AcDbEntity
  8
D-1
  6
Continuous
 62
     2
370
     9
100
AcDbLine
 10
660.0597979885333
 20
273.3422742864868
 30
0.0
 11
664.0597979885331
 21
273.3422742864868
 31
0.0
  0
LINE
  5
225
330
1F
100
AcDbEntity
  8
D-1
  6
Continuous
 62
     2
370
     9
100
AcDbLine
 10
668.0597979885329
 20
263.0922742864868
 30
0.0
 11
668.0597979885329
 21
259.092274286487
 31
0.0
  0
LINE
  5
226
330
1F
100
AcDbEntity
  8
D-1
  6
Continuous
 62
     2
370
     9
100
AcDbLine
 10
664.0597979885331
 20
267.0922742864871
 30
0.0
 11
664.0597979885331
 21
328.8125738047335
 31
0.0
  0
ARC
  5
227
330
1F
100
AcDbEntity
  8
D-1
  6
Continuous
 62
     2
370
     9
100
AcDbCircle
 10
668.0597979885329
 20
267.0922742864871
 30
0.0
 40
8.0
100
AcDbArc
 50
180.0
 51
270.0
  0
ARC
  5
228
330
1F
100
AcDbEntity
  8
D-1
  6
Continuous
 62
     2
370
     9
100
AcDbCircle
 10
668.0597979885329
 20
267.0922742864871
 30
0.0
 40
4.0
100
AcDbArc
 50
180.0
 51
270.0
  0
LINE
  5
229
330
1F
100
AcDbEntity
  8
D-1
  6
Continuous
 62
     2
370
     9
100
AcDbLine
 10
660.0597979885333
 20
275.0479441982078
 30
0.0
 11
660.0597979885333
 21
267.0922742864871
 31
0.0
  0
LINE
  5
22A
330
1F
100
AcDbEntity
  8
D-1
  6
Continuous
 62
     2
370
     9
100
AcDbLine
 10
668.0597979885329
 20
263.0922742864868
 30
0.0
 11
737.5597979885324
 21
263.0922742864868
 31
0.0
  0
LINE
  5
22B
330
1F
100
AcDbEntity
  8
D-1
  6
Continuous
 62
     2
370
     9
100
AcDbLine
 10
668.0597979885329
 20
259.0922742864869
 30
0.0
 11
737.5597979885324
 21
259.0922742864869
 31
0.0
  0
LINE
  5
22C
330
1F
100
AcDbEntity
  8
D-1
  6
Continuous
 62
     2
370
     9
100
AcDbLine
 10
737.5597979885324
 20
259.0922742864869
 30
0.0
 11
737.5597979885324
 21
263.0922742864868
 31
0.0
  0
LWPOLYLINE
  5
22D
330
1F
100
AcDbEntity
  8
D-4
  6
Continuous
 62
     7
370
     9
100
AcDbPolyline
 90
        4
 70
     1
 43
1.0
 10
150.3513188470932
 20
331.3127057726388
 42
0.4142135623731
 10
149.8513188470932
 20
331.8127057726388
 42
0.4142135623731
 10
149.3513188470932
 20
331.3127057726388
 42
0.4142135623731
 10
149.8513188470932
 20
330.8127057726388
 42
0.4142135623731
  0
LWPOLYLINE
  5
22E
330
1F
100
AcDbEntity
  8
D-4
  6
Continuous
 62
     7
370
     9
100
AcDbPolyline
 90
        4
 70
     1
 43
1.0
 10
150.3513188470932
 20
322.5627057726388
 42
0.4142135623731
 10
149.8513188470932
 20
323.0627057726388
 42
0.4142135623731
 10
149.3513188470932
 20
322.5627057726388
 42
0.4142135623731
 10
149.8513188470932
 20
322.0627057726388
 42
0.4142135623731
  0
LWPOLYLINE
  5
22F
330
1F
100
AcDbEntity
  8
D-4
  6
Continuous
 62
     7
370
     9
100
AcDbPolyline
 90
        4
 70
     1
 43
1.0
 10
150.3513188470932
 20
320.0627057726389
 42
0.4142135623731
 10
149.8513188470932
 20
320.5627057726389
 42
0.4142135623731
 10
149.3513188470932
 20
320.0627057726389
 42
0.4142135623731
 10
149.8513188470932
 20
319.5627057726389
 42
0.4142135623731
  0
TEXT
  5
230
330
1F
100
AcDbEntity
  8
D-4
  6
Continuous
 62
     2
370
   211
100
AcDbText
 10
144.5313188470932
 20
336.0657387201865
 30
0.0
 40
15.24
  1
3.5
 50
90.0
 41
1.083333333333333
  7
ＭＳ ゴシック
100
AcDbText
  0
TEXT
  5
231
330
1F
100
AcDbEntity
  8
D-4
  6
Continuous
 62
     2
370
   211
100
AcDbText
 10
144.5313188470932
 20
308.6801497264397
 30
0.0
 40
15.24
  1
1
 50
90.0
 41
0.9999999999999998
  7
ＭＳ ゴシック
100
AcDbText
  0
LINE
  5
232
330
1F
100
AcDbEntity
  8
D-4
  6
Continuous
 62
     7
370
     9
100
AcDbLine
 10
149.8513188470932
 20
322.5627057726388
 30
0.0
 11
149.8513188470932
 21
310.0755937515988
 31
0.0
  0
LINE
  5
233
330
1F
100
AcDbEntity
  8
D-4
  6
Continuous
 62
     7
370
     9
100
AcDbLine
 10
149.8513188470932
 20
373.0450053869018
 30
0.0
 11
149.8513188470932
 21
322.5627057726388
 31
0.0
  0
LINE
  5
234
330
1F
100
AcDbEntity
  8
寸法
  6
Continuous
 62
     7
370
     9
100
AcDbLine
 10
-536.6749379180412
 20
-166.8105319419792
 30
0.0
 11
-321.5361571695192
 21
-166.8105319419792
 31
0.0
  0
TEXT
  5
235
330
1F
100
AcDbEntity
  8
寸法
  6
Continuous
 62
     2
370
     9
100
AcDbText
 10
-529.767124304562
 20
-160.7724533286979
 30
0.0
 40
15.24
  1
平面図　Ｓ＝１：５
 41
1.111111111111111
  7
ＭＳ ゴシック
100
AcDbText
  0
TEXT
  5
236
330
1F
100
AcDbEntity
  8
D-4
  6
Continuous
 62
     2
370
   211
100
AcDbText
 10
-459.7194153531835
 20
-341.7748088641105
 30
0.0
 40
15.24
  1
29
 50
90.0
 41
1.0625
  7
ＭＳ ゴシック
100
AcDbText
  0
ARC
  5
237
330
1F
100
AcDbEntity
  8
D-5
  6
Continuous
 62
     7
370
     9
100
AcDbCircle
 10
-572.3193592468403
 20
-354.4180483576804
 30
0.0
 40
75.27291033046588
100
AcDbArc
 50
286.177364524971
 51
339.498438833033
  0
LINE
  5
238
330
1F
100
AcDbEntity
  8
D-5
  6
Continuous
 62
     7
370
     9
100
AcDbLine
 10
-501.8140358376332
 20
-380.7810982681414
 30
0.0
 11
-504.0273304244256
 21
-398.2312912421592
 31
0.0
  0
LINE
  5
239
330
1F
100
AcDbEntity
  8
D-5
  6
Continuous
 62
     7
370
     9
100
AcDbLine
 10
-501.8140358376332
 20
-380.7810982681415
 30
0.0
 11
-512.9295243433832
 21
-393.6887710025088
 31
0.0
  0
LINE
  5
23A
330
1F
100
AcDbEntity
  8
D-5
  6
Continuous
 62
     7
370
     9
100
AcDbLine
 10
-320.0763715399415
 20
-469.5666787501525
 30
0.0
 11
-279.2377587675679
 21
-469.5666787501525
 31
0.0
  0
LINE
  5
23B
330
1F
100
AcDbEntity
  8
D-4
  6
Continuous
 62
     7
370
     9
100
AcDbLine
 10
-454.3994153531835
 20
-295.0396364150209
 30
0.0
 11
-454.3994153531835
 21
-367.2599813132003
 31
0.0
  0
LWPOLYLINE
  5
23C
330
1F
100
AcDbEntity
  8
D-4
  6
Continuous
 62
     7
370
     9
100
AcDbPolyline
 90
        4
 70
     1
 43
1.0
 10
-453.8994153531835
 20
-295.0396364150209
 42
0.4142135623731
 10
-454.3994153531835
 20
-294.5396364150209
 42
0.4142135623731
 10
-454.8994153531834
 20
-295.0396364150209
 42
0.4142135623731
 10
-454.3994153531835
 20
-295.5396364150209
 42
0.4142135623731
  0
LWPOLYLINE
  5
23D
330
1F
100
AcDbEntity
  8
D-4
  6
Continuous
 62
     7
370
     9
100
AcDbPolyline
 90
        4
 70
     1
 43
1.0
 10
-453.8994153531835
 20
-367.2599813132003
 42
0.4142135623731
 10
-454.3994153531835
 20
-366.7599813132003
 42
0.4142135623731
 10
-454.8994153531834
 20
-367.2599813132003
 42
0.4142135623731
 10
-454.3994153531835
 20
-367.7599813132003
 42
0.4142135623731
  0
LINE
  5
23E
330
1F
100
AcDbEntity
  8
D-4
  6
Continuous
 62
     7
370
     9
100
AcDbLine
 10
-453.3994153531835
 20
-295.0396364150209
 30
0.0
 11
-547.1495060811184
 21
-295.0396364150209
 31
0.0
  0
LINE
  5
23F
330
1F
100
AcDbEntity
  8
D-4
  6
Continuous
 62
     7
370
     9
100
AcDbLine
 10
-453.3994153531835
 20
-367.2599813132003
 30
0.0
 11
-481.8994153531835
 21
-367.2599813132003
 31
0.0
  0
LINE
  5
240
330
1F
100
AcDbEntity
  8
D-5
  6
Continuous
 62
     7
370
     9
100
AcDbLine
 10
-549.2823901601968
 20
-363.2599813132001
 30
0.0
 11
-544.0588544657306
 21
-351.9037198311525
 31
0.0
  0
LINE
  5
241
330
1F
100
AcDbEntity
  8
D-5
  6
Continuous
 62
     7
370
     9
100
AcDbLine
 10
-549.2823901601968
 20
-363.2599813132001
 30
0.0
 11
-541.2976253756513
 21
-353.6426255780992
 31
0.0
  0
TEXT
  5
242
330
1F
100
AcDbEntity
  8
D-5
  6
Continuous
 62
     7
370
     9
100
AcDbText
 10
-474.5407250204167
 20
-245.1516017979335
 30
0.0
 40
11.43
  1
アンカー（ＳＧＨＣ）
 41
1.15
  7
ＭＳ ゴシック
100
AcDbText
  0
LINE
  5
243
330
1F
100
AcDbEntity
  8
D-5
  6
Continuous
 62
     7
370
     9
100
AcDbLine
 10
-549.2823901601968
 20
-363.2599813132001
 30
0.0
 11
-477.9005950172285
 21
-249.9119809417257
 31
0.0
  0
LINE
  5
244
330
1F
100
AcDbEntity
  8
D-5
  6
Continuous
 62
     7
370
     9
100
AcDbLine
 10
-477.9005950172285
 20
-249.9119809417257
 30
0.0
 11
-307.0573447285036
 21
-249.9119809417257
 31
0.0
  0
LINE
  5
245
330
1F
100
AcDbEntity
  8
D-5
  6
Continuous
 62
     7
370
     9
100
AcDbLine
 10
-352.239118496371
 20
-422.6618961263771
 30
0.0
 11
-320.0763715399415
 21
-469.5666787501525
 31
0.0
  0
LINE
  5
246
330
1F
100
AcDbEntity
  8
D-5
  6
Continuous
 62
     7
370
     9
100
AcDbLine
 10
-352.239118496371
 20
-422.6618961263771
 30
0.0
 11
-347.6273028864524
 21
-431.7371439105854
 31
0.0
  0
LINE
  5
247
330
1F
100
AcDbEntity
  8
D-5
  6
Continuous
 62
     7
370
     9
100
AcDbLine
 10
-352.239118496371
 20
-422.6618961263771
 30
0.0
 11
-345.5150446325332
 21
-430.1458635835997
 31
0.0
  0
TEXT
  5
248
330
1F
100
AcDbEntity
  8
D-5
  6
Continuous
 62
     7
370
     9
100
AcDbText
 10
-315.9070651537547
 20
-463.5014444414326
 30
0.0
 40
11.43
  1
φ13
 41
1.125
  7
ＭＳ ゴシック
100
AcDbText
  0
LWPOLYLINE
  5
249
330
1F
100
AcDbEntity
  8
D-4
  6
Continuous
 62
     7
370
     9
100
AcDbPolyline
 90
        4
 70
     1
 43
1.0
 10
-657.7733377451814
 20
-295.039656535472
 42
0.4142135623731
 10
-658.2733377451814
 20
-294.539656535472
 42
0.4142135623731
 10
-658.7733377451814
 20
-295.039656535472
 42
0.4142135623731
 10
-658.2733377451814
 20
-295.539656535472
 42
0.4142135623731
  0
LWPOLYLINE
  5
24A
330
1F
100
AcDbEntity
  8
D-4
  6
Continuous
 62
     7
370
     9
100
AcDbPolyline
 90
        4
 70
     1
 43
1.0
 10
-695.2733377451814
 20
-295.039656535472
 42
0.4142135623731
 10
-695.7733377451814
 20
-294.539656535472
 42
0.4142135623731
 10
-696.2733377451814
 20
-295.039656535472
 42
0.4142135623731
 10
-695.7733377451814
 20
-295.539656535472
 42
0.4142135623731
  0
LINE
  5
24B
330
1F
100
AcDbEntity
  8
D-4
  6
Continuous
 62
     7
370
     9
100
AcDbLine
 10
-696.7733377451816
 20
-295.039656535472
 30
0.0
 11
-630.7733377451814
 21
-295.039656535472
 31
0.0
  0
LINE
  5
24C
330
1F
100
AcDbEntity
  8
D-4
  6
Continuous
 62
     7
370
     9
100
AcDbLine
 10
-696.7733377451816
 20
-352.5397877669495
 30
0.0
 11
-614.6495267011032
 21
-352.5397877669495
 31
0.0
  0
LWPOLYLINE
  5
24D
330
1F
100
AcDbEntity
  8
D-4
  6
Continuous
 62
     7
370
     9
100
AcDbPolyline
 90
        4
 70
     1
 43
1.0
 10
-695.2733377451814
 20
-352.5397877669495
 42
0.4142135623731
 10
-695.7733377451814
 20
-352.0397877669495
 42
0.4142135623731
 10
-696.2733377451814
 20
-352.5397877669495
 42
0.4142135623731
 10
-695.7733377451814
 20
-353.0397877669495
 42
0.4142135623731
  0
LINE
  5
24E
330
1F
100
AcDbEntity
  8
D-4
  6
Continuous
 62
     7
370
     9
100
AcDbLine
 10
-659.2733377451816
 20
-332.5396968021205
 30
0.0
 11
-630.7733377451814
 21
-332.5396968021205
 31
0.0
  0
LWPOLYLINE
  5
24F
330
1F
100
AcDbEntity
  8
D-4
  6
Continuous
 62
     7
370
     9
100
AcDbPolyline
 90
        4
 70
     1
 43
1.0
 10
-657.7733377451814
 20
-332.5396968021205
 42
0.4142135623731
 10
-658.2733377451814
 20
-332.0396968021205
 42
0.4142135623731
 10
-658.7733377451814
 20
-332.5396968021205
 42
0.4142135623731
 10
-658.2733377451814
 20
-333.0396968021205
 42
0.4142135623731
  0
TEXT
  5
250
330
1F
100
AcDbEntity
  8
D-5
  6
Continuous
 62
     2
370
     9
100
AcDbText
 10
-613.1433098358023
 20
-528.0296170036939
 30
0.0
 40
15.24
  1
アンカー詳細図　Ｓ＝１：２
 41
1.115384615384615
  7
ＭＳ ゴシック
100
AcDbText
  0
LINE
  5
251
330
1F
100
AcDbEntity
  8
D-5
  6
Continuous
 62
     7
370
     9
100
AcDbLine
 10
-624.5632844979644
 20
-539.725902041173
 30
0.0
 11
-317.8848238967175
 21
-539.725902041173
 31
0.0
  0
LINE
  5
252
330
1F
100
AcDbEntity
  8
D-1
  6
Continuous
 62
     2
370
     9
100
AcDbLine
 10
-570.8994153531835
 20
-297.5396817949539
 30
0.0
 11
-558.3993546715128
 21
-297.5396817949539
 31
0.0
  0
LINE
  5
253
330
1F
100
AcDbEntity
  8
D-1
  6
Continuous
 62
     2
370
     9
100
AcDbLine
 10
-558.3993546715128
 20
-297.5396817949539
 30
0.0
 11
-558.3993546715128
 21
-307.5397172171429
 31
0.0
  0
LINE
  5
254
330
1F
100
AcDbEntity
  8
D-1
  6
Continuous
 62
     2
370
     9
100
AcDbLine
 10
-558.3993546715128
 20
-307.5397172171429
 30
0.0
 11
-555.8991325648144
 21
-307.5397172171429
 31
0.0
  0
LINE
  5
255
330
1F
100
AcDbEntity
  8
D-1
  6
Continuous
 62
     2
370
     9
100
AcDbLine
 10
-555.8991325648144
 20
-296.2896363573436
 30
0.0
 11
-555.8991325648144
 21
-307.5397172171429
 31
0.0
  0
LINE
  5
256
330
1F
100
AcDbEntity
  8
D-1
  6
Continuous
 62
     2
370
     9
100
AcDbLine
 10
-572.1492639435774
 20
-295.039656535472
 30
0.0
 11
-557.1495060811184
 21
-295.039656535472
 31
0.0
  0
ARC
  5
257
330
1F
100
AcDbEntity
  8
D-1
  6
Continuous
 62
     2
370
     9
100
AcDbCircle
 10
-557.1495060811184
 20
-296.2896363573436
 30
0.0
 40
1.249999942322725
100
AcDbArc
 50
0.0
 51
90.0
  0
ARC
  5
258
330
1F
100
AcDbEntity
  8
D-1
  6
Continuous
 62
     2
370
     9
100
AcDbCircle
 10
-572.1492639435774
 20
-296.2896363573436
 30
0.0
 40
1.249999942322725
100
AcDbArc
 50
90.0
 51
180.0
  0
LINE
  5
259
330
1F
100
AcDbEntity
  8
D-1
  6
Continuous
 62
     2
370
     9
100
AcDbLine
 10
-570.8992640012547
 20
-435.0396817949539
 30
0.0
 11
-566.8994153531834
 21
-435.0396817949539
 31
0.0
  0
LINE
  5
25A
330
1F
100
AcDbEntity
  8
D-1
  6
Continuous
 62
     2
370
     9
100
AcDbLine
 10
-566.8994153531834
 20
-435.0396817949539
 30
0.0
 11
-566.8994153531834
 21
-297.5396817949539
 31
0.0
  0
LINE
  5
25B
330
1F
100
AcDbEntity
  8
D-1
  6
Continuous
 62
     2
370
     9
100
AcDbLine
 10
-570.8994153531835
 20
-365.5099813132003
 30
0.0
 11
-566.8994153531834
 21
-365.5099813132003
 31
0.0
  0
LINE
  5
25C
330
1F
100
AcDbEntity
  8
D-1
  6
Continuous
 62
     2
370
     9
100
AcDbLine
 10
-570.8994153531835
 20
-353.0099813132002
 30
0.0
 11
-566.8994153531834
 21
-353.0099813132002
 31
0.0
  0
ARC
  5
25D
330
1F
100
AcDbEntity
  8
D-1
  6
JWW_PHANTOM1
 62
     2
370
     9
100
AcDbCircle
 10
-562.8994153531834
 20
-359.2599813132003
 30
0.0
 40
8.0
100
AcDbArc
 50
180.0
 51
270.0
  0
ARC
  5
25E
330
1F
100
AcDbEntity
  8
D-1
  6
JWW_PHANTOM1
 62
     2
370
     9
100
AcDbCircle
 10
-562.8994153531834
 20
-359.2599813132003
 30
0.0
 40
4.0
100
AcDbArc
 50
180.0
 51
270.0
  0
LINE
  5
25F
330
1F
100
AcDbEntity
  8
D-1
  6
JWW_PHANTOM1
 62
     2
370
     9
100
AcDbLine
 10
-562.8994153531834
 20
-367.2599813132003
 30
0.0
 11
-491.8994153531835
 21
-367.2599813132003
 31
0.0
  0
LINE
  5
260
330
1F
100
AcDbEntity
  8
D-1
  6
JWW_PHANTOM1
 62
     2
370
     9
100
AcDbLine
 10
-562.8994153531834
 20
-363.2599813132003
 30
0.0
 11
-491.8994153531835
 21
-363.2599813132003
 31
0.0
  0
LINE
  5
261
330
1F
100
AcDbEntity
  8
D-1
  6
JWW_PHANTOM1
 62
     2
370
     9
100
AcDbLine
 10
-491.8994153531835
 20
-367.2599813132003
 30
0.0
 11
-491.8994153531835
 21
-363.2599813132003
 31
0.0
  0
LINE
  5
262
330
1F
100
AcDbEntity
  8
D-1
  6
Continuous
 62
     2
370
     9
100
AcDbLine
 10
-575.8993346406696
 20
-348.0397090562831
 30
0.0
 11
-575.8993346406696
 21
-336.7897594279614
 31
0.0
  0
LINE
  5
263
330
1F
100
AcDbEntity
  8
D-1
  6
Continuous
 62
     2
370
     9
100
AcDbLine
 10
-603.3991531847998
 20
-348.0397090562831
 30
0.0
 11
-575.8993346406696
 21
-348.0397090562831
 31
0.0
  0
LINE
  5
264
330
1F
100
AcDbEntity
  8
D-1
  6
Continuous
 62
     2
370
     9
100
AcDbLine
 10
-582.7742892767019
 20
-348.0397090562831
 30
0.0
 11
-582.7742892767019
 21
-350.0396767712778
 31
0.0
  0
LINE
  5
265
330
1F
100
AcDbEntity
  8
D-1
  6
Continuous
 62
     2
370
     9
100
AcDbLine
 10
-596.5241985487672
 20
-348.0397090562831
 30
0.0
 11
-596.5241985487672
 21
-350.0396767712778
 31
0.0
  0
LINE
  5
266
330
1F
100
AcDbEntity
  8
D-1
  6
Continuous
 62
     2
370
     9
100
AcDbLine
 10
-603.3991531847998
 20
-340.0397069648276
 30
0.0
 11
-603.3991531847998
 21
-336.7897594279614
 31
0.0
  0
LINE
  5
267
330
1F
100
AcDbEntity
  8
D-1
  6
Continuous
 62
     2
370
     9
100
AcDbLine
 10
-576.8121807971987
 20
-348.0397090562831
 30
0.0
 11
-575.8988097147603
 21
-347.1263379738448
 31
0.0
  0
LINE
  5
268
330
1F
100
AcDbEntity
  8
D-1
  6
Continuous
 62
     2
370
     9
100
AcDbLine
 10
-579.994281660269
 20
-348.0397090562831
 30
0.0
 11
-575.8988097147603
 21
-343.9442371107746
 31
0.0
  0
LINE
  5
269
330
1F
100
AcDbEntity
  8
D-1
  6
Continuous
 62
     2
370
     9
100
AcDbLine
 10
-583.1763825233388
 20
-348.0397090562831
 30
0.0
 11
-575.8988097147603
 21
-340.7623987106593
 31
0.0
  0
LINE
  5
26A
330
1F
100
AcDbEntity
  8
D-1
  6
Continuous
 62
     2
370
     9
100
AcDbLine
 10
-586.3584833864091
 20
-348.0397090562831
 30
0.0
 11
-575.8988097147603
 21
-337.5802978475891
 31
0.0
  0
LINE
  5
26B
330
1F
100
AcDbEntity
  8
D-1
  6
Continuous
 62
     2
370
     9
100
AcDbLine
 10
-592.7221601866397
 20
-348.0397090562831
 30
0.0
 11
-577.2221479324769
 21
-332.5396968021204
 31
0.0
  0
LINE
  5
26C
330
1F
100
AcDbEntity
  8
D-1
  6
Continuous
 62
     2
370
     9
100
AcDbLine
 10
-595.90426104971
 20
-348.0397090562831
 30
0.0
 11
-580.4042487955472
 21
-332.5396968021204
 31
0.0
  0
LINE
  5
26D
330
1F
100
AcDbEntity
  8
D-1
  6
Continuous
 62
     2
370
     9
100
AcDbLine
 10
-599.0863619127798
 20
-348.0397090562831
 30
0.0
 11
-583.5863496586172
 21
-332.5396968021204
 31
0.0
  0
LINE
  5
26E
330
1F
100
AcDbEntity
  8
D-1
  6
Continuous
 62
     2
370
     9
100
AcDbLine
 10
-602.2679378499406
 20
-348.0397090562831
 30
0.0
 11
-586.7679255957778
 21
-332.5396968021204
 31
0.0
  0
LINE
  5
26F
330
1F
100
AcDbEntity
  8
D-1
  6
Continuous
 62
     2
370
     9
100
AcDbLine
 10
-603.3991531847998
 20
-345.9886922965948
 30
0.0
 11
-589.9500264588481
 21
-332.5396968021204
 31
0.0
  0
LINE
  5
270
330
1F
100
AcDbEntity
  8
D-1
  6
Continuous
 62
     2
370
     9
100
AcDbLine
 10
-603.3991531847998
 20
-342.8067226650021
 30
0.0
 11
-593.1321273219181
 21
-332.5396968021204
 31
0.0
  0
LINE
  5
271
330
1F
100
AcDbEntity
  8
D-1
  6
Continuous
 62
     2
370
     9
100
AcDbLine
 10
-603.3991531847998
 20
-339.6247530334093
 30
0.0
 11
-596.3142281849885
 21
-332.5396968021204
 31
0.0
  0
LINE
  5
272
330
1F
100
AcDbEntity
  8
D-1
  6
Continuous
 62
     2
370
     9
100
AcDbLine
 10
-603.3944288516146
 20
-336.4380590686316
 30
0.0
 11
-599.4963290480586
 21
-332.5396968021204
 31
0.0
  0
LINE
  5
273
330
1F
100
AcDbEntity
  8
D-1
  6
Continuous
 62
     2
370
     9
100
AcDbLine
 10
-589.54005932357
 20
-348.0397090562831
 30
0.0
 11
-576.0783343757912
 21
-334.57772164555
 31
0.0
  0
LINE
  5
274
330
1F
100
AcDbEntity
  8
D-1
  6
Continuous
 62
     2
370
     9
100
AcDbLine
 10
-605.8993752914977
 20
-340.0397069648276
 30
0.0
 11
-603.3991531847998
 21
-340.0397069648276
 31
0.0
  0
LINE
  5
275
330
1F
100
AcDbEntity
  8
D-1
  6
Continuous
 62
     2
370
     9
100
AcDbLine
 10
-603.3991531847998
 20
-340.0397069648276
 30
0.0
 11
-603.3991531847998
 21
-350.0396767712778
 31
0.0
  0
LINE
  5
276
330
1F
100
AcDbEntity
  8
D-1
  6
Continuous
 62
     2
370
     9
100
AcDbLine
 10
-603.3991531847998
 20
-350.0396767712778
 30
0.0
 11
-573.3991125339718
 21
-350.0396767712778
 31
0.0
  0
LINE
  5
277
330
1F
100
AcDbEntity
  8
D-1
  6
Continuous
 62
     2
370
     9
100
AcDbLine
 10
-573.3991125339718
 20
-296.2896363573436
 30
0.0
 11
-573.3991125339718
 21
-350.0396767712778
 31
0.0
  0
LINE
  5
278
330
1F
100
AcDbEntity
  8
D-1
  6
Continuous
 62
     2
370
     9
100
AcDbLine
 10
-570.8994153531835
 20
-351.2897878246267
 30
0.0
 11
-570.8994153531835
 21
-297.5396817949539
 31
0.0
  0
LINE
  5
279
330
1F
100
AcDbEntity
  8
D-1
  6
Continuous
 62
     2
370
     9
100
AcDbLine
 10
-605.8993752914977
 20
-351.2897878246267
 30
0.0
 11
-605.8993752914977
 21
-340.0397069648276
 31
0.0
  0
ARC
  5
27A
330
1F
100
AcDbEntity
  8
D-1
  6
Continuous
 62
     2
370
     9
100
AcDbCircle
 10
-589.6492439127347
 20
-336.7897594279614
 30
0.0
 40
13.74997488780371
100
AcDbArc
 50
0.0
 51
18.00444030761719
  0
ARC
  5
27B
330
1F
100
AcDbEntity
  8
D-1
  6
Continuous
 62
     2
370
     9
100
AcDbCircle
 10
-589.6492439127347
 20
-336.7897594279614
 30
0.0
 40
13.74997488780371
100
AcDbArc
 50
161.9955596923828
 51
180.0
  0
ARC
  5
27C
330
1F
100
AcDbEntity
  8
D-1
  6
Continuous
 62
     2
370
     9
100
AcDbCircle
 10
-572.1492639435774
 20
-351.2897878246267
 30
0.0
 40
1.249999942322725
100
AcDbArc
 50
270.0
 51
0.0
  0
ARC
  5
27D
330
1F
100
AcDbEntity
  8
D-1
  6
Continuous
 62
     2
370
     9
100
AcDbCircle
 10
-604.6495267011032
 20
-351.2897878246267
 30
0.0
 40
1.249999942322725
100
AcDbArc
 50
180.0
 51
270.0
  0
LINE
  5
27E
330
1F
100
AcDbEntity
  8
D-1
  6
Continuous
 62
     2
370
     9
100
AcDbLine
 10
-570.8992640012547
 20
-351.2897878246267
 30
0.0
 11
-570.8992640012547
 21
-435.0396817949539
 31
0.0
  0
LINE
  5
27F
330
1F
100
AcDbEntity
  8
D-1
  6
Continuous
 62
     2
370
     9
100
AcDbLine
 10
-604.6689780994224
 20
-352.5396364150209
 30
0.0
 11
-572.1492639435774
 21
-352.5396364150209
 31
0.0
  0
LINE
  5
280
330
1F
100
AcDbEntity
  8
D-2
  6
Continuous
 62
     3
370
     9
100
AcDbLine
 10
-577.2221479324769
 20
-295.0396968021204
 30
0.0
 11
-618.4723401978731
 21
-295.0396968021204
 31
0.0
  0
LINE
  5
281
330
1F
100
AcDbEntity
  8
D-2
  6
Continuous
 62
     3
370
     9
100
AcDbLine
 10
-577.2221479324769
 20
-332.5396766816692
 30
0.0
 11
-618.4723401978731
 21
-332.5396766816692
 31
0.0
  0
LINE
  5
282
330
1F
100
AcDbEntity
  8
D-2
  6
Continuous
 62
     3
370
     9
100
AcDbLine
 10
-618.4723401978731
 20
-320.0396159999983
 30
0.0
 11
-590.9721884360191
 21
-320.0396159999983
 31
0.0
  0
LINE
  5
283
330
1F
100
AcDbEntity
  8
D-2
  6
Continuous
 62
     3
370
     9
100
AcDbLine
 10
-593.4721480797622
 20
-331.2896968597977
 30
0.0
 11
-593.4721480797622
 21
-320.0396159999983
 31
0.0
  0
ARC
  5
284
330
1F
100
AcDbEntity
  8
D-2
  6
Continuous
 62
     3
370
     9
100
AcDbCircle
 10
-592.2222993420825
 20
-305.0396968021203
 30
0.0
 40
1.25
100
AcDbArc
 50
270.0
 51
0.0
  0
LINE
  5
285
330
1F
100
AcDbEntity
  8
D-2
  6
Continuous
 62
     3
370
     9
100
AcDbLine
 10
-590.9722993420825
 20
-305.0396968021203
 30
0.0
 11
-590.9722993420825
 21
-297.5396968021204
 31
0.0
  0
LINE
  5
286
330
1F
100
AcDbEntity
  8
D-2
  6
Continuous
 62
     3
370
     9
100
AcDbLine
 10
-593.4722993420819
 20
-296.2896968021204
 30
0.0
 11
-593.4722993420819
 21
-303.7896968021204
 31
0.0
  0
LINE
  5
287
330
1F
100
AcDbEntity
  8
D-2
  6
Continuous
 62
     3
370
     9
100
AcDbLine
 10
-578.4719965228708
 20
-330.0396514221873
 30
0.0
 11
-578.4719965228708
 21
-297.5396968021204
 31
0.0
  0
LINE
  5
288
330
1F
100
AcDbEntity
  8
D-2
  6
Continuous
 62
     3
370
     9
100
AcDbLine
 10
-575.9722993420825
 20
-296.2896766239919
 30
0.0
 11
-575.9722993420825
 21
-331.2896968597977
 31
0.0
  0
ARC
  5
289
330
1F
100
AcDbEntity
  8
D-2
  6
Continuous
 62
     3
370
     9
100
AcDbCircle
 10
-577.2221479324769
 20
-331.2896968597977
 30
0.0
 40
1.249999942322725
100
AcDbArc
 50
270.0
 51
0.0
  0
ARC
  5
28A
330
1F
100
AcDbEntity
  8
D-2
  6
Continuous
 62
     3
370
     9
100
AcDbCircle
 10
-592.2221682578906
 20
-331.2896968597977
 30
0.0
 40
1.249999942322725
100
AcDbArc
 50
180.0
 51
270.0
  0
LINE
  5
28B
330
1F
100
AcDbEntity
  8
D-2
  6
Continuous
 62
     3
370
     9
100
AcDbLine
 10
-590.9721884360191
 20
-330.0396514221873
 30
0.0
 11
-590.9721884360191
 21
-320.0396159999983
 31
0.0
  0
LINE
  5
28C
330
1F
100
AcDbEntity
  8
D-2
  6
Continuous
 62
     3
370
     9
100
AcDbLine
 10
-578.4719965228708
 20
-330.0396514221873
 30
0.0
 11
-590.9721884360191
 21
-330.0396514221873
 31
0.0
  0
ARC
  5
28D
330
1F
100
AcDbEntity
  8
D-2
  6
Continuous
 62
     3
370
     9
100
AcDbCircle
 10
-592.2222993420825
 20
-296.2896968021204
 30
0.0
 40
1.25
100
AcDbArc
 50
90.0
 51
180.0
  0
LINE
  5
28E
330
1F
100
AcDbEntity
  8
D-2
  6
Continuous
 62
     3
370
     9
100
AcDbLine
 10
-578.4719965228708
 20
-297.5396968021204
 30
0.0
 11
-590.9722993420825
 21
-297.5396968021204
 31
0.0
  0
ARC
  5
28F
330
1F
100
AcDbEntity
  8
D-2
  6
Continuous
 62
     3
370
     9
100
AcDbCircle
 10
-577.2221479324769
 20
-296.2896766239919
 30
0.0
 40
1.249999942322725
100
AcDbArc
 50
0.0
 51
90.0
  0
LINE
  5
290
330
1F
100
AcDbEntity
  8
D-2
  6
Continuous
 62
     3
370
     9
100
AcDbLine
 10
-593.4722993420819
 20
-303.7896968021204
 30
0.0
 11
-618.4723401978731
 21
-303.7896968021204
 31
0.0
  0
LINE
  5
291
330
1F
100
AcDbEntity
  8
D-2
  6
Continuous
 62
     3
370
     9
100
AcDbLine
 10
-592.2222993420825
 20
-306.2896968021203
 30
0.0
 11
-618.4723401978731
 21
-306.2896968021203
 31
0.0
  0
LINE
  5
292
330
1F
100
AcDbEntity
  8
D-1
  6
JWW_CENTER1
 62
     2
370
     9
100
AcDbLine
 10
-361.4288507743187
 20
-291.5662003239442
 30
0.0
 11
-361.4288507743187
 21
-439.3494761169834
 31
0.0
  0
LINE
  5
293
330
1F
100
AcDbEntity
  8
D-1
  6
Continuous
 62
     2
370
     9
100
AcDbLine
 10
-386.4288507743187
 20
-370.5099813132003
 30
0.0
 11
-386.4288507743187
 21
-429.8849813132003
 31
0.0
  0
LINE
  5
294
330
1F
100
AcDbEntity
  8
D-1
  6
Continuous
 62
     2
370
     9
100
AcDbLine
 10
-336.4288507743184
 20
-370.5099813132003
 30
0.0
 11
-336.4288507743184
 21
-429.8849813132003
 31
0.0
  0
LINE
  5
295
330
1F
100
AcDbEntity
  8
D-1
  6
Continuous
 62
     2
370
     9
100
AcDbLine
 10
-373.9288507743184
 20
-359.2599813132003
 30
0.0
 11
-348.9288507743187
 21
-359.2599813132003
 31
0.0
  0
ARC
  5
296
330
1F
100
AcDbEntity
  8
D-1
  6
Continuous
 62
     2
370
     9
100
AcDbCircle
 10
-381.4288507743187
 20
-429.8849813132003
 30
0.0
 40
5.0
100
AcDbArc
 50
180.0
 51
241.04497562814
  0
LINE
  5
297
330
1F
100
AcDbEntity
  8
D-1
  6
Continuous
 62
     2
370
     9
100
AcDbLine
 10
-383.8494653656984
 20
-434.2599813132003
 30
0.0
 11
-339.0082361829391
 21
-434.2599813132003
 31
0.0
  0
ARC
  5
298
330
1F
100
AcDbEntity
  8
D-1
  6
Continuous
 62
     2
370
     9
100
AcDbCircle
 10
-341.4288507743187
 20
-429.8849813132003
 30
0.0
 40
5.0
100
AcDbArc
 50
298.95502437186
 51
0.0
  0
ARC
  5
299
330
1F
100
AcDbEntity
  8
D-1
  6
Continuous
 62
     2
370
     9
100
AcDbCircle
 10
-381.4288507743187
 20
-370.5099813132003
 30
0.0
 40
5.0
100
AcDbArc
 50
90.0
 51
180.0
  0
ARC
  5
29A
330
1F
100
AcDbEntity
  8
D-1
  6
Continuous
 62
     2
370
     9
100
AcDbCircle
 10
-341.4288507743184
 20
-370.5099813132003
 30
0.0
 40
5.0
100
AcDbArc
 50
0.0
 51
90.0
  0
LINE
  5
29B
330
1F
100
AcDbEntity
  8
D-1
  6
Continuous
 62
     2
370
     9
100
AcDbLine
 10
-373.9288507743184
 20
-363.0099813132003
 30
0.0
 11
-373.9288507743184
 21
-355.5099813132003
 31
0.0
  0
LINE
  5
29C
330
1F
100
AcDbEntity
  8
D-1
  6
Continuous
 62
     2
370
     9
100
AcDbLine
 10
-376.4288507743184
 20
-365.5099813132003
 30
0.0
 11
-381.4288507743187
 21
-365.5099813132003
 31
0.0
  0
ARC
  5
29D
330
1F
100
AcDbEntity
  8
D-1
  6
Continuous
 62
     2
370
     9
100
AcDbCircle
 10
-376.4288507743184
 20
-363.0099813132003
 30
0.0
 40
2.5
100
AcDbArc
 50
270.0
 51
0.0
  0
LINE
  5
29E
330
1F
100
AcDbEntity
  8
D-1
  6
Continuous
 62
     2
370
     9
100
AcDbLine
 10
-346.4288507743187
 20
-365.5099813132003
 30
0.0
 11
-341.4288507743184
 21
-365.5099813132003
 31
0.0
  0
ARC
  5
29F
330
1F
100
AcDbEntity
  8
D-1
  6
Continuous
 62
     2
370
     9
100
AcDbCircle
 10
-346.4288507743187
 20
-363.0099813132003
 30
0.0
 40
2.5
100
AcDbArc
 50
180.0
 51
270.0
  0
LINE
  5
2A0
330
1F
100
AcDbEntity
  8
D-1
  6
Continuous
 62
     2
370
     9
100
AcDbLine
 10
-348.9288507743187
 20
-355.5099813132003
 30
0.0
 11
-348.9288507743187
 21
-363.0099813132003
 31
0.0
  0
CIRCLE
  5
2A1
330
1F
100
AcDbEntity
  8
D-1
  6
Continuous
 62
     2
370
     9
100
AcDbCircle
 10
-361.4288507743187
 20
-409.2599813132003
 30
0.0
 40
16.25
  0
LINE
  5
2A2
330
1F
100
AcDbEntity
  8
D-1
  6
JWW_CENTER1
 62
     2
370
     9
100
AcDbLine
 10
-382.6032614586451
 20
-409.2599813132003
 30
0.0
 11
-340.2329695229269
 21
-409.2599813132003
 31
0.0
  0
LINE
  5
2A3
330
1F
100
AcDbEntity
  8
D-1
  6
Continuous
 62
     2
370
     9
100
AcDbLine
 10
-420.5460917392919
 20
-295.039656535472
 30
0.0
 11
-302.3116098093452
 21
-295.039656535472
 31
0.0
  0
LINE
  5
2A4
330
1F
100
AcDbEntity
  8
D-1
  6
Continuous
 62
     2
370
     9
100
AcDbLine
 10
-420.5460917392919
 20
-307.5397172171429
 30
0.0
 11
-302.3116098093452
 21
-307.5397172171429
 31
0.0
  0
LINE
  5
2A5
330
1F
100
AcDbEntity
  8
D-1
  6
Continuous
 62
     2
370
     9
100
AcDbLine
 10
-420.5460917392919
 20
-352.5397877669495
 30
0.0
 11
-383.5456534320014
 21
-352.5397877669495
 31
0.0
  0
LINE
  5
2A6
330
1F
100
AcDbEntity
  8
D-1
  6
Continuous
 62
     2
370
     9
100
AcDbLine
 10
-339.3120481166357
 20
-352.5397877669495
 30
0.0
 11
-302.3116098093452
 21
-352.5397877669495
 31
0.0
  0
ARC
  5
2A7
330
1F
100
AcDbEntity
  8
D-1
  6
JWW_DASHED2
 62
     2
370
     9
100
AcDbCircle
 10
-341.4288507743187
 20
-301.9146817949541
 30
0.0
 40
5.0
100
AcDbArc
 50
0.0000000000000254
 51
61.04497562814005
  0
CIRCLE
  5
2A8
330
1F
100
AcDbEntity
  8
D-1
  6
Continuous
 62
     2
370
     9
100
AcDbCircle
 10
-373.9288920142893
 20
-340.0397230349247
 30
0.0
 40
2.500000032218727
  0
CIRCLE
  5
2A9
330
1F
100
AcDbEntity
  8
D-1
  6
Continuous
 62
     2
370
     9
100
AcDbCircle
 10
-373.9288920142893
 20
-340.0397230349247
 30
0.0
 40
3.125000161093634
  0
CIRCLE
  5
2AA
330
1F
100
AcDbEntity
  8
D-1
  6
Continuous
 62
     2
370
     9
100
AcDbCircle
 10
-361.4288507743187
 20
-327.5396817949541
 30
0.0
 40
2.500000032218727
  0
CIRCLE
  5
2AB
330
1F
100
AcDbEntity
  8
D-1
  6
Continuous
 62
     2
370
     9
100
AcDbCircle
 10
-361.4288507743187
 20
-327.5396817949541
 30
0.0
 40
3.125000161093634
  0
CIRCLE
  5
2AC
330
1F
100
AcDbEntity
  8
D-1
  6
Continuous
 62
     2
370
     9
100
AcDbCircle
 10
-348.9288713943039
 20
-340.0397230349247
 30
0.0
 40
2.500000032218727
  0
CIRCLE
  5
2AD
330
1F
100
AcDbEntity
  8
D-1
  6
Continuous
 62
     2
370
     9
100
AcDbCircle
 10
-348.9288713943039
 20
-340.0397230349247
 30
0.0
 40
3.125000161093634
  0
LINE
  5
2AE
330
1F
100
AcDbEntity
  8
D-1
  6
JWW_DASHED2
 62
     2
370
     9
100
AcDbLine
 10
-386.4288507743187
 20
-301.9146817949541
 30
0.0
 11
-386.4288507743187
 21
-307.5397172171429
 31
0.0
  0
ARC
  5
2AF
330
1F
100
AcDbEntity
  8
D-1
  6
JWW_DASHED2
 62
     2
370
     9
100
AcDbCircle
 10
-381.4288507743187
 20
-301.9146817949541
 30
0.0
 40
5.0
100
AcDbArc
 50
118.95502437186
 51
180.0
  0
LINE
  5
2B0
330
1F
100
AcDbEntity
  8
D-1
  6
JWW_DASHED2
 62
     2
370
     9
100
AcDbLine
 10
-383.8494653656984
 20
-297.5396817949541
 30
0.0
 11
-339.0082361829391
 21
-297.5396817949541
 31
0.0
  0
LINE
  5
2B1
330
1F
100
AcDbEntity
  8
D-1
  6
JWW_DASHED2
 62
     2
370
     9
100
AcDbLine
 10
-336.4288507743184
 20
-301.9146817949541
 30
0.0
 11
-336.4288507743184
 21
-307.5397172171429
 31
0.0
  0
LINE
  5
2B2
330
1F
100
AcDbEntity
  8
D-1
  6
Continuous
 62
     2
370
     9
100
AcDbLine
 10
-386.4288507743187
 20
-348.0099813132003
 30
0.0
 11
-386.4288507743187
 21
-307.5397172171429
 31
0.0
  0
ARC
  5
2B3
330
1F
100
AcDbEntity
  8
D-1
  6
Continuous
 62
     2
370
     9
100
AcDbCircle
 10
-381.4288507743187
 20
-348.0099813132003
 30
0.0
 40
5.0
100
AcDbArc
 50
180.0
 51
270.0
  0
LINE
  5
2B4
330
1F
100
AcDbEntity
  8
D-1
  6
Continuous
 62
     2
370
     9
100
AcDbLine
 10
-336.4288507743184
 20
-348.0099813132003
 30
0.0
 11
-336.4288507743184
 21
-307.5397172171429
 31
0.0
  0
ARC
  5
2B5
330
1F
100
AcDbEntity
  8
D-1
  6
Continuous
 62
     2
370
     9
100
AcDbCircle
 10
-341.4288507743184
 20
-348.0099813132003
 30
0.0
 40
5.0
100
AcDbArc
 50
270.0
 51
0.0
  0
LINE
  5
2B6
330
1F
100
AcDbEntity
  8
D-1
  6
Continuous
 62
     2
370
     9
100
AcDbLine
 10
-376.4288507743184
 20
-353.0099813132003
 30
0.0
 11
-381.4288507743187
 21
-353.0099813132003
 31
0.0
  0
ARC
  5
2B7
330
1F
100
AcDbEntity
  8
D-1
  6
Continuous
 62
     2
370
     9
100
AcDbCircle
 10
-376.4288507743184
 20
-355.5099813132003
 30
0.0
 40
2.5
100
AcDbArc
 50
0.0
 51
90.00000000000001
  0
LINE
  5
2B8
330
1F
100
AcDbEntity
  8
D-1
  6
Continuous
 62
     2
370
     9
100
AcDbLine
 10
-346.4288507743187
 20
-353.0099813132003
 30
0.0
 11
-341.4288507743184
 21
-353.0099813132003
 31
0.0
  0
ARC
  5
2B9
330
1F
100
AcDbEntity
  8
D-1
  6
Continuous
 62
     2
370
     9
100
AcDbCircle
 10
-346.4288507743187
 20
-355.5099813132003
 30
0.0
 40
2.5
100
AcDbArc
 50
90.0
 51
180.0
  0
TEXT
  5
2BA
330
1F
100
AcDbEntity
  8
D-4
  6
Continuous
 62
     2
370
   211
100
AcDbText
 10
461.6548349992076
 20
272.5626384630436
 30
0.0
 40
15.24
  1
29.5
 50
90.0
 41
1.09375
  7
ＭＳ ゴシック
100
AcDbText
  0
LINE
  5
2BB
330
1F
100
AcDbEntity
  8
D-4
  6
Continuous
 62
     7
370
     9
100
AcDbLine
 10
466.9748349992076
 20
331.3127057726388
 30
0.0
 11
466.9748349992076
 21
257.5625711534485
 31
0.0
  0
LWPOLYLINE
  5
2BC
330
1F
100
AcDbEntity
  8
D-4
  6
Continuous
 62
     7
370
     9
100
AcDbPolyline
 90
        4
 70
     1
 43
1.0
 10
467.4748349992075
 20
331.3127057726388
 42
0.4142135623731
 10
466.9748349992076
 20
331.8127057726388
 42
0.4142135623731
 10
466.4748349992076
 20
331.3127057726388
 42
0.4142135623731
 10
466.9748349992076
 20
330.8127057726388
 42
0.4142135623731
  0
LWPOLYLINE
  5
2BD
330
1F
100
AcDbEntity
  8
D-4
  6
Continuous
 62
     7
370
     9
100
AcDbPolyline
 90
        4
 70
     1
 43
1.0
 10
467.4748349992075
 20
257.5625711534485
 42
0.4142135623731
 10
466.9748349992076
 20
258.0625711534485
 42
0.4142135623731
 10
466.4748349992076
 20
257.5625711534485
 42
0.4142135623731
 10
466.9748349992076
 20
257.0625711534485
 42
0.4142135623731
  0
LINE
  5
2BE
330
1F
100
AcDbEntity
  8
D-4
  6
Continuous
 62
     7
370
     9
100
AcDbLine
 10
465.4748349992075
 20
257.5625711534485
 30
0.0
 11
577.5599184681608
 21
257.5625711534485
 31
0.0
  0
LINE
  5
2BF
330
1F
100
AcDbEntity
  8
D-2
  6
Continuous
 62
     3
370
     9
100
AcDbLine
 10
470.6452777610396
 20
306.3127865747608
 30
0.0
 11
562.5597971048195
 21
306.3127865747608
 31
0.0
  0
LINE
  5
2C0
330
1F
100
AcDbEntity
  8
D-2
  6
Continuous
 62
     3
370
     9
100
AcDbLine
 10
562.5597971048195
 20
293.8127258930899
 30
0.0
 11
470.6452777610396
 21
293.8127258930899
 31
0.0
  0
LINE
  5
2C1
330
1F
100
AcDbEntity
  8
D-2
  6
Continuous
 62
     3
370
     9
100
AcDbLine
 10
442.1582593109995
 20
293.8127258930899
 30
0.0
 11
2.59390718390371
 21
293.8127258930899
 31
0.0
  0
LWPOLYLINE
  5
2C2
330
1F
100
AcDbEntity
  8
その他
  6
Continuous
 62
     7
370
     9
100
AcDbPolyline
 90
        4
 70
     1
 43
1.0
 10
-750.2636916696848
 20
16.58168026289903
 42
0.4142135623731
 10
-750.7636916696847
 20
17.08168026289903
 42
0.4142135623731
 10
-751.2636916696847
 20
16.58168026289903
 42
0.4142135623731
 10
-750.7636916696847
 20
16.08168026289903
 42
0.4142135623731
  0
LINE
  5
2C3
330
1F
100
AcDbEntity
  8
その他
  6
Continuous
 62
     7
370
     9
100
AcDbLine
 10
-752.2636916696848
 20
16.58168026289903
 30
0.0
 11
-665.1601525721039
 21
16.58168026289903
 31
0.0
  0
LWPOLYLINE
  5
2C4
330
1F
100
AcDbEntity
  8
その他
  6
Continuous
 62
     7
370
     9
100
AcDbPolyline
 90
        4
 70
     1
 43
1.0
 10
-795.4343782926805
 20
4.581686861294436
 42
0.4142135623731
 10
-795.9343782926805
 20
5.081686861294436
 42
0.4142135623731
 10
-796.4343782926805
 20
4.581686861294436
 42
0.4142135623731
 10
-795.9343782926805
 20
4.081686861294436
 42
0.4142135623731
  0
LINE
  5
2C5
330
1F
100
AcDbEntity
  8
その他
  6
Continuous
 62
     7
370
     9
100
AcDbLine
 10
-797.4343782926805
 20
4.581686861294436
 30
0.0
 11
-677.1601459737087
 21
4.581686861294427
 31
0.0
  0
LWPOLYLINE
  5
2C6
330
1F
100
AcDbEntity
  8
その他
  6
Continuous
 62
     7
370
     9
100
AcDbPolyline
 90
        4
 70
     1
 43
1.0
 10
-837.6002269513446
 20
-3.418336233089114
 42
0.4142135623731
 10
-838.1002269513444
 20
-2.918336233089114
 42
0.4142135623731
 10
-838.6002269513444
 20
-3.418336233089114
 42
0.4142135623731
 10
-838.1002269513444
 20
-3.918336233089114
 42
0.4142135623731
  0
LINE
  5
2C7
330
1F
100
AcDbEntity
  8
その他
  6
Continuous
 62
     7
370
     9
100
AcDbLine
 10
-839.6002269513446
 20
-3.418336233089114
 30
0.0
 11
-685.1601690680923
 21
-3.418336233089114
 31
0.0
  0
CIRCLE
  5
2C8
330
1F
100
AcDbEntity
  8
その他
  6
Continuous
 62
     3
370
     9
100
AcDbCircle
 10
-640.1601030841397
 20
31.58163077493445
 30
0.0
 40
11.24979215054899
  0
LWPOLYLINE
  5
2C9
330
1F
100
AcDbEntity
  8
その他
  6
Continuous
 62
     7
370
     9
100
AcDbPolyline
 90
        4
 70
     1
 43
1.0
 10
-674.6601690680923
 20
-78.48591143367204
 42
0.4142135623731
 10
-675.1601690680923
 20
-77.98591143367206
 42
0.4142135623731
 10
-675.6601690680923
 20
-78.48591143367204
 42
0.4142135623731
 10
-675.1601690680923
 20
-78.98591143367204
 42
0.4142135623731
  0
LINE
  5
2CA
330
1F
100
AcDbEntity
  8
その他
  6
Continuous
 62
     7
370
     9
100
AcDbLine
 10
-675.1601690680923
 20
-79.98591143367207
 30
0.0
 11
-675.1601690680923
 21
-13.41833623308911
 31
0.0
  0
LINE
  5
2CB
330
1F
100
AcDbEntity
  8
仕上
  6
JWW_CENTER1
 62
     3
370
     9
100
AcDbLine
 10
-624.2887190047477
 20
31.58163077493445
 30
0.0
 11
-655.1868265849841
 21
31.58163077493445
 31
0.0
  0
LINE
  5
2CC
330
1F
100
AcDbEntity
  8
仕上
  6
JWW_CENTER1
 62
     3
370
     9
100
AcDbLine
 10
-640.1601030841393
 20
16.93576664908992
 30
0.0
 11
-640.1601030841393
 21
46.95734340162375
 31
0.0
  0
LINE
  5
2CD
330
1F
100
AcDbEntity
  8
仕上
  6
Continuous
 62
     3
370
     9
100
AcDbLine
 10
-660.160169068092
 20
74.08169675888718
 30
0.0
 11
-660.160169068092
 21
13.58167036530617
 31
0.0
  0
LINE
  5
2CE
330
1F
100
AcDbEntity
  8
仕上
  6
Continuous
 62
     3
370
     9
100
AcDbLine
 10
-658.1602614456258
 20
11.58176274283992
 30
0.0
 11
-597.6600371001871
 21
11.58176274283992
 31
0.0
  0
LINE
  5
2CF
330
1F
100
AcDbEntity
  8
仕上
  6
Continuous
 62
     3
370
     9
100
AcDbLine
 10
-655.8925249591393
 20
75.84960480365069
 30
0.0
 11
-595.8921290554233
 21
15.84940685179259
 31
0.0
  0
CIRCLE
  5
2D0
330
1F
100
AcDbEntity
  8
仕上
  6
Continuous
 62
     3
370
     9
100
AcDbCircle
 10
-640.1601030841393
 20
31.58163077493445
 30
0.0
 40
11.49997221456992
  0
CIRCLE
  5
2D1
330
1F
100
AcDbEntity
  8
仕上
  6
Continuous
 62
     3
370
     9
100
AcDbCircle
 10
-640.1601030841393
 20
31.58163077493445
 30
0.0
 40
13.49993937724346
  0
ARC
  5
2D2
330
1F
100
AcDbEntity
  8
仕上
  6
Continuous
 62
     3
370
     9
100
AcDbCircle
 10
-658.1602614456258
 20
13.58167036530617
 30
0.0
 40
2.000000025774982
100
AcDbArc
 50
180.0
 51
270.0
  0
ARC
  5
2D3
330
1F
100
AcDbEntity
  8
仕上
  6
Continuous
 62
     3
370
     9
100
AcDbCircle
 10
-657.6602350520452
 20
74.08169675888718
 30
0.0
 40
2.500000128874908
100
AcDbArc
 50
45.0
 51
180.0
  0
ARC
  5
2D4
330
1F
100
AcDbEntity
  8
仕上
  6
Continuous
 62
     3
370
     9
100
AcDbCircle
 10
-597.6600371001871
 20
14.08169675888715
 30
0.0
 40
2.500000128874908
100
AcDbArc
 50
270.0
 51
45.0
  0
LINE
  5
2D5
330
1F
100
AcDbEntity
  8
躯体
  6
Continuous
 62
     2
370
     9
100
AcDbLine
 10
-668.160145973709
 20
3.5816868612946
 30
0.0
 11
-675.1601690680923
 21
-3.418336233089008
 31
0.0
  0
LINE
  5
2D6
330
1F
100
AcDbEntity
  8
仕上
  6
Continuous
 62
     3
370
     9
100
AcDbLine
 10
-660.1602064786374
 20
11.58162635636636
 30
0.0
 11
-667.1601459737087
 21
4.581686861294401
 31
0.0
  0
CIRCLE
  5
2D7
330
1F
100
AcDbEntity
  8
仕上
  6
Continuous
 62
     3
370
     9
100
AcDbCircle
 10
-640.1601030841397
 20
31.58163077493445
 30
0.0
 40
10.0
  0
CIRCLE
  5
2D8
330
1F
100
AcDbEntity
  8
仕上
  6
Continuous
 62
     3
370
     9
100
AcDbCircle
 10
-640.1601030841397
 20
31.58163077493445
 30
0.0
 40
9.69994356015468
  0
LINE
  5
2D9
330
1F
100
AcDbEntity
  8
仕上
  6
Continuous
 62
     3
370
     9
100
AcDbLine
 10
-645.0599806839074
 20
34.17969942463884
 30
0.0
 11
-639.9599984995746
 21
37.12413433806788
 31
0.0
  0
LINE
  5
2DA
330
1F
100
AcDbEntity
  8
仕上
  6
Continuous
 62
     3
370
     9
100
AcDbLine
 10
-639.9599984995746
 20
26.03907772383643
 30
0.0
 11
-645.0599806839074
 21
28.98356212523002
 31
0.0
  0
LINE
  5
2DB
330
1F
100
AcDbEntity
  8
仕上
  6
Continuous
 62
     3
370
     9
100
AcDbLine
 10
-635.4601321170787
 20
28.63714637354086
 30
0.0
 11
-635.4601321170787
 21
34.52606568836345
 31
0.0
  0
ARC
  5
2DC
330
1F
100
AcDbEntity
  8
仕上
  6
Continuous
 62
     3
370
     9
100
AcDbCircle
 10
-638.4599688067959
 20
34.52606568836345
 30
0.0
 40
3.000000038662472
100
AcDbArc
 50
0.0
 51
120.0005493164062
  0
ARC
  5
2DD
330
1F
100
AcDbEntity
  8
仕上
  6
Continuous
 62
     3
370
     9
100
AcDbCircle
 10
-643.5599509911287
 20
31.58163077493445
 30
0.0
 40
3.000000038662472
100
AcDbArc
 50
120.0005493164062
 51
239.9994506835938
  0
ARC
  5
2DE
330
1F
100
AcDbEntity
  8
仕上
  6
Continuous
 62
     3
370
     9
100
AcDbCircle
 10
-638.4599688067959
 20
28.63714637354086
 30
0.0
 40
3.000000038662472
100
AcDbArc
 50
239.9994506835938
 51
0.0000000000000254
  0
CIRCLE
  5
2DF
330
1F
100
AcDbEntity
  8
その他
  6
Continuous
 62
     3
370
     9
100
AcDbCircle
 10
-260.1602350520452
 20
31.58163077493437
 30
0.0
 40
11.24979215054899
  0
LWPOLYLINE
  5
2E0
330
1F
100
AcDbEntity
  8
その他
  6
Continuous
 62
     7
370
     9
100
AcDbPolyline
 90
        4
 70
     1
 43
1.0
 10
-224.6601690680923
 20
-78.48591143367204
 42
0.4142135623731
 10
-225.1601690680923
 20
-77.98591143367206
 42
0.4142135623731
 10
-225.6601690680923
 20
-78.48591143367204
 42
0.4142135623731
 10
-225.1601690680923
 20
-78.98591143367204
 42
0.4142135623731
  0
LINE
  5
2E1
330
1F
100
AcDbEntity
  8
その他
  6
Continuous
 62
     7
370
     9
100
AcDbLine
 10
-225.1601690680923
 20
-79.98591143367207
 30
0.0
 11
-225.1601690680923
 21
-13.41833623308911
 31
0.0
  0
LWPOLYLINE
  5
2E2
330
1F
100
AcDbEntity
  8
その他
  6
Continuous
 62
     7
370
     9
100
AcDbPolyline
 90
        4
 70
     1
 43
1.0
 10
-143.7737234920577
 20
-3.418336233089114
 42
0.4142135623731
 10
-144.2737234920577
 20
-2.918336233089114
 42
0.4142135623731
 10
-144.7737234920577
 20
-3.418336233089114
 42
0.4142135623731
 10
-144.2737234920577
 20
-3.918336233089114
 42
0.4142135623731
  0
LINE
  5
2E3
330
1F
100
AcDbEntity
  8
その他
  6
Continuous
 62
     7
370
     9
100
AcDbLine
 10
-142.7737234920576
 20
-3.418336233089114
 30
0.0
 11
-215.1601690680923
 21
-3.418336233089114
 31
0.0
  0
LINE
  5
2E4
330
1F
100
AcDbEntity
  8
仕上
  6
JWW_CENTER1
 62
     3
370
     9
100
AcDbLine
 10
-276.0316191314368
 20
31.58163077493437
 30
0.0
 11
-245.1335115512003
 21
31.58163077493437
 31
0.0
  0
LINE
  5
2E5
330
1F
100
AcDbEntity
  8
仕上
  6
JWW_CENTER1
 62
     3
370
     9
100
AcDbLine
 10
-260.1602350520449
 20
16.93576664908989
 30
0.0
 11
-260.1602350520449
 21
46.95734340162367
 31
0.0
  0
LINE
  5
2E6
330
1F
100
AcDbEntity
  8
仕上
  6
Continuous
 62
     3
370
     9
100
AcDbLine
 10
-240.160169068092
 20
74.08169675888712
 30
0.0
 11
-240.160169068092
 21
13.58167036530613
 31
0.0
  0
LINE
  5
2E7
330
1F
100
AcDbEntity
  8
仕上
  6
Continuous
 62
     3
370
     9
100
AcDbLine
 10
-242.1600766905584
 20
11.58176274283989
 30
0.0
 11
-302.6603010359975
 21
11.58176274283989
 31
0.0
  0
LINE
  5
2E8
330
1F
100
AcDbEntity
  8
仕上
  6
Continuous
 62
     3
370
     9
100
AcDbLine
 10
-244.4278131770449
 20
75.84960480365062
 30
0.0
 11
-304.4282090807613
 21
15.84940685179248
 31
0.0
  0
CIRCLE
  5
2E9
330
1F
100
AcDbEntity
  8
仕上
  6
Continuous
 62
     3
370
     9
100
AcDbCircle
 10
-260.1602350520449
 20
31.58163077493437
 30
0.0
 40
11.49997221456992
  0
CIRCLE
  5
2EA
330
1F
100
AcDbEntity
  8
仕上
  6
Continuous
 62
     3
370
     9
100
AcDbCircle
 10
-260.1602350520449
 20
31.58163077493437
 30
0.0
 40
13.49993937724346
  0
ARC
  5
2EB
330
1F
100
AcDbEntity
  8
仕上
  6
Continuous
 62
     3
370
     9
100
AcDbCircle
 10
-242.1600766905584
 20
13.58167036530613
 30
0.0
 40
2.000000025774982
100
AcDbArc
 50
270.0
 51
0.0
  0
ARC
  5
2EC
330
1F
100
AcDbEntity
  8
仕上
  6
Continuous
 62
     3
370
     9
100
AcDbCircle
 10
-242.6601030841397
 20
74.08169675888712
 30
0.0
 40
2.500000128874908
100
AcDbArc
 50
0.0
 51
134.9999999999999
  0
ARC
  5
2ED
330
1F
100
AcDbEntity
  8
仕上
  6
Continuous
 62
     3
370
     9
100
AcDbCircle
 10
-302.6603010359975
 20
14.08169675888711
 30
0.0
 40
2.500000128874908
100
AcDbArc
 50
135.0
 51
270.0
  0
LINE
  5
2EE
330
1F
100
AcDbEntity
  8
躯体
  6
Continuous
 62
     2
370
     9
100
AcDbLine
 10
-232.1601921624762
 20
3.5816868612946
 30
0.0
 11
-225.1601690680923
 21
-3.418336233089008
 31
0.0
  0
LINE
  5
2EF
330
1F
100
AcDbEntity
  8
躯体
  6
JWW_DASHED2
 62
     2
370
     9
100
AcDbLine
 10
-245.1601855640806
 20
16.58168026289914
 30
0.0
 11
-258.9442421463147
 21
16.58168026289914
 31
0.0
  0
LINE
  5
2F0
330
1F
100
AcDbEntity
  8
仕上
  6
Continuous
 62
     3
370
     9
100
AcDbLine
 10
-240.1601316575477
 20
11.58162635636636
 30
0.0
 11
-233.1601921624758
 21
4.581686861294401
 31
0.0
  0
CIRCLE
  5
2F1
330
1F
100
AcDbEntity
  8
仕上
  6
Continuous
 62
     3
370
     9
100
AcDbCircle
 10
-260.1602350520449
 20
31.58163077493441
 30
0.0
 40
10.0
  0
CIRCLE
  5
2F2
330
1F
100
AcDbEntity
  8
仕上
  6
Continuous
 62
     3
370
     9
100
AcDbCircle
 10
-260.1602350520449
 20
31.58163077493441
 30
0.0
 40
9.69994356015468
  0
LINE
  5
2F3
330
1F
100
AcDbEntity
  8
仕上
  6
Continuous
 62
     3
370
     9
100
AcDbLine
 10
-265.0601126518129
 20
34.17969942463877
 30
0.0
 11
-259.96013046748
 21
37.12413433806784
 31
0.0
  0
LINE
  5
2F4
330
1F
100
AcDbEntity
  8
仕上
  6
Continuous
 62
     3
370
     9
100
AcDbLine
 10
-259.96013046748
 20
26.03907772383632
 30
0.0
 11
-265.0601126518129
 21
28.98356212522991
 31
0.0
  0
LINE
  5
2F5
330
1F
100
AcDbEntity
  8
仕上
  6
Continuous
 62
     3
370
     9
100
AcDbLine
 10
-255.4602640849842
 20
28.63714637354079
 30
0.0
 11
-255.4602640849842
 21
34.52606568836334
 31
0.0
  0
ARC
  5
2F6
330
1F
100
AcDbEntity
  8
仕上
  6
Continuous
 62
     3
370
     9
100
AcDbCircle
 10
-258.4601007747011
 20
34.52606568836334
 30
0.0
 40
3.000000038662472
100
AcDbArc
 50
0.0
 51
120.0005493164062
  0
ARC
  5
2F7
330
1F
100
AcDbEntity
  8
仕上
  6
Continuous
 62
     3
370
     9
100
AcDbCircle
 10
-263.5600829590339
 20
31.58163077493441
 30
0.0
 40
3.000000038662472
100
AcDbArc
 50
120.0005493164062
 51
239.9994506835938
  0
ARC
  5
2F8
330
1F
100
AcDbEntity
  8
仕上
  6
Continuous
 62
     3
370
     9
100
AcDbCircle
 10
-258.4601007747011
 20
28.63714637354079
 30
0.0
 40
3.000000038662472
100
AcDbArc
 50
239.9994506835938
 51
0.0000000000000254
  0
TEXT
  5
2F9
330
1F
100
AcDbEntity
  8
0-F
  6
Continuous
 62
     6
370
     9
100
AcDbText
 10
-300.3771696411906
 20
13.09689900086805
 30
0.0
 40
4.572000000000038
  1
ＫＡＮＥＳＯ
 41
1.124999999999994
  7
ＭＳ ゴシック
100
AcDbText
  0
LINE
  5
2FA
330
1F
100
AcDbEntity
  8
躯体
  6
Continuous
 62
     2
370
     9
100
AcDbLine
 10
-668.160145973709
 20
3.5816868612946
 30
0.0
 11
-232.1601921624762
 21
3.5816868612946
 31
0.0
  0
LINE
  5
2FB
330
1F
100
AcDbEntity
  8
躯体
  6
Continuous
 62
     2
370
     9
100
AcDbLine
 10
-675.1601690680923
 20
-3.418336233089008
 30
0.0
 11
-225.1601690680923
 21
-3.418336233089008
 31
0.0
  0
LINE
  5
2FC
330
1F
100
AcDbEntity
  8
仕上
  6
Continuous
 62
     3
370
     9
100
AcDbLine
 10
-660.1602064786374
 20
11.58162635636636
 30
0.0
 11
-240.1601316575477
 21
11.58162635636636
 31
0.0
  0
LINE
  5
2FD
330
1F
100
AcDbEntity
  8
仕上
  6
Continuous
 62
     3
370
     9
100
AcDbLine
 10
-233.1601921624758
 20
4.581686861294401
 30
0.0
 11
-667.1601459737087
 21
4.581686861294401
 31
0.0
  0
LINE
  5
2FE
330
1F
100
AcDbEntity
  8
その他
  6
Continuous
 62
     7
370
     9
100
AcDbLine
 10
-667.1601459737087
 20
541.7523486366595
 30
0.0
 11
-667.1601459737087
 21
456.5816637669111
 31
0.0
  0
LINE
  5
2FF
330
1F
100
AcDbEntity
  8
その他
  6
Continuous
 62
     7
370
     9
100
AcDbLine
 10
-655.1601525721039
 20
505.6574991304207
 30
0.0
 11
-655.1601525721039
 21
456.5816637669111
 31
0.0
  0
LINE
  5
300
330
1F
100
AcDbEntity
  8
その他
  6
Continuous
 62
     7
370
     9
100
AcDbLine
 10
-675.1601690680923
 20
584.5150766732727
 30
0.0
 11
-675.1601690680923
 21
456.5816637669111
 31
0.0
  0
LWPOLYLINE
  5
301
330
1F
100
AcDbEntity
  8
その他
  6
Continuous
 62
     7
370
     9
100
AcDbPolyline
 90
        4
 70
     1
 43
1.0
 10
-674.6601690680923
 20
583.0150766732726
 42
0.4142135623731
 10
-675.1601690680923
 20
583.5150766732726
 42
0.4142135623731
 10
-675.6601690680923
 20
583.0150766732726
 42
0.4142135623731
 10
-675.1601690680923
 20
582.5150766732726
 42
0.4142135623731
  0
LWPOLYLINE
  5
302
330
1F
100
AcDbEntity
  8
その他
  6
Continuous
 62
     7
370
     9
100
AcDbPolyline
 90
        4
 70
     1
 43
1.0
 10
-666.6601459737087
 20
540.2523486366595
 42
0.4142135623731
 10
-667.1601459737087
 20
540.7523486366595
 42
0.4142135623731
 10
-667.6601459737087
 20
540.2523486366595
 42
0.4142135623731
 10
-667.1601459737087
 20
539.7523486366595
 42
0.4142135623731
  0
LWPOLYLINE
  5
303
330
1F
100
AcDbEntity
  8
その他
  6
Continuous
 62
     7
370
     9
100
AcDbPolyline
 90
        4
 70
     1
 43
1.0
 10
-654.660152572104
 20
504.1574991304208
 42
0.4142135623731
 10
-655.1601525721039
 20
504.6574991304208
 42
0.4142135623731
 10
-655.6601525721039
 20
504.1574991304208
 42
0.4142135623731
 10
-655.1601525721039
 20
503.6574991304208
 42
0.4142135623731
  0
LINE
  5
304
330
1F
100
AcDbEntity
  8
その他
  6
Continuous
 62
     7
370
     9
100
AcDbLine
 10
-839.6002269513446
 20
446.5816637669111
 30
0.0
 11
-685.1601690680928
 21
446.5816637669111
 31
0.0
  0
LWPOLYLINE
  5
305
330
1F
100
AcDbEntity
  8
その他
  6
Continuous
 62
     7
370
     9
100
AcDbPolyline
 90
        4
 70
     1
 43
1.0
 10
-837.6002269513446
 20
446.5816637669111
 42
0.4142135623731
 10
-838.1002269513444
 20
447.0816637669111
 42
0.4142135623731
 10
-838.6002269513444
 20
446.5816637669111
 42
0.4142135623731
 10
-838.1002269513444
 20
446.0816637669112
 42
0.4142135623731
  0
LINE
  5
306
330
1F
100
AcDbEntity
  8
その他
  6
Continuous
 62
     7
370
     9
100
AcDbLine
 10
-797.4343782926805
 20
438.581640672527
 30
0.0
 11
-677.1601459737087
 21
438.581640672527
 31
0.0
  0
LWPOLYLINE
  5
307
330
1F
100
AcDbEntity
  8
その他
  6
Continuous
 62
     7
370
     9
100
AcDbPolyline
 90
        4
 70
     1
 43
1.0
 10
-795.4343782926805
 20
438.581640672527
 42
0.4142135623731
 10
-795.9343782926805
 20
439.081640672527
 42
0.4142135623731
 10
-796.4343782926805
 20
438.581640672527
 42
0.4142135623731
 10
-795.9343782926805
 20
438.081640672527
 42
0.4142135623731
  0
LINE
  5
308
330
1F
100
AcDbEntity
  8
その他
  6
Continuous
 62
     7
370
     9
100
AcDbLine
 10
-752.2636916696848
 20
426.5816472709227
 30
0.0
 11
-665.1601525721039
 21
426.5816472709227
 31
0.0
  0
LWPOLYLINE
  5
309
330
1F
100
AcDbEntity
  8
その他
  6
Continuous
 62
     7
370
     9
100
AcDbPolyline
 90
        4
 70
     1
 43
1.0
 10
-750.2636916696848
 20
426.5816472709227
 42
0.4142135623731
 10
-750.7636916696847
 20
427.0816472709226
 42
0.4142135623731
 10
-751.2636916696847
 20
426.5816472709227
 42
0.4142135623731
 10
-750.7636916696847
 20
426.0816472709228
 42
0.4142135623731
  0
CIRCLE
  5
30A
330
1F
100
AcDbEntity
  8
その他
  6
Continuous
 62
     3
370
     9
100
AcDbCircle
 10
-640.1601030841397
 20
411.5816967588873
 30
0.0
 40
11.24979215054899
  0
LINE
  5
30B
330
1F
100
AcDbEntity
  8
仕上
  6
JWW_CENTER1
 62
     3
370
     9
100
AcDbLine
 10
-624.2887190047477
 20
411.5816967588873
 30
0.0
 11
-655.1868265849841
 21
411.5816967588873
 31
0.0
  0
LINE
  5
30C
330
1F
100
AcDbEntity
  8
仕上
  6
JWW_CENTER1
 62
     3
370
     9
100
AcDbLine
 10
-640.1601030841393
 20
426.227560884732
 30
0.0
 11
-640.1601030841393
 21
396.2059841321981
 31
0.0
  0
LINE
  5
30D
330
1F
100
AcDbEntity
  8
仕上
  6
Continuous
 62
     3
370
     9
100
AcDbLine
 10
-660.160169068092
 20
369.0816307749346
 30
0.0
 11
-660.160169068092
 21
429.5816571685157
 31
0.0
  0
LINE
  5
30E
330
1F
100
AcDbEntity
  8
仕上
  6
Continuous
 62
     3
370
     9
100
AcDbLine
 10
-658.1602614456258
 20
431.581564790982
 30
0.0
 11
-597.6600371001871
 21
431.581564790982
 31
0.0
  0
LINE
  5
30F
330
1F
100
AcDbEntity
  8
仕上
  6
Continuous
 62
     3
370
     9
100
AcDbLine
 10
-655.8925249591393
 20
367.3137227301711
 30
0.0
 11
-595.8921290554233
 21
427.3139206820292
 31
0.0
  0
CIRCLE
  5
310
330
1F
100
AcDbEntity
  8
仕上
  6
Continuous
 62
     3
370
     9
100
AcDbCircle
 10
-640.1601030841393
 20
411.5816967588873
 30
0.0
 40
11.49997221456992
  0
CIRCLE
  5
311
330
1F
100
AcDbEntity
  8
仕上
  6
Continuous
 62
     3
370
     9
100
AcDbCircle
 10
-640.1601030841393
 20
411.5816967588873
 30
0.0
 40
13.49993937724346
  0
ARC
  5
312
330
1F
100
AcDbEntity
  8
仕上
  6
Continuous
 62
     3
370
     9
100
AcDbCircle
 10
-658.1602614456258
 20
429.5816571685157
 30
0.0
 40
2.000000025774982
100
AcDbArc
 50
90.0
 51
180.0
  0
ARC
  5
313
330
1F
100
AcDbEntity
  8
仕上
  6
Continuous
 62
     3
370
     9
100
AcDbCircle
 10
-657.6602350520452
 20
369.0816307749346
 30
0.0
 40
2.500000128874908
100
AcDbArc
 50
180.0
 51
315.0
  0
ARC
  5
314
330
1F
100
AcDbEntity
  8
仕上
  6
Continuous
 62
     3
370
     9
100
AcDbCircle
 10
-597.6600371001871
 20
429.0816307749345
 30
0.0
 40
2.500000128874908
100
AcDbArc
 50
315.0
 51
90.0
  0
LINE
  5
315
330
1F
100
AcDbEntity
  8
躯体
  6
Continuous
 62
     2
370
     9
100
AcDbLine
 10
-668.160145973709
 20
439.5816406725276
 30
0.0
 11
-675.1601690680923
 21
446.581663766911
 31
0.0
  0
LINE
  5
316
330
1F
100
AcDbEntity
  8
仕上
  6
Continuous
 62
     3
370
     9
100
AcDbLine
 10
-660.1602064786368
 20
431.5817011774556
 30
0.0
 11
-667.1601459737087
 21
438.5816406725274
 31
0.0
  0
CIRCLE
  5
317
330
1F
100
AcDbEntity
  8
仕上
  6
Continuous
 62
     3
370
     9
100
AcDbCircle
 10
-640.1601030841397
 20
411.5816967588873
 30
0.0
 40
10.0
  0
CIRCLE
  5
318
330
1F
100
AcDbEntity
  8
仕上
  6
Continuous
 62
     3
370
     9
100
AcDbCircle
 10
-640.1601030841397
 20
411.5816967588873
 30
0.0
 40
9.69994356015468
  0
LINE
  5
319
330
1F
100
AcDbEntity
  8
仕上
  6
Continuous
 62
     3
370
     9
100
AcDbLine
 10
-645.0599806839074
 20
414.1797654085917
 30
0.0
 11
-639.9599984995746
 21
417.1242003220208
 31
0.0
  0
LINE
  5
31A
330
1F
100
AcDbEntity
  8
仕上
  6
Continuous
 62
     3
370
     9
100
AcDbLine
 10
-639.9599984995746
 20
406.0391437077893
 30
0.0
 11
-645.0599806839074
 21
408.9836281091828
 31
0.0
  0
LINE
  5
31B
330
1F
100
AcDbEntity
  8
仕上
  6
Continuous
 62
     3
370
     9
100
AcDbLine
 10
-635.4601321170787
 20
408.6372123574938
 30
0.0
 11
-635.4601321170787
 21
414.5261316723162
 31
0.0
  0
ARC
  5
31C
330
1F
100
AcDbEntity
  8
仕上
  6
Continuous
 62
     3
370
     9
100
AcDbCircle
 10
-638.4599688067959
 20
414.5261316723162
 30
0.0
 40
3.000000038662472
100
AcDbArc
 50
0.0
 51
120.0005493164062
  0
ARC
  5
31D
330
1F
100
AcDbEntity
  8
仕上
  6
Continuous
 62
     3
370
     9
100
AcDbCircle
 10
-643.5599509911287
 20
411.5816967588873
 30
0.0
 40
3.000000038662472
100
AcDbArc
 50
120.0005493164062
 51
239.9994506835938
  0
ARC
  5
31E
330
1F
100
AcDbEntity
  8
仕上
  6
Continuous
 62
     3
370
     9
100
AcDbCircle
 10
-638.4599688067959
 20
408.6372123574938
 30
0.0
 40
3.000000038662472
100
AcDbArc
 50
239.9994506835938
 51
0.0000000000000254
  0
LINE
  5
31F
330
1F
100
AcDbEntity
  8
その他
  6
Continuous
 62
     7
370
     9
100
AcDbLine
 10
-233.1601921624761
 20
541.7523486366595
 30
0.0
 11
-233.1601921624761
 21
456.5816637669111
 31
0.0
  0
LINE
  5
320
330
1F
100
AcDbEntity
  8
その他
  6
Continuous
 62
     7
370
     9
100
AcDbLine
 10
-245.1601855640803
 20
505.6574991304207
 30
0.0
 11
-245.1601855640803
 21
456.5816637669111
 31
0.0
  0
LINE
  5
321
330
1F
100
AcDbEntity
  8
その他
  6
Continuous
 62
     7
370
     9
100
AcDbLine
 10
-225.1601690680923
 20
584.5150766732727
 30
0.0
 11
-225.1601690680923
 21
456.5816637669111
 31
0.0
  0
LWPOLYLINE
  5
322
330
1F
100
AcDbEntity
  8
その他
  6
Continuous
 62
     7
370
     9
100
AcDbPolyline
 90
        4
 70
     1
 43
1.0
 10
-224.6601690680923
 20
583.0150766732726
 42
0.4142135623731
 10
-225.1601690680923
 20
583.5150766732726
 42
0.4142135623731
 10
-225.6601690680923
 20
583.0150766732726
 42
0.4142135623731
 10
-225.1601690680923
 20
582.5150766732726
 42
0.4142135623731
  0
LWPOLYLINE
  5
323
330
1F
100
AcDbEntity
  8
その他
  6
Continuous
 62
     7
370
     9
100
AcDbPolyline
 90
        4
 70
     1
 43
1.0
 10
-232.6601921624761
 20
540.2523486366595
 42
0.4142135623731
 10
-233.1601921624761
 20
540.7523486366595
 42
0.4142135623731
 10
-233.6601921624761
 20
540.2523486366595
 42
0.4142135623731
 10
-233.1601921624761
 20
539.7523486366595
 42
0.4142135623731
  0
LWPOLYLINE
  5
324
330
1F
100
AcDbEntity
  8
その他
  6
Continuous
 62
     7
370
     9
100
AcDbPolyline
 90
        4
 70
     1
 43
1.0
 10
-244.6601855640803
 20
504.1574991304208
 42
0.4142135623731
 10
-245.1601855640803
 20
504.6574991304208
 42
0.4142135623731
 10
-245.6601855640803
 20
504.1574991304208
 42
0.4142135623731
 10
-245.1601855640803
 20
503.6574991304208
 42
0.4142135623731
  0
CIRCLE
  5
325
330
1F
100
AcDbEntity
  8
その他
  6
Continuous
 62
     3
370
     9
100
AcDbCircle
 10
-260.1602350520452
 20
411.5816967588875
 30
0.0
 40
11.24979215054899
  0
LINE
  5
326
330
1F
100
AcDbEntity
  8
その他
  6
Continuous
 62
     7
370
     9
100
AcDbLine
 10
-142.7737234920576
 20
446.5816637669111
 30
0.0
 11
-215.1601690680923
 21
446.5816637669111
 31
0.0
  0
LWPOLYLINE
  5
327
330
1F
100
AcDbEntity
  8
その他
  6
Continuous
 62
     7
370
     9
100
AcDbPolyline
 90
        4
 70
     1
 43
1.0
 10
-143.7737234920577
 20
446.5816637669111
 42
0.4142135623731
 10
-144.2737234920577
 20
447.0816637669111
 42
0.4142135623731
 10
-144.7737234920577
 20
446.5816637669111
 42
0.4142135623731
 10
-144.2737234920577
 20
446.0816637669112
 42
0.4142135623731
  0
LINE
  5
328
330
1F
100
AcDbEntity
  8
仕上
  6
JWW_CENTER1
 62
     3
370
     9
100
AcDbLine
 10
-276.0316191314368
 20
411.5816967588875
 30
0.0
 11
-245.1335115512003
 21
411.5816967588875
 31
0.0
  0
LINE
  5
329
330
1F
100
AcDbEntity
  8
仕上
  6
JWW_CENTER1
 62
     3
370
     9
100
AcDbLine
 10
-260.1602350520449
 20
426.2275608847318
 30
0.0
 11
-260.1602350520449
 21
396.2059841321982
 31
0.0
  0
LINE
  5
32A
330
1F
100
AcDbEntity
  8
仕上
  6
Continuous
 62
     3
370
     9
100
AcDbLine
 10
-240.160169068092
 20
369.0816307749347
 30
0.0
 11
-240.160169068092
 21
429.5816571685156
 31
0.0
  0
LINE
  5
32B
330
1F
100
AcDbEntity
  8
仕上
  6
Continuous
 62
     3
370
     9
100
AcDbLine
 10
-242.1600766905584
 20
431.5815647909818
 30
0.0
 11
-302.6603010359975
 21
431.5815647909818
 31
0.0
  0
LINE
  5
32C
330
1F
100
AcDbEntity
  8
仕上
  6
Continuous
 62
     3
370
     9
100
AcDbLine
 10
-244.4278131770449
 20
367.3137227301714
 30
0.0
 11
-304.4282090807613
 21
427.3139206820292
 31
0.0
  0
CIRCLE
  5
32D
330
1F
100
AcDbEntity
  8
仕上
  6
Continuous
 62
     3
370
     9
100
AcDbCircle
 10
-260.1602350520449
 20
411.5816967588875
 30
0.0
 40
11.49997221456992
  0
CIRCLE
  5
32E
330
1F
100
AcDbEntity
  8
仕上
  6
Continuous
 62
     3
370
     9
100
AcDbCircle
 10
-260.1602350520449
 20
411.5816967588875
 30
0.0
 40
13.49993937724346
  0
ARC
  5
32F
330
1F
100
AcDbEntity
  8
仕上
  6
Continuous
 62
     3
370
     9
100
AcDbCircle
 10
-242.1600766905584
 20
429.5816571685156
 30
0.0
 40
2.000000025774982
100
AcDbArc
 50
0.0
 51
90.0
  0
ARC
  5
330
330
1F
100
AcDbEntity
  8
仕上
  6
Continuous
 62
     3
370
     9
100
AcDbCircle
 10
-242.6601030841394
 20
369.0816307749347
 30
0.0
 40
2.500000128874908
100
AcDbArc
 50
225.0
 51
0.0
  0
ARC
  5
331
330
1F
100
AcDbEntity
  8
仕上
  6
Continuous
 62
     3
370
     9
100
AcDbCircle
 10
-302.6603010359975
 20
429.0816307749346
 30
0.0
 40
2.500000128874908
100
AcDbArc
 50
90.0
 51
225.0
  0
LINE
  5
332
330
1F
100
AcDbEntity
  8
躯体
  6
Continuous
 62
     2
370
     9
100
AcDbLine
 10
-232.1601921624759
 20
439.5816406725276
 30
0.0
 11
-225.1601690680923
 21
446.5816637669112
 31
0.0
  0
LINE
  5
333
330
1F
100
AcDbEntity
  8
仕上
  6
Continuous
 62
     3
370
     9
100
AcDbLine
 10
-240.1601316575477
 20
431.5817011774556
 30
0.0
 11
-233.1601921624758
 21
438.5816406725275
 31
0.0
  0
CIRCLE
  5
334
330
1F
100
AcDbEntity
  8
仕上
  6
Continuous
 62
     3
370
     9
100
AcDbCircle
 10
-260.1602350520449
 20
411.5816967588875
 30
0.0
 40
10.0
  0
CIRCLE
  5
335
330
1F
100
AcDbEntity
  8
仕上
  6
Continuous
 62
     3
370
     9
100
AcDbCircle
 10
-260.1602350520449
 20
411.5816967588875
 30
0.0
 40
9.69994356015468
  0
LINE
  5
336
330
1F
100
AcDbEntity
  8
仕上
  6
Continuous
 62
     3
370
     9
100
AcDbLine
 10
-265.0601126518129
 20
414.1797654085918
 30
0.0
 11
-259.96013046748
 21
417.1242003220209
 31
0.0
  0
LINE
  5
337
330
1F
100
AcDbEntity
  8
仕上
  6
Continuous
 62
     3
370
     9
100
AcDbLine
 10
-259.96013046748
 20
406.0391437077894
 30
0.0
 11
-265.0601126518129
 21
408.9836281091831
 31
0.0
  0
LINE
  5
338
330
1F
100
AcDbEntity
  8
仕上
  6
Continuous
 62
     3
370
     9
100
AcDbLine
 10
-255.4602640849842
 20
408.6372123574939
 30
0.0
 11
-255.4602640849842
 21
414.5261316723165
 31
0.0
  0
ARC
  5
339
330
1F
100
AcDbEntity
  8
仕上
  6
Continuous
 62
     3
370
     9
100
AcDbCircle
 10
-258.4601007747011
 20
414.5261316723165
 30
0.0
 40
3.000000038662472
100
AcDbArc
 50
0.0
 51
120.0005493164062
  0
ARC
  5
33A
330
1F
100
AcDbEntity
  8
仕上
  6
Continuous
 62
     3
370
     9
100
AcDbCircle
 10
-263.5600829590339
 20
411.5816967588875
 30
0.0
 40
3.000000038662472
100
AcDbArc
 50
120.0005493164062
 51
239.9994506835938
  0
ARC
  5
33B
330
1F
100
AcDbEntity
  8
仕上
  6
Continuous
 62
     3
370
     9
100
AcDbCircle
 10
-258.4601007747011
 20
408.6372123574939
 30
0.0
 40
3.000000038662472
100
AcDbArc
 50
239.9994506835938
 51
0.0000000000000254
  0
LINE
  5
33C
330
1F
100
AcDbEntity
  8
躯体
  6
Continuous
 62
     2
370
     9
100
AcDbLine
 10
-232.1601921624762
 20
439.5816406725274
 30
0.0
 11
-668.160145973709
 21
439.5816406725274
 31
0.0
  0
LINE
  5
33D
330
1F
100
AcDbEntity
  8
躯体
  6
Continuous
 62
     2
370
     9
100
AcDbLine
 10
-225.1601690680923
 20
446.5816637669112
 30
0.0
 11
-675.1601690680923
 21
446.5816637669112
 31
0.0
  0
LINE
  5
33E
330
1F
100
AcDbEntity
  8
仕上
  6
Continuous
 62
     3
370
     9
100
AcDbLine
 10
-240.1601316575477
 20
431.5817011774554
 30
0.0
 11
-660.1602064786374
 21
431.5817011774554
 31
0.0
  0
LINE
  5
33F
330
1F
100
AcDbEntity
  8
仕上
  6
Continuous
 62
     3
370
     9
100
AcDbLine
 10
-667.1601459737087
 20
438.5816406725274
 30
0.0
 11
-233.1601921624758
 21
438.5816406725274
 31
0.0
  0
LINE
  5
340
330
1F
100
AcDbEntity
  8
躯体
  6
Continuous
 62
     2
370
     9
100
AcDbLine
 10
-675.1601690680923
 20
446.5816637669112
 30
0.0
 11
-675.1601690680923
 21
-3.418336233089008
 31
0.0
  0
LINE
  5
341
330
1F
100
AcDbEntity
  8
躯体
  6
Continuous
 62
     2
370
     9
100
AcDbLine
 10
-668.160145973709
 20
439.5816406725274
 30
0.0
 11
-668.160145973709
 21
3.5816868612946
 31
0.0
  0
LINE
  5
342
330
1F
100
AcDbEntity
  8
躯体
  6
JWW_DASHED2
 62
     2
370
     9
100
AcDbLine
 10
-655.1601525721043
 20
16.58168026289914
 30
0.0
 11
-655.1601525721043
 21
426.5816472709229
 31
0.0
  0
LINE
  5
343
330
1F
100
AcDbEntity
  8
仕上
  6
Continuous
 62
     3
370
     9
100
AcDbLine
 10
-667.1601459737087
 20
4.581686861294401
 30
0.0
 11
-667.1601459737087
 21
438.5816406725274
 31
0.0
  0
LINE
  5
344
330
1F
100
AcDbEntity
  8
仕上
  6
Continuous
 62
     3
370
     9
100
AcDbLine
 10
-660.1602064786374
 20
431.5817011774554
 30
0.0
 11
-660.1602064786374
 21
11.58162635636636
 31
0.0
  0
LINE
  5
345
330
1F
100
AcDbEntity
  8
躯体
  6
Continuous
 62
     2
370
     9
100
AcDbLine
 10
-232.1601921624762
 20
3.5816868612946
 30
0.0
 11
-232.1601921624762
 21
439.5816406725274
 31
0.0
  0
LINE
  5
346
330
1F
100
AcDbEntity
  8
躯体
  6
Continuous
 62
     2
370
     9
100
AcDbLine
 10
-225.1601690680923
 20
-3.418336233089008
 30
0.0
 11
-225.1601690680923
 21
446.5816637669112
 31
0.0
  0
LINE
  5
347
330
1F
100
AcDbEntity
  8
躯体
  6
JWW_DASHED2
 62
     2
370
     9
100
AcDbLine
 10
-245.1601855640806
 20
426.5816472709229
 30
0.0
 11
-245.1601855640806
 21
16.58168026289914
 31
0.0
  0
LINE
  5
348
330
1F
100
AcDbEntity
  8
仕上
  6
Continuous
 62
     3
370
     9
100
AcDbLine
 10
-240.1601316575477
 20
11.58162635636636
 30
0.0
 11
-240.1601316575477
 21
431.5817011774554
 31
0.0
  0
LINE
  5
349
330
1F
100
AcDbEntity
  8
仕上
  6
Continuous
 62
     3
370
     9
100
AcDbLine
 10
-233.1601921624758
 20
438.5816406725274
 30
0.0
 11
-233.1601921624758
 21
4.581686861294401
 31
0.0
  0
LINE
  5
34A
330
1F
100
AcDbEntity
  8
その他
  6
Continuous
 62
     7
370
     9
100
AcDbLine
 10
-142.7737234920576
 20
309.0816637669111
 30
0.0
 11
-185.1624138539464
 21
309.0816637669111
 31
0.0
  0
LWPOLYLINE
  5
34B
330
1F
100
AcDbEntity
  8
その他
  6
Continuous
 62
     7
370
     9
100
AcDbPolyline
 90
        4
 70
     1
 43
1.0
 10
-143.7737234920577
 20
309.0816637669111
 42
0.4142135623731
 10
-144.2737234920577
 20
309.5816637669112
 42
0.4142135623731
 10
-144.7737234920577
 20
309.0816637669111
 42
0.4142135623731
 10
-144.2737234920577
 20
308.5816637669111
 42
0.4142135623731
  0
LINE
  5
34C
330
1F
100
AcDbEntity
  8
躯体
  6
JWW_CENTER1
 62
     2
370
     9
100
AcDbLine
 10
-195.1624138539464
 20
309.0815684436649
 30
0.0
 11
-221.9394995831257
 21
309.0815684436649
 31
0.0
  0
ARC
  5
34D
330
1F
100
AcDbEntity
  8
躯体
  6
Continuous
 62
     2
370
     9
100
AcDbCircle
 10
-201.3102431232969
 20
301.0815684436649
 30
0.0
 40
2.0
100
AcDbArc
 50
270.0
 51
331.04497562814
  0
ARC
  5
34E
330
1F
100
AcDbEntity
  8
躯体
  6
Continuous
 62
     2
370
     9
100
AcDbCircle
 10
-201.3102431232969
 20
317.0815684436649
 30
0.0
 40
2.0
100
AcDbArc
 50
28.95502437185994
 51
90.0
  0
LINE
  5
34F
330
1F
100
AcDbEntity
  8
躯体
  6
Continuous
 62
     2
370
     9
100
AcDbLine
 10
-201.3102431232969
 20
319.0816169890014
 30
0.0
 11
-225.1601300079489
 21
319.0816169890014
 31
0.0
  0
LINE
  5
350
330
1F
100
AcDbEntity
  8
躯体
  6
Continuous
 62
     2
370
     9
100
AcDbLine
 10
-199.5602431232965
 20
300.113322607113
 30
0.0
 11
-199.5602431232965
 21
318.0498142802168
 31
0.0
  0
LINE
  5
351
330
1F
100
AcDbEntity
  8
躯体
  6
Continuous
 62
     2
370
     9
100
AcDbLine
 10
-201.3102431232969
 20
299.0815198983283
 30
0.0
 11
-225.1601300079489
 21
299.0815198983283
 31
0.0
  0
CIRCLE
  5
352
330
1F
100
AcDbEntity
  8
躯体
  6
Continuous
 62
     2
370
     9
100
AcDbCircle
 10
-209.5602431232967
 20
309.0815684436649
 30
0.0
 40
6.5
  0
LINE
  5
353
330
1F
100
AcDbEntity
  8
躯体
  6
JWW_CENTER1
 62
     2
370
     9
100
AcDbLine
 10
-209.5602431232967
 20
301.465227140983
 30
0.0
 11
-209.5602431232967
 21
317.0516055976912
 31
0.0
  0
LWPOLYLINE
  5
354
330
1F
100
AcDbEntity
  8
その他
  6
Continuous
 62
     7
370
     9
100
AcDbPolyline
 90
        4
 70
     1
 43
1.0
 10
-143.7737234920577
 20
134.0816637669109
 42
0.4142135623731
 10
-144.2737234920577
 20
134.5816637669109
 42
0.4142135623731
 10
-144.7737234920577
 20
134.0816637669109
 42
0.4142135623731
 10
-144.2737234920577
 20
133.5816637669109
 42
0.4142135623731
  0
LINE
  5
355
330
1F
100
AcDbEntity
  8
その他
  6
Continuous
 62
     7
370
     9
100
AcDbLine
 10
-142.7737234920576
 20
134.0816637669109
 30
0.0
 11
-185.1624138539464
 21
134.0816637669109
 31
0.0
  0
LINE
  5
356
330
1F
100
AcDbEntity
  8
躯体
  6
JWW_CENTER1
 62
     2
370
     9
100
AcDbLine
 10
-195.1624138539464
 20
134.0816016123839
 30
0.0
 11
-221.9394995831257
 21
134.0816016123839
 31
0.0
  0
ARC
  5
357
330
1F
100
AcDbEntity
  8
躯体
  6
Continuous
 62
     2
370
     9
100
AcDbCircle
 10
-201.3102431232969
 20
126.081601612384
 30
0.0
 40
2.0
100
AcDbArc
 50
270.0
 51
331.04497562814
  0
ARC
  5
358
330
1F
100
AcDbEntity
  8
躯体
  6
Continuous
 62
     2
370
     9
100
AcDbCircle
 10
-201.3102431232969
 20
142.0816016123839
 30
0.0
 40
2.0
100
AcDbArc
 50
28.95502437185994
 51
90.0
  0
LINE
  5
359
330
1F
100
AcDbEntity
  8
躯体
  6
Continuous
 62
     2
370
     9
100
AcDbLine
 10
-201.3102431232969
 20
144.0816501577206
 30
0.0
 11
-225.1601300079489
 21
144.0816501577206
 31
0.0
  0
LINE
  5
35A
330
1F
100
AcDbEntity
  8
躯体
  6
Continuous
 62
     2
370
     9
100
AcDbLine
 10
-199.5602431232965
 20
143.0498474489358
 30
0.0
 11
-199.5602431232965
 21
125.1133557758321
 31
0.0
  0
LINE
  5
35B
330
1F
100
AcDbEntity
  8
躯体
  6
Continuous
 62
     2
370
     9
100
AcDbLine
 10
-201.3102431232969
 20
124.0815530670474
 30
0.0
 11
-225.1601300079489
 21
124.0815530670474
 31
0.0
  0
CIRCLE
  5
35C
330
1F
100
AcDbEntity
  8
躯体
  6
Continuous
 62
     2
370
     9
100
AcDbCircle
 10
-209.5602431232967
 20
134.0816016123839
 30
0.0
 40
6.5
  0
LINE
  5
35D
330
1F
100
AcDbEntity
  8
躯体
  6
JWW_CENTER1
 62
     2
370
     9
100
AcDbLine
 10
-209.5602431232967
 20
126.3186023372153
 30
0.0
 11
-209.5602431232967
 21
142.5202325751093
 31
0.0
  0
LWPOLYLINE
  5
35E
330
1F
100
AcDbEntity
  8
その他
  6
Continuous
 62
     7
370
     9
100
AcDbPolyline
 90
        4
 70
     1
 43
1.0
 10
-537.1601690680923
 20
-78.48591143367204
 42
0.4142135623731
 10
-537.6601690680923
 20
-77.98591143367206
 42
0.4142135623731
 10
-538.1601690680923
 20
-78.48591143367204
 42
0.4142135623731
 10
-537.6601690680923
 20
-78.98591143367204
 42
0.4142135623731
  0
LINE
  5
35F
330
1F
100
AcDbEntity
  8
その他
  6
Continuous
 62
     7
370
     9
100
AcDbLine
 10
-537.6601690680923
 20
-79.98591143367207
 30
0.0
 11
-537.6601690680923
 21
-43.4160914472351
 31
0.0
  0
LINE
  5
360
330
1F
100
AcDbEntity
  8
躯体
  6
JWW_CENTER1
 62
     2
370
     9
100
AcDbLine
 10
-537.6602312226194
 20
-33.41609144723531
 30
0.0
 11
-537.6602312226194
 21
-6.639005718056055
 31
0.0
  0
ARC
  5
361
330
1F
100
AcDbEntity
  8
躯体
  6
Continuous
 62
     2
370
     9
100
AcDbCircle
 10
-545.6602312226189
 20
-27.26826217788499
 30
0.0
 40
2.0
100
AcDbArc
 50
180.0
 51
241.04497562814
  0
ARC
  5
362
330
1F
100
AcDbEntity
  8
躯体
  6
Continuous
 62
     2
370
     9
100
AcDbCircle
 10
-529.6602312226194
 20
-27.26826217788499
 30
0.0
 40
2.0
100
AcDbArc
 50
298.95502437186
 51
0.0
  0
LINE
  5
363
330
1F
100
AcDbEntity
  8
躯体
  6
Continuous
 62
     2
370
     9
100
AcDbLine
 10
-527.6601826772824
 20
-27.26826217788499
 30
0.0
 11
-527.6601826772824
 21
-3.418375293232536
 31
0.0
  0
LINE
  5
364
330
1F
100
AcDbEntity
  8
躯体
  6
Continuous
 62
     2
370
     9
100
AcDbLine
 10
-528.6919853860675
 20
-29.01826217788503
 30
0.0
 11
-546.6284770591712
 21
-29.01826217788503
 31
0.0
  0
LINE
  5
365
330
1F
100
AcDbEntity
  8
躯体
  6
Continuous
 62
     2
370
     9
100
AcDbLine
 10
-547.6602797679559
 20
-27.26826217788499
 30
0.0
 11
-547.6602797679559
 21
-3.418375293232536
 31
0.0
  0
CIRCLE
  5
366
330
1F
100
AcDbEntity
  8
躯体
  6
Continuous
 62
     2
370
     9
100
AcDbCircle
 10
-537.6602312226194
 20
-19.01826217788493
 30
0.0
 40
6.5
  0
LINE
  5
367
330
1F
100
AcDbEntity
  8
躯体
  6
JWW_CENTER1
 62
     2
370
     9
100
AcDbLine
 10
-545.7344401258774
 20
-19.01826217788493
 30
0.0
 11
-529.6011711970041
 21
-19.01826217788493
 31
0.0
  0
LWPOLYLINE
  5
368
330
1F
100
AcDbEntity
  8
その他
  6
Continuous
 62
     7
370
     9
100
AcDbPolyline
 90
        4
 70
     1
 43
1.0
 10
-362.1601690680923
 20
-78.48591143367204
 42
0.4142135623731
 10
-362.6601690680923
 20
-77.98591143367206
 42
0.4142135623731
 10
-363.1601690680923
 20
-78.48591143367204
 42
0.4142135623731
 10
-362.6601690680923
 20
-78.98591143367204
 42
0.4142135623731
  0
LINE
  5
369
330
1F
100
AcDbEntity
  8
その他
  6
Continuous
 62
     7
370
     9
100
AcDbLine
 10
-362.6601690680923
 20
-79.98591143367207
 30
0.0
 11
-362.6601690680923
 21
-43.41609144723519
 31
0.0
  0
LINE
  5
36A
330
1F
100
AcDbEntity
  8
躯体
  6
JWW_CENTER1
 62
     2
370
     9
100
AcDbLine
 10
-362.6602643913384
 20
-33.41609144723535
 30
0.0
 11
-362.6602643913384
 21
-6.639005718056161
 31
0.0
  0
ARC
  5
36B
330
1F
100
AcDbEntity
  8
躯体
  6
Continuous
 62
     2
370
     9
100
AcDbCircle
 10
-370.6602643913382
 20
-27.2682621778851
 30
0.0
 40
2.0
100
AcDbArc
 50
180.0
 51
241.04497562814
  0
ARC
  5
36C
330
1F
100
AcDbEntity
  8
躯体
  6
Continuous
 62
     2
370
     9
100
AcDbCircle
 10
-354.6602643913383
 20
-27.2682621778851
 30
0.0
 40
2.0
100
AcDbArc
 50
298.95502437186
 51
0.0
  0
LINE
  5
36D
330
1F
100
AcDbEntity
  8
躯体
  6
Continuous
 62
     2
370
     9
100
AcDbLine
 10
-352.6602158460017
 20
-27.2682621778851
 30
0.0
 11
-352.6602158460017
 21
-3.418375293232643
 31
0.0
  0
LINE
  5
36E
330
1F
100
AcDbEntity
  8
躯体
  6
Continuous
 62
     2
370
     9
100
AcDbLine
 10
-371.62851022789
 20
-29.01826217788503
 30
0.0
 11
-353.6920185547865
 21
-29.01826217788503
 31
0.0
  0
LINE
  5
36F
330
1F
100
AcDbEntity
  8
躯体
  6
Continuous
 62
     2
370
     9
100
AcDbLine
 10
-372.6603129366751
 20
-27.2682621778851
 30
0.0
 11
-372.6603129366751
 21
-3.418375293232643
 31
0.0
  0
CIRCLE
  5
370
330
1F
100
AcDbEntity
  8
躯体
  6
Continuous
 62
     2
370
     9
100
AcDbCircle
 10
-362.6602643913384
 20
-19.01826217788503
 30
0.0
 40
6.5
  0
LINE
  5
371
330
1F
100
AcDbEntity
  8
躯体
  6
JWW_CENTER1
 62
     2
370
     9
100
AcDbLine
 10
-370.4510927040687
 20
-19.01826217788503
 30
0.0
 11
-354.7279916293189
 21
-19.01826217788503
 31
0.0
  0
LINE
  5
372
330
1F
100
AcDbEntity
  8
躯体
  6
JWW_CENTER1
 62
     2
370
     9
100
AcDbLine
 10
-705.1579242822385
 20
134.0816637669109
 30
0.0
 11
-678.3808385530597
 21
134.0816637669109
 31
0.0
  0
ARC
  5
373
330
1F
100
AcDbEntity
  8
躯体
  6
Continuous
 62
     2
370
     9
100
AcDbCircle
 10
-699.0100950128885
 20
142.0816637669109
 30
0.0
 40
2.0
100
AcDbArc
 50
90.0
 51
151.04497562814
  0
ARC
  5
374
330
1F
100
AcDbEntity
  8
躯体
  6
Continuous
 62
     2
370
     9
100
AcDbCircle
 10
-699.0100950128885
 20
126.0816637669109
 30
0.0
 40
2.0
100
AcDbArc
 50
208.95502437186
 51
270.0
  0
LINE
  5
375
330
1F
100
AcDbEntity
  8
躯体
  6
Continuous
 62
     2
370
     9
100
AcDbLine
 10
-699.0100950128885
 20
124.0816152215744
 30
0.0
 11
-675.1602081282357
 21
124.0816152215744
 31
0.0
  0
LINE
  5
376
330
1F
100
AcDbEntity
  8
躯体
  6
Continuous
 62
     2
370
     9
100
AcDbLine
 10
-700.7600950128881
 20
143.0499096034628
 30
0.0
 11
-700.7600950128881
 21
125.113417930359
 31
0.0
  0
LINE
  5
377
330
1F
100
AcDbEntity
  8
躯体
  6
Continuous
 62
     2
370
     9
100
AcDbLine
 10
-699.0100950128885
 20
144.0817123122475
 30
0.0
 11
-675.1602081282357
 21
144.0817123122475
 31
0.0
  0
CIRCLE
  5
378
330
1F
100
AcDbEntity
  8
躯体
  6
Continuous
 62
     2
370
     9
100
AcDbCircle
 10
-690.7600950128887
 20
134.0816637669109
 30
0.0
 40
6.5
  0
LINE
  5
379
330
1F
100
AcDbEntity
  8
躯体
  6
JWW_CENTER1
 62
     2
370
     9
100
AcDbLine
 10
-690.7600950128887
 20
142.1099693977396
 30
0.0
 11
-690.7600950128887
 21
125.7716165418043
 31
0.0
  0
LINE
  5
37A
330
1F
100
AcDbEntity
  8
躯体
  6
JWW_CENTER1
 62
     2
370
     9
100
AcDbLine
 10
-705.1579242822385
 20
309.0816637669111
 30
0.0
 11
-678.3808385530597
 21
309.0816637669111
 31
0.0
  0
ARC
  5
37B
330
1F
100
AcDbEntity
  8
躯体
  6
Continuous
 62
     2
370
     9
100
AcDbCircle
 10
-699.0100950128885
 20
317.0816637669111
 30
0.0
 40
2.0
100
AcDbArc
 50
90.0
 51
151.04497562814
  0
ARC
  5
37C
330
1F
100
AcDbEntity
  8
躯体
  6
Continuous
 62
     2
370
     9
100
AcDbCircle
 10
-699.0100950128885
 20
301.0816637669112
 30
0.0
 40
2.0
100
AcDbArc
 50
208.95502437186
 51
270.0
  0
LINE
  5
37D
330
1F
100
AcDbEntity
  8
躯体
  6
Continuous
 62
     2
370
     9
100
AcDbLine
 10
-699.0100950128885
 20
299.0816152215746
 30
0.0
 11
-675.1602081282357
 21
299.0816152215746
 31
0.0
  0
LINE
  5
37E
330
1F
100
AcDbEntity
  8
躯体
  6
Continuous
 62
     2
370
     9
100
AcDbLine
 10
-700.7600950128881
 20
300.1134179303592
 30
0.0
 11
-700.7600950128881
 21
318.0499096034629
 31
0.0
  0
LINE
  5
37F
330
1F
100
AcDbEntity
  8
躯体
  6
Continuous
 62
     2
370
     9
100
AcDbLine
 10
-699.0100950128885
 20
319.0817123122477
 30
0.0
 11
-675.1602081282357
 21
319.0817123122477
 31
0.0
  0
CIRCLE
  5
380
330
1F
100
AcDbEntity
  8
躯体
  6
Continuous
 62
     2
370
     9
100
AcDbCircle
 10
-690.7600950128887
 20
309.0816637669111
 30
0.0
 40
6.5
  0
LINE
  5
381
330
1F
100
AcDbEntity
  8
躯体
  6
JWW_CENTER1
 62
     2
370
     9
100
AcDbLine
 10
-690.7600950128887
 20
317.8718791514123
 30
0.0
 11
-690.7600950128887
 21
300.9866358233119
 31
0.0
  0
TEXT
  5
382
330
1F
100
AcDbEntity
  8
D-4
  6
Continuous
 62
     2
370
     9
100
AcDbText
 10
0.1617881752469685
 20
481.2605495974315
 30
0.0
 40
15.24
  1
□450
 41
1.1
  7
ＭＳ ゴシック
100
AcDbText
  0
LINE
  5
383
330
1F
100
AcDbEntity
  8
躯体
  6
JWW_CENTER1
 62
     2
370
     9
100
AcDbLine
 10
-537.6601690680923
 20
476.5794189810567
 30
0.0
 11
-537.6601690680923
 21
449.8023332518778
 31
0.0
  0
ARC
  5
384
330
1F
100
AcDbEntity
  8
躯体
  6
Continuous
 62
     2
370
     9
100
AcDbCircle
 10
-529.6601690680927
 20
470.4315897117067
 30
0.0
 40
2.0
100
AcDbArc
 50
0.0
 51
61.04497562814005
  0
ARC
  5
385
330
1F
100
AcDbEntity
  8
躯体
  6
Continuous
 62
     2
370
     9
100
AcDbCircle
 10
-545.6601690680924
 20
470.4315897117067
 30
0.0
 40
2.0
100
AcDbArc
 50
118.95502437186
 51
180.0
  0
LINE
  5
386
330
1F
100
AcDbEntity
  8
躯体
  6
Continuous
 62
     2
370
     9
100
AcDbLine
 10
-547.6602176134293
 20
470.4315897117067
 30
0.0
 11
-547.6602176134293
 21
446.5817028270543
 31
0.0
  0
LINE
  5
387
330
1F
100
AcDbEntity
  8
躯体
  6
Continuous
 62
     2
370
     9
100
AcDbLine
 10
-528.6919232315406
 20
472.1815897117065
 30
0.0
 11
-546.6284149046442
 21
472.1815897117065
 31
0.0
  0
LINE
  5
388
330
1F
100
AcDbEntity
  8
躯体
  6
Continuous
 62
     2
370
     9
100
AcDbLine
 10
-527.6601205227558
 20
470.4315897117067
 30
0.0
 11
-527.6601205227558
 21
446.5817028270543
 31
0.0
  0
CIRCLE
  5
389
330
1F
100
AcDbEntity
  8
躯体
  6
Continuous
 62
     2
370
     9
100
AcDbCircle
 10
-537.6601690680923
 20
462.1815897117067
 30
0.0
 40
6.5
  0
LINE
  5
38A
330
1F
100
AcDbEntity
  8
躯体
  6
JWW_CENTER1
 62
     2
370
     9
100
AcDbLine
 10
-529.9010032276849
 20
462.1815897117067
 30
0.0
 11
-545.3217987932175
 21
462.1815897117067
 31
0.0
  0
LINE
  5
38B
330
1F
100
AcDbEntity
  8
躯体
  6
JWW_CENTER1
 62
     2
370
     9
100
AcDbLine
 10
-362.6602643913384
 20
476.5794189810567
 30
0.0
 11
-362.6602643913384
 21
449.8023332518778
 31
0.0
  0
ARC
  5
38C
330
1F
100
AcDbEntity
  8
躯体
  6
Continuous
 62
     2
370
     9
100
AcDbCircle
 10
-354.660264391338
 20
470.4315897117067
 30
0.0
 40
2.0
100
AcDbArc
 50
0.0
 51
61.04497562814005
  0
ARC
  5
38D
330
1F
100
AcDbEntity
  8
躯体
  6
Continuous
 62
     2
370
     9
100
AcDbCircle
 10
-370.6602643913382
 20
470.4315897117067
 30
0.0
 40
2.0
100
AcDbArc
 50
118.95502437186
 51
180.0
  0
LINE
  5
38E
330
1F
100
AcDbEntity
  8
躯体
  6
Continuous
 62
     2
370
     9
100
AcDbLine
 10
-372.6603129366748
 20
470.4315897117067
 30
0.0
 11
-372.6603129366748
 21
446.5817028270543
 31
0.0
  0
LINE
  5
38F
330
1F
100
AcDbEntity
  8
躯体
  6
Continuous
 62
     2
370
     9
100
AcDbLine
 10
-371.6285102278897
 20
472.1815897117065
 30
0.0
 11
-353.6920185547862
 21
472.1815897117065
 31
0.0
  0
LINE
  5
390
330
1F
100
AcDbEntity
  8
躯体
  6
Continuous
 62
     2
370
     9
100
AcDbLine
 10
-352.6602158460017
 20
470.4315897117067
 30
0.0
 11
-352.6602158460017
 21
446.5817028270543
 31
0.0
  0
CIRCLE
  5
391
330
1F
100
AcDbEntity
  8
躯体
  6
Continuous
 62
     2
370
     9
100
AcDbCircle
 10
-362.6602643913384
 20
462.1815897117067
 30
0.0
 40
6.5
  0
LINE
  5
392
330
1F
100
AcDbEntity
  8
躯体
  6
JWW_CENTER1
 62
     2
370
     9
100
AcDbLine
 10
-355.1368388788583
 20
462.1815897117067
 30
0.0
 11
-370.6785053442613
 21
462.1815897117067
 31
0.0
  0
LINE
  5
393
330
1F
100
AcDbEntity
  8
通り芯
  6
JWW_CENTER1
 62
     7
370
     9
100
AcDbLine
 10
-450.1601690680926
 20
-11.85151562242304
 30
0.0
 11
-450.1601690680926
 21
457.9311439071701
 31
0.0
  0
LINE
  5
394
330
1F
100
AcDbEntity
  8
通り芯
  6
JWW_CENTER1
 62
     7
370
     9
100
AcDbLine
 10
-687.3156368191428
 20
221.5816637669111
 30
0.0
 11
-213.5662023773627
 21
221.5816637669111
 31
0.0
  0
LINE
  5
395
330
1F
100
AcDbEntity
  8
仕上
  6
JWW_DASHED2
 62
     3
370
     9
100
AcDbLine
 10
-401.1601690680926
 20
11.5817132548754
 30
0.0
 11
-351.1600535961751
 21
11.5817132548754
 31
0.0
  0
LINE
  5
396
330
1F
100
AcDbEntity
  8
躯体
  6
JWW_DASHED2
 62
     2
370
     9
100
AcDbLine
 10
-401.1601690680926
 20
16.58168026289914
 30
0.0
 11
-499.1601690680926
 21
16.58168026289914
 31
0.0
  0
LINE
  5
397
330
1F
100
AcDbEntity
  8
仕上
  6
JWW_DASHED2
 62
     3
370
     9
100
AcDbLine
 10
-549.1602845400097
 20
11.5817132548754
 30
0.0
 11
-499.1601690680926
 21
11.5817132548754
 31
0.0
  0
LINE
  5
398
330
1F
100
AcDbEntity
  8
躯体
  6
JWW_DASHED2
 62
     2
370
     9
100
AcDbLine
 10
-549.1602845400097
 20
16.58168026289914
 30
0.0
 11
-655.1601525721043
 21
16.58168026289914
 31
0.0
  0
LINE
  5
399
330
1F
100
AcDbEntity
  8
躯体
  6
JWW_DASHED2
 62
     2
370
     9
100
AcDbLine
 10
-300.883067043049
 20
16.58168026289914
 30
0.0
 11
-351.1600535961751
 21
16.58168026289914
 31
0.0
  0
LINE
  5
39A
330
1F
100
AcDbEntity
  8
仕上
  6
JWW_DASHED2
 62
     3
370
     9
100
AcDbLine
 10
-401.1601690680926
 20
431.5815153030173
 30
0.0
 11
-351.1600535961751
 21
431.5815153030173
 31
0.0
  0
LINE
  5
39B
330
1F
100
AcDbEntity
  8
躯体
  6
JWW_DASHED2
 62
     2
370
     9
100
AcDbLine
 10
-499.1601690680926
 20
426.5816472709229
 30
0.0
 11
-401.1601690680926
 21
426.5816472709229
 31
0.0
  0
LINE
  5
39C
330
1F
100
AcDbEntity
  8
仕上
  6
JWW_DASHED2
 62
     3
370
     9
100
AcDbLine
 10
-549.1602845400097
 20
431.5815153030173
 30
0.0
 11
-499.1601690680926
 21
431.5815153030173
 31
0.0
  0
LINE
  5
39D
330
1F
100
AcDbEntity
  8
躯体
  6
JWW_DASHED2
 62
     2
370
     9
100
AcDbLine
 10
-655.1601525721043
 20
426.5816472709229
 30
0.0
 11
-549.1602845400097
 21
426.5816472709229
 31
0.0
  0
LINE
  5
39E
330
1F
100
AcDbEntity
  8
躯体
  6
JWW_DASHED2
 62
     2
370
     9
100
AcDbLine
 10
-351.1600535961751
 20
426.5816472709229
 30
0.0
 11
-245.1601855640806
 21
426.5816472709229
 31
0.0
  0
LINE
  5
39F
330
1F
100
AcDbEntity
  8
仕上
  6
JWW_DASHED2
 62
     3
370
     9
100
AcDbLine
 10
-351.1600535961751
 20
11.5817132548754
 30
0.0
 11
-351.1600535961751
 21
431.5815153030173
 31
0.0
  0
LINE
  5
3A0
330
1F
100
AcDbEntity
  8
仕上
  6
JWW_DASHED2
 62
     3
370
     9
100
AcDbLine
 10
-359.9600529363358
 20
431.5815153030173
 30
0.0
 11
-359.9600529363358
 21
11.5817132548754
 31
0.0
  0
LINE
  5
3A1
330
1F
100
AcDbEntity
  8
仕上
  6
JWW_DASHED2
 62
     3
370
     9
100
AcDbLine
 10
-392.3602192158964
 20
11.5817132548754
 30
0.0
 11
-392.3602192158964
 21
431.5815153030173
 31
0.0
  0
LINE
  5
3A2
330
1F
100
AcDbEntity
  8
仕上
  6
JWW_DASHED2
 62
     3
370
     9
100
AcDbLine
 10
-401.1601690680926
 20
11.5817132548754
 30
0.0
 11
-401.1601690680926
 21
431.5815153030173
 31
0.0
  0
LINE
  5
3A3
330
1F
100
AcDbEntity
  8
仕上
  6
JWW_DASHED2
 62
     3
370
     9
100
AcDbLine
 10
-499.1601690680926
 20
11.5817132548754
 30
0.0
 11
-499.1601690680926
 21
431.5815153030173
 31
0.0
  0
LINE
  5
3A4
330
1F
100
AcDbEntity
  8
仕上
  6
JWW_DASHED2
 62
     3
370
     9
100
AcDbLine
 10
-507.960168408253
 20
431.5815153030173
 30
0.0
 11
-507.960168408253
 21
11.5817132548754
 31
0.0
  0
LINE
  5
3A5
330
1F
100
AcDbEntity
  8
仕上
  6
JWW_DASHED2
 62
     3
370
     9
100
AcDbLine
 10
-540.3603346878136
 20
11.5817132548754
 30
0.0
 11
-540.3603346878136
 21
431.5815153030173
 31
0.0
  0
LINE
  5
3A6
330
1F
100
AcDbEntity
  8
仕上
  6
JWW_DASHED2
 62
     3
370
     9
100
AcDbLine
 10
-549.1602845400097
 20
11.5817132548754
 30
0.0
 11
-549.1602845400097
 21
431.5815153030173
 31
0.0
  0
LINE
  5
3A7
330
1F
100
AcDbEntity
  8
D-2
  6
Continuous
 62
     3
370
     9
100
AcDbLine
 10
260.0596596296685
 20
306.3127865747608
 30
0.0
 11
335.0598891583246
 21
306.3127865747608
 31
0.0
  0
LINE
  5
3A8
330
1F
100
AcDbEntity
  8
D-2
  6
Continuous
 62
     3
370
     9
100
AcDbLine
 10
360.0598792901889
 20
317.0628198158857
 30
0.0
 11
360.0598792901889
 21
320.0627057726389
 31
0.0
  0
LINE
  5
3A9
330
1F
100
AcDbEntity
  8
D-2
  6
Continuous
 62
     3
370
     9
100
AcDbLine
 10
235.0596661679134
 20
317.0628198158857
 30
0.0
 11
235.0596661679134
 21
320.0627057726389
 31
0.0
  0
LINE
  5
3AA
330
1F
100
AcDbEntity
  8
D-2
  6
Continuous
 62
     3
370
     9
100
AcDbLine
 10
340.560062837514
 20
317.0628198158857
 30
0.0
 11
360.0598792901889
 21
317.0628198158857
 31
0.0
  0
LINE
  5
3AB
330
1F
100
AcDbEntity
  8
D-2
  6
Continuous
 62
     3
370
     9
100
AcDbLine
 10
254.5594826205871
 20
317.0628198158857
 30
0.0
 11
235.0596661679134
 21
317.0628198158857
 31
0.0
  0
ARC
  5
3AC
330
1F
100
AcDbEntity
  8
D-2
  6
Continuous
 62
     3
370
     9
100
AcDbCircle
 10
340.560062837514
 20
314.5627289406651
 30
0.0
 40
2.499999628333971
100
AcDbArc
 50
90.0
 51
180.0
  0
ARC
  5
3AD
330
1F
100
AcDbEntity
  8
D-2
  6
Continuous
 62
     3
370
     9
100
AcDbCircle
 10
254.5594826205871
 20
314.5627289406651
 30
0.0
 40
2.499999628333971
100
AcDbArc
 50
0.0
 51
90.0
  0
ARC
  5
3AE
330
1F
100
AcDbEntity
  8
D-2
  6
Continuous
 62
     3
370
     9
100
AcDbCircle
 10
340.5598003745598
 20
314.5627289406651
 30
0.0
 40
5.499999900006878
100
AcDbArc
 50
90.0
 51
180.0
  0
ARC
  5
3AF
330
1F
100
AcDbEntity
  8
D-2
  6
Continuous
 62
     3
370
     9
100
AcDbCircle
 10
254.5596138520648
 20
314.5627289406651
 30
0.0
 40
5.499999900006878
100
AcDbArc
 50
0.0
 51
90.0
  0
LINE
  5
3B0
330
1F
100
AcDbEntity
  8
D-2
  6
Continuous
 62
     3
370
     9
100
AcDbLine
 10
262.5598784064749
 20
300.5625359817891
 30
0.0
 11
332.5597982831039
 21
300.5625359817891
 31
0.0
  0
LINE
  5
3B1
330
1F
100
AcDbEntity
  8
D-2
  6
Continuous
 62
     3
370
     9
100
AcDbLine
 10
335.0598891583246
 20
314.5627289406651
 30
0.0
 11
335.0598891583246
 21
303.0625612412711
 31
0.0
  0
LINE
  5
3B2
330
1F
100
AcDbEntity
  8
D-2
  6
Continuous
 62
     3
370
     9
100
AcDbLine
 10
260.0596562997771
 20
314.5627289406651
 30
0.0
 11
260.0596562997771
 21
303.0625612412711
 31
0.0
  0
LINE
  5
3B3
330
1F
100
AcDbEntity
  8
D-2
  6
Continuous
 62
     3
370
     9
100
AcDbLine
 10
338.0599719622938
 20
303.0625612412711
 30
0.0
 11
338.0599719622938
 21
314.5627289406651
 31
0.0
  0
LINE
  5
3B4
330
1F
100
AcDbEntity
  8
D-2
  6
Continuous
 62
     3
370
     9
100
AcDbLine
 10
257.0595734958079
 20
314.5627289406651
 30
0.0
 11
257.0595734958079
 21
303.0625612412711
 31
0.0
  0
LINE
  5
3B5
330
1F
100
AcDbEntity
  8
D-2
  6
Continuous
 62
     3
370
     9
100
AcDbLine
 10
332.5599295145815
 20
297.5625844092972
 30
0.0
 11
262.5593534805654
 21
297.5625844092972
 31
0.0
  0
ARC
  5
3B6
330
1F
100
AcDbEntity
  8
D-2
  6
Continuous
 62
     3
370
     9
100
AcDbCircle
 10
332.5597982831039
 20
303.0625612412711
 30
0.0
 40
2.499999628333971
100
AcDbArc
 50
270.0
 51
0.0
  0
ARC
  5
3B7
330
1F
100
AcDbEntity
  8
D-2
  6
Continuous
 62
     3
370
     9
100
AcDbCircle
 10
262.5598784064749
 20
303.0625612412711
 30
0.0
 40
2.499999628333971
100
AcDbArc
 50
180.0
 51
270.0
  0
ARC
  5
3B8
330
1F
100
AcDbEntity
  8
D-2
  6
Continuous
 62
     3
370
     9
100
AcDbCircle
 10
332.5599295145815
 20
303.0625612412711
 30
0.0
 40
5.499999900006878
100
AcDbArc
 50
270.0
 51
0.0
  0
ARC
  5
3B9
330
1F
100
AcDbEntity
  8
D-2
  6
Continuous
 62
     3
370
     9
100
AcDbCircle
 10
262.5593534805654
 20
303.0625612412711
 30
0.0
 40
5.499999900006878
100
AcDbArc
 50
180.0
 51
270.0
  0
LINE
  5
3BA
330
1F
100
AcDbEntity
  8
D-5
  6
Continuous
 62
     7
370
     9
100
AcDbLine
 10
196.1347961260133
 20
256.7764122715396
 30
0.0
 11
301.9365382673248
 21
256.7764122715396
 31
0.0
  0
TEXT
  5
3BB
330
1F
100
AcDbEntity
  8
D-5
  6
Continuous
 62
     7
370
     9
100
AcDbText
 10
224.0356671966691
 20
262.2693370102433
 30
0.0
 40
11.43
  1
補強材
 41
1.111111111111111
  7
ＭＳ ゴシック
100
AcDbText
  0
LINE
  5
3BC
330
1F
100
AcDbEntity
  8
D-5
  6
Continuous
 62
     7
370
     9
100
AcDbLine
 10
325.4844916648281
 20
297.5625613412643
 30
0.0
 11
301.9365382673248
 21
256.7764122715396
 31
0.0
  0
LINE
  5
3BD
330
1F
100
AcDbEntity
  8
D-5
  6
Continuous
 62
     7
370
     9
100
AcDbLine
 10
325.4844916648281
 20
297.5625613412643
 30
0.0
 11
320.7009850136458
 21
286.0140499392372
 31
0.0
  0
LINE
  5
3BE
330
1F
100
AcDbEntity
  8
D-5
  6
Continuous
 62
     7
370
     9
100
AcDbLine
 10
325.4844916648281
 20
297.5625613412643
 30
0.0
 11
317.8749747993302
 21
287.6456681296933
 31
0.0
  0
LINE
  5
3BF
330
1F
100
AcDbEntity
  8
D-2
  6
Continuous
 62
     3
370
     9
100
AcDbLine
 10
2.59390718390371
 20
306.3127865747608
 30
0.0
 11
257.0595734958079
 21
306.3127865747608
 31
0.0
  0
LINE
  5
3C0
330
1F
100
AcDbEntity
  8
D-2
  6
Continuous
 62
     3
370
     9
100
AcDbLine
 10
338.0599719622938
 20
306.3127865747608
 30
0.0
 11
442.1582593109995
 21
306.3127865747608
 31
0.0
  0
LINE
  5
3C1
330
1F
100
AcDbEntity
  8
1-4ﾚｲﾔ
  6
Continuous
 62
     7
370
     9
100
AcDbLine
 10
-80.12372043798175
 20
-354.4374009508716
 30
0.0
 11
169.8762383220478
 21
-354.4374009508716
 31
0.0
  0
LINE
  5
3C2
330
1F
100
AcDbEntity
  8
1-4ﾚｲﾔ
  6
Continuous
 62
     7
370
     9
100
AcDbLine
 10
-80.12372043798175
 20
-423.3092216871999
 30
0.0
 11
-80.12372043798175
 21
-352.9374207460574
 31
0.0
  0
LINE
  5
3C3
330
1F
100
AcDbEntity
  8
1-4ﾚｲﾔ
  6
Continuous
 62
     7
370
     9
100
AcDbLine
 10
169.8762383220478
 20
-423.3092216871999
 30
0.0
 11
169.8762383220478
 21
-352.9374207460574
 31
0.0
  0
TEXT
  5
3C4
330
1F
100
AcDbEntity
  8
1-4ﾚｲﾔ
  6
Continuous
 62
     2
370
     9
100
AcDbText
 10
34.25125894203303
 20
-349.1175164227888
 30
0.0
 40
15.24
  1
50
 41
1.0625
  7
ＭＳ ゴシック
100
AcDbText
  0
LWPOLYLINE
  5
3C5
330
1F
100
AcDbEntity
  8
1-4ﾚｲﾔ
  6
Continuous
 62
     7
370
     9
100
AcDbPolyline
 90
        4
 70
     1
 43
1.0
 10
-79.62372043798175
 20
-354.4374009508716
 42
0.4142135623731
 10
-80.12372043798175
 20
-353.9374009508716
 42
0.4142135623731
 10
-80.62372043798176
 20
-354.4374009508716
 42
0.4142135623731
 10
-80.12372043798175
 20
-354.9374009508716
 42
0.4142135623731
  0
LWPOLYLINE
  5
3C6
330
1F
100
AcDbEntity
  8
1-4ﾚｲﾔ
  6
Continuous
 62
     7
370
     9
100
AcDbPolyline
 90
        4
 70
     1
 43
1.0
 10
170.3762383220478
 20
-354.4374009508716
 42
0.4142135623731
 10
169.8762383220478
 20
-353.9374009508716
 42
0.4142135623731
 10
169.3762383220478
 20
-354.4374009508716
 42
0.4142135623731
 10
169.8762383220478
 20
-354.9374009508716
 42
0.4142135623731
  0
LINE
  5
3C7
330
1F
100
AcDbEntity
  8
D-5
  6
Continuous
 62
     7
370
     9
100
AcDbLine
 10
562.5597971048195
 20
298.1360663488283
 30
0.0
 11
553.0470591627728
 21
306.2451857119863
 31
0.0
  0
LINE
  5
3C8
330
1F
100
AcDbEntity
  8
D-5
  6
Continuous
 62
     7
370
     9
100
AcDbLine
 10
562.5597971048195
 20
298.1360663488283
 30
0.0
 11
555.4699923780721
 21
308.4309519206344
 31
0.0
  0
TEXT
  5
3C9
330
1F
100
AcDbEntity
  8
D-5
  6
Continuous
 62
     7
370
     9
100
AcDbText
 10
386.0208483424018
 20
375.2280183655573
 30
0.0
 40
11.43
  1
ロックボディ
 41
1.138888888888889
  7
ＭＳ ゴシック
100
AcDbText
  0
TEXT
  5
3CA
330
1F
100
AcDbEntity
  8
D-5
  6
Continuous
 62
     7
370
     9
100
AcDbText
 10
390.5685448426127
 20
350.6704820083993
 30
0.0
 40
11.43
  1
ＳＵＳ３０４
 41
1.138888888888889
  7
ＭＳ ゴシック
100
AcDbText
  0
LINE
  5
3CB
330
1F
100
AcDbEntity
  8
D-5
  6
Continuous
 62
     7
370
     9
100
AcDbLine
 10
499.5140882864476
 20
368.0225626143961
 30
0.0
 11
376.925471837968
 21
368.0225626143961
 31
0.0
  0
LINE
  5
3CC
330
1F
100
AcDbEntity
  8
D-5
  6
Continuous
 62
     7
370
     9
100
AcDbLine
 10
499.5140882864476
 20
368.0225626143961
 30
0.0
 11
562.5597971048194
 21
298.1360663488283
 31
0.0
  0
LINE
  5
3CD
330
1F
100
AcDbEntity
  8
D-4
  6
Continuous
 62
     7
370
     9
100
AcDbLine
 10
2.593765789719171
 20
111.1270815468307
 30
0.0
 11
625.0600644858765
 21
111.1270815468307
 31
0.0
  0
TEXT
  5
3CE
330
1F
100
AcDbEntity
  8
D-4
  6
Continuous
 62
     2
370
     9
100
AcDbText
 10
2.593765789719171
 20
116.4470897948247
 30
0.0
 40
15.24
  1
□410
 41
1.1
  7
ＭＳ ゴシック
100
AcDbText
  0
LINE
  5
3CF
330
1F
100
AcDbEntity
  8
1-4ﾚｲﾔ
  6
Continuous
 62
     7
370
     9
100
AcDbLine
 10
229.8427844580275
 20
-470.8983082713427
 30
0.0
 11
229.8427844580275
 21
-425.8983082713427
 31
0.0
  0
TEXT
  5
3D0
330
1F
100
AcDbEntity
  8
1-4ﾚｲﾔ
  6
Continuous
 62
     2
370
   211
100
AcDbText
 10
224.5227762100335
 20
-453.3983082713427
 30
0.0
 40
15.24
  1
9
 50
90.0
 41
0.9999999999999998
  7
ＭＳ ゴシック
100
AcDbText
  0
LINE
  5
3D1
330
1F
100
AcDbEntity
  8
D-4
  6
Continuous
 62
     7
370
     9
100
AcDbLine
 10
-695.7733377451814
 20
-295.039656535472
 30
0.0
 11
-695.7733377451814
 21
-352.5397877669495
 31
0.0
  0
TEXT
  5
3D2
330
1F
100
AcDbEntity
  8
D-4
  6
Continuous
 62
     2
370
   211
100
AcDbText
 10
-701.0933377451814
 20
-334.4147221512108
 30
0.0
 40
15.24
  1
23
 50
90.0
 41
1.0625
  7
ＭＳ ゴシック
100
AcDbText
  0
LINE
  5
3D3
330
1F
100
AcDbEntity
  8
D-4
  6
Continuous
 62
     7
370
     9
100
AcDbLine
 10
-658.2733377451814
 20
-295.039656535472
 30
0.0
 11
-658.2733377451814
 21
-332.5396968021205
 31
0.0
  0
TEXT
  5
3D4
330
1F
100
AcDbEntity
  8
D-4
  6
Continuous
 62
     2
370
   211
100
AcDbText
 10
-663.5933377451814
 20
-324.4146766687962
 30
0.0
 40
15.24
  1
15
 50
90.0
 41
1.0625
  7
ＭＳ ゴシック
100
AcDbText
  0
LINE
  5
3D5
330
1F
100
AcDbEntity
  8
その他
  6
Continuous
 62
     7
370
     9
100
AcDbLine
 10
-675.1601690680923
 20
583.0150766732726
 30
0.0
 11
-225.1601690680923
 21
583.0150766732726
 31
0.0
  0
TEXT
  5
3D6
330
1F
100
AcDbEntity
  8
その他
  6
Continuous
 62
     2
370
   211
100
AcDbText
 10
-466.4101690680923
 20
588.3350766732726
 30
0.0
 40
15.24
  1
450
 41
1.083333333333333
  7
ＭＳ ゴシック
100
AcDbText
  0
LINE
  5
3D7
330
1F
100
AcDbEntity
  8
その他
  6
Continuous
 62
     7
370
     9
100
AcDbLine
 10
-667.1601459737087
 20
540.2523486366595
 30
0.0
 11
-233.1601921624761
 21
540.2523486366595
 31
0.0
  0
TEXT
  5
3D8
330
1F
100
AcDbEntity
  8
その他
  6
Continuous
 62
     2
370
   211
100
AcDbText
 10
-466.4101690680924
 20
545.5723486366595
 30
0.0
 40
15.24
  1
434
 41
1.083333333333333
  7
ＭＳ ゴシック
100
AcDbText
  0
LINE
  5
3D9
330
1F
100
AcDbEntity
  8
その他
  6
Continuous
 62
     7
370
     9
100
AcDbLine
 10
-655.1601525721039
 20
504.1574991304208
 30
0.0
 11
-245.1601855640803
 21
504.1574991304208
 31
0.0
  0
TEXT
  5
3DA
330
1F
100
AcDbEntity
  8
その他
  6
Continuous
 62
     2
370
   211
100
AcDbText
 10
-466.4101690680922
 20
509.4774991304208
 30
0.0
 40
15.24
  1
410
 41
1.083333333333333
  7
ＭＳ ゴシック
100
AcDbText
  0
LINE
  5
3DB
330
1F
100
AcDbEntity
  8
その他
  6
Continuous
 62
     7
370
     9
100
AcDbLine
 10
-838.1002269513444
 20
-3.418336233089114
 30
0.0
 11
-838.1002269513444
 21
446.5816637669111
 31
0.0
  0
TEXT
  5
3DC
330
1F
100
AcDbEntity
  8
その他
  6
Continuous
 62
     2
370
   211
100
AcDbText
 10
-843.4202269513445
 20
205.331663766911
 30
0.0
 40
15.24
  1
450
 50
90.0
 41
1.083333333333333
  7
ＭＳ ゴシック
100
AcDbText
  0
LINE
  5
3DD
330
1F
100
AcDbEntity
  8
その他
  6
Continuous
 62
     7
370
     9
100
AcDbLine
 10
-795.9343782926805
 20
438.581640672527
 30
0.0
 11
-795.9343782926805
 21
4.581686861294436
 31
0.0
  0
TEXT
  5
3DE
330
1F
100
AcDbEntity
  8
その他
  6
Continuous
 62
     2
370
   211
100
AcDbText
 10
-801.2543782926806
 20
205.3316637669107
 30
0.0
 40
15.24
  1
434
 50
90.0
 41
1.083333333333333
  7
ＭＳ ゴシック
100
AcDbText
  0
LINE
  5
3DF
330
1F
100
AcDbEntity
  8
その他
  6
Continuous
 62
     7
370
     9
100
AcDbLine
 10
-750.7636916696847
 20
16.58168026289903
 30
0.0
 11
-750.7636916696847
 21
426.5816472709227
 31
0.0
  0
TEXT
  5
3E0
330
1F
100
AcDbEntity
  8
その他
  6
Continuous
 62
     2
370
   211
100
AcDbText
 10
-756.0836916696848
 20
205.3316637669109
 30
0.0
 40
15.24
  1
410
 50
90.0
 41
1.083333333333333
  7
ＭＳ ゴシック
100
AcDbText
  0
LINE
  5
3E1
330
1F
100
AcDbEntity
  8
その他
  6
Continuous
 62
     7
370
     9
100
AcDbLine
 10
-144.2737234920577
 20
309.0816637669111
 30
0.0
 11
-144.2737234920577
 21
446.5816637669111
 31
0.0
  0
TEXT
  5
3E2
330
1F
100
AcDbEntity
  8
その他
  6
Continuous
 62
     2
370
   211
100
AcDbText
 10
-149.5937234920577
 20
350.3316637669111
 30
0.0
 40
15.24
  1
137.5
 50
90.0
 41
1.1
  7
ＭＳ ゴシック
100
AcDbText
  0
LINE
  5
3E3
330
1F
100
AcDbEntity
  8
その他
  6
Continuous
 62
     7
370
     9
100
AcDbLine
 10
-144.2737234920577
 20
-3.418336233089114
 30
0.0
 11
-144.2737234920577
 21
134.0816637669109
 31
0.0
  0
TEXT
  5
3E4
330
1F
100
AcDbEntity
  8
その他
  6
Continuous
 62
     2
370
   211
100
AcDbText
 10
-149.5937234920577
 20
37.83166376691089
 30
0.0
 40
15.24
  1
137.5
 50
90.0
 41
1.1
  7
ＭＳ ゴシック
100
AcDbText
  0
LINE
  5
3E5
330
1F
100
AcDbEntity
  8
その他
  6
Continuous
 62
     7
370
     9
100
AcDbLine
 10
-144.2737234920577
 20
134.0816637669109
 30
0.0
 11
-144.2737234920577
 21
309.0816637669111
 31
0.0
  0
TEXT
  5
3E6
330
1F
100
AcDbEntity
  8
その他
  6
Continuous
 62
     2
370
   211
100
AcDbText
 10
-149.5937234920577
 20
205.331663766911
 30
0.0
 40
15.24
  1
175
 50
90.0
 41
1.083333333333333
  7
ＭＳ ゴシック
100
AcDbText
  0
LINE
  5
3E7
330
1F
100
AcDbEntity
  8
その他
  6
Continuous
 62
     7
370
     9
100
AcDbLine
 10
-675.1601690680923
 20
-78.48591143367204
 30
0.0
 11
-537.6601690680923
 21
-78.48591143367204
 31
0.0
  0
TEXT
  5
3E8
330
1F
100
AcDbEntity
  8
その他
  6
Continuous
 62
     2
370
   211
100
AcDbText
 10
-633.9101690680923
 20
-73.16591143367205
 30
0.0
 40
15.24
  1
137.5
 41
1.1
  7
ＭＳ ゴシック
100
AcDbText
  0
LINE
  5
3E9
330
1F
100
AcDbEntity
  8
その他
  6
Continuous
 62
     7
370
     9
100
AcDbLine
 10
-362.6601690680923
 20
-78.48591143367204
 30
0.0
 11
-225.1601690680923
 21
-78.48591143367204
 31
0.0
  0
TEXT
  5
3EA
330
1F
100
AcDbEntity
  8
その他
  6
Continuous
 62
     2
370
   211
100
AcDbText
 10
-321.4101690680923
 20
-73.16591143367205
 30
0.0
 40
15.24
  1
137.5
 41
1.1
  7
ＭＳ ゴシック
100
AcDbText
  0
LINE
  5
3EB
330
1F
100
AcDbEntity
  8
その他
  6
Continuous
 62
     7
370
     9
100
AcDbLine
 10
-537.6601690680923
 20
-78.48591143367204
 30
0.0
 11
-362.6601690680923
 21
-78.48591143367204
 31
0.0
  0
TEXT
  5
3EC
330
1F
100
AcDbEntity
  8
その他
  6
Continuous
 62
     2
370
   211
100
AcDbText
 10
-466.4101690680923
 20
-73.16591143367205
 30
0.0
 40
15.24
  1
175
 41
1.083333333333333
  7
ＭＳ ゴシック
100
AcDbText
  0
TEXT
  5
3ED
330
1F
100
AcDbEntity
  8
F-4ﾚｲﾔ
  6
Continuous
 62
     7
370
     9
100
AcDbText
 10
-430.3717853262398
 20
-662.3327060678843
 30
0.0
 40
11.43
  1
フロアーハッチ　樹脂タイル張物用（適用床材：3.5mm以下）屋内用　密閉形（防水・防臭形）
  7
ＭＳ ゴシック
100
AcDbText
  0
TEXT
  5
3EE
330
1F
100
AcDbEntity
  8
F-4ﾚｲﾔ
  6
Continuous
 62
     7
370
     9
100
AcDbText
 10
-430.3717853262398
 20
-684.0980077465158
 30
0.0
 40
11.43
  1
ステンレス製　ボルト固定式（施錠タイプ）　ＭＳＸＬ－Ｐ－４５０
  7
ＭＳ ゴシック
100
AcDbText
  0
TEXT
  5
3EF
330
1F
100
AcDbEntity
  8
D-5
  6
Continuous
 62
     7
370
     9
100
AcDbText
 10
437.1480840872805
 20
403.3262999283197
 30
0.0
 40
11.43
  1
ＳＣＳ１３
 41
1.133333333333333
  7
ＭＳ ゴシック
100
AcDbText
  0
TEXT
  5
3F0
330
1F
100
AcDbEntity
  8
D-5
  6
Continuous
 62
     2
370
     9
100
AcDbText
 10
-740.1353413298397
 20
-500.1038301484617
 30
0.0
 40
15.24
  1
※アンカーは施工時に現場にて折り曲げてください
 41
1.119565217391304
  7
ＭＳ ゴシック
100
AcDbText
  0
TEXT
  5
3F1
330
1F
100
AcDbEntity
  8
D-5
  6
Continuous
 62
     7
370
     9
100
AcDbText
 10
39.81369656371164
 20
239.6025501977959
 30
0.0
 40
11.43
  1
ＳＵＳ３０４
 41
1.138888888888889
  7
ＭＳ ゴシック
100
AcDbText
  0
TEXT
  5
3F2
330
1F
100
AcDbEntity
  8
D-5
  6
Continuous
 62
     7
370
     9
100
AcDbText
 10
197.7856671966691
 20
241.4095413625446
 30
0.0
 40
11.43
  1
ＳＵＳ３０４
 41
1.138888888888889
  7
ＭＳ ゴシック
100
AcDbText
  0
TEXT
  5
3F3
330
1F
100
AcDbEntity
  8
D-5
  6
Continuous
 62
     7
370
     9
100
AcDbText
 10
453.0548239003773
 20
186.817297642966
 30
0.0
 40
11.43
  1
クロロプレンゴム
 41
1.145833333333333
  7
ＭＳ ゴシック
100
AcDbText
  0
LINE
  5
3F4
330
1F
100
AcDbEntity
  8
D-5
  6
Continuous
 62
     7
370
     9
100
AcDbLine
 10
591.5669469393096
 20
203.3411538342341
 30
0.0
 11
454.2888314460108
 21
203.3411538342341
 31
0.0
  0
TEXT
  5
3F5
330
1F
100
AcDbEntity
  8
D-5
  6
Continuous
 62
     7
370
     9
100
AcDbText
 10
489.1778891926601
 20
209.9354634738515
 30
0.0
 40
11.43
  1
パッキン
 41
1.125
  7
ＭＳ ゴシック
100
AcDbText
  0
TEXT
  5
3F6
330
1F
100
AcDbEntity
  8
D-5
  6
Continuous
 62
     7
370
     9
100
AcDbText
 10
721.8704449082991
 20
405.3941887118633
 30
0.0
 40
11.43
  1
受枠（ＳＵＳ３０４）
 41
1.15
  7
ＭＳ ゴシック
100
AcDbText
  0
ENDSEC
  0
SECTION
  2
OBJECTS
  0
DICTIONARY
  5
C
330
0
100
AcDbDictionary
281
     1
  3
ACAD_DETAILVIEWSTYLE
350
43C
  3
ACAD_GROUP
350
D
  3
ACAD_LAYOUT
350
1A
  3
ACAD_MATERIAL
350
43
  3
ACAD_MLEADERSTYLE
350
6B
  3
ACAD_MLINESTYLE
350
17
  3
ACAD_PLOTSETTINGS
350
19
  3
ACAD_PLOTSTYLENAME
350
E
  3
ACAD_SCALELIST
350
47
  3
ACAD_SECTIONVIEWSTYLE
350
43D
  3
ACAD_TABLESTYLE
350
69
  3
ACAD_VISUALSTYLE
350
2A
  3
ACDB_RECOMPOSE_DATA
350
439
  3
AcDbVariableDictionary
350
3F9
  0
DICTIONARY
  5
3F7
330
8
100
AcDbDictionary
280
     1
281
     1
  3
ACAD_XREC_ROUNDTRIP
360
3F8
  0
DICTIONARY
  5
43C
102
{ACAD_REACTORS
330
C
102
}
330
C
100
AcDbDictionary
281
     1
  0
DICTIONARY
  5
D
102
{ACAD_REACTORS
330
C
102
}
330
C
100
AcDbDictionary
281
     1
  0
DICTIONARY
  5
1A
102
{ACAD_REACTORS
330
C
102
}
330
C
100
AcDbDictionary
281
     1
  3
Layout1
350
1E
  3
Layout2
350
26
  3
Model
350
22
  0
DICTIONARY
  5
43
102
{ACAD_REACTORS
330
C
102
}
330
C
100
AcDbDictionary
281
     1
  3
ByBlock
350
45
  3
ByLayer
350
44
  3
Global
350
46
  0
DICTIONARY
  5
6B
102
{ACAD_REACTORS
330
C
102
}
330
C
100
AcDbDictionary
281
     1
  3
Standard
350
6C
  0
DICTIONARY
  5
17
102
{ACAD_REACTORS
330
C
102
}
330
C
100
AcDbDictionary
281
     1
  3
Standard
350
18
  0
DICTIONARY
  5
19
102
{ACAD_REACTORS
330
C
102
}
330
C
100
AcDbDictionary
281
     1
  0
ACDBDICTIONARYWDFLT
  5
E
102
{ACAD_REACTORS
330
C
102
}
330
C
100
AcDbDictionary
281
     1
  3
Normal
350
F
100
AcDbDictionaryWithDefault
340
F
  0
DICTIONARY
  5
47
102
{ACAD_REACTORS
330
C
102
}
330
C
100
AcDbDictionary
281
     1
  3
A0
350
48
  3
A1
350
49
  3
A2
350
4A
  3
A3
350
4B
  3
A4
350
4C
  3
A5
350
4D
  3
A6
350
4E
  3
A7
350
4F
  3
A8
350
50
  3
A9
350
51
  3
B0
350
52
  3
B1
350
53
  3
B2
350
54
  3
B3
350
55
  3
B4
350
56
  3
B5
350
57
  3
B6
350
58
  3
B7
350
59
  3
B8
350
5A
  3
B9
350
5B
  3
C0
350
5C
  3
C1
350
5D
  3
C2
350
5E
  3
C3
350
5F
  3
C4
350
60
  3
C5
350
61
  3
C6
350
62
  3
C7
350
63
  3
C8
350
64
  3
C9
350
65
  3
D0
350
66
  3
D1
350
67
  3
D2
350
68
  0
DICTIONARY
  5
43D
102
{ACAD_REACTORS
330
C
102
}
330
C
100
AcDbDictionary
281
     1
  0
DICTIONARY
  5
69
102
{ACAD_REACTORS
330
C
102
}
330
C
100
AcDbDictionary
281
     1
  3
Standard
350
6A
  0
DICTIONARY
  5
2A
102
{ACAD_REACTORS
330
C
102
}
330
C
100
AcDbDictionary
281
     1
  3
2dWireframe
350
2F
  3
Basic
350
32
  3
Brighten
350
36
  3
ColorChange
350
3A
  3
Conceptual
350
34
  3
Dim
350
35
  3
EdgeColorOff
350
3D
  3
Facepattern
350
39
  3
Flat
350
2B
  3
FlatWithEdges
350
2C
  3
Gouraud
350
2D
  3
GouraudWithEdges
350
2E
  3
Hidden
350
31
  3
JitterOff
350
3B
  3
Linepattern
350
38
  3
OverhangOff
350
3C
  3
Realistic
350
33
  3
Shaded
350
42
  3
Shaded with edges
350
41
  3
Shades of Gray
350
3E
  3
Sketchy
350
3F
  3
Thicken
350
37
  3
Wireframe
350
30
  3
X-Ray
350
40
  0
XRECORD
  5
439
102
{ACAD_REACTORS
330
C
102
}
330
C
100
AcDbXrecord
280
     1
 90
        1
330
6A
  0
DICTIONARY
  5
3F9
102
{ACAD_REACTORS
330
C
102
}
330
C
100
AcDbDictionary
281
     1
  3
CANNOSCALE
350
3FA
  3
CENTEREXE
350
43E
  3
CENTERLTYPEFILE
350
43F
  3
CMLEADERSTYLE
350
43B
  3
CTABLESTYLE
350
43A
  3
MSLTSCALE
350
3FB
  3
XCLIPFRAME
350
3FC
  0
XRECORD
  5
3F8
102
{ACAD_REACTORS
330
3F7
102
}
330
3F7
100
AcDbXrecord
280
     1
102
VTR_0.000_0.000_1.000_1.000_VISUALSTYLE
340
2F
102
VTR_0.000_0.000_1.000_1.000_GRIDDISPLAY
 70
     3
102
VTR_0.000_0.000_1.000_1.000_GRIDMAJOR
 70
     5
102
VTR_0.000_0.000_1.000_1.000_DEFAULTLIGHTING
280
     1
102
VTR_0.000_0.000_1.000_1.000_DEFAULTLIGHTINGTYPE
 70
     1
102
VTR_0.000_0.000_1.000_1.000_BRIGHTNESS
141
0.0
102
VTR_0.000_0.000_1.000_1.000_CONTRAST
142
0.0
  0
LAYOUT
  5
1E
102
{ACAD_REACTORS
330
1A
102
}
330
1A
100
AcDbPlotSettings
  1

  2
none_device
  4

  6

 40
0.0
 41
0.0
 42
0.0
 43
0.0
 44
0.0
 45
0.0
 46
0.0
 47
0.0
 48
0.0
 49
0.0
140
0.0
141
0.0
142
1.0
143
1.0
 70
   688
 72
     1
 73
     0
 74
     5
  7

 75
    16
 76
     0
 77
     5
 78
   300
147
1.0
148
0.0
149
0.0
100
AcDbLayout
  1
Layout1
 70
     1
 71
     1
 10
0.0
 20
0.0
 11
420.0
 21
297.0
 12
0.0
 22
0.0
 32
0.0
 14
1.000000000000000E+20
 24
1.000000000000000E+20
 34
1.000000000000000E+20
 15
-1.000000000000000E+20
 25
-1.000000000000000E+20
 35
-1.000000000000000E+20
146
0.0
 13
0.0
 23
0.0
 33
0.0
 16
1.0
 26
0.0
 36
0.0
 17
0.0
 27
1.0
 37
0.0
 76
     0
330
1B
  0
LAYOUT
  5
26
102
{ACAD_REACTORS
330
1A
102
}
330
1A
100
AcDbPlotSettings
  1

  2
none_device
  4

  6

 40
0.0
 41
0.0
 42
0.0
 43
0.0
 44
0.0
 45
0.0
 46
0.0
 47
0.0
 48
0.0
 49
0.0
140
0.0
141
0.0
142
1.0
143
1.0
 70
   688
 72
     1
 73
     0
 74
     5
  7

 75
    16
 76
     0
 77
     5
 78
   300
147
1.0
148
0.0
149
0.0
100
AcDbLayout
  1
Layout2
 70
     1
 71
     2
 10
0.0
 20
0.0
 11
0.0
 21
0.0
 12
0.0
 22
0.0
 32
0.0
 14
0.0
 24
0.0
 34
0.0
 15
0.0
 25
0.0
 35
0.0
146
0.0
 13
0.0
 23
0.0
 33
0.0
 16
1.0
 26
0.0
 36
0.0
 17
0.0
 27
1.0
 37
0.0
 76
     0
330
23
  0
LAYOUT
  5
22
102
{ACAD_REACTORS
330
1A
102
}
330
1A
100
AcDbPlotSettings
  1

  2
none_device
  4
Letter_(8.50_x_11.00_Inches)
  6

 40
6.35
 41
6.35
 42
6.35000508
 43
6.35000508
 44
215.9
 45
279.4
 46
0.0
 47
0.0
 48
0.0
 49
0.0
140
0.0
141
0.0
142
1.0
143
1.0
 70
  1712
 72
     1
 73
     0
 74
     0
  7

 75
     0
 76
     0
 77
     5
 78
   300
147
1.0
148
0.0
149
0.0
100
AcDbLayout
  1
Model
 70
     1
 71
     0
 10
-1050.0
 20
-742.5
 11
1050.0
 21
742.5
 12
0.0
 22
0.0
 32
0.0
 14
-1050.0
 24
-742.5
 34
0.0
 15
1050.0
 25
742.5
 35
0.0
146
0.0
 13
0.0
 23
0.0
 33
0.0
 16
1.0
 26
0.0
 36
0.0
 17
0.0
 27
1.0
 37
0.0
 76
     0
330
1F
331
29
  0
MATERIAL
  5
45
102
{ACAD_REACTORS
330
43
102
}
102
{ACAD_XDICTIONARY
360
42F
102
}
330
43
100
AcDbMaterial
  1
ByBlock
  0
MATERIAL
  5
44
102
{ACAD_REACTORS
330
43
102
}
102
{ACAD_XDICTIONARY
360
42D
102
}
330
43
100
AcDbMaterial
  1
ByLayer
  0
MATERIAL
  5
46
102
{ACAD_REACTORS
330
43
102
}
102
{ACAD_XDICTIONARY
360
431
102
}
330
43
100
AcDbMaterial
  1
Global
  0
MLEADERSTYLE
  5
6C
102
{ACAD_REACTORS
330
6B
102
}
102
{ACAD_XDICTIONARY
360
437
102
}
330
6B
100
AcDbMLeaderStyle
170
     2
171
     1
172
     0
 90
        2
 40
0.0
 41
0.0
173
     1
 91
-1056964608
340
14
 92
       -2
290
     1
 42
2.0
291
     1
 43
8.0
  3
Standard
341
0
 44
4.0
300

342
11
174
     1
178
     6
175
     1
176
     0
 93
-1056964608
 45
4.0
292
     0
297
     0
 46
4.0
343
0
 94
-1056964608
 47
1.0
 49
1.0
140
1.0
293
     1
141
0.0
294
     1
177
     0
142
1.0
295
     0
296
     0
143
3.75
1001
ACAD_MLEADERVER
1070
     2
  0
MLINESTYLE
  5
18
102
{ACAD_REACTORS
330
17
102
}
330
17
100
AcDbMlineStyle
  2
Standard
 70
     0
  3

 62
   256
 51
90.0
 52
90.0
 71
     2
 49
0.5
 62
   256
  6
BYLAYER
 49
-0.5
 62
   256
  6
BYLAYER
  0
ACDBPLACEHOLDER
  5
F
102
{ACAD_REACTORS
330
E
102
}
330
E
  0
SCALE
  5
48
102
{ACAD_REACTORS
330
47
102
}
330
47
100
AcDbScale
 70
     0
300
1:1
140
1.0
141
1.0
290
     1
  0
SCALE
  5
49
102
{ACAD_REACTORS
330
47
102
}
330
47
100
AcDbScale
 70
     0
300
1:2
140
1.0
141
2.0
290
     0
  0
SCALE
  5
4A
102
{ACAD_REACTORS
330
47
102
}
330
47
100
AcDbScale
 70
     0
300
1:4
140
1.0
141
4.0
290
     0
  0
SCALE
  5
4B
102
{ACAD_REACTORS
330
47
102
}
330
47
100
AcDbScale
 70
     0
300
1:5
140
1.0
141
5.0
290
     0
  0
SCALE
  5
4C
102
{ACAD_REACTORS
330
47
102
}
330
47
100
AcDbScale
 70
     0
300
1:8
140
1.0
141
8.0
290
     0
  0
SCALE
  5
4D
102
{ACAD_REACTORS
330
47
102
}
330
47
100
AcDbScale
 70
     0
300
1:10
140
1.0
141
10.0
290
     0
  0
SCALE
  5
4E
102
{ACAD_REACTORS
330
47
102
}
330
47
100
AcDbScale
 70
     0
300
1:16
140
1.0
141
16.0
290
     0
  0
SCALE
  5
4F
102
{ACAD_REACTORS
330
47
102
}
330
47
100
AcDbScale
 70
     0
300
1:20
140
1.0
141
20.0
290
     0
  0
SCALE
  5
50
102
{ACAD_REACTORS
330
47
102
}
330
47
100
AcDbScale
 70
     0
300
1:30
140
1.0
141
30.0
290
     0
  0
SCALE
  5
51
102
{ACAD_REACTORS
330
47
102
}
330
47
100
AcDbScale
 70
     0
300
1:40
140
1.0
141
40.0
290
     0
  0
SCALE
  5
52
102
{ACAD_REACTORS
330
47
102
}
330
47
100
AcDbScale
 70
     0
300
1:50
140
1.0
141
50.0
290
     0
  0
SCALE
  5
53
102
{ACAD_REACTORS
330
47
102
}
330
47
100
AcDbScale
 70
     0
300
1:100
140
1.0
141
100.0
290
     0
  0
SCALE
  5
54
102
{ACAD_REACTORS
330
47
102
}
330
47
100
AcDbScale
 70
     0
300
2:1
140
2.0
141
1.0
290
     0
  0
SCALE
  5
55
102
{ACAD_REACTORS
330
47
102
}
330
47
100
AcDbScale
 70
     0
300
4:1
140
4.0
141
1.0
290
     0
  0
SCALE
  5
56
102
{ACAD_REACTORS
330
47
102
}
330
47
100
AcDbScale
 70
     0
300
8:1
140
8.0
141
1.0
290
     0
  0
SCALE
  5
57
102
{ACAD_REACTORS
330
47
102
}
330
47
100
AcDbScale
 70
     0
300
10:1
140
10.0
141
1.0
290
     0
  0
SCALE
  5
58
102
{ACAD_REACTORS
330
47
102
}
330
47
100
AcDbScale
 70
     0
300
100:1
140
100.0
141
1.0
290
     0
  0
SCALE
  5
59
102
{ACAD_REACTORS
330
47
102
}
330
47
100
AcDbScale
 70
     0
300
1/128" = 1'-0"
140
0.0078125
141
12.0
290
     0
  0
SCALE
  5
5A
102
{ACAD_REACTORS
330
47
102
}
330
47
100
AcDbScale
 70
     0
300
1/64" = 1'-0"
140
0.015625
141
12.0
290
     0
  0
SCALE
  5
5B
102
{ACAD_REACTORS
330
47
102
}
330
47
100
AcDbScale
 70
     0
300
1/32" = 1'-0"
140
0.03125
141
12.0
290
     0
  0
SCALE
  5
5C
102
{ACAD_REACTORS
330
47
102
}
330
47
100
AcDbScale
 70
     0
300
1/16" = 1'-0"
140
0.0625
141
12.0
290
     0
  0
SCALE
  5
5D
102
{ACAD_REACTORS
330
47
102
}
330
47
100
AcDbScale
 70
     0
300
3/32" = 1'-0"
140
0.09375
141
12.0
290
     0
  0
SCALE
  5
5E
102
{ACAD_REACTORS
330
47
102
}
330
47
100
AcDbScale
 70
     0
300
1/8" = 1'-0"
140
0.125
141
12.0
290
     0
  0
SCALE
  5
5F
102
{ACAD_REACTORS
330
47
102
}
330
47
100
AcDbScale
 70
     0
300
3/16" = 1'-0"
140
0.1875
141
12.0
290
     0
  0
SCALE
  5
60
102
{ACAD_REACTORS
330
47
102
}
330
47
100
AcDbScale
 70
     0
300
1/4" = 1'-0"
140
0.25
141
12.0
290
     0
  0
SCALE
  5
61
102
{ACAD_REACTORS
330
47
102
}
330
47
100
AcDbScale
 70
     0
300
3/8" = 1'-0"
140
0.375
141
12.0
290
     0
  0
SCALE
  5
62
102
{ACAD_REACTORS
330
47
102
}
330
47
100
AcDbScale
 70
     0
300
1/2" = 1'-0"
140
0.5
141
12.0
290
     0
  0
SCALE
  5
63
102
{ACAD_REACTORS
330
47
102
}
330
47
100
AcDbScale
 70
     0
300
3/4" = 1'-0"
140
0.75
141
12.0
290
     0
  0
SCALE
  5
64
102
{ACAD_REACTORS
330
47
102
}
330
47
100
AcDbScale
 70
     0
300
1" = 1'-0"
140
1.0
141
12.0
290
     0
  0
SCALE
  5
65
102
{ACAD_REACTORS
330
47
102
}
330
47
100
AcDbScale
 70
     0
300
1-1/2" = 1'-0"
140
1.5
141
12.0
290
     0
  0
SCALE
  5
66
102
{ACAD_REACTORS
330
47
102
}
330
47
100
AcDbScale
 70
     0
300
3" = 1'-0"
140
3.0
141
12.0
290
     0
  0
SCALE
  5
67
102
{ACAD_REACTORS
330
47
102
}
330
47
100
AcDbScale
 70
     0
300
6" = 1'-0"
140
6.0
141
12.0
290
     0
  0
SCALE
  5
68
102
{ACAD_REACTORS
330
47
102
}
330
47
100
AcDbScale
 70
     0
300
1'-0" = 1'-0"
140
12.0
141
12.0
290
     0
  0
TABLESTYLE
  5
6A
102
{ACAD_REACTORS
330
69
102
}
102
{ACAD_XDICTIONARY
360
433
102
}
330
69
100
AcDbTableStyle
  3
Standard
 70
     0
 71
     0
 40
0.06
 41
0.06
280
     0
281
     0
  7
Standard
140
4.5
170
     2
 62
     0
 63
   257
283
     0
274
    -2
284
     1
 64
     0
275
    -2
285
     1
 65
     0
276
    -2
286
     1
 66
     0
277
    -2
287
     1
 67
     0
278
    -2
288
     1
 68
     0
279
    -2
289
     1
 69
     0
  7
Standard
140
6.0
170
     5
 62
     0
 63
   257
283
     0
274
    -2
284
     1
 64
     0
275
    -2
285
     1
 65
     0
276
    -2
286
     1
 66
     0
277
    -2
287
     1
 67
     0
278
    -2
288
     1
 68
     0
279
    -2
289
     1
 69
     0
  7
Standard
140
4.5
170
     5
 62
     0
 63
   257
283
     0
274
    -2
284
     1
 64
     0
275
    -2
285
     1
 65
     0
276
    -2
286
     1
 66
     0
277
    -2
287
     1
 67
     0
278
    -2
288
     1
 68
     0
279
    -2
289
     1
 69
     0
  0
VISUALSTYLE
  5
2F
102
{ACAD_REACTORS
330
2A
102
}
102
{ACAD_XDICTIONARY
360
405
102
}
330
2A
100
AcDbVisualStyle
  2
2dWireframe
 70
     4
 71
     0
 72
     2
 73
     0
 90
        0
 40
0.6
 41
30.0
 62
     5
 63
     7
421
 16777215
 74
     1
 91
        4
 64
     7
 65
   257
 75
     1
175
     1
 42
1.0
 92
        0
 66
   257
 43
1.0
 76
     1
 77
     6
 78
     2
 67
     7
 79
     5
170
     0
171
     0
290
     0
174
     0
 93
        1
 44
0.0
173
     0
291
     0
 45
0.0
1001
ACAD
1000
AcDbSavedByObjectVersion
1070
     0
  0
VISUALSTYLE
  5
32
102
{ACAD_REACTORS
330
2A
102
}
102
{ACAD_XDICTIONARY
360
40B
102
}
330
2A
100
AcDbVisualStyle
  2
Basic
 70
     7
 71
     1
 72
     0
 73
     1
 90
        0
 40
0.6
 41
30.0
 62
     5
 63
     7
421
 16777215
 74
     0
 91
        4
 64
     7
 65
   257
 75
     1
175
     1
 42
1.0
 92
        8
 66
     7
 43
1.0
 76
     1
 77
     6
 78
     2
 67
     7
 79
     5
170
     0
171
     0
290
     0
174
     0
 93
        1
 44
0.0
173
     0
291
     1
 45
0.0
1001
ACAD
1000
AcDbSavedByObjectVersion
1070
     0
  0
VISUALSTYLE
  5
36
102
{ACAD_REACTORS
330
2A
102
}
102
{ACAD_XDICTIONARY
360
413
102
}
330
2A
100
AcDbVisualStyle
  2
Brighten
 70
    12
 71
     2
 72
     2
 73
     0
 90
        0
 40
0.6
 41
30.0
 62
     5
 63
     7
421
 16777215
 74
     1
 91
        4
 64
     7
 65
   257
 75
     1
175
     1
 42
1.0
 92
        8
 66
     7
 43
1.0
 76
     1
 77
     6
 78
     2
 67
     7
 79
     5
170
     0
171
     0
290
     0
174
     0
 93
        1
 44
50.0
173
     0
291
     1
 45
0.0
1001
ACAD
1000
AcDbSavedByObjectVersion
1070
     0
  0
VISUALSTYLE
  5
3A
102
{ACAD_REACTORS
330
2A
102
}
102
{ACAD_XDICTIONARY
360
41B
102
}
330
2A
100
AcDbVisualStyle
  2
ColorChange
 70
    16
 71
     2
 72
     2
 73
     3
 90
        0
 40
0.6
 41
30.0
 62
     5
 63
     8
421
  8421504
 74
     1
 91
        4
 64
     7
 65
   257
 75
     1
175
     1
 42
1.0
 92
        8
 66
     8
424
  8421504
 43
1.0
 76
     1
 77
     6
 78
     2
 67
     7
 79
     5
170
     0
171
     0
290
     0
174
     0
 93
        1
 44
0.0
173
     0
291
     1
 45
0.0
1001
ACAD
1000
AcDbSavedByObjectVersion
1070
     0
  0
VISUALSTYLE
  5
34
102
{ACAD_REACTORS
330
2A
102
}
102
{ACAD_XDICTIONARY
360
40F
102
}
330
2A
100
AcDbVisualStyle
  2
Conceptual
 70
     9
 71
     3
 72
     2
 73
     0
 90
        0
 40
0.6
 41
30.0
 62
     5
 63
     7
421
 16777215
 74
     2
 91
        2
 64
     7
 65
   257
 75
     1
175
     1
 42
179.0
 92
        8
 66
     7
 43
1.0
 76
     1
 77
     6
 78
     2
 67
     7
 79
     3
170
     0
171
     0
290
     0
174
     0
 93
        1
 44
0.0
173
     0
291
     0
 45
0.0
1001
ACAD
1000
AcDbSavedByObjectVersion
1070
     0
  0
VISUALSTYLE
  5
35
102
{ACAD_REACTORS
330
2A
102
}
102
{ACAD_XDICTIONARY
360
411
102
}
330
2A
100
AcDbVisualStyle
  2
Dim
 70
    11
 71
     2
 72
     2
 73
     0
 90
        0
 40
0.6
 41
30.0
 62
     5
 63
     7
421
 16777215
 74
     1
 91
        4
 64
     7
 65
   257
 75
     1
175
     1
 42
1.0
 92
        8
 66
     7
 43
1.0
 76
     1
 77
     6
 78
     2
 67
     7
 79
     5
170
     0
171
     0
290
     0
174
     0
 93
        1
 44
-50.0
173
     0
291
     1
 45
0.0
1001
ACAD
1000
AcDbSavedByObjectVersion
1070
     0
  0
VISUALSTYLE
  5
3D
102
{ACAD_REACTORS
330
2A
102
}
102
{ACAD_XDICTIONARY
360
421
102
}
330
2A
100
AcDbVisualStyle
  2
EdgeColorOff
 70
    22
 71
     2
 72
     2
 73
     0
 90
        0
 40
0.6
 41
30.0
 62
     5
 63
     7
421
 16777215
 74
     1
 91
        4
 64
     7
 65
   257
 75
     1
175
     1
 42
1.0
 92
        8
 66
     7
 43
1.0
 76
     1
 77
     6
 78
     2
 67
     7
 79
     5
170
     0
171
     0
290
     0
174
     0
 93
        1
 44
0.0
173
     0
291
     1
 45
0.0
1001
ACAD
1000
AcDbSavedByObjectVersion
1070
     0
  0
VISUALSTYLE
  5
39
102
{ACAD_REACTORS
330
2A
102
}
102
{ACAD_XDICTIONARY
360
419
102
}
330
2A
100
AcDbVisualStyle
  2
Facepattern
 70
    15
 71
     2
 72
     2
 73
     0
 90
        0
 40
0.6
 41
30.0
 62
     5
 63
     7
421
 16777215
 74
     1
 91
        4
 64
     7
 65
   257
 75
     1
175
     1
 42
1.0
 92
        8
 66
     7
 43
1.0
 76
     1
 77
     6
 78
     2
 67
     7
 79
     5
170
     0
171
     0
290
     0
174
     0
 93
        1
 44
0.0
173
     0
291
     1
 45
0.0
1001
ACAD
1000
AcDbSavedByObjectVersion
1070
     0
  0
VISUALSTYLE
  5
2B
102
{ACAD_REACTORS
330
2A
102
}
102
{ACAD_XDICTIONARY
360
3FD
102
}
330
2A
100
AcDbVisualStyle
  2
Flat
 70
     0
 71
     2
 72
     1
 73
     1
 90
        2
 40
0.6
 41
30.0
 62
     5
 63
     7
421
 16777215
 74
     0
 91
        0
 64
     7
 65
   257
 75
     1
175
     1
 42
1.0
 92
        8
 66
     7
 43
1.0
 76
     1
 77
     6
 78
     2
 67
     7
 79
     5
170
     0
171
     0
290
     0
174
     0
 93
       13
 44
0.0
173
     0
291
     1
 45
0.0
1001
ACAD
1000
AcDbSavedByObjectVersion
1070
     0
  0
VISUALSTYLE
  5
2C
102
{ACAD_REACTORS
330
2A
102
}
102
{ACAD_XDICTIONARY
360
3FF
102
}
330
2A
100
AcDbVisualStyle
  2
FlatWithEdges
 70
     1
 71
     2
 72
     1
 73
     1
 90
        2
 40
0.6
 41
30.0
 62
     5
 63
     7
421
 16777215
 74
     1
 91
        0
 64
     7
 65
   257
 75
     1
175
     1
 42
1.0
 92
        0
 66
   257
 43
1.0
 76
     1
 77
     6
 78
     2
 67
     7
 79
     5
170
     0
171
     0
290
     0
174
     0
 93
       13
 44
0.0
173
     0
291
     1
 45
0.0
1001
ACAD
1000
AcDbSavedByObjectVersion
1070
     0
  0
VISUALSTYLE
  5
2D
102
{ACAD_REACTORS
330
2A
102
}
102
{ACAD_XDICTIONARY
360
401
102
}
330
2A
100
AcDbVisualStyle
  2
Gouraud
 70
     2
 71
     2
 72
     2
 73
     1
 90
        2
 40
0.6
 41
30.0
 62
     5
 63
     7
421
 16777215
 74
     0
 91
        0
 64
     7
 65
   257
 75
     1
175
     1
 42
1.0
 92
        0
 66
     7
 43
1.0
 76
     1
 77
     6
 78
     2
 67
     7
 79
     5
170
     0
171
     0
290
     0
174
     0
 93
       13
 44
0.0
173
     0
291
     1
 45
0.0
1001
ACAD
1000
AcDbSavedByObjectVersion
1070
     0
  0
VISUALSTYLE
  5
2E
102
{ACAD_REACTORS
330
2A
102
}
102
{ACAD_XDICTIONARY
360
403
102
}
330
2A
100
AcDbVisualStyle
  2
GouraudWithEdges
 70
     3
 71
     2
 72
     2
 73
     1
 90
        2
 40
0.6
 41
30.0
 62
     5
 63
     7
421
 16777215
 74
     1
 91
        0
 64
     7
 65
   257
 75
     1
175
     1
 42
1.0
 92
        0
 66
   257
 43
1.0
 76
     1
 77
     6
 78
     2
 67
     7
 79
     5
170
     0
171
     0
290
     0
174
     0
 93
       13
 44
0.0
173
     0
291
     1
 45
0.0
1001
ACAD
1000
AcDbSavedByObjectVersion
1070
     0
  0
VISUALSTYLE
  5
31
102
{ACAD_REACTORS
330
2A
102
}
102
{ACAD_XDICTIONARY
360
409
102
}
330
2A
100
AcDbVisualStyle
  2
Hidden
 70
     6
 71
     1
 72
     2
 73
     2
 90
        0
 40
0.6
 41
30.0
 62
     5
 63
     7
421
 16777215
 74
     2
 91
        2
 64
     7
 65
   257
 75
     2
175
     1
 42
40.0
 92
        0
 66
   257
 43
1.0
 76
     1
 77
     6
 78
     2
 67
     7
 79
     3
170
     0
171
     0
290
     0
174
     0
 93
        1
 44
0.0
173
     0
291
     0
 45
0.0
1001
ACAD
1000
AcDbSavedByObjectVersion
1070
     0
  0
VISUALSTYLE
  5
3B
102
{ACAD_REACTORS
330
2A
102
}
102
{ACAD_XDICTIONARY
360
41D
102
}
330
2A
100
AcDbVisualStyle
  2
JitterOff
 70
    20
 71
     2
 72
     2
 73
     0
 90
        0
 40
0.6
 41
30.0
 62
     5
 63
     7
421
 16777215
 74
     1
 91
        4
 64
     7
 65
   257
 75
     1
175
     1
 42
1.0
 92
       10
 66
     7
 43
1.0
 76
     1
 77
     6
 78
     2
 67
     7
 79
     5
170
     0
171
     0
290
     0
174
     0
 93
        1
 44
0.0
173
     0
291
     1
 45
0.0
1001
ACAD
1000
AcDbSavedByObjectVersion
1070
     0
  0
VISUALSTYLE
  5
38
102
{ACAD_REACTORS
330
2A
102
}
102
{ACAD_XDICTIONARY
360
417
102
}
330
2A
100
AcDbVisualStyle
  2
Linepattern
 70
    14
 71
     2
 72
     2
 73
     0
 90
        0
 40
0.6
 41
30.0
 62
     5
 63
     7
421
 16777215
 74
     1
 91
        4
 64
     7
 65
   257
 75
     7
175
     7
 42
1.0
 92
        8
 66
     7
 43
1.0
 76
     1
 77
     6
 78
     2
 67
     7
 79
     5
170
     0
171
     0
290
     0
174
     0
 93
        1
 44
0.0
173
     0
291
     1
 45
0.0
1001
ACAD
1000
AcDbSavedByObjectVersion
1070
     0
  0
VISUALSTYLE
  5
3C
102
{ACAD_REACTORS
330
2A
102
}
102
{ACAD_XDICTIONARY
360
41F
102
}
330
2A
100
AcDbVisualStyle
  2
OverhangOff
 70
    21
 71
     2
 72
     2
 73
     0
 90
        0
 40
0.6
 41
30.0
 62
     5
 63
     7
421
 16777215
 74
     1
 91
        4
 64
     7
 65
   257
 75
     1
175
     1
 42
1.0
 92
        9
 66
     7
 43
1.0
 76
     1
 77
     6
 78
     2
 67
     7
 79
     5
170
     0
171
     0
290
     0
174
     0
 93
        1
 44
0.0
173
     0
291
     1
 45
0.0
1001
ACAD
1000
AcDbSavedByObjectVersion
1070
     0
  0
VISUALSTYLE
  5
33
102
{ACAD_REACTORS
330
2A
102
}
102
{ACAD_XDICTIONARY
360
40D
102
}
330
2A
100
AcDbVisualStyle
  2
Realistic
 70
     8
 71
     2
 72
     3
 73
     0
 90
        2
 40
0.6
 41
30.0
 62
     5
 63
     7
421
 16777215
 74
     0
 91
        0
 64
     7
 65
   257
 75
     1
175
     1
 42
1.0
 92
        8
 66
   257
 43
1.0
 76
     1
 77
     6
 78
     2
 67
     7
 79
     3
170
     0
171
     0
290
     0
174
     0
 93
       13
 44
0.0
173
     0
291
     0
 45
0.0
1001
ACAD
1000
AcDbSavedByObjectVersion
1070
     0
  0
VISUALSTYLE
  5
42
102
{ACAD_REACTORS
330
2A
102
}
102
{ACAD_XDICTIONARY
360
42B
102
}
330
2A
100
AcDbVisualStyle
  2
Shaded
 70
    27
 71
     2
 72
     2
 73
     1
 90
        2
 40
0.6
 41
30.0
 62
     5
 63
     7
421
 16777215
 74
     0
 91
        4
 64
     7
 65
   257
 75
     1
175
     1
 42
1.0
 92
        8
 66
   257
 43
1.0
 76
     1
 77
     6
 78
     2
 67
     8
425
  7895160
 79
     3
170
     0
171
     0
290
     0
174
     0
 93
        5
 44
0.0
173
     0
291
     0
 45
0.0
1001
ACAD
1000
AcDbSavedByObjectVersion
1070
     0
  0
VISUALSTYLE
  5
41
102
{ACAD_REACTORS
330
2A
102
}
102
{ACAD_XDICTIONARY
360
429
102
}
330
2A
100
AcDbVisualStyle
  2
Shaded with edges
 70
    26
 71
     2
 72
     2
 73
     1
 90
        2
 40
0.6
 41
30.0
 62
     5
 63
     7
421
 16777215
 74
     1
 91
       10
 64
     7
 65
   257
 75
     2
175
     1
 42
1.0
 92
        8
 66
   257
 43
1.0
 76
     1
 77
     6
 78
     2
 67
     7
 79
     3
170
     0
171
     0
290
     0
174
     0
 93
        5
 44
0.0
173
     0
291
     0
 45
0.0
1001
ACAD
1000
AcDbSavedByObjectVersion
1070
     0
  0
VISUALSTYLE
  5
3E
102
{ACAD_REACTORS
330
2A
102
}
102
{ACAD_XDICTIONARY
360
423
102
}
330
2A
100
AcDbVisualStyle
  2
Shades of Gray
 70
    23
 71
     2
 72
     2
 73
     3
 90
        0
 40
0.6
 41
30.0
 62
     5
 63
     7
421
 16777215
 74
     2
 91
        2
 64
     7
 65
     7
 75
     1
175
     1
 42
40.0
 92
        8
 66
     7
 43
1.0
 76
     1
 77
     6
 78
     2
 67
     7
 79
     3
170
     0
171
     0
290
     0
174
     0
 93
        1
 44
0.0
173
     0
291
     0
 45
0.0
1001
ACAD
1000
AcDbSavedByObjectVersion
1070
     0
  0
VISUALSTYLE
  5
3F
102
{ACAD_REACTORS
330
2A
102
}
102
{ACAD_XDICTIONARY
360
425
102
}
330
2A
100
AcDbVisualStyle
  2
Sketchy
 70
    24
 71
     1
 72
     2
 73
     2
 90
        0
 40
0.6
 41
30.0
 62
     5
 63
     7
421
 16777215
 74
     2
 91
        2
 64
     7
 65
     7
 75
     1
175
     1
 42
40.0
 92
       11
 66
     7
 43
1.0
 76
     1
 77
     6
 78
     2
 67
     7
 79
     6
170
     0
171
     0
290
     0
174
     0
 93
        1
 44
0.0
173
     0
291
     0
 45
0.0
1001
ACAD
1000
AcDbSavedByObjectVersion
1070
     0
  0
VISUALSTYLE
  5
37
102
{ACAD_REACTORS
330
2A
102
}
102
{ACAD_XDICTIONARY
360
415
102
}
330
2A
100
AcDbVisualStyle
  2
Thicken
 70
    13
 71
     2
 72
     2
 73
     0
 90
        0
 40
0.6
 41
30.0
 62
     5
 63
     7
421
 16777215
 74
     1
 91
        4
 64
     7
 65
   257
 75
     1
175
     1
 42
1.0
 92
       12
 66
     7
 43
1.0
 76
     1
 77
     6
 78
     2
 67
     7
 79
     5
170
     0
171
     0
290
     0
174
     0
 93
        1
 44
0.0
173
     0
291
     1
 45
0.0
1001
ACAD
1000
AcDbSavedByObjectVersion
1070
     0
  0
VISUALSTYLE
  5
30
102
{ACAD_REACTORS
330
2A
102
}
102
{ACAD_XDICTIONARY
360
407
102
}
330
2A
100
AcDbVisualStyle
  2
Wireframe
 70
     5
 71
     0
 72
     2
 73
     0
 90
        0
 40
0.6
 41
30.0
 62
     5
 63
     7
421
 16777215
 74
     1
 91
        4
 64
     7
 65
   257
 75
     1
175
     1
 42
1.0
 92
        0
 66
   257
 43
1.0
 76
     1
 77
     6
 78
     2
 67
     7
 79
     3
170
     0
171
     0
290
     0
174
     0
 93
        1
 44
0.0
173
     0
291
     0
 45
0.0
1001
ACAD
1000
AcDbSavedByObjectVersion
1070
     0
  0
VISUALSTYLE
  5
40
102
{ACAD_REACTORS
330
2A
102
}
102
{ACAD_XDICTIONARY
360
427
102
}
330
2A
100
AcDbVisualStyle
  2
X-Ray
 70
    25
 71
     2
 72
     2
 73
     1
 90
        1
 40
0.5
 41
30.0
 62
     5
 63
     7
421
 16777215
 74
     1
 91
        0
 64
     7
 65
   257
 75
     1
175
     1
 42
1.0
 92
        8
 66
     7
 43
1.0
 76
     1
 77
     6
 78
     2
 67
     7
 79
     3
170
     0
171
     0
290
     0
174
     0
 93
       13
 44
0.0
173
     0
291
     0
 45
0.0
1001
ACAD
1000
AcDbSavedByObjectVersion
1070
     0
  0
DICTIONARYVAR
  5
3FA
102
{ACAD_REACTORS
330
3F9
102
}
330
3F9
100
DictionaryVariables
280
     0
  1
1:1
  0
DICTIONARYVAR
  5
43E
102
{ACAD_REACTORS
330
3F9
102
}
330
3F9
100
DictionaryVariables
280
     0
  1
3.500000
  0
DICTIONARYVAR
  5
43F
102
{ACAD_REACTORS
330
3F9
102
}
330
3F9
100
DictionaryVariables
280
     0
  1
acadiso.lin
  0
DICTIONARYVAR
  5
43B
102
{ACAD_REACTORS
330
3F9
102
}
330
3F9
100
DictionaryVariables
280
     0
  1
Standard
  0
DICTIONARYVAR
  5
43A
102
{ACAD_REACTORS
330
3F9
102
}
330
3F9
100
DictionaryVariables
280
     0
  1
Standard
  0
DICTIONARYVAR
  5
3FB
102
{ACAD_REACTORS
330
3F9
102
}
330
3F9
100
DictionaryVariables
280
     0
  1
1
  0
DICTIONARYVAR
  5
3FC
102
{ACAD_REACTORS
330
3F9
102
}
330
3F9
100
DictionaryVariables
280
     0
  1
2
  0
DICTIONARY
  5
42F
330
45
100
AcDbDictionary
280
     1
281
     1
  3
ACAD_XREC_ROUNDTRIP
360
430
  0
DICTIONARY
  5
42D
330
44
100
AcDbDictionary
280
     1
281
     1
  3
ACAD_XREC_ROUNDTRIP
360
42E
  0
DICTIONARY
  5
431
330
46
100
AcDbDictionary
280
     1
281
     1
  3
ACAD_XREC_ROUNDTRIP
360
432
  0
DICTIONARY
  5
437
330
6C
100
AcDbDictionary
280
     1
281
     1
  3
ACAD_XREC_ROUNDTRIP
360
438
  0
DICTIONARY
  5
433
330
6A
100
AcDbDictionary
280
     1
281
     1
  3
ACAD_ROUNDTRIP_2008_TABLESTYLE_CELLSTYLEMAP
360
435
  3
ACAD_XREC_ROUNDTRIP
360
434
  0
DICTIONARY
  5
405
330
2F
100
AcDbDictionary
280
     1
281
     1
  3
ACAD_XREC_ROUNDTRIP
360
406
  0
DICTIONARY
  5
40B
330
32
100
AcDbDictionary
280
     1
281
     1
  3
ACAD_XREC_ROUNDTRIP
360
40C
  0
DICTIONARY
  5
413
330
36
100
AcDbDictionary
280
     1
281
     1
  3
ACAD_XREC_ROUNDTRIP
360
414
  0
DICTIONARY
  5
41B
330
3A
100
AcDbDictionary
280
     1
281
     1
  3
ACAD_XREC_ROUNDTRIP
360
41C
  0
DICTIONARY
  5
40F
330
34
100
AcDbDictionary
280
     1
281
     1
  3
ACAD_XREC_ROUNDTRIP
360
410
  0
DICTIONARY
  5
411
330
35
100
AcDbDictionary
280
     1
281
     1
  3
ACAD_XREC_ROUNDTRIP
360
412
  0
DICTIONARY
  5
421
330
3D
100
AcDbDictionary
280
     1
281
     1
  3
ACAD_XREC_ROUNDTRIP
360
422
  0
DICTIONARY
  5
419
330
39
100
AcDbDictionary
280
     1
281
     1
  3
ACAD_XREC_ROUNDTRIP
360
41A
  0
DICTIONARY
  5
3FD
330
2B
100
AcDbDictionary
280
     1
281
     1
  3
ACAD_XREC_ROUNDTRIP
360
3FE
  0
DICTIONARY
  5
3FF
330
2C
100
AcDbDictionary
280
     1
281
     1
  3
ACAD_XREC_ROUNDTRIP
360
400
  0
DICTIONARY
  5
401
330
2D
100
AcDbDictionary
280
     1
281
     1
  3
ACAD_XREC_ROUNDTRIP
360
402
  0
DICTIONARY
  5
403
330
2E
100
AcDbDictionary
280
     1
281
     1
  3
ACAD_XREC_ROUNDTRIP
360
404
  0
DICTIONARY
  5
409
330
31
100
AcDbDictionary
280
     1
281
     1
  3
ACAD_XREC_ROUNDTRIP
360
40A
  0
DICTIONARY
  5
41D
330
3B
100
AcDbDictionary
280
     1
281
     1
  3
ACAD_XREC_ROUNDTRIP
360
41E
  0
DICTIONARY
  5
417
330
38
100
AcDbDictionary
280
     1
281
     1
  3
ACAD_XREC_ROUNDTRIP
360
418
  0
DICTIONARY
  5
41F
330
3C
100
AcDbDictionary
280
     1
281
     1
  3
ACAD_XREC_ROUNDTRIP
360
420
  0
DICTIONARY
  5
40D
330
33
100
AcDbDictionary
280
     1
281
     1
  3
ACAD_XREC_ROUNDTRIP
360
40E
  0
DICTIONARY
  5
42B
330
42
100
AcDbDictionary
280
     1
281
     1
  3
ACAD_XREC_ROUNDTRIP
360
42C
  0
DICTIONARY
  5
429
330
41
100
AcDbDictionary
280
     1
281
     1
  3
ACAD_XREC_ROUNDTRIP
360
42A
  0
DICTIONARY
  5
423
330
3E
100
AcDbDictionary
280
     1
281
     1
  3
ACAD_XREC_ROUNDTRIP
360
424
  0
DICTIONARY
  5
425
330
3F
100
AcDbDictionary
280
     1
281
     1
  3
ACAD_XREC_ROUNDTRIP
360
426
  0
DICTIONARY
  5
415
330
37
100
AcDbDictionary
280
     1
281
     1
  3
ACAD_XREC_ROUNDTRIP
360
416
  0
DICTIONARY
  5
407
330
30
100
AcDbDictionary
280
     1
281
     1
  3
ACAD_XREC_ROUNDTRIP
360
408
  0
DICTIONARY
  5
427
330
40
100
AcDbDictionary
280
     1
281
     1
  3
ACAD_XREC_ROUNDTRIP
360
428
  0
XRECORD
  5
430
102
{ACAD_REACTORS
330
42F
102
}
330
42F
100
AcDbXrecord
280
     1
102
MATERIAL
148
0.0
149
0.0
149
0.0
 93
        0
 94
      127
282
     0
 72
     1
 77
     1
171
     1
175
     1
179
     1
273
     0
  0
XRECORD
  5
42E
102
{ACAD_REACTORS
330
42D
102
}
330
42D
100
AcDbXrecord
280
     1
102
MATERIAL
148
0.0
149
0.0
149
0.0
 93
        0
 94
      127
282
     0
 72
     1
 77
     1
171
     1
175
     1
179
     1
273
     0
  0
XRECORD
  5
432
102
{ACAD_REACTORS
330
431
102
}
330
431
100
AcDbXrecord
280
     1
102
MATERIAL
148
0.0
149
0.0
149
0.0
 93
        0
 94
      127
282
     0
 72
     1
 77
     1
171
     1
175
     1
179
     1
273
     0
  0
XRECORD
  5
438
102
{ACAD_REACTORS
330
437
102
}
330
437
100
AcDbXrecord
280
     1
102
ACAD_ROUNDTRIP_2010_MLEADER_STYLE
  0
CELLSTYLEMAP
  5
435
102
{ACAD_REACTORS
330
433
102
}
330
433
100
AcDbCellStyleMap
 90
        3
300
CELLSTYLE
  1
TABLEFORMAT_BEGIN
 90
        5
170
     1
 91
        0
 92
    32768
 62
   257
 93
        1
300
CONTENTFORMAT
  1
CONTENTFORMAT_BEGIN
 90
        0
 91
        0
 92
        4
 93
        0
300

 40
0.0
140
1.0
 94
        5
 62
     0
340
11
144
6.0
309
CONTENTFORMAT_END
171
     1
301
MARGIN
  1
CELLMARGIN_BEGIN
 40
1.5
 40
1.5
 40
1.5
 40
1.5
 40
1.5
 40
1.5
309
CELLMARGIN_END
 94
        6
 95
        1
302
GRIDFORMAT
  1
GRIDFORMAT_BEGIN
 90
        0
 91
        1
 62
     0
 92
       -2
340
14
 93
        0
 40
0.045
309
GRIDFORMAT_END
 95
        2
302
GRIDFORMAT
  1
GRIDFORMAT_BEGIN
 90
        0
 91
        1
 62
     0
 92
       -2
340
14
 93
        0
 40
0.045
309
GRIDFORMAT_END
 95
        4
302
GRIDFORMAT
  1
GRIDFORMAT_BEGIN
 90
        0
 91
        1
 62
     0
 92
       -2
340
14
 93
        0
 40
0.045
309
GRIDFORMAT_END
 95
        8
302
GRIDFORMAT
  1
GRIDFORMAT_BEGIN
 90
        0
 91
        1
 62
     0
 92
       -2
340
14
 93
        0
 40
0.045
309
GRIDFORMAT_END
 95
       16
302
GRIDFORMAT
  1
GRIDFORMAT_BEGIN
 90
        0
 91
        1
 62
     0
 92
       -2
340
14
 93
        0
 40
0.045
309
GRIDFORMAT_END
 95
       32
302
GRIDFORMAT
  1
GRIDFORMAT_BEGIN
 90
        0
 91
        1
 62
     0
 92
       -2
340
14
 93
        0
 40
0.045
309
GRIDFORMAT_END
309
TABLEFORMAT_END
  1
CELLSTYLE_BEGIN
 90
        1
 91
        1
300
_TITLE
309
CELLSTYLE_END
300
CELLSTYLE
  1
TABLEFORMAT_BEGIN
 90
        5
170
     1
 91
        0
 92
        0
 62
   257
 93
        1
300
CONTENTFORMAT
  1
CONTENTFORMAT_BEGIN
 90
        0
 91
        0
 92
        4
 93
        0
300

 40
0.0
140
1.0
 94
        5
 62
     0
340
11
144
4.5
309
CONTENTFORMAT_END
171
     1
301
MARGIN
  1
CELLMARGIN_BEGIN
 40
1.5
 40
1.5
 40
1.5
 40
1.5
 40
1.5
 40
1.5
309
CELLMARGIN_END
 94
        6
 95
        1
302
GRIDFORMAT
  1
GRIDFORMAT_BEGIN
 90
        0
 91
        1
 62
     0
 92
       -2
340
14
 93
        0
 40
0.045
309
GRIDFORMAT_END
 95
        2
302
GRIDFORMAT
  1
GRIDFORMAT_BEGIN
 90
        0
 91
        1
 62
     0
 92
       -2
340
14
 93
        0
 40
0.045
309
GRIDFORMAT_END
 95
        4
302
GRIDFORMAT
  1
GRIDFORMAT_BEGIN
 90
        0
 91
        1
 62
     0
 92
       -2
340
14
 93
        0
 40
0.045
309
GRIDFORMAT_END
 95
        8
302
GRIDFORMAT
  1
GRIDFORMAT_BEGIN
 90
        0
 91
        1
 62
     0
 92
       -2
340
14
 93
        0
 40
0.045
309
GRIDFORMAT_END
 95
       16
302
GRIDFORMAT
  1
GRIDFORMAT_BEGIN
 90
        0
 91
        1
 62
     0
 92
       -2
340
14
 93
        0
 40
0.045
309
GRIDFORMAT_END
 95
       32
302
GRIDFORMAT
  1
GRIDFORMAT_BEGIN
 90
        0
 91
        1
 62
     0
 92
       -2
340
14
 93
        0
 40
0.045
309
GRIDFORMAT_END
309
TABLEFORMAT_END
  1
CELLSTYLE_BEGIN
 90
        2
 91
        1
300
_HEADER
309
CELLSTYLE_END
300
CELLSTYLE
  1
TABLEFORMAT_BEGIN
 90
        5
170
     1
 91
        0
 92
        0
 62
   257
 93
        1
300
CONTENTFORMAT
  1
CONTENTFORMAT_BEGIN
 90
        0
 91
        0
 92
        4
 93
        0
300

 40
0.0
140
1.0
 94
        2
 62
     0
340
11
144
4.5
309
CONTENTFORMAT_END
171
     1
301
MARGIN
  1
CELLMARGIN_BEGIN
 40
1.5
 40
1.5
 40
1.5
 40
1.5
 40
1.5
 40
1.5
309
CELLMARGIN_END
 94
        6
 95
        1
302
GRIDFORMAT
  1
GRIDFORMAT_BEGIN
 90
        0
 91
        1
 62
     0
 92
       -2
340
14
 93
        0
 40
0.045
309
GRIDFORMAT_END
 95
        2
302
GRIDFORMAT
  1
GRIDFORMAT_BEGIN
 90
        0
 91
        1
 62
     0
 92
       -2
340
14
 93
        0
 40
0.045
309
GRIDFORMAT_END
 95
        4
302
GRIDFORMAT
  1
GRIDFORMAT_BEGIN
 90
        0
 91
        1
 62
     0
 92
       -2
340
14
 93
        0
 40
0.045
309
GRIDFORMAT_END
 95
        8
302
GRIDFORMAT
  1
GRIDFORMAT_BEGIN
 90
        0
 91
        1
 62
     0
 92
       -2
340
14
 93
        0
 40
0.045
309
GRIDFORMAT_END
 95
       16
302
GRIDFORMAT
  1
GRIDFORMAT_BEGIN
 90
        0
 91
        1
 62
     0
 92
       -2
340
14
 93
        0
 40
0.045
309
GRIDFORMAT_END
 95
       32
302
GRIDFORMAT
  1
GRIDFORMAT_BEGIN
 90
        0
 91
        1
 62
     0
 92
       -2
340
14
 93
        0
 40
0.045
309
GRIDFORMAT_END
309
TABLEFORMAT_END
  1
CELLSTYLE_BEGIN
 90
        3
 91
        2
300
_DATA
309
CELLSTYLE_END
  0
XRECORD
  5
434
102
{ACAD_REACTORS
330
433
102
}
330
433
100
AcDbXrecord
280
     1
102
ACAD_ROUNDTRIP_PRE2007_TABLESTYLE
 90
        4
 91
        0
  1

 92
        4
 93
        0
  2

 94
        4
 95
        0
  3

  0
XRECORD
  5
406
102
{ACAD_REACTORS
330
405
102
}
330
405
100
AcDbXrecord
280
     1
102
RTVSPropertyOp0
 70
     1
102
RTVSPropertyOp1
 70
     1
102
RTVSPropertyOp2
 70
     1
102
RTVSPropertyOp3
 70
     1
102
RTVSPropertyOp4
 70
     1
102
RTVSPropertyOp5
 70
     1
102
RTVSPropertyOp6
 70
     1
102
RTVSPropertyOp7
 70
     1
102
RTVSPropertyOp8
 70
     1
102
RTVSPropertyOp9
 70
     1
102
RTVSPropertyOp10
 70
     1
102
RTVSPropertyOp11
 70
     1
102
RTVSPropertyOp12
 70
     1
102
RTVSPropertyOp13
 70
     1
102
RTVSPropertyOp14
 70
     1
102
RTVSPropertyOp15
 70
     1
102
RTVSPropertyOp16
 70
     1
102
RTVSPropertyOp17
 70
     1
102
RTVSPropertyOp18
 70
     1
102
RTVSPropertyOp19
 70
     1
102
RTVSPropertyOp20
 70
     1
102
RTVSPropertyOp21
 70
     1
102
RTVSPropertyOp22
 70
     1
102
RTVSPropertyOp23
 70
     1
102
RTVSPropertyOp24
 70
     1
102
RTVSPropertyOp25
 70
     1
102
RTVSPropertyOp26
 70
     1
102
RTVSPropertyOp27
 70
     1
102
RTVSPropertyOp28
 70
     1
102
RTVSPropertyOp29
 70
     1
102
RTVSPropertyOp30
 70
     1
102
RTVSPropertyOp31
 70
     1
102
RTVSPropertyOp32
 70
     1
102
RTVSPropertyOp33
 70
     1
102
RTVSPropertyOp34
 70
     1
102
RTVSPropertyOp35
 70
     1
102
RTVSPropertyOp36
 70
     1
102
RTVSPropertyOp37
 70
     1
102
RTVSPropertyOp38
 70
     1
102
RTVSPropertyOp39
 70
     1
102
RTVSPropertyOp40
 70
     1
102
RTVSPropertyOp41
 70
     1
102
RTVSPropertyOp42
 70
     1
102
RTVSPropertyOp43
 70
     1
102
RTVSPropertyOp44
 70
     1
102
RTVSPropertyOp45
 70
     1
102
RTVSPropertyOp46
 70
     1
102
RTVSPropertyOp47
 70
     1
102
RTVSPropertyOp48
 70
     1
102
RTVSPropertyOp49
 70
     1
102
RTVSPropertyOp50
 70
     1
102
RTVSPropertyOp51
 70
     0
102
RTVSPropertyOp52
 70
     0
102
RTVSPropertyOp53
 70
     1
102
RTVSPropertyOp54
 70
     1
102
RTVSPropertyOp55
 70
     1
102
RTVSPropertyOp56
 70
     1
102
RTVSPropertyOp57
 70
     1
102
RTVSPost2010Prop28
280
     1
102
RTVSPost2010PropOp28
 70
     1
102
RTVSPost2010Prop29
280
     1
102
RTVSPost2010PropOp29
 70
     1
102
RTVSPost2010Prop30
280
     0
102
RTVSPost2010PropOp30
 70
     1
102
RTVSPost2010Prop31
280
     0
102
RTVSPost2010PropOp31
 70
     1
102
RTVSPost2010Prop32
280
     0
102
RTVSPost2010PropOp32
 70
     1
102
RTVSPost2010Prop33
280
     0
102
RTVSPost2010PropOp33
 70
     1
102
RTVSPost2010Prop34
280
     0
102
RTVSPost2010PropOp34
 70
     1
102
RTVSPost2010Prop35
280
     0
102
RTVSPost2010PropOp35
 70
     1
102
RTVSPost2010Prop36
280
     0
102
RTVSPost2010PropOp36
 70
     1
102
RTVSPost2010Prop37
 90
       50
102
RTVSPost2010PropOp37
 70
     1
102
RTVSPost2010Prop38
140
0.0
102
RTVSPost2010PropOp38
 70
     1
102
RTVSPost2010Prop39
140
1.0
102
RTVSPost2010PropOp39
 70
     1
102
RTVSPost2010Prop40
 90
        0
102
RTVSPost2010PropOp40
 70
     1
102
RTVSPost2010Prop41ColorIndex
 90
       18
102
RTVSPost2010Prop41ColorRGB
 90
        0
102
RTVSPost2010PropOp41
 70
     1
102
RTVSPost2010Prop42
 90
       50
102
RTVSPost2010PropOp42
 70
     1
102
RTVSPost2010Prop43
 90
        3
102
RTVSPost2010PropOp43
 70
     1
102
RTVSPost2010Prop44ColorIndex
 90
        5
102
RTVSPost2010Prop44ColorRGB
 90
      255
102
RTVSPost2010PropOp44
 70
     1
102
RTVSPost2010Prop45
280
     0
102
RTVSPost2010PropOp45
 70
     1
102
RTVSPost2010Prop46
 90
       50
102
RTVSPost2010PropOp46
 70
     1
102
RTVSPost2010Prop47
 90
       50
102
RTVSPost2010PropOp47
 70
     1
102
RTVSPost2010Prop48
 90
       50
102
RTVSPost2010PropOp48
 70
     1
102
RTVSPost2010Prop49
280
     0
102
RTVSPost2010PropOp49
 70
     1
102
RTVSPost2010Prop50
 90
       50
102
RTVSPost2010PropOp50
 70
     1
102
RTVSPost2010Prop51ColorIndex
 90
      256
102
RTVSPost2010Prop51ColorRGB
 90
-16777216
102
RTVSPost2010PropOp51
 70
     0
102
RTVSPost2010Prop52
140
1.0
102
RTVSPost2010PropOp52
 70
     0
102
RTVSPost2010Prop53
 90
        2
102
RTVSPost2010PropOp53
 70
     1
102
RTVSPost2010Prop54
  1
strokes_ogs.tif
102
RTVSPost2010PropOp54
 70
     1
102
RTVSPost2010Prop55
280
     0
102
RTVSPost2010PropOp55
 70
     1
102
RTVSPost2010Prop56
140
1.0
102
RTVSPost2010PropOp56
 70
     1
102
RTVSPost2010Prop57
140
1.0
102
RTVSPost2010PropOp57
 70
     1
  0
XRECORD
  5
40C
102
{ACAD_REACTORS
330
40B
102
}
330
40B
100
AcDbXrecord
280
     1
102
RTVSPropertyOp0
 70
     1
102
RTVSPropertyOp1
 70
     1
102
RTVSPropertyOp2
 70
     1
102
RTVSPropertyOp3
 70
     1
102
RTVSPropertyOp4
 70
     1
102
RTVSPropertyOp5
 70
     1
102
RTVSPropertyOp6
 70
     1
102
RTVSPropertyOp7
 70
     1
102
RTVSPropertyOp8
 70
     1
102
RTVSPropertyOp9
 70
     1
102
RTVSPropertyOp10
 70
     1
102
RTVSPropertyOp11
 70
     1
102
RTVSPropertyOp12
 70
     1
102
RTVSPropertyOp13
 70
     1
102
RTVSPropertyOp14
 70
     1
102
RTVSPropertyOp15
 70
     1
102
RTVSPropertyOp16
 70
     1
102
RTVSPropertyOp17
 70
     1
102
RTVSPropertyOp18
 70
     1
102
RTVSPropertyOp19
 70
     1
102
RTVSPropertyOp20
 70
     1
102
RTVSPropertyOp21
 70
     1
102
RTVSPropertyOp22
 70
     1
102
RTVSPropertyOp23
 70
     1
102
RTVSPropertyOp24
 70
     1
102
RTVSPropertyOp25
 70
     1
102
RTVSPropertyOp26
 70
     1
102
RTVSPropertyOp27
 70
     1
102
RTVSPropertyOp28
 70
     1
102
RTVSPropertyOp29
 70
     1
102
RTVSPropertyOp30
 70
     1
102
RTVSPropertyOp31
 70
     1
102
RTVSPropertyOp32
 70
     1
102
RTVSPropertyOp33
 70
     1
102
RTVSPropertyOp34
 70
     1
102
RTVSPropertyOp35
 70
     1
102
RTVSPropertyOp36
 70
     1
102
RTVSPropertyOp37
 70
     1
102
RTVSPropertyOp38
 70
     1
102
RTVSPropertyOp39
 70
     1
102
RTVSPropertyOp40
 70
     1
102
RTVSPropertyOp41
 70
     1
102
RTVSPropertyOp42
 70
     1
102
RTVSPropertyOp43
 70
     1
102
RTVSPropertyOp44
 70
     1
102
RTVSPropertyOp45
 70
     1
102
RTVSPropertyOp46
 70
     1
102
RTVSPropertyOp47
 70
     1
102
RTVSPropertyOp48
 70
     1
102
RTVSPropertyOp49
 70
     1
102
RTVSPropertyOp50
 70
     1
102
RTVSPropertyOp51
 70
     0
102
RTVSPropertyOp52
 70
     0
102
RTVSPropertyOp53
 70
     1
102
RTVSPropertyOp54
 70
     1
102
RTVSPropertyOp55
 70
     1
102
RTVSPropertyOp56
 70
     1
102
RTVSPropertyOp57
 70
     1
102
RTVSPost2010Prop28
280
     0
102
RTVSPost2010PropOp28
 70
     1
102
RTVSPost2010Prop29
280
     1
102
RTVSPost2010PropOp29
 70
     1
102
RTVSPost2010Prop30
280
     1
102
RTVSPost2010PropOp30
 70
     1
102
RTVSPost2010Prop31
280
     0
102
RTVSPost2010PropOp31
 70
     1
102
RTVSPost2010Prop32
280
     0
102
RTVSPost2010PropOp32
 70
     1
102
RTVSPost2010Prop33
280
     0
102
RTVSPost2010PropOp33
 70
     1
102
RTVSPost2010Prop34
280
     0
102
RTVSPost2010PropOp34
 70
     1
102
RTVSPost2010Prop35
280
     0
102
RTVSPost2010PropOp35
 70
     1
102
RTVSPost2010Prop36
280
     0
102
RTVSPost2010PropOp36
 70
     1
102
RTVSPost2010Prop37
 90
       50
102
RTVSPost2010PropOp37
 70
     1
102
RTVSPost2010Prop38
140
0.0
102
RTVSPost2010PropOp38
 70
     1
102
RTVSPost2010Prop39
140
1.0
102
RTVSPost2010PropOp39
 70
     1
102
RTVSPost2010Prop40
 90
        0
102
RTVSPost2010PropOp40
 70
     1
102
RTVSPost2010Prop41ColorIndex
 90
       18
102
RTVSPost2010Prop41ColorRGB
 90
        0
102
RTVSPost2010PropOp41
 70
     1
102
RTVSPost2010Prop42
 90
       50
102
RTVSPost2010PropOp42
 70
     1
102
RTVSPost2010Prop43
 90
        3
102
RTVSPost2010PropOp43
 70
     1
102
RTVSPost2010Prop44ColorIndex
 90
        5
102
RTVSPost2010Prop44ColorRGB
 90
      255
102
RTVSPost2010PropOp44
 70
     1
102
RTVSPost2010Prop45
280
     0
102
RTVSPost2010PropOp45
 70
     1
102
RTVSPost2010Prop46
 90
       50
102
RTVSPost2010PropOp46
 70
     1
102
RTVSPost2010Prop47
 90
       50
102
RTVSPost2010PropOp47
 70
     1
102
RTVSPost2010Prop48
 90
       50
102
RTVSPost2010PropOp48
 70
     1
102
RTVSPost2010Prop49
280
     0
102
RTVSPost2010PropOp49
 70
     1
102
RTVSPost2010Prop50
 90
       50
102
RTVSPost2010PropOp50
 70
     1
102
RTVSPost2010Prop51ColorIndex
 90
      256
102
RTVSPost2010Prop51ColorRGB
 90
-16777216
102
RTVSPost2010PropOp51
 70
     0
102
RTVSPost2010Prop52
140
1.0
102
RTVSPost2010PropOp52
 70
     0
102
RTVSPost2010Prop53
 90
        2
102
RTVSPost2010PropOp53
 70
     1
102
RTVSPost2010Prop54
  1
strokes_ogs.tif
102
RTVSPost2010PropOp54
 70
     1
102
RTVSPost2010Prop55
280
     0
102
RTVSPost2010PropOp55
 70
     1
102
RTVSPost2010Prop56
140
1.0
102
RTVSPost2010PropOp56
 70
     1
102
RTVSPost2010Prop57
140
1.0
102
RTVSPost2010PropOp57
 70
     1
  0
XRECORD
  5
414
102
{ACAD_REACTORS
330
413
102
}
330
413
100
AcDbXrecord
280
     1
102
RTVSPropertyOp0
 70
     1
102
RTVSPropertyOp1
 70
     1
102
RTVSPropertyOp2
 70
     1
102
RTVSPropertyOp3
 70
     1
102
RTVSPropertyOp4
 70
     1
102
RTVSPropertyOp5
 70
     1
102
RTVSPropertyOp6
 70
     1
102
RTVSPropertyOp7
 70
     1
102
RTVSPropertyOp8
 70
     1
102
RTVSPropertyOp9
 70
     1
102
RTVSPropertyOp10
 70
     1
102
RTVSPropertyOp11
 70
     1
102
RTVSPropertyOp12
 70
     1
102
RTVSPropertyOp13
 70
     1
102
RTVSPropertyOp14
 70
     1
102
RTVSPropertyOp15
 70
     1
102
RTVSPropertyOp16
 70
     1
102
RTVSPropertyOp17
 70
     1
102
RTVSPropertyOp18
 70
     1
102
RTVSPropertyOp19
 70
     1
102
RTVSPropertyOp20
 70
     1
102
RTVSPropertyOp21
 70
     1
102
RTVSPropertyOp22
 70
     1
102
RTVSPropertyOp23
 70
     1
102
RTVSPropertyOp24
 70
     1
102
RTVSPropertyOp25
 70
     1
102
RTVSPropertyOp26
 70
     1
102
RTVSPropertyOp27
 70
     1
102
RTVSPropertyOp28
 70
     1
102
RTVSPropertyOp29
 70
     1
102
RTVSPropertyOp30
 70
     1
102
RTVSPropertyOp31
 70
     1
102
RTVSPropertyOp32
 70
     1
102
RTVSPropertyOp33
 70
     1
102
RTVSPropertyOp34
 70
     1
102
RTVSPropertyOp35
 70
     1
102
RTVSPropertyOp36
 70
     1
102
RTVSPropertyOp37
 70
     1
102
RTVSPropertyOp38
 70
     1
102
RTVSPropertyOp39
 70
     1
102
RTVSPropertyOp40
 70
     1
102
RTVSPropertyOp41
 70
     1
102
RTVSPropertyOp42
 70
     1
102
RTVSPropertyOp43
 70
     1
102
RTVSPropertyOp44
 70
     1
102
RTVSPropertyOp45
 70
     1
102
RTVSPropertyOp46
 70
     1
102
RTVSPropertyOp47
 70
     1
102
RTVSPropertyOp48
 70
     1
102
RTVSPropertyOp49
 70
     1
102
RTVSPropertyOp50
 70
     1
102
RTVSPropertyOp51
 70
     0
102
RTVSPropertyOp52
 70
     0
102
RTVSPropertyOp53
 70
     1
102
RTVSPropertyOp54
 70
     1
102
RTVSPropertyOp55
 70
     1
102
RTVSPropertyOp56
 70
     1
102
RTVSPropertyOp57
 70
     1
102
RTVSPost2010Prop28
280
     0
102
RTVSPost2010PropOp28
 70
     1
102
RTVSPost2010Prop29
280
     1
102
RTVSPost2010PropOp29
 70
     1
102
RTVSPost2010Prop30
280
     1
102
RTVSPost2010PropOp30
 70
     1
102
RTVSPost2010Prop31
280
     0
102
RTVSPost2010PropOp31
 70
     1
102
RTVSPost2010Prop32
280
     0
102
RTVSPost2010PropOp32
 70
     1
102
RTVSPost2010Prop33
280
     0
102
RTVSPost2010PropOp33
 70
     1
102
RTVSPost2010Prop34
280
     0
102
RTVSPost2010PropOp34
 70
     1
102
RTVSPost2010Prop35
280
     0
102
RTVSPost2010PropOp35
 70
     1
102
RTVSPost2010Prop36
280
     0
102
RTVSPost2010PropOp36
 70
     1
102
RTVSPost2010Prop37
 90
       50
102
RTVSPost2010PropOp37
 70
     1
102
RTVSPost2010Prop38
140
0.0
102
RTVSPost2010PropOp38
 70
     1
102
RTVSPost2010Prop39
140
1.0
102
RTVSPost2010PropOp39
 70
     1
102
RTVSPost2010Prop40
 90
        0
102
RTVSPost2010PropOp40
 70
     1
102
RTVSPost2010Prop41ColorIndex
 90
       18
102
RTVSPost2010Prop41ColorRGB
 90
        0
102
RTVSPost2010PropOp41
 70
     1
102
RTVSPost2010Prop42
 90
       50
102
RTVSPost2010PropOp42
 70
     1
102
RTVSPost2010Prop43
 90
        3
102
RTVSPost2010PropOp43
 70
     1
102
RTVSPost2010Prop44ColorIndex
 90
        5
102
RTVSPost2010Prop44ColorRGB
 90
      255
102
RTVSPost2010PropOp44
 70
     1
102
RTVSPost2010Prop45
280
     0
102
RTVSPost2010PropOp45
 70
     1
102
RTVSPost2010Prop46
 90
       50
102
RTVSPost2010PropOp46
 70
     1
102
RTVSPost2010Prop47
 90
       50
102
RTVSPost2010PropOp47
 70
     1
102
RTVSPost2010Prop48
 90
       50
102
RTVSPost2010PropOp48
 70
     1
102
RTVSPost2010Prop49
280
     0
102
RTVSPost2010PropOp49
 70
     1
102
RTVSPost2010Prop50
 90
       50
102
RTVSPost2010PropOp50
 70
     1
102
RTVSPost2010Prop51ColorIndex
 90
      256
102
RTVSPost2010Prop51ColorRGB
 90
-16777216
102
RTVSPost2010PropOp51
 70
     0
102
RTVSPost2010Prop52
140
1.0
102
RTVSPost2010PropOp52
 70
     0
102
RTVSPost2010Prop53
 90
        2
102
RTVSPost2010PropOp53
 70
     1
102
RTVSPost2010Prop54
  1
strokes_ogs.tif
102
RTVSPost2010PropOp54
 70
     1
102
RTVSPost2010Prop55
280
     0
102
RTVSPost2010PropOp55
 70
     1
102
RTVSPost2010Prop56
140
1.0
102
RTVSPost2010PropOp56
 70
     1
102
RTVSPost2010Prop57
140
1.0
102
RTVSPost2010PropOp57
 70
     1
  0
XRECORD
  5
41C
102
{ACAD_REACTORS
330
41B
102
}
330
41B
100
AcDbXrecord
280
     1
102
RTVSPropertyOp0
 70
     1
102
RTVSPropertyOp1
 70
     1
102
RTVSPropertyOp2
 70
     1
102
RTVSPropertyOp3
 70
     1
102
RTVSPropertyOp4
 70
     1
102
RTVSPropertyOp5
 70
     1
102
RTVSPropertyOp6
 70
     1
102
RTVSPropertyOp7
 70
     1
102
RTVSPropertyOp8
 70
     1
102
RTVSPropertyOp9
 70
     1
102
RTVSPropertyOp10
 70
     1
102
RTVSPropertyOp11
 70
     1
102
RTVSPropertyOp12
 70
     1
102
RTVSPropertyOp13
 70
     1
102
RTVSPropertyOp14
 70
     1
102
RTVSPropertyOp15
 70
     1
102
RTVSPropertyOp16
 70
     1
102
RTVSPropertyOp17
 70
     1
102
RTVSPropertyOp18
 70
     1
102
RTVSPropertyOp19
 70
     1
102
RTVSPropertyOp20
 70
     1
102
RTVSPropertyOp21
 70
     1
102
RTVSPropertyOp22
 70
     1
102
RTVSPropertyOp23
 70
     1
102
RTVSPropertyOp24
 70
     1
102
RTVSPropertyOp25
 70
     1
102
RTVSPropertyOp26
 70
     1
102
RTVSPropertyOp27
 70
     1
102
RTVSPropertyOp28
 70
     1
102
RTVSPropertyOp29
 70
     1
102
RTVSPropertyOp30
 70
     1
102
RTVSPropertyOp31
 70
     1
102
RTVSPropertyOp32
 70
     1
102
RTVSPropertyOp33
 70
     1
102
RTVSPropertyOp34
 70
     1
102
RTVSPropertyOp35
 70
     1
102
RTVSPropertyOp36
 70
     1
102
RTVSPropertyOp37
 70
     1
102
RTVSPropertyOp38
 70
     1
102
RTVSPropertyOp39
 70
     1
102
RTVSPropertyOp40
 70
     1
102
RTVSPropertyOp41
 70
     1
102
RTVSPropertyOp42
 70
     1
102
RTVSPropertyOp43
 70
     1
102
RTVSPropertyOp44
 70
     1
102
RTVSPropertyOp45
 70
     1
102
RTVSPropertyOp46
 70
     1
102
RTVSPropertyOp47
 70
     1
102
RTVSPropertyOp48
 70
     1
102
RTVSPropertyOp49
 70
     1
102
RTVSPropertyOp50
 70
     1
102
RTVSPropertyOp51
 70
     0
102
RTVSPropertyOp52
 70
     0
102
RTVSPropertyOp53
 70
     1
102
RTVSPropertyOp54
 70
     1
102
RTVSPropertyOp55
 70
     1
102
RTVSPropertyOp56
 70
     1
102
RTVSPropertyOp57
 70
     1
102
RTVSPost2010Prop28
280
     0
102
RTVSPost2010PropOp28
 70
     1
102
RTVSPost2010Prop29
280
     1
102
RTVSPost2010PropOp29
 70
     1
102
RTVSPost2010Prop30
280
     1
102
RTVSPost2010PropOp30
 70
     1
102
RTVSPost2010Prop31
280
     0
102
RTVSPost2010PropOp31
 70
     1
102
RTVSPost2010Prop32
280
     0
102
RTVSPost2010PropOp32
 70
     1
102
RTVSPost2010Prop33
280
     0
102
RTVSPost2010PropOp33
 70
     1
102
RTVSPost2010Prop34
280
     0
102
RTVSPost2010PropOp34
 70
     1
102
RTVSPost2010Prop35
280
     0
102
RTVSPost2010PropOp35
 70
     1
102
RTVSPost2010Prop36
280
     0
102
RTVSPost2010PropOp36
 70
     1
102
RTVSPost2010Prop37
 90
       50
102
RTVSPost2010PropOp37
 70
     1
102
RTVSPost2010Prop38
140
0.0
102
RTVSPost2010PropOp38
 70
     1
102
RTVSPost2010Prop39
140
1.0
102
RTVSPost2010PropOp39
 70
     1
102
RTVSPost2010Prop40
 90
        0
102
RTVSPost2010PropOp40
 70
     1
102
RTVSPost2010Prop41ColorIndex
 90
       18
102
RTVSPost2010Prop41ColorRGB
 90
        0
102
RTVSPost2010PropOp41
 70
     1
102
RTVSPost2010Prop42
 90
       50
102
RTVSPost2010PropOp42
 70
     1
102
RTVSPost2010Prop43
 90
        3
102
RTVSPost2010PropOp43
 70
     1
102
RTVSPost2010Prop44ColorIndex
 90
        5
102
RTVSPost2010Prop44ColorRGB
 90
      255
102
RTVSPost2010PropOp44
 70
     1
102
RTVSPost2010Prop45
280
     0
102
RTVSPost2010PropOp45
 70
     1
102
RTVSPost2010Prop46
 90
       50
102
RTVSPost2010PropOp46
 70
     1
102
RTVSPost2010Prop47
 90
       50
102
RTVSPost2010PropOp47
 70
     1
102
RTVSPost2010Prop48
 90
       50
102
RTVSPost2010PropOp48
 70
     1
102
RTVSPost2010Prop49
280
     0
102
RTVSPost2010PropOp49
 70
     1
102
RTVSPost2010Prop50
 90
       50
102
RTVSPost2010PropOp50
 70
     1
102
RTVSPost2010Prop51ColorIndex
 90
      256
102
RTVSPost2010Prop51ColorRGB
 90
-16777216
102
RTVSPost2010PropOp51
 70
     0
102
RTVSPost2010Prop52
140
1.0
102
RTVSPost2010PropOp52
 70
     0
102
RTVSPost2010Prop53
 90
        2
102
RTVSPost2010PropOp53
 70
     1
102
RTVSPost2010Prop54
  1
strokes_ogs.tif
102
RTVSPost2010PropOp54
 70
     1
102
RTVSPost2010Prop55
280
     0
102
RTVSPost2010PropOp55
 70
     1
102
RTVSPost2010Prop56
140
1.0
102
RTVSPost2010PropOp56
 70
     1
102
RTVSPost2010Prop57
140
1.0
102
RTVSPost2010PropOp57
 70
     1
  0
XRECORD
  5
410
102
{ACAD_REACTORS
330
40F
102
}
330
40F
100
AcDbXrecord
280
     1
102
RTVSPropertyOp0
 70
     1
102
RTVSPropertyOp1
 70
     1
102
RTVSPropertyOp2
 70
     1
102
RTVSPropertyOp3
 70
     1
102
RTVSPropertyOp4
 70
     1
102
RTVSPropertyOp5
 70
     1
102
RTVSPropertyOp6
 70
     1
102
RTVSPropertyOp7
 70
     1
102
RTVSPropertyOp8
 70
     1
102
RTVSPropertyOp9
 70
     1
102
RTVSPropertyOp10
 70
     1
102
RTVSPropertyOp11
 70
     1
102
RTVSPropertyOp12
 70
     1
102
RTVSPropertyOp13
 70
     1
102
RTVSPropertyOp14
 70
     1
102
RTVSPropertyOp15
 70
     1
102
RTVSPropertyOp16
 70
     1
102
RTVSPropertyOp17
 70
     1
102
RTVSPropertyOp18
 70
     1
102
RTVSPropertyOp19
 70
     1
102
RTVSPropertyOp20
 70
     1
102
RTVSPropertyOp21
 70
     1
102
RTVSPropertyOp22
 70
     1
102
RTVSPropertyOp23
 70
     1
102
RTVSPropertyOp24
 70
     1
102
RTVSPropertyOp25
 70
     1
102
RTVSPropertyOp26
 70
     1
102
RTVSPropertyOp27
 70
     1
102
RTVSPropertyOp28
 70
     1
102
RTVSPropertyOp29
 70
     1
102
RTVSPropertyOp30
 70
     1
102
RTVSPropertyOp31
 70
     1
102
RTVSPropertyOp32
 70
     1
102
RTVSPropertyOp33
 70
     1
102
RTVSPropertyOp34
 70
     1
102
RTVSPropertyOp35
 70
     1
102
RTVSPropertyOp36
 70
     1
102
RTVSPropertyOp37
 70
     1
102
RTVSPropertyOp38
 70
     1
102
RTVSPropertyOp39
 70
     1
102
RTVSPropertyOp40
 70
     1
102
RTVSPropertyOp41
 70
     1
102
RTVSPropertyOp42
 70
     1
102
RTVSPropertyOp43
 70
     1
102
RTVSPropertyOp44
 70
     1
102
RTVSPropertyOp45
 70
     1
102
RTVSPropertyOp46
 70
     1
102
RTVSPropertyOp47
 70
     1
102
RTVSPropertyOp48
 70
     1
102
RTVSPropertyOp49
 70
     1
102
RTVSPropertyOp50
 70
     1
102
RTVSPropertyOp51
 70
     0
102
RTVSPropertyOp52
 70
     0
102
RTVSPropertyOp53
 70
     1
102
RTVSPropertyOp54
 70
     1
102
RTVSPropertyOp55
 70
     1
102
RTVSPropertyOp56
 70
     1
102
RTVSPropertyOp57
 70
     1
102
RTVSPost2010Prop28
280
     0
102
RTVSPost2010PropOp28
 70
     1
102
RTVSPost2010Prop29
280
     1
102
RTVSPost2010PropOp29
 70
     1
102
RTVSPost2010Prop30
280
     1
102
RTVSPost2010PropOp30
 70
     1
102
RTVSPost2010Prop31
280
     0
102
RTVSPost2010PropOp31
 70
     1
102
RTVSPost2010Prop32
280
     0
102
RTVSPost2010PropOp32
 70
     1
102
RTVSPost2010Prop33
280
     0
102
RTVSPost2010PropOp33
 70
     1
102
RTVSPost2010Prop34
280
     0
102
RTVSPost2010PropOp34
 70
     1
102
RTVSPost2010Prop35
280
     0
102
RTVSPost2010PropOp35
 70
     1
102
RTVSPost2010Prop36
280
     0
102
RTVSPost2010PropOp36
 70
     1
102
RTVSPost2010Prop37
 90
       50
102
RTVSPost2010PropOp37
 70
     1
102
RTVSPost2010Prop38
140
0.0
102
RTVSPost2010PropOp38
 70
     1
102
RTVSPost2010Prop39
140
1.0
102
RTVSPost2010PropOp39
 70
     1
102
RTVSPost2010Prop40
 90
        0
102
RTVSPost2010PropOp40
 70
     1
102
RTVSPost2010Prop41ColorIndex
 90
       18
102
RTVSPost2010Prop41ColorRGB
 90
        0
102
RTVSPost2010PropOp41
 70
     1
102
RTVSPost2010Prop42
 90
       50
102
RTVSPost2010PropOp42
 70
     1
102
RTVSPost2010Prop43
 90
        3
102
RTVSPost2010PropOp43
 70
     1
102
RTVSPost2010Prop44ColorIndex
 90
        5
102
RTVSPost2010Prop44ColorRGB
 90
      255
102
RTVSPost2010PropOp44
 70
     1
102
RTVSPost2010Prop45
280
     0
102
RTVSPost2010PropOp45
 70
     1
102
RTVSPost2010Prop46
 90
       50
102
RTVSPost2010PropOp46
 70
     1
102
RTVSPost2010Prop47
 90
       50
102
RTVSPost2010PropOp47
 70
     1
102
RTVSPost2010Prop48
 90
       50
102
RTVSPost2010PropOp48
 70
     1
102
RTVSPost2010Prop49
280
     0
102
RTVSPost2010PropOp49
 70
     1
102
RTVSPost2010Prop50
 90
       50
102
RTVSPost2010PropOp50
 70
     1
102
RTVSPost2010Prop51ColorIndex
 90
      256
102
RTVSPost2010Prop51ColorRGB
 90
-16777216
102
RTVSPost2010PropOp51
 70
     0
102
RTVSPost2010Prop52
140
1.0
102
RTVSPost2010PropOp52
 70
     0
102
RTVSPost2010Prop53
 90
        2
102
RTVSPost2010PropOp53
 70
     1
102
RTVSPost2010Prop54
  1
strokes_ogs.tif
102
RTVSPost2010PropOp54
 70
     1
102
RTVSPost2010Prop55
280
     0
102
RTVSPost2010PropOp55
 70
     1
102
RTVSPost2010Prop56
140
1.0
102
RTVSPost2010PropOp56
 70
     1
102
RTVSPost2010Prop57
140
1.0
102
RTVSPost2010PropOp57
 70
     1
  0
XRECORD
  5
412
102
{ACAD_REACTORS
330
411
102
}
330
411
100
AcDbXrecord
280
     1
102
RTVSPropertyOp0
 70
     1
102
RTVSPropertyOp1
 70
     1
102
RTVSPropertyOp2
 70
     1
102
RTVSPropertyOp3
 70
     1
102
RTVSPropertyOp4
 70
     1
102
RTVSPropertyOp5
 70
     1
102
RTVSPropertyOp6
 70
     1
102
RTVSPropertyOp7
 70
     1
102
RTVSPropertyOp8
 70
     1
102
RTVSPropertyOp9
 70
     1
102
RTVSPropertyOp10
 70
     1
102
RTVSPropertyOp11
 70
     1
102
RTVSPropertyOp12
 70
     1
102
RTVSPropertyOp13
 70
     1
102
RTVSPropertyOp14
 70
     1
102
RTVSPropertyOp15
 70
     1
102
RTVSPropertyOp16
 70
     1
102
RTVSPropertyOp17
 70
     1
102
RTVSPropertyOp18
 70
     1
102
RTVSPropertyOp19
 70
     1
102
RTVSPropertyOp20
 70
     1
102
RTVSPropertyOp21
 70
     1
102
RTVSPropertyOp22
 70
     1
102
RTVSPropertyOp23
 70
     1
102
RTVSPropertyOp24
 70
     1
102
RTVSPropertyOp25
 70
     1
102
RTVSPropertyOp26
 70
     1
102
RTVSPropertyOp27
 70
     1
102
RTVSPropertyOp28
 70
     1
102
RTVSPropertyOp29
 70
     1
102
RTVSPropertyOp30
 70
     1
102
RTVSPropertyOp31
 70
     1
102
RTVSPropertyOp32
 70
     1
102
RTVSPropertyOp33
 70
     1
102
RTVSPropertyOp34
 70
     1
102
RTVSPropertyOp35
 70
     1
102
RTVSPropertyOp36
 70
     1
102
RTVSPropertyOp37
 70
     1
102
RTVSPropertyOp38
 70
     1
102
RTVSPropertyOp39
 70
     1
102
RTVSPropertyOp40
 70
     1
102
RTVSPropertyOp41
 70
     1
102
RTVSPropertyOp42
 70
     1
102
RTVSPropertyOp43
 70
     1
102
RTVSPropertyOp44
 70
     1
102
RTVSPropertyOp45
 70
     1
102
RTVSPropertyOp46
 70
     1
102
RTVSPropertyOp47
 70
     1
102
RTVSPropertyOp48
 70
     1
102
RTVSPropertyOp49
 70
     1
102
RTVSPropertyOp50
 70
     1
102
RTVSPropertyOp51
 70
     0
102
RTVSPropertyOp52
 70
     0
102
RTVSPropertyOp53
 70
     1
102
RTVSPropertyOp54
 70
     1
102
RTVSPropertyOp55
 70
     1
102
RTVSPropertyOp56
 70
     1
102
RTVSPropertyOp57
 70
     1
102
RTVSPost2010Prop28
280
     0
102
RTVSPost2010PropOp28
 70
     1
102
RTVSPost2010Prop29
280
     1
102
RTVSPost2010PropOp29
 70
     1
102
RTVSPost2010Prop30
280
     1
102
RTVSPost2010PropOp30
 70
     1
102
RTVSPost2010Prop31
280
     0
102
RTVSPost2010PropOp31
 70
     1
102
RTVSPost2010Prop32
280
     0
102
RTVSPost2010PropOp32
 70
     1
102
RTVSPost2010Prop33
280
     0
102
RTVSPost2010PropOp33
 70
     1
102
RTVSPost2010Prop34
280
     0
102
RTVSPost2010PropOp34
 70
     1
102
RTVSPost2010Prop35
280
     0
102
RTVSPost2010PropOp35
 70
     1
102
RTVSPost2010Prop36
280
     0
102
RTVSPost2010PropOp36
 70
     1
102
RTVSPost2010Prop37
 90
       50
102
RTVSPost2010PropOp37
 70
     1
102
RTVSPost2010Prop38
140
0.0
102
RTVSPost2010PropOp38
 70
     1
102
RTVSPost2010Prop39
140
1.0
102
RTVSPost2010PropOp39
 70
     1
102
RTVSPost2010Prop40
 90
        0
102
RTVSPost2010PropOp40
 70
     1
102
RTVSPost2010Prop41ColorIndex
 90
       18
102
RTVSPost2010Prop41ColorRGB
 90
        0
102
RTVSPost2010PropOp41
 70
     1
102
RTVSPost2010Prop42
 90
       50
102
RTVSPost2010PropOp42
 70
     1
102
RTVSPost2010Prop43
 90
        3
102
RTVSPost2010PropOp43
 70
     1
102
RTVSPost2010Prop44ColorIndex
 90
        5
102
RTVSPost2010Prop44ColorRGB
 90
      255
102
RTVSPost2010PropOp44
 70
     1
102
RTVSPost2010Prop45
280
     0
102
RTVSPost2010PropOp45
 70
     1
102
RTVSPost2010Prop46
 90
       50
102
RTVSPost2010PropOp46
 70
     1
102
RTVSPost2010Prop47
 90
       50
102
RTVSPost2010PropOp47
 70
     1
102
RTVSPost2010Prop48
 90
       50
102
RTVSPost2010PropOp48
 70
     1
102
RTVSPost2010Prop49
280
     0
102
RTVSPost2010PropOp49
 70
     1
102
RTVSPost2010Prop50
 90
       50
102
RTVSPost2010PropOp50
 70
     1
102
RTVSPost2010Prop51ColorIndex
 90
      256
102
RTVSPost2010Prop51ColorRGB
 90
-16777216
102
RTVSPost2010PropOp51
 70
     0
102
RTVSPost2010Prop52
140
1.0
102
RTVSPost2010PropOp52
 70
     0
102
RTVSPost2010Prop53
 90
        2
102
RTVSPost2010PropOp53
 70
     1
102
RTVSPost2010Prop54
  1
strokes_ogs.tif
102
RTVSPost2010PropOp54
 70
     1
102
RTVSPost2010Prop55
280
     0
102
RTVSPost2010PropOp55
 70
     1
102
RTVSPost2010Prop56
140
1.0
102
RTVSPost2010PropOp56
 70
     1
102
RTVSPost2010Prop57
140
1.0
102
RTVSPost2010PropOp57
 70
     1
  0
XRECORD
  5
422
102
{ACAD_REACTORS
330
421
102
}
330
421
100
AcDbXrecord
280
     1
102
RTVSPropertyOp0
 70
     0
102
RTVSPropertyOp1
 70
     0
102
RTVSPropertyOp2
 70
     0
102
RTVSPropertyOp3
 70
     0
102
RTVSPropertyOp4
 70
     0
102
RTVSPropertyOp5
 70
     0
102
RTVSPropertyOp6
 70
     0
102
RTVSPropertyOp7
 70
     0
102
RTVSPropertyOp8
 70
     0
102
RTVSPropertyOp9
 70
     0
102
RTVSPropertyOp10
 70
     0
102
RTVSPropertyOp11
 70
     0
102
RTVSPropertyOp12
 70
     0
102
RTVSPropertyOp13
 70
     0
102
RTVSPropertyOp14
 70
     2
102
RTVSPropertyOp15
 70
     0
102
RTVSPropertyOp16
 70
     0
102
RTVSPropertyOp17
 70
     0
102
RTVSPropertyOp18
 70
     0
102
RTVSPropertyOp19
 70
     0
102
RTVSPropertyOp20
 70
     0
102
RTVSPropertyOp21
 70
     0
102
RTVSPropertyOp22
 70
     0
102
RTVSPropertyOp23
 70
     0
102
RTVSPropertyOp24
 70
     0
102
RTVSPropertyOp25
 70
     0
102
RTVSPropertyOp26
 70
     0
102
RTVSPropertyOp27
 70
     0
102
RTVSPropertyOp28
 70
     0
102
RTVSPropertyOp29
 70
     0
102
RTVSPropertyOp30
 70
     0
102
RTVSPropertyOp31
 70
     0
102
RTVSPropertyOp32
 70
     0
102
RTVSPropertyOp33
 70
     0
102
RTVSPropertyOp34
 70
     0
102
RTVSPropertyOp35
 70
     0
102
RTVSPropertyOp36
 70
     0
102
RTVSPropertyOp37
 70
     0
102
RTVSPropertyOp38
 70
     0
102
RTVSPropertyOp39
 70
     0
102
RTVSPropertyOp40
 70
     0
102
RTVSPropertyOp41
 70
     0
102
RTVSPropertyOp42
 70
     0
102
RTVSPropertyOp43
 70
     0
102
RTVSPropertyOp44
 70
     0
102
RTVSPropertyOp45
 70
     0
102
RTVSPropertyOp46
 70
     0
102
RTVSPropertyOp47
 70
     0
102
RTVSPropertyOp48
 70
     0
102
RTVSPropertyOp49
 70
     0
102
RTVSPropertyOp50
 70
     0
102
RTVSPropertyOp51
 70
     0
102
RTVSPropertyOp52
 70
     0
102
RTVSPropertyOp53
 70
     0
102
RTVSPropertyOp54
 70
     0
102
RTVSPropertyOp55
 70
     0
102
RTVSPropertyOp56
 70
     0
102
RTVSPropertyOp57
 70
     0
102
RTVSPost2010Prop28
280
     0
102
RTVSPost2010PropOp28
 70
     0
102
RTVSPost2010Prop29
280
     1
102
RTVSPost2010PropOp29
 70
     0
102
RTVSPost2010Prop30
280
     1
102
RTVSPost2010PropOp30
 70
     0
102
RTVSPost2010Prop31
280
     0
102
RTVSPost2010PropOp31
 70
     0
102
RTVSPost2010Prop32
280
     0
102
RTVSPost2010PropOp32
 70
     0
102
RTVSPost2010Prop33
280
     0
102
RTVSPost2010PropOp33
 70
     0
102
RTVSPost2010Prop34
280
     0
102
RTVSPost2010PropOp34
 70
     0
102
RTVSPost2010Prop35
280
     0
102
RTVSPost2010PropOp35
 70
     0
102
RTVSPost2010Prop36
280
     0
102
RTVSPost2010PropOp36
 70
     0
102
RTVSPost2010Prop37
 90
       50
102
RTVSPost2010PropOp37
 70
     0
102
RTVSPost2010Prop38
140
0.0
102
RTVSPost2010PropOp38
 70
     0
102
RTVSPost2010Prop39
140
1.0
102
RTVSPost2010PropOp39
 70
     0
102
RTVSPost2010Prop40
 90
        0
102
RTVSPost2010PropOp40
 70
     0
102
RTVSPost2010Prop41ColorIndex
 90
       18
102
RTVSPost2010Prop41ColorRGB
 90
        0
102
RTVSPost2010PropOp41
 70
     0
102
RTVSPost2010Prop42
 90
       50
102
RTVSPost2010PropOp42
 70
     0
102
RTVSPost2010Prop43
 90
        3
102
RTVSPost2010PropOp43
 70
     0
102
RTVSPost2010Prop44ColorIndex
 90
        5
102
RTVSPost2010Prop44ColorRGB
 90
      255
102
RTVSPost2010PropOp44
 70
     0
102
RTVSPost2010Prop45
280
     0
102
RTVSPost2010PropOp45
 70
     0
102
RTVSPost2010Prop46
 90
       50
102
RTVSPost2010PropOp46
 70
     0
102
RTVSPost2010Prop47
 90
       50
102
RTVSPost2010PropOp47
 70
     0
102
RTVSPost2010Prop48
 90
       50
102
RTVSPost2010PropOp48
 70
     0
102
RTVSPost2010Prop49
280
     0
102
RTVSPost2010PropOp49
 70
     0
102
RTVSPost2010Prop50
 90
       50
102
RTVSPost2010PropOp50
 70
     0
102
RTVSPost2010Prop51ColorIndex
 90
      256
102
RTVSPost2010Prop51ColorRGB
 90
-16777216
102
RTVSPost2010PropOp51
 70
     0
102
RTVSPost2010Prop52
140
1.0
102
RTVSPost2010PropOp52
 70
     0
102
RTVSPost2010Prop53
 90
        2
102
RTVSPost2010PropOp53
 70
     0
102
RTVSPost2010Prop54
  1
strokes_ogs.tif
102
RTVSPost2010PropOp54
 70
     0
102
RTVSPost2010Prop55
280
     0
102
RTVSPost2010PropOp55
 70
     0
102
RTVSPost2010Prop56
140
1.0
102
RTVSPost2010PropOp56
 70
     0
102
RTVSPost2010Prop57
140
1.0
102
RTVSPost2010PropOp57
 70
     0
  0
XRECORD
  5
41A
102
{ACAD_REACTORS
330
419
102
}
330
419
100
AcDbXrecord
280
     1
102
RTVSPropertyOp0
 70
     1
102
RTVSPropertyOp1
 70
     1
102
RTVSPropertyOp2
 70
     1
102
RTVSPropertyOp3
 70
     1
102
RTVSPropertyOp4
 70
     1
102
RTVSPropertyOp5
 70
     1
102
RTVSPropertyOp6
 70
     1
102
RTVSPropertyOp7
 70
     1
102
RTVSPropertyOp8
 70
     1
102
RTVSPropertyOp9
 70
     1
102
RTVSPropertyOp10
 70
     1
102
RTVSPropertyOp11
 70
     1
102
RTVSPropertyOp12
 70
     1
102
RTVSPropertyOp13
 70
     1
102
RTVSPropertyOp14
 70
     1
102
RTVSPropertyOp15
 70
     1
102
RTVSPropertyOp16
 70
     1
102
RTVSPropertyOp17
 70
     1
102
RTVSPropertyOp18
 70
     1
102
RTVSPropertyOp19
 70
     1
102
RTVSPropertyOp20
 70
     1
102
RTVSPropertyOp21
 70
     1
102
RTVSPropertyOp22
 70
     1
102
RTVSPropertyOp23
 70
     1
102
RTVSPropertyOp24
 70
     1
102
RTVSPropertyOp25
 70
     1
102
RTVSPropertyOp26
 70
     1
102
RTVSPropertyOp27
 70
     1
102
RTVSPropertyOp28
 70
     1
102
RTVSPropertyOp29
 70
     1
102
RTVSPropertyOp30
 70
     1
102
RTVSPropertyOp31
 70
     1
102
RTVSPropertyOp32
 70
     1
102
RTVSPropertyOp33
 70
     1
102
RTVSPropertyOp34
 70
     1
102
RTVSPropertyOp35
 70
     1
102
RTVSPropertyOp36
 70
     1
102
RTVSPropertyOp37
 70
     1
102
RTVSPropertyOp38
 70
     1
102
RTVSPropertyOp39
 70
     1
102
RTVSPropertyOp40
 70
     1
102
RTVSPropertyOp41
 70
     1
102
RTVSPropertyOp42
 70
     1
102
RTVSPropertyOp43
 70
     1
102
RTVSPropertyOp44
 70
     1
102
RTVSPropertyOp45
 70
     1
102
RTVSPropertyOp46
 70
     1
102
RTVSPropertyOp47
 70
     1
102
RTVSPropertyOp48
 70
     1
102
RTVSPropertyOp49
 70
     1
102
RTVSPropertyOp50
 70
     1
102
RTVSPropertyOp51
 70
     0
102
RTVSPropertyOp52
 70
     0
102
RTVSPropertyOp53
 70
     1
102
RTVSPropertyOp54
 70
     1
102
RTVSPropertyOp55
 70
     1
102
RTVSPropertyOp56
 70
     1
102
RTVSPropertyOp57
 70
     1
102
RTVSPost2010Prop28
280
     0
102
RTVSPost2010PropOp28
 70
     1
102
RTVSPost2010Prop29
280
     1
102
RTVSPost2010PropOp29
 70
     1
102
RTVSPost2010Prop30
280
     1
102
RTVSPost2010PropOp30
 70
     1
102
RTVSPost2010Prop31
280
     0
102
RTVSPost2010PropOp31
 70
     1
102
RTVSPost2010Prop32
280
     0
102
RTVSPost2010PropOp32
 70
     1
102
RTVSPost2010Prop33
280
     0
102
RTVSPost2010PropOp33
 70
     1
102
RTVSPost2010Prop34
280
     0
102
RTVSPost2010PropOp34
 70
     1
102
RTVSPost2010Prop35
280
     0
102
RTVSPost2010PropOp35
 70
     1
102
RTVSPost2010Prop36
280
     0
102
RTVSPost2010PropOp36
 70
     1
102
RTVSPost2010Prop37
 90
       50
102
RTVSPost2010PropOp37
 70
     1
102
RTVSPost2010Prop38
140
0.0
102
RTVSPost2010PropOp38
 70
     1
102
RTVSPost2010Prop39
140
1.0
102
RTVSPost2010PropOp39
 70
     1
102
RTVSPost2010Prop40
 90
        0
102
RTVSPost2010PropOp40
 70
     1
102
RTVSPost2010Prop41ColorIndex
 90
       18
102
RTVSPost2010Prop41ColorRGB
 90
        0
102
RTVSPost2010PropOp41
 70
     1
102
RTVSPost2010Prop42
 90
       50
102
RTVSPost2010PropOp42
 70
     1
102
RTVSPost2010Prop43
 90
        3
102
RTVSPost2010PropOp43
 70
     1
102
RTVSPost2010Prop44ColorIndex
 90
        5
102
RTVSPost2010Prop44ColorRGB
 90
      255
102
RTVSPost2010PropOp44
 70
     1
102
RTVSPost2010Prop45
280
     0
102
RTVSPost2010PropOp45
 70
     1
102
RTVSPost2010Prop46
 90
       50
102
RTVSPost2010PropOp46
 70
     1
102
RTVSPost2010Prop47
 90
       50
102
RTVSPost2010PropOp47
 70
     1
102
RTVSPost2010Prop48
 90
       50
102
RTVSPost2010PropOp48
 70
     1
102
RTVSPost2010Prop49
280
     0
102
RTVSPost2010PropOp49
 70
     1
102
RTVSPost2010Prop50
 90
       50
102
RTVSPost2010PropOp50
 70
     1
102
RTVSPost2010Prop51ColorIndex
 90
      256
102
RTVSPost2010Prop51ColorRGB
 90
-16777216
102
RTVSPost2010PropOp51
 70
     0
102
RTVSPost2010Prop52
140
1.0
102
RTVSPost2010PropOp52
 70
     0
102
RTVSPost2010Prop53
 90
        2
102
RTVSPost2010PropOp53
 70
     1
102
RTVSPost2010Prop54
  1
strokes_ogs.tif
102
RTVSPost2010PropOp54
 70
     1
102
RTVSPost2010Prop55
280
     0
102
RTVSPost2010PropOp55
 70
     1
102
RTVSPost2010Prop56
140
1.0
102
RTVSPost2010PropOp56
 70
     1
102
RTVSPost2010Prop57
140
1.0
102
RTVSPost2010PropOp57
 70
     1
  0
XRECORD
  5
3FE
102
{ACAD_REACTORS
330
3FD
102
}
330
3FD
100
AcDbXrecord
280
     1
102
RTVSPropertyOp0
 70
     1
102
RTVSPropertyOp1
 70
     1
102
RTVSPropertyOp2
 70
     1
102
RTVSPropertyOp3
 70
     1
102
RTVSPropertyOp4
 70
     1
102
RTVSPropertyOp5
 70
     1
102
RTVSPropertyOp6
 70
     1
102
RTVSPropertyOp7
 70
     1
102
RTVSPropertyOp8
 70
     1
102
RTVSPropertyOp9
 70
     1
102
RTVSPropertyOp10
 70
     1
102
RTVSPropertyOp11
 70
     1
102
RTVSPropertyOp12
 70
     1
102
RTVSPropertyOp13
 70
     1
102
RTVSPropertyOp14
 70
     1
102
RTVSPropertyOp15
 70
     1
102
RTVSPropertyOp16
 70
     1
102
RTVSPropertyOp17
 70
     1
102
RTVSPropertyOp18
 70
     1
102
RTVSPropertyOp19
 70
     1
102
RTVSPropertyOp20
 70
     1
102
RTVSPropertyOp21
 70
     1
102
RTVSPropertyOp22
 70
     1
102
RTVSPropertyOp23
 70
     1
102
RTVSPropertyOp24
 70
     1
102
RTVSPropertyOp25
 70
     1
102
RTVSPropertyOp26
 70
     1
102
RTVSPropertyOp27
 70
     1
102
RTVSPropertyOp28
 70
     1
102
RTVSPropertyOp29
 70
     1
102
RTVSPropertyOp30
 70
     1
102
RTVSPropertyOp31
 70
     1
102
RTVSPropertyOp32
 70
     1
102
RTVSPropertyOp33
 70
     1
102
RTVSPropertyOp34
 70
     1
102
RTVSPropertyOp35
 70
     1
102
RTVSPropertyOp36
 70
     1
102
RTVSPropertyOp37
 70
     1
102
RTVSPropertyOp38
 70
     1
102
RTVSPropertyOp39
 70
     1
102
RTVSPropertyOp40
 70
     1
102
RTVSPropertyOp41
 70
     1
102
RTVSPropertyOp42
 70
     1
102
RTVSPropertyOp43
 70
     1
102
RTVSPropertyOp44
 70
     1
102
RTVSPropertyOp45
 70
     1
102
RTVSPropertyOp46
 70
     1
102
RTVSPropertyOp47
 70
     1
102
RTVSPropertyOp48
 70
     1
102
RTVSPropertyOp49
 70
     1
102
RTVSPropertyOp50
 70
     1
102
RTVSPropertyOp51
 70
     0
102
RTVSPropertyOp52
 70
     0
102
RTVSPropertyOp53
 70
     1
102
RTVSPropertyOp54
 70
     1
102
RTVSPropertyOp55
 70
     1
102
RTVSPropertyOp56
 70
     1
102
RTVSPropertyOp57
 70
     1
102
RTVSPost2010Prop28
280
     0
102
RTVSPost2010PropOp28
 70
     1
102
RTVSPost2010Prop29
280
     1
102
RTVSPost2010PropOp29
 70
     1
102
RTVSPost2010Prop30
280
     1
102
RTVSPost2010PropOp30
 70
     1
102
RTVSPost2010Prop31
280
     0
102
RTVSPost2010PropOp31
 70
     1
102
RTVSPost2010Prop32
280
     0
102
RTVSPost2010PropOp32
 70
     1
102
RTVSPost2010Prop33
280
     0
102
RTVSPost2010PropOp33
 70
     1
102
RTVSPost2010Prop34
280
     0
102
RTVSPost2010PropOp34
 70
     1
102
RTVSPost2010Prop35
280
     0
102
RTVSPost2010PropOp35
 70
     1
102
RTVSPost2010Prop36
280
     0
102
RTVSPost2010PropOp36
 70
     1
102
RTVSPost2010Prop37
 90
       50
102
RTVSPost2010PropOp37
 70
     1
102
RTVSPost2010Prop38
140
0.0
102
RTVSPost2010PropOp38
 70
     1
102
RTVSPost2010Prop39
140
1.0
102
RTVSPost2010PropOp39
 70
     1
102
RTVSPost2010Prop40
 90
        0
102
RTVSPost2010PropOp40
 70
     1
102
RTVSPost2010Prop41ColorIndex
 90
       18
102
RTVSPost2010Prop41ColorRGB
 90
        0
102
RTVSPost2010PropOp41
 70
     1
102
RTVSPost2010Prop42
 90
       50
102
RTVSPost2010PropOp42
 70
     1
102
RTVSPost2010Prop43
 90
        3
102
RTVSPost2010PropOp43
 70
     1
102
RTVSPost2010Prop44ColorIndex
 90
        5
102
RTVSPost2010Prop44ColorRGB
 90
      255
102
RTVSPost2010PropOp44
 70
     1
102
RTVSPost2010Prop45
280
     0
102
RTVSPost2010PropOp45
 70
     1
102
RTVSPost2010Prop46
 90
       50
102
RTVSPost2010PropOp46
 70
     1
102
RTVSPost2010Prop47
 90
       50
102
RTVSPost2010PropOp47
 70
     1
102
RTVSPost2010Prop48
 90
       50
102
RTVSPost2010PropOp48
 70
     1
102
RTVSPost2010Prop49
280
     0
102
RTVSPost2010PropOp49
 70
     1
102
RTVSPost2010Prop50
 90
       50
102
RTVSPost2010PropOp50
 70
     1
102
RTVSPost2010Prop51ColorIndex
 90
      256
102
RTVSPost2010Prop51ColorRGB
 90
-16777216
102
RTVSPost2010PropOp51
 70
     0
102
RTVSPost2010Prop52
140
1.0
102
RTVSPost2010PropOp52
 70
     0
102
RTVSPost2010Prop53
 90
        2
102
RTVSPost2010PropOp53
 70
     1
102
RTVSPost2010Prop54
  1
strokes_ogs.tif
102
RTVSPost2010PropOp54
 70
     1
102
RTVSPost2010Prop55
280
     0
102
RTVSPost2010PropOp55
 70
     1
102
RTVSPost2010Prop56
140
1.0
102
RTVSPost2010PropOp56
 70
     1
102
RTVSPost2010Prop57
140
1.0
102
RTVSPost2010PropOp57
 70
     1
  0
XRECORD
  5
400
102
{ACAD_REACTORS
330
3FF
102
}
330
3FF
100
AcDbXrecord
280
     1
102
RTVSPropertyOp0
 70
     1
102
RTVSPropertyOp1
 70
     1
102
RTVSPropertyOp2
 70
     1
102
RTVSPropertyOp3
 70
     1
102
RTVSPropertyOp4
 70
     1
102
RTVSPropertyOp5
 70
     1
102
RTVSPropertyOp6
 70
     1
102
RTVSPropertyOp7
 70
     1
102
RTVSPropertyOp8
 70
     1
102
RTVSPropertyOp9
 70
     1
102
RTVSPropertyOp10
 70
     1
102
RTVSPropertyOp11
 70
     1
102
RTVSPropertyOp12
 70
     1
102
RTVSPropertyOp13
 70
     1
102
RTVSPropertyOp14
 70
     1
102
RTVSPropertyOp15
 70
     1
102
RTVSPropertyOp16
 70
     1
102
RTVSPropertyOp17
 70
     1
102
RTVSPropertyOp18
 70
     1
102
RTVSPropertyOp19
 70
     1
102
RTVSPropertyOp20
 70
     1
102
RTVSPropertyOp21
 70
     1
102
RTVSPropertyOp22
 70
     1
102
RTVSPropertyOp23
 70
     1
102
RTVSPropertyOp24
 70
     1
102
RTVSPropertyOp25
 70
     1
102
RTVSPropertyOp26
 70
     1
102
RTVSPropertyOp27
 70
     1
102
RTVSPropertyOp28
 70
     1
102
RTVSPropertyOp29
 70
     1
102
RTVSPropertyOp30
 70
     1
102
RTVSPropertyOp31
 70
     1
102
RTVSPropertyOp32
 70
     1
102
RTVSPropertyOp33
 70
     1
102
RTVSPropertyOp34
 70
     1
102
RTVSPropertyOp35
 70
     1
102
RTVSPropertyOp36
 70
     1
102
RTVSPropertyOp37
 70
     1
102
RTVSPropertyOp38
 70
     1
102
RTVSPropertyOp39
 70
     1
102
RTVSPropertyOp40
 70
     1
102
RTVSPropertyOp41
 70
     1
102
RTVSPropertyOp42
 70
     1
102
RTVSPropertyOp43
 70
     1
102
RTVSPropertyOp44
 70
     1
102
RTVSPropertyOp45
 70
     1
102
RTVSPropertyOp46
 70
     1
102
RTVSPropertyOp47
 70
     1
102
RTVSPropertyOp48
 70
     1
102
RTVSPropertyOp49
 70
     1
102
RTVSPropertyOp50
 70
     1
102
RTVSPropertyOp51
 70
     0
102
RTVSPropertyOp52
 70
     0
102
RTVSPropertyOp53
 70
     1
102
RTVSPropertyOp54
 70
     1
102
RTVSPropertyOp55
 70
     1
102
RTVSPropertyOp56
 70
     1
102
RTVSPropertyOp57
 70
     1
102
RTVSPost2010Prop28
280
     0
102
RTVSPost2010PropOp28
 70
     1
102
RTVSPost2010Prop29
280
     1
102
RTVSPost2010PropOp29
 70
     1
102
RTVSPost2010Prop30
280
     1
102
RTVSPost2010PropOp30
 70
     1
102
RTVSPost2010Prop31
280
     0
102
RTVSPost2010PropOp31
 70
     1
102
RTVSPost2010Prop32
280
     0
102
RTVSPost2010PropOp32
 70
     1
102
RTVSPost2010Prop33
280
     0
102
RTVSPost2010PropOp33
 70
     1
102
RTVSPost2010Prop34
280
     0
102
RTVSPost2010PropOp34
 70
     1
102
RTVSPost2010Prop35
280
     0
102
RTVSPost2010PropOp35
 70
     1
102
RTVSPost2010Prop36
280
     0
102
RTVSPost2010PropOp36
 70
     1
102
RTVSPost2010Prop37
 90
       50
102
RTVSPost2010PropOp37
 70
     1
102
RTVSPost2010Prop38
140
0.0
102
RTVSPost2010PropOp38
 70
     1
102
RTVSPost2010Prop39
140
1.0
102
RTVSPost2010PropOp39
 70
     1
102
RTVSPost2010Prop40
 90
        0
102
RTVSPost2010PropOp40
 70
     1
102
RTVSPost2010Prop41ColorIndex
 90
       18
102
RTVSPost2010Prop41ColorRGB
 90
        0
102
RTVSPost2010PropOp41
 70
     1
102
RTVSPost2010Prop42
 90
       50
102
RTVSPost2010PropOp42
 70
     1
102
RTVSPost2010Prop43
 90
        3
102
RTVSPost2010PropOp43
 70
     1
102
RTVSPost2010Prop44ColorIndex
 90
        5
102
RTVSPost2010Prop44ColorRGB
 90
      255
102
RTVSPost2010PropOp44
 70
     1
102
RTVSPost2010Prop45
280
     0
102
RTVSPost2010PropOp45
 70
     1
102
RTVSPost2010Prop46
 90
       50
102
RTVSPost2010PropOp46
 70
     1
102
RTVSPost2010Prop47
 90
       50
102
RTVSPost2010PropOp47
 70
     1
102
RTVSPost2010Prop48
 90
       50
102
RTVSPost2010PropOp48
 70
     1
102
RTVSPost2010Prop49
280
     0
102
RTVSPost2010PropOp49
 70
     1
102
RTVSPost2010Prop50
 90
       50
102
RTVSPost2010PropOp50
 70
     1
102
RTVSPost2010Prop51ColorIndex
 90
      256
102
RTVSPost2010Prop51ColorRGB
 90
-16777216
102
RTVSPost2010PropOp51
 70
     0
102
RTVSPost2010Prop52
140
1.0
102
RTVSPost2010PropOp52
 70
     0
102
RTVSPost2010Prop53
 90
        2
102
RTVSPost2010PropOp53
 70
     1
102
RTVSPost2010Prop54
  1
strokes_ogs.tif
102
RTVSPost2010PropOp54
 70
     1
102
RTVSPost2010Prop55
280
     0
102
RTVSPost2010PropOp55
 70
     1
102
RTVSPost2010Prop56
140
1.0
102
RTVSPost2010PropOp56
 70
     1
102
RTVSPost2010Prop57
140
1.0
102
RTVSPost2010PropOp57
 70
     1
  0
XRECORD
  5
402
102
{ACAD_REACTORS
330
401
102
}
330
401
100
AcDbXrecord
280
     1
102
RTVSPropertyOp0
 70
     1
102
RTVSPropertyOp1
 70
     1
102
RTVSPropertyOp2
 70
     1
102
RTVSPropertyOp3
 70
     1
102
RTVSPropertyOp4
 70
     1
102
RTVSPropertyOp5
 70
     1
102
RTVSPropertyOp6
 70
     1
102
RTVSPropertyOp7
 70
     1
102
RTVSPropertyOp8
 70
     1
102
RTVSPropertyOp9
 70
     1
102
RTVSPropertyOp10
 70
     1
102
RTVSPropertyOp11
 70
     1
102
RTVSPropertyOp12
 70
     1
102
RTVSPropertyOp13
 70
     1
102
RTVSPropertyOp14
 70
     1
102
RTVSPropertyOp15
 70
     1
102
RTVSPropertyOp16
 70
     1
102
RTVSPropertyOp17
 70
     1
102
RTVSPropertyOp18
 70
     1
102
RTVSPropertyOp19
 70
     1
102
RTVSPropertyOp20
 70
     1
102
RTVSPropertyOp21
 70
     1
102
RTVSPropertyOp22
 70
     1
102
RTVSPropertyOp23
 70
     1
102
RTVSPropertyOp24
 70
     1
102
RTVSPropertyOp25
 70
     1
102
RTVSPropertyOp26
 70
     1
102
RTVSPropertyOp27
 70
     1
102
RTVSPropertyOp28
 70
     1
102
RTVSPropertyOp29
 70
     1
102
RTVSPropertyOp30
 70
     1
102
RTVSPropertyOp31
 70
     1
102
RTVSPropertyOp32
 70
     1
102
RTVSPropertyOp33
 70
     1
102
RTVSPropertyOp34
 70
     1
102
RTVSPropertyOp35
 70
     1
102
RTVSPropertyOp36
 70
     1
102
RTVSPropertyOp37
 70
     1
102
RTVSPropertyOp38
 70
     1
102
RTVSPropertyOp39
 70
     1
102
RTVSPropertyOp40
 70
     1
102
RTVSPropertyOp41
 70
     1
102
RTVSPropertyOp42
 70
     1
102
RTVSPropertyOp43
 70
     1
102
RTVSPropertyOp44
 70
     1
102
RTVSPropertyOp45
 70
     1
102
RTVSPropertyOp46
 70
     1
102
RTVSPropertyOp47
 70
     1
102
RTVSPropertyOp48
 70
     1
102
RTVSPropertyOp49
 70
     1
102
RTVSPropertyOp50
 70
     1
102
RTVSPropertyOp51
 70
     0
102
RTVSPropertyOp52
 70
     0
102
RTVSPropertyOp53
 70
     1
102
RTVSPropertyOp54
 70
     1
102
RTVSPropertyOp55
 70
     1
102
RTVSPropertyOp56
 70
     1
102
RTVSPropertyOp57
 70
     1
102
RTVSPost2010Prop28
280
     0
102
RTVSPost2010PropOp28
 70
     1
102
RTVSPost2010Prop29
280
     1
102
RTVSPost2010PropOp29
 70
     1
102
RTVSPost2010Prop30
280
     1
102
RTVSPost2010PropOp30
 70
     1
102
RTVSPost2010Prop31
280
     0
102
RTVSPost2010PropOp31
 70
     1
102
RTVSPost2010Prop32
280
     0
102
RTVSPost2010PropOp32
 70
     1
102
RTVSPost2010Prop33
280
     0
102
RTVSPost2010PropOp33
 70
     1
102
RTVSPost2010Prop34
280
     0
102
RTVSPost2010PropOp34
 70
     1
102
RTVSPost2010Prop35
280
     0
102
RTVSPost2010PropOp35
 70
     1
102
RTVSPost2010Prop36
280
     0
102
RTVSPost2010PropOp36
 70
     1
102
RTVSPost2010Prop37
 90
       50
102
RTVSPost2010PropOp37
 70
     1
102
RTVSPost2010Prop38
140
0.0
102
RTVSPost2010PropOp38
 70
     1
102
RTVSPost2010Prop39
140
1.0
102
RTVSPost2010PropOp39
 70
     1
102
RTVSPost2010Prop40
 90
        0
102
RTVSPost2010PropOp40
 70
     1
102
RTVSPost2010Prop41ColorIndex
 90
       18
102
RTVSPost2010Prop41ColorRGB
 90
        0
102
RTVSPost2010PropOp41
 70
     1
102
RTVSPost2010Prop42
 90
       50
102
RTVSPost2010PropOp42
 70
     1
102
RTVSPost2010Prop43
 90
        3
102
RTVSPost2010PropOp43
 70
     1
102
RTVSPost2010Prop44ColorIndex
 90
        5
102
RTVSPost2010Prop44ColorRGB
 90
      255
102
RTVSPost2010PropOp44
 70
     1
102
RTVSPost2010Prop45
280
     0
102
RTVSPost2010PropOp45
 70
     1
102
RTVSPost2010Prop46
 90
       50
102
RTVSPost2010PropOp46
 70
     1
102
RTVSPost2010Prop47
 90
       50
102
RTVSPost2010PropOp47
 70
     1
102
RTVSPost2010Prop48
 90
       50
102
RTVSPost2010PropOp48
 70
     1
102
RTVSPost2010Prop49
280
     0
102
RTVSPost2010PropOp49
 70
     1
102
RTVSPost2010Prop50
 90
       50
102
RTVSPost2010PropOp50
 70
     1
102
RTVSPost2010Prop51ColorIndex
 90
      256
102
RTVSPost2010Prop51ColorRGB
 90
-16777216
102
RTVSPost2010PropOp51
 70
     0
102
RTVSPost2010Prop52
140
1.0
102
RTVSPost2010PropOp52
 70
     0
102
RTVSPost2010Prop53
 90
        2
102
RTVSPost2010PropOp53
 70
     1
102
RTVSPost2010Prop54
  1
strokes_ogs.tif
102
RTVSPost2010PropOp54
 70
     1
102
RTVSPost2010Prop55
280
     0
102
RTVSPost2010PropOp55
 70
     1
102
RTVSPost2010Prop56
140
1.0
102
RTVSPost2010PropOp56
 70
     1
102
RTVSPost2010Prop57
140
1.0
102
RTVSPost2010PropOp57
 70
     1
  0
XRECORD
  5
404
102
{ACAD_REACTORS
330
403
102
}
330
403
100
AcDbXrecord
280
     1
102
RTVSPropertyOp0
 70
     1
102
RTVSPropertyOp1
 70
     1
102
RTVSPropertyOp2
 70
     1
102
RTVSPropertyOp3
 70
     1
102
RTVSPropertyOp4
 70
     1
102
RTVSPropertyOp5
 70
     1
102
RTVSPropertyOp6
 70
     1
102
RTVSPropertyOp7
 70
     1
102
RTVSPropertyOp8
 70
     1
102
RTVSPropertyOp9
 70
     1
102
RTVSPropertyOp10
 70
     1
102
RTVSPropertyOp11
 70
     1
102
RTVSPropertyOp12
 70
     1
102
RTVSPropertyOp13
 70
     1
102
RTVSPropertyOp14
 70
     1
102
RTVSPropertyOp15
 70
     1
102
RTVSPropertyOp16
 70
     1
102
RTVSPropertyOp17
 70
     1
102
RTVSPropertyOp18
 70
     1
102
RTVSPropertyOp19
 70
     1
102
RTVSPropertyOp20
 70
     1
102
RTVSPropertyOp21
 70
     1
102
RTVSPropertyOp22
 70
     1
102
RTVSPropertyOp23
 70
     1
102
RTVSPropertyOp24
 70
     1
102
RTVSPropertyOp25
 70
     1
102
RTVSPropertyOp26
 70
     1
102
RTVSPropertyOp27
 70
     1
102
RTVSPropertyOp28
 70
     1
102
RTVSPropertyOp29
 70
     1
102
RTVSPropertyOp30
 70
     1
102
RTVSPropertyOp31
 70
     1
102
RTVSPropertyOp32
 70
     1
102
RTVSPropertyOp33
 70
     1
102
RTVSPropertyOp34
 70
     1
102
RTVSPropertyOp35
 70
     1
102
RTVSPropertyOp36
 70
     1
102
RTVSPropertyOp37
 70
     1
102
RTVSPropertyOp38
 70
     1
102
RTVSPropertyOp39
 70
     1
102
RTVSPropertyOp40
 70
     1
102
RTVSPropertyOp41
 70
     1
102
RTVSPropertyOp42
 70
     1
102
RTVSPropertyOp43
 70
     1
102
RTVSPropertyOp44
 70
     1
102
RTVSPropertyOp45
 70
     1
102
RTVSPropertyOp46
 70
     1
102
RTVSPropertyOp47
 70
     1
102
RTVSPropertyOp48
 70
     1
102
RTVSPropertyOp49
 70
     1
102
RTVSPropertyOp50
 70
     1
102
RTVSPropertyOp51
 70
     0
102
RTVSPropertyOp52
 70
     0
102
RTVSPropertyOp53
 70
     1
102
RTVSPropertyOp54
 70
     1
102
RTVSPropertyOp55
 70
     1
102
RTVSPropertyOp56
 70
     1
102
RTVSPropertyOp57
 70
     1
102
RTVSPost2010Prop28
280
     0
102
RTVSPost2010PropOp28
 70
     1
102
RTVSPost2010Prop29
280
     1
102
RTVSPost2010PropOp29
 70
     1
102
RTVSPost2010Prop30
280
     1
102
RTVSPost2010PropOp30
 70
     1
102
RTVSPost2010Prop31
280
     0
102
RTVSPost2010PropOp31
 70
     1
102
RTVSPost2010Prop32
280
     0
102
RTVSPost2010PropOp32
 70
     1
102
RTVSPost2010Prop33
280
     0
102
RTVSPost2010PropOp33
 70
     1
102
RTVSPost2010Prop34
280
     0
102
RTVSPost2010PropOp34
 70
     1
102
RTVSPost2010Prop35
280
     0
102
RTVSPost2010PropOp35
 70
     1
102
RTVSPost2010Prop36
280
     0
102
RTVSPost2010PropOp36
 70
     1
102
RTVSPost2010Prop37
 90
       50
102
RTVSPost2010PropOp37
 70
     1
102
RTVSPost2010Prop38
140
0.0
102
RTVSPost2010PropOp38
 70
     1
102
RTVSPost2010Prop39
140
1.0
102
RTVSPost2010PropOp39
 70
     1
102
RTVSPost2010Prop40
 90
        0
102
RTVSPost2010PropOp40
 70
     1
102
RTVSPost2010Prop41ColorIndex
 90
       18
102
RTVSPost2010Prop41ColorRGB
 90
        0
102
RTVSPost2010PropOp41
 70
     1
102
RTVSPost2010Prop42
 90
       50
102
RTVSPost2010PropOp42
 70
     1
102
RTVSPost2010Prop43
 90
        3
102
RTVSPost2010PropOp43
 70
     1
102
RTVSPost2010Prop44ColorIndex
 90
        5
102
RTVSPost2010Prop44ColorRGB
 90
      255
102
RTVSPost2010PropOp44
 70
     1
102
RTVSPost2010Prop45
280
     0
102
RTVSPost2010PropOp45
 70
     1
102
RTVSPost2010Prop46
 90
       50
102
RTVSPost2010PropOp46
 70
     1
102
RTVSPost2010Prop47
 90
       50
102
RTVSPost2010PropOp47
 70
     1
102
RTVSPost2010Prop48
 90
       50
102
RTVSPost2010PropOp48
 70
     1
102
RTVSPost2010Prop49
280
     0
102
RTVSPost2010PropOp49
 70
     1
102
RTVSPost2010Prop50
 90
       50
102
RTVSPost2010PropOp50
 70
     1
102
RTVSPost2010Prop51ColorIndex
 90
      256
102
RTVSPost2010Prop51ColorRGB
 90
-16777216
102
RTVSPost2010PropOp51
 70
     0
102
RTVSPost2010Prop52
140
1.0
102
RTVSPost2010PropOp52
 70
     0
102
RTVSPost2010Prop53
 90
        2
102
RTVSPost2010PropOp53
 70
     1
102
RTVSPost2010Prop54
  1
strokes_ogs.tif
102
RTVSPost2010PropOp54
 70
     1
102
RTVSPost2010Prop55
280
     0
102
RTVSPost2010PropOp55
 70
     1
102
RTVSPost2010Prop56
140
1.0
102
RTVSPost2010PropOp56
 70
     1
102
RTVSPost2010Prop57
140
1.0
102
RTVSPost2010PropOp57
 70
     1
  0
XRECORD
  5
40A
102
{ACAD_REACTORS
330
409
102
}
330
409
100
AcDbXrecord
280
     1
102
RTVSPropertyOp0
 70
     1
102
RTVSPropertyOp1
 70
     1
102
RTVSPropertyOp2
 70
     1
102
RTVSPropertyOp3
 70
     1
102
RTVSPropertyOp4
 70
     1
102
RTVSPropertyOp5
 70
     1
102
RTVSPropertyOp6
 70
     1
102
RTVSPropertyOp7
 70
     1
102
RTVSPropertyOp8
 70
     1
102
RTVSPropertyOp9
 70
     1
102
RTVSPropertyOp10
 70
     1
102
RTVSPropertyOp11
 70
     1
102
RTVSPropertyOp12
 70
     1
102
RTVSPropertyOp13
 70
     1
102
RTVSPropertyOp14
 70
     1
102
RTVSPropertyOp15
 70
     1
102
RTVSPropertyOp16
 70
     1
102
RTVSPropertyOp17
 70
     1
102
RTVSPropertyOp18
 70
     1
102
RTVSPropertyOp19
 70
     1
102
RTVSPropertyOp20
 70
     1
102
RTVSPropertyOp21
 70
     1
102
RTVSPropertyOp22
 70
     1
102
RTVSPropertyOp23
 70
     1
102
RTVSPropertyOp24
 70
     1
102
RTVSPropertyOp25
 70
     1
102
RTVSPropertyOp26
 70
     1
102
RTVSPropertyOp27
 70
     1
102
RTVSPropertyOp28
 70
     1
102
RTVSPropertyOp29
 70
     1
102
RTVSPropertyOp30
 70
     1
102
RTVSPropertyOp31
 70
     1
102
RTVSPropertyOp32
 70
     1
102
RTVSPropertyOp33
 70
     1
102
RTVSPropertyOp34
 70
     1
102
RTVSPropertyOp35
 70
     1
102
RTVSPropertyOp36
 70
     1
102
RTVSPropertyOp37
 70
     1
102
RTVSPropertyOp38
 70
     1
102
RTVSPropertyOp39
 70
     1
102
RTVSPropertyOp40
 70
     1
102
RTVSPropertyOp41
 70
     1
102
RTVSPropertyOp42
 70
     1
102
RTVSPropertyOp43
 70
     1
102
RTVSPropertyOp44
 70
     1
102
RTVSPropertyOp45
 70
     1
102
RTVSPropertyOp46
 70
     1
102
RTVSPropertyOp47
 70
     1
102
RTVSPropertyOp48
 70
     1
102
RTVSPropertyOp49
 70
     1
102
RTVSPropertyOp50
 70
     1
102
RTVSPropertyOp51
 70
     0
102
RTVSPropertyOp52
 70
     0
102
RTVSPropertyOp53
 70
     1
102
RTVSPropertyOp54
 70
     1
102
RTVSPropertyOp55
 70
     1
102
RTVSPropertyOp56
 70
     1
102
RTVSPropertyOp57
 70
     1
102
RTVSPost2010Prop28
280
     0
102
RTVSPost2010PropOp28
 70
     1
102
RTVSPost2010Prop29
280
     1
102
RTVSPost2010PropOp29
 70
     1
102
RTVSPost2010Prop30
280
     1
102
RTVSPost2010PropOp30
 70
     1
102
RTVSPost2010Prop31
280
     0
102
RTVSPost2010PropOp31
 70
     1
102
RTVSPost2010Prop32
280
     0
102
RTVSPost2010PropOp32
 70
     1
102
RTVSPost2010Prop33
280
     0
102
RTVSPost2010PropOp33
 70
     1
102
RTVSPost2010Prop34
280
     0
102
RTVSPost2010PropOp34
 70
     1
102
RTVSPost2010Prop35
280
     0
102
RTVSPost2010PropOp35
 70
     1
102
RTVSPost2010Prop36
280
     0
102
RTVSPost2010PropOp36
 70
     1
102
RTVSPost2010Prop37
 90
       50
102
RTVSPost2010PropOp37
 70
     1
102
RTVSPost2010Prop38
140
0.0
102
RTVSPost2010PropOp38
 70
     1
102
RTVSPost2010Prop39
140
1.0
102
RTVSPost2010PropOp39
 70
     1
102
RTVSPost2010Prop40
 90
        0
102
RTVSPost2010PropOp40
 70
     1
102
RTVSPost2010Prop41ColorIndex
 90
       18
102
RTVSPost2010Prop41ColorRGB
 90
        0
102
RTVSPost2010PropOp41
 70
     1
102
RTVSPost2010Prop42
 90
       50
102
RTVSPost2010PropOp42
 70
     1
102
RTVSPost2010Prop43
 90
        3
102
RTVSPost2010PropOp43
 70
     1
102
RTVSPost2010Prop44ColorIndex
 90
        5
102
RTVSPost2010Prop44ColorRGB
 90
      255
102
RTVSPost2010PropOp44
 70
     1
102
RTVSPost2010Prop45
280
     0
102
RTVSPost2010PropOp45
 70
     1
102
RTVSPost2010Prop46
 90
       50
102
RTVSPost2010PropOp46
 70
     1
102
RTVSPost2010Prop47
 90
       50
102
RTVSPost2010PropOp47
 70
     1
102
RTVSPost2010Prop48
 90
       50
102
RTVSPost2010PropOp48
 70
     1
102
RTVSPost2010Prop49
280
     0
102
RTVSPost2010PropOp49
 70
     1
102
RTVSPost2010Prop50
 90
       50
102
RTVSPost2010PropOp50
 70
     1
102
RTVSPost2010Prop51ColorIndex
 90
      256
102
RTVSPost2010Prop51ColorRGB
 90
-16777216
102
RTVSPost2010PropOp51
 70
     0
102
RTVSPost2010Prop52
140
1.0
102
RTVSPost2010PropOp52
 70
     0
102
RTVSPost2010Prop53
 90
        2
102
RTVSPost2010PropOp53
 70
     1
102
RTVSPost2010Prop54
  1
strokes_ogs.tif
102
RTVSPost2010PropOp54
 70
     1
102
RTVSPost2010Prop55
280
     0
102
RTVSPost2010PropOp55
 70
     1
102
RTVSPost2010Prop56
140
1.0
102
RTVSPost2010PropOp56
 70
     1
102
RTVSPost2010Prop57
140
1.0
102
RTVSPost2010PropOp57
 70
     1
  0
XRECORD
  5
41E
102
{ACAD_REACTORS
330
41D
102
}
330
41D
100
AcDbXrecord
280
     1
102
RTVSPropertyOp0
 70
     0
102
RTVSPropertyOp1
 70
     0
102
RTVSPropertyOp2
 70
     0
102
RTVSPropertyOp3
 70
     0
102
RTVSPropertyOp4
 70
     0
102
RTVSPropertyOp5
 70
     0
102
RTVSPropertyOp6
 70
     0
102
RTVSPropertyOp7
 70
     0
102
RTVSPropertyOp8
 70
     0
102
RTVSPropertyOp9
 70
     0
102
RTVSPropertyOp10
 70
     0
102
RTVSPropertyOp11
 70
     0
102
RTVSPropertyOp12
 70
     0
102
RTVSPropertyOp13
 70
     0
102
RTVSPropertyOp14
 70
     2
102
RTVSPropertyOp15
 70
     0
102
RTVSPropertyOp16
 70
     0
102
RTVSPropertyOp17
 70
     0
102
RTVSPropertyOp18
 70
     0
102
RTVSPropertyOp19
 70
     0
102
RTVSPropertyOp20
 70
     0
102
RTVSPropertyOp21
 70
     0
102
RTVSPropertyOp22
 70
     0
102
RTVSPropertyOp23
 70
     0
102
RTVSPropertyOp24
 70
     0
102
RTVSPropertyOp25
 70
     0
102
RTVSPropertyOp26
 70
     0
102
RTVSPropertyOp27
 70
     0
102
RTVSPropertyOp28
 70
     0
102
RTVSPropertyOp29
 70
     0
102
RTVSPropertyOp30
 70
     0
102
RTVSPropertyOp31
 70
     0
102
RTVSPropertyOp32
 70
     0
102
RTVSPropertyOp33
 70
     0
102
RTVSPropertyOp34
 70
     0
102
RTVSPropertyOp35
 70
     0
102
RTVSPropertyOp36
 70
     0
102
RTVSPropertyOp37
 70
     0
102
RTVSPropertyOp38
 70
     0
102
RTVSPropertyOp39
 70
     0
102
RTVSPropertyOp40
 70
     0
102
RTVSPropertyOp41
 70
     0
102
RTVSPropertyOp42
 70
     0
102
RTVSPropertyOp43
 70
     0
102
RTVSPropertyOp44
 70
     0
102
RTVSPropertyOp45
 70
     0
102
RTVSPropertyOp46
 70
     0
102
RTVSPropertyOp47
 70
     0
102
RTVSPropertyOp48
 70
     0
102
RTVSPropertyOp49
 70
     0
102
RTVSPropertyOp50
 70
     0
102
RTVSPropertyOp51
 70
     0
102
RTVSPropertyOp52
 70
     0
102
RTVSPropertyOp53
 70
     0
102
RTVSPropertyOp54
 70
     0
102
RTVSPropertyOp55
 70
     0
102
RTVSPropertyOp56
 70
     0
102
RTVSPropertyOp57
 70
     0
102
RTVSPost2010Prop28
280
     0
102
RTVSPost2010PropOp28
 70
     0
102
RTVSPost2010Prop29
280
     1
102
RTVSPost2010PropOp29
 70
     0
102
RTVSPost2010Prop30
280
     1
102
RTVSPost2010PropOp30
 70
     0
102
RTVSPost2010Prop31
280
     0
102
RTVSPost2010PropOp31
 70
     0
102
RTVSPost2010Prop32
280
     0
102
RTVSPost2010PropOp32
 70
     0
102
RTVSPost2010Prop33
280
     0
102
RTVSPost2010PropOp33
 70
     0
102
RTVSPost2010Prop34
280
     0
102
RTVSPost2010PropOp34
 70
     0
102
RTVSPost2010Prop35
280
     0
102
RTVSPost2010PropOp35
 70
     0
102
RTVSPost2010Prop36
280
     0
102
RTVSPost2010PropOp36
 70
     0
102
RTVSPost2010Prop37
 90
       50
102
RTVSPost2010PropOp37
 70
     0
102
RTVSPost2010Prop38
140
0.0
102
RTVSPost2010PropOp38
 70
     0
102
RTVSPost2010Prop39
140
1.0
102
RTVSPost2010PropOp39
 70
     0
102
RTVSPost2010Prop40
 90
        0
102
RTVSPost2010PropOp40
 70
     0
102
RTVSPost2010Prop41ColorIndex
 90
       18
102
RTVSPost2010Prop41ColorRGB
 90
        0
102
RTVSPost2010PropOp41
 70
     0
102
RTVSPost2010Prop42
 90
       50
102
RTVSPost2010PropOp42
 70
     0
102
RTVSPost2010Prop43
 90
        3
102
RTVSPost2010PropOp43
 70
     0
102
RTVSPost2010Prop44ColorIndex
 90
        5
102
RTVSPost2010Prop44ColorRGB
 90
      255
102
RTVSPost2010PropOp44
 70
     0
102
RTVSPost2010Prop45
280
     0
102
RTVSPost2010PropOp45
 70
     0
102
RTVSPost2010Prop46
 90
       50
102
RTVSPost2010PropOp46
 70
     0
102
RTVSPost2010Prop47
 90
       50
102
RTVSPost2010PropOp47
 70
     0
102
RTVSPost2010Prop48
 90
       50
102
RTVSPost2010PropOp48
 70
     0
102
RTVSPost2010Prop49
280
     0
102
RTVSPost2010PropOp49
 70
     0
102
RTVSPost2010Prop50
 90
       50
102
RTVSPost2010PropOp50
 70
     0
102
RTVSPost2010Prop51ColorIndex
 90
      256
102
RTVSPost2010Prop51ColorRGB
 90
-16777216
102
RTVSPost2010PropOp51
 70
     0
102
RTVSPost2010Prop52
140
1.0
102
RTVSPost2010PropOp52
 70
     0
102
RTVSPost2010Prop53
 90
        2
102
RTVSPost2010PropOp53
 70
     0
102
RTVSPost2010Prop54
  1
strokes_ogs.tif
102
RTVSPost2010PropOp54
 70
     0
102
RTVSPost2010Prop55
280
     0
102
RTVSPost2010PropOp55
 70
     0
102
RTVSPost2010Prop56
140
1.0
102
RTVSPost2010PropOp56
 70
     0
102
RTVSPost2010Prop57
140
1.0
102
RTVSPost2010PropOp57
 70
     0
  0
XRECORD
  5
418
102
{ACAD_REACTORS
330
417
102
}
330
417
100
AcDbXrecord
280
     1
102
RTVSPropertyOp0
 70
     1
102
RTVSPropertyOp1
 70
     1
102
RTVSPropertyOp2
 70
     1
102
RTVSPropertyOp3
 70
     1
102
RTVSPropertyOp4
 70
     1
102
RTVSPropertyOp5
 70
     1
102
RTVSPropertyOp6
 70
     1
102
RTVSPropertyOp7
 70
     1
102
RTVSPropertyOp8
 70
     1
102
RTVSPropertyOp9
 70
     1
102
RTVSPropertyOp10
 70
     1
102
RTVSPropertyOp11
 70
     1
102
RTVSPropertyOp12
 70
     1
102
RTVSPropertyOp13
 70
     1
102
RTVSPropertyOp14
 70
     1
102
RTVSPropertyOp15
 70
     1
102
RTVSPropertyOp16
 70
     1
102
RTVSPropertyOp17
 70
     1
102
RTVSPropertyOp18
 70
     1
102
RTVSPropertyOp19
 70
     1
102
RTVSPropertyOp20
 70
     1
102
RTVSPropertyOp21
 70
     1
102
RTVSPropertyOp22
 70
     1
102
RTVSPropertyOp23
 70
     1
102
RTVSPropertyOp24
 70
     1
102
RTVSPropertyOp25
 70
     1
102
RTVSPropertyOp26
 70
     1
102
RTVSPropertyOp27
 70
     1
102
RTVSPropertyOp28
 70
     1
102
RTVSPropertyOp29
 70
     1
102
RTVSPropertyOp30
 70
     1
102
RTVSPropertyOp31
 70
     1
102
RTVSPropertyOp32
 70
     1
102
RTVSPropertyOp33
 70
     1
102
RTVSPropertyOp34
 70
     1
102
RTVSPropertyOp35
 70
     1
102
RTVSPropertyOp36
 70
     1
102
RTVSPropertyOp37
 70
     1
102
RTVSPropertyOp38
 70
     1
102
RTVSPropertyOp39
 70
     1
102
RTVSPropertyOp40
 70
     1
102
RTVSPropertyOp41
 70
     1
102
RTVSPropertyOp42
 70
     1
102
RTVSPropertyOp43
 70
     1
102
RTVSPropertyOp44
 70
     1
102
RTVSPropertyOp45
 70
     1
102
RTVSPropertyOp46
 70
     1
102
RTVSPropertyOp47
 70
     1
102
RTVSPropertyOp48
 70
     1
102
RTVSPropertyOp49
 70
     1
102
RTVSPropertyOp50
 70
     1
102
RTVSPropertyOp51
 70
     0
102
RTVSPropertyOp52
 70
     0
102
RTVSPropertyOp53
 70
     1
102
RTVSPropertyOp54
 70
     1
102
RTVSPropertyOp55
 70
     1
102
RTVSPropertyOp56
 70
     1
102
RTVSPropertyOp57
 70
     1
102
RTVSPost2010Prop28
280
     0
102
RTVSPost2010PropOp28
 70
     1
102
RTVSPost2010Prop29
280
     1
102
RTVSPost2010PropOp29
 70
     1
102
RTVSPost2010Prop30
280
     1
102
RTVSPost2010PropOp30
 70
     1
102
RTVSPost2010Prop31
280
     0
102
RTVSPost2010PropOp31
 70
     1
102
RTVSPost2010Prop32
280
     0
102
RTVSPost2010PropOp32
 70
     1
102
RTVSPost2010Prop33
280
     0
102
RTVSPost2010PropOp33
 70
     1
102
RTVSPost2010Prop34
280
     0
102
RTVSPost2010PropOp34
 70
     1
102
RTVSPost2010Prop35
280
     0
102
RTVSPost2010PropOp35
 70
     1
102
RTVSPost2010Prop36
280
     0
102
RTVSPost2010PropOp36
 70
     1
102
RTVSPost2010Prop37
 90
       50
102
RTVSPost2010PropOp37
 70
     1
102
RTVSPost2010Prop38
140
0.0
102
RTVSPost2010PropOp38
 70
     1
102
RTVSPost2010Prop39
140
1.0
102
RTVSPost2010PropOp39
 70
     1
102
RTVSPost2010Prop40
 90
        0
102
RTVSPost2010PropOp40
 70
     1
102
RTVSPost2010Prop41ColorIndex
 90
       18
102
RTVSPost2010Prop41ColorRGB
 90
        0
102
RTVSPost2010PropOp41
 70
     1
102
RTVSPost2010Prop42
 90
       50
102
RTVSPost2010PropOp42
 70
     1
102
RTVSPost2010Prop43
 90
        3
102
RTVSPost2010PropOp43
 70
     1
102
RTVSPost2010Prop44ColorIndex
 90
        5
102
RTVSPost2010Prop44ColorRGB
 90
      255
102
RTVSPost2010PropOp44
 70
     1
102
RTVSPost2010Prop45
280
     0
102
RTVSPost2010PropOp45
 70
     1
102
RTVSPost2010Prop46
 90
       50
102
RTVSPost2010PropOp46
 70
     1
102
RTVSPost2010Prop47
 90
       50
102
RTVSPost2010PropOp47
 70
     1
102
RTVSPost2010Prop48
 90
       50
102
RTVSPost2010PropOp48
 70
     1
102
RTVSPost2010Prop49
280
     0
102
RTVSPost2010PropOp49
 70
     1
102
RTVSPost2010Prop50
 90
       50
102
RTVSPost2010PropOp50
 70
     1
102
RTVSPost2010Prop51ColorIndex
 90
      256
102
RTVSPost2010Prop51ColorRGB
 90
-16777216
102
RTVSPost2010PropOp51
 70
     0
102
RTVSPost2010Prop52
140
1.0
102
RTVSPost2010PropOp52
 70
     0
102
RTVSPost2010Prop53
 90
        2
102
RTVSPost2010PropOp53
 70
     1
102
RTVSPost2010Prop54
  1
strokes_ogs.tif
102
RTVSPost2010PropOp54
 70
     1
102
RTVSPost2010Prop55
280
     0
102
RTVSPost2010PropOp55
 70
     1
102
RTVSPost2010Prop56
140
1.0
102
RTVSPost2010PropOp56
 70
     1
102
RTVSPost2010Prop57
140
1.0
102
RTVSPost2010PropOp57
 70
     1
  0
XRECORD
  5
420
102
{ACAD_REACTORS
330
41F
102
}
330
41F
100
AcDbXrecord
280
     1
102
RTVSPropertyOp0
 70
     0
102
RTVSPropertyOp1
 70
     0
102
RTVSPropertyOp2
 70
     0
102
RTVSPropertyOp3
 70
     0
102
RTVSPropertyOp4
 70
     0
102
RTVSPropertyOp5
 70
     0
102
RTVSPropertyOp6
 70
     0
102
RTVSPropertyOp7
 70
     0
102
RTVSPropertyOp8
 70
     0
102
RTVSPropertyOp9
 70
     0
102
RTVSPropertyOp10
 70
     0
102
RTVSPropertyOp11
 70
     0
102
RTVSPropertyOp12
 70
     0
102
RTVSPropertyOp13
 70
     0
102
RTVSPropertyOp14
 70
     2
102
RTVSPropertyOp15
 70
     0
102
RTVSPropertyOp16
 70
     0
102
RTVSPropertyOp17
 70
     0
102
RTVSPropertyOp18
 70
     0
102
RTVSPropertyOp19
 70
     0
102
RTVSPropertyOp20
 70
     0
102
RTVSPropertyOp21
 70
     0
102
RTVSPropertyOp22
 70
     0
102
RTVSPropertyOp23
 70
     0
102
RTVSPropertyOp24
 70
     0
102
RTVSPropertyOp25
 70
     0
102
RTVSPropertyOp26
 70
     0
102
RTVSPropertyOp27
 70
     0
102
RTVSPropertyOp28
 70
     0
102
RTVSPropertyOp29
 70
     0
102
RTVSPropertyOp30
 70
     0
102
RTVSPropertyOp31
 70
     0
102
RTVSPropertyOp32
 70
     0
102
RTVSPropertyOp33
 70
     0
102
RTVSPropertyOp34
 70
     0
102
RTVSPropertyOp35
 70
     0
102
RTVSPropertyOp36
 70
     0
102
RTVSPropertyOp37
 70
     0
102
RTVSPropertyOp38
 70
     0
102
RTVSPropertyOp39
 70
     0
102
RTVSPropertyOp40
 70
     0
102
RTVSPropertyOp41
 70
     0
102
RTVSPropertyOp42
 70
     0
102
RTVSPropertyOp43
 70
     0
102
RTVSPropertyOp44
 70
     0
102
RTVSPropertyOp45
 70
     0
102
RTVSPropertyOp46
 70
     0
102
RTVSPropertyOp47
 70
     0
102
RTVSPropertyOp48
 70
     0
102
RTVSPropertyOp49
 70
     0
102
RTVSPropertyOp50
 70
     0
102
RTVSPropertyOp51
 70
     0
102
RTVSPropertyOp52
 70
     0
102
RTVSPropertyOp53
 70
     0
102
RTVSPropertyOp54
 70
     0
102
RTVSPropertyOp55
 70
     0
102
RTVSPropertyOp56
 70
     0
102
RTVSPropertyOp57
 70
     0
102
RTVSPost2010Prop28
280
     0
102
RTVSPost2010PropOp28
 70
     0
102
RTVSPost2010Prop29
280
     1
102
RTVSPost2010PropOp29
 70
     0
102
RTVSPost2010Prop30
280
     1
102
RTVSPost2010PropOp30
 70
     0
102
RTVSPost2010Prop31
280
     0
102
RTVSPost2010PropOp31
 70
     0
102
RTVSPost2010Prop32
280
     0
102
RTVSPost2010PropOp32
 70
     0
102
RTVSPost2010Prop33
280
     0
102
RTVSPost2010PropOp33
 70
     0
102
RTVSPost2010Prop34
280
     0
102
RTVSPost2010PropOp34
 70
     0
102
RTVSPost2010Prop35
280
     0
102
RTVSPost2010PropOp35
 70
     0
102
RTVSPost2010Prop36
280
     0
102
RTVSPost2010PropOp36
 70
     0
102
RTVSPost2010Prop37
 90
       50
102
RTVSPost2010PropOp37
 70
     0
102
RTVSPost2010Prop38
140
0.0
102
RTVSPost2010PropOp38
 70
     0
102
RTVSPost2010Prop39
140
1.0
102
RTVSPost2010PropOp39
 70
     0
102
RTVSPost2010Prop40
 90
        0
102
RTVSPost2010PropOp40
 70
     0
102
RTVSPost2010Prop41ColorIndex
 90
       18
102
RTVSPost2010Prop41ColorRGB
 90
        0
102
RTVSPost2010PropOp41
 70
     0
102
RTVSPost2010Prop42
 90
       50
102
RTVSPost2010PropOp42
 70
     0
102
RTVSPost2010Prop43
 90
        3
102
RTVSPost2010PropOp43
 70
     0
102
RTVSPost2010Prop44ColorIndex
 90
        5
102
RTVSPost2010Prop44ColorRGB
 90
      255
102
RTVSPost2010PropOp44
 70
     0
102
RTVSPost2010Prop45
280
     0
102
RTVSPost2010PropOp45
 70
     0
102
RTVSPost2010Prop46
 90
       50
102
RTVSPost2010PropOp46
 70
     0
102
RTVSPost2010Prop47
 90
       50
102
RTVSPost2010PropOp47
 70
     0
102
RTVSPost2010Prop48
 90
       50
102
RTVSPost2010PropOp48
 70
     0
102
RTVSPost2010Prop49
280
     0
102
RTVSPost2010PropOp49
 70
     0
102
RTVSPost2010Prop50
 90
       50
102
RTVSPost2010PropOp50
 70
     0
102
RTVSPost2010Prop51ColorIndex
 90
      256
102
RTVSPost2010Prop51ColorRGB
 90
-16777216
102
RTVSPost2010PropOp51
 70
     0
102
RTVSPost2010Prop52
140
1.0
102
RTVSPost2010PropOp52
 70
     0
102
RTVSPost2010Prop53
 90
        2
102
RTVSPost2010PropOp53
 70
     0
102
RTVSPost2010Prop54
  1
strokes_ogs.tif
102
RTVSPost2010PropOp54
 70
     0
102
RTVSPost2010Prop55
280
     0
102
RTVSPost2010PropOp55
 70
     0
102
RTVSPost2010Prop56
140
1.0
102
RTVSPost2010PropOp56
 70
     0
102
RTVSPost2010Prop57
140
1.0
102
RTVSPost2010PropOp57
 70
     0
  0
XRECORD
  5
40E
102
{ACAD_REACTORS
330
40D
102
}
330
40D
100
AcDbXrecord
280
     1
102
RTVSPropertyOp0
 70
     1
102
RTVSPropertyOp1
 70
     1
102
RTVSPropertyOp2
 70
     1
102
RTVSPropertyOp3
 70
     1
102
RTVSPropertyOp4
 70
     1
102
RTVSPropertyOp5
 70
     1
102
RTVSPropertyOp6
 70
     1
102
RTVSPropertyOp7
 70
     1
102
RTVSPropertyOp8
 70
     1
102
RTVSPropertyOp9
 70
     1
102
RTVSPropertyOp10
 70
     1
102
RTVSPropertyOp11
 70
     1
102
RTVSPropertyOp12
 70
     1
102
RTVSPropertyOp13
 70
     1
102
RTVSPropertyOp14
 70
     1
102
RTVSPropertyOp15
 70
     1
102
RTVSPropertyOp16
 70
     1
102
RTVSPropertyOp17
 70
     1
102
RTVSPropertyOp18
 70
     1
102
RTVSPropertyOp19
 70
     1
102
RTVSPropertyOp20
 70
     1
102
RTVSPropertyOp21
 70
     1
102
RTVSPropertyOp22
 70
     1
102
RTVSPropertyOp23
 70
     1
102
RTVSPropertyOp24
 70
     1
102
RTVSPropertyOp25
 70
     1
102
RTVSPropertyOp26
 70
     1
102
RTVSPropertyOp27
 70
     1
102
RTVSPropertyOp28
 70
     1
102
RTVSPropertyOp29
 70
     1
102
RTVSPropertyOp30
 70
     1
102
RTVSPropertyOp31
 70
     1
102
RTVSPropertyOp32
 70
     1
102
RTVSPropertyOp33
 70
     1
102
RTVSPropertyOp34
 70
     1
102
RTVSPropertyOp35
 70
     1
102
RTVSPropertyOp36
 70
     1
102
RTVSPropertyOp37
 70
     1
102
RTVSPropertyOp38
 70
     1
102
RTVSPropertyOp39
 70
     1
102
RTVSPropertyOp40
 70
     1
102
RTVSPropertyOp41
 70
     1
102
RTVSPropertyOp42
 70
     1
102
RTVSPropertyOp43
 70
     1
102
RTVSPropertyOp44
 70
     1
102
RTVSPropertyOp45
 70
     1
102
RTVSPropertyOp46
 70
     1
102
RTVSPropertyOp47
 70
     1
102
RTVSPropertyOp48
 70
     1
102
RTVSPropertyOp49
 70
     1
102
RTVSPropertyOp50
 70
     1
102
RTVSPropertyOp51
 70
     0
102
RTVSPropertyOp52
 70
     0
102
RTVSPropertyOp53
 70
     1
102
RTVSPropertyOp54
 70
     1
102
RTVSPropertyOp55
 70
     1
102
RTVSPropertyOp56
 70
     1
102
RTVSPropertyOp57
 70
     1
102
RTVSPost2010Prop28
280
     0
102
RTVSPost2010PropOp28
 70
     1
102
RTVSPost2010Prop29
280
     1
102
RTVSPost2010PropOp29
 70
     1
102
RTVSPost2010Prop30
280
     1
102
RTVSPost2010PropOp30
 70
     1
102
RTVSPost2010Prop31
280
     0
102
RTVSPost2010PropOp31
 70
     1
102
RTVSPost2010Prop32
280
     0
102
RTVSPost2010PropOp32
 70
     1
102
RTVSPost2010Prop33
280
     0
102
RTVSPost2010PropOp33
 70
     1
102
RTVSPost2010Prop34
280
     0
102
RTVSPost2010PropOp34
 70
     1
102
RTVSPost2010Prop35
280
     0
102
RTVSPost2010PropOp35
 70
     1
102
RTVSPost2010Prop36
280
     0
102
RTVSPost2010PropOp36
 70
     1
102
RTVSPost2010Prop37
 90
       50
102
RTVSPost2010PropOp37
 70
     1
102
RTVSPost2010Prop38
140
0.0
102
RTVSPost2010PropOp38
 70
     1
102
RTVSPost2010Prop39
140
1.0
102
RTVSPost2010PropOp39
 70
     1
102
RTVSPost2010Prop40
 90
        0
102
RTVSPost2010PropOp40
 70
     1
102
RTVSPost2010Prop41ColorIndex
 90
       18
102
RTVSPost2010Prop41ColorRGB
 90
        0
102
RTVSPost2010PropOp41
 70
     1
102
RTVSPost2010Prop42
 90
       50
102
RTVSPost2010PropOp42
 70
     1
102
RTVSPost2010Prop43
 90
        3
102
RTVSPost2010PropOp43
 70
     1
102
RTVSPost2010Prop44ColorIndex
 90
        5
102
RTVSPost2010Prop44ColorRGB
 90
      255
102
RTVSPost2010PropOp44
 70
     1
102
RTVSPost2010Prop45
280
     0
102
RTVSPost2010PropOp45
 70
     1
102
RTVSPost2010Prop46
 90
       50
102
RTVSPost2010PropOp46
 70
     1
102
RTVSPost2010Prop47
 90
       50
102
RTVSPost2010PropOp47
 70
     1
102
RTVSPost2010Prop48
 90
       50
102
RTVSPost2010PropOp48
 70
     1
102
RTVSPost2010Prop49
280
     0
102
RTVSPost2010PropOp49
 70
     1
102
RTVSPost2010Prop50
 90
       50
102
RTVSPost2010PropOp50
 70
     1
102
RTVSPost2010Prop51ColorIndex
 90
      256
102
RTVSPost2010Prop51ColorRGB
 90
-16777216
102
RTVSPost2010PropOp51
 70
     0
102
RTVSPost2010Prop52
140
1.0
102
RTVSPost2010PropOp52
 70
     0
102
RTVSPost2010Prop53
 90
        2
102
RTVSPost2010PropOp53
 70
     1
102
RTVSPost2010Prop54
  1
strokes_ogs.tif
102
RTVSPost2010PropOp54
 70
     1
102
RTVSPost2010Prop55
280
     0
102
RTVSPost2010PropOp55
 70
     1
102
RTVSPost2010Prop56
140
1.0
102
RTVSPost2010PropOp56
 70
     1
102
RTVSPost2010Prop57
140
1.0
102
RTVSPost2010PropOp57
 70
     1
  0
XRECORD
  5
42C
102
{ACAD_REACTORS
330
42B
102
}
330
42B
100
AcDbXrecord
280
     1
102
RTVSPropertyOp0
 70
     1
102
RTVSPropertyOp1
 70
     1
102
RTVSPropertyOp2
 70
     1
102
RTVSPropertyOp3
 70
     1
102
RTVSPropertyOp4
 70
     1
102
RTVSPropertyOp5
 70
     1
102
RTVSPropertyOp6
 70
     1
102
RTVSPropertyOp7
 70
     1
102
RTVSPropertyOp8
 70
     1
102
RTVSPropertyOp9
 70
     1
102
RTVSPropertyOp10
 70
     1
102
RTVSPropertyOp11
 70
     1
102
RTVSPropertyOp12
 70
     1
102
RTVSPropertyOp13
 70
     1
102
RTVSPropertyOp14
 70
     1
102
RTVSPropertyOp15
 70
     1
102
RTVSPropertyOp16
 70
     1
102
RTVSPropertyOp17
 70
     1
102
RTVSPropertyOp18
 70
     1
102
RTVSPropertyOp19
 70
     1
102
RTVSPropertyOp20
 70
     1
102
RTVSPropertyOp21
 70
     1
102
RTVSPropertyOp22
 70
     1
102
RTVSPropertyOp23
 70
     1
102
RTVSPropertyOp24
 70
     1
102
RTVSPropertyOp25
 70
     1
102
RTVSPropertyOp26
 70
     1
102
RTVSPropertyOp27
 70
     1
102
RTVSPropertyOp28
 70
     1
102
RTVSPropertyOp29
 70
     1
102
RTVSPropertyOp30
 70
     1
102
RTVSPropertyOp31
 70
     1
102
RTVSPropertyOp32
 70
     1
102
RTVSPropertyOp33
 70
     1
102
RTVSPropertyOp34
 70
     1
102
RTVSPropertyOp35
 70
     1
102
RTVSPropertyOp36
 70
     1
102
RTVSPropertyOp37
 70
     1
102
RTVSPropertyOp38
 70
     1
102
RTVSPropertyOp39
 70
     1
102
RTVSPropertyOp40
 70
     1
102
RTVSPropertyOp41
 70
     1
102
RTVSPropertyOp42
 70
     1
102
RTVSPropertyOp43
 70
     1
102
RTVSPropertyOp44
 70
     1
102
RTVSPropertyOp45
 70
     1
102
RTVSPropertyOp46
 70
     1
102
RTVSPropertyOp47
 70
     1
102
RTVSPropertyOp48
 70
     1
102
RTVSPropertyOp49
 70
     1
102
RTVSPropertyOp50
 70
     1
102
RTVSPropertyOp51
 70
     0
102
RTVSPropertyOp52
 70
     0
102
RTVSPropertyOp53
 70
     1
102
RTVSPropertyOp54
 70
     1
102
RTVSPropertyOp55
 70
     1
102
RTVSPropertyOp56
 70
     1
102
RTVSPropertyOp57
 70
     1
102
RTVSPost2010Prop28
280
     0
102
RTVSPost2010PropOp28
 70
     1
102
RTVSPost2010Prop29
280
     1
102
RTVSPost2010PropOp29
 70
     1
102
RTVSPost2010Prop30
280
     1
102
RTVSPost2010PropOp30
 70
     1
102
RTVSPost2010Prop31
280
     0
102
RTVSPost2010PropOp31
 70
     1
102
RTVSPost2010Prop32
280
     0
102
RTVSPost2010PropOp32
 70
     1
102
RTVSPost2010Prop33
280
     0
102
RTVSPost2010PropOp33
 70
     1
102
RTVSPost2010Prop34
280
     0
102
RTVSPost2010PropOp34
 70
     1
102
RTVSPost2010Prop35
280
     0
102
RTVSPost2010PropOp35
 70
     1
102
RTVSPost2010Prop36
280
     0
102
RTVSPost2010PropOp36
 70
     1
102
RTVSPost2010Prop37
 90
       50
102
RTVSPost2010PropOp37
 70
     1
102
RTVSPost2010Prop38
140
0.0
102
RTVSPost2010PropOp38
 70
     1
102
RTVSPost2010Prop39
140
1.0
102
RTVSPost2010PropOp39
 70
     1
102
RTVSPost2010Prop40
 90
        0
102
RTVSPost2010PropOp40
 70
     1
102
RTVSPost2010Prop41ColorIndex
 90
       18
102
RTVSPost2010Prop41ColorRGB
 90
        0
102
RTVSPost2010PropOp41
 70
     1
102
RTVSPost2010Prop42
 90
       50
102
RTVSPost2010PropOp42
 70
     1
102
RTVSPost2010Prop43
 90
        3
102
RTVSPost2010PropOp43
 70
     1
102
RTVSPost2010Prop44ColorIndex
 90
        5
102
RTVSPost2010Prop44ColorRGB
 90
      255
102
RTVSPost2010PropOp44
 70
     1
102
RTVSPost2010Prop45
280
     0
102
RTVSPost2010PropOp45
 70
     1
102
RTVSPost2010Prop46
 90
       50
102
RTVSPost2010PropOp46
 70
     1
102
RTVSPost2010Prop47
 90
       50
102
RTVSPost2010PropOp47
 70
     1
102
RTVSPost2010Prop48
 90
       50
102
RTVSPost2010PropOp48
 70
     1
102
RTVSPost2010Prop49
280
     0
102
RTVSPost2010PropOp49
 70
     1
102
RTVSPost2010Prop50
 90
       50
102
RTVSPost2010PropOp50
 70
     1
102
RTVSPost2010Prop51ColorIndex
 90
      256
102
RTVSPost2010Prop51ColorRGB
 90
-16777216
102
RTVSPost2010PropOp51
 70
     0
102
RTVSPost2010Prop52
140
1.0
102
RTVSPost2010PropOp52
 70
     0
102
RTVSPost2010Prop53
 90
        2
102
RTVSPost2010PropOp53
 70
     1
102
RTVSPost2010Prop54
  1
strokes_ogs.tif
102
RTVSPost2010PropOp54
 70
     1
102
RTVSPost2010Prop55
280
     0
102
RTVSPost2010PropOp55
 70
     1
102
RTVSPost2010Prop56
140
1.0
102
RTVSPost2010PropOp56
 70
     1
102
RTVSPost2010Prop57
140
1.0
102
RTVSPost2010PropOp57
 70
     1
  0
XRECORD
  5
42A
102
{ACAD_REACTORS
330
429
102
}
330
429
100
AcDbXrecord
280
     1
102
RTVSPropertyOp0
 70
     1
102
RTVSPropertyOp1
 70
     1
102
RTVSPropertyOp2
 70
     1
102
RTVSPropertyOp3
 70
     1
102
RTVSPropertyOp4
 70
     1
102
RTVSPropertyOp5
 70
     1
102
RTVSPropertyOp6
 70
     1
102
RTVSPropertyOp7
 70
     1
102
RTVSPropertyOp8
 70
     1
102
RTVSPropertyOp9
 70
     1
102
RTVSPropertyOp10
 70
     1
102
RTVSPropertyOp11
 70
     1
102
RTVSPropertyOp12
 70
     1
102
RTVSPropertyOp13
 70
     1
102
RTVSPropertyOp14
 70
     1
102
RTVSPropertyOp15
 70
     1
102
RTVSPropertyOp16
 70
     1
102
RTVSPropertyOp17
 70
     1
102
RTVSPropertyOp18
 70
     1
102
RTVSPropertyOp19
 70
     1
102
RTVSPropertyOp20
 70
     1
102
RTVSPropertyOp21
 70
     1
102
RTVSPropertyOp22
 70
     1
102
RTVSPropertyOp23
 70
     1
102
RTVSPropertyOp24
 70
     1
102
RTVSPropertyOp25
 70
     1
102
RTVSPropertyOp26
 70
     1
102
RTVSPropertyOp27
 70
     1
102
RTVSPropertyOp28
 70
     1
102
RTVSPropertyOp29
 70
     1
102
RTVSPropertyOp30
 70
     1
102
RTVSPropertyOp31
 70
     1
102
RTVSPropertyOp32
 70
     1
102
RTVSPropertyOp33
 70
     1
102
RTVSPropertyOp34
 70
     1
102
RTVSPropertyOp35
 70
     1
102
RTVSPropertyOp36
 70
     1
102
RTVSPropertyOp37
 70
     1
102
RTVSPropertyOp38
 70
     1
102
RTVSPropertyOp39
 70
     1
102
RTVSPropertyOp40
 70
     1
102
RTVSPropertyOp41
 70
     1
102
RTVSPropertyOp42
 70
     1
102
RTVSPropertyOp43
 70
     1
102
RTVSPropertyOp44
 70
     1
102
RTVSPropertyOp45
 70
     1
102
RTVSPropertyOp46
 70
     1
102
RTVSPropertyOp47
 70
     1
102
RTVSPropertyOp48
 70
     1
102
RTVSPropertyOp49
 70
     1
102
RTVSPropertyOp50
 70
     1
102
RTVSPropertyOp51
 70
     0
102
RTVSPropertyOp52
 70
     0
102
RTVSPropertyOp53
 70
     1
102
RTVSPropertyOp54
 70
     1
102
RTVSPropertyOp55
 70
     1
102
RTVSPropertyOp56
 70
     1
102
RTVSPropertyOp57
 70
     1
102
RTVSPost2010Prop28
280
     0
102
RTVSPost2010PropOp28
 70
     1
102
RTVSPost2010Prop29
280
     1
102
RTVSPost2010PropOp29
 70
     1
102
RTVSPost2010Prop30
280
     1
102
RTVSPost2010PropOp30
 70
     1
102
RTVSPost2010Prop31
280
     0
102
RTVSPost2010PropOp31
 70
     1
102
RTVSPost2010Prop32
280
     0
102
RTVSPost2010PropOp32
 70
     1
102
RTVSPost2010Prop33
280
     0
102
RTVSPost2010PropOp33
 70
     1
102
RTVSPost2010Prop34
280
     0
102
RTVSPost2010PropOp34
 70
     1
102
RTVSPost2010Prop35
280
     0
102
RTVSPost2010PropOp35
 70
     1
102
RTVSPost2010Prop36
280
     0
102
RTVSPost2010PropOp36
 70
     1
102
RTVSPost2010Prop37
 90
       50
102
RTVSPost2010PropOp37
 70
     1
102
RTVSPost2010Prop38
140
0.0
102
RTVSPost2010PropOp38
 70
     1
102
RTVSPost2010Prop39
140
1.0
102
RTVSPost2010PropOp39
 70
     1
102
RTVSPost2010Prop40
 90
        0
102
RTVSPost2010PropOp40
 70
     1
102
RTVSPost2010Prop41ColorIndex
 90
       18
102
RTVSPost2010Prop41ColorRGB
 90
        0
102
RTVSPost2010PropOp41
 70
     1
102
RTVSPost2010Prop42
 90
       50
102
RTVSPost2010PropOp42
 70
     1
102
RTVSPost2010Prop43
 90
        3
102
RTVSPost2010PropOp43
 70
     1
102
RTVSPost2010Prop44ColorIndex
 90
        5
102
RTVSPost2010Prop44ColorRGB
 90
      255
102
RTVSPost2010PropOp44
 70
     1
102
RTVSPost2010Prop45
280
     0
102
RTVSPost2010PropOp45
 70
     1
102
RTVSPost2010Prop46
 90
       50
102
RTVSPost2010PropOp46
 70
     1
102
RTVSPost2010Prop47
 90
       50
102
RTVSPost2010PropOp47
 70
     1
102
RTVSPost2010Prop48
 90
       50
102
RTVSPost2010PropOp48
 70
     1
102
RTVSPost2010Prop49
280
     0
102
RTVSPost2010PropOp49
 70
     1
102
RTVSPost2010Prop50
 90
       50
102
RTVSPost2010PropOp50
 70
     1
102
RTVSPost2010Prop51ColorIndex
 90
      256
102
RTVSPost2010Prop51ColorRGB
 90
-16777216
102
RTVSPost2010PropOp51
 70
     0
102
RTVSPost2010Prop52
140
1.0
102
RTVSPost2010PropOp52
 70
     0
102
RTVSPost2010Prop53
 90
        2
102
RTVSPost2010PropOp53
 70
     1
102
RTVSPost2010Prop54
  1
strokes_ogs.tif
102
RTVSPost2010PropOp54
 70
     1
102
RTVSPost2010Prop55
280
     0
102
RTVSPost2010PropOp55
 70
     1
102
RTVSPost2010Prop56
140
1.0
102
RTVSPost2010PropOp56
 70
     1
102
RTVSPost2010Prop57
140
1.0
102
RTVSPost2010PropOp57
 70
     1
  0
XRECORD
  5
424
102
{ACAD_REACTORS
330
423
102
}
330
423
100
AcDbXrecord
280
     1
102
RTVSPropertyOp0
 70
     1
102
RTVSPropertyOp1
 70
     1
102
RTVSPropertyOp2
 70
     1
102
RTVSPropertyOp3
 70
     1
102
RTVSPropertyOp4
 70
     1
102
RTVSPropertyOp5
 70
     1
102
RTVSPropertyOp6
 70
     1
102
RTVSPropertyOp7
 70
     1
102
RTVSPropertyOp8
 70
     1
102
RTVSPropertyOp9
 70
     1
102
RTVSPropertyOp10
 70
     1
102
RTVSPropertyOp11
 70
     1
102
RTVSPropertyOp12
 70
     1
102
RTVSPropertyOp13
 70
     1
102
RTVSPropertyOp14
 70
     1
102
RTVSPropertyOp15
 70
     1
102
RTVSPropertyOp16
 70
     1
102
RTVSPropertyOp17
 70
     1
102
RTVSPropertyOp18
 70
     1
102
RTVSPropertyOp19
 70
     1
102
RTVSPropertyOp20
 70
     1
102
RTVSPropertyOp21
 70
     1
102
RTVSPropertyOp22
 70
     1
102
RTVSPropertyOp23
 70
     1
102
RTVSPropertyOp24
 70
     1
102
RTVSPropertyOp25
 70
     1
102
RTVSPropertyOp26
 70
     1
102
RTVSPropertyOp27
 70
     1
102
RTVSPropertyOp28
 70
     1
102
RTVSPropertyOp29
 70
     1
102
RTVSPropertyOp30
 70
     1
102
RTVSPropertyOp31
 70
     1
102
RTVSPropertyOp32
 70
     1
102
RTVSPropertyOp33
 70
     1
102
RTVSPropertyOp34
 70
     1
102
RTVSPropertyOp35
 70
     1
102
RTVSPropertyOp36
 70
     1
102
RTVSPropertyOp37
 70
     1
102
RTVSPropertyOp38
 70
     1
102
RTVSPropertyOp39
 70
     1
102
RTVSPropertyOp40
 70
     1
102
RTVSPropertyOp41
 70
     1
102
RTVSPropertyOp42
 70
     1
102
RTVSPropertyOp43
 70
     1
102
RTVSPropertyOp44
 70
     1
102
RTVSPropertyOp45
 70
     1
102
RTVSPropertyOp46
 70
     1
102
RTVSPropertyOp47
 70
     1
102
RTVSPropertyOp48
 70
     1
102
RTVSPropertyOp49
 70
     1
102
RTVSPropertyOp50
 70
     1
102
RTVSPropertyOp51
 70
     0
102
RTVSPropertyOp52
 70
     0
102
RTVSPropertyOp53
 70
     1
102
RTVSPropertyOp54
 70
     1
102
RTVSPropertyOp55
 70
     1
102
RTVSPropertyOp56
 70
     1
102
RTVSPropertyOp57
 70
     1
102
RTVSPost2010Prop28
280
     0
102
RTVSPost2010PropOp28
 70
     1
102
RTVSPost2010Prop29
280
     1
102
RTVSPost2010PropOp29
 70
     1
102
RTVSPost2010Prop30
280
     1
102
RTVSPost2010PropOp30
 70
     1
102
RTVSPost2010Prop31
280
     0
102
RTVSPost2010PropOp31
 70
     1
102
RTVSPost2010Prop32
280
     0
102
RTVSPost2010PropOp32
 70
     1
102
RTVSPost2010Prop33
280
     0
102
RTVSPost2010PropOp33
 70
     1
102
RTVSPost2010Prop34
280
     0
102
RTVSPost2010PropOp34
 70
     1
102
RTVSPost2010Prop35
280
     0
102
RTVSPost2010PropOp35
 70
     1
102
RTVSPost2010Prop36
280
     0
102
RTVSPost2010PropOp36
 70
     1
102
RTVSPost2010Prop37
 90
       50
102
RTVSPost2010PropOp37
 70
     1
102
RTVSPost2010Prop38
140
0.0
102
RTVSPost2010PropOp38
 70
     1
102
RTVSPost2010Prop39
140
1.0
102
RTVSPost2010PropOp39
 70
     1
102
RTVSPost2010Prop40
 90
        0
102
RTVSPost2010PropOp40
 70
     1
102
RTVSPost2010Prop41ColorIndex
 90
       18
102
RTVSPost2010Prop41ColorRGB
 90
        0
102
RTVSPost2010PropOp41
 70
     1
102
RTVSPost2010Prop42
 90
       50
102
RTVSPost2010PropOp42
 70
     1
102
RTVSPost2010Prop43
 90
        3
102
RTVSPost2010PropOp43
 70
     1
102
RTVSPost2010Prop44ColorIndex
 90
        5
102
RTVSPost2010Prop44ColorRGB
 90
      255
102
RTVSPost2010PropOp44
 70
     1
102
RTVSPost2010Prop45
280
     0
102
RTVSPost2010PropOp45
 70
     1
102
RTVSPost2010Prop46
 90
       50
102
RTVSPost2010PropOp46
 70
     1
102
RTVSPost2010Prop47
 90
       50
102
RTVSPost2010PropOp47
 70
     1
102
RTVSPost2010Prop48
 90
       50
102
RTVSPost2010PropOp48
 70
     1
102
RTVSPost2010Prop49
280
     0
102
RTVSPost2010PropOp49
 70
     1
102
RTVSPost2010Prop50
 90
       50
102
RTVSPost2010PropOp50
 70
     1
102
RTVSPost2010Prop51ColorIndex
 90
      256
102
RTVSPost2010Prop51ColorRGB
 90
-16777216
102
RTVSPost2010PropOp51
 70
     0
102
RTVSPost2010Prop52
140
1.0
102
RTVSPost2010PropOp52
 70
     0
102
RTVSPost2010Prop53
 90
        2
102
RTVSPost2010PropOp53
 70
     1
102
RTVSPost2010Prop54
  1
strokes_ogs.tif
102
RTVSPost2010PropOp54
 70
     1
102
RTVSPost2010Prop55
280
     0
102
RTVSPost2010PropOp55
 70
     1
102
RTVSPost2010Prop56
140
1.0
102
RTVSPost2010PropOp56
 70
     1
102
RTVSPost2010Prop57
140
1.0
102
RTVSPost2010PropOp57
 70
     1
  0
XRECORD
  5
426
102
{ACAD_REACTORS
330
425
102
}
330
425
100
AcDbXrecord
280
     1
102
RTVSPropertyOp0
 70
     1
102
RTVSPropertyOp1
 70
     1
102
RTVSPropertyOp2
 70
     1
102
RTVSPropertyOp3
 70
     1
102
RTVSPropertyOp4
 70
     1
102
RTVSPropertyOp5
 70
     1
102
RTVSPropertyOp6
 70
     1
102
RTVSPropertyOp7
 70
     1
102
RTVSPropertyOp8
 70
     1
102
RTVSPropertyOp9
 70
     1
102
RTVSPropertyOp10
 70
     1
102
RTVSPropertyOp11
 70
     1
102
RTVSPropertyOp12
 70
     1
102
RTVSPropertyOp13
 70
     1
102
RTVSPropertyOp14
 70
     1
102
RTVSPropertyOp15
 70
     1
102
RTVSPropertyOp16
 70
     1
102
RTVSPropertyOp17
 70
     1
102
RTVSPropertyOp18
 70
     1
102
RTVSPropertyOp19
 70
     1
102
RTVSPropertyOp20
 70
     1
102
RTVSPropertyOp21
 70
     1
102
RTVSPropertyOp22
 70
     1
102
RTVSPropertyOp23
 70
     1
102
RTVSPropertyOp24
 70
     1
102
RTVSPropertyOp25
 70
     1
102
RTVSPropertyOp26
 70
     1
102
RTVSPropertyOp27
 70
     1
102
RTVSPropertyOp28
 70
     1
102
RTVSPropertyOp29
 70
     1
102
RTVSPropertyOp30
 70
     1
102
RTVSPropertyOp31
 70
     1
102
RTVSPropertyOp32
 70
     1
102
RTVSPropertyOp33
 70
     1
102
RTVSPropertyOp34
 70
     1
102
RTVSPropertyOp35
 70
     1
102
RTVSPropertyOp36
 70
     1
102
RTVSPropertyOp37
 70
     1
102
RTVSPropertyOp38
 70
     1
102
RTVSPropertyOp39
 70
     1
102
RTVSPropertyOp40
 70
     1
102
RTVSPropertyOp41
 70
     1
102
RTVSPropertyOp42
 70
     1
102
RTVSPropertyOp43
 70
     1
102
RTVSPropertyOp44
 70
     1
102
RTVSPropertyOp45
 70
     1
102
RTVSPropertyOp46
 70
     1
102
RTVSPropertyOp47
 70
     1
102
RTVSPropertyOp48
 70
     1
102
RTVSPropertyOp49
 70
     1
102
RTVSPropertyOp50
 70
     1
102
RTVSPropertyOp51
 70
     0
102
RTVSPropertyOp52
 70
     0
102
RTVSPropertyOp53
 70
     1
102
RTVSPropertyOp54
 70
     1
102
RTVSPropertyOp55
 70
     1
102
RTVSPropertyOp56
 70
     1
102
RTVSPropertyOp57
 70
     1
102
RTVSPost2010Prop28
280
     0
102
RTVSPost2010PropOp28
 70
     1
102
RTVSPost2010Prop29
280
     1
102
RTVSPost2010PropOp29
 70
     1
102
RTVSPost2010Prop30
280
     1
102
RTVSPost2010PropOp30
 70
     1
102
RTVSPost2010Prop31
280
     0
102
RTVSPost2010PropOp31
 70
     1
102
RTVSPost2010Prop32
280
     0
102
RTVSPost2010PropOp32
 70
     1
102
RTVSPost2010Prop33
280
     0
102
RTVSPost2010PropOp33
 70
     1
102
RTVSPost2010Prop34
280
     0
102
RTVSPost2010PropOp34
 70
     1
102
RTVSPost2010Prop35
280
     0
102
RTVSPost2010PropOp35
 70
     1
102
RTVSPost2010Prop36
280
     0
102
RTVSPost2010PropOp36
 70
     1
102
RTVSPost2010Prop37
 90
       50
102
RTVSPost2010PropOp37
 70
     1
102
RTVSPost2010Prop38
140
0.0
102
RTVSPost2010PropOp38
 70
     1
102
RTVSPost2010Prop39
140
1.0
102
RTVSPost2010PropOp39
 70
     1
102
RTVSPost2010Prop40
 90
        0
102
RTVSPost2010PropOp40
 70
     1
102
RTVSPost2010Prop41ColorIndex
 90
       18
102
RTVSPost2010Prop41ColorRGB
 90
        0
102
RTVSPost2010PropOp41
 70
     1
102
RTVSPost2010Prop42
 90
       50
102
RTVSPost2010PropOp42
 70
     1
102
RTVSPost2010Prop43
 90
        3
102
RTVSPost2010PropOp43
 70
     1
102
RTVSPost2010Prop44ColorIndex
 90
        5
102
RTVSPost2010Prop44ColorRGB
 90
      255
102
RTVSPost2010PropOp44
 70
     1
102
RTVSPost2010Prop45
280
     0
102
RTVSPost2010PropOp45
 70
     1
102
RTVSPost2010Prop46
 90
       50
102
RTVSPost2010PropOp46
 70
     1
102
RTVSPost2010Prop47
 90
       50
102
RTVSPost2010PropOp47
 70
     1
102
RTVSPost2010Prop48
 90
       50
102
RTVSPost2010PropOp48
 70
     1
102
RTVSPost2010Prop49
280
     0
102
RTVSPost2010PropOp49
 70
     1
102
RTVSPost2010Prop50
 90
       50
102
RTVSPost2010PropOp50
 70
     1
102
RTVSPost2010Prop51ColorIndex
 90
      256
102
RTVSPost2010Prop51ColorRGB
 90
-16777216
102
RTVSPost2010PropOp51
 70
     0
102
RTVSPost2010Prop52
140
1.0
102
RTVSPost2010PropOp52
 70
     0
102
RTVSPost2010Prop53
 90
        2
102
RTVSPost2010PropOp53
 70
     1
102
RTVSPost2010Prop54
  1
strokes_ogs.tif
102
RTVSPost2010PropOp54
 70
     1
102
RTVSPost2010Prop55
280
     0
102
RTVSPost2010PropOp55
 70
     1
102
RTVSPost2010Prop56
140
1.0
102
RTVSPost2010PropOp56
 70
     1
102
RTVSPost2010Prop57
140
1.0
102
RTVSPost2010PropOp57
 70
     1
  0
XRECORD
  5
416
102
{ACAD_REACTORS
330
415
102
}
330
415
100
AcDbXrecord
280
     1
102
RTVSPropertyOp0
 70
     1
102
RTVSPropertyOp1
 70
     1
102
RTVSPropertyOp2
 70
     1
102
RTVSPropertyOp3
 70
     1
102
RTVSPropertyOp4
 70
     1
102
RTVSPropertyOp5
 70
     1
102
RTVSPropertyOp6
 70
     1
102
RTVSPropertyOp7
 70
     1
102
RTVSPropertyOp8
 70
     1
102
RTVSPropertyOp9
 70
     1
102
RTVSPropertyOp10
 70
     1
102
RTVSPropertyOp11
 70
     1
102
RTVSPropertyOp12
 70
     1
102
RTVSPropertyOp13
 70
     1
102
RTVSPropertyOp14
 70
     1
102
RTVSPropertyOp15
 70
     1
102
RTVSPropertyOp16
 70
     1
102
RTVSPropertyOp17
 70
     1
102
RTVSPropertyOp18
 70
     1
102
RTVSPropertyOp19
 70
     1
102
RTVSPropertyOp20
 70
     1
102
RTVSPropertyOp21
 70
     1
102
RTVSPropertyOp22
 70
     1
102
RTVSPropertyOp23
 70
     1
102
RTVSPropertyOp24
 70
     1
102
RTVSPropertyOp25
 70
     1
102
RTVSPropertyOp26
 70
     1
102
RTVSPropertyOp27
 70
     1
102
RTVSPropertyOp28
 70
     1
102
RTVSPropertyOp29
 70
     1
102
RTVSPropertyOp30
 70
     1
102
RTVSPropertyOp31
 70
     1
102
RTVSPropertyOp32
 70
     1
102
RTVSPropertyOp33
 70
     1
102
RTVSPropertyOp34
 70
     1
102
RTVSPropertyOp35
 70
     1
102
RTVSPropertyOp36
 70
     1
102
RTVSPropertyOp37
 70
     1
102
RTVSPropertyOp38
 70
     1
102
RTVSPropertyOp39
 70
     1
102
RTVSPropertyOp40
 70
     1
102
RTVSPropertyOp41
 70
     1
102
RTVSPropertyOp42
 70
     1
102
RTVSPropertyOp43
 70
     1
102
RTVSPropertyOp44
 70
     1
102
RTVSPropertyOp45
 70
     1
102
RTVSPropertyOp46
 70
     1
102
RTVSPropertyOp47
 70
     1
102
RTVSPropertyOp48
 70
     1
102
RTVSPropertyOp49
 70
     1
102
RTVSPropertyOp50
 70
     1
102
RTVSPropertyOp51
 70
     0
102
RTVSPropertyOp52
 70
     0
102
RTVSPropertyOp53
 70
     1
102
RTVSPropertyOp54
 70
     1
102
RTVSPropertyOp55
 70
     1
102
RTVSPropertyOp56
 70
     1
102
RTVSPropertyOp57
 70
     1
102
RTVSPost2010Prop28
280
     0
102
RTVSPost2010PropOp28
 70
     1
102
RTVSPost2010Prop29
280
     1
102
RTVSPost2010PropOp29
 70
     1
102
RTVSPost2010Prop30
280
     1
102
RTVSPost2010PropOp30
 70
     1
102
RTVSPost2010Prop31
280
     0
102
RTVSPost2010PropOp31
 70
     1
102
RTVSPost2010Prop32
280
     0
102
RTVSPost2010PropOp32
 70
     1
102
RTVSPost2010Prop33
280
     0
102
RTVSPost2010PropOp33
 70
     1
102
RTVSPost2010Prop34
280
     0
102
RTVSPost2010PropOp34
 70
     1
102
RTVSPost2010Prop35
280
     0
102
RTVSPost2010PropOp35
 70
     1
102
RTVSPost2010Prop36
280
     0
102
RTVSPost2010PropOp36
 70
     1
102
RTVSPost2010Prop37
 90
       50
102
RTVSPost2010PropOp37
 70
     1
102
RTVSPost2010Prop38
140
0.0
102
RTVSPost2010PropOp38
 70
     1
102
RTVSPost2010Prop39
140
1.0
102
RTVSPost2010PropOp39
 70
     1
102
RTVSPost2010Prop40
 90
        0
102
RTVSPost2010PropOp40
 70
     1
102
RTVSPost2010Prop41ColorIndex
 90
       18
102
RTVSPost2010Prop41ColorRGB
 90
        0
102
RTVSPost2010PropOp41
 70
     1
102
RTVSPost2010Prop42
 90
       50
102
RTVSPost2010PropOp42
 70
     1
102
RTVSPost2010Prop43
 90
        3
102
RTVSPost2010PropOp43
 70
     1
102
RTVSPost2010Prop44ColorIndex
 90
        5
102
RTVSPost2010Prop44ColorRGB
 90
      255
102
RTVSPost2010PropOp44
 70
     1
102
RTVSPost2010Prop45
280
     0
102
RTVSPost2010PropOp45
 70
     1
102
RTVSPost2010Prop46
 90
       50
102
RTVSPost2010PropOp46
 70
     1
102
RTVSPost2010Prop47
 90
       50
102
RTVSPost2010PropOp47
 70
     1
102
RTVSPost2010Prop48
 90
       50
102
RTVSPost2010PropOp48
 70
     1
102
RTVSPost2010Prop49
280
     0
102
RTVSPost2010PropOp49
 70
     1
102
RTVSPost2010Prop50
 90
       50
102
RTVSPost2010PropOp50
 70
     1
102
RTVSPost2010Prop51ColorIndex
 90
      256
102
RTVSPost2010Prop51ColorRGB
 90
-16777216
102
RTVSPost2010PropOp51
 70
     0
102
RTVSPost2010Prop52
140
1.0
102
RTVSPost2010PropOp52
 70
     0
102
RTVSPost2010Prop53
 90
        2
102
RTVSPost2010PropOp53
 70
     1
102
RTVSPost2010Prop54
  1
strokes_ogs.tif
102
RTVSPost2010PropOp54
 70
     1
102
RTVSPost2010Prop55
280
     0
102
RTVSPost2010PropOp55
 70
     1
102
RTVSPost2010Prop56
140
1.0
102
RTVSPost2010PropOp56
 70
     1
102
RTVSPost2010Prop57
140
1.0
102
RTVSPost2010PropOp57
 70
     1
  0
XRECORD
  5
408
102
{ACAD_REACTORS
330
407
102
}
330
407
100
AcDbXrecord
280
     1
102
RTVSPropertyOp0
 70
     1
102
RTVSPropertyOp1
 70
     1
102
RTVSPropertyOp2
 70
     1
102
RTVSPropertyOp3
 70
     1
102
RTVSPropertyOp4
 70
     1
102
RTVSPropertyOp5
 70
     1
102
RTVSPropertyOp6
 70
     1
102
RTVSPropertyOp7
 70
     1
102
RTVSPropertyOp8
 70
     1
102
RTVSPropertyOp9
 70
     1
102
RTVSPropertyOp10
 70
     1
102
RTVSPropertyOp11
 70
     1
102
RTVSPropertyOp12
 70
     1
102
RTVSPropertyOp13
 70
     1
102
RTVSPropertyOp14
 70
     1
102
RTVSPropertyOp15
 70
     1
102
RTVSPropertyOp16
 70
     1
102
RTVSPropertyOp17
 70
     1
102
RTVSPropertyOp18
 70
     1
102
RTVSPropertyOp19
 70
     1
102
RTVSPropertyOp20
 70
     1
102
RTVSPropertyOp21
 70
     1
102
RTVSPropertyOp22
 70
     1
102
RTVSPropertyOp23
 70
     1
102
RTVSPropertyOp24
 70
     1
102
RTVSPropertyOp25
 70
     1
102
RTVSPropertyOp26
 70
     1
102
RTVSPropertyOp27
 70
     1
102
RTVSPropertyOp28
 70
     1
102
RTVSPropertyOp29
 70
     1
102
RTVSPropertyOp30
 70
     1
102
RTVSPropertyOp31
 70
     1
102
RTVSPropertyOp32
 70
     1
102
RTVSPropertyOp33
 70
     1
102
RTVSPropertyOp34
 70
     1
102
RTVSPropertyOp35
 70
     1
102
RTVSPropertyOp36
 70
     1
102
RTVSPropertyOp37
 70
     1
102
RTVSPropertyOp38
 70
     1
102
RTVSPropertyOp39
 70
     1
102
RTVSPropertyOp40
 70
     1
102
RTVSPropertyOp41
 70
     1
102
RTVSPropertyOp42
 70
     1
102
RTVSPropertyOp43
 70
     1
102
RTVSPropertyOp44
 70
     1
102
RTVSPropertyOp45
 70
     1
102
RTVSPropertyOp46
 70
     1
102
RTVSPropertyOp47
 70
     1
102
RTVSPropertyOp48
 70
     1
102
RTVSPropertyOp49
 70
     1
102
RTVSPropertyOp50
 70
     1
102
RTVSPropertyOp51
 70
     0
102
RTVSPropertyOp52
 70
     0
102
RTVSPropertyOp53
 70
     1
102
RTVSPropertyOp54
 70
     1
102
RTVSPropertyOp55
 70
     1
102
RTVSPropertyOp56
 70
     1
102
RTVSPropertyOp57
 70
     1
102
RTVSPost2010Prop28
280
     0
102
RTVSPost2010PropOp28
 70
     1
102
RTVSPost2010Prop29
280
     1
102
RTVSPost2010PropOp29
 70
     1
102
RTVSPost2010Prop30
280
     1
102
RTVSPost2010PropOp30
 70
     1
102
RTVSPost2010Prop31
280
     0
102
RTVSPost2010PropOp31
 70
     1
102
RTVSPost2010Prop32
280
     0
102
RTVSPost2010PropOp32
 70
     1
102
RTVSPost2010Prop33
280
     0
102
RTVSPost2010PropOp33
 70
     1
102
RTVSPost2010Prop34
280
     0
102
RTVSPost2010PropOp34
 70
     1
102
RTVSPost2010Prop35
280
     0
102
RTVSPost2010PropOp35
 70
     1
102
RTVSPost2010Prop36
280
     0
102
RTVSPost2010PropOp36
 70
     1
102
RTVSPost2010Prop37
 90
       50
102
RTVSPost2010PropOp37
 70
     1
102
RTVSPost2010Prop38
140
0.0
102
RTVSPost2010PropOp38
 70
     1
102
RTVSPost2010Prop39
140
1.0
102
RTVSPost2010PropOp39
 70
     1
102
RTVSPost2010Prop40
 90
        0
102
RTVSPost2010PropOp40
 70
     1
102
RTVSPost2010Prop41ColorIndex
 90
       18
102
RTVSPost2010Prop41ColorRGB
 90
        0
102
RTVSPost2010PropOp41
 70
     1
102
RTVSPost2010Prop42
 90
       50
102
RTVSPost2010PropOp42
 70
     1
102
RTVSPost2010Prop43
 90
        3
102
RTVSPost2010PropOp43
 70
     1
102
RTVSPost2010Prop44ColorIndex
 90
        5
102
RTVSPost2010Prop44ColorRGB
 90
      255
102
RTVSPost2010PropOp44
 70
     1
102
RTVSPost2010Prop45
280
     0
102
RTVSPost2010PropOp45
 70
     1
102
RTVSPost2010Prop46
 90
       50
102
RTVSPost2010PropOp46
 70
     1
102
RTVSPost2010Prop47
 90
       50
102
RTVSPost2010PropOp47
 70
     1
102
RTVSPost2010Prop48
 90
       50
102
RTVSPost2010PropOp48
 70
     1
102
RTVSPost2010Prop49
280
     0
102
RTVSPost2010PropOp49
 70
     1
102
RTVSPost2010Prop50
 90
       50
102
RTVSPost2010PropOp50
 70
     1
102
RTVSPost2010Prop51ColorIndex
 90
      256
102
RTVSPost2010Prop51ColorRGB
 90
-16777216
102
RTVSPost2010PropOp51
 70
     0
102
RTVSPost2010Prop52
140
1.0
102
RTVSPost2010PropOp52
 70
     0
102
RTVSPost2010Prop53
 90
        2
102
RTVSPost2010PropOp53
 70
     1
102
RTVSPost2010Prop54
  1
strokes_ogs.tif
102
RTVSPost2010PropOp54
 70
     1
102
RTVSPost2010Prop55
280
     0
102
RTVSPost2010PropOp55
 70
     1
102
RTVSPost2010Prop56
140
1.0
102
RTVSPost2010PropOp56
 70
     1
102
RTVSPost2010Prop57
140
1.0
102
RTVSPost2010PropOp57
 70
     1
  0
XRECORD
  5
428
102
{ACAD_REACTORS
330
427
102
}
330
427
100
AcDbXrecord
280
     1
102
RTVSPropertyOp0
 70
     1
102
RTVSPropertyOp1
 70
     1
102
RTVSPropertyOp2
 70
     1
102
RTVSPropertyOp3
 70
     1
102
RTVSPropertyOp4
 70
     1
102
RTVSPropertyOp5
 70
     1
102
RTVSPropertyOp6
 70
     1
102
RTVSPropertyOp7
 70
     1
102
RTVSPropertyOp8
 70
     1
102
RTVSPropertyOp9
 70
     1
102
RTVSPropertyOp10
 70
     1
102
RTVSPropertyOp11
 70
     1
102
RTVSPropertyOp12
 70
     1
102
RTVSPropertyOp13
 70
     1
102
RTVSPropertyOp14
 70
     1
102
RTVSPropertyOp15
 70
     1
102
RTVSPropertyOp16
 70
     1
102
RTVSPropertyOp17
 70
     1
102
RTVSPropertyOp18
 70
     1
102
RTVSPropertyOp19
 70
     1
102
RTVSPropertyOp20
 70
     1
102
RTVSPropertyOp21
 70
     1
102
RTVSPropertyOp22
 70
     1
102
RTVSPropertyOp23
 70
     1
102
RTVSPropertyOp24
 70
     1
102
RTVSPropertyOp25
 70
     1
102
RTVSPropertyOp26
 70
     1
102
RTVSPropertyOp27
 70
     1
102
RTVSPropertyOp28
 70
     1
102
RTVSPropertyOp29
 70
     1
102
RTVSPropertyOp30
 70
     1
102
RTVSPropertyOp31
 70
     1
102
RTVSPropertyOp32
 70
     1
102
RTVSPropertyOp33
 70
     1
102
RTVSPropertyOp34
 70
     1
102
RTVSPropertyOp35
 70
     1
102
RTVSPropertyOp36
 70
     1
102
RTVSPropertyOp37
 70
     1
102
RTVSPropertyOp38
 70
     1
102
RTVSPropertyOp39
 70
     1
102
RTVSPropertyOp40
 70
     1
102
RTVSPropertyOp41
 70
     1
102
RTVSPropertyOp42
 70
     1
102
RTVSPropertyOp43
 70
     1
102
RTVSPropertyOp44
 70
     1
102
RTVSPropertyOp45
 70
     1
102
RTVSPropertyOp46
 70
     1
102
RTVSPropertyOp47
 70
     1
102
RTVSPropertyOp48
 70
     1
102
RTVSPropertyOp49
 70
     1
102
RTVSPropertyOp50
 70
     1
102
RTVSPropertyOp51
 70
     0
102
RTVSPropertyOp52
 70
     0
102
RTVSPropertyOp53
 70
     1
102
RTVSPropertyOp54
 70
     1
102
RTVSPropertyOp55
 70
     1
102
RTVSPropertyOp56
 70
     1
102
RTVSPropertyOp57
 70
     1
102
RTVSPost2010Prop28
280
     0
102
RTVSPost2010PropOp28
 70
     1
102
RTVSPost2010Prop29
280
     1
102
RTVSPost2010PropOp29
 70
     1
102
RTVSPost2010Prop30
280
     1
102
RTVSPost2010PropOp30
 70
     1
102
RTVSPost2010Prop31
280
     0
102
RTVSPost2010PropOp31
 70
     1
102
RTVSPost2010Prop32
280
     0
102
RTVSPost2010PropOp32
 70
     1
102
RTVSPost2010Prop33
280
     0
102
RTVSPost2010PropOp33
 70
     1
102
RTVSPost2010Prop34
280
     0
102
RTVSPost2010PropOp34
 70
     1
102
RTVSPost2010Prop35
280
     0
102
RTVSPost2010PropOp35
 70
     1
102
RTVSPost2010Prop36
280
     0
102
RTVSPost2010PropOp36
 70
     1
102
RTVSPost2010Prop37
 90
       50
102
RTVSPost2010PropOp37
 70
     1
102
RTVSPost2010Prop38
140
0.0
102
RTVSPost2010PropOp38
 70
     1
102
RTVSPost2010Prop39
140
1.0
102
RTVSPost2010PropOp39
 70
     1
102
RTVSPost2010Prop40
 90
        0
102
RTVSPost2010PropOp40
 70
     1
102
RTVSPost2010Prop41ColorIndex
 90
       18
102
RTVSPost2010Prop41ColorRGB
 90
        0
102
RTVSPost2010PropOp41
 70
     1
102
RTVSPost2010Prop42
 90
       50
102
RTVSPost2010PropOp42
 70
     1
102
RTVSPost2010Prop43
 90
        3
102
RTVSPost2010PropOp43
 70
     1
102
RTVSPost2010Prop44ColorIndex
 90
        5
102
RTVSPost2010Prop44ColorRGB
 90
      255
102
RTVSPost2010PropOp44
 70
     1
102
RTVSPost2010Prop45
280
     0
102
RTVSPost2010PropOp45
 70
     1
102
RTVSPost2010Prop46
 90
       50
102
RTVSPost2010PropOp46
 70
     1
102
RTVSPost2010Prop47
 90
       50
102
RTVSPost2010PropOp47
 70
     1
102
RTVSPost2010Prop48
 90
       50
102
RTVSPost2010PropOp48
 70
     1
102
RTVSPost2010Prop49
280
     0
102
RTVSPost2010PropOp49
 70
     1
102
RTVSPost2010Prop50
 90
       50
102
RTVSPost2010PropOp50
 70
     1
102
RTVSPost2010Prop51ColorIndex
 90
      256
102
RTVSPost2010Prop51ColorRGB
 90
-16777216
102
RTVSPost2010PropOp51
 70
     0
102
RTVSPost2010Prop52
140
1.0
102
RTVSPost2010PropOp52
 70
     0
102
RTVSPost2010Prop53
 90
        2
102
RTVSPost2010PropOp53
 70
     1
102
RTVSPost2010Prop54
  1
strokes_ogs.tif
102
RTVSPost2010PropOp54
 70
     1
102
RTVSPost2010Prop55
280
     0
102
RTVSPost2010PropOp55
 70
     1
102
RTVSPost2010Prop56
140
1.0
102
RTVSPost2010PropOp56
 70
     1
102
RTVSPost2010Prop57
140
1.0
102
RTVSPost2010PropOp57
 70
     1
  0
ENDSEC
  0
EOF
