  0
SECTION
  2
HEADER
  9
$ACADVER
  1
AC1027
  9
$ACADMAINTVER
 70
   105
  9
$DWGCODEPAGE
  3
ANSI_932
  9
$REQUIREDVERSIONS
160
                 0
  9
$INSBASE
 10
0.0
 20
0.0
 30
0.0
  9
$EXTMIN
 10
-1050.0
 20
-742.5
 30
0.0
  9
$EXTMAX
 10
1050.0
 20
742.5
 30
0.0
  9
$LIMMIN
 10
-1050.0
 20
-742.5
  9
$LIMMAX
 10
1050.0
 20
742.5
  9
$ORTHOMODE
 70
     0
  9
$REGENMODE
 70
     1
  9
$FILLMODE
 70
     1
  9
$QTEXTMODE
 70
     0
  9
$MIRRTEXT
 70
     1
  9
$LTSCALE
 40
5.0
  9
$ATTMODE
 70
     1
  9
$TEXTSIZE
 40
2.5
  9
$TRACEWID
 40
1.0
  9
$TEXTSTYLE
  7
Standard
  9
$CLAYER
  8
0
  9
$CELTYPE
  6
ByLayer
  9
$CECOLOR
 62
   256
  9
$CELTSCALE
 40
1.0
  9
$DISPSILH
 70
     0
  9
$DIMSCALE
 40
1.0
  9
$DIMASZ
 40
2.5
  9
$DIMEXO
 40
0.625
  9
$DIMDLI
 40
3.75
  9
$DIMRND
 40
0.0
  9
$DIMDLE
 40
0.0
  9
$DIMEXE
 40
1.25
  9
$DIMTP
 40
0.0
  9
$DIMTM
 40
0.0
  9
$DIMTXT
 40
2.5
  9
$DIMCEN
 40
2.5
  9
$DIMTSZ
 40
0.0
  9
$DIMTOL
 70
     0
  9
$DIMLIM
 70
     0
  9
$DIMTIH
 70
     0
  9
$DIMTOH
 70
     0
  9
$DIMSE1
 70
     0
  9
$DIMSE2
 70
     0
  9
$DIMTAD
 70
     1
  9
$DIMZIN
 70
     8
  9
$DIMBLK
  1

  9
$DIMASO
 70
     1
  9
$DIMSHO
 70
     1
  9
$DIMPOST
  1

  9
$DIMAPOST
  1

  9
$DIMALT
 70
     0
  9
$DIMALTD
 70
     3
  9
$DIMALTF
 40
0.03937007874016
  9
$DIMLFAC
 40
1.0
  9
$DIMTOFL
 70
     1
  9
$DIMTVP
 40
0.0
  9
$DIMTIX
 70
     0
  9
$DIMSOXD
 70
     0
  9
$DIMSAH
 70
     0
  9
$DIMBLK1
  1

  9
$DIMBLK2
  1

  9
$DIMSTYLE
  2
ISO-25
  9
$DIMCLRD
 70
     0
  9
$DIMCLRE
 70
     0
  9
$DIMCLRT
 70
     0
  9
$DIMTFAC
 40
1.0
  9
$DIMGAP
 40
0.625
  9
$DIMJUST
 70
     0
  9
$DIMSD1
 70
     0
  9
$DIMSD2
 70
     0
  9
$DIMTOLJ
 70
     0
  9
$DIMTZIN
 70
     8
  9
$DIMALTZ
 70
     0
  9
$DIMALTTZ
 70
     0
  9
$DIMUPT
 70
     0
  9
$DIMDEC
 70
     2
  9
$DIMTDEC
 70
     2
  9
$DIMALTU
 70
     2
  9
$DIMALTTD
 70
     3
  9
$DIMTXSTY
  7
Standard
  9
$DIMAUNIT
 70
     0
  9
$DIMADEC
 70
     0
  9
$DIMALTRND
 40
0.0
  9
$DIMAZIN
 70
     0
  9
$DIMDSEP
 70
    44
  9
$DIMATFIT
 70
     3
  9
$DIMFRAC
 70
     0
  9
$DIMLDRBLK
  1

  9
$DIMLUNIT
 70
     2
  9
$DIMLWD
 70
    -2
  9
$DIMLWE
 70
    -2
  9
$DIMTMOVE
 70
     0
  9
$DIMFXL
 40
1.0
  9
$DIMFXLON
 70
     0
  9
$DIMJOGANG
 40
0.7853981633974483
  9
$DIMTFILL
 70
     0
  9
$DIMTFILLCLR
 70
     0
  9
$DIMARCSYM
 70
     0
  9
$DIMLTYPE
  6

  9
$DIMLTEX1
  6

  9
$DIMLTEX2
  6

  9
$DIMTXTDIRECTION
 70
     0
  9
$LUNITS
 70
     2
  9
$LUPREC
 70
     4
  9
$SKETCHINC
 40
1.0
  9
$FILLETRAD
 40
10.0
  9
$AUNITS
 70
     0
  9
$AUPREC
 70
     0
  9
$MENU
  1
.
  9
$ELEVATION
 40
0.0
  9
$PELEVATION
 40
0.0
  9
$THICKNESS
 40
0.0
  9
$LIMCHECK
 70
     0
  9
$CHAMFERA
 40
0.0
  9
$CHAMFERB
 40
0.0
  9
$CHAMFERC
 40
0.0
  9
$CHAMFERD
 40
0.0
  9
$SKPOLY
 70
     0
  9
$TDCREATE
 40
2458933.613355972
  9
$TDUCREATE
 40
2458933.238355972
  9
$TDUPDATE
 40
2458933.613356111
  9
$TDUUPDATE
 40
2458933.238356111
  9
$TDINDWG
 40
0.0000000116
  9
$TDUSRTIMER
 40
0.0000000116
  9
$USRTIMER
 70
     1
  9
$ANGBASE
 50
0.0
  9
$ANGDIR
 70
     0
  9
$PDMODE
 70
     0
  9
$PDSIZE
 40
0.0
  9
$PLINEWID
 40
0.0
  9
$SPLFRAME
 70
     0
  9
$SPLINETYPE
 70
     6
  9
$SPLINESEGS
 70
     8
  9
$HANDSEED
  5
419
  9
$SURFTAB1
 70
     6
  9
$SURFTAB2
 70
     6
  9
$SURFTYPE
 70
     6
  9
$SURFU
 70
     6
  9
$SURFV
 70
     6
  9
$UCSBASE
  2

  9
$UCSNAME
  2

  9
$UCSORG
 10
0.0
 20
0.0
 30
0.0
  9
$UCSXDIR
 10
1.0
 20
0.0
 30
0.0
  9
$UCSYDIR
 10
0.0
 20
1.0
 30
0.0
  9
$UCSORTHOREF
  2

  9
$UCSORTHOVIEW
 70
     0
  9
$UCSORGTOP
 10
0.0
 20
0.0
 30
0.0
  9
$UCSORGBOTTOM
 10
0.0
 20
0.0
 30
0.0
  9
$UCSORGLEFT
 10
0.0
 20
0.0
 30
0.0
  9
$UCSORGRIGHT
 10
0.0
 20
0.0
 30
0.0
  9
$UCSORGFRONT
 10
0.0
 20
0.0
 30
0.0
  9
$UCSORGBACK
 10
0.0
 20
0.0
 30
0.0
  9
$PUCSBASE
  2

  9
$PUCSNAME
  2

  9
$PUCSORG
 10
0.0
 20
0.0
 30
0.0
  9
$PUCSXDIR
 10
1.0
 20
0.0
 30
0.0
  9
$PUCSYDIR
 10
0.0
 20
1.0
 30
0.0
  9
$PUCSORTHOREF
  2

  9
$PUCSORTHOVIEW
 70
     0
  9
$PUCSORGTOP
 10
0.0
 20
0.0
 30
0.0
  9
$PUCSORGBOTTOM
 10
0.0
 20
0.0
 30
0.0
  9
$PUCSORGLEFT
 10
0.0
 20
0.0
 30
0.0
  9
$PUCSORGRIGHT
 10
0.0
 20
0.0
 30
0.0
  9
$PUCSORGFRONT
 10
0.0
 20
0.0
 30
0.0
  9
$PUCSORGBACK
 10
0.0
 20
0.0
 30
0.0
  9
$USERI1
 70
     0
  9
$USERI2
 70
     0
  9
$USERI3
 70
     0
  9
$USERI4
 70
     0
  9
$USERI5
 70
     0
  9
$USERR1
 40
0.0
  9
$USERR2
 40
0.0
  9
$USERR3
 40
0.0
  9
$USERR4
 40
0.0
  9
$USERR5
 40
0.0
  9
$WORLDVIEW
 70
     1
  9
$SHADEDGE
 70
     3
  9
$SHADEDIF
 70
    70
  9
$TILEMODE
 70
     1
  9
$MAXACTVP
 70
    64
  9
$PINSBASE
 10
0.0
 20
0.0
 30
0.0
  9
$PLIMCHECK
 70
     0
  9
$PEXTMIN
 10
1.000000000000000E+20
 20
1.000000000000000E+20
 30
1.000000000000000E+20
  9
$PEXTMAX
 10
-1.000000000000000E+20
 20
-1.000000000000000E+20
 30
-1.000000000000000E+20
  9
$PLIMMIN
 10
0.0
 20
0.0
  9
$PLIMMAX
 10
420.0
 20
297.0
  9
$UNITMODE
 70
     0
  9
$VISRETAIN
 70
     1
  9
$PLINEGEN
 70
     0
  9
$PSLTSCALE
 70
     1
  9
$TREEDEPTH
 70
  3020
  9
$CMLSTYLE
  2
Standard
  9
$CMLJUST
 70
     0
  9
$CMLSCALE
 40
20.0
  9
$PROXYGRAPHICS
 70
     1
  9
$MEASUREMENT
 70
     1
  9
$CELWEIGHT
370
    -1
  9
$ENDCAPS
280
     0
  9
$JOINSTYLE
280
     0
  9
$LWDISPLAY
290
     0
  9
$INSUNITS
 70
     4
  9
$HYPERLINKBASE
  1

  9
$STYLESHEET
  1

  9
$XEDIT
290
     1
  9
$CEPSNTYPE
380
     0
  9
$PSTYLEMODE
290
     1
  9
$FINGERPRINTGUID
  2
{F278ABA1-C0D6-4551-BE5D-D02AAA5759F1}
  9
$VERSIONGUID
  2
{FAEB1C32-E019-11D5-929B-00C0DF256EC4}
  9
$EXTNAMES
290
     1
  9
$PSVPSCALE
 40
0.0
  9
$OLESTARTUP
290
     0
  9
$SORTENTS
280
   127
  9
$INDEXCTL
280
     0
  9
$HIDETEXT
280
     1
  9
$XCLIPFRAME
280
     2
  9
$HALOGAP
280
     0
  9
$OBSCOLOR
 70
   257
  9
$OBSLTYPE
280
     0
  9
$INTERSECTIONDISPLAY
280
     0
  9
$INTERSECTIONCOLOR
 70
   257
  9
$DIMASSOC
280
     2
  9
$PROJECTNAME
  1

  9
$CAMERADISPLAY
290
     0
  9
$LENSLENGTH
 40
50.0
  9
$CAMERAHEIGHT
 40
0.0
  9
$STEPSPERSEC
 40
2.0
  9
$STEPSIZE
 40
6.0
  9
$3DDWFPREC
 40
2.0
  9
$PSOLWIDTH
 40
5.0
  9
$PSOLHEIGHT
 40
80.0
  9
$LOFTANG1
 40
1.570796326794897
  9
$LOFTANG2
 40
1.570796326794897
  9
$LOFTMAG1
 40
0.0
  9
$LOFTMAG2
 40
0.0
  9
$LOFTPARAM
 70
     7
  9
$LOFTNORMALS
280
     1
  9
$LATITUDE
 40
37.795
  9
$LONGITUDE
 40
-122.394
  9
$NORTHDIRECTION
 40
0.0
  9
$TIMEZONE
 70
 -8000
  9
$LIGHTGLYPHDISPLAY
280
     1
  9
$TILEMODELIGHTSYNCH
280
     1
  9
$CMATERIAL
347
44
  9
$SOLIDHIST
280
     0
  9
$SHOWHIST
280
     1
  9
$DWFFRAME
280
     2
  9
$DGNFRAME
280
     2
  9
$REALWORLDSCALE
290
     1
  9
$INTERFERECOLOR
 62
   256
  9
$CSHADOW
280
     0
  9
$SHADOWPLANELOCATION
 40
0.0
  0
ENDSEC
  0
SECTION
  2
CLASSES
  0
CLASS
  1
ACDBDICTIONARYWDFLT
  2
AcDbDictionaryWithDefault
  3
ObjectDBX Classes
 90
        0
 91
        4
280
     0
281
     0
  0
CLASS
  1
VISUALSTYLE
  2
AcDbVisualStyle
  3
ObjectDBX Classes
 90
     4095
 91
        4
280
     0
281
     0
  0
CLASS
  1
MATERIAL
  2
AcDbMaterial
  3
ObjectDBX Classes
 90
     1153
 91
        4
280
     0
281
     0
  0
CLASS
  1
SCALE
  2
AcDbScale
  3
ObjectDBX Classes
 90
     1153
 91
        4
280
     0
281
     0
  0
CLASS
  1
TABLESTYLE
  2
AcDbTableStyle
  3
ObjectDBX Classes
 90
     4095
 91
        4
280
     0
281
     0
  0
CLASS
  1
MLEADERSTYLE
  2
AcDbMLeaderStyle
  3
ACDB_MLEADERSTYLE_CLASS
 90
     4095
 91
        4
280
     0
281
     0
  0
CLASS
  1
SUN
  2
AcDbSun
  3
SCENEOE
 90
     1153
 91
        4
280
     0
281
     0
  0
CLASS
  1
DICTIONARYVAR
  2
AcDbDictionaryVar
  3
ObjectDBX Classes
 90
        0
 91
        4
280
     0
281
     0
  0
CLASS
  1
CELLSTYLEMAP
  2
AcDbCellStyleMap
  3
ObjectDBX Classes
 90
     1152
 91
        4
280
     0
281
     0
  0
ENDSEC
  0
SECTION
  2
TABLES
  0
TABLE
  2
VPORT
  5
8
330
0
100
AcDbSymbolTable
 70
     1
  0
VPORT
  5
29
330
8
100
AcDbSymbolTableRecord
100
AcDbViewportTableRecord
  2
*Active
 70
     0
 10
0.0
 20
0.0
 11
1.0
 21
1.0
 12
0.0
 22
0.0
 13
0.0
 23
0.0
 14
10.0
 24
10.0
 15
10.0
 25
10.0
 16
0.0
 26
0.0
 36
1.0
 17
0.0
 27
0.0
 37
0.0
 40
1633.5
 41
1.414141414141414
 42
50.0
 43
0.0
 44
0.0
 50
0.0
 51
0.0
 71
     0
 72
 10000
 73
     1
 74
     3
 75
     0
 76
     0
 77
     0
 78
     0
281
     0
 65
     1
110
0.0
120
0.0
130
0.0
111
1.0
121
0.0
131
0.0
112
0.0
122
1.0
132
0.0
 79
     0
146
0.0
348
2F
 60
     3
 61
     5
292
     1
282
     1
141
0.0
142
0.0
 63
   250
361
6D
  0
ENDTAB
  0
TABLE
  2
LTYPE
  5
5
330
0
100
AcDbSymbolTable
 70
     7
  0
LTYPE
  5
14
330
5
100
AcDbSymbolTableRecord
100
AcDbLinetypeTableRecord
  2
ByBlock
 70
     0
  3

 72
    65
 73
     0
 40
0.0
  0
LTYPE
  5
15
330
5
100
AcDbSymbolTableRecord
100
AcDbLinetypeTableRecord
  2
ByLayer
 70
     0
  3

 72
    65
 73
     0
 40
0.0
  0
LTYPE
  5
16
330
5
100
AcDbSymbolTableRecord
100
AcDbLinetypeTableRecord
  2
Continuous
 70
     0
  3
Solid line
 72
    65
 73
     0
 40
0.0
  0
LTYPE
  5
6F
330
5
100
AcDbSymbolTableRecord
100
AcDbLinetypeTableRecord
  2
JWW_DASHED3
 70
     0
  3
---  ------  ------  ------  ---
 72
    65
 73
     2
 40
3.386666666666667
 49
2.54
 74
     0
 49
-0.8466666666666667
 74
     0
  0
LTYPE
  5
70
330
5
100
AcDbSymbolTableRecord
100
AcDbLinetypeTableRecord
  2
JWW_CENTER1
 70
     0
  3
-----  --  ----------  --  -----
 72
    65
 73
     4
 40
6.773333333333333
 49
4.233333333333333
 74
     0
 49
-0.8466666666666667
 74
     0
 49
0.8466666666666667
 74
     0
 49
-0.8466666666666667
 74
     0
  0
LTYPE
  5
71
330
5
100
AcDbSymbolTableRecord
100
AcDbLinetypeTableRecord
  2
JWW_HOJO
 70
     0
  3
  -   -   -   -   -   -   -   - 
 72
    65
 73
     2
 40
1.693333333333333
 49
-1.27
 74
     0
 49
0.4233333333333333
 74
     0
  0
LTYPE
  5
72
330
5
100
AcDbSymbolTableRecord
100
AcDbLinetypeTableRecord
  2
JWW_DASHED2
 70
     0
  3
--    ----    ----    ----    --
 72
    65
 73
     2
 40
3.386666666666667
 49
1.693333333333333
 74
     0
 49
-1.693333333333333
 74
     0
  0
LTYPE
  5
73
330
5
100
AcDbSymbolTableRecord
100
AcDbLinetypeTableRecord
  2
JWW_PHANTOM1
 70
     0
  3
----  -  -  --------  -  -  ----
 72
    65
 73
     6
 40
6.773333333333333
 49
3.386666666666667
 74
     0
 49
-0.8466666666666667
 74
     0
 49
0.4233333333333333
 74
     0
 49
-0.8466666666666667
 74
     0
 49
0.4233333333333333
 74
     0
 49
-0.8466666666666667
 74
     0
  0
LTYPE
  5
74
330
5
100
AcDbSymbolTableRecord
100
AcDbLinetypeTableRecord
  2
JWW_CENTER2
 70
     0
  3
-------------  --  -------------
 72
    65
 73
     4
 40
13.54666666666667
 49
11.00666666666667
 74
     0
 49
-0.8466666666666667
 74
     0
 49
0.8466666666666667
 74
     0
 49
-0.8466666666666667
 74
     0
  0
ENDTAB
  0
TABLE
  2
LAYER
  5
2
330
0
100
AcDbSymbolTable
 70
    17
  0
LAYER
  5
10
330
2
100
AcDbSymbolTableRecord
100
AcDbLayerTableRecord
  2
0
 70
     0
 62
     7
  6
Continuous
370
    -3
390
F
347
46
348
0
  0
LAYER
  5
75
330
2
100
AcDbSymbolTableRecord
100
AcDbLayerTableRecord
  2
D-5
 70
     0
 62
     7
  6
Continuous
370
    -3
390
F
347
46
348
0
  0
LAYER
  5
76
330
2
100
AcDbSymbolTableRecord
100
AcDbLayerTableRecord
  2
D-6
 70
     0
 62
     7
  6
Continuous
370
    -3
390
F
347
46
348
0
  0
LAYER
  5
77
330
2
100
AcDbSymbolTableRecord
100
AcDbLayerTableRecord
  2
D-4
 70
     0
 62
     7
  6
Continuous
370
    -3
390
F
347
46
348
0
  0
LAYER
  5
78
330
2
100
AcDbSymbolTableRecord
100
AcDbLayerTableRecord
  2
D-1
 70
     0
 62
     7
  6
Continuous
370
    -3
390
F
347
46
348
0
  0
LAYER
  5
79
330
2
100
AcDbSymbolTableRecord
100
AcDbLayerTableRecord
  2
D-2
 70
     0
 62
     7
  6
Continuous
370
    -3
390
F
347
46
348
0
  0
LAYER
  5
7A
330
2
100
AcDbSymbolTableRecord
100
AcDbLayerTableRecord
  2
躯体
 70
     0
 62
     7
  6
Continuous
370
    -3
390
F
347
46
348
0
  0
LAYER
  5
7B
330
2
100
AcDbSymbolTableRecord
100
AcDbLayerTableRecord
  2
その他
 70
     0
 62
     7
  6
Continuous
370
    -3
390
F
347
46
348
0
  0
LAYER
  5
7C
330
2
100
AcDbSymbolTableRecord
100
AcDbLayerTableRecord
  2
寸法
 70
     0
 62
     7
  6
Continuous
370
    -3
390
F
347
46
348
0
  0
LAYER
  5
7D
330
2
100
AcDbSymbolTableRecord
100
AcDbLayerTableRecord
  2
仕上
 70
     0
 62
     7
  6
Continuous
370
    -3
390
F
347
46
348
0
  0
LAYER
  5
7E
330
2
100
AcDbSymbolTableRecord
100
AcDbLayerTableRecord
  2
0-F
 70
     0
 62
     7
  6
Continuous
370
    -3
390
F
347
46
348
0
  0
LAYER
  5
7F
330
2
100
AcDbSymbolTableRecord
100
AcDbLayerTableRecord
  2
通り芯
 70
     0
 62
     7
  6
Continuous
370
    -3
390
F
347
46
348
0
  0
LAYER
  5
80
330
2
100
AcDbSymbolTableRecord
100
AcDbLayerTableRecord
  2
F-4ﾚｲﾔ
 70
     0
 62
     7
  6
Continuous
370
    -3
390
F
347
46
348
0
  0
LAYER
  5
81
330
2
100
AcDbSymbolTableRecord
100
AcDbLayerTableRecord
  2
建具
 70
     0
 62
     7
  6
Continuous
370
    -3
390
F
347
46
348
0
  0
LAYER
  5
82
330
2
100
AcDbSymbolTableRecord
100
AcDbLayerTableRecord
  2
D-3
 70
     0
 62
     7
  6
Continuous
370
    -3
390
F
347
46
348
0
  0
LAYER
  5
83
330
2
100
AcDbSymbolTableRecord
100
AcDbLayerTableRecord
  2
D-F
 70
     0
 62
     7
  6
Continuous
370
    -3
390
F
347
46
348
0
  0
LAYER
  5
84
330
2
100
AcDbSymbolTableRecord
100
AcDbLayerTableRecord
  2
F-5ﾚｲﾔ
 70
     0
 62
     7
  6
Continuous
370
    -3
390
F
347
46
348
0
  0
ENDTAB
  0
TABLE
  2
STYLE
  5
3
330
0
100
AcDbSymbolTable
 70
     2
  0
STYLE
  5
11
330
3
100
AcDbSymbolTableRecord
100
AcDbTextStyleTableRecord
  2
Standard
 70
     0
 40
0.0
 41
1.0
 50
0.0
 71
     0
 42
2.5
  3
txt
  4

  0
STYLE
  5
6E
330
3
100
AcDbSymbolTableRecord
100
AcDbTextStyleTableRecord
  2
ＭＳ ゴシック
 70
     0
 40
1.0
 41
1.0
 50
0.0
 71
     0
 42
2.5
  3

  4

1001
ACAD
1000
MS Gothic
1071
    32817
  0
ENDTAB
  0
TABLE
  2
VIEW
  5
6
330
0
100
AcDbSymbolTable
 70
     0
  0
ENDTAB
  0
TABLE
  2
UCS
  5
7
330
0
100
AcDbSymbolTable
 70
     0
  0
ENDTAB
  0
TABLE
  2
APPID
  5
9
330
0
100
AcDbSymbolTable
 70
     1
  0
APPID
  5
12
330
9
100
AcDbSymbolTableRecord
100
AcDbRegAppTableRecord
  2
ACAD
 70
     0
  0
ENDTAB
  0
TABLE
  2
DIMSTYLE
  5
A
330
0
100
AcDbSymbolTable
 70
     1
100
AcDbDimStyleTable
  0
DIMSTYLE
105
27
330
A
100
AcDbSymbolTableRecord
100
AcDbDimStyleTableRecord
  2
ISO-25
 70
     0
 41
2.5
 42
0.625
 43
3.75
 44
1.25
 73
     0
 74
     0
 77
     1
 78
     8
140
2.5
141
2.5
143
0.03937007874016
147
0.625
171
     3
172
     1
178
     0
271
     2
272
     2
274
     3
278
    44
283
     0
284
     8
340
11
  0
ENDTAB
  0
TABLE
  2
BLOCK_RECORD
  5
1
330
0
100
AcDbSymbolTable
 70
     1
  0
BLOCK_RECORD
  5
1F
330
1
100
AcDbSymbolTableRecord
100
AcDbBlockTableRecord
  2
*Model_Space
340
22
 70
     0
280
     1
281
     0
  0
BLOCK_RECORD
  5
1B
330
1
100
AcDbSymbolTableRecord
100
AcDbBlockTableRecord
  2
*Paper_Space
340
1E
 70
     0
280
     1
281
     0
  0
BLOCK_RECORD
  5
23
330
1
100
AcDbSymbolTableRecord
100
AcDbBlockTableRecord
  2
*Paper_Space0
340
26
 70
     0
280
     1
281
     0
  0
ENDTAB
  0
ENDSEC
  0
SECTION
  2
BLOCKS
  0
BLOCK
  5
20
330
1F
100
AcDbEntity
  8
0
100
AcDbBlockBegin
  2
*Model_Space
 70
     0
 10
0.0
 20
0.0
 30
0.0
  3
*Model_Space
  1

  0
ENDBLK
  5
21
330
1F
100
AcDbEntity
  8
0
100
AcDbBlockEnd
  0
BLOCK
  5
1C
330
1B
100
AcDbEntity
 67
     1
  8
0
100
AcDbBlockBegin
  2
*Paper_Space
 70
     0
 10
0.0
 20
0.0
 30
0.0
  3
*Paper_Space
  1

  0
ENDBLK
  5
1D
330
1B
100
AcDbEntity
 67
     1
  8
0
100
AcDbBlockEnd
  0
BLOCK
  5
24
330
23
100
AcDbEntity
  8
0
100
AcDbBlockBegin
  2
*Paper_Space0
 70
     0
 10
0.0
 20
0.0
 30
0.0
  3
*Paper_Space0
  1

  0
ENDBLK
  5
25
330
23
100
AcDbEntity
  8
0
100
AcDbBlockEnd
  0
ENDSEC
  0
SECTION
  2
ENTITIES
  0
TEXT
  5
85
330
1F
100
AcDbEntity
  8
D-5
  6
Continuous
 62
     2
370
     9
100
AcDbText
 10
308.6907306819435
 20
87.94910356770421
 30
0.0
 40
15.24
  1
断面詳細図　Ｓ＝１：２
 41
1.113636363636364
  7
ＭＳ ゴシック
100
AcDbText
  0
LINE
  5
86
330
1F
100
AcDbEntity
  8
D-5
  6
Continuous
 62
     7
370
     9
100
AcDbLine
 10
302.2662105934418
 20
81.91102495442297
 30
0.0
 11
560.1152507704454
 21
81.91102495442297
 31
0.0
  0
LWPOLYLINE
  5
87
330
1F
100
AcDbEntity
  8
D-6
  6
Continuous
 62
     6
370
     9
100
AcDbPolyline
 90
        4
 70
     1
 43
1.0
 10
866.7988552023236
 20
321.1761366292579
 42
0.4142135623731
 10
866.2988552023237
 20
321.6761366292579
 42
0.4142135623731
 10
865.7988552023237
 20
321.1761366292579
 42
0.4142135623731
 10
866.2988552023237
 20
320.6761366292579
 42
0.4142135623731
  0
LWPOLYLINE
  5
88
330
1F
100
AcDbEntity
  8
D-6
  6
Continuous
 62
     6
370
     9
100
AcDbPolyline
 90
        4
 70
     1
 43
1.0
 10
900.9408331759461
 20
321.8203248929112
 42
0.4142135623731
 10
900.4408331759462
 20
322.3203248929111
 42
0.4142135623731
 10
899.9408331759462
 20
321.8203248929112
 42
0.4142135623731
 10
900.4408331759462
 20
321.3203248929112
 42
0.4142135623731
  0
LWPOLYLINE
  5
89
330
1F
100
AcDbEntity
  8
D-6
  6
Continuous
 62
     6
370
     9
100
AcDbPolyline
 90
        4
 70
     1
 43
1.0
 10
900.9408331759461
 20
383.0182099399706
 42
0.4142135623731
 10
900.4408331759462
 20
383.5182099399705
 42
0.4142135623731
 10
899.9408331759462
 20
383.0182099399706
 42
0.4142135623731
 10
900.4408331759462
 20
382.5182099399706
 42
0.4142135623731
  0
LWPOLYLINE
  5
8A
330
1F
100
AcDbEntity
  8
D-6
  6
Continuous
 62
     6
370
     9
100
AcDbPolyline
 90
        4
 70
     1
 43
1.0
 10
706.3959775526628
 20
328.9063957930971
 42
0.4142135623731
 10
705.8959775526628
 20
329.406395793097
 42
0.4142135623731
 10
705.3959775526629
 20
328.9063957930971
 42
0.4142135623731
 10
705.8959775526628
 20
328.4063957930971
 42
0.4142135623731
  0
LWPOLYLINE
  5
8B
330
1F
100
AcDbEntity
  8
D-6
  6
Continuous
 62
     6
370
     9
100
AcDbPolyline
 90
        4
 70
     1
 43
1.0
 10
706.3959775526628
 20
394.6135986857291
 42
0.4142135623731
 10
705.8959775526628
 20
395.1135986857291
 42
0.4142135623731
 10
705.3959775526629
 20
394.6135986857291
 42
0.4142135623731
 10
705.8959775526628
 20
394.1135986857291
 42
0.4142135623731
  0
LWPOLYLINE
  5
8C
330
1F
100
AcDbEntity
  8
D-6
  6
Continuous
 62
     6
370
     9
100
AcDbPolyline
 90
        4
 70
     1
 43
1.0
 10
663.4500933091125
 20
267.2790519036022
 42
0.4142135623731
 10
662.9500933091126
 20
267.7790519036022
 42
0.4142135623731
 10
662.4500933091126
 20
267.2790519036022
 42
0.4142135623731
 10
662.9500933091126
 20
266.7790519036022
 42
0.4142135623731
  0
LWPOLYLINE
  5
8D
330
1F
100
AcDbEntity
  8
D-6
  6
Continuous
 62
     6
370
     9
100
AcDbPolyline
 90
        4
 70
     1
 43
1.0
 10
650.3432222014329
 20
358.1472669543589
 42
0.4142135623731
 10
649.843222201433
 20
358.6472669543589
 42
0.4142135623731
 10
649.343222201433
 20
358.1472669543589
 42
0.4142135623731
 10
649.843222201433
 20
357.647266954359
 42
0.4142135623731
  0
LWPOLYLINE
  5
8E
330
1F
100
AcDbEntity
  8
D-6
  6
Continuous
 62
     6
370
     9
100
AcDbPolyline
 90
        4
 70
     1
 43
1.0
 10
664.4466229082753
 20
391.6428436331087
 42
0.4142135623731
 10
663.9466229082755
 20
392.1428436331087
 42
0.4142135623731
 10
663.4466229082755
 20
391.6428436331087
 42
0.4142135623731
 10
663.9466229082755
 20
391.1428436331087
 42
0.4142135623731
  0
LINE
  5
8F
330
1F
100
AcDbEntity
  8
D-6
  6
JWW_DASHED3
 62
     6
370
     9
100
AcDbLine
 10
895.628530377405
 20
399.4455571123297
 30
0.0
 11
906.6359301016123
 21
410.4529568365368
 31
0.0
  0
LINE
  5
90
330
1F
100
AcDbEntity
  8
D-6
  6
Continuous
 62
     6
370
     9
100
AcDbLine
 10
708.1295696050736
 20
399.4456437003021
 30
0.0
 11
906.6359301016123
 21
399.4456437003021
 31
0.0
  0
LINE
  5
91
330
1F
100
AcDbEntity
  8
D-6
  6
JWW_DASHED3
 62
     6
370
     9
100
AcDbLine
 10
870.6286953372867
 20
399.4455571123297
 30
0.0
 11
890.6287613212398
 21
419.4456230962824
 31
0.0
  0
LINE
  5
92
330
1F
100
AcDbEntity
  8
D-6
  6
Continuous
 62
     6
370
     9
100
AcDbLine
 10
883.1286128573461
 20
399.4455571123297
 30
0.0
 11
903.1289262811217
 21
419.4456230962824
 31
0.0
  0
LINE
  5
93
330
1F
100
AcDbEntity
  8
D-6
  6
Continuous
 62
     6
370
     9
100
AcDbLine
 10
858.128579845783
 20
399.4456437003021
 30
0.0
 11
878.1290912410029
 21
419.4456230962824
 31
0.0
  0
LINE
  5
94
330
1F
100
AcDbEntity
  8
D-6
  6
JWW_DASHED3
 62
     6
370
     9
100
AcDbLine
 10
845.6286623257242
 20
399.4456437003021
 30
0.0
 11
865.6287283096767
 21
419.4457096842548
 31
0.0
  0
LINE
  5
95
330
1F
100
AcDbEntity
  8
D-6
  6
JWW_DASHED3
 62
     6
370
     9
100
AcDbLine
 10
820.6288272856059
 20
399.4456437003021
 30
0.0
 11
840.6288932695586
 21
419.4457096842548
 31
0.0
  0
LINE
  5
96
330
1F
100
AcDbEntity
  8
D-6
  6
Continuous
 62
     6
370
     9
100
AcDbLine
 10
833.1287448056648
 20
399.4456437003021
 30
0.0
 11
853.1290582294403
 21
419.4457096842548
 31
0.0
  0
LINE
  5
97
330
1F
100
AcDbEntity
  8
D-6
  6
JWW_DASHED3
 62
     6
370
     9
100
AcDbLine
 10
795.6289922454878
 20
399.4456437003021
 30
0.0
 11
815.6290582294403
 21
419.4457096842548
 31
0.0
  0
LINE
  5
98
330
1F
100
AcDbEntity
  8
D-6
  6
Continuous
 62
     6
370
     9
100
AcDbLine
 10
808.1289097655465
 20
399.4456437003021
 30
0.0
 11
828.1292231893221
 21
419.4457096842548
 31
0.0
  0
LINE
  5
99
330
1F
100
AcDbEntity
  8
D-6
  6
JWW_DASHED3
 62
     6
370
     9
100
AcDbLine
 10
770.6291572053694
 20
399.4456437003021
 30
0.0
 11
790.6292231893221
 21
419.4457096842548
 31
0.0
  0
LINE
  5
9A
330
1F
100
AcDbEntity
  8
D-6
  6
Continuous
 62
     6
370
     9
100
AcDbLine
 10
783.1290747254284
 20
399.4456437003021
 30
0.0
 11
803.1293881492038
 21
419.4457096842548
 31
0.0
  0
LINE
  5
9B
330
1F
100
AcDbEntity
  8
D-6
  6
JWW_DASHED3
 62
     6
370
     9
100
AcDbLine
 10
745.6293221652513
 20
399.4456437003021
 30
0.0
 11
765.6293881492038
 21
419.4457096842548
 31
0.0
  0
LINE
  5
9C
330
1F
100
AcDbEntity
  8
D-6
  6
Continuous
 62
     6
370
     9
100
AcDbLine
 10
758.12923968531
 20
399.4456437003021
 30
0.0
 11
778.1295531090857
 21
419.4457096842548
 31
0.0
  0
LINE
  5
9D
330
1F
100
AcDbEntity
  8
D-6
  6
Continuous
 62
     6
370
     9
100
AcDbLine
 10
708.1295696050736
 20
411.9455612203612
 30
0.0
 11
715.6297180689673
 21
419.4457096842548
 31
0.0
  0
LINE
  5
9E
330
1F
100
AcDbEntity
  8
D-6
  6
Continuous
 62
     6
370
     9
100
AcDbLine
 10
708.1295696050736
 20
399.4456437003021
 30
0.0
 11
728.1296355890263
 21
419.4457096842548
 31
0.0
  0
LINE
  5
9F
330
1F
100
AcDbEntity
  8
D-6
  6
JWW_DASHED3
 62
     6
370
     9
100
AcDbLine
 10
720.629487125133
 20
399.4456437003021
 30
0.0
 11
740.6295531090857
 21
419.4457096842548
 31
0.0
  0
LINE
  5
A0
330
1F
100
AcDbEntity
  8
D-6
  6
Continuous
 62
     6
370
     9
100
AcDbLine
 10
733.1294046451919
 20
399.4456437003021
 30
0.0
 11
753.1297180689673
 21
419.4457096842548
 31
0.0
  0
LINE
  5
A1
330
1F
100
AcDbEntity
  8
D-6
  6
Continuous
 62
     6
370
     9
100
AcDbLine
 10
708.1295696050736
 20
419.4457096842548
 30
0.0
 11
708.1295696050736
 21
399.4456437003021
 31
0.0
  0
LWPOLYLINE
  5
A2
330
1F
100
AcDbEntity
  8
D-6
  6
Continuous
 62
     6
370
     9
100
AcDbPolyline
 90
        4
 70
     1
 43
1.0
 10
287.6963255700236
 20
387.1252607830525
 42
0.4142135623731
 10
287.1963255700236
 20
387.6252607830525
 42
0.4142135623731
 10
286.6963255700236
 20
387.1252607830525
 42
0.4142135623731
 10
287.1963255700236
 20
386.6252607830525
 42
0.4142135623731
  0
LWPOLYLINE
  5
A3
330
1F
100
AcDbEntity
  8
D-6
  6
Continuous
 62
     6
370
     9
100
AcDbPolyline
 90
        4
 70
     1
 43
1.0
 10
377.5006501582835
 20
371.0886858780694
 42
0.4142135623731
 10
377.0006501582835
 20
371.5886858780693
 42
0.4142135623731
 10
376.5006501582835
 20
371.0886858780694
 42
0.4142135623731
 10
377.0006501582835
 20
370.5886858780694
 42
0.4142135623731
  0
LWPOLYLINE
  5
A4
330
1F
100
AcDbEntity
  8
D-6
  6
Continuous
 62
     6
370
     9
100
AcDbPolyline
 90
        4
 70
     1
 43
1.0
 10
546.4181669182075
 20
376.4343758062788
 42
0.4142135623731
 10
545.9181669182075
 20
376.9343758062787
 42
0.4142135623731
 10
545.4181669182075
 20
376.4343758062788
 42
0.4142135623731
 10
545.9181669182075
 20
375.9343758062788
 42
0.4142135623731
  0
LWPOLYLINE
  5
A5
330
1F
100
AcDbEntity
  8
D-6
  6
Continuous
 62
     6
370
     9
100
AcDbPolyline
 90
        4
 70
     1
 43
1.0
 10
415.9881824904205
 20
383.9179458020558
 42
0.4142135623731
 10
415.4881824904205
 20
384.4179458020558
 42
0.4142135623731
 10
414.9881824904205
 20
383.9179458020558
 42
0.4142135623731
 10
415.4881824904205
 20
383.4179458020559
 42
0.4142135623731
  0
LWPOLYLINE
  5
A6
330
1F
100
AcDbEntity
  8
D-6
  6
Continuous
 62
     6
370
     9
100
AcDbPolyline
 90
        4
 70
     1
 43
1.0
 10
331.529300390547
 20
373.2270608252821
 42
0.4142135623731
 10
331.0293003905471
 20
373.7270608252821
 42
0.4142135623731
 10
330.5293003905471
 20
373.2270608252821
 42
0.4142135623731
 10
331.0293003905471
 20
372.7270608252821
 42
0.4142135623731
  0
LWPOLYLINE
  5
A7
330
1F
100
AcDbEntity
  8
D-6
  6
Continuous
 62
     6
370
     9
100
AcDbPolyline
 90
        4
 70
     1
 43
1.0
 10
346.4966878219236
 20
358.2596733939055
 42
0.4142135623731
 10
345.9966878219236
 20
358.7596733939054
 42
0.4142135623731
 10
345.4966878219236
 20
358.2596733939055
 42
0.4142135623731
 10
345.9966878219236
 20
357.7596733939055
 42
0.4142135623731
  0
LINE
  5
A8
330
1F
100
AcDbEntity
  8
D-6
  6
Continuous
 62
     6
370
     9
100
AcDbLine
 10
745.8792226001797
 20
351.225278198103
 30
0.0
 11
745.8792226001797
 21
363.725278198103
 31
0.0
  0
LINE
  5
A9
330
1F
100
AcDbEntity
  8
D-6
  6
Continuous
 62
     6
370
     9
100
AcDbLine
 10
723.3792720881443
 20
363.725278198103
 30
0.0
 11
745.8792226001797
 21
363.725278198103
 31
0.0
  0
LINE
  5
AA
330
1F
100
AcDbEntity
  8
D-6
  6
Continuous
 62
     6
370
     9
100
AcDbLine
 10
723.3792720881443
 20
351.225370972071
 30
0.0
 11
723.3792720881443
 21
363.725278198103
 31
0.0
  0
LWPOLYLINE
  5
AB
330
1F
100
AcDbEntity
  8
D-6
  6
Continuous
 62
     6
370
     9
100
AcDbPolyline
 90
        4
 70
     1
 43
1.0
 10
519.9668348722103
 20
363.8897677639702
 42
0.4142135623731
 10
519.4668348722103
 20
364.3897677639701
 42
0.4142135623731
 10
518.9668348722104
 20
363.8897677639702
 42
0.4142135623731
 10
519.4668348722103
 20
363.3897677639702
 42
0.4142135623731
  0
LWPOLYLINE
  5
AC
330
1F
100
AcDbEntity
  8
D-6
  6
Continuous
 62
     6
370
     9
100
AcDbPolyline
 90
        4
 70
     1
 43
1.0
 10
535.5306690629739
 20
387.0699463459582
 42
0.4142135623731
 10
535.0306690629739
 20
387.5699463459581
 42
0.4142135623731
 10
534.5306690629739
 20
387.0699463459582
 42
0.4142135623731
 10
535.0306690629739
 20
386.5699463459582
 42
0.4142135623731
  0
LWPOLYLINE
  5
AD
330
1F
100
AcDbEntity
  8
D-6
  6
Continuous
 62
     6
370
     9
100
AcDbPolyline
 90
        4
 70
     1
 43
1.0
 10
570.6320823442699
 20
361.5717499057713
 42
0.4142135623731
 10
570.1320823442699
 20
362.0717499057713
 42
0.4142135623731
 10
569.63208234427
 20
361.5717499057713
 42
0.4142135623731
 10
570.1320823442699
 20
361.0717499057714
 42
0.4142135623731
  0
LWPOLYLINE
  5
AE
330
1F
100
AcDbEntity
  8
D-6
  6
Continuous
 62
     6
370
     9
100
AcDbPolyline
 90
        4
 70
     1
 43
1.0
 10
646.2911427410746
 20
389.9061454449451
 42
0.4142135623731
 10
645.7911427410747
 20
390.406145444945
 42
0.4142135623731
 10
645.2911427410747
 20
389.9061454449451
 42
0.4142135623731
 10
645.7911427410747
 20
389.4061454449451
 42
0.4142135623731
  0
LWPOLYLINE
  5
AF
330
1F
100
AcDbEntity
  8
D-6
  6
Continuous
 62
     6
370
     9
100
AcDbPolyline
 90
        4
 70
     1
 43
1.0
 10
664.8352856066653
 20
365.7325306380146
 42
0.4142135623731
 10
664.3352856066654
 20
366.2325306380146
 42
0.4142135623731
 10
663.8352856066654
 20
365.7325306380146
 42
0.4142135623731
 10
664.3352856066654
 20
365.2325306380146
 42
0.4142135623731
  0
LINE
  5
B0
330
1F
100
AcDbEntity
  8
D-5
  6
Continuous
 62
     7
370
     9
100
AcDbLine
 10
686.8789948966285
 20
419.4456029758312
 30
0.0
 11
728.9294855773189
 21
486.2180765981215
 31
0.0
  0
LINE
  5
B1
330
1F
100
AcDbEntity
  8
D-5
  6
Continuous
 62
     7
370
     9
100
AcDbLine
 10
763.2276025516771
 20
448.0587054997258
 30
0.0
 11
932.5937825602082
 21
448.0587054997258
 31
0.0
  0
LINE
  5
B2
330
1F
100
AcDbEntity
  8
D-5
  6
Continuous
 62
     7
370
     9
100
AcDbLine
 10
702.2459897487793
 20
351.225278198103
 30
0.0
 11
763.2276025516771
 21
448.0587054997258
 31
0.0
  0
TEXT
  5
B3
330
1F
100
AcDbEntity
  8
D-5
  6
Continuous
 62
     7
370
     9
100
AcDbText
 10
765.1104022682953
 20
452.8190846435182
 30
0.0
 40
11.43
  1
アンカー（ＳＧＨＣ）
 41
1.15
  7
ＭＳ ゴシック
100
AcDbText
  0
LINE
  5
B4
330
1F
100
AcDbEntity
  8
D-5
  6
Continuous
 62
     7
370
     9
100
AcDbLine
 10
702.2459897487793
 20
351.225278198103
 30
0.0
 11
707.4695254432456
 21
362.5815396801506
 31
0.0
  0
LINE
  5
B5
330
1F
100
AcDbEntity
  8
D-5
  6
Continuous
 62
     7
370
     9
100
AcDbLine
 10
702.2459897487793
 20
351.225278198103
 30
0.0
 11
710.2307545333249
 21
360.842633933204
 31
0.0
  0
TEXT
  5
B6
330
1F
100
AcDbEntity
  8
D-5
  6
Continuous
 62
     7
370
     9
100
AcDbText
 10
381.306120278476
 20
462.1107090008272
 30
0.0
 40
11.43
  1
ロックボディ
 41
1.138888888888889
  7
ＭＳ ゴシック
100
AcDbText
  0
TEXT
  5
B7
330
1F
100
AcDbEntity
  8
D-5
  6
Continuous
 62
     7
370
     9
100
AcDbText
 10
385.8538167786869
 20
437.5531726436692
 30
0.0
 40
11.43
  1
ＳＵＳ３０４
 41
1.138888888888889
  7
ＭＳ ゴシック
100
AcDbText
  0
LINE
  5
B8
330
1F
100
AcDbEntity
  8
D-5
  6
Continuous
 62
     7
370
     9
100
AcDbLine
 10
494.7993602225218
 20
454.905253249666
 30
0.0
 11
372.2107437740422
 21
454.905253249666
 31
0.0
  0
LINE
  5
B9
330
1F
100
AcDbEntity
  8
D-4
  6
Continuous
 62
     7
370
     9
100
AcDbLine
 10
695.6292473441622
 20
481.9456029758312
 30
0.0
 11
718.6239949685946
 21
481.9456029758312
 31
0.0
  0
TEXT
  5
BA
330
1F
100
AcDbEntity
  8
D-4
  6
Continuous
 62
     2
370
   211
100
AcDbText
 10
703.1168182626366
 20
487.2656029758312
 30
0.0
 40
15.24
  1
7
 41
0.9999999999999998
  7
ＭＳ ゴシック
100
AcDbText
  0
LINE
  5
BB
330
1F
100
AcDbEntity
  8
D-4
  6
Continuous
 62
     7
370
     9
100
AcDbLine
 10
658.1290652991502
 20
481.9456029758312
 30
0.0
 11
634.0540361157636
 21
481.9456029758312
 31
0.0
  0
TEXT
  5
BC
330
1F
100
AcDbEntity
  8
D-4
  6
Continuous
 62
     2
370
   211
100
AcDbText
 10
641.2412221053294
 20
487.2656029758312
 30
0.0
 40
15.24
  1
7
 41
0.9999999999999998
  7
ＭＳ ゴシック
100
AcDbText
  0
LINE
  5
BD
330
1F
100
AcDbEntity
  8
D-4
  6
Continuous
 62
     7
370
     9
100
AcDbLine
 10
658.1290652991502
 20
482.9456029758312
 30
0.0
 11
658.1290652991502
 21
428.2150745522605
 31
0.0
  0
LWPOLYLINE
  5
BE
330
1F
100
AcDbEntity
  8
D-4
  6
Continuous
 62
     7
370
     9
100
AcDbPolyline
 90
        4
 70
     1
 43
1.0
 10
658.62906529915
 20
481.9456029758312
 42
0.4142135623731
 10
658.1290652991502
 20
482.4456029758312
 42
0.4142135623731
 10
657.6290652991502
 20
481.9456029758312
 42
0.4142135623731
 10
658.1290652991502
 20
481.4456029758313
 42
0.4142135623731
  0
LINE
  5
BF
330
1F
100
AcDbEntity
  8
D-4
  6
Continuous
 62
     7
370
     9
100
AcDbLine
 10
675.6291966202352
 20
481.9456029758312
 30
0.0
 11
658.1290652991502
 21
481.9456029758312
 31
0.0
  0
TEXT
  5
C0
330
1F
100
AcDbEntity
  8
D-4
  6
Continuous
 62
     2
370
   211
100
AcDbText
 10
671.8792319976203
 20
487.2656029758312
 30
0.0
 40
15.24
  1
1
 41
0.9999999999999998
  7
ＭＳ ゴシック
100
AcDbText
  0
LINE
  5
C1
330
1F
100
AcDbEntity
  8
D-4
  6
Continuous
 62
     7
370
     9
100
AcDbLine
 10
675.6291966202352
 20
482.9456029758312
 30
0.0
 11
675.6291966202352
 21
428.1956231539597
 31
0.0
  0
LWPOLYLINE
  5
C2
330
1F
100
AcDbEntity
  8
D-4
  6
Continuous
 62
     7
370
     9
100
AcDbPolyline
 90
        4
 70
     1
 43
1.0
 10
676.1291966202351
 20
481.9456029758312
 42
0.4142135623731
 10
675.6291966202352
 20
482.4456029758312
 42
0.4142135623731
 10
675.1291966202352
 20
481.9456029758312
 42
0.4142135623731
 10
675.6291966202352
 20
481.4456029758313
 42
0.4142135623731
  0
LINE
  5
C3
330
1F
100
AcDbEntity
  8
D-4
  6
Continuous
 62
     7
370
     9
100
AcDbLine
 10
678.1292673750047
 20
481.9456029758312
 30
0.0
 11
675.6291966202352
 21
481.9456029758312
 31
0.0
  0
LINE
  5
C4
330
1F
100
AcDbEntity
  8
D-4
  6
Continuous
 62
     7
370
     9
100
AcDbLine
 10
678.1292673750047
 20
482.9456029758312
 30
0.0
 11
678.1292673750047
 21
428.1956231539597
 31
0.0
  0
LWPOLYLINE
  5
C5
330
1F
100
AcDbEntity
  8
D-4
  6
Continuous
 62
     7
370
     9
100
AcDbPolyline
 90
        4
 70
     1
 43
1.0
 10
678.6292673750047
 20
481.9456029758312
 42
0.4142135623731
 10
678.1292673750047
 20
482.4456029758312
 42
0.4142135623731
 10
677.6292673750048
 20
481.9456029758312
 42
0.4142135623731
 10
678.1292673750047
 20
481.4456029758313
 42
0.4142135623731
  0
LWPOLYLINE
  5
C6
330
1F
100
AcDbEntity
  8
D-4
  6
Continuous
 62
     7
370
     9
100
AcDbPolyline
 90
        4
 70
     1
 43
1.0
 10
696.1292473441621
 20
481.9456029758312
 42
0.4142135623731
 10
695.6292473441622
 20
482.4456029758312
 42
0.4142135623731
 10
695.1292473441622
 20
481.9456029758312
 42
0.4142135623731
 10
695.6292473441622
 20
481.4456029758313
 42
0.4142135623731
  0
LINE
  5
C7
330
1F
100
AcDbEntity
  8
D-4
  6
Continuous
 62
     7
370
     9
100
AcDbLine
 10
695.6292473441622
 20
481.9456029758312
 30
0.0
 11
678.1292673750047
 21
481.9456029758312
 31
0.0
  0
LINE
  5
C8
330
1F
100
AcDbEntity
  8
D-4
  6
Continuous
 62
     7
370
     9
100
AcDbLine
 10
695.6292473441622
 20
545.4456029758312
 30
0.0
 11
695.6292473441622
 21
428.1956231539597
 31
0.0
  0
LWPOLYLINE
  5
C9
330
1F
100
AcDbEntity
  8
D-4
  6
Continuous
 62
     7
370
     9
100
AcDbPolyline
 90
        4
 70
     1
 43
1.0
 10
696.1292473441621
 20
544.4456029758312
 42
0.4142135623731
 10
695.6292473441622
 20
544.9456029758312
 42
0.4142135623731
 10
695.1292473441622
 20
544.4456029758312
 42
0.4142135623731
 10
695.6292473441622
 20
543.9456029758312
 42
0.4142135623731
  0
LINE
  5
CA
330
1F
100
AcDbEntity
  8
D-5
  6
Continuous
 62
     7
370
     9
100
AcDbLine
 10
686.8789948966285
 20
419.4456029758312
 30
0.0
 11
692.1025305910948
 21
430.8018644578789
 31
0.0
  0
LINE
  5
CB
330
1F
100
AcDbEntity
  8
D-5
  6
Continuous
 62
     7
370
     9
100
AcDbLine
 10
686.8789948966285
 20
419.4456029758312
 30
0.0
 11
694.8637596811741
 21
429.0629587109322
 31
0.0
  0
LINE
  5
CC
330
1F
100
AcDbEntity
  8
D-4
  6
Continuous
 62
     7
370
     9
100
AcDbLine
 10
695.6292473441622
 20
544.4456029758312
 30
0.0
 11
70.89066585167949
 21
544.4456029758312
 31
0.0
  0
TEXT
  5
CD
330
1F
100
AcDbEntity
  8
D-5
  6
Continuous
 62
     7
370
     9
100
AcDbText
 10
522.102837487649
 20
269.4665835214798
 30
0.0
 40
11.43
  1
パッキン
 41
1.125
  7
ＭＳ ゴシック
100
AcDbText
  0
TEXT
  5
CE
330
1F
100
AcDbEntity
  8
D-5
  6
Continuous
 62
     7
370
     9
100
AcDbText
 10
504.602837487649
 20
246.3484176905943
 30
0.0
 40
11.43
  1
クロロプレン
 41
1.138888888888889
  7
ＭＳ ゴシック
100
AcDbText
  0
LINE
  5
CF
330
1F
100
AcDbEntity
  8
D-5
  6
Continuous
 62
     7
370
     9
100
AcDbLine
 10
612.1727392375439
 20
262.8722738818624
 30
0.0
 11
499.5329357377548
 21
262.8722738818624
 31
0.0
  0
LINE
  5
D0
330
1F
100
AcDbEntity
  8
D-5
  6
Continuous
 62
     7
370
     9
100
AcDbLine
 10
652.2965111375433
 20
338.3438129487416
 30
0.0
 11
647.9195426333215
 21
326.6351773871978
 31
0.0
  0
LINE
  5
D1
330
1F
100
AcDbEntity
  8
D-5
  6
Continuous
 62
     7
370
     9
100
AcDbLine
 10
652.2965111375433
 20
338.3438129487416
 30
0.0
 11
645.0382663429693
 21
328.1669822779462
 31
0.0
  0
LINE
  5
D2
330
1F
100
AcDbEntity
  8
D-5
  6
Continuous
 62
     7
370
     9
100
AcDbLine
 10
612.1727392375439
 20
262.8722738818624
 30
0.0
 11
652.2965111375433
 21
338.3438129487416
 31
0.0
  0
LINE
  5
D3
330
1F
100
AcDbEntity
  8
D-6
  6
Continuous
 62
     6
370
     9
100
AcDbLine
 10
745.8792226001797
 20
273.1196110393304
 30
0.0
 11
745.8792226001797
 21
347.2252781981031
 31
0.0
  0
LINE
  5
D4
330
1F
100
AcDbEntity
  8
D-6
  6
Continuous
 62
     6
370
     9
100
AcDbLine
 10
723.3792720881443
 20
273.1196110393304
 30
0.0
 11
723.3792720881443
 21
347.2252781981031
 31
0.0
  0
LINE
  5
D5
330
1F
100
AcDbEntity
  8
D-6
  6
Continuous
 62
     6
370
     9
100
AcDbLine
 10
695.6290046174788
 20
273.1196110393304
 30
0.0
 11
906.6359301016123
 21
273.1196110393304
 31
0.0
  0
LINE
  5
D6
330
1F
100
AcDbEntity
  8
D-6
  6
Continuous
 62
     6
370
     9
100
AcDbLine
 10
738.7819931355862
 20
149.5247106745485
 30
0.0
 11
862.3768935003679
 21
273.1196110393304
 31
0.0
  0
LINE
  5
D7
330
1F
100
AcDbEntity
  8
D-6
  6
Continuous
 62
     6
370
     9
100
AcDbLine
 10
745.8530609474521
 20
149.5247106745479
 30
0.0
 11
869.4479613122339
 21
273.11961103933
 31
0.0
  0
LINE
  5
D8
330
1F
100
AcDbEntity
  8
D-6
  6
Continuous
 62
     6
370
     9
100
AcDbLine
 10
752.9241287593206
 20
149.5247106745501
 30
0.0
 11
876.5190291241029
 21
273.119611039332
 31
0.0
  0
LINE
  5
D9
330
1F
100
AcDbEntity
  8
D-6
  6
Continuous
 62
     6
370
     9
100
AcDbLine
 10
695.6290046174788
 20
273.1196110393304
 30
0.0
 11
695.6290046174788
 21
149.5247106745485
 31
0.0
  0
LINE
  5
DA
330
1F
100
AcDbEntity
  8
D-6
  6
Continuous
 62
     6
370
     9
100
AcDbLine
 10
645.6290046174788
 20
334.4453853614887
 30
0.0
 11
645.6290046174788
 21
149.5247106745485
 31
0.0
  0
LINE
  5
DB
330
1F
100
AcDbEntity
  8
D-6
  6
JWW_CENTER1
 62
     6
370
     9
100
AcDbLine
 10
734.629247344162
 20
233.3821620416364
 30
0.0
 11
734.629247344162
 21
369.7164580055535
 31
0.0
  0
LINE
  5
DC
330
1F
100
AcDbEntity
  8
D-6
  6
JWW_DASHED3
 62
     6
370
     9
100
AcDbLine
 10
723.3792720881443
 20
248.3777452796943
 30
0.0
 11
723.3792720881443
 21
273.1196110393304
 31
0.0
  0
LINE
  5
DD
330
1F
100
AcDbEntity
  8
D-6
  6
JWW_DASHED3
 62
     6
370
     9
100
AcDbLine
 10
745.8792226001797
 20
248.3777452796943
 30
0.0
 11
745.8792226001797
 21
273.1196110393304
 31
0.0
  0
TEXT
  5
DE
330
1F
100
AcDbEntity
  8
D-4
  6
Continuous
 62
     2
370
   211
100
AcDbText
 10
709.504040231757
 20
214.1146154743133
 30
0.0
 40
15.24
  1
31
 41
1.0625
  7
ＭＳ ゴシック
100
AcDbText
  0
LINE
  5
DF
330
1F
100
AcDbEntity
  8
D-4
  6
Continuous
 62
     7
370
     9
100
AcDbLine
 10
759.6289645557929
 20
207.7946154743134
 30
0.0
 11
759.6289645557929
 21
337.2252781981031
 31
0.0
  0
LWPOLYLINE
  5
E0
330
1F
100
AcDbEntity
  8
D-4
  6
Continuous
 62
     7
370
     9
100
AcDbPolyline
 90
        4
 70
     1
 43
1.0
 10
760.1289645557928
 20
208.7946154743133
 42
0.4142135623731
 10
759.6289645557929
 20
209.2946154743133
 42
0.4142135623731
 10
759.1289645557929
 20
208.7946154743133
 42
0.4142135623731
 10
759.6289645557929
 20
208.2946154743133
 42
0.4142135623731
  0
LINE
  5
E1
330
1F
100
AcDbEntity
  8
D-4
  6
Continuous
 62
     7
370
     9
100
AcDbLine
 10
680.6291159077218
 20
208.7946154743133
 30
0.0
 11
759.6289645557929
 21
208.7946154743133
 31
0.0
  0
TEXT
  5
E2
330
1F
100
AcDbEntity
  8
D-4
  6
Continuous
 62
     2
370
   211
100
AcDbText
 10
652.5040602626004
 20
214.1146154743133
 30
0.0
 40
15.24
  1
14
 41
1.0625
  7
ＭＳ ゴシック
100
AcDbText
  0
LWPOLYLINE
  5
E3
330
1F
100
AcDbEntity
  8
D-4
  6
Continuous
 62
     7
370
     9
100
AcDbPolyline
 90
        4
 70
     1
 43
1.0
 10
681.1291159077218
 20
208.7946154743133
 42
0.4142135623731
 10
680.6291159077218
 20
209.2946154743133
 42
0.4142135623731
 10
680.1291159077219
 20
208.7946154743133
 42
0.4142135623731
 10
680.6291159077218
 20
208.2946154743133
 42
0.4142135623731
  0
LWPOLYLINE
  5
E4
330
1F
100
AcDbEntity
  8
D-4
  6
Continuous
 62
     7
370
     9
100
AcDbPolyline
 90
        4
 70
     1
 43
1.0
 10
646.1290046174788
 20
208.7946154743133
 42
0.4142135623731
 10
645.6290046174788
 20
209.2946154743133
 42
0.4142135623731
 10
645.1290046174789
 20
208.7946154743133
 42
0.4142135623731
 10
645.6290046174788
 20
208.2946154743133
 42
0.4142135623731
  0
LINE
  5
E5
330
1F
100
AcDbEntity
  8
D-4
  6
Continuous
 62
     7
370
     9
100
AcDbLine
 10
645.6290046174788
 20
208.7946154743133
 30
0.0
 11
680.6291159077218
 21
208.7946154743133
 31
0.0
  0
LINE
  5
E6
330
1F
100
AcDbEntity
  8
D-4
  6
Continuous
 62
     7
370
     9
100
AcDbLine
 10
645.6290046174788
 20
208.7946154743133
 30
0.0
 11
70.89066585167949
 21
208.7946154743133
 31
0.0
  0
LWPOLYLINE
  5
E7
330
1F
100
AcDbEntity
  8
D-6
  6
Continuous
 62
     6
370
     9
100
AcDbPolyline
 90
        4
 70
     1
 43
1.0
 10
659.1555048847574
 20
178.1015940053113
 42
0.4142135623731
 10
658.6555048847574
 20
178.6015940053113
 42
0.4142135623731
 10
658.1555048847575
 20
178.1015940053113
 42
0.4142135623731
 10
658.6555048847574
 20
177.6015940053113
 42
0.4142135623731
  0
LWPOLYLINE
  5
E8
330
1F
100
AcDbEntity
  8
D-6
  6
Continuous
 62
     6
370
     9
100
AcDbPolyline
 90
        4
 70
     1
 43
1.0
 10
685.3524942733231
 20
174.6659232658273
 42
0.4142135623731
 10
684.8524942733231
 20
175.1659232658273
 42
0.4142135623731
 10
684.3524942733233
 20
174.6659232658273
 42
0.4142135623731
 10
684.8524942733231
 20
174.1659232658273
 42
0.4142135623731
  0
TEXT
  5
E9
330
1F
100
AcDbEntity
  8
D-5
  6
Continuous
 62
     7
370
     9
100
AcDbText
 10
452.9469248134975
 20
514.7665269207475
 30
0.0
 40
11.43
  1
ロックボルト
 41
1.138888888888889
  7
ＭＳ ゴシック
100
AcDbText
  0
LINE
  5
EA
330
1F
100
AcDbEntity
  8
D-5
  6
Continuous
 62
     7
370
     9
100
AcDbLine
 10
444.1674052426569
 20
506.6514823815795
 30
0.0
 11
565.8876316335985
 21
506.6514823815795
 31
0.0
  0
LINE
  5
EB
330
1F
100
AcDbEntity
  8
D-5
  6
Continuous
 62
     7
370
     9
100
AcDbLine
 10
565.8876316335985
 20
506.6514823815795
 30
0.0
 11
596.5674062367494
 21
418.1954520082259
 31
0.0
  0
LINE
  5
EC
330
1F
100
AcDbEntity
  8
D-5
  6
Continuous
 62
     7
370
     9
100
AcDbLine
 10
596.5674062367494
 20
418.1954520082259
 30
0.0
 11
594.04786112386
 21
430.4388948420091
 31
0.0
  0
LINE
  5
ED
330
1F
100
AcDbEntity
  8
D-5
  6
Continuous
 62
     7
370
     9
100
AcDbLine
 10
596.5674062367494
 20
418.1954520082259
 30
0.0
 11
590.964876358702
 21
429.36960338386
 31
0.0
  0
LWPOLYLINE
  5
EE
330
1F
100
AcDbEntity
  8
D-6
  6
Continuous
 62
     6
370
     9
100
AcDbPolyline
 90
        4
 70
     1
 43
1.0
 10
761.589278868933
 20
384.4871901512936
 42
0.4142135623731
 10
761.089278868933
 20
384.9871901512935
 42
0.4142135623731
 10
760.589278868933
 20
384.4871901512936
 42
0.4142135623731
 10
761.089278868933
 20
383.9871901512936
 42
0.4142135623731
  0
LWPOLYLINE
  5
EF
330
1F
100
AcDbEntity
  8
D-6
  6
Continuous
 62
     6
370
     9
100
AcDbPolyline
 90
        4
 70
     1
 43
1.0
 10
766.691371085921
 20
365.2562271795701
 42
0.4142135623731
 10
766.191371085921
 20
365.7562271795701
 42
0.4142135623731
 10
765.691371085921
 20
365.2562271795701
 42
0.4142135623731
 10
766.191371085921
 20
364.7562271795701
 42
0.4142135623731
  0
LWPOLYLINE
  5
F0
330
1F
100
AcDbEntity
  8
D-6
  6
Continuous
 62
     6
370
     9
100
AcDbPolyline
 90
        4
 70
     1
 43
1.0
 10
735.6863491519176
 20
380.3662695144957
 42
0.4142135623731
 10
735.1863491519177
 20
380.8662695144957
 42
0.4142135623731
 10
734.6863491519177
 20
380.3662695144957
 42
0.4142135623731
 10
735.1863491519177
 20
379.8662695144957
 42
0.4142135623731
  0
LWPOLYLINE
  5
F1
330
1F
100
AcDbEntity
  8
D-6
  6
Continuous
 62
     6
370
     9
100
AcDbPolyline
 90
        4
 70
     1
 43
1.0
 10
696.0470173122429
 20
382.5248469909136
 42
0.4142135623731
 10
695.547017312243
 20
383.0248469909136
 42
0.4142135623731
 10
695.047017312243
 20
382.5248469909136
 42
0.4142135623731
 10
695.547017312243
 20
382.0248469909137
 42
0.4142135623731
  0
LWPOLYLINE
  5
F2
330
1F
100
AcDbEntity
  8
D-6
  6
Continuous
 62
     6
370
     9
100
AcDbPolyline
 90
        4
 70
     1
 43
1.0
 10
694.084674151863
 20
371.339490976748
 42
0.4142135623731
 10
693.584674151863
 20
371.839490976748
 42
0.4142135623731
 10
693.0846741518632
 20
371.339490976748
 42
0.4142135623731
 10
693.584674151863
 20
370.839490976748
 42
0.4142135623731
  0
LWPOLYLINE
  5
F3
330
1F
100
AcDbEntity
  8
D-6
  6
Continuous
 62
     6
370
     9
100
AcDbPolyline
 90
        4
 70
     1
 43
1.0
 10
810.598799299422
 20
304.227354891754
 42
0.4142135623731
 10
810.098799299422
 20
304.727354891754
 42
0.4142135623731
 10
809.598799299422
 20
304.227354891754
 42
0.4142135623731
 10
810.098799299422
 20
303.727354891754
 42
0.4142135623731
  0
LWPOLYLINE
  5
F4
330
1F
100
AcDbEntity
  8
D-6
  6
Continuous
 62
     6
370
     9
100
AcDbPolyline
 90
        4
 70
     1
 43
1.0
 10
821.6369795765592
 20
281.7094671263941
 42
0.4142135623731
 10
821.1369795765592
 20
282.2094671263941
 42
0.4142135623731
 10
820.6369795765592
 20
281.7094671263941
 42
0.4142135623731
 10
821.1369795765592
 20
281.2094671263941
 42
0.4142135623731
  0
LWPOLYLINE
  5
F5
330
1F
100
AcDbEntity
  8
D-6
  6
Continuous
 62
     6
370
     9
100
AcDbPolyline
 90
        4
 70
     1
 43
1.0
 10
778.3673128901814
 20
281.2679399153087
 42
0.4142135623731
 10
777.8673128901814
 20
281.7679399153087
 42
0.4142135623731
 10
777.3673128901816
 20
281.2679399153087
 42
0.4142135623731
 10
777.8673128901814
 20
280.7679399153087
 42
0.4142135623731
  0
LWPOLYLINE
  5
F6
330
1F
100
AcDbEntity
  8
D-6
  6
Continuous
 62
     6
370
     9
100
AcDbPolyline
 90
        4
 70
     1
 43
1.0
 10
886.5414796061258
 20
275.9696133822828
 42
0.4142135623731
 10
886.0414796061258
 20
276.4696133822828
 42
0.4142135623731
 10
885.5414796061258
 20
275.9696133822828
 42
0.4142135623731
 10
886.0414796061258
 20
275.4696133822828
 42
0.4142135623731
  0
LWPOLYLINE
  5
F7
330
1F
100
AcDbEntity
  8
D-6
  6
Continuous
 62
     6
370
     9
100
AcDbPolyline
 90
        4
 70
     1
 43
1.0
 10
904.6440952606308
 20
290.9815385591894
 42
0.4142135623731
 10
904.1440952606308
 20
291.4815385591894
 42
0.4142135623731
 10
903.6440952606308
 20
290.9815385591894
 42
0.4142135623731
 10
904.1440952606308
 20
290.4815385591893
 42
0.4142135623731
  0
LWPOLYLINE
  5
F8
330
1F
100
AcDbEntity
  8
D-6
  6
Continuous
 62
     6
370
     9
100
AcDbPolyline
 90
        4
 70
     1
 43
1.0
 10
847.8219961228787
 20
299.7875534913943
 42
0.4142135623731
 10
847.3219961228788
 20
300.2875534913944
 42
0.4142135623731
 10
846.8219961228788
 20
299.7875534913943
 42
0.4142135623731
 10
847.3219961228788
 20
299.2875534913943
 42
0.4142135623731
  0
LWPOLYLINE
  5
F9
330
1F
100
AcDbEntity
  8
D-6
  6
Continuous
 62
     6
370
     9
100
AcDbPolyline
 90
        4
 70
     1
 43
1.0
 10
782.6722031982645
 20
311.5616124536739
 42
0.4142135623731
 10
782.1722031982645
 20
312.061612453674
 42
0.4142135623731
 10
781.6722031982646
 20
311.5616124536739
 42
0.4142135623731
 10
782.1722031982645
 20
311.0616124536739
 42
0.4142135623731
  0
TEXT
  5
FA
330
1F
100
AcDbEntity
  8
D-5
  6
Continuous
 62
     7
370
     9
100
AcDbText
 10
734.9395061086718
 20
493.5270859150556
 30
0.0
 40
11.43
  1
受枠（ＳＵＳ３０４）
 41
1.15
  7
ＭＳ ゴシック
100
AcDbText
  0
LINE
  5
FB
330
1F
100
AcDbEntity
  8
D-5
  6
Continuous
 62
     7
370
     9
100
AcDbLine
 10
728.9294855773189
 20
486.2180765981215
 30
0.0
 11
901.3571048430016
 21
486.2180765981215
 31
0.0
  0
LINE
  5
FC
330
1F
100
AcDbEntity
  8
D-1
  6
Continuous
 62
     2
370
     9
100
AcDbLine
 10
680.6291978561969
 20
416.9453278463138
 30
0.0
 11
693.1293628160793
 21
416.9453278463138
 31
0.0
  0
LINE
  5
FD
330
1F
100
AcDbEntity
  8
D-1
  6
Continuous
 62
     2
370
     9
100
AcDbLine
 10
695.6292473441622
 20
418.1955175501777
 30
0.0
 11
695.6292473441622
 21
406.9455422941605
 31
0.0
  0
ARC
  5
FE
330
1F
100
AcDbEntity
  8
D-1
  6
Continuous
 62
     2
370
     9
100
AcDbCircle
 10
694.379305080121
 20
418.1955175501777
 30
0.0
 40
1.250000016109364
100
AcDbArc
 50
0.0
 51
90.0
  0
ARC
  5
FF
330
1F
100
AcDbEntity
  8
D-1
  6
Continuous
 62
     2
370
     9
100
AcDbCircle
 10
679.3792555921559
 20
418.1955175501777
 30
0.0
 40
1.250000016109364
100
AcDbArc
 50
90.0
 51
180.0
  0
LINE
  5
100
330
1F
100
AcDbEntity
  8
D-1
  6
Continuous
 62
     2
370
     9
100
AcDbLine
 10
679.3672399008963
 20
419.4454598142195
 30
0.0
 11
694.379305080121
 21
419.4454598142195
 31
0.0
  0
LINE
  5
101
330
1F
100
AcDbEntity
  8
D-1
  6
Continuous
 62
     2
370
     9
100
AcDbLine
 10
693.1293628160793
 20
406.9455422941605
 30
0.0
 11
695.6292473441622
 21
406.9455422941605
 31
0.0
  0
LINE
  5
102
330
1F
100
AcDbEntity
  8
D-1
  6
Continuous
 62
     2
370
     9
100
AcDbLine
 10
693.1293628160793
 20
416.9453278463138
 30
0.0
 11
693.1293628160793
 21
406.9455422941605
 31
0.0
  0
ARC
  5
103
330
1F
100
AcDbEntity
  8
D-1
  6
Continuous
 62
     2
370
     9
100
AcDbCircle
 10
679.3792555921559
 20
333.1953874234863
 30
0.0
 40
1.250000016109364
100
AcDbArc
 50
270.0
 51
0.0
  0
ARC
  5
104
330
1F
100
AcDbEntity
  8
D-1
  6
Continuous
 62
     2
370
     9
100
AcDbCircle
 10
646.8792720881438
 20
333.1953874234863
 30
0.0
 40
1.250000016109364
100
AcDbArc
 50
180.0
 51
270.0
  0
LINE
  5
105
330
1F
100
AcDbEntity
  8
D-1
  6
Continuous
 62
     2
370
     9
100
AcDbLine
 10
678.1291896082028
 20
418.1955175501777
 30
0.0
 11
678.1291896082028
 21
334.4454534074391
 31
0.0
  0
LINE
  5
106
330
1F
100
AcDbEntity
  8
D-1
  6
Continuous
 62
     2
370
     9
100
AcDbLine
 10
680.6291978561969
 20
333.1953874234863
 30
0.0
 11
680.6291978561969
 21
416.9453278463138
 31
0.0
  0
LINE
  5
107
330
1F
100
AcDbEntity
  8
D-1
  6
Continuous
 62
     2
370
     9
100
AcDbLine
 10
645.6292061041918
 20
344.445486399416
 30
0.0
 11
648.129338072097
 21
344.445486399416
 31
0.0
  0
LINE
  5
108
330
1F
100
AcDbEntity
  8
D-1
  6
Continuous
 62
     2
370
     9
100
AcDbLine
 10
645.6292061041918
 20
333.1953874234863
 30
0.0
 11
645.6292061041918
 21
344.445486399416
 31
0.0
  0
LINE
  5
109
330
1F
100
AcDbEntity
  8
D-1
  6
Continuous
 62
     2
370
     9
100
AcDbLine
 10
679.3792555921559
 20
331.9455688793563
 30
0.0
 11
646.8792720881438
 21
331.9455688793563
 31
0.0
  0
LINE
  5
10A
330
1F
100
AcDbEntity
  8
D-1
  6
Continuous
 62
     2
370
     9
100
AcDbLine
 10
680.6291693723974
 20
361.4750283280675
 30
0.0
 11
684.6291693723972
 21
361.4750283280675
 31
0.0
  0
LINE
  5
10B
330
1F
100
AcDbEntity
  8
D-1
  6
Continuous
 62
     2
370
     9
100
AcDbLine
 10
688.6291693723977
 20
351.2250283280674
 30
0.0
 11
688.6291693723977
 21
347.2250283280674
 31
0.0
  0
LINE
  5
10C
330
1F
100
AcDbEntity
  8
D-1
  6
Continuous
 62
     2
370
     9
100
AcDbLine
 10
684.6291693723972
 20
355.2250283280674
 30
0.0
 11
684.6291693723972
 21
416.9453278463138
 31
0.0
  0
ARC
  5
10D
330
1F
100
AcDbEntity
  8
D-1
  6
Continuous
 62
     2
370
     9
100
AcDbCircle
 10
688.6291693723977
 20
355.2250283280674
 30
0.0
 40
8.0
100
AcDbArc
 50
180.0
 51
270.0
  0
ARC
  5
10E
330
1F
100
AcDbEntity
  8
D-1
  6
Continuous
 62
     2
370
     9
100
AcDbCircle
 10
688.6291693723977
 20
355.2250283280674
 30
0.0
 40
4.0
100
AcDbArc
 50
180.0
 51
270.0
  0
LINE
  5
10F
330
1F
100
AcDbEntity
  8
D-1
  6
Continuous
 62
     2
370
     9
100
AcDbLine
 10
759.6291693723972
 20
347.2250283280674
 30
0.0
 11
759.6291693723972
 21
351.2250283280674
 31
0.0
  0
LINE
  5
110
330
1F
100
AcDbEntity
  8
D-1
  6
Continuous
 62
     2
370
     9
100
AcDbLine
 10
688.6291693723977
 20
347.2250283280674
 30
0.0
 11
759.6291693723972
 21
347.2250283280674
 31
0.0
  0
LINE
  5
111
330
1F
100
AcDbEntity
  8
D-1
  6
Continuous
 62
     2
370
     9
100
AcDbLine
 10
688.6291693723977
 20
351.2250283280674
 30
0.0
 11
759.6291693723972
 21
351.2250283280674
 31
0.0
  0
LINE
  5
112
330
1F
100
AcDbEntity
  8
D-1
  6
Continuous
 62
     2
370
     9
100
AcDbLine
 10
680.6291693723974
 20
363.1806982397881
 30
0.0
 11
680.6291693723974
 21
355.2250283280674
 31
0.0
  0
LINE
  5
113
330
1F
100
AcDbEntity
  8
D-2
  6
Continuous
 62
     3
370
     9
100
AcDbLine
 10
589.3793408705235
 20
326.2495696215437
 30
0.0
 11
589.3793408705235
 21
340.6954157023238
 31
0.0
  0
LINE
  5
114
330
1F
100
AcDbEntity
  8
D-2
  6
Continuous
 62
     3
370
     9
100
AcDbLine
 10
626.8793408705235
 20
326.2495696215437
 30
0.0
 11
626.8793408705235
 21
340.6954157023238
 31
0.0
  0
LINE
  5
115
330
1F
100
AcDbEntity
  8
D-2
  6
Continuous
 62
     3
370
     9
100
AcDbLine
 10
598.7612693144316
 20
326.2495696215437
 30
0.0
 11
598.7612693144316
 21
340.6954157023238
 31
0.0
  0
LINE
  5
116
330
1F
100
AcDbEntity
  8
D-2
  6
Continuous
 62
     3
370
     9
100
AcDbLine
 10
617.4974124266148
 20
326.2495696215437
 30
0.0
 11
617.4974124266148
 21
340.6954157023238
 31
0.0
  0
LINE
  5
117
330
1F
100
AcDbEntity
  8
D-2
  6
Continuous
 62
     3
370
     9
100
AcDbLine
 10
594.0703050924778
 20
324.4453620581435
 30
0.0
 11
622.1883766485691
 21
324.4453620581435
 31
0.0
  0
ARC
  5
118
330
1F
100
AcDbEntity
  8
D-2
  6
Continuous
 62
     3
370
     9
100
AcDbCircle
 10
594.0703050924778
 20
331.4458059935379
 30
0.0
 40
7.000433206558228
100
AcDbArc
 50
227.9253692626954
 51
312.0744323730469
  0
ARC
  5
119
330
1F
100
AcDbEntity
  8
D-2
  6
Continuous
 62
     3
370
     9
100
AcDbCircle
 10
608.1293408705235
 20
349.6688824562834
 30
0.0
 40
25.22352457046509
100
AcDbArc
 50
248.1978607177735
 51
291.8021392822266
  0
ARC
  5
11A
330
1F
100
AcDbEntity
  8
D-2
  6
Continuous
 62
     3
370
     9
100
AcDbCircle
 10
622.1883766485691
 20
331.4458679823682
 30
0.0
 40
7.000473737716675
100
AcDbArc
 50
227.9257202148438
 51
312.0742797851563
  0
LINE
  5
11B
330
1F
100
AcDbEntity
  8
D-2
  6
Continuous
 62
     3
370
     9
100
AcDbLine
 10
645.6291022678377
 20
340.6954157023238
 30
0.0
 11
534.2597714676591
 21
340.6954157023238
 31
0.0
  0
LINE
  5
11C
330
1F
100
AcDbEntity
  8
D-2
  6
Continuous
 62
     3
370
     9
100
AcDbLine
 10
623.1292030111941
 20
344.445486399416
 30
0.0
 11
623.1292030111941
 21
340.6954157023238
 31
0.0
  0
LINE
  5
11D
330
1F
100
AcDbEntity
  8
D-2
  6
Continuous
 62
     3
370
     9
100
AcDbLine
 10
645.6291022678377
 20
344.445486399416
 30
0.0
 11
618.1294015521942
 21
344.445486399416
 31
0.0
  0
LINE
  5
11E
330
1F
100
AcDbEntity
  8
D-2
  6
Continuous
 62
     3
370
     9
100
AcDbLine
 10
645.6291022678377
 20
334.4453853614887
 30
0.0
 11
626.8793408705235
 21
334.4453853614887
 31
0.0
  0
LINE
  5
11F
330
1F
100
AcDbEntity
  8
D-2
  6
Continuous
 62
     3
370
     9
100
AcDbLine
 10
589.3793408705235
 20
334.4453853614887
 30
0.0
 11
539.3688753443112
 21
334.4453853614887
 31
0.0
  0
LINE
  5
120
330
1F
100
AcDbEntity
  8
D-2
  6
Continuous
 62
     3
370
     9
100
AcDbLine
 10
541.1368258073301
 20
340.6954157023238
 30
0.0
 11
541.1368258073301
 21
334.4453853614887
 31
0.0
  0
LINE
  5
121
330
1F
100
AcDbEntity
  8
D-2
  6
Continuous
 62
     3
370
     9
100
AcDbLine
 10
539.3688753443112
 20
340.6954157023238
 30
0.0
 11
539.3688753443112
 21
334.4453853614887
 31
0.0
  0
LINE
  5
122
330
1F
100
AcDbEntity
  8
D-2
  6
Continuous
 62
     3
370
     9
100
AcDbLine
 10
534.2597714676591
 20
344.445486399416
 30
0.0
 11
534.2597714676591
 21
340.6954157023238
 31
0.0
  0
LINE
  5
123
330
1F
100
AcDbEntity
  8
D-2
  6
Continuous
 62
     3
370
     9
100
AcDbLine
 10
598.1292801888528
 20
344.445486399416
 30
0.0
 11
534.2597714676591
 21
344.445486399416
 31
0.0
  0
LINE
  5
124
330
1F
100
AcDbEntity
  8
D-2
  6
Continuous
 62
     3
370
     9
100
AcDbLine
 10
593.1291623603655
 20
344.445486399416
 30
0.0
 11
593.1291623603655
 21
340.6954157023238
 31
0.0
  0
LINE
  5
125
330
1F
100
AcDbEntity
  8
D-2
  6
JWW_HOJO
 62
     3
370
     9
100
AcDbLine
 10
612.6293408705234
 20
418.1954520082259
 30
0.0
 11
632.3791997709096
 21
418.1954520082259
 31
0.0
  0
LINE
  5
126
330
1F
100
AcDbEntity
  8
D-2
  6
JWW_HOJO
 62
     3
370
     9
100
AcDbLine
 10
583.8792195071815
 20
418.1954520082259
 30
0.0
 11
603.629340870523
 21
418.1954520082259
 31
0.0
  0
LINE
  5
127
330
1F
100
AcDbEntity
  8
D-2
  6
Continuous
 62
     3
370
     9
100
AcDbLine
 10
633.1291997709101
 20
417.4454520082261
 30
0.0
 11
632.3791997709096
 21
418.1954520082259
 31
0.0
  0
LINE
  5
128
330
1F
100
AcDbEntity
  8
D-2
  6
Continuous
 62
     3
370
     9
100
AcDbLine
 10
583.8792195071815
 20
418.1954520082259
 30
0.0
 11
583.1292195071821
 21
417.4454520082261
 31
0.0
  0
LINE
  5
129
330
1F
100
AcDbEntity
  8
D-2
  6
Continuous
 62
     3
370
     9
100
AcDbLine
 10
633.1291997709101
 20
409.4454822017759
 30
0.0
 11
633.1291997709101
 21
417.4454520082261
 31
0.0
  0
LINE
  5
12A
330
1F
100
AcDbEntity
  8
D-2
  6
Continuous
 62
     3
370
     9
100
AcDbLine
 10
633.1291997709101
 20
409.4454822017759
 30
0.0
 11
631.8791997709101
 21
408.1954822017757
 31
0.0
  0
LINE
  5
12B
330
1F
100
AcDbEntity
  8
D-2
  6
Continuous
 62
     3
370
     9
100
AcDbLine
 10
583.1292195071821
 20
409.4454822017759
 30
0.0
 11
583.1292195071821
 21
417.4454520082261
 31
0.0
  0
LINE
  5
12C
330
1F
100
AcDbEntity
  8
D-2
  6
Continuous
 62
     3
370
     9
100
AcDbLine
 10
584.3792195071821
 20
408.1954822017757
 30
0.0
 11
583.1292195071821
 21
409.4454822017759
 31
0.0
  0
LINE
  5
12D
330
1F
100
AcDbEntity
  8
D-2
  6
Continuous
 62
     3
370
     9
100
AcDbLine
 10
598.1292801888528
 20
351.9456707113892
 30
0.0
 11
618.1294015521942
 21
351.9456707113892
 31
0.0
  0
LINE
  5
12E
330
1F
100
AcDbEntity
  8
D-2
  6
Continuous
 62
     3
370
     9
100
AcDbLine
 10
601.8793408705235
 20
314.4454230506379
 30
0.0
 11
614.3793408705235
 21
314.4454230506379
 31
0.0
  0
LINE
  5
12F
330
1F
100
AcDbEntity
  8
D-2
  6
Continuous
 62
     3
370
     9
100
AcDbLine
 10
601.8793408705235
 20
314.4454230506379
 30
0.0
 11
598.1292801888528
 21
320.9407186827583
 31
0.0
  0
LINE
  5
130
330
1F
100
AcDbEntity
  8
D-2
  6
Continuous
 62
     3
370
     9
100
AcDbLine
 10
614.3793408705235
 20
314.4454230506379
 30
0.0
 11
618.1294015521942
 21
320.9407186827583
 31
0.0
  0
LINE
  5
131
330
1F
100
AcDbEntity
  8
D-2
  6
Continuous
 62
     3
370
     9
100
AcDbLine
 10
616.0992505974061
 20
351.9456707113892
 30
0.0
 11
616.0992505974061
 21
340.6954157023238
 31
0.0
  0
LINE
  5
132
330
1F
100
AcDbEntity
  8
D-2
  6
Continuous
 62
     3
370
     9
100
AcDbLine
 10
618.1294015521942
 20
351.9456707113892
 30
0.0
 11
618.1294015521942
 21
340.6954157023238
 31
0.0
  0
LINE
  5
133
330
1F
100
AcDbEntity
  8
D-2
  6
Continuous
 62
     3
370
     9
100
AcDbLine
 10
600.1591686806855
 20
351.9456707113892
 30
0.0
 11
600.1591686806855
 21
340.6954157023238
 31
0.0
  0
LINE
  5
134
330
1F
100
AcDbEntity
  8
D-2
  6
Continuous
 62
     3
370
     9
100
AcDbLine
 10
598.1292801888528
 20
351.9456707113892
 30
0.0
 11
598.1292801888528
 21
340.6954157023238
 31
0.0
  0
LINE
  5
135
330
1F
100
AcDbEntity
  8
D-2
  6
Continuous
 62
     3
370
     9
100
AcDbLine
 10
618.1294015521942
 20
324.4453620581435
 30
0.0
 11
618.1294015521942
 21
320.9407186827583
 31
0.0
  0
LINE
  5
136
330
1F
100
AcDbEntity
  8
D-2
  6
Continuous
 62
     3
370
     9
100
AcDbLine
 10
616.0992505974061
 20
324.4453620581435
 30
0.0
 11
616.0992505974061
 21
317.4243940820311
 31
0.0
  0
LINE
  5
137
330
1F
100
AcDbEntity
  8
D-2
  6
Continuous
 62
     3
370
     9
100
AcDbLine
 10
600.1591686806855
 20
324.4453620581435
 30
0.0
 11
600.1591686806855
 21
317.424848681204
 31
0.0
  0
LINE
  5
138
330
1F
100
AcDbEntity
  8
D-2
  6
Continuous
 62
     3
370
     9
100
AcDbLine
 10
598.1292801888528
 20
324.4453620581435
 30
0.0
 11
598.1292801888528
 21
320.9407186827583
 31
0.0
  0
LINE
  5
139
330
1F
100
AcDbEntity
  8
D-2
  6
Continuous
 62
     3
370
     9
100
AcDbLine
 10
614.3793308551019
 20
403.1954316828121
 30
0.0
 11
614.3793308551019
 21
351.9456707113892
 31
0.0
  0
LINE
  5
13A
330
1F
100
AcDbEntity
  8
D-2
  6
Continuous
 62
     3
370
     9
100
AcDbLine
 10
601.8793508859451
 20
403.1954316828121
 30
0.0
 11
601.8793508859451
 21
351.9456707113892
 31
0.0
  0
LINE
  5
13B
330
1F
100
AcDbEntity
  8
D-2
  6
JWW_CENTER1
 62
     3
370
     9
100
AcDbLine
 10
608.1293408705235
 20
423.2979832446213
 30
0.0
 11
608.1293408705235
 21
309.5495354887227
 31
0.0
  0
LINE
  5
13C
330
1F
100
AcDbEntity
  8
D-2
  6
Continuous
 62
     3
370
     9
100
AcDbLine
 10
633.1293408705235
 20
399.4454266014583
 30
0.0
 11
633.1293408705235
 21
344.445486399416
 31
0.0
  0
LINE
  5
13D
330
1F
100
AcDbEntity
  8
D-2
  6
Continuous
 62
     3
370
     9
100
AcDbLine
 10
628.1293408705235
 20
399.4454266014583
 30
0.0
 11
628.1293408705235
 21
344.445486399416
 31
0.0
  0
LINE
  5
13E
330
1F
100
AcDbEntity
  8
D-2
  6
Continuous
 62
     3
370
     9
100
AcDbLine
 10
588.1293408705235
 20
399.4454266014583
 30
0.0
 11
588.1293408705235
 21
344.445486399416
 31
0.0
  0
LINE
  5
13F
330
1F
100
AcDbEntity
  8
D-2
  6
Continuous
 62
     3
370
     9
100
AcDbLine
 10
583.1293408705235
 20
399.4454266014583
 30
0.0
 11
583.1293408705235
 21
344.445486399416
 31
0.0
  0
LINE
  5
140
330
1F
100
AcDbEntity
  8
D-2
  6
Continuous
 62
     3
370
     9
100
AcDbLine
 10
495.6286365507426
 20
409.4453964079087
 30
0.0
 11
572.9263388834638
 21
409.4453964079087
 31
0.0
  0
LINE
  5
141
330
1F
100
AcDbEntity
  8
D-2
  6
Continuous
 62
     3
370
     9
100
AcDbLine
 10
658.1291629495083
 20
409.4453964079087
 30
0.0
 11
643.3320264880954
 21
409.4453964079087
 31
0.0
  0
LINE
  5
142
330
1F
100
AcDbEntity
  8
D-2
  6
Continuous
 62
     3
370
     9
100
AcDbLine
 10
495.6286365507426
 20
415.695426748744
 30
0.0
 11
495.6286365507426
 21
409.4453964079087
 31
0.0
  0
LINE
  5
143
330
1F
100
AcDbEntity
  8
D-2
  6
Continuous
 62
     3
370
     9
100
AcDbLine
 10
658.1291629495083
 20
415.695426748744
 30
0.0
 11
658.1291629495083
 21
409.4453964079087
 31
0.0
  0
LINE
  5
144
330
1F
100
AcDbEntity
  8
D-2
  6
Continuous
 62
     3
370
     9
100
AcDbLine
 10
499.3787072478343
 20
414.4454469268725
 30
0.0
 11
499.3787072478343
 21
409.4453964079087
 31
0.0
  0
LINE
  5
145
330
1F
100
AcDbEntity
  8
D-2
  6
Continuous
 62
     3
370
     9
100
AcDbLine
 10
499.3787072478343
 20
414.4454469268725
 30
0.0
 11
571.6764902930694
 21
414.4454469268725
 31
0.0
  0
LINE
  5
146
330
1F
100
AcDbEntity
  8
D-2
  6
Continuous
 62
     3
370
     9
100
AcDbLine
 10
575.5367954311455
 20
402.8643346654279
 30
0.0
 11
571.6764902930694
 21
414.4454469268725
 31
0.0
  0
LINE
  5
147
330
1F
100
AcDbEntity
  8
D-2
  6
Continuous
 62
     3
370
     9
100
AcDbLine
 10
654.3790922524161
 20
414.4454469268725
 30
0.0
 11
654.3790922524161
 21
409.4453964079087
 31
0.0
  0
LINE
  5
148
330
1F
100
AcDbEntity
  8
D-2
  6
Continuous
 62
     3
370
     9
100
AcDbLine
 10
654.3790922524161
 20
414.4454469268725
 30
0.0
 11
644.5818750784897
 21
414.4454469268725
 31
0.0
  0
LINE
  5
149
330
1F
100
AcDbEntity
  8
D-2
  6
Continuous
 62
     3
370
     9
100
AcDbLine
 10
640.7215699404137
 20
402.8643346654279
 30
0.0
 11
644.5818750784897
 21
414.4454469268725
 31
0.0
  0
LINE
  5
14A
330
1F
100
AcDbEntity
  8
D-2
  6
Continuous
 62
     3
370
     9
100
AcDbLine
 10
579.3792530883004
 20
403.1954316828121
 30
0.0
 11
636.8791122832592
 21
403.1954316828121
 31
0.0
  0
LINE
  5
14B
330
1F
100
AcDbEntity
  8
D-2
  6
Continuous
 62
     3
370
     9
100
AcDbLine
 10
498.128858657441
 20
418.1954520082259
 30
0.0
 11
655.6294657687201
 21
418.1954520082259
 31
0.0
  0
LINE
  5
14C
330
1F
100
AcDbEntity
  8
D-2
  6
Continuous
 62
     3
370
     9
100
AcDbLine
 10
579.3792530883004
 20
403.1954316828121
 30
0.0
 11
575.2341756443493
 21
415.6311889405754
 31
0.0
  0
LINE
  5
14D
330
1F
100
AcDbEntity
  8
D-2
  6
Continuous
 62
     3
370
     9
100
AcDbLine
 10
641.0241897272103
 20
415.631254556314
 30
0.0
 11
636.8791122832592
 21
403.1954316828121
 31
0.0
  0
LINE
  5
14E
330
1F
100
AcDbEntity
  8
D-2
  6
JWW_HOJO
 62
     3
370
     9
100
AcDbLine
 10
641.8790315707454
 20
418.1954520082259
 30
0.0
 11
641.0241897272103
 21
415.6315826350075
 31
0.0
  0
ARC
  5
14F
330
1F
100
AcDbEntity
  8
D-2
  6
Continuous
 62
     3
370
     9
100
AcDbCircle
 10
571.6764902930694
 20
414.4453813111338
 30
0.0
 40
3.749999955123916
100
AcDbArc
 50
18.4344940185547
 51
90.00000000000001
  0
ARC
  5
150
330
1F
100
AcDbEntity
  8
D-2
  6
Continuous
 62
     3
370
     9
100
AcDbCircle
 10
580.280025948912
 20
404.4454115046836
 30
0.0
 40
1.249999942322725
100
AcDbArc
 50
198.4344940185547
 51
270.0
  0
ARC
  5
151
330
1F
100
AcDbEntity
  8
D-2
  6
Continuous
 62
     3
370
     9
100
AcDbCircle
 10
644.5818750784897
 20
414.4453813111338
 30
0.0
 40
3.749999955123916
100
AcDbArc
 50
90.00000000000001
 51
161.5655059814453
  0
ARC
  5
152
330
1F
100
AcDbEntity
  8
D-2
  6
Continuous
 62
     3
370
     9
100
AcDbCircle
 10
498.128858657441
 20
415.695426748744
 30
0.0
 40
2.499999884645451
100
AcDbArc
 50
90.0
 51
180.0
  0
ARC
  5
153
330
1F
100
AcDbEntity
  8
D-2
  6
Continuous
 62
     3
370
     9
100
AcDbCircle
 10
655.6294657687201
 20
415.695426748744
 30
0.0
 40
2.499999884645451
100
AcDbArc
 50
0.0000000000000127
 51
90.00000000000001
  0
ARC
  5
154
330
1F
100
AcDbEntity
  8
D-2
  6
Continuous
 62
     3
370
     9
100
AcDbCircle
 10
580.280025948912
 20
404.4454115046836
 30
0.0
 40
4.999999769290902
100
AcDbArc
 50
198.4344940185547
 51
270.0
  0
ARC
  5
155
330
1F
100
AcDbEntity
  8
D-2
  6
Continuous
 62
     3
370
     9
100
AcDbCircle
 10
635.9783394226471
 20
404.4454115046836
 30
0.0
 40
4.999999769290902
100
AcDbArc
 50
270.0
 51
341.5655059814453
  0
ARC
  5
156
330
1F
100
AcDbEntity
  8
D-2
  6
Continuous
 62
     3
370
     9
100
AcDbCircle
 10
618.1293408705235
 20
400.6954316828121
 30
0.0
 40
2.5
100
AcDbArc
 50
90.0
 51
180.0
  0
ARC
  5
157
330
1F
100
AcDbEntity
  8
D-2
  6
Continuous
 62
     3
370
     9
100
AcDbCircle
 10
620.6293408705235
 20
398.1954266014587
 30
0.0
 40
1.25
100
AcDbArc
 50
90.0
 51
180.0
  0
LINE
  5
158
330
1F
100
AcDbEntity
  8
D-2
  6
Continuous
 62
     3
370
     9
100
AcDbLine
 10
615.6293408705235
 20
400.6954316828121
 30
0.0
 11
615.6293408705235
 21
393.1954316828121
 31
0.0
  0
LINE
  5
159
330
1F
100
AcDbEntity
  8
D-2
  6
Continuous
 62
     3
370
     9
100
AcDbLine
 10
618.1293408705235
 20
403.1954316828121
 30
0.0
 11
618.1293408705235
 21
393.1954316828121
 31
0.0
  0
LINE
  5
15A
330
1F
100
AcDbEntity
  8
D-2
  6
Continuous
 62
     3
370
     9
100
AcDbLine
 10
619.3793408705235
 20
398.1954266014587
 30
0.0
 11
619.3793408705235
 21
393.1954316828121
 31
0.0
  0
ARC
  5
15B
330
1F
100
AcDbEntity
  8
D-2
  6
Continuous
 62
     3
370
     9
100
AcDbCircle
 10
598.1293408705235
 20
400.6954316828121
 30
0.0
 40
2.5
100
AcDbArc
 50
0.0000000000000127
 51
90.00000000000001
  0
ARC
  5
15C
330
1F
100
AcDbEntity
  8
D-2
  6
Continuous
 62
     3
370
     9
100
AcDbCircle
 10
595.6293408705235
 20
398.1954266014587
 30
0.0
 40
1.25
100
AcDbArc
 50
0.0000000000000127
 51
90.00000000000001
  0
LINE
  5
15D
330
1F
100
AcDbEntity
  8
D-2
  6
Continuous
 62
     3
370
     9
100
AcDbLine
 10
600.6293408705235
 20
400.6954316828121
 30
0.0
 11
600.6293408705235
 21
393.1954316828121
 31
0.0
  0
LINE
  5
15E
330
1F
100
AcDbEntity
  8
D-2
  6
Continuous
 62
     3
370
     9
100
AcDbLine
 10
598.1293408705235
 20
403.1954316828121
 30
0.0
 11
598.1293408705235
 21
393.1954316828121
 31
0.0
  0
LINE
  5
15F
330
1F
100
AcDbEntity
  8
D-2
  6
Continuous
 62
     3
370
     9
100
AcDbLine
 10
596.8793408705235
 20
398.1954266014587
 30
0.0
 11
596.8793408705235
 21
393.1954316828121
 31
0.0
  0
LINE
  5
160
330
1F
100
AcDbEntity
  8
D-2
  6
Continuous
 62
     3
370
     9
100
AcDbLine
 10
596.8793408705235
 20
393.1954316828121
 30
0.0
 11
601.8793508859445
 21
393.1954316828121
 31
0.0
  0
LINE
  5
161
330
1F
100
AcDbEntity
  8
D-2
  6
Continuous
 62
     3
370
     9
100
AcDbLine
 10
614.3793308551019
 20
393.1954316828121
 30
0.0
 11
619.3793408705235
 21
393.1954316828121
 31
0.0
  0
LINE
  5
162
330
1F
100
AcDbEntity
  8
D-2
  6
Continuous
 62
     3
370
     9
100
AcDbLine
 10
580.280025948912
 20
399.4454266014583
 30
0.0
 11
595.6293408705235
 21
399.4454266014583
 31
0.0
  0
LINE
  5
163
330
1F
100
AcDbEntity
  8
D-2
  6
Continuous
 62
     3
370
     9
100
AcDbLine
 10
620.6293408705235
 20
399.4454266014583
 30
0.0
 11
635.9783394226471
 21
399.4454266014583
 31
0.0
  0
LINE
  5
164
330
1F
100
AcDbEntity
  8
D-2
  6
Continuous
 62
     3
370
     9
100
AcDbLine
 10
495.6285389003843
 20
409.4455019379038
 30
0.0
 11
572.926241233105
 21
409.4455019379038
 31
0.0
  0
LINE
  5
165
330
1F
100
AcDbEntity
  8
D-2
  6
Continuous
 62
     3
370
     9
100
AcDbLine
 10
624.3792097863311
 20
408.1954822017757
 30
0.0
 11
624.3792097863311
 21
403.1954316828121
 31
0.0
  0
LINE
  5
166
330
1F
100
AcDbEntity
  8
D-2
  6
Continuous
 62
     3
370
     9
100
AcDbLine
 10
591.8794719547153
 20
408.1950894791988
 30
0.0
 11
591.8794719547153
 21
403.1954316828121
 31
0.0
  0
LINE
  5
167
330
1F
100
AcDbEntity
  8
D-2
  6
Continuous
 62
     3
370
     9
100
AcDbLine
 10
636.2540837098506
 20
408.1954316828121
 30
0.0
 11
636.2540837098506
 21
403.1954316828121
 31
0.0
  0
LINE
  5
168
330
1F
100
AcDbEntity
  8
D-2
  6
Continuous
 62
     3
370
     9
100
AcDbLine
 10
580.0045980311963
 20
408.1954316828121
 30
0.0
 11
580.0045980311963
 21
403.1954316828121
 31
0.0
  0
LINE
  5
169
330
1F
100
AcDbEntity
  8
D-2
  6
Continuous
 62
     3
370
     9
100
AcDbLine
 10
591.3965401180237
 20
403.1954316828121
 30
0.0
 11
591.8794719547159
 21
403.6783635195036
 31
0.0
  0
LINE
  5
16A
330
1F
100
AcDbEntity
  8
D-2
  6
Continuous
 62
     3
370
     9
100
AcDbLine
 10
588.214439254954
 20
403.1954316828121
 30
0.0
 11
591.8794719547159
 21
406.8604643825738
 31
0.0
  0
LINE
  5
16B
330
1F
100
AcDbEntity
  8
D-2
  6
Continuous
 62
     3
370
     9
100
AcDbLine
 10
635.9441149603222
 20
403.1954316828121
 30
0.0
 11
636.2540837098506
 21
403.505334816602
 31
0.0
  0
LINE
  5
16C
330
1F
100
AcDbEntity
  8
D-2
  6
Continuous
 62
     3
370
     9
100
AcDbLine
 10
632.7622765602066
 20
403.1954316828121
 30
0.0
 11
636.2540837098506
 21
406.6873044481949
 31
0.0
  0
LINE
  5
16D
330
1F
100
AcDbEntity
  8
D-2
  6
Continuous
 62
     3
370
     9
100
AcDbLine
 10
624.3792097863317
 20
407.5405715140015
 30
0.0
 11
625.0340548583673
 21
408.1954822017757
 31
0.0
  0
LINE
  5
16E
330
1F
100
AcDbEntity
  8
D-2
  6
Continuous
 62
     3
370
     9
100
AcDbLine
 10
580.0045980311963
 20
407.7137314483804
 30
0.0
 11
580.4863039573981
 21
408.1954316828121
 31
0.0
  0
LINE
  5
16F
330
1F
100
AcDbEntity
  8
D-2
  6
Continuous
 62
     3
370
     9
100
AcDbLine
 10
581.8502375288133
 20
403.1954316828121
 30
0.0
 11
586.8501899084051
 21
408.1954316828121
 31
0.0
  0
LINE
  5
170
330
1F
100
AcDbEntity
  8
D-2
  6
Continuous
 62
     3
370
     9
100
AcDbLine
 10
580.0045980311963
 20
404.5316305853103
 30
0.0
 11
583.6683991286977
 21
408.1954316828121
 31
0.0
  0
LINE
  5
171
330
1F
100
AcDbEntity
  8
D-2
  6
Continuous
 62
     3
370
     9
100
AcDbLine
 10
585.0323383918836
 20
403.1954316828121
 30
0.0
 11
590.0323383918836
 21
408.1954316828121
 31
0.0
  0
LINE
  5
172
330
1F
100
AcDbEntity
  8
D-2
  6
Continuous
 62
     3
370
     9
100
AcDbLine
 10
626.3980748340665
 20
403.1954316828121
 30
0.0
 11
631.3980748340665
 21
408.1954316828121
 31
0.0
  0
LINE
  5
173
330
1F
100
AcDbEntity
  8
D-2
  6
Continuous
 62
     3
370
     9
100
AcDbLine
 10
624.3792097863317
 20
404.3584706509314
 30
0.0
 11
628.2162152331383
 21
408.1954316828121
 31
0.0
  0
LINE
  5
174
330
1F
100
AcDbEntity
  8
D-2
  6
Continuous
 62
     3
370
     9
100
AcDbLine
 10
629.5801756971368
 20
403.1954316828121
 30
0.0
 11
634.580126539212
 21
408.1954316828121
 31
0.0
  0
LINE
  5
175
330
1F
100
AcDbEntity
  8
D-2
  6
Continuous
 62
     3
370
     9
100
AcDbLine
 10
619.3793408705235
 20
408.1954822017757
 30
0.0
 11
619.3793408705235
 21
403.1954872831292
 31
0.0
  0
LINE
  5
176
330
1F
100
AcDbEntity
  8
D-2
  6
Continuous
 62
     3
370
     9
100
AcDbLine
 10
596.879391889021
 20
408.1954822017757
 30
0.0
 11
596.879391889021
 21
403.1954872831292
 31
0.0
  0
LINE
  5
177
330
1F
100
AcDbEntity
  8
D-2
  6
Continuous
 62
     3
370
     9
100
AcDbLine
 10
584.3792195071821
 20
408.1954822017757
 30
0.0
 11
631.8791997709101
 21
408.1954822017757
 31
0.0
  0
ARC
  5
178
330
1F
100
AcDbEntity
  8
D-2
  6
Continuous
 62
     3
370
     9
100
AcDbCircle
 10
635.9783394226471
 20
404.4454115046836
 30
0.0
 40
1.249999942322725
100
AcDbArc
 50
270.0
 51
341.5655059814453
  0
LINE
  5
179
330
1F
100
AcDbEntity
  8
D-2
  6
Continuous
 62
     3
370
     9
100
AcDbLine
 10
624.3792097863311
 20
408.1954316828121
 30
0.0
 11
636.2540837098506
 21
408.1954316828121
 31
0.0
  0
LINE
  5
17A
330
1F
100
AcDbEntity
  8
D-2
  6
Continuous
 62
     3
370
     9
100
AcDbLine
 10
580.0045980311963
 20
408.1954316828121
 30
0.0
 11
591.8794719547153
 21
408.1954316828121
 31
0.0
  0
ARC
  5
17B
330
1F
100
AcDbEntity
  8
D-2
  6
Continuous
 62
     3
370
     9
100
AcDbCircle
 10
674.3793410178089
 20
353.1954662212872
 30
0.0
 40
1.249999942322726
100
AcDbArc
 50
270.0
 51
0.0000000000000127
  0
LINE
  5
17C
330
1F
100
AcDbEntity
  8
D-2
  6
Continuous
 62
     3
370
     9
100
AcDbLine
 10
673.1294924274143
 20
354.4454863994155
 30
0.0
 11
633.1293408705235
 21
354.4454863994155
 31
0.0
  0
LINE
  5
17D
330
1F
100
AcDbEntity
  8
D-2
  6
Continuous
 62
     3
370
     9
100
AcDbLine
 10
633.1293408705235
 20
351.9454863994155
 30
0.0
 11
674.3793410178089
 21
351.9454863994155
 31
0.0
  0
ARC
  5
17E
330
1F
100
AcDbEntity
  8
D-2
  6
Continuous
 62
     3
370
     9
100
AcDbCircle
 10
674.3793410178089
 20
418.1955176239644
 30
0.0
 40
1.249999942322726
100
AcDbArc
 50
0.0
 51
90.0
  0
ARC
  5
17F
330
1F
100
AcDbEntity
  8
D-2
  6
Continuous
 62
     3
370
     9
100
AcDbCircle
 10
659.3793206923945
 20
418.1955176239644
 30
0.0
 40
1.249999942322726
100
AcDbArc
 50
90.00000000000001
 51
180.0
  0
LINE
  5
180
330
1F
100
AcDbEntity
  8
D-2
  6
Continuous
 62
     3
370
     9
100
AcDbLine
 10
658.1293408705235
 20
418.1955176239644
 30
0.0
 11
658.1293408705235
 21
406.9454367641656
 31
0.0
  0
LINE
  5
181
330
1F
100
AcDbEntity
  8
D-2
  6
Continuous
 62
     3
370
     9
100
AcDbLine
 10
660.6293005142666
 20
416.9454721863542
 30
0.0
 11
660.6293005142666
 21
406.9454367641656
 31
0.0
  0
LINE
  5
182
330
1F
100
AcDbEntity
  8
D-2
  6
Continuous
 62
     3
370
     9
100
AcDbLine
 10
673.1294924274143
 20
416.9454721863542
 30
0.0
 11
660.6293005142666
 21
416.9454721863542
 31
0.0
  0
LINE
  5
183
330
1F
100
AcDbEntity
  8
D-2
  6
Continuous
 62
     3
370
     9
100
AcDbLine
 10
673.1294924274143
 20
416.9454721863542
 30
0.0
 11
673.1294924274143
 21
354.4454863994155
 31
0.0
  0
LINE
  5
184
330
1F
100
AcDbEntity
  8
D-2
  6
Continuous
 62
     3
370
     9
100
AcDbLine
 10
675.6291896082032
 20
353.1954662212872
 30
0.0
 11
675.6291896082032
 21
418.1955176239644
 31
0.0
  0
LINE
  5
185
330
1F
100
AcDbEntity
  8
D-2
  6
Continuous
 62
     3
370
     9
100
AcDbLine
 10
674.3793410178089
 20
419.4454974458359
 30
0.0
 11
659.3793206923945
 21
419.4454974458359
 31
0.0
  0
LINE
  5
186
330
1F
100
AcDbEntity
  8
D-2
  6
Continuous
 62
     3
370
     9
100
AcDbLine
 10
660.6293005142666
 20
406.9454367641656
 30
0.0
 11
658.1293408705235
 21
406.9454367641656
 31
0.0
  0
ARC
  5
187
330
1F
100
AcDbEntity
  8
D-1
  6
Continuous
 62
     2
370
     9
100
AcDbCircle
 10
670.6291896082032
 20
344.4454863994155
 30
0.0
 40
7.5
100
AcDbArc
 50
0.0
 51
90.0
  0
ARC
  5
188
330
1F
100
AcDbEntity
  8
D-1
  6
Continuous
 62
     2
370
     9
100
AcDbCircle
 10
655.629338072097
 20
344.4454863994155
 30
0.0
 40
7.5
100
AcDbArc
 50
90.0
 51
180.0
  0
LINE
  5
189
330
1F
100
AcDbEntity
  8
D-1
  6
Continuous
 62
     2
370
     9
100
AcDbLine
 10
655.629338072097
 20
351.9454863994155
 30
0.0
 11
670.6291896082032
 21
351.9454863994155
 31
0.0
  0
LINE
  5
18A
330
1F
100
AcDbEntity
  8
D-1
  6
Continuous
 62
     2
370
     9
100
AcDbLine
 10
648.129338072097
 20
336.9454534074391
 30
0.0
 11
678.1291896082032
 21
336.9454534074391
 31
0.0
  0
LINE
  5
18B
330
1F
100
AcDbEntity
  8
D-1
  6
Continuous
 62
     2
370
     9
100
AcDbLine
 10
648.2247727771496
 20
345.6381358839053
 30
0.0
 11
654.4368937054119
 21
351.850084729667
 31
0.0
  0
LINE
  5
18C
330
1F
100
AcDbEntity
  8
D-1
  6
Continuous
 62
     2
370
     9
100
AcDbLine
 10
658.1292638401501
 20
335.2516818988674
 30
0.0
 11
659.8230353487227
 21
336.9454534074395
 31
0.0
  0
LINE
  5
18D
330
1F
100
AcDbEntity
  8
D-1
  6
Continuous
 62
     2
370
     9
100
AcDbLine
 10
659.0908023016893
 20
334.4454534074395
 30
0.0
 11
661.5908023016893
 21
336.9454534074391
 31
0.0
  0
LINE
  5
18E
330
1F
100
AcDbEntity
  8
D-1
  6
Continuous
 62
     2
370
     9
100
AcDbLine
 10
660.858569254656
 20
334.4454534074395
 30
0.0
 11
663.358569254656
 21
336.9454534074391
 31
0.0
  0
LINE
  5
18F
330
1F
100
AcDbEntity
  8
D-1
  6
Continuous
 62
     2
370
     9
100
AcDbLine
 10
662.6263362076222
 20
334.4454534074391
 30
0.0
 11
665.1263362076222
 21
336.9454534074391
 31
0.0
  0
LINE
  5
190
330
1F
100
AcDbEntity
  8
D-1
  6
Continuous
 62
     2
370
     9
100
AcDbLine
 10
664.3941031605889
 20
334.4454534074389
 30
0.0
 11
666.8941031605889
 21
336.945453407439
 31
0.0
  0
LINE
  5
191
330
1F
100
AcDbEntity
  8
D-1
  6
Continuous
 62
     2
370
     9
100
AcDbLine
 10
666.1618701135526
 20
334.4454534074385
 30
0.0
 11
668.1292638401512
 21
336.4128471340368
 31
0.0
  0
LINE
  5
192
330
1F
100
AcDbEntity
  8
D-1
  6
Continuous
 62
     2
370
     9
100
AcDbLine
 10
667.9296370665193
 20
334.4454534074385
 30
0.0
 11
668.1292638401512
 21
334.6450801810703
 31
0.0
  0
LINE
  5
193
330
1F
100
AcDbEntity
  8
D-1
  6
Continuous
 62
     2
370
     9
100
AcDbLine
 10
649.078004933423
 20
336.9454534074391
 30
0.0
 11
664.0781266048064
 21
351.9454863994155
 31
0.0
  0
LINE
  5
194
330
1F
100
AcDbEntity
  8
D-1
  6
Continuous
 62
     2
370
     9
100
AcDbLine
 10
652.2600902231741
 20
336.9454534074391
 30
0.0
 11
667.2601232151508
 21
351.9454863994155
 31
0.0
  0
LINE
  5
195
330
1F
100
AcDbEntity
  8
D-1
  6
Continuous
 62
     2
370
     9
100
AcDbLine
 10
655.4420457113226
 20
336.9454534074391
 30
0.0
 11
670.4421713830536
 21
351.9454863994155
 31
0.0
  0
LINE
  5
196
330
1F
100
AcDbEntity
  8
D-1
  6
Continuous
 62
     2
370
     9
100
AcDbLine
 10
658.6239984296005
 20
336.9454534074391
 30
0.0
 11
673.1778173672924
 21
351.4991731337129
 31
0.0
  0
LINE
  5
197
330
1F
100
AcDbEntity
  8
D-1
  6
Continuous
 62
     2
370
     9
100
AcDbLine
 10
661.8059474207039
 20
336.9454534074391
 30
0.0
 11
675.2294553391575
 21
350.3689613258931
 31
0.0
  0
LINE
  5
198
330
1F
100
AcDbEntity
  8
D-1
  6
Continuous
 62
     2
370
     9
100
AcDbLine
 10
664.9880235397918
 20
336.9454534074391
 30
0.0
 11
676.7798445209601
 21
348.7372743886084
 31
0.0
  0
LINE
  5
199
330
1F
100
AcDbEntity
  8
D-1
  6
Continuous
 62
     2
370
     9
100
AcDbLine
 10
668.169852219057
 20
336.9454534074391
 30
0.0
 11
677.8156757444626
 21
346.5912769328452
 31
0.0
  0
LINE
  5
19A
330
1F
100
AcDbEntity
  8
D-1
  6
Continuous
 62
     2
370
     9
100
AcDbLine
 10
648.129338072097
 20
342.3606341689641
 30
0.0
 11
657.7144806118602
 21
351.9454863994155
 31
0.0
  0
LINE
  5
19B
330
1F
100
AcDbEntity
  8
D-1
  6
Continuous
 62
     2
370
     9
100
AcDbLine
 10
648.129338072097
 20
339.1784823348042
 30
0.0
 11
660.8963421367084
 21
351.9454863994155
 31
0.0
  0
LINE
  5
19C
330
1F
100
AcDbEntity
  8
D-1
  6
Continuous
 62
     2
370
     9
100
AcDbLine
 10
677.7153382568533
 20
336.9454534074391
 30
0.0
 11
678.1291896082032
 21
337.3593047587888
 31
0.0
  0
LINE
  5
19D
330
1F
100
AcDbEntity
  8
D-1
  6
Continuous
 62
     2
370
     9
100
AcDbLine
 10
671.3516808983227
 20
336.9454534074391
 30
0.0
 11
678.1291896082032
 21
343.7229621173201
 31
0.0
  0
LINE
  5
19E
330
1F
100
AcDbEntity
  8
D-1
  6
Continuous
 62
     2
370
     9
100
AcDbLine
 10
674.5335095775877
 20
336.9454534074391
 30
0.0
 11
678.1291896082032
 21
340.5411334380544
 31
0.0
  0
LINE
  5
19F
330
1F
100
AcDbEntity
  8
D-1
  6
Continuous
 62
     2
370
     9
100
AcDbLine
 10
668.1292638401501
 20
336.9454534074391
 30
0.0
 11
668.1292638401501
 21
334.4454534074391
 31
0.0
  0
LINE
  5
1A0
330
1F
100
AcDbEntity
  8
D-1
  6
Continuous
 62
     2
370
     9
100
AcDbLine
 10
658.1292638401501
 20
336.9454534074391
 30
0.0
 11
658.1292638401501
 21
334.4454534074391
 31
0.0
  0
LINE
  5
1A1
330
1F
100
AcDbEntity
  8
D-1
  6
Continuous
 62
     2
370
     9
100
AcDbLine
 10
648.129338072097
 20
334.4454534074391
 30
0.0
 11
678.1291896082028
 21
334.4454534074391
 31
0.0
  0
LINE
  5
1A2
330
1F
100
AcDbEntity
  8
D-1
  6
Continuous
 62
     2
370
     9
100
AcDbLine
 10
648.129338072097
 20
344.445486399416
 30
0.0
 11
648.129338072097
 21
334.4454534074391
 31
0.0
  0
LWPOLYLINE
  5
1A3
330
1F
100
AcDbEntity
  8
D-4
  6
Continuous
 62
     7
370
     9
100
AcDbPolyline
 90
        4
 70
     1
 43
1.0
 10
845.6938433226826
 20
419.4456230962824
 42
0.4142135623731
 10
845.1938433226826
 20
419.9456230962824
 42
0.4142135623731
 10
844.6938433226826
 20
419.4456230962824
 42
0.4142135623731
 10
845.1938433226826
 20
418.9456230962824
 42
0.4142135623731
  0
LINE
  5
1A4
330
1F
100
AcDbEntity
  8
D-4
  6
Continuous
 62
     7
370
     9
100
AcDbLine
 10
805.1706875297989
 20
347.2252781981031
 30
0.0
 11
769.6289645557929
 21
347.2252781981031
 31
0.0
  0
LWPOLYLINE
  5
1A5
330
1F
100
AcDbEntity
  8
D-4
  6
Continuous
 62
     7
370
     9
100
AcDbPolyline
 90
        4
 70
     1
 43
1.0
 10
804.6706875297992
 20
347.2252781981031
 42
0.4142135623731
 10
804.1706875297994
 20
347.7252781981031
 42
0.4142135623731
 10
803.6706875297994
 20
347.2252781981031
 42
0.4142135623731
 10
804.1706875297994
 20
346.7252781981031
 42
0.4142135623731
  0
LWPOLYLINE
  5
1A6
330
1F
100
AcDbEntity
  8
D-4
  6
Continuous
 62
     7
370
     9
100
AcDbPolyline
 90
        4
 70
     1
 43
1.0
 10
804.6706875297992
 20
419.4456230962824
 42
0.4142135623731
 10
804.1706875297994
 20
419.9456230962824
 42
0.4142135623731
 10
803.6706875297994
 20
419.4456230962824
 42
0.4142135623731
 10
804.1706875297994
 20
418.9456230962824
 42
0.4142135623731
  0
LINE
  5
1A7
330
1F
100
AcDbEntity
  8
D-4
  6
Continuous
 62
     7
370
     9
100
AcDbLine
 10
804.1706875297994
 20
419.4456230962824
 30
0.0
 11
804.1706875297994
 21
347.2252781981031
 31
0.0
  0
TEXT
  5
1A8
330
1F
100
AcDbEntity
  8
D-4
  6
Continuous
 62
     2
370
   211
100
AcDbText
 10
798.8506875297993
 20
362.7104609492025
 30
0.0
 40
15.24
  1
29
 50
90.0
 41
1.0625
  7
ＭＳ ゴシック
100
AcDbText
  0
LINE
  5
1A9
330
1F
100
AcDbEntity
  8
D-4
  6
Continuous
 62
     7
370
     9
100
AcDbLine
 10
846.1938433226823
 20
331.9453874073769
 30
0.0
 11
689.3791159653993
 21
331.9453874073769
 31
0.0
  0
LWPOLYLINE
  5
1AA
330
1F
100
AcDbEntity
  8
D-4
  6
Continuous
 62
     7
370
     9
100
AcDbPolyline
 90
        4
 70
     1
 43
1.0
 10
845.6938433226826
 20
331.9453874073769
 42
0.4142135623731
 10
845.1938433226826
 20
332.4453874073769
 42
0.4142135623731
 10
844.6938433226826
 20
331.9453874073769
 42
0.4142135623731
 10
845.1938433226826
 20
331.4453874073769
 42
0.4142135623731
  0
LWPOLYLINE
  5
1AB
330
1F
100
AcDbEntity
  8
D-6
  6
Continuous
 62
     6
370
     9
100
AcDbPolyline
 90
        4
 70
     1
 43
1.0
 10
864.0172225827304
 20
384.438987084609
 42
0.4142135623731
 10
863.5172225827305
 20
384.938987084609
 42
0.4142135623731
 10
863.0172225827305
 20
384.438987084609
 42
0.4142135623731
 10
863.5172225827305
 20
383.9389870846091
 42
0.4142135623731
  0
LWPOLYLINE
  5
1AC
330
1F
100
AcDbEntity
  8
D-6
  6
Continuous
 62
     6
370
     9
100
AcDbPolyline
 90
        4
 70
     1
 43
1.0
 10
877.2630389152949
 20
359.492699658279
 42
0.4142135623731
 10
876.763038915295
 20
359.992699658279
 42
0.4142135623731
 10
876.263038915295
 20
359.492699658279
 42
0.4142135623731
 10
876.763038915295
 20
358.992699658279
 42
0.4142135623731
  0
LWPOLYLINE
  5
1AD
330
1F
100
AcDbEntity
  8
D-6
  6
Continuous
 62
     6
370
     9
100
AcDbPolyline
 90
        4
 70
     1
 43
1.0
 10
867.3286766658715
 20
342.273138425945
 42
0.4142135623731
 10
866.8286766658716
 20
342.773138425945
 42
0.4142135623731
 10
866.3286766658716
 20
342.273138425945
 42
0.4142135623731
 10
866.8286766658716
 20
341.7731384259451
 42
0.4142135623731
  0
LWPOLYLINE
  5
1AE
330
1F
100
AcDbEntity
  8
D-6
  6
Continuous
 62
     6
370
     9
100
AcDbPolyline
 90
        4
 70
     1
 43
1.0
 10
173.069683988287
 20
394.2148108726072
 42
0.4142135623731
 10
172.569683988287
 20
394.7148108726072
 42
0.4142135623731
 10
172.069683988287
 20
394.2148108726072
 42
0.4142135623731
 10
172.569683988287
 20
393.7148108726072
 42
0.4142135623731
  0
LWPOLYLINE
  5
1AF
330
1F
100
AcDbEntity
  8
D-6
  6
Continuous
 62
     6
370
     9
100
AcDbPolyline
 90
        4
 70
     1
 43
1.0
 10
152.5203553876921
 20
392.4877720036253
 42
0.4142135623731
 10
152.0203553876921
 20
392.9877720036253
 42
0.4142135623731
 10
151.5203553876921
 20
392.4877720036253
 42
0.4142135623731
 10
152.0203553876921
 20
391.9877720036254
 42
0.4142135623731
  0
LWPOLYLINE
  5
1B0
330
1F
100
AcDbEntity
  8
D-6
  6
Continuous
 62
     6
370
     9
100
AcDbPolyline
 90
        4
 70
     1
 43
1.0
 10
262.3562977855743
 20
384.5748000972407
 42
0.4142135623731
 10
261.8562977855743
 20
385.0748000972407
 42
0.4142135623731
 10
261.3562977855743
 20
384.5748000972407
 42
0.4142135623731
 10
261.8562977855743
 20
384.0748000972408
 42
0.4142135623731
  0
LWPOLYLINE
  5
1B1
330
1F
100
AcDbEntity
  8
D-6
  6
Continuous
 62
     6
370
     9
100
AcDbPolyline
 90
        4
 70
     1
 43
1.0
 10
387.5292621283098
 20
387.1319785281108
 42
0.4142135623731
 10
387.0292621283099
 20
387.6319785281108
 42
0.4142135623731
 10
386.5292621283099
 20
387.1319785281108
 42
0.4142135623731
 10
387.0292621283099
 20
386.6319785281109
 42
0.4142135623731
  0
LWPOLYLINE
  5
1B2
330
1F
100
AcDbEntity
  8
D-6
  6
Continuous
 62
     6
370
     9
100
AcDbPolyline
 90
        4
 70
     1
 43
1.0
 10
409.8815771895125
 20
363.2895091294946
 42
0.4142135623731
 10
409.3815771895126
 20
363.7895091294945
 42
0.4142135623731
 10
408.8815771895127
 20
363.2895091294946
 42
0.4142135623731
 10
409.3815771895126
 20
362.7895091294946
 42
0.4142135623731
  0
LWPOLYLINE
  5
1B3
330
1F
100
AcDbEntity
  8
D-6
  6
Continuous
 62
     6
370
     9
100
AcDbPolyline
 90
        4
 70
     1
 43
1.0
 10
434.388360050707
 20
370.4990969005545
 42
0.4142135623731
 10
433.888360050707
 20
370.9990969005545
 42
0.4142135623731
 10
433.388360050707
 20
370.4990969005545
 42
0.4142135623731
 10
433.888360050707
 20
369.9990969005545
 42
0.4142135623731
  0
TEXT
  5
1B4
330
1F
100
AcDbEntity
  8
D-5
  6
Continuous
 62
     7
370
     9
100
AcDbText
 10
289.7179965237822
 20
268.9853308245727
 30
0.0
 40
11.43
  1
ＳＵＳ３０４
 41
1.138888888888889
  7
ＭＳ ゴシック
100
AcDbText
  0
LINE
  5
1B5
330
1F
100
AcDbEntity
  8
D-5
  6
Continuous
 62
     7
370
     9
100
AcDbLine
 10
408.287854958211
 20
286.1591928983162
 30
0.0
 11
273.6481380893533
 21
286.1591928983162
 31
0.0
  0
TEXT
  5
1B6
330
1F
100
AcDbEntity
  8
D-5
  6
Continuous
 62
     7
370
     9
100
AcDbText
 10
282.8845722251767
 20
292.0785183113758
 30
0.0
 40
11.43
  1
蓋　ｔ＝１．０
 41
1.142857142857143
  7
ＭＳ ゴシック
100
AcDbText
  0
LINE
  5
1B7
330
1F
100
AcDbEntity
  8
D-5
  6
Continuous
 62
     7
370
     9
100
AcDbLine
 10
446.269684792405
 20
351.9454863994155
 30
0.0
 11
408.287854958211
 21
286.1591928983162
 31
0.0
  0
LINE
  5
1B8
330
1F
100
AcDbEntity
  8
D-5
  6
Continuous
 62
     7
370
     9
100
AcDbLine
 10
446.269684792405
 20
351.9454863994155
 30
0.0
 11
441.4861781412227
 21
340.3969749973884
 31
0.0
  0
LINE
  5
1B9
330
1F
100
AcDbEntity
  8
D-5
  6
Continuous
 62
     7
370
     9
100
AcDbLine
 10
446.269684792405
 20
351.9454863994155
 30
0.0
 11
438.6601679269071
 21
342.0285931878445
 31
0.0
  0
LWPOLYLINE
  5
1BA
330
1F
100
AcDbEntity
  8
D-6
  6
Continuous
 62
     6
370
     9
100
AcDbPolyline
 90
        4
 70
     1
 43
1.0
 10
356.9803656855019
 20
385.7834779535568
 42
0.4142135623731
 10
356.4803656855019
 20
386.2834779535567
 42
0.4142135623731
 10
355.9803656855019
 20
385.7834779535568
 42
0.4142135623731
 10
356.4803656855019
 20
385.2834779535568
 42
0.4142135623731
  0
LINE
  5
1BB
330
1F
100
AcDbEntity
  8
D-4
  6
Continuous
 62
     7
370
     9
100
AcDbLine
 10
-24.72012116338284
 20
419.4456029758312
 30
0.0
 11
53.77987883661739
 21
419.4456029758312
 31
0.0
  0
LWPOLYLINE
  5
1BC
330
1F
100
AcDbEntity
  8
D-4
  6
Continuous
 62
     7
370
     9
100
AcDbPolyline
 90
        4
 70
     1
 43
1.0
 10
-23.22012116338261
 20
419.4456029758312
 42
0.4142135623731
 10
-23.72012116338261
 20
419.9456029758312
 42
0.4142135623731
 10
-24.2201211633826
 20
419.4456029758312
 42
0.4142135623731
 10
-23.72012116338261
 20
418.9456029758313
 42
0.4142135623731
  0
LWPOLYLINE
  5
1BD
330
1F
100
AcDbEntity
  8
D-4
  6
Continuous
 62
     7
370
     9
100
AcDbPolyline
 90
        4
 70
     1
 43
1.0
 10
14.27987883661739
 20
419.4456029758312
 42
0.4142135623731
 10
13.77987883661739
 20
419.9456029758312
 42
0.4142135623731
 10
13.27987883661739
 20
419.4456029758312
 42
0.4142135623731
 10
13.77987883661739
 20
418.9456029758313
 42
0.4142135623731
  0
TEXT
  5
1BE
330
1F
100
AcDbEntity
  8
D-4
  6
Continuous
 62
     2
370
   211
100
AcDbText
 10
-29.04012116338261
 20
348.1954863994155
 30
0.0
 40
15.24
  1
1
 50
90.0
 41
0.9999999999999998
  7
ＭＳ ゴシック
100
AcDbText
  0
LINE
  5
1BF
330
1F
100
AcDbEntity
  8
D-4
  6
Continuous
 62
     7
370
     9
100
AcDbLine
 10
-24.72012116338284
 20
351.9454863994155
 30
0.0
 11
53.77987883661739
 21
351.9454863994155
 31
0.0
  0
LWPOLYLINE
  5
1C0
330
1F
100
AcDbEntity
  8
D-4
  6
Continuous
 62
     7
370
     9
100
AcDbPolyline
 90
        4
 70
     1
 43
1.0
 10
-23.22012116338261
 20
351.9454863994155
 42
0.4142135623731
 10
-23.72012116338261
 20
352.4454863994154
 42
0.4142135623731
 10
-24.2201211633826
 20
351.9454863994155
 42
0.4142135623731
 10
-23.72012116338261
 20
351.4454863994155
 42
0.4142135623731
  0
LINE
  5
1C1
330
1F
100
AcDbEntity
  8
D-4
  6
Continuous
 62
     7
370
     9
100
AcDbLine
 10
-23.72012116338261
 20
354.4454863994155
 30
0.0
 11
-23.72012116338261
 21
351.9454863994155
 31
0.0
  0
LINE
  5
1C2
330
1F
100
AcDbEntity
  8
D-4
  6
Continuous
 62
     7
370
     9
100
AcDbLine
 10
-24.72012116338284
 20
354.4454863994155
 30
0.0
 11
53.77987883661739
 21
354.4454863994155
 31
0.0
  0
LWPOLYLINE
  5
1C3
330
1F
100
AcDbEntity
  8
D-4
  6
Continuous
 62
     7
370
     9
100
AcDbPolyline
 90
        4
 70
     1
 43
1.0
 10
-23.22012116338261
 20
354.4454863994155
 42
0.4142135623731
 10
-23.72012116338261
 20
354.9454863994154
 42
0.4142135623731
 10
-24.2201211633826
 20
354.4454863994155
 42
0.4142135623731
 10
-23.72012116338261
 20
353.9454863994155
 42
0.4142135623731
  0
LINE
  5
1C4
330
1F
100
AcDbEntity
  8
D-2
  6
Continuous
 62
     3
370
     9
100
AcDbLine
 10
69.56298646598924
 20
351.9454863994155
 30
0.0
 11
583.1293408705235
 21
351.9454863994155
 31
0.0
  0
LINE
  5
1C5
330
1F
100
AcDbEntity
  8
D-2
  6
Continuous
 62
     3
370
     9
100
AcDbLine
 10
69.56298646598924
 20
354.4454863994155
 30
0.0
 11
583.1293408705235
 21
354.4454863994155
 31
0.0
  0
LINE
  5
1C6
330
1F
100
AcDbEntity
  8
躯体
  6
JWW_CENTER1
 62
     2
370
     9
100
AcDbLine
 10
-670.9877358017482
 20
188.9090110325604
 30
0.0
 11
-644.2106500725688
 21
188.9090110325604
 31
0.0
  0
ARC
  5
1C7
330
1F
100
AcDbEntity
  8
躯体
  6
Continuous
 62
     2
370
     9
100
AcDbCircle
 10
-664.8399065323977
 20
196.9090110325604
 30
0.0
 40
2.0
100
AcDbArc
 50
90.0
 51
151.04497562814
  0
ARC
  5
1C8
330
1F
100
AcDbEntity
  8
躯体
  6
Continuous
 62
     2
370
     9
100
AcDbCircle
 10
-664.8399065323977
 20
180.9090110325603
 30
0.0
 40
2.0
100
AcDbArc
 50
208.95502437186
 51
270.0
  0
LINE
  5
1C9
330
1F
100
AcDbEntity
  8
躯体
  6
Continuous
 62
     2
370
     9
100
AcDbLine
 10
-664.8399065323977
 20
178.9089624872239
 30
0.0
 11
-640.9900196477454
 21
178.9089624872239
 31
0.0
  0
LINE
  5
1CA
330
1F
100
AcDbEntity
  8
躯体
  6
Continuous
 62
     2
370
     9
100
AcDbLine
 10
-666.5899065323979
 20
197.8772568691123
 30
0.0
 11
-666.5899065323979
 21
179.9407651960085
 31
0.0
  0
LINE
  5
1CB
330
1F
100
AcDbEntity
  8
躯体
  6
Continuous
 62
     2
370
     9
100
AcDbLine
 10
-664.8399065323977
 20
198.909059577897
 30
0.0
 11
-640.9900196477454
 21
198.909059577897
 31
0.0
  0
CIRCLE
  5
1CC
330
1F
100
AcDbEntity
  8
躯体
  6
Continuous
 62
     2
370
     9
100
AcDbCircle
 10
-656.5899065323979
 20
188.9090110325604
 30
0.0
 40
6.5
  0
LINE
  5
1CD
330
1F
100
AcDbEntity
  8
躯体
  6
JWW_CENTER1
 62
     2
370
     9
100
AcDbLine
 10
-656.5899065323979
 20
196.9373166633891
 30
0.0
 11
-656.5899065323979
 21
180.5989638074538
 31
0.0
  0
LINE
  5
1CE
330
1F
100
AcDbEntity
  8
躯体
  6
JWW_CENTER1
 62
     2
370
     9
100
AcDbLine
 10
-670.9877358017477
 20
363.9091685103331
 30
0.0
 11
-644.2106500725688
 21
363.9091685103331
 31
0.0
  0
ARC
  5
1CF
330
1F
100
AcDbEntity
  8
躯体
  6
Continuous
 62
     2
370
     9
100
AcDbCircle
 10
-664.8399065323977
 20
371.9091685103331
 30
0.0
 40
2.0
100
AcDbArc
 50
90.0
 51
151.04497562814
  0
ARC
  5
1D0
330
1F
100
AcDbEntity
  8
躯体
  6
Continuous
 62
     2
370
     9
100
AcDbCircle
 10
-664.8399065323977
 20
355.9091685103331
 30
0.0
 40
2.0
100
AcDbArc
 50
208.95502437186
 51
270.0
  0
LINE
  5
1D1
330
1F
100
AcDbEntity
  8
躯体
  6
Continuous
 62
     2
370
     9
100
AcDbLine
 10
-664.8399065323977
 20
353.9091199649965
 30
0.0
 11
-640.9900196477454
 21
353.9091199649965
 31
0.0
  0
LINE
  5
1D2
330
1F
100
AcDbEntity
  8
躯体
  6
Continuous
 62
     2
370
     9
100
AcDbLine
 10
-666.5899065323972
 20
354.9409226737812
 30
0.0
 11
-666.5899065323972
 21
372.8774143468848
 31
0.0
  0
LINE
  5
1D3
330
1F
100
AcDbEntity
  8
躯体
  6
Continuous
 62
     2
370
     9
100
AcDbLine
 10
-664.8399065323977
 20
373.9092170556697
 30
0.0
 11
-640.9900196477454
 21
373.9092170556697
 31
0.0
  0
CIRCLE
  5
1D4
330
1F
100
AcDbEntity
  8
躯体
  6
Continuous
 62
     2
370
     9
100
AcDbCircle
 10
-656.5899065323979
 20
363.9091685103331
 30
0.0
 40
6.5
  0
LINE
  5
1D5
330
1F
100
AcDbEntity
  8
躯体
  6
JWW_CENTER1
 62
     2
370
     9
100
AcDbLine
 10
-656.5899065323979
 20
372.6993838948343
 30
0.0
 11
-656.5899065323979
 21
355.8141405667338
 31
0.0
  0
LINE
  5
1D6
330
1F
100
AcDbEntity
  8
その他
  6
Continuous
 62
     7
370
     9
100
AcDbLine
 10
-187.8537730026173
 20
188.9090110325604
 30
0.0
 11
-250.9922644335998
 21
188.9090110325604
 31
0.0
  0
LWPOLYLINE
  5
1D7
330
1F
100
AcDbEntity
  8
その他
  6
Continuous
 62
     7
370
     9
100
AcDbPolyline
 90
        4
 70
     1
 43
1.0
 10
-188.8537730026171
 20
188.9090110325604
 42
0.4142135623731
 10
-189.3537730026171
 20
189.4090110325604
 42
0.4142135623731
 10
-189.8537730026171
 20
188.9090110325604
 42
0.4142135623731
 10
-189.3537730026171
 20
188.4090110325604
 42
0.4142135623731
  0
LINE
  5
1D8
330
1F
100
AcDbEntity
  8
躯体
  6
JWW_CENTER1
 62
     2
370
     9
100
AcDbLine
 10
-275.3900937029502
 20
181.1460117573918
 30
0.0
 11
-275.3900937029502
 21
197.3476419952858
 31
0.0
  0
CIRCLE
  5
1D9
330
1F
100
AcDbEntity
  8
躯体
  6
Continuous
 62
     2
370
     9
100
AcDbCircle
 10
-275.3900937029502
 20
188.9090110325604
 30
0.0
 40
6.5
  0
LINE
  5
1DA
330
1F
100
AcDbEntity
  8
躯体
  6
Continuous
 62
     2
370
     9
100
AcDbLine
 10
-267.14009370295
 20
178.9089624872239
 30
0.0
 11
-290.9899805876023
 21
178.9089624872239
 31
0.0
  0
LINE
  5
1DB
330
1F
100
AcDbEntity
  8
躯体
  6
Continuous
 62
     2
370
     9
100
AcDbLine
 10
-265.3900937029496
 20
197.8772568691123
 30
0.0
 11
-265.3900937029496
 21
179.9407651960086
 31
0.0
  0
LINE
  5
1DC
330
1F
100
AcDbEntity
  8
躯体
  6
Continuous
 62
     2
370
     9
100
AcDbLine
 10
-267.14009370295
 20
198.909059577897
 30
0.0
 11
-290.9899805876023
 21
198.909059577897
 31
0.0
  0
ARC
  5
1DD
330
1F
100
AcDbEntity
  8
躯体
  6
Continuous
 62
     2
370
     9
100
AcDbCircle
 10
-267.14009370295
 20
196.9090110325604
 30
0.0
 40
2.0
100
AcDbArc
 50
28.95502437185994
 51
90.0
  0
ARC
  5
1DE
330
1F
100
AcDbEntity
  8
躯体
  6
Continuous
 62
     2
370
     9
100
AcDbCircle
 10
-267.14009370295
 20
180.9090110325605
 30
0.0
 40
2.0
100
AcDbArc
 50
270.0
 51
331.04497562814
  0
LINE
  5
1DF
330
1F
100
AcDbEntity
  8
躯体
  6
JWW_CENTER1
 62
     2
370
     9
100
AcDbLine
 10
-260.9922644335998
 20
188.9090110325604
 30
0.0
 11
-287.7693501627792
 21
188.9090110325604
 31
0.0
  0
LWPOLYLINE
  5
1E0
330
1F
100
AcDbEntity
  8
その他
  6
Continuous
 62
     7
370
     9
100
AcDbPolyline
 90
        4
 70
     1
 43
1.0
 10
-188.8537730026171
 20
363.9090110325607
 42
0.4142135623731
 10
-189.3537730026171
 20
364.4090110325607
 42
0.4142135623731
 10
-189.8537730026171
 20
363.9090110325607
 42
0.4142135623731
 10
-189.3537730026171
 20
363.4090110325607
 42
0.4142135623731
  0
LINE
  5
1E1
330
1F
100
AcDbEntity
  8
その他
  6
Continuous
 62
     7
370
     9
100
AcDbLine
 10
-187.8537730026173
 20
363.9090110325607
 30
0.0
 11
-250.9922644335998
 21
363.9090110325607
 31
0.0
  0
LINE
  5
1E2
330
1F
100
AcDbEntity
  8
躯体
  6
JWW_CENTER1
 62
     2
370
     9
100
AcDbLine
 10
-275.3900937029502
 20
356.2928272076512
 30
0.0
 11
-275.3900937029502
 21
371.8792056643592
 31
0.0
  0
CIRCLE
  5
1E3
330
1F
100
AcDbEntity
  8
躯体
  6
Continuous
 62
     2
370
     9
100
AcDbCircle
 10
-275.3900937029502
 20
363.9091685103331
 30
0.0
 40
6.5
  0
LINE
  5
1E4
330
1F
100
AcDbEntity
  8
躯体
  6
Continuous
 62
     2
370
     9
100
AcDbLine
 10
-267.14009370295
 20
353.9091199649964
 30
0.0
 11
-290.9899805876023
 21
353.9091199649964
 31
0.0
  0
LINE
  5
1E5
330
1F
100
AcDbEntity
  8
躯体
  6
Continuous
 62
     2
370
     9
100
AcDbLine
 10
-265.3900937029496
 20
354.9409226737812
 30
0.0
 11
-265.3900937029496
 21
372.877414346885
 31
0.0
  0
LINE
  5
1E6
330
1F
100
AcDbEntity
  8
躯体
  6
Continuous
 62
     2
370
     9
100
AcDbLine
 10
-267.14009370295
 20
373.9092170556695
 30
0.0
 11
-290.9899805876023
 21
373.9092170556695
 31
0.0
  0
ARC
  5
1E7
330
1F
100
AcDbEntity
  8
躯体
  6
Continuous
 62
     2
370
     9
100
AcDbCircle
 10
-267.14009370295
 20
371.909168510333
 30
0.0
 40
2.0
100
AcDbArc
 50
28.95502437185994
 51
90.0
  0
ARC
  5
1E8
330
1F
100
AcDbEntity
  8
躯体
  6
Continuous
 62
     2
370
     9
100
AcDbCircle
 10
-267.14009370295
 20
355.909168510333
 30
0.0
 40
2.0
100
AcDbArc
 50
270.0
 51
331.04497562814
  0
LINE
  5
1E9
330
1F
100
AcDbEntity
  8
躯体
  6
JWW_CENTER1
 62
     2
370
     9
100
AcDbLine
 10
-260.9922644335998
 20
363.9091685103331
 30
0.0
 11
-287.7693501627792
 21
363.9091685103331
 31
0.0
  0
TEXT
  5
1EA
330
1F
100
AcDbEntity
  8
寸法
  6
Continuous
 62
     2
370
     9
100
AcDbText
 10
-567.3701075240261
 20
-29.07586826380253
 30
0.0
 40
15.24
  1
平面図　Ｓ＝１：５
 41
1.111111111111111
  7
ＭＳ ゴシック
100
AcDbText
  0
LINE
  5
1EB
330
1F
100
AcDbEntity
  8
寸法
  6
Continuous
 62
     7
370
     9
100
AcDbLine
 10
-574.2779056725166
 20
-35.11394687708378
 30
0.0
 11
-359.1391249239947
 21
-35.11394687708378
 31
0.0
  0
LWPOLYLINE
  5
1EC
330
1F
100
AcDbEntity
  8
その他
  6
Continuous
 62
     7
370
     9
100
AcDbPolyline
 90
        4
 70
     1
 43
1.0
 10
-552.9900196477455
 20
22.44064284549722
 42
0.4142135623731
 10
-553.4900196477454
 20
22.94064284549722
 42
0.4142135623731
 10
-553.9900196477454
 20
22.44064284549722
 42
0.4142135623731
 10
-553.4900196477454
 20
21.94064284549722
 42
0.4142135623731
  0
LINE
  5
1ED
330
1F
100
AcDbEntity
  8
その他
  6
Continuous
 62
     7
370
     9
100
AcDbLine
 10
-553.4900196477454
 20
20.94064284549724
 30
0.0
 11
-553.4900196477454
 21
61.4112558184144
 31
0.0
  0
LINE
  5
1EE
330
1F
100
AcDbEntity
  8
躯体
  6
JWW_CENTER1
 62
     2
370
     9
100
AcDbLine
 10
-553.490177125519
 20
71.41125581841439
 30
0.0
 11
-553.490177125519
 21
98.18834154759358
 31
0.0
  0
ARC
  5
1EF
330
1F
100
AcDbEntity
  8
躯体
  6
Continuous
 62
     2
370
     9
100
AcDbCircle
 10
-561.4901771255186
 20
77.55908508776471
 30
0.0
 40
2.0
100
AcDbArc
 50
180.0
 51
241.04497562814
  0
ARC
  5
1F0
330
1F
100
AcDbEntity
  8
躯体
  6
Continuous
 62
     2
370
     9
100
AcDbCircle
 10
-545.4901771255188
 20
77.55908508776471
 30
0.0
 40
2.0
100
AcDbArc
 50
298.95502437186
 51
0.0
  0
LINE
  5
1F1
330
1F
100
AcDbEntity
  8
躯体
  6
Continuous
 62
     2
370
     9
100
AcDbLine
 10
-543.490128580182
 20
77.55908508776471
 30
0.0
 11
-543.490128580182
 21
101.4089719724171
 31
0.0
  0
LINE
  5
1F2
330
1F
100
AcDbEntity
  8
躯体
  6
Continuous
 62
     2
370
     9
100
AcDbLine
 10
-544.5219312889672
 20
75.80908508776467
 30
0.0
 11
-562.4584229620709
 21
75.80908508776467
 31
0.0
  0
LINE
  5
1F3
330
1F
100
AcDbEntity
  8
躯体
  6
Continuous
 62
     2
370
     9
100
AcDbLine
 10
-563.4902256708554
 20
77.55908508776471
 30
0.0
 11
-563.4902256708554
 21
101.4089719724171
 31
0.0
  0
CIRCLE
  5
1F4
330
1F
100
AcDbEntity
  8
躯体
  6
Continuous
 62
     2
370
     9
100
AcDbCircle
 10
-553.490177125519
 20
85.80908508776477
 30
0.0
 40
6.5
  0
LINE
  5
1F5
330
1F
100
AcDbEntity
  8
躯体
  6
JWW_CENTER1
 62
     2
370
     9
100
AcDbLine
 10
-561.5643860287767
 20
85.80908508776474
 30
0.0
 11
-545.4311170999038
 21
85.80908508776474
 31
0.0
  0
LWPOLYLINE
  5
1F6
330
1F
100
AcDbEntity
  8
その他
  6
Continuous
 62
     7
370
     9
100
AcDbPolyline
 90
        4
 70
     1
 43
1.0
 10
-377.9900196477457
 20
22.44064284549722
 42
0.4142135623731
 10
-378.4900196477457
 20
22.94064284549722
 42
0.4142135623731
 10
-378.9900196477457
 20
22.44064284549722
 42
0.4142135623731
 10
-378.4900196477457
 20
21.94064284549722
 42
0.4142135623731
  0
LINE
  5
1F7
330
1F
100
AcDbEntity
  8
その他
  6
Continuous
 62
     7
370
     9
100
AcDbLine
 10
-378.4900196477457
 20
20.94064284549724
 30
0.0
 11
-378.4900196477457
 21
61.41125581841433
 31
0.0
  0
LINE
  5
1F8
330
1F
100
AcDbEntity
  8
躯体
  6
JWW_CENTER1
 62
     2
370
     9
100
AcDbLine
 10
-378.4900196477457
 20
71.41125581841433
 30
0.0
 11
-378.4900196477457
 21
98.18834154759351
 31
0.0
  0
ARC
  5
1F9
330
1F
100
AcDbEntity
  8
躯体
  6
Continuous
 62
     2
370
     9
100
AcDbCircle
 10
-386.4900196477458
 20
77.5590850877646
 30
0.0
 40
2.0
100
AcDbArc
 50
180.0
 51
241.04497562814
  0
ARC
  5
1FA
330
1F
100
AcDbEntity
  8
躯体
  6
Continuous
 62
     2
370
     9
100
AcDbCircle
 10
-370.4900196477456
 20
77.5590850877646
 30
0.0
 40
2.0
100
AcDbArc
 50
298.95502437186
 51
0.0
  0
LINE
  5
1FB
330
1F
100
AcDbEntity
  8
躯体
  6
Continuous
 62
     2
370
     9
100
AcDbLine
 10
-368.4899711024093
 20
77.5590850877646
 30
0.0
 11
-368.4899711024093
 21
101.408971972417
 31
0.0
  0
LINE
  5
1FC
330
1F
100
AcDbEntity
  8
躯体
  6
Continuous
 62
     2
370
     9
100
AcDbLine
 10
-387.4582654842976
 20
75.80908508776467
 30
0.0
 11
-369.5217738111938
 21
75.80908508776467
 31
0.0
  0
LINE
  5
1FD
330
1F
100
AcDbEntity
  8
躯体
  6
Continuous
 62
     2
370
     9
100
AcDbLine
 10
-388.4900681930827
 20
77.5590850877646
 30
0.0
 11
-388.4900681930827
 21
101.408971972417
 31
0.0
  0
CIRCLE
  5
1FE
330
1F
100
AcDbEntity
  8
躯体
  6
Continuous
 62
     2
370
     9
100
AcDbCircle
 10
-378.4900196477457
 20
85.80908508776463
 30
0.0
 40
6.5
  0
LINE
  5
1FF
330
1F
100
AcDbEntity
  8
躯体
  6
JWW_CENTER1
 62
     2
370
     9
100
AcDbLine
 10
-386.2808479604763
 20
85.80908508776463
 30
0.0
 11
-370.5577468857263
 21
85.80908508776463
 31
0.0
  0
LWPOLYLINE
  5
200
330
1F
100
AcDbEntity
  8
その他
  6
Continuous
 62
     7
370
     9
100
AcDbPolyline
 90
        4
 70
     1
 43
1.0
 10
-773.8530680696572
 20
101.4090110325604
 42
0.4142135623731
 10
-774.3530680696572
 20
101.9090110325604
 42
0.4142135623731
 10
-774.8530680696571
 20
101.4090110325604
 42
0.4142135623731
 10
-774.3530680696572
 20
100.9090110325604
 42
0.4142135623731
  0
LWPOLYLINE
  5
201
330
1F
100
AcDbEntity
  8
その他
  6
Continuous
 62
     7
370
     9
100
AcDbPolyline
 90
        4
 70
     1
 43
1.0
 10
-733.8530680696572
 20
109.4090918629025
 42
0.4142135623731
 10
-734.3530680696572
 20
109.9090918629025
 42
0.4142135623731
 10
-734.8530680696571
 20
109.4090918629025
 42
0.4142135623731
 10
-734.3530680696572
 20
108.9090918629025
 42
0.4142135623731
  0
LWPOLYLINE
  5
202
330
1F
100
AcDbEntity
  8
その他
  6
Continuous
 62
     7
370
     9
100
AcDbPolyline
 90
        4
 70
     1
 43
1.0
 10
-693.8530680696572
 20
121.4090031380518
 42
0.4142135623731
 10
-694.3530680696572
 20
121.9090031380518
 42
0.4142135623731
 10
-694.8530680696571
 20
121.4090031380518
 42
0.4142135623731
 10
-694.3530680696572
 20
120.9090031380518
 42
0.4142135623731
  0
LINE
  5
203
330
1F
100
AcDbEntity
  8
その他
  6
Continuous
 62
     7
370
     9
100
AcDbLine
 10
-775.3530680696567
 20
101.4090110325604
 30
0.0
 11
-654.3530680696576
 21
101.4090110325604
 31
0.0
  0
LINE
  5
204
330
1F
100
AcDbEntity
  8
その他
  6
Continuous
 62
     7
370
     9
100
AcDbLine
 10
-735.3530680696567
 20
109.4090918629025
 30
0.0
 11
-654.3530680696576
 21
109.4090918629025
 31
0.0
  0
LINE
  5
205
330
1F
100
AcDbEntity
  8
その他
  6
Continuous
 62
     7
370
     9
100
AcDbLine
 10
-695.3530680696567
 20
121.4090031380518
 30
0.0
 11
-654.3530680696576
 21
121.4090031380518
 31
0.0
  0
LWPOLYLINE
  5
206
330
1F
100
AcDbEntity
  8
その他
  6
Continuous
 62
     7
370
     9
100
AcDbPolyline
 90
        4
 70
     1
 43
1.0
 10
-640.4900196477455
 20
22.44064284549722
 42
0.4142135623731
 10
-640.9900196477454
 20
22.94064284549722
 42
0.4142135623731
 10
-641.4900196477454
 20
22.44064284549722
 42
0.4142135623731
 10
-640.9900196477454
 20
21.94064284549722
 42
0.4142135623731
  0
LINE
  5
207
330
1F
100
AcDbEntity
  8
その他
  6
Continuous
 62
     7
370
     9
100
AcDbLine
 10
-640.9900196477454
 20
20.94064284549724
 30
0.0
 11
-640.9900196477454
 21
91.40901103256041
 31
0.0
  0
LINE
  5
208
330
1F
100
AcDbEntity
  8
躯体
  6
Continuous
 62
     2
370
     9
100
AcDbLine
 10
-633.9899965533621
 20
108.409034126944
 30
0.0
 11
-640.9900196477454
 21
101.4090110325604
 31
0.0
  0
LINE
  5
209
330
1F
100
AcDbEntity
  8
仕上
  6
Continuous
 62
     3
370
     9
100
AcDbLine
 10
-625.9422927548188
 20
116.3179497452157
 30
0.0
 11
-632.9422322498901
 21
109.3180102501437
 31
0.0
  0
LINE
  5
20A
330
1F
100
AcDbEntity
  8
仕上
  6
JWW_CENTER1
 62
     3
370
     9
100
AcDbLine
 10
-590.0708052809298
 20
136.3179541637839
 30
0.0
 11
-620.9689128611662
 21
136.3179541637839
 31
0.0
  0
LINE
  5
20B
330
1F
100
AcDbEntity
  8
仕上
  6
JWW_CENTER1
 62
     3
370
     9
100
AcDbLine
 10
-605.9421893603214
 20
121.6720900379393
 30
0.0
 11
-605.9421893603214
 21
151.6936667904732
 31
0.0
  0
LINE
  5
20C
330
1F
100
AcDbEntity
  8
仕上
  6
Continuous
 62
     3
370
     9
100
AcDbLine
 10
-625.9422553442741
 20
178.8180201477366
 30
0.0
 11
-625.9422553442741
 21
118.3179937541556
 31
0.0
  0
LINE
  5
20D
330
1F
100
AcDbEntity
  8
仕上
  6
Continuous
 62
     3
370
     9
100
AcDbLine
 10
-623.9423477218079
 20
116.3180861316893
 30
0.0
 11
-563.442123376369
 21
116.3180861316893
 31
0.0
  0
LINE
  5
20E
330
1F
100
AcDbEntity
  8
仕上
  6
Continuous
 62
     3
370
     9
100
AcDbLine
 10
-621.6746112353214
 20
180.5859281925001
 30
0.0
 11
-561.6742153316054
 21
120.585730240642
 31
0.0
  0
CIRCLE
  5
20F
330
1F
100
AcDbEntity
  8
仕上
  6
Continuous
 62
     3
370
     9
100
AcDbCircle
 10
-605.9421893603214
 20
136.3179541637839
 30
0.0
 40
11.49997221456992
  0
CIRCLE
  5
210
330
1F
100
AcDbEntity
  8
仕上
  6
Continuous
 62
     3
370
     9
100
AcDbCircle
 10
-605.9421893603214
 20
136.3179541637839
 30
0.0
 40
13.49993937724346
  0
ARC
  5
211
330
1F
100
AcDbEntity
  8
仕上
  6
Continuous
 62
     3
370
     9
100
AcDbCircle
 10
-623.9423477218079
 20
118.3179937541556
 30
0.0
 40
2.000000025774982
100
AcDbArc
 50
180.0
 51
270.0
  0
ARC
  5
212
330
1F
100
AcDbEntity
  8
仕上
  6
Continuous
 62
     3
370
     9
100
AcDbCircle
 10
-623.4423213282273
 20
178.8180201477366
 30
0.0
 40
2.500000128874908
100
AcDbArc
 50
45.0
 51
180.0
  0
ARC
  5
213
330
1F
100
AcDbEntity
  8
仕上
  6
Continuous
 62
     3
370
     9
100
AcDbCircle
 10
-563.442123376369
 20
118.8180201477366
 30
0.0
 40
2.500000128874908
100
AcDbArc
 50
270.0
 51
45.0
  0
CIRCLE
  5
214
330
1F
100
AcDbEntity
  8
仕上
  6
Continuous
 62
     3
370
     9
100
AcDbCircle
 10
-605.9422883362506
 20
136.3180531397132
 30
0.0
 40
9.999945150839338
  0
LINE
  5
215
330
1F
100
AcDbEntity
  8
仕上
  6
Continuous
 62
     3
370
     9
100
AcDbLine
 10
-607.4421849417533
 20
146.2048733157151
 30
0.0
 11
-607.4421849417533
 21
126.4312329637112
 31
0.0
  0
LINE
  5
216
330
1F
100
AcDbEntity
  8
仕上
  6
Continuous
 62
     3
370
     9
100
AcDbLine
 10
-604.4421849417538
 20
146.2048419422321
 30
0.0
 11
-604.4421849417538
 21
126.4312643371942
 31
0.0
  0
LINE
  5
217
330
1F
100
AcDbEntity
  8
仕上
  6
Continuous
 62
     3
370
     9
100
AcDbLine
 10
-604.1423917307484
 20
126.7865627977575
 30
0.0
 11
-604.1423917307484
 21
145.8495434816687
 31
0.0
  0
ARC
  5
218
330
1F
100
AcDbEntity
  8
仕上
  6
Continuous
 62
     3
370
     9
100
AcDbCircle
 10
-605.9422883362506
 20
136.3180531397132
 30
0.0
 40
9.699945150839312
100
AcDbArc
 50
280.693631778202
 51
79.30636822179804
  0
LINE
  5
219
330
1F
100
AcDbEntity
  8
仕上
  6
Continuous
 62
     3
370
     9
100
AcDbLine
 10
-607.7421849417535
 20
126.7865627977575
 30
0.0
 11
-607.7421849417535
 21
145.8495434816687
 31
0.0
  0
ARC
  5
21A
330
1F
100
AcDbEntity
  8
仕上
  6
Continuous
 62
     3
370
     9
100
AcDbCircle
 10
-605.9422883362506
 20
136.3180531397132
 30
0.0
 40
9.699945150839312
100
AcDbArc
 50
100.693631778202
 51
259.306368221798
  0
LINE
  5
21B
330
1F
100
AcDbEntity
  8
仕上
  6
Continuous
 62
     3
370
     9
100
AcDbLine
 10
-607.4421849417533
 20
146.2048733157151
 30
0.0
 11
-607.7421849417535
 21
145.8495434816687
 31
0.0
  0
LINE
  5
21C
330
1F
100
AcDbEntity
  8
仕上
  6
Continuous
 62
     3
370
     9
100
AcDbLine
 10
-604.4421849417538
 20
146.2048419422321
 30
0.0
 11
-604.1423917307484
 21
145.8495434816687
 31
0.0
  0
LINE
  5
21D
330
1F
100
AcDbEntity
  8
仕上
  6
Continuous
 62
     3
370
     9
100
AcDbLine
 10
-604.1423917307484
 20
126.7865627977575
 30
0.0
 11
-604.4421849417538
 21
126.4312643371942
 31
0.0
  0
LINE
  5
21E
330
1F
100
AcDbEntity
  8
仕上
  6
Continuous
 62
     3
370
     9
100
AcDbLine
 10
-607.7421849417535
 20
126.7865627977575
 30
0.0
 11
-607.4421849417533
 21
126.4312329637112
 31
0.0
  0
CIRCLE
  5
21F
330
1F
100
AcDbEntity
  8
仕上
  6
Continuous
 62
     3
370
     9
100
AcDbCircle
 10
-605.9899536637929
 20
136.408978040584
 30
0.0
 40
11.24979215054899
  0
TEXT
  5
220
330
1F
100
AcDbEntity
  8
0-F
  6
Continuous
 62
     6
370
     9
100
AcDbText
 10
-367.7352118668503
 20
118.3243234865424
 30
0.0
 40
4.572
  1
ＫＡＮＥＳＯ
 41
1.20833333333334
  7
ＭＳ ゴシック
100
AcDbText
  0
LWPOLYLINE
  5
221
330
1F
100
AcDbEntity
  8
その他
  6
Continuous
 62
     7
370
     9
100
AcDbPolyline
 90
        4
 70
     1
 43
1.0
 10
-290.4900196477457
 20
22.44064284549722
 42
0.4142135623731
 10
-290.9900196477457
 20
22.94064284549722
 42
0.4142135623731
 10
-291.4900196477457
 20
22.44064284549722
 42
0.4142135623731
 10
-290.9900196477457
 20
21.94064284549722
 42
0.4142135623731
  0
LINE
  5
222
330
1F
100
AcDbEntity
  8
その他
  6
Continuous
 62
     7
370
     9
100
AcDbLine
 10
-290.9900196477457
 20
20.94064284549724
 30
0.0
 11
-290.9900196477457
 21
91.40901103256041
 31
0.0
  0
LWPOLYLINE
  5
223
330
1F
100
AcDbEntity
  8
その他
  6
Continuous
 62
     7
370
     9
100
AcDbPolyline
 90
        4
 70
     1
 43
1.0
 10
-188.8537730026171
 20
101.4090110325604
 42
0.4142135623731
 10
-189.3537730026171
 20
101.9090110325604
 42
0.4142135623731
 10
-189.8537730026171
 20
101.4090110325604
 42
0.4142135623731
 10
-189.3537730026171
 20
100.9090110325604
 42
0.4142135623731
  0
LINE
  5
224
330
1F
100
AcDbEntity
  8
その他
  6
Continuous
 62
     7
370
     9
100
AcDbLine
 10
-187.8537730026173
 20
101.4090110325604
 30
0.0
 11
-280.9900196477457
 21
101.4090110325604
 31
0.0
  0
LINE
  5
225
330
1F
100
AcDbEntity
  8
躯体
  6
Continuous
 62
     2
370
     9
100
AcDbLine
 10
-297.9900427421296
 20
108.409034126944
 30
0.0
 11
-290.9900196477457
 21
101.4090110325604
 31
0.0
  0
LINE
  5
226
330
1F
100
AcDbEntity
  8
躯体
  6
JWW_DASHED2
 62
     2
370
     9
100
AcDbLine
 10
-310.990036143734
 20
121.4090275285485
 30
0.0
 11
-324.7740927259682
 21
121.4090275285485
 31
0.0
  0
LINE
  5
227
330
1F
100
AcDbEntity
  8
仕上
  6
Continuous
 62
     3
370
     9
100
AcDbLine
 10
-305.9422179337294
 20
116.3179497452157
 30
0.0
 11
-298.9422784386575
 21
109.3180102501437
 31
0.0
  0
LINE
  5
228
330
1F
100
AcDbEntity
  8
仕上
  6
JWW_CENTER1
 62
     3
370
     9
100
AcDbLine
 10
-341.8137054076188
 20
136.3179541637838
 30
0.0
 11
-310.9155978273827
 21
136.3179541637838
 31
0.0
  0
LINE
  5
229
330
1F
100
AcDbEntity
  8
仕上
  6
JWW_CENTER1
 62
     3
370
     9
100
AcDbLine
 10
-325.9423213282272
 20
121.6720900379393
 30
0.0
 11
-325.9423213282272
 21
151.6936667904731
 31
0.0
  0
LINE
  5
22A
330
1F
100
AcDbEntity
  8
仕上
  6
Continuous
 62
     3
370
     9
100
AcDbLine
 10
-305.9422553442743
 20
178.8180201477365
 30
0.0
 11
-305.9422553442743
 21
118.3179937541556
 31
0.0
  0
LINE
  5
22B
330
1F
100
AcDbEntity
  8
仕上
  6
Continuous
 62
     3
370
     9
100
AcDbLine
 10
-307.9421629667407
 20
116.3180861316893
 30
0.0
 11
-368.4423873121798
 21
116.3180861316893
 31
0.0
  0
LINE
  5
22C
330
1F
100
AcDbEntity
  8
仕上
  6
Continuous
 62
     3
370
     9
100
AcDbLine
 10
-310.2098994532272
 20
180.5859281925
 30
0.0
 11
-370.2102953569433
 21
120.585730240642
 31
0.0
  0
CIRCLE
  5
22D
330
1F
100
AcDbEntity
  8
仕上
  6
Continuous
 62
     3
370
     9
100
AcDbCircle
 10
-325.9423213282272
 20
136.3179541637838
 30
0.0
 40
11.49997221456992
  0
CIRCLE
  5
22E
330
1F
100
AcDbEntity
  8
仕上
  6
Continuous
 62
     3
370
     9
100
AcDbCircle
 10
-325.9423213282272
 20
136.3179541637838
 30
0.0
 40
13.49993937724346
  0
ARC
  5
22F
330
1F
100
AcDbEntity
  8
仕上
  6
Continuous
 62
     3
370
     9
100
AcDbCircle
 10
-307.9421629667407
 20
118.3179937541556
 30
0.0
 40
2.000000025774982
100
AcDbArc
 50
270.0
 51
0.0
  0
ARC
  5
230
330
1F
100
AcDbEntity
  8
仕上
  6
Continuous
 62
     3
370
     9
100
AcDbCircle
 10
-308.442189360322
 20
178.8180201477365
 30
0.0
 40
2.500000128874908
100
AcDbArc
 50
0.0
 51
134.9999999999999
  0
ARC
  5
231
330
1F
100
AcDbEntity
  8
仕上
  6
Continuous
 62
     3
370
     9
100
AcDbCircle
 10
-368.4423873121798
 20
118.8180201477365
 30
0.0
 40
2.500000128874908
100
AcDbArc
 50
135.0
 51
270.0
  0
CIRCLE
  5
232
330
1F
100
AcDbEntity
  8
仕上
  6
Continuous
 62
     3
370
     9
100
AcDbCircle
 10
-325.9423213282273
 20
136.3179541637838
 30
0.0
 40
9.999945150839338
  0
LINE
  5
233
330
1F
100
AcDbEntity
  8
仕上
  6
Continuous
 62
     3
370
     9
100
AcDbLine
 10
-327.4422179337299
 20
146.2047743397856
 30
0.0
 11
-327.4422179337299
 21
126.431133987782
 31
0.0
  0
LINE
  5
234
330
1F
100
AcDbEntity
  8
仕上
  6
Continuous
 62
     3
370
     9
100
AcDbLine
 10
-324.4422179337298
 20
146.2047429663027
 30
0.0
 11
-324.4422179337298
 21
126.4311653612649
 31
0.0
  0
LINE
  5
235
330
1F
100
AcDbEntity
  8
仕上
  6
Continuous
 62
     3
370
     9
100
AcDbLine
 10
-324.1424247227243
 20
126.7864638218283
 30
0.0
 11
-324.1424247227243
 21
145.8494445057393
 31
0.0
  0
ARC
  5
236
330
1F
100
AcDbEntity
  8
仕上
  6
Continuous
 62
     3
370
     9
100
AcDbCircle
 10
-325.9423213282273
 20
136.3179541637838
 30
0.0
 40
9.699945150839312
100
AcDbArc
 50
280.693631778202
 51
79.30636822179804
  0
LINE
  5
237
330
1F
100
AcDbEntity
  8
仕上
  6
Continuous
 62
     3
370
     9
100
AcDbLine
 10
-327.7422179337302
 20
126.7864638218283
 30
0.0
 11
-327.7422179337302
 21
145.8494445057393
 31
0.0
  0
ARC
  5
238
330
1F
100
AcDbEntity
  8
仕上
  6
Continuous
 62
     3
370
     9
100
AcDbCircle
 10
-325.9423213282273
 20
136.3179541637838
 30
0.0
 40
9.699945150839312
100
AcDbArc
 50
100.693631778202
 51
259.306368221798
  0
LINE
  5
239
330
1F
100
AcDbEntity
  8
仕上
  6
Continuous
 62
     3
370
     9
100
AcDbLine
 10
-327.4422179337299
 20
146.2047743397856
 30
0.0
 11
-327.7422179337302
 21
145.8494445057393
 31
0.0
  0
LINE
  5
23A
330
1F
100
AcDbEntity
  8
仕上
  6
Continuous
 62
     3
370
     9
100
AcDbLine
 10
-324.4422179337298
 20
146.2047429663027
 30
0.0
 11
-324.1424247227243
 21
145.8494445057393
 31
0.0
  0
LINE
  5
23B
330
1F
100
AcDbEntity
  8
仕上
  6
Continuous
 62
     3
370
     9
100
AcDbLine
 10
-324.1424247227243
 20
126.7864638218283
 30
0.0
 11
-324.4422179337298
 21
126.4311653612649
 31
0.0
  0
LINE
  5
23C
330
1F
100
AcDbEntity
  8
仕上
  6
Continuous
 62
     3
370
     9
100
AcDbLine
 10
-327.7422179337302
 20
126.7864638218283
 30
0.0
 11
-327.4422179337299
 21
126.431133987782
 31
0.0
  0
CIRCLE
  5
23D
330
1F
100
AcDbEntity
  8
仕上
  6
Continuous
 62
     3
370
     9
100
AcDbCircle
 10
-325.9900856316986
 20
136.4089780405839
 30
0.0
 40
11.24979215054899
  0
LINE
  5
23E
330
1F
100
AcDbEntity
  8
躯体
  6
Continuous
 62
     2
370
     9
100
AcDbLine
 10
-633.9899965533621
 20
108.409034126944
 30
0.0
 11
-297.9900427421296
 21
108.409034126944
 31
0.0
  0
LINE
  5
23F
330
1F
100
AcDbEntity
  8
躯体
  6
Continuous
 62
     2
370
     9
100
AcDbLine
 10
-640.9900196477454
 20
101.4090110325604
 30
0.0
 11
-290.9900196477457
 21
101.4090110325604
 31
0.0
  0
LINE
  5
240
330
1F
100
AcDbEntity
  8
躯体
  6
JWW_DASHED2
 62
     2
370
     9
100
AcDbLine
 10
-366.7129176227022
 20
121.4090275285485
 30
0.0
 11
-620.9900031517575
 21
121.4090275285485
 31
0.0
  0
LINE
  5
241
330
1F
100
AcDbEntity
  8
仕上
  6
Continuous
 62
     3
370
     9
100
AcDbLine
 10
-625.9422927548188
 20
116.3179497452157
 30
0.0
 11
-305.9422179337294
 21
116.3179497452157
 31
0.0
  0
LINE
  5
242
330
1F
100
AcDbEntity
  8
仕上
  6
Continuous
 62
     3
370
     9
100
AcDbLine
 10
-298.9422784386575
 20
109.3180102501437
 30
0.0
 11
-632.9422322498901
 21
109.3180102501437
 31
0.0
  0
LINE
  5
243
330
1F
100
AcDbEntity
  8
躯体
  6
JWW_CENTER1
 62
     2
370
     9
100
AcDbLine
 10
-553.490177125519
 20
481.4067271865632
 30
0.0
 11
-553.490177125519
 21
454.6296414573843
 31
0.0
  0
ARC
  5
244
330
1F
100
AcDbEntity
  8
躯体
  6
Continuous
 62
     2
370
     9
100
AcDbCircle
 10
-545.4901771255195
 20
475.2588979172131
 30
0.0
 40
2.0
100
AcDbArc
 50
0.0
 51
61.04497562814005
  0
ARC
  5
245
330
1F
100
AcDbEntity
  8
躯体
  6
Continuous
 62
     2
370
     9
100
AcDbCircle
 10
-561.4901771255197
 20
475.2588979172131
 30
0.0
 40
2.0
100
AcDbArc
 50
118.95502437186
 51
180.0
  0
LINE
  5
246
330
1F
100
AcDbEntity
  8
躯体
  6
Continuous
 62
     2
370
     9
100
AcDbLine
 10
-563.490225670856
 20
475.2588979172131
 30
0.0
 11
-563.490225670856
 21
451.4090110325607
 31
0.0
  0
LINE
  5
247
330
1F
100
AcDbEntity
  8
躯体
  6
Continuous
 62
     2
370
     9
100
AcDbLine
 10
-544.5219312889676
 20
477.0088979172128
 30
0.0
 11
-562.4584229620709
 21
477.0088979172128
 31
0.0
  0
LINE
  5
248
330
1F
100
AcDbEntity
  8
躯体
  6
Continuous
 62
     2
370
     9
100
AcDbLine
 10
-543.4901285801825
 20
475.2588979172131
 30
0.0
 11
-543.4901285801825
 21
451.4090110325607
 31
0.0
  0
CIRCLE
  5
249
330
1F
100
AcDbEntity
  8
躯体
  6
Continuous
 62
     2
370
     9
100
AcDbCircle
 10
-553.490177125519
 20
467.0088979172131
 30
0.0
 40
6.5
  0
LINE
  5
24A
330
1F
100
AcDbEntity
  8
躯体
  6
JWW_CENTER1
 62
     2
370
     9
100
AcDbLine
 10
-545.7310112851119
 20
467.0088979172131
 30
0.0
 11
-561.1518068506441
 21
467.0088979172131
 31
0.0
  0
LINE
  5
24B
330
1F
100
AcDbEntity
  8
躯体
  6
JWW_CENTER1
 62
     2
370
     9
100
AcDbLine
 10
-370.966594135266
 20
467.0088979172131
 30
0.0
 11
-386.5082606006683
 21
467.0088979172131
 31
0.0
  0
CIRCLE
  5
24C
330
1F
100
AcDbEntity
  8
躯体
  6
Continuous
 62
     2
370
     9
100
AcDbCircle
 10
-378.4900196477457
 20
467.0088979172131
 30
0.0
 40
6.5
  0
LINE
  5
24D
330
1F
100
AcDbEntity
  8
躯体
  6
Continuous
 62
     2
370
     9
100
AcDbLine
 10
-368.4899711024087
 20
475.2588979172131
 30
0.0
 11
-368.4899711024087
 21
451.4090110325607
 31
0.0
  0
LINE
  5
24E
330
1F
100
AcDbEntity
  8
躯体
  6
Continuous
 62
     2
370
     9
100
AcDbLine
 10
-387.458265484297
 20
477.0088979172128
 30
0.0
 11
-369.5217738111938
 21
477.0088979172128
 31
0.0
  0
LINE
  5
24F
330
1F
100
AcDbEntity
  8
躯体
  6
Continuous
 62
     2
370
     9
100
AcDbLine
 10
-388.4900681930822
 20
475.2588979172131
 30
0.0
 11
-388.4900681930822
 21
451.4090110325607
 31
0.0
  0
ARC
  5
250
330
1F
100
AcDbEntity
  8
躯体
  6
Continuous
 62
     2
370
     9
100
AcDbCircle
 10
-386.4900196477453
 20
475.2588979172131
 30
0.0
 40
2.0
100
AcDbArc
 50
118.95502437186
 51
180.0
  0
ARC
  5
251
330
1F
100
AcDbEntity
  8
躯体
  6
Continuous
 62
     2
370
     9
100
AcDbCircle
 10
-370.490019647745
 20
475.2588979172131
 30
0.0
 40
2.0
100
AcDbArc
 50
0.0
 51
61.04497562814005
  0
LINE
  5
252
330
1F
100
AcDbEntity
  8
躯体
  6
JWW_CENTER1
 62
     2
370
     9
100
AcDbLine
 10
-378.4900196477457
 20
481.4067271865632
 30
0.0
 11
-378.4900196477457
 21
454.6296414573843
 31
0.0
  0
LWPOLYLINE
  5
253
330
1F
100
AcDbEntity
  8
その他
  6
Continuous
 62
     7
370
     9
100
AcDbPolyline
 90
        4
 70
     1
 43
1.0
 10
-640.4900477498397
 20
578.7833586320663
 42
0.4142135623731
 10
-640.9900477498397
 20
579.2833586320662
 42
0.4142135623731
 10
-641.4900477498396
 20
578.7833586320663
 42
0.4142135623731
 10
-640.9900477498397
 20
578.2833586320663
 42
0.4142135623731
  0
LWPOLYLINE
  5
254
330
1F
100
AcDbEntity
  8
その他
  6
Continuous
 62
     7
370
     9
100
AcDbPolyline
 90
        4
 70
     1
 43
1.0
 10
-632.4899669194979
 20
538.7833586320662
 42
0.4142135623731
 10
-632.9899669194979
 20
539.2833586320661
 42
0.4142135623731
 10
-633.4899669194978
 20
538.7833586320662
 42
0.4142135623731
 10
-632.9899669194979
 20
538.2833586320662
 42
0.4142135623731
  0
LWPOLYLINE
  5
255
330
1F
100
AcDbEntity
  8
その他
  6
Continuous
 62
     7
370
     9
100
AcDbPolyline
 90
        4
 70
     1
 43
1.0
 10
-620.4900031517575
 20
498.7833586320662
 42
0.4142135623731
 10
-620.9900031517575
 20
499.2833586320661
 42
0.4142135623731
 10
-621.4900031517574
 20
498.7833586320662
 42
0.4142135623731
 10
-620.9900031517575
 20
498.2833586320662
 42
0.4142135623731
  0
LINE
  5
256
330
1F
100
AcDbEntity
  8
その他
  6
Continuous
 62
     7
370
     9
100
AcDbLine
 10
-640.9900477498397
 20
579.7833586320666
 30
0.0
 11
-640.9900477498397
 21
458.7833586320662
 31
0.0
  0
LINE
  5
257
330
1F
100
AcDbEntity
  8
その他
  6
Continuous
 62
     7
370
     9
100
AcDbLine
 10
-632.9899669194979
 20
539.7833586320662
 30
0.0
 11
-632.9899669194979
 21
458.7833586320662
 31
0.0
  0
LINE
  5
258
330
1F
100
AcDbEntity
  8
その他
  6
Continuous
 62
     7
370
     9
100
AcDbLine
 10
-620.9900031517575
 20
499.7833586320662
 30
0.0
 11
-620.9900031517575
 21
458.7833586320662
 31
0.0
  0
LWPOLYLINE
  5
259
330
1F
100
AcDbEntity
  8
その他
  6
Continuous
 62
     7
370
     9
100
AcDbPolyline
 90
        4
 70
     1
 43
1.0
 10
-773.8530680696572
 20
451.4089841676652
 42
0.4142135623731
 10
-774.3530680696572
 20
451.9089841676652
 42
0.4142135623731
 10
-774.8530680696571
 20
451.4089841676652
 42
0.4142135623731
 10
-774.3530680696572
 20
450.9089841676652
 42
0.4142135623731
  0
LWPOLYLINE
  5
25A
330
1F
100
AcDbEntity
  8
その他
  6
Continuous
 62
     7
370
     9
100
AcDbPolyline
 90
        4
 70
     1
 43
1.0
 10
-733.8530680696572
 20
443.4089033373229
 42
0.4142135623731
 10
-734.3530680696572
 20
443.9089033373228
 42
0.4142135623731
 10
-734.8530680696571
 20
443.4089033373229
 42
0.4142135623731
 10
-734.3530680696572
 20
442.908903337323
 42
0.4142135623731
  0
LWPOLYLINE
  5
25B
330
1F
100
AcDbEntity
  8
その他
  6
Continuous
 62
     7
370
     9
100
AcDbPolyline
 90
        4
 70
     1
 43
1.0
 10
-693.8530680696572
 20
431.4088870769919
 42
0.4142135623731
 10
-694.3530680696572
 20
431.9088870769918
 42
0.4142135623731
 10
-694.8530680696571
 20
431.4088870769919
 42
0.4142135623731
 10
-694.3530680696572
 20
430.908887076992
 42
0.4142135623731
  0
LINE
  5
25C
330
1F
100
AcDbEntity
  8
その他
  6
Continuous
 62
     7
370
     9
100
AcDbLine
 10
-775.3530680696567
 20
451.4089841676652
 30
0.0
 11
-654.3530680696576
 21
451.4089841676652
 31
0.0
  0
LINE
  5
25D
330
1F
100
AcDbEntity
  8
その他
  6
Continuous
 62
     7
370
     9
100
AcDbLine
 10
-735.3530680696567
 20
443.4089033373229
 30
0.0
 11
-654.3530680696576
 21
443.4089033373229
 31
0.0
  0
LINE
  5
25E
330
1F
100
AcDbEntity
  8
その他
  6
Continuous
 62
     7
370
     9
100
AcDbLine
 10
-695.3530680696567
 20
431.4088870769919
 30
0.0
 11
-654.3530680696576
 21
431.4088870769919
 31
0.0
  0
LINE
  5
25F
330
1F
100
AcDbEntity
  8
躯体
  6
Continuous
 62
     2
370
     9
100
AcDbLine
 10
-633.9899965533621
 20
444.4089879381771
 30
0.0
 11
-640.9900196477461
 21
451.4090110325604
 31
0.0
  0
LINE
  5
260
330
1F
100
AcDbEntity
  8
仕上
  6
Continuous
 62
     3
370
     9
100
AcDbLine
 10
-625.9422927548183
 20
436.318024566305
 30
0.0
 11
-632.9422322498907
 21
443.3179640613767
 31
0.0
  0
LINE
  5
261
330
1F
100
AcDbEntity
  8
仕上
  6
JWW_CENTER1
 62
     3
370
     9
100
AcDbLine
 10
-590.0708052809298
 20
416.3180201477367
 30
0.0
 11
-620.9689128611662
 21
416.3180201477367
 31
0.0
  0
LINE
  5
262
330
1F
100
AcDbEntity
  8
仕上
  6
JWW_CENTER1
 62
     3
370
     9
100
AcDbLine
 10
-605.9421893603214
 20
430.9638842735814
 30
0.0
 11
-605.9421893603214
 21
400.9423075210475
 31
0.0
  0
LINE
  5
263
330
1F
100
AcDbEntity
  8
仕上
  6
Continuous
 62
     3
370
     9
100
AcDbLine
 10
-625.9422553442741
 20
373.817954163784
 30
0.0
 11
-625.9422553442741
 21
434.3179805573651
 31
0.0
  0
LINE
  5
264
330
1F
100
AcDbEntity
  8
仕上
  6
Continuous
 62
     3
370
     9
100
AcDbLine
 10
-623.9423477218079
 20
436.3178881798314
 30
0.0
 11
-563.442123376369
 21
436.3178881798314
 31
0.0
  0
LINE
  5
265
330
1F
100
AcDbEntity
  8
仕上
  6
Continuous
 62
     3
370
     9
100
AcDbLine
 10
-621.6746112353214
 20
372.0500461190204
 30
0.0
 11
-561.6742153316054
 21
432.0502440708785
 31
0.0
  0
CIRCLE
  5
266
330
1F
100
AcDbEntity
  8
仕上
  6
Continuous
 62
     3
370
     9
100
AcDbCircle
 10
-605.9421893603214
 20
416.3180201477367
 30
0.0
 40
11.49997221456992
  0
CIRCLE
  5
267
330
1F
100
AcDbEntity
  8
仕上
  6
Continuous
 62
     3
370
     9
100
AcDbCircle
 10
-605.9421893603214
 20
416.3180201477367
 30
0.0
 40
13.49993937724346
  0
ARC
  5
268
330
1F
100
AcDbEntity
  8
仕上
  6
Continuous
 62
     3
370
     9
100
AcDbCircle
 10
-623.9423477218079
 20
434.3179805573651
 30
0.0
 40
2.000000025774982
100
AcDbArc
 50
90.0
 51
180.0
  0
ARC
  5
269
330
1F
100
AcDbEntity
  8
仕上
  6
Continuous
 62
     3
370
     9
100
AcDbCircle
 10
-623.4423213282273
 20
373.817954163784
 30
0.0
 40
2.500000128874908
100
AcDbArc
 50
180.0
 51
315.0
  0
ARC
  5
26A
330
1F
100
AcDbEntity
  8
仕上
  6
Continuous
 62
     3
370
     9
100
AcDbCircle
 10
-563.442123376369
 20
433.8179541637838
 30
0.0
 40
2.500000128874908
100
AcDbArc
 50
315.0
 51
90.0
  0
CIRCLE
  5
26B
330
1F
100
AcDbEntity
  8
仕上
  6
Continuous
 62
     3
370
     9
100
AcDbCircle
 10
-605.9421893603214
 20
416.3180201477368
 30
0.0
 40
9.999945150839338
  0
LINE
  5
26C
330
1F
100
AcDbEntity
  8
仕上
  6
Continuous
 62
     3
370
     9
100
AcDbLine
 10
-604.4422927548189
 20
406.431199971735
 30
0.0
 11
-604.4422927548189
 21
426.2048403237387
 31
0.0
  0
LINE
  5
26D
330
1F
100
AcDbEntity
  8
仕上
  6
Continuous
 62
     3
370
     9
100
AcDbLine
 10
-607.4422927548189
 20
406.4312313452178
 30
0.0
 11
-607.4422927548189
 21
426.2048089502557
 31
0.0
  0
LINE
  5
26E
330
1F
100
AcDbEntity
  8
仕上
  6
Continuous
 62
     3
370
     9
100
AcDbLine
 10
-607.7420859658243
 20
425.8495104896923
 30
0.0
 11
-607.7420859658243
 21
406.7865298057814
 31
0.0
  0
ARC
  5
26F
330
1F
100
AcDbEntity
  8
仕上
  6
Continuous
 62
     3
370
     9
100
AcDbCircle
 10
-605.9421893603214
 20
416.3180201477368
 30
0.0
 40
9.699945150839312
100
AcDbArc
 50
100.693631778202
 51
259.306368221798
  0
LINE
  5
270
330
1F
100
AcDbEntity
  8
仕上
  6
Continuous
 62
     3
370
     9
100
AcDbLine
 10
-604.1422927548185
 20
425.8495104896923
 30
0.0
 11
-604.1422927548185
 21
406.7865298057814
 31
0.0
  0
ARC
  5
271
330
1F
100
AcDbEntity
  8
仕上
  6
Continuous
 62
     3
370
     9
100
AcDbCircle
 10
-605.9421893603214
 20
416.3180201477368
 30
0.0
 40
9.699945150839312
100
AcDbArc
 50
280.693631778202
 51
79.30636822179804
  0
LINE
  5
272
330
1F
100
AcDbEntity
  8
仕上
  6
Continuous
 62
     3
370
     9
100
AcDbLine
 10
-604.4422927548189
 20
406.431199971735
 30
0.0
 11
-604.1422927548185
 21
406.7865298057814
 31
0.0
  0
LINE
  5
273
330
1F
100
AcDbEntity
  8
仕上
  6
Continuous
 62
     3
370
     9
100
AcDbLine
 10
-607.4422927548189
 20
406.4312313452178
 30
0.0
 11
-607.7420859658243
 21
406.7865298057814
 31
0.0
  0
LINE
  5
274
330
1F
100
AcDbEntity
  8
仕上
  6
Continuous
 62
     3
370
     9
100
AcDbLine
 10
-607.7420859658243
 20
425.8495104896923
 30
0.0
 11
-607.4422927548189
 21
426.2048089502557
 31
0.0
  0
LINE
  5
275
330
1F
100
AcDbEntity
  8
仕上
  6
Continuous
 62
     3
370
     9
100
AcDbLine
 10
-604.1422927548185
 20
425.8495104896923
 30
0.0
 11
-604.4422927548189
 21
426.2048403237387
 31
0.0
  0
CIRCLE
  5
276
330
1F
100
AcDbEntity
  8
仕上
  6
Continuous
 62
     3
370
     9
100
AcDbCircle
 10
-605.9899536637929
 20
416.4090440245369
 30
0.0
 40
11.24979215054899
  0
LWPOLYLINE
  5
277
330
1F
100
AcDbEntity
  8
その他
  6
Continuous
 62
     7
370
     9
100
AcDbPolyline
 90
        4
 70
     1
 43
1.0
 10
-290.4899696295531
 20
578.7833586320663
 42
0.4142135623731
 10
-290.9899696295531
 20
579.2833586320662
 42
0.4142135623731
 10
-291.4899696295531
 20
578.7833586320663
 42
0.4142135623731
 10
-290.9899696295531
 20
578.2833586320663
 42
0.4142135623731
  0
LWPOLYLINE
  5
278
330
1F
100
AcDbEntity
  8
その他
  6
Continuous
 62
     7
370
     9
100
AcDbPolyline
 90
        4
 70
     1
 43
1.0
 10
-298.490050459895
 20
538.7833586320662
 42
0.4142135623731
 10
-298.990050459895
 20
539.2833586320661
 42
0.4142135623731
 10
-299.490050459895
 20
538.7833586320662
 42
0.4142135623731
 10
-298.990050459895
 20
538.2833586320662
 42
0.4142135623731
  0
LWPOLYLINE
  5
279
330
1F
100
AcDbEntity
  8
その他
  6
Continuous
 62
     7
370
     9
100
AcDbPolyline
 90
        4
 70
     1
 43
1.0
 10
-310.4900667202265
 20
498.7833586320662
 42
0.4142135623731
 10
-310.9900667202265
 20
499.2833586320661
 42
0.4142135623731
 10
-311.4900667202265
 20
498.7833586320662
 42
0.4142135623731
 10
-310.9900667202265
 20
498.2833586320662
 42
0.4142135623731
  0
LINE
  5
27A
330
1F
100
AcDbEntity
  8
その他
  6
Continuous
 62
     7
370
     9
100
AcDbLine
 10
-290.9899696295531
 20
579.7833586320666
 30
0.0
 11
-290.9899696295531
 21
458.7833586320662
 31
0.0
  0
LINE
  5
27B
330
1F
100
AcDbEntity
  8
その他
  6
Continuous
 62
     7
370
     9
100
AcDbLine
 10
-298.990050459895
 20
539.7833586320662
 30
0.0
 11
-298.990050459895
 21
458.7833586320662
 31
0.0
  0
LINE
  5
27C
330
1F
100
AcDbEntity
  8
その他
  6
Continuous
 62
     7
370
     9
100
AcDbLine
 10
-310.9900667202265
 20
499.7833586320662
 30
0.0
 11
-310.9900667202265
 21
458.7833586320662
 31
0.0
  0
LWPOLYLINE
  5
27D
330
1F
100
AcDbEntity
  8
その他
  6
Continuous
 62
     7
370
     9
100
AcDbPolyline
 90
        4
 70
     1
 43
1.0
 10
-188.8537730026171
 20
451.4090110325607
 42
0.4142135623731
 10
-189.3537730026171
 20
451.9090110325607
 42
0.4142135623731
 10
-189.8537730026171
 20
451.4090110325607
 42
0.4142135623731
 10
-189.3537730026171
 20
450.9090110325607
 42
0.4142135623731
  0
LINE
  5
27E
330
1F
100
AcDbEntity
  8
その他
  6
Continuous
 62
     7
370
     9
100
AcDbLine
 10
-187.8537730026173
 20
451.4090110325607
 30
0.0
 11
-280.9900196477457
 21
451.4090110325607
 31
0.0
  0
LINE
  5
27F
330
1F
100
AcDbEntity
  8
躯体
  6
Continuous
 62
     2
370
     9
100
AcDbLine
 10
-297.9900427421293
 20
444.4089879381771
 30
0.0
 11
-290.9900196477457
 21
451.4090110325607
 31
0.0
  0
LINE
  5
280
330
1F
100
AcDbEntity
  8
仕上
  6
Continuous
 62
     3
370
     9
100
AcDbLine
 10
-305.9422179337294
 20
436.318024566305
 30
0.0
 11
-298.9422784386575
 21
443.317964061377
 31
0.0
  0
LINE
  5
281
330
1F
100
AcDbEntity
  8
仕上
  6
JWW_CENTER1
 62
     3
370
     9
100
AcDbLine
 10
-341.8137054076188
 20
416.3180201477368
 30
0.0
 11
-310.9155978273827
 21
416.3180201477368
 31
0.0
  0
LINE
  5
282
330
1F
100
AcDbEntity
  8
仕上
  6
JWW_CENTER1
 62
     3
370
     9
100
AcDbLine
 10
-325.9423213282272
 20
430.9638842735812
 30
0.0
 11
-325.9423213282272
 21
400.9423075210476
 31
0.0
  0
LINE
  5
283
330
1F
100
AcDbEntity
  8
仕上
  6
Continuous
 62
     3
370
     9
100
AcDbLine
 10
-305.9422553442743
 20
373.8179541637841
 30
0.0
 11
-305.9422553442743
 21
434.3179805573649
 31
0.0
  0
LINE
  5
284
330
1F
100
AcDbEntity
  8
仕上
  6
Continuous
 62
     3
370
     9
100
AcDbLine
 10
-307.9421629667407
 20
436.3178881798312
 30
0.0
 11
-368.4423873121798
 21
436.3178881798312
 31
0.0
  0
LINE
  5
285
330
1F
100
AcDbEntity
  8
仕上
  6
Continuous
 62
     3
370
     9
100
AcDbLine
 10
-310.2098994532272
 20
372.0500461190207
 30
0.0
 11
-370.2102953569433
 21
432.0502440708785
 31
0.0
  0
CIRCLE
  5
286
330
1F
100
AcDbEntity
  8
仕上
  6
Continuous
 62
     3
370
     9
100
AcDbCircle
 10
-325.9423213282272
 20
416.3180201477368
 30
0.0
 40
11.49997221456992
  0
CIRCLE
  5
287
330
1F
100
AcDbEntity
  8
仕上
  6
Continuous
 62
     3
370
     9
100
AcDbCircle
 10
-325.9423213282272
 20
416.3180201477368
 30
0.0
 40
13.49993937724346
  0
ARC
  5
288
330
1F
100
AcDbEntity
  8
仕上
  6
Continuous
 62
     3
370
     9
100
AcDbCircle
 10
-307.9421629667407
 20
434.3179805573649
 30
0.0
 40
2.000000025774982
100
AcDbArc
 50
0.0
 51
90.0
  0
ARC
  5
289
330
1F
100
AcDbEntity
  8
仕上
  6
Continuous
 62
     3
370
     9
100
AcDbCircle
 10
-308.4421893603217
 20
373.8179541637841
 30
0.0
 40
2.500000128874908
100
AcDbArc
 50
225.0
 51
0.0
  0
ARC
  5
28A
330
1F
100
AcDbEntity
  8
仕上
  6
Continuous
 62
     3
370
     9
100
AcDbCircle
 10
-368.4423873121798
 20
433.817954163784
 30
0.0
 40
2.500000128874908
100
AcDbArc
 50
90.0
 51
225.0
  0
CIRCLE
  5
28B
330
1F
100
AcDbEntity
  8
仕上
  6
Continuous
 62
     3
370
     9
100
AcDbCircle
 10
-325.9422223522975
 20
416.3179211718077
 30
0.0
 40
9.999945150839338
  0
LINE
  5
28C
330
1F
100
AcDbEntity
  8
仕上
  6
Continuous
 62
     3
370
     9
100
AcDbLine
 10
-324.4423257467949
 20
406.4311009958057
 30
0.0
 11
-324.4423257467949
 21
426.2047413478092
 31
0.0
  0
LINE
  5
28D
330
1F
100
AcDbEntity
  8
仕上
  6
Continuous
 62
     3
370
     9
100
AcDbLine
 10
-327.442325746795
 20
406.4311323692887
 30
0.0
 11
-327.442325746795
 21
426.2047099743265
 31
0.0
  0
LINE
  5
28E
330
1F
100
AcDbEntity
  8
仕上
  6
Continuous
 62
     3
370
     9
100
AcDbLine
 10
-327.7421189578004
 20
425.8494115137632
 30
0.0
 11
-327.7421189578004
 21
406.7864308298519
 31
0.0
  0
ARC
  5
28F
330
1F
100
AcDbEntity
  8
仕上
  6
Continuous
 62
     3
370
     9
100
AcDbCircle
 10
-325.9422223522975
 20
416.3179211718077
 30
0.0
 40
9.699945150839312
100
AcDbArc
 50
100.693631778202
 51
259.306368221798
  0
LINE
  5
290
330
1F
100
AcDbEntity
  8
仕上
  6
Continuous
 62
     3
370
     9
100
AcDbLine
 10
-324.1423257467952
 20
425.8494115137632
 30
0.0
 11
-324.1423257467952
 21
406.7864308298519
 31
0.0
  0
ARC
  5
291
330
1F
100
AcDbEntity
  8
仕上
  6
Continuous
 62
     3
370
     9
100
AcDbCircle
 10
-325.9422223522975
 20
416.3179211718077
 30
0.0
 40
9.699945150839312
100
AcDbArc
 50
280.693631778202
 51
79.30636822179804
  0
LINE
  5
292
330
1F
100
AcDbEntity
  8
仕上
  6
Continuous
 62
     3
370
     9
100
AcDbLine
 10
-324.4423257467949
 20
406.4311009958057
 30
0.0
 11
-324.1423257467952
 21
406.7864308298519
 31
0.0
  0
LINE
  5
293
330
1F
100
AcDbEntity
  8
仕上
  6
Continuous
 62
     3
370
     9
100
AcDbLine
 10
-327.442325746795
 20
406.4311323692887
 30
0.0
 11
-327.7421189578004
 21
406.7864308298519
 31
0.0
  0
LINE
  5
294
330
1F
100
AcDbEntity
  8
仕上
  6
Continuous
 62
     3
370
     9
100
AcDbLine
 10
-327.7421189578004
 20
425.8494115137632
 30
0.0
 11
-327.442325746795
 21
426.2047099743265
 31
0.0
  0
LINE
  5
295
330
1F
100
AcDbEntity
  8
仕上
  6
Continuous
 62
     3
370
     9
100
AcDbLine
 10
-324.1423257467952
 20
425.8494115137632
 30
0.0
 11
-324.4423257467949
 21
426.2047413478092
 31
0.0
  0
CIRCLE
  5
296
330
1F
100
AcDbEntity
  8
仕上
  6
Continuous
 62
     3
370
     9
100
AcDbCircle
 10
-325.9900856316986
 20
416.409044024537
 30
0.0
 40
11.24979215054899
  0
LINE
  5
297
330
1F
100
AcDbEntity
  8
躯体
  6
Continuous
 62
     2
370
     9
100
AcDbLine
 10
-297.9900427421296
 20
444.4089879381768
 30
0.0
 11
-633.9899965533621
 21
444.4089879381768
 31
0.0
  0
LINE
  5
298
330
1F
100
AcDbEntity
  8
躯体
  6
Continuous
 62
     2
370
     9
100
AcDbLine
 10
-290.9900196477457
 20
451.4090110325607
 30
0.0
 11
-640.9900196477454
 21
451.4090110325607
 31
0.0
  0
LINE
  5
299
330
1F
100
AcDbEntity
  8
躯体
  6
JWW_DASHED2
 62
     2
370
     9
100
AcDbLine
 10
-620.9900031517575
 20
431.4089945365723
 30
0.0
 11
-310.990036143734
 21
431.4089945365723
 31
0.0
  0
LINE
  5
29A
330
1F
100
AcDbEntity
  8
仕上
  6
Continuous
 62
     3
370
     9
100
AcDbLine
 10
-305.9422179337294
 20
436.3180245663048
 30
0.0
 11
-625.9422927548188
 21
436.3180245663048
 31
0.0
  0
LINE
  5
29B
330
1F
100
AcDbEntity
  8
仕上
  6
Continuous
 62
     3
370
     9
100
AcDbLine
 10
-632.9422322498901
 20
443.3179640613767
 30
0.0
 11
-298.9422784386575
 21
443.3179640613767
 31
0.0
  0
LINE
  5
29C
330
1F
100
AcDbEntity
  8
躯体
  6
Continuous
 62
     2
370
     9
100
AcDbLine
 10
-640.9900196477454
 20
451.4090110325607
 30
0.0
 11
-640.9900196477454
 21
101.4090110325604
 31
0.0
  0
LINE
  5
29D
330
1F
100
AcDbEntity
  8
躯体
  6
Continuous
 62
     2
370
     9
100
AcDbLine
 10
-633.9899965533621
 20
444.4089879381768
 30
0.0
 11
-633.9899965533621
 21
108.409034126944
 31
0.0
  0
LINE
  5
29E
330
1F
100
AcDbEntity
  8
躯体
  6
JWW_DASHED2
 62
     2
370
     9
100
AcDbLine
 10
-620.9900031517575
 20
121.4090275285485
 30
0.0
 11
-620.9900031517575
 21
431.4089945365723
 31
0.0
  0
LINE
  5
29F
330
1F
100
AcDbEntity
  8
仕上
  6
Continuous
 62
     3
370
     9
100
AcDbLine
 10
-632.9422322498901
 20
109.3180102501437
 30
0.0
 11
-632.9422322498901
 21
443.3179640613767
 31
0.0
  0
LINE
  5
2A0
330
1F
100
AcDbEntity
  8
仕上
  6
Continuous
 62
     3
370
     9
100
AcDbLine
 10
-625.9422927548188
 20
436.3180245663048
 30
0.0
 11
-625.9422927548188
 21
116.3179497452157
 31
0.0
  0
LINE
  5
2A1
330
1F
100
AcDbEntity
  8
躯体
  6
Continuous
 62
     2
370
     9
100
AcDbLine
 10
-297.9900427421296
 20
108.409034126944
 30
0.0
 11
-297.9900427421296
 21
444.4089879381768
 31
0.0
  0
LINE
  5
2A2
330
1F
100
AcDbEntity
  8
躯体
  6
Continuous
 62
     2
370
     9
100
AcDbLine
 10
-290.9900196477457
 20
101.4090110325604
 30
0.0
 11
-290.9900196477457
 21
451.4090110325607
 31
0.0
  0
LINE
  5
2A3
330
1F
100
AcDbEntity
  8
躯体
  6
JWW_DASHED2
 62
     2
370
     9
100
AcDbLine
 10
-310.990036143734
 20
431.4089945365723
 30
0.0
 11
-310.990036143734
 21
121.4090275285485
 31
0.0
  0
LINE
  5
2A4
330
1F
100
AcDbEntity
  8
仕上
  6
Continuous
 62
     3
370
     9
100
AcDbLine
 10
-305.9422179337294
 20
116.3179497452157
 30
0.0
 11
-305.9422179337294
 21
436.3180245663048
 31
0.0
  0
LINE
  5
2A5
330
1F
100
AcDbEntity
  8
仕上
  6
Continuous
 62
     3
370
     9
100
AcDbLine
 10
-298.9422784386575
 20
443.3179640613767
 30
0.0
 11
-298.9422784386575
 21
109.3180102501437
 31
0.0
  0
LINE
  5
2A6
330
1F
100
AcDbEntity
  8
通り芯
  6
JWW_CENTER1
 62
     7
370
     9
100
AcDbLine
 10
-664.1628448957043
 20
276.4090110325606
 30
0.0
 11
-269.0590662900631
 21
276.4090110325606
 31
0.0
  0
LINE
  5
2A7
330
1F
100
AcDbEntity
  8
通り芯
  6
JWW_CENTER1
 62
     7
370
     9
100
AcDbLine
 10
-465.9900196477456
 20
83.02074080297116
 30
0.0
 11
-465.9900196477456
 21
472.1639020589583
 31
0.0
  0
LINE
  5
2A8
330
1F
100
AcDbEntity
  8
D-4
  6
Continuous
 62
     7
370
     9
100
AcDbLine
 10
-748.9108759687872
 20
-307.6938494214796
 30
0.0
 11
-600.2957525049569
 21
-307.6938494214796
 31
0.0
  0
LWPOLYLINE
  5
2A9
330
1F
100
AcDbEntity
  8
D-4
  6
Continuous
 62
     7
370
     9
100
AcDbPolyline
 90
        4
 70
     1
 43
1.0
 10
-747.410875968787
 20
-307.6938494214796
 42
0.4142135623731
 10
-747.910875968787
 20
-307.1938494214796
 42
0.4142135623731
 10
-748.410875968787
 20
-307.6938494214796
 42
0.4142135623731
 10
-747.910875968787
 20
-308.1938494214797
 42
0.4142135623731
  0
LINE
  5
2AA
330
1F
100
AcDbEntity
  8
D-4
  6
Continuous
 62
     7
370
     9
100
AcDbLine
 10
-711.4108759687872
 20
-287.6937584566507
 30
0.0
 11
-682.910875968787
 21
-287.6937584566507
 31
0.0
  0
LWPOLYLINE
  5
2AB
330
1F
100
AcDbEntity
  8
D-4
  6
Continuous
 62
     7
370
     9
100
AcDbPolyline
 90
        4
 70
     1
 43
1.0
 10
-709.910875968787
 20
-287.6937584566507
 42
0.4142135623731
 10
-710.410875968787
 20
-287.1937584566507
 42
0.4142135623731
 10
-710.910875968787
 20
-287.6937584566507
 42
0.4142135623731
 10
-710.410875968787
 20
-288.1937584566507
 42
0.4142135623731
  0
TEXT
  5
2AC
330
1F
100
AcDbEntity
  8
D-5
  6
Continuous
 62
     2
370
     9
100
AcDbText
 10
-714.5315671336934
 20
-429.5649055291861
 30
0.0
 40
15.24
  1
※アンカーは施工時に現場にて折り曲げて下さい
 41
1.119318181818182
  7
ＭＳ ゴシック
100
AcDbText
  0
TEXT
  5
2AD
330
1F
100
AcDbEntity
  8
D-4
  6
Continuous
 62
     2
370
   211
100
AcDbText
 10
-445.3656411570372
 20
-266.9289107852892
 30
0.0
 40
15.24
  1
29
 50
90.0
 41
1.0625
  7
ＭＳ ゴシック
100
AcDbText
  0
ARC
  5
2AE
330
1F
100
AcDbEntity
  8
D-5
  6
Continuous
 62
     7
370
     9
100
AcDbCircle
 10
-557.9655850506941
 20
-279.5721502788591
 30
0.0
 40
75.27291033046588
100
AcDbArc
 50
286.177364524971
 51
339.498438833033
  0
LINE
  5
2AF
330
1F
100
AcDbEntity
  8
D-5
  6
Continuous
 62
     7
370
     9
100
AcDbLine
 10
-487.460261641487
 20
-305.93520018932
 30
0.0
 11
-489.6735562282794
 21
-323.3853931633378
 31
0.0
  0
LINE
  5
2B0
330
1F
100
AcDbEntity
  8
D-5
  6
Continuous
 62
     7
370
     9
100
AcDbLine
 10
-487.460261641487
 20
-305.9352001893201
 30
0.0
 11
-498.5757501472369
 21
-318.8428729236874
 31
0.0
  0
LINE
  5
2B1
330
1F
100
AcDbEntity
  8
D-5
  6
Continuous
 62
     7
370
     9
100
AcDbLine
 10
-305.7225973437954
 20
-394.7207806713311
 30
0.0
 11
-264.8839845714217
 21
-394.7207806713311
 31
0.0
  0
LWPOLYLINE
  5
2B2
330
1F
100
AcDbEntity
  8
D-4
  6
Continuous
 62
     7
370
     9
100
AcDbPolyline
 90
        4
 70
     1
 43
1.0
 10
-709.910875968787
 20
-220.1937584566507
 42
0.4142135623731
 10
-710.410875968787
 20
-219.6937584566507
 42
0.4142135623731
 10
-710.910875968787
 20
-220.1937584566507
 42
0.4142135623731
 10
-710.410875968787
 20
-220.6937584566507
 42
0.4142135623731
  0
LWPOLYLINE
  5
2B3
330
1F
100
AcDbEntity
  8
D-4
  6
Continuous
 62
     7
370
     9
100
AcDbPolyline
 90
        4
 70
     1
 43
1.0
 10
-747.410875968787
 20
-220.1937584566507
 42
0.4142135623731
 10
-747.910875968787
 20
-219.6937584566507
 42
0.4142135623731
 10
-748.410875968787
 20
-220.1937584566507
 42
0.4142135623731
 10
-747.910875968787
 20
-220.6937584566507
 42
0.4142135623731
  0
LINE
  5
2B4
330
1F
100
AcDbEntity
  8
D-4
  6
Continuous
 62
     7
370
     9
100
AcDbLine
 10
-748.9108759687872
 20
-220.1937584566507
 30
0.0
 11
-682.910875968787
 21
-220.1937584566507
 31
0.0
  0
LINE
  5
2B5
330
1F
100
AcDbEntity
  8
D-4
  6
Continuous
 62
     7
370
     9
100
AcDbLine
 10
-440.0456411570372
 20
-220.1937383361995
 30
0.0
 11
-440.0456411570372
 21
-292.414083234379
 31
0.0
  0
LWPOLYLINE
  5
2B6
330
1F
100
AcDbEntity
  8
D-4
  6
Continuous
 62
     7
370
     9
100
AcDbPolyline
 90
        4
 70
     1
 43
1.0
 10
-439.5456411570373
 20
-220.1937383361995
 42
0.4142135623731
 10
-440.0456411570372
 20
-219.6937383361995
 42
0.4142135623731
 10
-440.5456411570372
 20
-220.1937383361995
 42
0.4142135623731
 10
-440.0456411570372
 20
-220.6937383361995
 42
0.4142135623731
  0
LWPOLYLINE
  5
2B7
330
1F
100
AcDbEntity
  8
D-4
  6
Continuous
 62
     7
370
     9
100
AcDbPolyline
 90
        4
 70
     1
 43
1.0
 10
-439.5456411570373
 20
-292.414083234379
 42
0.4142135623731
 10
-440.0456411570372
 20
-291.9140832343789
 42
0.4142135623731
 10
-440.5456411570372
 20
-292.414083234379
 42
0.4142135623731
 10
-440.0456411570372
 20
-292.914083234379
 42
0.4142135623731
  0
LINE
  5
2B8
330
1F
100
AcDbEntity
  8
D-4
  6
Continuous
 62
     7
370
     9
100
AcDbLine
 10
-439.0456411570372
 20
-220.1937383361995
 30
0.0
 11
-532.7957318849722
 21
-220.1937383361995
 31
0.0
  0
LINE
  5
2B9
330
1F
100
AcDbEntity
  8
D-4
  6
Continuous
 62
     7
370
     9
100
AcDbLine
 10
-439.0456411570372
 20
-292.414083234379
 30
0.0
 11
-467.5456411570372
 21
-292.414083234379
 31
0.0
  0
LINE
  5
2BA
330
1F
100
AcDbEntity
  8
D-5
  6
Continuous
 62
     7
370
     9
100
AcDbLine
 10
-534.9286159640506
 20
-288.4140832343788
 30
0.0
 11
-529.7050802695844
 21
-277.0578217523312
 31
0.0
  0
LINE
  5
2BB
330
1F
100
AcDbEntity
  8
D-5
  6
Continuous
 62
     7
370
     9
100
AcDbLine
 10
-534.9286159640506
 20
-288.4140832343788
 30
0.0
 11
-526.943851179505
 21
-278.7967274992778
 31
0.0
  0
TEXT
  5
2BC
330
1F
100
AcDbEntity
  8
D-5
  6
Continuous
 62
     7
370
     9
100
AcDbText
 10
-460.1869508242704
 20
-170.3057037191121
 30
0.0
 40
11.43
  1
アンカー（ＳＧＨＣ）
 41
1.15
  7
ＭＳ ゴシック
100
AcDbText
  0
LINE
  5
2BD
330
1F
100
AcDbEntity
  8
D-5
  6
Continuous
 62
     7
370
     9
100
AcDbLine
 10
-534.9286159640506
 20
-288.4140832343788
 30
0.0
 11
-463.5468208210823
 21
-175.0660828629043
 31
0.0
  0
LINE
  5
2BE
330
1F
100
AcDbEntity
  8
D-5
  6
Continuous
 62
     7
370
     9
100
AcDbLine
 10
-463.5468208210823
 20
-175.0660828629043
 30
0.0
 11
-292.7035705323574
 21
-175.0660828629043
 31
0.0
  0
LINE
  5
2BF
330
1F
100
AcDbEntity
  8
D-5
  6
Continuous
 62
     7
370
     9
100
AcDbLine
 10
-337.8853443002248
 20
-347.8159980475557
 30
0.0
 11
-305.7225973437954
 21
-394.7207806713311
 31
0.0
  0
LINE
  5
2C0
330
1F
100
AcDbEntity
  8
D-5
  6
Continuous
 62
     7
370
     9
100
AcDbLine
 10
-337.8853443002248
 20
-347.8159980475557
 30
0.0
 11
-333.2735286903062
 21
-356.8912458317641
 31
0.0
  0
LINE
  5
2C1
330
1F
100
AcDbEntity
  8
D-5
  6
Continuous
 62
     7
370
     9
100
AcDbLine
 10
-337.8853443002248
 20
-347.8159980475557
 30
0.0
 11
-331.161270436387
 21
-355.2999655047785
 31
0.0
  0
TEXT
  5
2C2
330
1F
100
AcDbEntity
  8
D-5
  6
Continuous
 62
     7
370
     9
100
AcDbText
 10
-301.5532909576085
 20
-388.6555463626112
 30
0.0
 40
11.43
  1
φ13
 41
1.125
  7
ＭＳ ゴシック
100
AcDbText
  0
LINE
  5
2C3
330
1F
100
AcDbEntity
  8
D-1
  6
JWW_CENTER1
 62
     2
370
     9
100
AcDbLine
 10
-347.0750765781725
 20
-216.7203022451229
 30
0.0
 11
-347.0750765781725
 21
-364.503578038162
 31
0.0
  0
LINE
  5
2C4
330
1F
100
AcDbEntity
  8
D-1
  6
Continuous
 62
     2
370
     9
100
AcDbLine
 10
-372.0750765781725
 20
-295.664083234379
 30
0.0
 11
-372.0750765781725
 21
-355.0390832343789
 31
0.0
  0
LINE
  5
2C5
330
1F
100
AcDbEntity
  8
D-1
  6
Continuous
 62
     2
370
     9
100
AcDbLine
 10
-322.0750765781722
 20
-295.664083234379
 30
0.0
 11
-322.0750765781722
 21
-355.0390832343789
 31
0.0
  0
LINE
  5
2C6
330
1F
100
AcDbEntity
  8
D-1
  6
Continuous
 62
     2
370
     9
100
AcDbLine
 10
-556.5454898051084
 20
-306.4438494791569
 30
0.0
 11
-556.5454898051084
 21
-360.1937837161325
 31
0.0
  0
LINE
  5
2C7
330
1F
100
AcDbEntity
  8
D-1
  6
Continuous
 62
     2
370
     9
100
AcDbLine
 10
-556.5454898051084
 20
-360.1937837161325
 30
0.0
 11
-552.5456411570372
 21
-360.1937837161325
 31
0.0
  0
LINE
  5
2C8
330
1F
100
AcDbEntity
  8
D-1
  6
Continuous
 62
     2
370
     9
100
AcDbLine
 10
-552.5456411570372
 20
-360.1937837161325
 30
0.0
 11
-552.5456411570372
 21
-222.6937837161326
 31
0.0
  0
LINE
  5
2C9
330
1F
100
AcDbEntity
  8
D-1
  6
JWW_PHANTOM1
 62
     2
370
     9
100
AcDbLine
 10
-548.5456411570372
 20
-292.414083234379
 30
0.0
 11
-477.5456411570372
 21
-292.414083234379
 31
0.0
  0
LINE
  5
2CA
330
1F
100
AcDbEntity
  8
D-1
  6
JWW_PHANTOM1
 62
     2
370
     9
100
AcDbLine
 10
-548.5456411570372
 20
-288.4140832343789
 30
0.0
 11
-477.5456411570372
 21
-288.4140832343789
 31
0.0
  0
LINE
  5
2CB
330
1F
100
AcDbEntity
  8
D-1
  6
JWW_PHANTOM1
 62
     2
370
     9
100
AcDbLine
 10
-477.5456411570372
 20
-292.414083234379
 30
0.0
 11
-477.5456411570372
 21
-288.4140832343789
 31
0.0
  0
ARC
  5
2CC
330
1F
100
AcDbEntity
  8
D-1
  6
JWW_DASHED2
 62
     2
370
     9
100
AcDbCircle
 10
-327.0750765781725
 20
-227.0687837161327
 30
0.0
 40
5.0
100
AcDbArc
 50
0.0000000000000254
 51
61.04497562814005
  0
CIRCLE
  5
2CD
330
1F
100
AcDbEntity
  8
D-1
  6
Continuous
 62
     2
370
     9
100
AcDbCircle
 10
-359.575117818143
 20
-265.1938249561034
 30
0.0
 40
2.500000032218727
  0
CIRCLE
  5
2CE
330
1F
100
AcDbEntity
  8
D-1
  6
Continuous
 62
     2
370
     9
100
AcDbCircle
 10
-359.575117818143
 20
-265.1938249561034
 30
0.0
 40
3.125000161093634
  0
CIRCLE
  5
2CF
330
1F
100
AcDbEntity
  8
D-1
  6
Continuous
 62
     2
370
     9
100
AcDbCircle
 10
-347.0750765781725
 20
-252.6937837161327
 30
0.0
 40
2.500000032218727
  0
CIRCLE
  5
2D0
330
1F
100
AcDbEntity
  8
D-1
  6
Continuous
 62
     2
370
     9
100
AcDbCircle
 10
-347.0750765781725
 20
-252.6937837161327
 30
0.0
 40
3.125000161093634
  0
CIRCLE
  5
2D1
330
1F
100
AcDbEntity
  8
D-1
  6
Continuous
 62
     2
370
     9
100
AcDbCircle
 10
-334.5750971981577
 20
-265.1938249561034
 30
0.0
 40
2.500000032218727
  0
CIRCLE
  5
2D2
330
1F
100
AcDbEntity
  8
D-1
  6
Continuous
 62
     2
370
     9
100
AcDbCircle
 10
-334.5750971981577
 20
-265.1938249561034
 30
0.0
 40
3.125000161093634
  0
LINE
  5
2D3
330
1F
100
AcDbEntity
  8
D-1
  6
Continuous
 62
     2
370
     9
100
AcDbLine
 10
-359.5750765781722
 20
-284.414083234379
 30
0.0
 11
-334.5750765781725
 21
-284.414083234379
 31
0.0
  0
ARC
  5
2D4
330
1F
100
AcDbEntity
  8
D-1
  6
Continuous
 62
     2
370
     9
100
AcDbCircle
 10
-367.0750765781725
 20
-355.0390832343789
 30
0.0
 40
5.0
100
AcDbArc
 50
180.0
 51
241.04497562814
  0
LINE
  5
2D5
330
1F
100
AcDbEntity
  8
D-1
  6
Continuous
 62
     2
370
     9
100
AcDbLine
 10
-369.4956911695522
 20
-359.4140832343789
 30
0.0
 11
-324.654461986793
 21
-359.4140832343789
 31
0.0
  0
ARC
  5
2D6
330
1F
100
AcDbEntity
  8
D-1
  6
Continuous
 62
     2
370
     9
100
AcDbCircle
 10
-327.0750765781725
 20
-355.0390832343789
 30
0.0
 40
5.0
100
AcDbArc
 50
298.95502437186
 51
0.0
  0
LINE
  5
2D7
330
1F
100
AcDbEntity
  8
D-1
  6
JWW_DASHED2
 62
     2
370
     9
100
AcDbLine
 10
-372.0750765781725
 20
-227.0687837161327
 30
0.0
 11
-372.0750765781725
 21
-232.6938191383215
 31
0.0
  0
ARC
  5
2D8
330
1F
100
AcDbEntity
  8
D-1
  6
JWW_DASHED2
 62
     2
370
     9
100
AcDbCircle
 10
-367.0750765781725
 20
-227.0687837161327
 30
0.0
 40
5.0
100
AcDbArc
 50
118.95502437186
 51
180.0
  0
LINE
  5
2D9
330
1F
100
AcDbEntity
  8
D-1
  6
JWW_DASHED2
 62
     2
370
     9
100
AcDbLine
 10
-369.4956911695522
 20
-222.6937837161327
 30
0.0
 11
-324.654461986793
 21
-222.6937837161327
 31
0.0
  0
LINE
  5
2DA
330
1F
100
AcDbEntity
  8
D-1
  6
JWW_DASHED2
 62
     2
370
     9
100
AcDbLine
 10
-322.0750765781722
 20
-227.0687837161327
 30
0.0
 11
-322.0750765781722
 21
-232.6938191383215
 31
0.0
  0
LINE
  5
2DB
330
1F
100
AcDbEntity
  8
D-1
  6
Continuous
 62
     2
370
     9
100
AcDbLine
 10
-372.0750765781725
 20
-273.164083234379
 30
0.0
 11
-372.0750765781725
 21
-232.6938191383215
 31
0.0
  0
ARC
  5
2DC
330
1F
100
AcDbEntity
  8
D-1
  6
Continuous
 62
     2
370
     9
100
AcDbCircle
 10
-367.0750765781725
 20
-273.164083234379
 30
0.0
 40
5.0
100
AcDbArc
 50
180.0
 51
270.0
  0
ARC
  5
2DD
330
1F
100
AcDbEntity
  8
D-1
  6
Continuous
 62
     2
370
     9
100
AcDbCircle
 10
-367.0750765781725
 20
-295.664083234379
 30
0.0
 40
5.0
100
AcDbArc
 50
90.0
 51
180.0
  0
LINE
  5
2DE
330
1F
100
AcDbEntity
  8
D-1
  6
Continuous
 62
     2
370
     9
100
AcDbLine
 10
-322.0750765781722
 20
-273.164083234379
 30
0.0
 11
-322.0750765781722
 21
-232.6938191383215
 31
0.0
  0
ARC
  5
2DF
330
1F
100
AcDbEntity
  8
D-1
  6
Continuous
 62
     2
370
     9
100
AcDbCircle
 10
-327.0750765781722
 20
-273.164083234379
 30
0.0
 40
5.0
100
AcDbArc
 50
270.0
 51
0.0
  0
ARC
  5
2E0
330
1F
100
AcDbEntity
  8
D-1
  6
Continuous
 62
     2
370
     9
100
AcDbCircle
 10
-327.0750765781722
 20
-295.664083234379
 30
0.0
 40
5.0
100
AcDbArc
 50
0.0
 51
90.0
  0
LINE
  5
2E1
330
1F
100
AcDbEntity
  8
D-1
  6
Continuous
 62
     2
370
     9
100
AcDbLine
 10
-362.0750765781722
 20
-278.164083234379
 30
0.0
 11
-367.0750765781725
 21
-278.164083234379
 31
0.0
  0
ARC
  5
2E2
330
1F
100
AcDbEntity
  8
D-1
  6
Continuous
 62
     2
370
     9
100
AcDbCircle
 10
-362.0750765781722
 20
-280.664083234379
 30
0.0
 40
2.5
100
AcDbArc
 50
0.0
 51
90.00000000000001
  0
LINE
  5
2E3
330
1F
100
AcDbEntity
  8
D-1
  6
Continuous
 62
     2
370
     9
100
AcDbLine
 10
-359.5750765781722
 20
-288.164083234379
 30
0.0
 11
-359.5750765781722
 21
-280.664083234379
 31
0.0
  0
LINE
  5
2E4
330
1F
100
AcDbEntity
  8
D-1
  6
Continuous
 62
     2
370
     9
100
AcDbLine
 10
-362.0750765781722
 20
-290.664083234379
 30
0.0
 11
-367.0750765781725
 21
-290.664083234379
 31
0.0
  0
ARC
  5
2E5
330
1F
100
AcDbEntity
  8
D-1
  6
Continuous
 62
     2
370
     9
100
AcDbCircle
 10
-362.0750765781722
 20
-288.164083234379
 30
0.0
 40
2.5
100
AcDbArc
 50
270.0
 51
0.0
  0
LINE
  5
2E6
330
1F
100
AcDbEntity
  8
D-1
  6
Continuous
 62
     2
370
     9
100
AcDbLine
 10
-332.0750765781725
 20
-290.664083234379
 30
0.0
 11
-327.0750765781722
 21
-290.664083234379
 31
0.0
  0
ARC
  5
2E7
330
1F
100
AcDbEntity
  8
D-1
  6
Continuous
 62
     2
370
     9
100
AcDbCircle
 10
-332.0750765781725
 20
-288.164083234379
 30
0.0
 40
2.5
100
AcDbArc
 50
180.0
 51
270.0
  0
LINE
  5
2E8
330
1F
100
AcDbEntity
  8
D-1
  6
Continuous
 62
     2
370
     9
100
AcDbLine
 10
-334.5750765781725
 20
-280.664083234379
 30
0.0
 11
-334.5750765781725
 21
-288.164083234379
 31
0.0
  0
LINE
  5
2E9
330
1F
100
AcDbEntity
  8
D-1
  6
Continuous
 62
     2
370
     9
100
AcDbLine
 10
-332.0750765781725
 20
-278.164083234379
 30
0.0
 11
-327.0750765781722
 21
-278.164083234379
 31
0.0
  0
ARC
  5
2EA
330
1F
100
AcDbEntity
  8
D-1
  6
Continuous
 62
     2
370
     9
100
AcDbCircle
 10
-332.0750765781725
 20
-280.664083234379
 30
0.0
 40
2.5
100
AcDbArc
 50
90.0
 51
180.0
  0
CIRCLE
  5
2EB
330
1F
100
AcDbEntity
  8
D-1
  6
Continuous
 62
     2
370
     9
100
AcDbCircle
 10
-347.0750765781725
 20
-334.4140832343789
 30
0.0
 40
16.25
  0
LINE
  5
2EC
330
1F
100
AcDbEntity
  8
D-1
  6
JWW_CENTER1
 62
     2
370
     9
100
AcDbLine
 10
-368.2494872624989
 20
-334.4140832343789
 30
0.0
 11
-325.8791953267806
 21
-334.4140832343789
 31
0.0
  0
LINE
  5
2ED
330
1F
100
AcDbEntity
  8
D-1
  6
Continuous
 62
     2
370
     9
100
AcDbLine
 10
-590.3152039032761
 20
-307.6936980695511
 30
0.0
 11
-557.795489747431
 21
-307.6936980695511
 31
0.0
  0
ARC
  5
2EE
330
1F
100
AcDbEntity
  8
D-1
  6
Continuous
 62
     2
370
     9
100
AcDbCircle
 10
-590.2957525049569
 20
-306.4438494791569
 30
0.0
 40
1.249999942322725
100
AcDbArc
 50
180.0
 51
270.0
  0
ARC
  5
2EF
330
1F
100
AcDbEntity
  8
D-1
  6
Continuous
 62
     2
370
     9
100
AcDbCircle
 10
-557.795489747431
 20
-306.4438494791569
 30
0.0
 40
1.249999942322725
100
AcDbArc
 50
270.0
 51
0.0
  0
ARC
  5
2F0
330
1F
100
AcDbEntity
  8
D-1
  6
Continuous
 62
     2
370
     9
100
AcDbCircle
 10
-575.2954697165885
 20
-291.9438210824916
 30
0.0
 40
13.74997488780371
100
AcDbArc
 50
161.9955596923828
 51
180.0
  0
ARC
  5
2F1
330
1F
100
AcDbEntity
  8
D-1
  6
Continuous
 62
     2
370
     9
100
AcDbCircle
 10
-575.2954697165885
 20
-291.9438210824916
 30
0.0
 40
13.74997488780371
100
AcDbArc
 50
0.0
 51
18.00444030761719
  0
LINE
  5
2F2
330
1F
100
AcDbEntity
  8
D-1
  6
Continuous
 62
     2
370
     9
100
AcDbLine
 10
-591.5456010953515
 20
-306.4438494791569
 30
0.0
 11
-591.5456010953515
 21
-295.1937686193579
 31
0.0
  0
LINE
  5
2F3
330
1F
100
AcDbEntity
  8
D-1
  6
Continuous
 62
     2
370
     9
100
AcDbLine
 10
-556.5456411570372
 20
-306.4438494791569
 30
0.0
 11
-556.5456411570372
 21
-222.6937837161326
 31
0.0
  0
LINE
  5
2F4
330
1F
100
AcDbEntity
  8
D-1
  6
Continuous
 62
     2
370
     9
100
AcDbLine
 10
-559.0453383378256
 20
-221.4437382785222
 30
0.0
 11
-559.0453383378256
 21
-305.1937384258081
 31
0.0
  0
LINE
  5
2F5
330
1F
100
AcDbEntity
  8
D-1
  6
Continuous
 62
     2
370
     9
100
AcDbLine
 10
-589.0453789886535
 20
-305.1937384258081
 30
0.0
 11
-559.0453383378256
 21
-305.1937384258081
 31
0.0
  0
LINE
  5
2F6
330
1F
100
AcDbEntity
  8
D-1
  6
Continuous
 62
     2
370
     9
100
AcDbLine
 10
-589.0453789886535
 20
-295.1937686193579
 30
0.0
 11
-589.0453789886535
 21
-305.1937384258081
 31
0.0
  0
LINE
  5
2F7
330
1F
100
AcDbEntity
  8
D-1
  6
Continuous
 62
     2
370
     9
100
AcDbLine
 10
-591.5456010953515
 20
-295.1937686193579
 30
0.0
 11
-589.0453789886535
 21
-295.1937686193579
 31
0.0
  0
LINE
  5
2F8
330
1F
100
AcDbEntity
  8
D-1
  6
Continuous
 62
     2
370
     9
100
AcDbLine
 10
-575.1862851274236
 20
-303.1937707108133
 30
0.0
 11
-561.7245601796449
 21
-289.7317833000803
 31
0.0
  0
LINE
  5
2F9
330
1F
100
AcDbEntity
  8
D-1
  6
Continuous
 62
     2
370
     9
100
AcDbLine
 10
-589.0406546554684
 20
-291.5921207231618
 30
0.0
 11
-585.1425548519123
 21
-287.6937584566507
 31
0.0
  0
LINE
  5
2FA
330
1F
100
AcDbEntity
  8
D-1
  6
Continuous
 62
     2
370
     9
100
AcDbLine
 10
-589.0453789886535
 20
-294.7788146879396
 30
0.0
 11
-581.9604539888422
 21
-287.6937584566507
 31
0.0
  0
LINE
  5
2FB
330
1F
100
AcDbEntity
  8
D-1
  6
Continuous
 62
     2
370
     9
100
AcDbLine
 10
-589.0453789886535
 20
-297.9607843195324
 30
0.0
 11
-578.7783531257719
 21
-287.6937584566507
 31
0.0
  0
LINE
  5
2FC
330
1F
100
AcDbEntity
  8
D-1
  6
Continuous
 62
     2
370
     9
100
AcDbLine
 10
-589.0453789886535
 20
-301.142753951125
 30
0.0
 11
-575.5962522627019
 21
-287.6937584566507
 31
0.0
  0
LINE
  5
2FD
330
1F
100
AcDbEntity
  8
D-1
  6
Continuous
 62
     2
370
     9
100
AcDbLine
 10
-587.9141636537943
 20
-303.1937707108133
 30
0.0
 11
-572.4141513996315
 21
-287.6937584566507
 31
0.0
  0
LINE
  5
2FE
330
1F
100
AcDbEntity
  8
D-1
  6
Continuous
 62
     2
370
     9
100
AcDbLine
 10
-584.7325877166336
 20
-303.1937707108133
 30
0.0
 11
-569.232575462471
 21
-287.6937584566507
 31
0.0
  0
LINE
  5
2FF
330
1F
100
AcDbEntity
  8
D-1
  6
Continuous
 62
     2
370
     9
100
AcDbLine
 10
-581.5504868535638
 20
-303.1937707108133
 30
0.0
 11
-566.050474599401
 21
-287.6937584566507
 31
0.0
  0
LINE
  5
300
330
1F
100
AcDbEntity
  8
D-1
  6
Continuous
 62
     2
370
     9
100
AcDbLine
 10
-578.3683859904934
 20
-303.1937707108133
 30
0.0
 11
-562.8683737363306
 21
-287.6937584566507
 31
0.0
  0
LINE
  5
301
330
1F
100
AcDbEntity
  8
D-1
  6
Continuous
 62
     2
370
     9
100
AcDbLine
 10
-572.0047091902629
 20
-303.1937707108133
 30
0.0
 11
-561.5450355186141
 21
-292.7343595021194
 31
0.0
  0
LINE
  5
302
330
1F
100
AcDbEntity
  8
D-1
  6
Continuous
 62
     2
370
     9
100
AcDbLine
 10
-568.8226083271925
 20
-303.1937707108133
 30
0.0
 11
-561.5450355186141
 21
-295.9164603651896
 31
0.0
  0
LINE
  5
303
330
1F
100
AcDbEntity
  8
D-1
  6
Continuous
 62
     2
370
     9
100
AcDbLine
 10
-565.6405074641227
 20
-303.1937707108133
 30
0.0
 11
-561.5450355186141
 21
-299.0982987653048
 31
0.0
  0
LINE
  5
304
330
1F
100
AcDbEntity
  8
D-1
  6
Continuous
 62
     2
370
     9
100
AcDbLine
 10
-562.4584066010525
 20
-303.1937707108133
 30
0.0
 11
-561.5450355186141
 21
-302.280399628375
 31
0.0
  0
LINE
  5
305
330
1F
100
AcDbEntity
  8
D-1
  6
Continuous
 62
     2
370
     9
100
AcDbLine
 10
-589.0453789886535
 20
-295.1937686193579
 30
0.0
 11
-589.0453789886535
 21
-291.9438210824916
 31
0.0
  0
LINE
  5
306
330
1F
100
AcDbEntity
  8
D-1
  6
Continuous
 62
     2
370
     9
100
AcDbLine
 10
-582.170424352621
 20
-303.1937707108133
 30
0.0
 11
-582.170424352621
 21
-305.1937384258081
 31
0.0
  0
LINE
  5
307
330
1F
100
AcDbEntity
  8
D-1
  6
Continuous
 62
     2
370
     9
100
AcDbLine
 10
-568.4205150805556
 20
-303.1937707108133
 30
0.0
 11
-568.4205150805556
 21
-305.1937384258081
 31
0.0
  0
LINE
  5
308
330
1F
100
AcDbEntity
  8
D-1
  6
Continuous
 62
     2
370
     9
100
AcDbLine
 10
-589.0453789886535
 20
-303.1937707108133
 30
0.0
 11
-561.5455604445233
 21
-303.1937707108133
 31
0.0
  0
LINE
  5
309
330
1F
100
AcDbEntity
  8
D-1
  6
Continuous
 62
     2
370
     9
100
AcDbLine
 10
-561.5455604445233
 20
-303.1937707108133
 30
0.0
 11
-561.5455604445233
 21
-291.9438210824916
 31
0.0
  0
LINE
  5
30A
330
1F
100
AcDbEntity
  8
D-1
  6
Continuous
 62
     2
370
     9
100
AcDbLine
 10
-556.5456411570372
 20
-222.6937837161326
 30
0.0
 11
-544.0455804753665
 21
-222.6937837161326
 31
0.0
  0
LINE
  5
30B
330
1F
100
AcDbEntity
  8
D-1
  6
Continuous
 62
     2
370
     9
100
AcDbLine
 10
-544.0455804753665
 20
-222.6937837161326
 30
0.0
 11
-544.0455804753665
 21
-232.6938191383215
 31
0.0
  0
LINE
  5
30C
330
1F
100
AcDbEntity
  8
D-1
  6
Continuous
 62
     2
370
     9
100
AcDbLine
 10
-544.0455804753665
 20
-232.6938191383215
 30
0.0
 11
-541.5453583686681
 21
-232.6938191383215
 31
0.0
  0
LINE
  5
30D
330
1F
100
AcDbEntity
  8
D-1
  6
Continuous
 62
     2
370
     9
100
AcDbLine
 10
-541.5453583686681
 20
-221.4437382785222
 30
0.0
 11
-541.5453583686681
 21
-232.6938191383215
 31
0.0
  0
LINE
  5
30E
330
1F
100
AcDbEntity
  8
D-1
  6
Continuous
 62
     2
370
     9
100
AcDbLine
 10
-557.795489747431
 20
-220.1937584566507
 30
0.0
 11
-542.7957318849722
 21
-220.1937584566507
 31
0.0
  0
ARC
  5
30F
330
1F
100
AcDbEntity
  8
D-1
  6
Continuous
 62
     2
370
     9
100
AcDbCircle
 10
-542.7957318849722
 20
-221.4437382785222
 30
0.0
 40
1.249999942322725
100
AcDbArc
 50
0.0
 51
90.0
  0
ARC
  5
310
330
1F
100
AcDbEntity
  8
D-1
  6
Continuous
 62
     2
370
     9
100
AcDbCircle
 10
-557.795489747431
 20
-221.4437382785222
 30
0.0
 40
1.249999942322725
100
AcDbArc
 50
90.0
 51
180.0
  0
LINE
  5
311
330
1F
100
AcDbEntity
  8
D-1
  6
Continuous
 62
     2
370
     9
100
AcDbLine
 10
-556.5456411570372
 20
-290.664083234379
 30
0.0
 11
-552.5456411570372
 21
-290.664083234379
 31
0.0
  0
LINE
  5
312
330
1F
100
AcDbEntity
  8
D-1
  6
Continuous
 62
     2
370
     9
100
AcDbLine
 10
-556.5456411570372
 20
-278.1640832343789
 30
0.0
 11
-552.5456411570372
 21
-278.1640832343789
 31
0.0
  0
ARC
  5
313
330
1F
100
AcDbEntity
  8
D-1
  6
JWW_PHANTOM1
 62
     2
370
     9
100
AcDbCircle
 10
-548.5456411570372
 20
-284.414083234379
 30
0.0
 40
8.0
100
AcDbArc
 50
180.0
 51
270.0
  0
ARC
  5
314
330
1F
100
AcDbEntity
  8
D-1
  6
JWW_PHANTOM1
 62
     2
370
     9
100
AcDbCircle
 10
-548.5456411570372
 20
-284.414083234379
 30
0.0
 40
4.0
100
AcDbArc
 50
180.0
 51
270.0
  0
LINE
  5
315
330
1F
100
AcDbEntity
  8
D-1
  6
Continuous
 62
     2
370
     9
100
AcDbLine
 10
-322.0750765781722
 20
-307.6938494214798
 30
0.0
 11
-287.957835613199
 21
-307.6938494214798
 31
0.0
  0
LINE
  5
316
330
1F
100
AcDbEntity
  8
D-1
  6
Continuous
 62
     2
370
     9
100
AcDbLine
 10
-406.1923175431457
 20
-307.6938494214798
 30
0.0
 11
-372.0750765781725
 21
-307.6938494214798
 31
0.0
  0
LINE
  5
317
330
1F
100
AcDbEntity
  8
D-1
  6
Continuous
 62
     2
370
     9
100
AcDbLine
 10
-406.1923175431457
 20
-220.1937584566507
 30
0.0
 11
-287.957835613199
 21
-220.1937584566507
 31
0.0
  0
LINE
  5
318
330
1F
100
AcDbEntity
  8
D-1
  6
Continuous
 62
     2
370
     9
100
AcDbLine
 10
-406.1923175431457
 20
-232.6938191383215
 30
0.0
 11
-287.957835613199
 21
-232.6938191383215
 31
0.0
  0
LINE
  5
319
330
1F
100
AcDbEntity
  8
D-2
  6
Continuous
 62
     3
370
     9
100
AcDbLine
 10
-672.910875968787
 20
-287.6937584566507
 30
0.0
 11
-562.7954090349178
 21
-287.6937584566507
 31
0.0
  0
LINE
  5
31A
330
1F
100
AcDbEntity
  8
D-2
  6
Continuous
 62
     3
370
     9
100
AcDbLine
 10
-672.910875968787
 20
-285.1937584566509
 30
0.0
 11
-564.0452576253117
 21
-285.1937584566509
 31
0.0
  0
LINE
  5
31B
330
1F
100
AcDbEntity
  8
D-2
  6
Continuous
 62
     3
370
     9
100
AcDbLine
 10
-564.0452576253117
 20
-222.6937837161326
 30
0.0
 11
-564.0452576253117
 21
-285.1937584566509
 31
0.0
  0
ARC
  5
31C
330
1F
100
AcDbEntity
  8
D-2
  6
Continuous
 62
     3
370
     9
100
AcDbCircle
 10
-562.7954090349178
 20
-286.4437786347792
 30
0.0
 40
1.249999942322725
100
AcDbArc
 50
270.0
 51
0.0
  0
LINE
  5
31D
330
1F
100
AcDbEntity
  8
D-2
  6
Continuous
 62
     3
370
     9
100
AcDbLine
 10
-561.5455604445233
 20
-286.4437786347792
 30
0.0
 11
-561.5455604445233
 21
-221.4437382785222
 31
0.0
  0
LINE
  5
31E
330
1F
100
AcDbEntity
  8
D-2
  6
Continuous
 62
     3
370
     9
100
AcDbLine
 10
-564.0452576253117
 20
-222.6937837161326
 30
0.0
 11
-576.5453183069826
 21
-222.6937837161326
 31
0.0
  0
LINE
  5
31F
330
1F
100
AcDbEntity
  8
D-2
  6
Continuous
 62
     3
370
     9
100
AcDbLine
 10
-576.5453183069826
 20
-222.6937837161326
 30
0.0
 11
-576.5453183069826
 21
-232.6938191383215
 31
0.0
  0
LINE
  5
320
330
1F
100
AcDbEntity
  8
D-2
  6
Continuous
 62
     3
370
     9
100
AcDbLine
 10
-579.0455404136808
 20
-221.4437382785222
 30
0.0
 11
-579.0455404136808
 21
-232.6938191383215
 31
0.0
  0
ARC
  5
321
330
1F
100
AcDbEntity
  8
D-2
  6
Continuous
 62
     3
370
     9
100
AcDbCircle
 10
-577.7956918232862
 20
-221.4437382785222
 30
0.0
 40
1.249999942322725
100
AcDbArc
 50
90.0
 51
180.0
  0
ARC
  5
322
330
1F
100
AcDbEntity
  8
D-2
  6
Continuous
 62
     3
370
     9
100
AcDbCircle
 10
-562.7954090349178
 20
-221.4437382785222
 30
0.0
 40
1.249999942322725
100
AcDbArc
 50
0.0
 51
90.0
  0
LINE
  5
323
330
1F
100
AcDbEntity
  8
D-2
  6
Continuous
 62
     3
370
     9
100
AcDbLine
 10
-672.910875968787
 20
-220.1937584566507
 30
0.0
 11
-562.7954090349178
 21
-220.1937584566507
 31
0.0
  0
LINE
  5
324
330
1F
100
AcDbEntity
  8
D-2
  6
Continuous
 62
     3
370
     9
100
AcDbLine
 10
-576.5453183069826
 20
-232.6938191383215
 30
0.0
 11
-672.910875968787
 21
-232.6938191383215
 31
0.0
  0
TEXT
  5
325
330
1F
100
AcDbEntity
  8
D-5
  6
Continuous
 62
     2
370
     9
100
AcDbText
 10
-597.0240917491643
 20
-472.9151389360926
 30
0.0
 40
15.24
  1
アンカー詳細図　Ｓ＝１：２
 41
1.115384615384615
  7
ＭＳ ゴシック
100
AcDbText
  0
LINE
  5
326
330
1F
100
AcDbEntity
  8
D-5
  6
Continuous
 62
     7
370
     9
100
AcDbLine
 10
-603.448611837666
 20
-478.9532175493738
 30
0.0
 11
-308.4619478445982
 21
-478.9532175493738
 31
0.0
  0
TEXT
  5
327
330
1F
100
AcDbEntity
  8
D-4
  6
Continuous
 62
     2
370
   211
100
AcDbText
 10
78.71476892604242
 20
549.7656029758313
 30
0.0
 40
15.24
  1
□350
 41
1.1
  7
ＭＳ ゴシック
100
AcDbText
  0
TEXT
  5
328
330
1F
100
AcDbEntity
  8
D-4
  6
Continuous
 62
     2
370
   211
100
AcDbText
 10
78.71476892604242
 20
214.1146154743135
 30
0.0
 40
15.24
  1
□310
 41
1.1
  7
ＭＳ ゴシック
100
AcDbText
  0
LWPOLYLINE
  5
329
330
1F
100
AcDbEntity
  8
D-6
  6
Continuous
 62
     6
370
     9
100
AcDbPolyline
 90
        4
 70
     1
 43
1.0
 10
91.09181390947803
 20
365.2758767585053
 42
0.4142135623731
 10
90.59181390947802
 20
365.7758767585053
 42
0.4142135623731
 10
90.09181390947802
 20
365.2758767585053
 42
0.4142135623731
 10
90.59181390947802
 20
364.7758767585054
 42
0.4142135623731
  0
LWPOLYLINE
  5
32A
330
1F
100
AcDbEntity
  8
D-6
  6
Continuous
 62
     6
370
     9
100
AcDbPolyline
 90
        4
 70
     1
 43
1.0
 10
138.6267311432741
 20
366.0084687058441
 42
0.4142135623731
 10
138.1267311432741
 20
366.5084687058441
 42
0.4142135623731
 10
137.6267311432741
 20
366.0084687058441
 42
0.4142135623731
 10
138.1267311432741
 20
365.5084687058441
 42
0.4142135623731
  0
LWPOLYLINE
  5
32B
330
1F
100
AcDbEntity
  8
D-6
  6
Continuous
 62
     6
370
     9
100
AcDbPolyline
 90
        4
 70
     1
 43
1.0
 10
108.2544554117841
 20
383.6617885585801
 42
0.4142135623731
 10
107.7544554117841
 20
384.16178855858
 42
0.4142135623731
 10
107.2544554117841
 20
383.6617885585801
 42
0.4142135623731
 10
107.7544554117841
 20
383.1617885585802
 42
0.4142135623731
  0
LWPOLYLINE
  5
32C
330
1F
100
AcDbEntity
  8
D-6
  6
Continuous
 62
     6
370
     9
100
AcDbPolyline
 90
        4
 70
     1
 43
1.0
 10
270.4168079386374
 20
363.5948753696384
 42
0.4142135623731
 10
269.9168079386374
 20
364.0948753696384
 42
0.4142135623731
 10
269.4168079386374
 20
363.5948753696384
 42
0.4142135623731
 10
269.9168079386374
 20
363.0948753696384
 42
0.4142135623731
  0
LWPOLYLINE
  5
32D
330
1F
100
AcDbEntity
  8
D-6
  6
Continuous
 62
     6
370
     9
100
AcDbPolyline
 90
        4
 70
     1
 43
1.0
 10
214.012511407558
 20
385.8311845790062
 42
0.4142135623731
 10
213.512511407558
 20
386.3311845790062
 42
0.4142135623731
 10
213.012511407558
 20
385.8311845790062
 42
0.4142135623731
 10
213.512511407558
 20
385.3311845790062
 42
0.4142135623731
  0
LWPOLYLINE
  5
32E
330
1F
100
AcDbEntity
  8
D-6
  6
Continuous
 62
     6
370
     9
100
AcDbPolyline
 90
        4
 70
     1
 43
1.0
 10
183.0986181164857
 20
370.6454124360233
 42
0.4142135623731
 10
182.5986181164857
 20
371.1454124360233
 42
0.4142135623731
 10
182.0986181164857
 20
370.6454124360233
 42
0.4142135623731
 10
182.5986181164857
 20
370.1454124360233
 42
0.4142135623731
  0
LINE
  5
32F
330
1F
100
AcDbEntity
  8
D-5
  6
Continuous
 62
     7
370
     9
100
AcDbLine
 10
249.997328288498
 20
354.4454863994156
 30
0.0
 11
208.8401677099511
 21
283.1593725573019
 31
0.0
  0
LINE
  5
330
330
1F
100
AcDbEntity
  8
D-5
  6
Continuous
 62
     7
370
     9
100
AcDbLine
 10
103.0384255686397
 20
283.159372557302
 30
0.0
 11
208.8401677099511
 21
283.159372557302
 31
0.0
  0
TEXT
  5
331
330
1F
100
AcDbEntity
  8
D-5
  6
Continuous
 62
     7
370
     9
100
AcDbText
 10
103.3149103048862
 20
288.6522972960057
 30
0.0
 40
11.43
  1
モルタル止め
 41
1.138888888888889
  7
ＭＳ ゴシック
100
AcDbText
  0
TEXT
  5
332
330
1F
100
AcDbEntity
  8
D-5
  6
Continuous
 62
     7
370
     9
100
AcDbText
 10
104.6892966392954
 20
267.792501648307
 30
0.0
 40
11.43
  1
ＳＵＳ３０４
 41
1.138888888888889
  7
ＭＳ ゴシック
100
AcDbText
  0
LINE
  5
333
330
1F
100
AcDbEntity
  8
D-5
  6
Continuous
 62
     7
370
     9
100
AcDbLine
 10
249.997328288498
 20
354.4454863994156
 30
0.0
 11
242.3878114230001
 21
344.5285931878446
 31
0.0
  0
LINE
  5
334
330
1F
100
AcDbEntity
  8
D-5
  6
Continuous
 62
     7
370
     9
100
AcDbLine
 10
249.997328288498
 20
354.4454863994156
 30
0.0
 11
245.2138216373157
 21
342.8969749973885
 31
0.0
  0
LINE
  5
335
330
1F
100
AcDbEntity
  8
D-5
  6
Continuous
 62
     7
370
     9
100
AcDbLine
 10
583.1293408705235
 20
356.991010101441
 30
0.0
 11
573.6166029284768
 21
365.100129464599
 31
0.0
  0
LINE
  5
336
330
1F
100
AcDbEntity
  8
D-5
  6
Continuous
 62
     7
370
     9
100
AcDbLine
 10
583.1293408705235
 20
356.991010101441
 30
0.0
 11
576.0395361437761
 21
367.2858956732471
 31
0.0
  0
LINE
  5
337
330
1F
100
AcDbEntity
  8
D-5
  6
Continuous
 62
     7
370
     9
100
AcDbLine
 10
494.7993602225218
 20
454.905253249666
 30
0.0
 11
583.1293408705235
 21
356.991010101441
 31
0.0
  0
LINE
  5
338
330
1F
100
AcDbEntity
  8
D-4
  6
Continuous
 62
     7
370
     9
100
AcDbLine
 10
680.6291159077218
 20
207.7946154743134
 30
0.0
 11
680.6291159077218
 21
321.3766187688487
 31
0.0
  0
LWPOLYLINE
  5
339
330
1F
100
AcDbEntity
  8
D-6
  6
Continuous
 62
     6
370
     9
100
AcDbPolyline
 90
        4
 70
     1
 43
1.0
 10
660.5141919460707
 20
301.1767488616877
 42
0.4142135623731
 10
660.0141919460707
 20
301.6767488616877
 42
0.4142135623731
 10
659.5141919460707
 20
301.1767488616877
 42
0.4142135623731
 10
660.0141919460707
 20
300.6767488616877
 42
0.4142135623731
  0
LWPOLYLINE
  5
33A
330
1F
100
AcDbEntity
  8
D-6
  6
Continuous
 62
     6
370
     9
100
AcDbPolyline
 90
        4
 70
     1
 43
1.0
 10
85.9901952195625
 20
388.7197389966792
 42
0.4142135623731
 10
85.49019521956248
 20
389.2197389966791
 42
0.4142135623731
 10
84.99019521956248
 20
388.7197389966792
 42
0.4142135623731
 10
85.49019521956248
 20
388.2197389966792
 42
0.4142135623731
  0
LINE
  5
33B
330
1F
100
AcDbEntity
  8
D-6
  6
Continuous
 62
     6
370
     9
100
AcDbLine
 10
483.1286365507426
 20
399.4455369918785
 30
0.0
 11
245.6287190306838
 21
399.4455369918785
 31
0.0
  0
LINE
  5
33C
330
1F
100
AcDbEntity
  8
D-6
  6
JWW_DASHED3
 62
     6
370
     9
100
AcDbLine
 10
299.903159486765
 20
399.4455369918785
 30
0.0
 11
319.9032254707176
 21
419.4456029758312
 31
0.0
  0
LINE
  5
33D
330
1F
100
AcDbEntity
  8
D-6
  6
Continuous
 62
     6
370
     9
100
AcDbLine
 10
312.4033244466468
 20
399.4455369918785
 30
0.0
 11
332.4031429907765
 21
419.4456029758312
 31
0.0
  0
LINE
  5
33E
330
1F
100
AcDbEntity
  8
D-6
  6
JWW_DASHED3
 62
     6
370
     9
100
AcDbLine
 10
324.9032419667057
 20
399.4455369918785
 30
0.0
 11
344.9033079506582
 21
419.4456029758312
 31
0.0
  0
LINE
  5
33F
330
1F
100
AcDbEntity
  8
D-6
  6
JWW_DASHED3
 62
     6
370
     9
100
AcDbLine
 10
349.9033244466468
 20
399.4455369918785
 30
0.0
 11
369.9033904305994
 21
419.4456029758312
 31
0.0
  0
LINE
  5
340
330
1F
100
AcDbEntity
  8
D-6
  6
Continuous
 62
     6
370
     9
100
AcDbLine
 10
337.403159486765
 20
399.4455369918785
 30
0.0
 11
357.4032254707176
 21
419.4456029758312
 31
0.0
  0
LINE
  5
341
330
1F
100
AcDbEntity
  8
D-6
  6
Continuous
 62
     6
370
     9
100
AcDbLine
 10
362.4032419667057
 20
399.4455369918785
 30
0.0
 11
382.4033079506582
 21
419.4456029758312
 31
0.0
  0
LINE
  5
342
330
1F
100
AcDbEntity
  8
D-6
  6
JWW_DASHED3
 62
     6
370
     9
100
AcDbLine
 10
374.903159486765
 20
399.4455369918785
 30
0.0
 11
394.9032254707176
 21
419.4456029758312
 31
0.0
  0
LINE
  5
343
330
1F
100
AcDbEntity
  8
D-6
  6
Continuous
 62
     6
370
     9
100
AcDbLine
 10
462.4033244466463
 20
399.4455369918785
 30
0.0
 11
482.4031429907765
 21
419.4456029758312
 31
0.0
  0
LINE
  5
344
330
1F
100
AcDbEntity
  8
D-6
  6
JWW_DASHED3
 62
     6
370
     9
100
AcDbLine
 10
449.9034069265874
 20
399.4455369918785
 30
0.0
 11
469.90347291054
 21
419.4456029758312
 31
0.0
  0
LINE
  5
345
330
1F
100
AcDbEntity
  8
D-6
  6
Continuous
 62
     6
370
     9
100
AcDbLine
 10
437.4032419667057
 20
399.4455369918785
 30
0.0
 11
457.4033079506582
 21
419.4456029758312
 31
0.0
  0
LINE
  5
346
330
1F
100
AcDbEntity
  8
D-6
  6
Continuous
 62
     6
370
     9
100
AcDbLine
 10
412.403159486765
 20
399.4455369918785
 30
0.0
 11
432.40347291054
 21
419.4456029758312
 31
0.0
  0
LINE
  5
347
330
1F
100
AcDbEntity
  8
D-6
  6
JWW_DASHED3
 62
     6
370
     9
100
AcDbLine
 10
424.9033244466468
 20
399.4455369918785
 30
0.0
 11
444.9031429907765
 21
419.4456029758312
 31
0.0
  0
LINE
  5
348
330
1F
100
AcDbEntity
  8
D-6
  6
JWW_DASHED3
 62
     6
370
     9
100
AcDbLine
 10
399.9032419667057
 20
399.4455369918785
 30
0.0
 11
419.9033079506582
 21
419.4456029758312
 31
0.0
  0
LINE
  5
349
330
1F
100
AcDbEntity
  8
D-6
  6
Continuous
 62
     6
370
     9
100
AcDbLine
 10
387.4033244466468
 20
399.4455369918785
 30
0.0
 11
407.4033904305994
 21
419.4456029758312
 31
0.0
  0
LINE
  5
34A
330
1F
100
AcDbEntity
  8
D-6
  6
JWW_DASHED3
 62
     6
370
     9
100
AcDbLine
 10
274.9030770068239
 20
399.4455369918785
 30
0.0
 11
294.9031429907765
 21
419.4456029758312
 31
0.0
  0
LINE
  5
34B
330
1F
100
AcDbEntity
  8
D-6
  6
Continuous
 62
     6
370
     9
100
AcDbLine
 10
287.4032419667057
 20
399.4455369918785
 30
0.0
 11
307.4030605108359
 21
419.4456029758312
 31
0.0
  0
LINE
  5
34C
330
1F
100
AcDbEntity
  8
D-6
  6
JWW_DASHED3
 62
     6
370
     9
100
AcDbLine
 10
249.9029945268833
 20
399.4455369918785
 30
0.0
 11
269.9030605108359
 21
419.4456029758312
 31
0.0
  0
LINE
  5
34D
330
1F
100
AcDbEntity
  8
D-6
  6
Continuous
 62
     6
370
     9
100
AcDbLine
 10
262.403159486765
 20
399.4455369918785
 30
0.0
 11
282.4029780308947
 21
419.4456029758312
 31
0.0
  0
LINE
  5
34E
330
1F
100
AcDbEntity
  8
D-6
  6
Continuous
 62
     6
370
     9
100
AcDbLine
 10
245.6287190306838
 20
407.6711790157383
 30
0.0
 11
257.4028955509541
 21
419.4456029758312
 31
0.0
  0
LINE
  5
34F
330
1F
100
AcDbEntity
  8
D-6
  6
JWW_DASHED3
 62
     6
370
     9
100
AcDbLine
 10
474.9032419667057
 20
399.4455369918785
 30
0.0
 11
483.1286365507426
 21
407.6709315759156
 31
0.0
  0
LINE
  5
350
330
1F
100
AcDbEntity
  8
D-6
  6
Continuous
 62
     6
370
     9
100
AcDbLine
 10
245.6287190306838
 20
399.4455369918785
 30
0.0
 11
245.6287190306838
 21
419.4456029758312
 31
0.0
  0
LINE
  5
351
330
1F
100
AcDbEntity
  8
D-6
  6
Continuous
 62
     6
370
     9
100
AcDbLine
 10
483.1286365507426
 20
399.4455369918785
 30
0.0
 11
483.1286365507426
 21
419.4456029758312
 31
0.0
  0
LINE
  5
352
330
1F
100
AcDbEntity
  8
D-6
  6
Continuous
 62
     6
370
     9
100
AcDbLine
 10
659.3793206923945
 20
419.4456029758312
 30
0.0
 11
245.6287190306838
 21
419.4456029758312
 31
0.0
  0
LINE
  5
353
330
1F
100
AcDbEntity
  8
D-6
  6
JWW_DASHED3
 62
     6
370
     9
100
AcDbLine
 10
128.5715388361185
 20
399.4455369918785
 30
0.0
 11
148.5716048200711
 21
419.4456029758312
 31
0.0
  0
LINE
  5
354
330
1F
100
AcDbEntity
  8
D-6
  6
Continuous
 62
     6
370
     9
100
AcDbLine
 10
216.0717037959997
 20
399.4455369918785
 30
0.0
 11
236.0715223401299
 21
419.4456029758312
 31
0.0
  0
LINE
  5
355
330
1F
100
AcDbEntity
  8
D-6
  6
JWW_DASHED3
 62
     6
370
     9
100
AcDbLine
 10
203.5717862759409
 20
399.4455369918785
 30
0.0
 11
223.5718522598935
 21
419.4456029758312
 31
0.0
  0
LINE
  5
356
330
1F
100
AcDbEntity
  8
D-6
  6
Continuous
 62
     6
370
     9
100
AcDbLine
 10
191.0716213160591
 20
399.4455369918785
 30
0.0
 11
211.0716873000117
 21
419.4456029758312
 31
0.0
  0
LINE
  5
357
330
1F
100
AcDbEntity
  8
D-6
  6
Continuous
 62
     6
370
     9
100
AcDbLine
 10
166.0715388361185
 20
399.4455369918785
 30
0.0
 11
186.0718522598935
 21
419.4456029758312
 31
0.0
  0
LINE
  5
358
330
1F
100
AcDbEntity
  8
D-6
  6
JWW_DASHED3
 62
     6
370
     9
100
AcDbLine
 10
178.5717037960003
 20
399.4455369918785
 30
0.0
 11
198.5715223401299
 21
419.4456029758312
 31
0.0
  0
LINE
  5
359
330
1F
100
AcDbEntity
  8
D-6
  6
JWW_DASHED3
 62
     6
370
     9
100
AcDbLine
 10
153.5716213160591
 20
399.4455369918785
 30
0.0
 11
173.5716873000117
 21
419.4456029758312
 31
0.0
  0
LINE
  5
35A
330
1F
100
AcDbEntity
  8
D-6
  6
Continuous
 62
     6
370
     9
100
AcDbLine
 10
141.0717037960003
 20
399.4455369918785
 30
0.0
 11
161.0717697799529
 21
419.4456029758312
 31
0.0
  0
LINE
  5
35B
330
1F
100
AcDbEntity
  8
D-6
  6
JWW_DASHED3
 62
     6
370
     9
100
AcDbLine
 10
228.5716213160591
 20
399.4455369918785
 30
0.0
 11
236.7970159000961
 21
407.6709315759156
 31
0.0
  0
LINE
  5
35C
330
1F
100
AcDbEntity
  8
D-6
  6
Continuous
 62
     6
370
     9
100
AcDbLine
 10
236.7970159000961
 20
399.4455369918785
 30
0.0
 11
236.7970159000961
 21
419.4456029758312
 31
0.0
  0
LINE
  5
35D
330
1F
100
AcDbEntity
  8
D-6
  6
JWW_DASHED3
 62
     6
370
     9
100
AcDbLine
 10
103.5715388361185
 20
399.4455369918785
 30
0.0
 11
123.5716048200711
 21
419.4456029758312
 31
0.0
  0
LINE
  5
35E
330
1F
100
AcDbEntity
  8
D-6
  6
Continuous
 62
     6
370
     9
100
AcDbLine
 10
116.0717037960003
 20
399.4455369918785
 30
0.0
 11
136.0717697799529
 21
419.4456029758312
 31
0.0
  0
LINE
  5
35F
330
1F
100
AcDbEntity
  8
D-6
  6
JWW_DASHED3
 62
     6
370
     9
100
AcDbLine
 10
78.5715388361185
 20
399.4455369918785
 30
0.0
 11
98.5716048200711
 21
419.4456029758312
 31
0.0
  0
LINE
  5
360
330
1F
100
AcDbEntity
  8
D-6
  6
Continuous
 62
     6
370
     9
100
AcDbLine
 10
91.07170379600028
 20
399.4455369918785
 30
0.0
 11
111.0717697799529
 21
419.4456029758312
 31
0.0
  0
LWPOLYLINE
  5
361
330
1F
100
AcDbEntity
  8
D-4
  6
Continuous
 62
     7
370
     9
100
AcDbPolyline
 90
        4
 70
     1
 43
1.0
 10
470.4914629117651
 20
419.4456029758312
 42
0.4142135623731
 10
469.9914629117652
 20
419.9456029758312
 42
0.4142135623731
 10
469.4914629117652
 20
419.4456029758312
 42
0.4142135623731
 10
469.9914629117652
 20
418.9456029758313
 42
0.4142135623731
  0
LINE
  5
362
330
1F
100
AcDbEntity
  8
D-4
  6
Continuous
 62
     7
370
     9
100
AcDbLine
 10
468.9914629117649
 20
314.4454230506379
 30
0.0
 11
598.1293474983763
 21
314.4454230506379
 31
0.0
  0
LWPOLYLINE
  5
363
330
1F
100
AcDbEntity
  8
D-4
  6
Continuous
 62
     7
370
     9
100
AcDbPolyline
 90
        4
 70
     1
 43
1.0
 10
470.4914629117651
 20
314.4454230506379
 42
0.4142135623731
 10
469.9914629117652
 20
314.9454230506379
 42
0.4142135623731
 10
469.4914629117652
 20
314.4454230506379
 42
0.4142135623731
 10
469.9914629117652
 20
313.9454230506379
 42
0.4142135623731
  0
LINE
  5
364
330
1F
100
AcDbEntity
  8
D-4
  6
Continuous
 62
     7
370
     9
100
AcDbLine
 10
469.9914629117652
 20
419.4456029758312
 30
0.0
 11
469.9914629117652
 21
314.4454230506379
 31
0.0
  0
TEXT
  5
365
330
1F
100
AcDbEntity
  8
D-4
  6
Continuous
 62
     2
370
   211
100
AcDbText
 10
464.7089863901375
 20
360.6339836698996
 30
0.0
 40
15.24
  1
42
 50
90.0
 41
1.0625
  7
ＭＳ ゴシック
100
AcDbText
  0
LINE
  5
366
330
1F
100
AcDbEntity
  8
D-6
  6
JWW_DASHED3
 62
     6
370
     9
100
AcDbLine
 10
69.56298646598924
 20
415.4369846217494
 30
0.0
 11
73.5716048200711
 21
419.4456029758312
 31
0.0
  0
LINE
  5
367
330
1F
100
AcDbEntity
  8
D-6
  6
Continuous
 62
     6
370
     9
100
AcDbLine
 10
69.56298646598924
 20
402.9368196618674
 30
0.0
 11
86.07176977995287
 21
419.4456029758312
 31
0.0
  0
LINE
  5
368
330
1F
100
AcDbEntity
  8
D-6
  6
Continuous
 62
     6
370
     9
100
AcDbLine
 10
236.7970159000961
 20
399.4455369918785
 30
0.0
 11
69.56298646598924
 21
399.4455369918785
 31
0.0
  0
LINE
  5
369
330
1F
100
AcDbEntity
  8
D-6
  6
Continuous
 62
     6
370
     9
100
AcDbLine
 10
695.6292473441622
 20
416.9456230962824
 30
0.0
 11
708.1295696050736
 21
416.9456230962824
 31
0.0
  0
LINE
  5
36A
330
1F
100
AcDbEntity
  8
D-6
  6
Continuous
 62
     6
370
     9
100
AcDbLine
 10
708.1295696050736
 20
419.4456230962824
 30
0.0
 11
906.6359301016123
 21
419.4456230962824
 31
0.0
  0
LINE
  5
36B
330
1F
100
AcDbEntity
  8
D-6
  6
Continuous
 62
     6
370
     9
100
AcDbLine
 10
495.9638970355056
 20
416.9456029758312
 30
0.0
 11
483.1286365507426
 21
416.9456029758312
 31
0.0
  0
LINE
  5
36C
330
1F
100
AcDbEntity
  8
D-6
  6
Continuous
 62
     6
370
     9
100
AcDbLine
 10
245.6287190306838
 20
416.9456029758312
 30
0.0
 11
236.7970159000961
 21
416.9456029758312
 31
0.0
  0
LINE
  5
36D
330
1F
100
AcDbEntity
  8
D-6
  6
Continuous
 62
     6
370
     9
100
AcDbLine
 10
236.7970159000961
 20
419.4456029758312
 30
0.0
 11
69.56298646598924
 21
419.4456029758312
 31
0.0
  0
LINE
  5
36E
330
1F
100
AcDbEntity
  8
D-4
  6
Continuous
 62
     7
370
     9
100
AcDbLine
 10
845.1938433226826
 20
419.4456230962824
 30
0.0
 11
845.1938433226826
 21
331.9453874073769
 31
0.0
  0
TEXT
  5
36F
330
1F
100
AcDbEntity
  8
D-4
  6
Continuous
 62
     2
370
   211
100
AcDbText
 10
839.8738433226825
 20
365.0705052518296
 30
0.0
 40
15.24
  1
35
 50
90.0
 41
1.0625
  7
ＭＳ ゴシック
100
AcDbText
  0
LINE
  5
370
330
1F
100
AcDbEntity
  8
D-4
  6
Continuous
 62
     7
370
     9
100
AcDbLine
 10
-23.72012116338261
 20
419.4456029758312
 30
0.0
 11
-23.72012116338261
 21
354.4454863994155
 31
0.0
  0
TEXT
  5
371
330
1F
100
AcDbEntity
  8
D-4
  6
Continuous
 62
     2
370
   211
100
AcDbText
 10
-29.04012116338261
 20
376.3205446876233
 30
0.0
 40
15.24
  1
26
 50
90.0
 41
1.0625
  7
ＭＳ ゴシック
100
AcDbText
  0
LINE
  5
372
330
1F
100
AcDbEntity
  8
その他
  6
Continuous
 62
     7
370
     9
100
AcDbLine
 10
-189.3537730026171
 20
188.9090110325604
 30
0.0
 11
-189.3537730026171
 21
363.9090110325607
 31
0.0
  0
TEXT
  5
373
330
1F
100
AcDbEntity
  8
その他
  6
Continuous
 62
     2
370
   211
100
AcDbText
 10
-195.1737730026172
 20
260.1590110325606
 30
0.0
 40
15.24
  1
175
 50
90.0
 41
1.083333333333333
  7
ＭＳ ゴシック
100
AcDbText
  0
LINE
  5
374
330
1F
100
AcDbEntity
  8
その他
  6
Continuous
 62
     7
370
     9
100
AcDbLine
 10
-553.4900196477454
 20
22.44064284549722
 30
0.0
 11
-378.4900196477457
 21
22.44064284549722
 31
0.0
  0
TEXT
  5
375
330
1F
100
AcDbEntity
  8
その他
  6
Continuous
 62
     2
370
   211
100
AcDbText
 10
-482.2400196477456
 20
28.26064284549723
 30
0.0
 40
15.24
  1
175
 41
1.083333333333333
  7
ＭＳ ゴシック
100
AcDbText
  0
LINE
  5
376
330
1F
100
AcDbEntity
  8
その他
  6
Continuous
 62
     7
370
     9
100
AcDbLine
 10
-640.9900196477454
 20
22.44064284549722
 30
0.0
 11
-553.4900196477454
 21
22.44064284549722
 31
0.0
  0
TEXT
  5
377
330
1F
100
AcDbEntity
  8
その他
  6
Continuous
 62
     2
370
   211
100
AcDbText
 10
-619.1150196477454
 20
28.26064284549723
 30
0.0
 40
15.24
  1
87.5
 41
1.09375
  7
ＭＳ ゴシック
100
AcDbText
  0
LINE
  5
378
330
1F
100
AcDbEntity
  8
その他
  6
Continuous
 62
     7
370
     9
100
AcDbLine
 10
-378.4900196477457
 20
22.44064284549722
 30
0.0
 11
-290.9900196477457
 21
22.44064284549722
 31
0.0
  0
TEXT
  5
379
330
1F
100
AcDbEntity
  8
その他
  6
Continuous
 62
     2
370
   211
100
AcDbText
 10
-356.6150196477457
 20
28.26064284549723
 30
0.0
 40
15.24
  1
87.5
 41
1.09375
  7
ＭＳ ゴシック
100
AcDbText
  0
LINE
  5
37A
330
1F
100
AcDbEntity
  8
その他
  6
Continuous
 62
     7
370
     9
100
AcDbLine
 10
-189.3537730026171
 20
101.4090110325604
 30
0.0
 11
-189.3537730026171
 21
188.9090110325604
 31
0.0
  0
TEXT
  5
37B
330
1F
100
AcDbEntity
  8
その他
  6
Continuous
 62
     2
370
   211
100
AcDbText
 10
-195.1737730026172
 20
123.2840110325604
 30
0.0
 40
15.24
  1
87.5
 50
90.0
 41
1.09375
  7
ＭＳ ゴシック
100
AcDbText
  0
LINE
  5
37C
330
1F
100
AcDbEntity
  8
その他
  6
Continuous
 62
     7
370
     9
100
AcDbLine
 10
-189.3537730026171
 20
363.9090110325607
 30
0.0
 11
-189.3537730026171
 21
451.4090110325607
 31
0.0
  0
TEXT
  5
37D
330
1F
100
AcDbEntity
  8
その他
  6
Continuous
 62
     2
370
   211
100
AcDbText
 10
-195.1737730026172
 20
385.7840110325607
 30
0.0
 40
15.24
  1
87.5
 50
90.0
 41
1.09375
  7
ＭＳ ゴシック
100
AcDbText
  0
LINE
  5
37E
330
1F
100
AcDbEntity
  8
その他
  6
Continuous
 62
     7
370
     9
100
AcDbLine
 10
-640.9900477498397
 20
578.7833586320663
 30
0.0
 11
-290.9899696295531
 21
578.7833586320663
 31
0.0
  0
TEXT
  5
37F
330
1F
100
AcDbEntity
  8
その他
  6
Continuous
 62
     2
370
   211
100
AcDbText
 10
-482.2400086896964
 20
584.1033586320664
 30
0.0
 40
15.24
  1
350
 41
1.083333333333333
  7
ＭＳ ゴシック
100
AcDbText
  0
LINE
  5
380
330
1F
100
AcDbEntity
  8
その他
  6
Continuous
 62
     7
370
     9
100
AcDbLine
 10
-632.9899669194979
 20
538.7833586320662
 30
0.0
 11
-298.990050459895
 21
538.7833586320662
 31
0.0
  0
TEXT
  5
381
330
1F
100
AcDbEntity
  8
その他
  6
Continuous
 62
     2
370
   211
100
AcDbText
 10
-482.2400086896964
 20
544.1033586320664
 30
0.0
 40
15.24
  1
334
 41
1.083333333333333
  7
ＭＳ ゴシック
100
AcDbText
  0
LINE
  5
382
330
1F
100
AcDbEntity
  8
その他
  6
Continuous
 62
     7
370
     9
100
AcDbLine
 10
-620.9900031517575
 20
498.7833586320662
 30
0.0
 11
-310.9900667202265
 21
498.7833586320662
 31
0.0
  0
TEXT
  5
383
330
1F
100
AcDbEntity
  8
その他
  6
Continuous
 62
     2
370
   211
100
AcDbText
 10
-482.240034935992
 20
504.1033586320661
 30
0.0
 40
15.24
  1
310
 41
1.083333333333333
  7
ＭＳ ゴシック
100
AcDbText
  0
LINE
  5
384
330
1F
100
AcDbEntity
  8
その他
  6
Continuous
 62
     7
370
     9
100
AcDbLine
 10
-774.3530680696572
 20
451.4089841676652
 30
0.0
 11
-774.3530680696572
 21
101.4090110325604
 31
0.0
  0
TEXT
  5
385
330
1F
100
AcDbEntity
  8
その他
  6
Continuous
 62
     2
370
   211
100
AcDbText
 10
-779.6730680696572
 20
260.1589976001129
 30
0.0
 40
15.24
  1
350
 50
90.0
 41
1.083333333333333
  7
ＭＳ ゴシック
100
AcDbText
  0
LINE
  5
386
330
1F
100
AcDbEntity
  8
その他
  6
Continuous
 62
     7
370
     9
100
AcDbLine
 10
-734.3530680696572
 20
443.4089033373229
 30
0.0
 11
-734.3530680696572
 21
109.4090918629025
 31
0.0
  0
TEXT
  5
387
330
1F
100
AcDbEntity
  8
その他
  6
Continuous
 62
     2
370
   211
100
AcDbText
 10
-739.6730680696572
 20
260.1589976001127
 30
0.0
 40
15.24
  1
334
 50
90.0
 41
1.083333333333333
  7
ＭＳ ゴシック
100
AcDbText
  0
LINE
  5
388
330
1F
100
AcDbEntity
  8
その他
  6
Continuous
 62
     7
370
     9
100
AcDbLine
 10
-694.3530680696572
 20
431.4088870769919
 30
0.0
 11
-694.3530680696572
 21
121.4090031380518
 31
0.0
  0
TEXT
  5
389
330
1F
100
AcDbEntity
  8
その他
  6
Continuous
 62
     2
370
   211
100
AcDbText
 10
-699.6730680696572
 20
260.1589451075218
 30
0.0
 40
15.24
  1
310
 50
90.0
 41
1.083333333333333
  7
ＭＳ ゴシック
100
AcDbText
  0
LINE
  5
38A
330
1F
100
AcDbEntity
  8
D-4
  6
Continuous
 62
     7
370
     9
100
AcDbLine
 10
-747.910875968787
 20
-220.1937584566507
 30
0.0
 11
-747.910875968787
 21
-307.6938494214796
 31
0.0
  0
TEXT
  5
38B
330
1F
100
AcDbEntity
  8
D-4
  6
Continuous
 62
     2
370
   211
100
AcDbText
 10
-753.230875968787
 20
-274.5688039390652
 30
0.0
 40
15.24
  1
35
 50
90.0
 41
1.0625
  7
ＭＳ ゴシック
100
AcDbText
  0
LINE
  5
38C
330
1F
100
AcDbEntity
  8
D-4
  6
Continuous
 62
     7
370
     9
100
AcDbLine
 10
-710.410875968787
 20
-220.1937584566507
 30
0.0
 11
-710.410875968787
 21
-287.6937584566507
 31
0.0
  0
TEXT
  5
38D
330
1F
100
AcDbEntity
  8
D-4
  6
Continuous
 62
     2
370
   211
100
AcDbText
 10
-715.730875968787
 20
-264.5687584566507
 30
0.0
 40
15.24
  1
27
 50
90.0
 41
1.0625
  7
ＭＳ ゴシック
100
AcDbText
  0
TEXT
  5
38E
330
1F
100
AcDbEntity
  8
F-4ﾚｲﾔ
  6
Continuous
 62
     7
370
     9
100
AcDbText
 10
-433.341988657516
 20
-684.5820415276089
 30
0.0
 40
11.43
  1
ステンレス製　ボルト固定式　ＭＳＸＭ－Ｍ－３５０
  7
ＭＳ ゴシック
100
AcDbText
  0
TEXT
  5
38F
330
1F
100
AcDbEntity
  8
D-5
  6
Continuous
 62
     7
370
     9
100
AcDbText
 10
452.0155865667249
 20
490.2089905635896
 30
0.0
 40
11.43
  1
ＳＣＳ１３
 41
1.133333333333333
  7
ＭＳ ゴシック
100
AcDbText
  0
LINE
  5
390
330
1F
100
AcDbEntity
  8
D-2
  6
JWW_DASHED2
 62
     3
370
     9
100
AcDbLine
 10
611.8793408705235
 20
410.6954520082259
 30
0.0
 11
604.3793408705235
 21
410.6954520082259
 31
0.0
  0
LINE
  5
391
330
1F
100
AcDbEntity
  8
D-2
  6
JWW_DASHED2
 62
     3
370
     9
100
AcDbLine
 10
611.8793408705235
 20
417.4454520082261
 30
0.0
 11
611.8793408705235
 21
410.6954520082259
 31
0.0
  0
LINE
  5
392
330
1F
100
AcDbEntity
  8
D-2
  6
JWW_DASHED2
 62
     3
370
     9
100
AcDbLine
 10
612.6293408705234
 20
418.1954520082259
 30
0.0
 11
611.8793408705235
 21
417.4454520082261
 31
0.0
  0
LINE
  5
393
330
1F
100
AcDbEntity
  8
D-2
  6
JWW_DASHED2
 62
     3
370
     9
100
AcDbLine
 10
604.3793408705235
 20
417.4454520082261
 30
0.0
 11
604.3793408705235
 21
410.6954520082259
 31
0.0
  0
LINE
  5
394
330
1F
100
AcDbEntity
  8
D-2
  6
JWW_DASHED2
 62
     3
370
     9
100
AcDbLine
 10
604.3793408705235
 20
417.4454520082261
 30
0.0
 11
603.629340870523
 21
418.1954520082259
 31
0.0
  0
LINE
  5
395
330
1F
100
AcDbEntity
  8
D-2
  6
Continuous
 62
     3
370
     9
100
AcDbLine
 10
583.1292195071821
 20
417.4454520082261
 30
0.0
 11
633.1291997709101
 21
417.4454520082261
 31
0.0
  0
LINE
  5
396
330
1F
100
AcDbEntity
  8
D-2
  6
Continuous
 62
     3
370
     9
100
AcDbLine
 10
633.1291997709101
 20
409.4454822017759
 30
0.0
 11
583.1292195071821
 21
409.4454822017759
 31
0.0
  0
LINE
  5
397
330
1F
100
AcDbEntity
  8
建具
  6
Continuous
 62
     2
370
     9
100
AcDbLine
 10
-490.9900622722007
 20
136.4090110325607
 30
0.0
 11
-440.9899770232904
 21
136.4090110325607
 31
0.0
  0
LINE
  5
398
330
1F
100
AcDbEntity
  8
建具
  6
Continuous
 62
     2
370
     9
100
AcDbLine
 10
-490.9900622722007
 20
416.4090110325607
 30
0.0
 11
-440.9899770232904
 21
416.4090110325607
 31
0.0
  0
LINE
  5
399
330
1F
100
AcDbEntity
  8
建具
  6
JWW_DASHED2
 62
     2
370
     9
100
AcDbLine
 10
-449.7899399544486
 20
416.4090110325607
 30
0.0
 11
-449.7899399544486
 21
136.4090110325607
 31
0.0
  0
LINE
  5
39A
330
1F
100
AcDbEntity
  8
建具
  6
Continuous
 62
     2
370
     9
100
AcDbLine
 10
-450.989973076036
 20
136.4090110325607
 30
0.0
 11
-450.989973076036
 21
416.4090110325607
 31
0.0
  0
LINE
  5
39B
330
1F
100
AcDbEntity
  8
建具
  6
JWW_DASHED2
 62
     2
370
     9
100
AcDbLine
 10
-482.1900993410428
 20
136.4090110325607
 30
0.0
 11
-482.1900993410428
 21
416.4090110325607
 31
0.0
  0
LINE
  5
39C
330
1F
100
AcDbEntity
  8
建具
  6
Continuous
 62
     2
370
     9
100
AcDbLine
 10
-480.9900662194549
 20
136.4090110325607
 30
0.0
 11
-480.9900662194549
 21
416.4090110325607
 31
0.0
  0
LINE
  5
39D
330
1F
100
AcDbEntity
  8
建具
  6
Continuous
 62
     2
370
     9
100
AcDbLine
 10
-490.9900622722007
 20
416.4090110325607
 30
0.0
 11
-490.9900622722007
 21
136.4090110325607
 31
0.0
  0
LINE
  5
39E
330
1F
100
AcDbEntity
  8
建具
  6
Continuous
 62
     2
370
     9
100
AcDbLine
 10
-440.9899770232904
 20
416.4090110325607
 30
0.0
 11
-440.9899770232904
 21
136.4090110325607
 31
0.0
  0
LINE
  5
39F
330
1F
100
AcDbEntity
  8
D-3
  6
Continuous
 62
     2
370
     9
100
AcDbLine
 10
195.6291407830243
 20
376.4455905745266
 30
0.0
 11
195.6291407830243
 21
379.4454765312797
 31
0.0
  0
LINE
  5
3A0
330
1F
100
AcDbEntity
  8
D-3
  6
Continuous
 62
     2
370
     9
100
AcDbLine
 10
320.6293539053
 20
376.4455905745266
 30
0.0
 11
320.6293539053
 21
379.4454765312797
 31
0.0
  0
LINE
  5
3A1
330
1F
100
AcDbEntity
  8
D-3
  6
Continuous
 62
     2
370
     9
100
AcDbLine
 10
215.1289572356986
 20
376.4455905745266
 30
0.0
 11
195.6291407830243
 21
376.4455905745266
 31
0.0
  0
LINE
  5
3A2
330
1F
100
AcDbEntity
  8
D-3
  6
Continuous
 62
     2
370
     9
100
AcDbLine
 10
293.1291416667378
 20
357.44530674043
 30
0.0
 11
223.1292217901091
 21
357.44530674043
 31
0.0
  0
LINE
  5
3A3
330
1F
100
AcDbEntity
  8
D-3
  6
Continuous
 62
     2
370
     9
100
AcDbLine
 10
301.1295374526256
 20
376.4455905745266
 30
0.0
 11
320.6293539053
 21
376.4455905745266
 31
0.0
  0
LINE
  5
3A4
330
1F
100
AcDbEntity
  8
D-3
  6
Continuous
 62
     2
370
     9
100
AcDbLine
 10
220.6291309148885
 20
373.9454340835672
 30
0.0
 11
220.6291309148885
 21
359.9453976156506
 31
0.0
  0
LINE
  5
3A5
330
1F
100
AcDbEntity
  8
D-3
  6
Continuous
 62
     2
370
     9
100
AcDbLine
 10
215.1292196986535
 20
379.4454765312797
 30
0.0
 11
195.6291407830243
 21
379.4454765312797
 31
0.0
  0
LINE
  5
3A6
330
1F
100
AcDbEntity
  8
D-3
  6
Continuous
 62
     2
370
     9
100
AcDbLine
 10
295.6293637734359
 20
373.9454340835672
 30
0.0
 11
295.6293637734359
 21
359.9453976156506
 31
0.0
  0
LINE
  5
3A7
330
1F
100
AcDbEntity
  8
D-3
  6
Continuous
 62
     2
370
     9
100
AcDbLine
 10
301.1294062211483
 20
379.4454765312797
 30
0.0
 11
320.6293539053
 21
379.4454765312797
 31
0.0
  0
LINE
  5
3A8
330
1F
100
AcDbEntity
  8
D-3
  6
Continuous
 62
     2
370
     9
100
AcDbLine
 10
217.6290481109191
 20
359.9453976156506
 30
0.0
 11
217.6290481109191
 21
373.9454340835672
 31
0.0
  0
LINE
  5
3A9
330
1F
100
AcDbEntity
  8
D-3
  6
Continuous
 62
     2
370
     9
100
AcDbLine
 10
298.6294465774051
 20
373.9454340835672
 30
0.0
 11
298.6294465774051
 21
359.9453976156506
 31
0.0
  0
ARC
  5
3AA
330
1F
100
AcDbEntity
  8
D-3
  6
Continuous
 62
     2
370
     9
100
AcDbCircle
 10
215.1289572356986
 20
373.9454340835672
 30
0.0
 40
2.499999628333971
100
AcDbArc
 50
0.0
 51
90.0
  0
ARC
  5
3AB
330
1F
100
AcDbEntity
  8
D-3
  6
Continuous
 62
     2
370
     9
100
AcDbCircle
 10
223.1292217901091
 20
359.9453976156506
 30
0.0
 40
2.499999628333971
100
AcDbArc
 50
180.0
 51
270.0
  0
ARC
  5
3AC
330
1F
100
AcDbEntity
  8
D-3
  6
Continuous
 62
     2
370
     9
100
AcDbCircle
 10
293.1291416667378
 20
359.9453976156506
 30
0.0
 40
2.499999628333971
100
AcDbArc
 50
270.0
 51
0.0
  0
ARC
  5
3AD
330
1F
100
AcDbEntity
  8
D-3
  6
Continuous
 62
     2
370
     9
100
AcDbCircle
 10
301.1295374526256
 20
373.9454340835672
 30
0.0
 40
2.499999628333971
100
AcDbArc
 50
90.0
 51
180.0
  0
ARC
  5
3AE
330
1F
100
AcDbEntity
  8
D-3
  6
Continuous
 62
     2
370
     9
100
AcDbCircle
 10
215.1292196986535
 20
373.9454340835672
 30
0.0
 40
5.499999900006878
100
AcDbArc
 50
0.0
 51
90.0
  0
ARC
  5
3AF
330
1F
100
AcDbEntity
  8
D-3
  6
Continuous
 62
     2
370
     9
100
AcDbCircle
 10
301.1294062211483
 20
373.9454340835672
 30
0.0
 40
5.499999900006878
100
AcDbArc
 50
90.0
 51
180.0
  0
ARC
  5
3B0
330
1F
100
AcDbEntity
  8
D-3
  6
Continuous
 62
     2
370
     9
100
AcDbCircle
 10
223.1290905586316
 20
359.9453976156506
 30
0.0
 40
5.499999900006878
100
AcDbArc
 50
180.0
 51
270.0
  0
ARC
  5
3B1
330
1F
100
AcDbEntity
  8
D-3
  6
Continuous
 62
     2
370
     9
100
AcDbCircle
 10
293.1296665926473
 20
359.9453976156506
 30
0.0
 40
5.499999900006878
100
AcDbArc
 50
270.0
 51
0.0
  0
LWPOLYLINE
  5
3B2
330
1F
100
AcDbEntity
  8
D-4
  6
Continuous
 62
     7
370
     9
100
AcDbPolyline
 90
        4
 70
     1
 43
1.0
 10
14.27987883661739
 20
379.4454765312797
 42
0.4142135623731
 10
13.77987883661739
 20
379.9454765312797
 42
0.4142135623731
 10
13.27987883661739
 20
379.4454765312797
 42
0.4142135623731
 10
13.77987883661739
 20
378.9454765312797
 42
0.4142135623731
  0
LINE
  5
3B3
330
1F
100
AcDbEntity
  8
D-4
  6
Continuous
 62
     7
370
     9
100
AcDbLine
 10
13.77987883661739
 20
419.4456029758312
 30
0.0
 11
13.77987883661739
 21
379.4454765312797
 31
0.0
  0
LINE
  5
3B4
330
1F
100
AcDbEntity
  8
D-4
  6
Continuous
 62
     7
370
     9
100
AcDbLine
 10
12.77987883661716
 20
379.4454765312797
 30
0.0
 11
183.8898813781316
 21
379.4454765312797
 31
0.0
  0
TEXT
  5
3B5
330
1F
100
AcDbEntity
  8
D-F
  6
Continuous
 62
     2
370
   211
100
AcDbText
 10
7.959878836617387
 20
388.8205397535555
 30
0.0
 40
15.24
  1
16
 50
90.0
 41
1.0625
  7
ＭＳ ゴシック
100
AcDbText
  0
TEXT
  5
3B6
330
1F
100
AcDbEntity
  8
F-5ﾚｲﾔ
  6
Continuous
 62
     3
370
     9
100
AcDbText
 10
471.9295502927091
 20
-498.5638770622671
 30
0.0
 40
19.05
  1
※適用荷重：歩行用（3,500N/m2）
 41
1.096774193548387
  7
ＭＳ ゴシック
100
AcDbText
  0
LINE
  5
3B7
330
1F
100
AcDbEntity
  8
D-4
  6
Continuous
 62
     7
370
     9
100
AcDbLine
 10
96.88794699222004
 20
-436.8926129618096
 30
0.0
 11
381.3683975966333
 21
-436.8926129618096
 31
0.0
  0
TEXT
  5
3B8
330
1F
100
AcDbEntity
  8
D-4
  6
Continuous
 62
     2
370
     9
100
AcDbText
 10
108.3079216543823
 20
-425.1963279243308
 30
0.0
 40
15.24
  1
把手部詳細図　Ｓ＝１：２
 41
1.114583333333334
  7
ＭＳ ゴシック
100
AcDbText
  0
LINE
  5
3B9
330
1F
100
AcDbEntity
  8
D-1
  6
Continuous
 62
     2
370
     9
100
AcDbLine
 10
96.85099176949836
 20
-337.1800073143914
 30
0.0
 11
79.35101180034155
 21
-354.6802497465034
 31
0.0
  0
LINE
  5
3BA
330
1F
100
AcDbEntity
  8
D-1
  6
Continuous
 62
     2
370
     9
100
AcDbLine
 10
79.35101180034155
 20
-354.6802497465034
 30
0.0
 11
366.7832229929984
 21
-354.6802497465034
 31
0.0
  0
LINE
  5
3BB
330
1F
100
AcDbEntity
  8
D-1
  6
Continuous
 62
     2
370
     9
100
AcDbLine
 10
366.7832229929984
 20
-337.180055674272
 30
0.0
 11
96.85099176949836
 21
-337.1800073143914
 31
0.0
  0
LINE
  5
3BC
330
1F
100
AcDbEntity
  8
D-1
  6
JWW_DASHED3
 62
     2
370
     9
100
AcDbLine
 10
366.7832229929984
 20
-304.6802694827748
 30
0.0
 11
129.3511232955472
 21
-304.6802694827748
 31
0.0
  0
LINE
  5
3BD
330
1F
100
AcDbEntity
  8
D-4
  6
Continuous
 62
     7
370
     9
100
AcDbLine
 10
439.6955590034957
 20
-354.6802497465034
 30
0.0
 11
439.6955590034957
 21
-337.180055674272
 31
0.0
  0
LWPOLYLINE
  5
3BE
330
1F
100
AcDbEntity
  8
D-4
  6
Continuous
 62
     7
370
     9
100
AcDbPolyline
 90
        4
 70
     1
 43
1.0
 10
440.1955590034956
 20
-354.6802497465034
 42
0.4142135623731
 10
439.6955590034957
 20
-354.1802497465034
 42
0.4142135623731
 10
439.1955590034957
 20
-354.6802497465034
 42
0.4142135623731
 10
439.6955590034957
 20
-355.1802497465033
 42
0.4142135623731
  0
LWPOLYLINE
  5
3BF
330
1F
100
AcDbEntity
  8
D-4
  6
Continuous
 62
     7
370
     9
100
AcDbPolyline
 90
        4
 70
     1
 43
1.0
 10
440.1955590034956
 20
-337.180055674272
 42
0.4142135623731
 10
439.6955590034957
 20
-336.680055674272
 42
0.4142135623731
 10
439.1955590034957
 20
-337.180055674272
 42
0.4142135623731
 10
439.6955590034957
 20
-337.680055674272
 42
0.4142135623731
  0
LINE
  5
3C0
330
1F
100
AcDbEntity
  8
D-4
  6
Continuous
 62
     7
370
     9
100
AcDbLine
 10
440.6955590034959
 20
-354.6802497465034
 30
0.0
 11
376.7832229929984
 21
-354.6802497465034
 31
0.0
  0
LINE
  5
3C1
330
1F
100
AcDbEntity
  8
D-4
  6
Continuous
 62
     7
370
     9
100
AcDbLine
 10
440.6955590034959
 20
-337.180055674272
 30
0.0
 11
376.7832229929984
 21
-337.180055674272
 31
0.0
  0
TEXT
  5
3C2
330
1F
100
AcDbEntity
  8
D-4
  6
Continuous
 62
     2
370
   211
100
AcDbText
 10
434.3755590034957
 20
-350.9301527103877
 30
0.0
 40
15.24
  1
7
 50
90.0
 41
0.9999999999999998
  7
ＭＳ ゴシック
100
AcDbText
  0
LINE
  5
3C3
330
1F
100
AcDbEntity
  8
D-4
  6
Continuous
 62
     7
370
     9
100
AcDbLine
 10
439.6955590034957
 20
-337.180055674272
 30
0.0
 11
439.6955590034957
 21
-334.6800717086637
 31
0.0
  0
LWPOLYLINE
  5
3C4
330
1F
100
AcDbEntity
  8
D-4
  6
Continuous
 62
     7
370
     9
100
AcDbPolyline
 90
        4
 70
     1
 43
1.0
 10
440.1955590034956
 20
-334.6800717086637
 42
0.4142135623731
 10
439.6955590034957
 20
-334.1800717086637
 42
0.4142135623731
 10
439.1955590034957
 20
-334.6800717086637
 42
0.4142135623731
 10
439.6955590034957
 20
-335.1800717086637
 42
0.4142135623731
  0
LINE
  5
3C5
330
1F
100
AcDbEntity
  8
D-4
  6
Continuous
 62
     7
370
     9
100
AcDbLine
 10
440.6955590034959
 20
-334.6800717086637
 30
0.0
 11
376.7832229929984
 21
-334.6800717086637
 31
0.0
  0
LINE
  5
3C6
330
1F
100
AcDbEntity
  8
D-4
  6
Continuous
 62
     7
370
     9
100
AcDbLine
 10
439.6955590034957
 20
-334.6800717086637
 30
0.0
 11
439.6955590034957
 21
-317.1800907183002
 31
0.0
  0
LWPOLYLINE
  5
3C7
330
1F
100
AcDbEntity
  8
D-4
  6
Continuous
 62
     7
370
     9
100
AcDbPolyline
 90
        4
 70
     1
 43
1.0
 10
440.1955590034956
 20
-317.1800907183002
 42
0.4142135623731
 10
439.6955590034957
 20
-316.6800907183002
 42
0.4142135623731
 10
439.1955590034957
 20
-317.1800907183002
 42
0.4142135623731
 10
439.6955590034957
 20
-317.6800907183002
 42
0.4142135623731
  0
LINE
  5
3C8
330
1F
100
AcDbEntity
  8
D-4
  6
Continuous
 62
     7
370
     9
100
AcDbLine
 10
440.6955590034959
 20
-317.1800907183002
 30
0.0
 11
376.7832229929984
 21
-317.1800907183002
 31
0.0
  0
TEXT
  5
3C9
330
1F
100
AcDbEntity
  8
D-4
  6
Continuous
 62
     2
370
   211
100
AcDbText
 10
434.3755590034957
 20
-330.930081213482
 30
0.0
 40
15.24
  1
7
 50
90.0
 41
0.9999999999999998
  7
ＭＳ ゴシック
100
AcDbText
  0
LINE
  5
3CA
330
1F
100
AcDbEntity
  8
D-4
  6
Continuous
 62
     7
370
     9
100
AcDbLine
 10
439.6955590034957
 20
-317.1800907183002
 30
0.0
 11
439.6955590034957
 21
-154.680090718301
 31
0.0
  0
LWPOLYLINE
  5
3CB
330
1F
100
AcDbEntity
  8
D-4
  6
Continuous
 62
     7
370
     9
100
AcDbPolyline
 90
        4
 70
     1
 43
1.0
 10
440.1955590034956
 20
-154.680090718301
 42
0.4142135623731
 10
439.6955590034957
 20
-154.180090718301
 42
0.4142135623731
 10
439.1955590034957
 20
-154.680090718301
 42
0.4142135623731
 10
439.6955590034957
 20
-155.180090718301
 42
0.4142135623731
  0
TEXT
  5
3CC
330
1F
100
AcDbEntity
  8
D-4
  6
Continuous
 62
     2
370
   211
100
AcDbText
 10
434.3755590034957
 20
-246.5550907183007
 30
0.0
 40
15.24
  1
65
 50
90.0
 41
1.0625
  7
ＭＳ ゴシック
100
AcDbText
  0
LINE
  5
3CD
330
1F
100
AcDbEntity
  8
D-4
  6
Continuous
 62
     7
370
     9
100
AcDbLine
 10
440.6955590034959
 20
-154.680090718301
 30
0.0
 11
144.5350071040504
 21
-154.680090718301
 31
0.0
  0
LINE
  5
3CE
330
1F
100
AcDbEntity
  8
D-1
  6
Continuous
 62
     2
370
     9
100
AcDbLine
 10
79.35101180034155
 20
-354.6802497465034
 30
0.0
 11
79.35101180034155
 21
-88.33291017963077
 31
0.0
  0
LINE
  5
3CF
330
1F
100
AcDbEntity
  8
D-1
  6
Continuous
 62
     2
370
     9
100
AcDbLine
 10
96.8510809342182
 20
-88.33291017963077
 30
0.0
 11
96.85099176949836
 21
-337.1800073143914
 31
0.0
  0
LINE
  5
3D0
330
1F
100
AcDbEntity
  8
D-1
  6
JWW_DASHED3
 62
     2
370
     9
100
AcDbLine
 10
129.3511232955472
 20
-304.6802694827748
 30
0.0
 11
129.3511232955472
 21
-88.33291017963077
 31
0.0
  0
LINE
  5
3D1
330
1F
100
AcDbEntity
  8
D-4
  6
Continuous
 62
     7
370
     9
100
AcDbLine
 10
79.35101180034155
 20
-42.74859326261819
 30
0.0
 11
96.8510809342182
 21
-42.74859326261819
 31
0.0
  0
LWPOLYLINE
  5
3D2
330
1F
100
AcDbEntity
  8
D-4
  6
Continuous
 62
     7
370
     9
100
AcDbPolyline
 90
        4
 70
     1
 43
1.0
 10
79.85101180034155
 20
-42.74859326261819
 42
0.4142135623731
 10
79.35101180034155
 20
-42.24859326261819
 42
0.4142135623731
 10
78.85101180034157
 20
-42.74859326261819
 42
0.4142135623731
 10
79.35101180034155
 20
-43.24859326261819
 42
0.4142135623731
  0
LWPOLYLINE
  5
3D3
330
1F
100
AcDbEntity
  8
D-4
  6
Continuous
 62
     7
370
     9
100
AcDbPolyline
 90
        4
 70
     1
 43
1.0
 10
97.35108093421822
 20
-42.74859326261819
 42
0.4142135623731
 10
96.8510809342182
 20
-42.24859326261819
 42
0.4142135623731
 10
96.3510809342182
 20
-42.74859326261819
 42
0.4142135623731
 10
96.8510809342182
 20
-43.24859326261819
 42
0.4142135623731
  0
LINE
  5
3D4
330
1F
100
AcDbEntity
  8
D-4
  6
Continuous
 62
     7
370
     9
100
AcDbLine
 10
79.35101180034155
 20
-41.74859326261824
 30
0.0
 11
79.35101180034155
 21
-78.33291017963077
 31
0.0
  0
LINE
  5
3D5
330
1F
100
AcDbEntity
  8
D-4
  6
Continuous
 62
     7
370
     9
100
AcDbLine
 10
96.8510809342182
 20
-41.74859326261824
 30
0.0
 11
96.8510809342182
 21
-78.33291017963077
 31
0.0
  0
LINE
  5
3D6
330
1F
100
AcDbEntity
  8
D-4
  6
Continuous
 62
     7
370
     9
100
AcDbLine
 10
96.8510809342182
 20
-42.74859326261819
 30
0.0
 11
99.35121387619648
 21
-42.74859326261819
 31
0.0
  0
LWPOLYLINE
  5
3D7
330
1F
100
AcDbEntity
  8
D-4
  6
Continuous
 62
     7
370
     9
100
AcDbPolyline
 90
        4
 70
     1
 43
1.0
 10
99.8512138761965
 20
-42.74859326261819
 42
0.4142135623731
 10
99.35121387619648
 20
-42.24859326261819
 42
0.4142135623731
 10
98.85121387619648
 20
-42.74859326261819
 42
0.4142135623731
 10
99.35121387619648
 20
-43.24859326261819
 42
0.4142135623731
  0
LINE
  5
3D8
330
1F
100
AcDbEntity
  8
D-4
  6
Continuous
 62
     7
370
     9
100
AcDbLine
 10
99.35121387619648
 20
-41.74859326261824
 30
0.0
 11
99.35121387619648
 21
-78.33291017963077
 31
0.0
  0
TEXT
  5
3D9
330
1F
100
AcDbEntity
  8
D-4
  6
Continuous
 62
     2
370
   211
100
AcDbText
 10
93.1011474052072
 20
-37.42859326261819
 30
0.0
 40
15.24
  1
1
 41
0.9999999999999998
  7
ＭＳ ゴシック
100
AcDbText
  0
LINE
  5
3DA
330
1F
100
AcDbEntity
  8
D-4
  6
Continuous
 62
     7
370
     9
100
AcDbLine
 10
99.35121387619648
 20
-42.74859326261819
 30
0.0
 11
116.8512149204132
 21
-42.74859326261819
 31
0.0
  0
LWPOLYLINE
  5
3DB
330
1F
100
AcDbEntity
  8
D-4
  6
Continuous
 62
     7
370
     9
100
AcDbPolyline
 90
        4
 70
     1
 43
1.0
 10
117.3512149204132
 20
-42.74859326261819
 42
0.4142135623731
 10
116.8512149204132
 20
-42.24859326261819
 42
0.4142135623731
 10
116.3512149204132
 20
-42.74859326261819
 42
0.4142135623731
 10
116.8512149204132
 20
-43.24859326261819
 42
0.4142135623731
  0
LINE
  5
3DC
330
1F
100
AcDbEntity
  8
D-4
  6
Continuous
 62
     7
370
     9
100
AcDbLine
 10
116.8512149204132
 20
-41.74859326261824
 30
0.0
 11
116.8512149204132
 21
-78.33291017963077
 31
0.0
  0
LINE
  5
3DD
330
1F
100
AcDbEntity
  8
D-4
  6
Continuous
 62
     7
370
     9
100
AcDbLine
 10
116.8512149204132
 20
-42.74859326261819
 30
0.0
 11
279.3512149204127
 21
-42.74859326261819
 31
0.0
  0
LWPOLYLINE
  5
3DE
330
1F
100
AcDbEntity
  8
D-4
  6
Continuous
 62
     7
370
     9
100
AcDbPolyline
 90
        4
 70
     1
 43
1.0
 10
279.8512149204127
 20
-42.74859326261819
 42
0.4142135623731
 10
279.3512149204127
 20
-42.24859326261819
 42
0.4142135623731
 10
278.8512149204127
 20
-42.74859326261819
 42
0.4142135623731
 10
279.3512149204127
 20
-43.24859326261819
 42
0.4142135623731
  0
TEXT
  5
3DF
330
1F
100
AcDbEntity
  8
D-4
  6
Continuous
 62
     2
370
   211
100
AcDbText
 10
187.4762149204129
 20
-37.42859326261819
 30
0.0
 40
15.24
  1
65
 41
1.0625
  7
ＭＳ ゴシック
100
AcDbText
  0
TEXT
  5
3E0
330
1F
100
AcDbEntity
  8
D-4
  6
Continuous
 62
     2
370
   211
100
AcDbText
 10
75.73835302492984
 20
-36.76785730692995
 30
0.0
 40
15.24
  1
7
 41
0.9999999999999998
  7
ＭＳ ゴシック
100
AcDbText
  0
TEXT
  5
3E1
330
1F
100
AcDbEntity
  8
D-4
  6
Continuous
 62
     2
370
   211
100
AcDbText
 10
109.9260435753972
 20
-37.67952905494237
 30
0.0
 40
15.24
  1
7
 41
0.9999999999999998
  7
ＭＳ ゴシック
100
AcDbText
  0
TEXT
  5
3E2
330
1F
100
AcDbEntity
  8
D-4
  6
Continuous
 62
     2
370
   211
100
AcDbText
 10
459.9927824549798
 20
-342.3776018359156
 30
0.0
 40
15.24
  1
1
 50
90.0
 41
0.9999999999999998
  7
ＭＳ ゴシック
100
AcDbText
  0
LINE
  5
3E3
330
1F
100
AcDbEntity
  8
D-4
  6
Continuous
 62
     7
370
     9
100
AcDbLine
 10
322.985059022493
 20
-334.680067771884
 30
0.0
 11
322.985059022493
 21
-267.1799562062852
 31
0.0
  0
LWPOLYLINE
  5
3E4
330
1F
100
AcDbEntity
  8
D-4
  6
Continuous
 62
     7
370
     9
100
AcDbPolyline
 90
        4
 70
     1
 43
1.0
 10
323.4850590224929
 20
-334.680067771884
 42
0.4142135623731
 10
322.985059022493
 20
-334.180067771884
 42
0.4142135623731
 10
322.485059022493
 20
-334.680067771884
 42
0.4142135623731
 10
322.985059022493
 20
-335.1800677718839
 42
0.4142135623731
  0
LWPOLYLINE
  5
3E5
330
1F
100
AcDbEntity
  8
D-4
  6
Continuous
 62
     7
370
     9
100
AcDbPolyline
 90
        4
 70
     1
 43
1.0
 10
323.4850590224929
 20
-267.1799562062852
 42
0.4142135623731
 10
322.985059022493
 20
-266.6799562062851
 42
0.4142135623731
 10
322.485059022493
 20
-267.1799562062852
 42
0.4142135623731
 10
322.985059022493
 20
-267.6799562062852
 42
0.4142135623731
  0
LINE
  5
3E6
330
1F
100
AcDbEntity
  8
D-4
  6
Continuous
 62
     7
370
     9
100
AcDbLine
 10
323.9850590224929
 20
-267.1799562062852
 30
0.0
 11
210.600758480601
 21
-267.1799562062852
 31
0.0
  0
LINE
  5
3E7
330
1F
100
AcDbEntity
  8
D-4
  6
Continuous
 62
     7
370
     9
100
AcDbLine
 10
99.35121387619648
 20
-119.7599806773539
 30
0.0
 11
166.8507804146502
 21
-119.7599806773539
 31
0.0
  0
LWPOLYLINE
  5
3E8
330
1F
100
AcDbEntity
  8
D-4
  6
Continuous
 62
     7
370
     9
100
AcDbPolyline
 90
        4
 70
     1
 43
1.0
 10
99.8512138761965
 20
-119.7599806773539
 42
0.4142135623731
 10
99.35121387619648
 20
-119.2599806773539
 42
0.4142135623731
 10
98.85121387619648
 20
-119.7599806773539
 42
0.4142135623731
 10
99.35121387619648
 20
-120.2599806773539
 42
0.4142135623731
  0
LWPOLYLINE
  5
3E9
330
1F
100
AcDbEntity
  8
D-4
  6
Continuous
 62
     7
370
     9
100
AcDbPolyline
 90
        4
 70
     1
 43
1.0
 10
167.3507804146502
 20
-119.7599806773539
 42
0.4142135623731
 10
166.8507804146502
 20
-119.2599806773539
 42
0.4142135623731
 10
166.3507804146502
 20
-119.7599806773539
 42
0.4142135623731
 10
166.8507804146502
 20
-120.2599806773539
 42
0.4142135623731
  0
LINE
  5
3EA
330
1F
100
AcDbEntity
  8
D-4
  6
Continuous
 62
     7
370
     9
100
AcDbLine
 10
166.8507804146502
 20
-118.7599806773538
 30
0.0
 11
166.8507804146502
 21
-223.4301093720666
 31
0.0
  0
TEXT
  5
3EB
330
1F
100
AcDbEntity
  8
D-4
  6
Continuous
 62
     2
370
   211
100
AcDbText
 10
132.4067025846729
 20
-115.3597289655975
 30
0.0
 40
15.24
  1
27
 41
1.0625
  7
ＭＳ ゴシック
100
AcDbText
  0
TEXT
  5
3EC
330
1F
100
AcDbEntity
  8
D-4
  6
Continuous
 62
     2
370
   211
100
AcDbText
 10
319.2169079954392
 20
-303.3852295834459
 30
0.0
 40
15.24
  1
27
 50
90.0
 41
1.0625
  7
ＭＳ ゴシック
100
AcDbText
  0
LINE
  5
3ED
330
1F
100
AcDbEntity
  8
D-4
  6
Continuous
 62
     7
370
     9
100
AcDbLine
 10
279.3512149204127
 20
-41.74859326261824
 30
0.0
 11
279.3512149204127
 21
-288.6955955798862
 31
0.0
  0
LINE
  5
3EE
330
1F
100
AcDbEntity
  8
D-2
  6
JWW_CENTER2
 62
     3
370
     9
100
AcDbLine
 10
166.8507804146502
 20
-227.5013316370661
 30
0.0
 11
166.8507804146502
 21
-304.7468038417973
 31
0.0
  0
LINE
  5
3EF
330
1F
100
AcDbEntity
  8
D-2
  6
Continuous
 62
     3
370
     9
100
AcDbLine
 10
256.2442192472902
 20
-317.1801989329684
 30
0.0
 11
121.8512443643174
 21
-317.1801989329684
 31
0.0
  0
LINE
  5
3F0
330
1F
100
AcDbEntity
  8
D-2
  6
Continuous
 62
     3
370
     9
100
AcDbLine
 10
277.5205162090122
 20
-306.5108173604953
 30
0.0
 11
127.5205754178266
 21
-156.5100891804458
 31
0.0
  0
LINE
  5
3F1
330
1F
100
AcDbEntity
  8
D-2
  6
Continuous
 62
     3
370
     9
100
AcDbLine
 10
116.8511938453539
 20
-312.180279645482
 30
0.0
 11
116.8511938453539
 21
-160.9297028750382
 31
0.0
  0
CIRCLE
  5
3F2
330
1F
100
AcDbEntity
  8
D-2
  6
Continuous
 62
     3
370
     9
100
AcDbCircle
 10
166.851042877605
 20
-267.1800874377627
 30
0.0
 40
28.12448037637247
  0
CIRCLE
  5
3F3
330
1F
100
AcDbEntity
  8
D-2
  6
Continuous
 62
     3
370
     9
100
AcDbCircle
 10
166.8509116461273
 20
-267.1799562062852
 30
0.0
 40
28.74992959747903
  0
CIRCLE
  5
3F4
330
1F
100
AcDbEntity
  8
D-2
  6
Continuous
 62
     3
370
     9
100
AcDbCircle
 10
166.8509116461273
 20
-267.1799562062852
 30
0.0
 40
33.74984683447362
  0
ARC
  5
3F5
330
1F
100
AcDbEntity
  8
D-2
  6
Continuous
 62
     3
370
     9
100
AcDbCircle
 10
121.8512443643174
 20
-312.180279645482
 30
0.0
 40
4.999999769290903
100
AcDbArc
 50
180.0
 51
270.0
  0
ARC
  5
3F6
330
1F
100
AcDbEntity
  8
D-2
  6
Continuous
 62
     3
370
     9
100
AcDbCircle
 10
123.1012241861892
 20
-160.9297028750382
 30
0.0
 40
6.249999583457888
100
AcDbArc
 50
45.0
 51
180.0
  0
LINE
  5
3F7
330
1F
100
AcDbEntity
  8
D-2
  6
Continuous
 62
     3
370
     9
100
AcDbLine
 10
118.3154746697572
 20
-315.7157868770875
 30
0.0
 11
99.35121387619648
 21
-334.6800476706482
 31
0.0
  0
LINE
  5
3F8
330
1F
100
AcDbEntity
  8
D-2
  6
Continuous
 62
     3
370
     9
100
AcDbLine
 10
273.1011649773745
 20
-317.1801989329684
 30
0.0
 11
256.2442192472902
 21
-317.1801989329684
 31
0.0
  0
ARC
  5
3F9
330
1F
100
AcDbEntity
  8
D-2
  6
Continuous
 62
     3
370
     9
100
AcDbCircle
 10
273.1011649773745
 20
-310.930168592133
 30
0.0
 40
6.249999583457888
100
AcDbArc
 50
270.0
 51
45.0
  0
LINE
  5
3FA
330
1F
100
AcDbEntity
  8
D-2
  6
Continuous
 62
     3
370
     9
100
AcDbLine
 10
99.35121387619648
 20
-334.6800476706482
 30
0.0
 11
366.7832229929984
 21
-334.6800717086637
 31
0.0
  0
LINE
  5
3FB
330
1F
100
AcDbEntity
  8
D-2
  6
Continuous
 62
     3
370
     9
100
AcDbLine
 10
366.7832229929984
 20
-317.1800907183002
 30
0.0
 11
116.8511938453539
 21
-317.180067701491
 31
0.0
  0
LINE
  5
3FC
330
1F
100
AcDbEntity
  8
D-2
  6
Continuous
 62
     3
370
     9
100
AcDbLine
 10
278.1012154963383
 20
-314.6801080577476
 30
0.0
 11
366.7832229929984
 21
-314.6801080577476
 31
0.0
  0
LINE
  5
3FD
330
1F
100
AcDbEntity
  8
D-2
  6
JWW_CENTER2
 62
     3
370
     9
100
AcDbLine
 10
130.2361483788757
 20
-267.1799562062852
 30
0.0
 11
205.2900549116639
 21
-267.1799562062852
 31
0.0
  0
LINE
  5
3FE
330
1F
100
AcDbEntity
  8
D-2
  6
Continuous
 62
     3
370
     9
100
AcDbLine
 10
116.8512149204132
 20
-88.33291017963077
 30
0.0
 11
116.8511938453539
 21
-317.180067701491
 31
0.0
  0
LINE
  5
3FF
330
1F
100
AcDbEntity
  8
D-2
  6
Continuous
 62
     3
370
     9
100
AcDbLine
 10
99.35121387619648
 20
-334.6800476706482
 30
0.0
 11
99.35121387619648
 21
-88.33291017963077
 31
0.0
  0
LINE
  5
400
330
1F
100
AcDbEntity
  8
D-2
  6
Continuous
 62
     3
370
     9
100
AcDbLine
 10
119.3511571085644
 20
-88.33291017963077
 30
0.0
 11
119.3511487733157
 21
-155.9297599562656
 31
0.0
  0
CIRCLE
  5
401
330
1F
100
AcDbEntity
  8
D-2
  6
Continuous
 62
     3
370
     9
100
AcDbCircle
 10
166.850686419653
 20
-267.1799562062851
 30
0.0
 40
24.99986287709834
  0
LINE
  5
402
330
1F
100
AcDbEntity
  8
D-2
  6
Continuous
 62
     3
370
     9
100
AcDbLine
 10
163.1009449058965
 20
-242.4629057662802
 30
0.0
 11
163.1009449058965
 21
-291.8970066462898
 31
0.0
  0
LINE
  5
403
330
1F
100
AcDbEntity
  8
D-2
  6
Continuous
 62
     3
370
     9
100
AcDbLine
 10
170.6009449058954
 20
-242.4629841999877
 30
0.0
 11
170.6009449058954
 21
-291.8969282125823
 31
0.0
  0
LINE
  5
404
330
1F
100
AcDbEntity
  8
D-2
  6
Continuous
 62
     3
370
     9
100
AcDbLine
 10
171.3504279334089
 20
-291.0086820611741
 30
0.0
 11
171.3504279334089
 21
-243.3512303513963
 31
0.0
  0
ARC
  5
405
330
1F
100
AcDbEntity
  8
D-2
  6
Continuous
 62
     3
370
     9
100
AcDbCircle
 10
166.850686419653
 20
-267.1799562062851
 30
0.0
 40
24.24986287709828
100
AcDbArc
 50
280.693631778202
 51
79.30636822179804
  0
LINE
  5
406
330
1F
100
AcDbEntity
  8
D-2
  6
Continuous
 62
     3
370
     9
100
AcDbLine
 10
162.3509449058958
 20
-291.0086820611741
 30
0.0
 11
162.3509449058958
 21
-243.3512303513963
 31
0.0
  0
ARC
  5
407
330
1F
100
AcDbEntity
  8
D-2
  6
Continuous
 62
     3
370
     9
100
AcDbCircle
 10
166.850686419653
 20
-267.1799562062851
 30
0.0
 40
24.24986287709828
100
AcDbArc
 50
100.693631778202
 51
259.306368221798
  0
LINE
  5
408
330
1F
100
AcDbEntity
  8
D-2
  6
Continuous
 62
     3
370
     9
100
AcDbLine
 10
163.1009449058965
 20
-242.4629057662802
 30
0.0
 11
162.3509449058958
 21
-243.3512303513963
 31
0.0
  0
LINE
  5
409
330
1F
100
AcDbEntity
  8
D-2
  6
Continuous
 62
     3
370
     9
100
AcDbLine
 10
170.6009449058954
 20
-242.4629841999877
 30
0.0
 11
171.3504279334089
 21
-243.3512303513963
 31
0.0
  0
LINE
  5
40A
330
1F
100
AcDbEntity
  8
D-2
  6
Continuous
 62
     3
370
     9
100
AcDbLine
 10
171.3504279334089
 20
-291.0086820611741
 30
0.0
 11
170.6009449058954
 21
-291.8969282125823
 31
0.0
  0
LINE
  5
40B
330
1F
100
AcDbEntity
  8
D-2
  6
Continuous
 62
     3
370
     9
100
AcDbLine
 10
162.3509449058958
 20
-291.0086820611741
 30
0.0
 11
163.1009449058965
 21
-291.8970066462898
 31
0.0
  0
TEXT
  5
40C
330
1F
100
AcDbEntity
  8
F-5ﾚｲﾔ
  6
Continuous
 62
     3
370
     9
100
AcDbText
 10
471.9295502927092
 20
-535.4451969132517
 30
0.0
 40
19.05
  1
※仕上げ材充填時蓋質量：約8kg
 41
1.096551724137931
  7
ＭＳ ゴシック
100
AcDbText
  0
TEXT
  5
40D
330
1F
100
AcDbEntity
  8
F-4ﾚｲﾔ
  6
Continuous
 62
     7
370
     9
100
AcDbText
 10
-433.341988657516
 20
-660.7938145896658
 30
0.0
 40
11.43
  1
フロアーハッチ　充填用（充填深さ：16mm）屋内外用　密閉形（防水・防臭形）
  7
ＭＳ ゴシック
100
AcDbText
  0
ENDSEC
  0
SECTION
  2
OBJECTS
  0
DICTIONARY
  5
C
330
0
100
AcDbDictionary
281
     1
  3
ACAD_DETAILVIEWSTYLE
350
415
  3
ACAD_GROUP
350
D
  3
ACAD_LAYOUT
350
1A
  3
ACAD_MATERIAL
350
43
  3
ACAD_MLEADERSTYLE
350
6B
  3
ACAD_MLINESTYLE
350
17
  3
ACAD_PLOTSETTINGS
350
19
  3
ACAD_PLOTSTYLENAME
350
E
  3
ACAD_SCALELIST
350
47
  3
ACAD_SECTIONVIEWSTYLE
350
416
  3
ACAD_TABLESTYLE
350
69
  3
ACAD_VISUALSTYLE
350
2A
  3
ACDB_RECOMPOSE_DATA
350
412
  3
AcDbVariableDictionary
350
40E
  0
SUN
  5
6D
330
29
100
AcDbSun
 90
        1
290
     0
 63
     7
421
 16777215
 40
1.0
291
     1
 91
  2455826
 92
 54000000
292
     0
 70
     2
 71
   256
280
     1
  0
DICTIONARY
  5
415
102
{ACAD_REACTORS
330
C
102
}
330
C
100
AcDbDictionary
281
     1
  0
DICTIONARY
  5
D
102
{ACAD_REACTORS
330
C
102
}
330
C
100
AcDbDictionary
281
     1
  0
DICTIONARY
  5
1A
102
{ACAD_REACTORS
330
C
102
}
330
C
100
AcDbDictionary
281
     1
  3
Layout1
350
1E
  3
Layout2
350
26
  3
Model
350
22
  0
DICTIONARY
  5
43
102
{ACAD_REACTORS
330
C
102
}
330
C
100
AcDbDictionary
281
     1
  3
ByBlock
350
45
  3
ByLayer
350
44
  3
Global
350
46
  0
DICTIONARY
  5
6B
102
{ACAD_REACTORS
330
C
102
}
330
C
100
AcDbDictionary
281
     1
  3
Standard
350
6C
  0
DICTIONARY
  5
17
102
{ACAD_REACTORS
330
C
102
}
330
C
100
AcDbDictionary
281
     1
  3
Standard
350
18
  0
DICTIONARY
  5
19
102
{ACAD_REACTORS
330
C
102
}
330
C
100
AcDbDictionary
281
     1
  0
ACDBDICTIONARYWDFLT
  5
E
102
{ACAD_REACTORS
330
C
102
}
330
C
100
AcDbDictionary
281
     1
  3
Normal
350
F
100
AcDbDictionaryWithDefault
340
F
  0
DICTIONARY
  5
47
102
{ACAD_REACTORS
330
C
102
}
330
C
100
AcDbDictionary
281
     1
  3
A0
350
48
  3
A1
350
49
  3
A2
350
4A
  3
A3
350
4B
  3
A4
350
4C
  3
A5
350
4D
  3
A6
350
4E
  3
A7
350
4F
  3
A8
350
50
  3
A9
350
51
  3
B0
350
52
  3
B1
350
53
  3
B2
350
54
  3
B3
350
55
  3
B4
350
56
  3
B5
350
57
  3
B6
350
58
  3
B7
350
59
  3
B8
350
5A
  3
B9
350
5B
  3
C0
350
5C
  3
C1
350
5D
  3
C2
350
5E
  3
C3
350
5F
  3
C4
350
60
  3
C5
350
61
  3
C6
350
62
  3
C7
350
63
  3
C8
350
64
  3
C9
350
65
  3
D0
350
66
  3
D1
350
67
  3
D2
350
68
  0
DICTIONARY
  5
416
102
{ACAD_REACTORS
330
C
102
}
330
C
100
AcDbDictionary
281
     1
  0
DICTIONARY
  5
69
102
{ACAD_REACTORS
330
C
102
}
330
C
100
AcDbDictionary
281
     1
  3
Standard
350
6A
  0
DICTIONARY
  5
2A
102
{ACAD_REACTORS
330
C
102
}
330
C
100
AcDbDictionary
281
     1
  3
2dWireframe
350
2F
  3
Basic
350
32
  3
Brighten
350
36
  3
ColorChange
350
3A
  3
Conceptual
350
34
  3
Dim
350
35
  3
EdgeColorOff
350
3D
  3
Facepattern
350
39
  3
Flat
350
2B
  3
FlatWithEdges
350
2C
  3
Gouraud
350
2D
  3
GouraudWithEdges
350
2E
  3
Hidden
350
31
  3
JitterOff
350
3B
  3
Linepattern
350
38
  3
OverhangOff
350
3C
  3
Realistic
350
33
  3
Shaded
350
42
  3
Shaded with edges
350
41
  3
Shades of Gray
350
3E
  3
Sketchy
350
3F
  3
Thicken
350
37
  3
Wireframe
350
30
  3
X-Ray
350
40
  0
XRECORD
  5
412
102
{ACAD_REACTORS
330
C
102
}
330
C
100
AcDbXrecord
280
     1
 90
        1
330
6A
  0
DICTIONARY
  5
40E
102
{ACAD_REACTORS
330
C
102
}
330
C
100
AcDbDictionary
281
     1
  3
CANNOSCALE
350
40F
  3
CENTEREXE
350
417
  3
CENTERLTYPEFILE
350
418
  3
CMLEADERSTYLE
350
414
  3
CTABLESTYLE
350
413
  0
LAYOUT
  5
1E
102
{ACAD_REACTORS
330
1A
102
}
330
1A
100
AcDbPlotSettings
  1

  2
none_device
  4

  6

 40
0.0
 41
0.0
 42
0.0
 43
0.0
 44
0.0
 45
0.0
 46
0.0
 47
0.0
 48
0.0
 49
0.0
140
0.0
141
0.0
142
1.0
143
1.0
 70
   688
 72
     1
 73
     0
 74
     5
  7

 75
    16
 76
     0
 77
     5
 78
   300
147
1.0
148
0.0
149
0.0
100
AcDbLayout
  1
Layout1
 70
     1
 71
     1
 10
0.0
 20
0.0
 11
420.0
 21
297.0
 12
0.0
 22
0.0
 32
0.0
 14
1.000000000000000E+20
 24
1.000000000000000E+20
 34
1.000000000000000E+20
 15
-1.000000000000000E+20
 25
-1.000000000000000E+20
 35
-1.000000000000000E+20
146
0.0
 13
0.0
 23
0.0
 33
0.0
 16
1.0
 26
0.0
 36
0.0
 17
0.0
 27
1.0
 37
0.0
 76
     0
330
1B
  0
LAYOUT
  5
26
102
{ACAD_REACTORS
330
1A
102
}
330
1A
100
AcDbPlotSettings
  1

  2
none_device
  4

  6

 40
0.0
 41
0.0
 42
0.0
 43
0.0
 44
0.0
 45
0.0
 46
0.0
 47
0.0
 48
0.0
 49
0.0
140
0.0
141
0.0
142
1.0
143
1.0
 70
   688
 72
     1
 73
     0
 74
     5
  7

 75
    16
 76
     0
 77
     5
 78
   300
147
1.0
148
0.0
149
0.0
100
AcDbLayout
  1
Layout2
 70
     1
 71
     2
 10
0.0
 20
0.0
 11
0.0
 21
0.0
 12
0.0
 22
0.0
 32
0.0
 14
0.0
 24
0.0
 34
0.0
 15
0.0
 25
0.0
 35
0.0
146
0.0
 13
0.0
 23
0.0
 33
0.0
 16
1.0
 26
0.0
 36
0.0
 17
0.0
 27
1.0
 37
0.0
 76
     0
330
23
  0
LAYOUT
  5
22
102
{ACAD_REACTORS
330
1A
102
}
330
1A
100
AcDbPlotSettings
  1

  2
none_device
  4
Letter_(8.50_x_11.00_Inches)
  6

 40
6.35
 41
6.35
 42
6.35000508
 43
6.35000508
 44
215.9
 45
279.4
 46
0.0
 47
0.0
 48
0.0
 49
0.0
140
0.0
141
0.0
142
1.0
143
1.0
 70
  1712
 72
     1
 73
     0
 74
     0
  7

 75
     0
 76
     0
 77
     5
 78
   300
147
1.0
148
0.0
149
0.0
100
AcDbLayout
  1
Model
 70
     1
 71
     0
 10
-1050.0
 20
-742.5
 11
1050.0
 21
742.5
 12
0.0
 22
0.0
 32
0.0
 14
-1050.0
 24
-742.5
 34
0.0
 15
1050.0
 25
742.5
 35
0.0
146
0.0
 13
0.0
 23
0.0
 33
0.0
 16
1.0
 26
0.0
 36
0.0
 17
0.0
 27
1.0
 37
0.0
 76
     0
330
1F
331
29
  0
MATERIAL
  5
45
102
{ACAD_REACTORS
330
43
102
}
330
43
100
AcDbMaterial
  1
ByBlock
 72
     1
 94
      127
  0
MATERIAL
  5
44
102
{ACAD_REACTORS
330
43
102
}
330
43
100
AcDbMaterial
  1
ByLayer
 72
     1
 94
      127
  0
MATERIAL
  5
46
102
{ACAD_REACTORS
330
43
102
}
330
43
100
AcDbMaterial
  1
Global
 72
     1
 94
      127
  0
MLEADERSTYLE
  5
6C
102
{ACAD_REACTORS
330
6B
102
}
330
6B
100
AcDbMLeaderStyle
179
     2
170
     2
171
     1
172
     0
 90
        2
 40
0.0
 41
0.0
173
     1
 91
-1056964608
340
14
 92
       -2
290
     1
 42
2.0
291
     1
 43
8.0
  3
Standard
341
0
 44
4.0
300

342
11
174
     1
178
     6
175
     1
176
     0
 93
-1056964608
 45
4.0
292
     0
297
     0
 46
4.0
343
0
 94
-1056964608
 47
1.0
 49
1.0
140
1.0
293
     1
141
0.0
294
     1
177
     0
142
1.0
295
     0
296
     0
143
3.75
271
     0
272
     9
273
     9
298
     0
  0
MLINESTYLE
  5
18
102
{ACAD_REACTORS
330
17
102
}
330
17
100
AcDbMlineStyle
  2
Standard
 70
     0
  3

 62
   256
 51
90.0
 52
90.0
 71
     2
 49
0.5
 62
   256
  6
BYLAYER
 49
-0.5
 62
   256
  6
BYLAYER
  0
ACDBPLACEHOLDER
  5
F
102
{ACAD_REACTORS
330
E
102
}
330
E
  0
SCALE
  5
48
102
{ACAD_REACTORS
330
47
102
}
330
47
100
AcDbScale
 70
     0
300
1:1
140
1.0
141
1.0
290
     1
  0
SCALE
  5
49
102
{ACAD_REACTORS
330
47
102
}
330
47
100
AcDbScale
 70
     0
300
1:2
140
1.0
141
2.0
290
     0
  0
SCALE
  5
4A
102
{ACAD_REACTORS
330
47
102
}
330
47
100
AcDbScale
 70
     0
300
1:4
140
1.0
141
4.0
290
     0
  0
SCALE
  5
4B
102
{ACAD_REACTORS
330
47
102
}
330
47
100
AcDbScale
 70
     0
300
1:5
140
1.0
141
5.0
290
     0
  0
SCALE
  5
4C
102
{ACAD_REACTORS
330
47
102
}
330
47
100
AcDbScale
 70
     0
300
1:8
140
1.0
141
8.0
290
     0
  0
SCALE
  5
4D
102
{ACAD_REACTORS
330
47
102
}
330
47
100
AcDbScale
 70
     0
300
1:10
140
1.0
141
10.0
290
     0
  0
SCALE
  5
4E
102
{ACAD_REACTORS
330
47
102
}
330
47
100
AcDbScale
 70
     0
300
1:16
140
1.0
141
16.0
290
     0
  0
SCALE
  5
4F
102
{ACAD_REACTORS
330
47
102
}
330
47
100
AcDbScale
 70
     0
300
1:20
140
1.0
141
20.0
290
     0
  0
SCALE
  5
50
102
{ACAD_REACTORS
330
47
102
}
330
47
100
AcDbScale
 70
     0
300
1:30
140
1.0
141
30.0
290
     0
  0
SCALE
  5
51
102
{ACAD_REACTORS
330
47
102
}
330
47
100
AcDbScale
 70
     0
300
1:40
140
1.0
141
40.0
290
     0
  0
SCALE
  5
52
102
{ACAD_REACTORS
330
47
102
}
330
47
100
AcDbScale
 70
     0
300
1:50
140
1.0
141
50.0
290
     0
  0
SCALE
  5
53
102
{ACAD_REACTORS
330
47
102
}
330
47
100
AcDbScale
 70
     0
300
1:100
140
1.0
141
100.0
290
     0
  0
SCALE
  5
54
102
{ACAD_REACTORS
330
47
102
}
330
47
100
AcDbScale
 70
     0
300
2:1
140
2.0
141
1.0
290
     0
  0
SCALE
  5
55
102
{ACAD_REACTORS
330
47
102
}
330
47
100
AcDbScale
 70
     0
300
4:1
140
4.0
141
1.0
290
     0
  0
SCALE
  5
56
102
{ACAD_REACTORS
330
47
102
}
330
47
100
AcDbScale
 70
     0
300
8:1
140
8.0
141
1.0
290
     0
  0
SCALE
  5
57
102
{ACAD_REACTORS
330
47
102
}
330
47
100
AcDbScale
 70
     0
300
10:1
140
10.0
141
1.0
290
     0
  0
SCALE
  5
58
102
{ACAD_REACTORS
330
47
102
}
330
47
100
AcDbScale
 70
     0
300
100:1
140
100.0
141
1.0
290
     0
  0
SCALE
  5
59
102
{ACAD_REACTORS
330
47
102
}
330
47
100
AcDbScale
 70
     0
300
1/128" = 1'-0"
140
0.0078125
141
12.0
290
     0
  0
SCALE
  5
5A
102
{ACAD_REACTORS
330
47
102
}
330
47
100
AcDbScale
 70
     0
300
1/64" = 1'-0"
140
0.015625
141
12.0
290
     0
  0
SCALE
  5
5B
102
{ACAD_REACTORS
330
47
102
}
330
47
100
AcDbScale
 70
     0
300
1/32" = 1'-0"
140
0.03125
141
12.0
290
     0
  0
SCALE
  5
5C
102
{ACAD_REACTORS
330
47
102
}
330
47
100
AcDbScale
 70
     0
300
1/16" = 1'-0"
140
0.0625
141
12.0
290
     0
  0
SCALE
  5
5D
102
{ACAD_REACTORS
330
47
102
}
330
47
100
AcDbScale
 70
     0
300
3/32" = 1'-0"
140
0.09375
141
12.0
290
     0
  0
SCALE
  5
5E
102
{ACAD_REACTORS
330
47
102
}
330
47
100
AcDbScale
 70
     0
300
1/8" = 1'-0"
140
0.125
141
12.0
290
     0
  0
SCALE
  5
5F
102
{ACAD_REACTORS
330
47
102
}
330
47
100
AcDbScale
 70
     0
300
3/16" = 1'-0"
140
0.1875
141
12.0
290
     0
  0
SCALE
  5
60
102
{ACAD_REACTORS
330
47
102
}
330
47
100
AcDbScale
 70
     0
300
1/4" = 1'-0"
140
0.25
141
12.0
290
     0
  0
SCALE
  5
61
102
{ACAD_REACTORS
330
47
102
}
330
47
100
AcDbScale
 70
     0
300
3/8" = 1'-0"
140
0.375
141
12.0
290
     0
  0
SCALE
  5
62
102
{ACAD_REACTORS
330
47
102
}
330
47
100
AcDbScale
 70
     0
300
1/2" = 1'-0"
140
0.5
141
12.0
290
     0
  0
SCALE
  5
63
102
{ACAD_REACTORS
330
47
102
}
330
47
100
AcDbScale
 70
     0
300
3/4" = 1'-0"
140
0.75
141
12.0
290
     0
  0
SCALE
  5
64
102
{ACAD_REACTORS
330
47
102
}
330
47
100
AcDbScale
 70
     0
300
1" = 1'-0"
140
1.0
141
12.0
290
     0
  0
SCALE
  5
65
102
{ACAD_REACTORS
330
47
102
}
330
47
100
AcDbScale
 70
     0
300
1-1/2" = 1'-0"
140
1.5
141
12.0
290
     0
  0
SCALE
  5
66
102
{ACAD_REACTORS
330
47
102
}
330
47
100
AcDbScale
 70
     0
300
3" = 1'-0"
140
3.0
141
12.0
290
     0
  0
SCALE
  5
67
102
{ACAD_REACTORS
330
47
102
}
330
47
100
AcDbScale
 70
     0
300
6" = 1'-0"
140
6.0
141
12.0
290
     0
  0
SCALE
  5
68
102
{ACAD_REACTORS
330
47
102
}
330
47
100
AcDbScale
 70
     0
300
1'-0" = 1'-0"
140
12.0
141
12.0
290
     0
  0
TABLESTYLE
  5
6A
102
{ACAD_REACTORS
330
69
102
}
102
{ACAD_XDICTIONARY
360
410
102
}
330
69
100
AcDbTableStyle
  3
Standard
 70
     0
 71
     0
 40
0.06
 41
0.06
280
     0
281
     0
  7
Standard
140
4.5
170
     2
 62
     0
 63
   257
283
     0
 90
        4
 91
        0
  1

274
    -2
284
     1
 64
     0
275
    -2
285
     1
 65
     0
276
    -2
286
     1
 66
     0
277
    -2
287
     1
 67
     0
278
    -2
288
     1
 68
     0
279
    -2
289
     1
 69
     0
  7
Standard
140
6.0
170
     5
 62
     0
 63
   257
283
     0
 90
        4
 91
        0
  1

274
    -2
284
     1
 64
     0
275
    -2
285
     1
 65
     0
276
    -2
286
     1
 66
     0
277
    -2
287
     1
 67
     0
278
    -2
288
     1
 68
     0
279
    -2
289
     1
 69
     0
  7
Standard
140
4.5
170
     5
 62
     0
 63
   257
283
     0
 90
        4
 91
        0
  1

274
    -2
284
     1
 64
     0
275
    -2
285
     1
 65
     0
276
    -2
286
     1
 66
     0
277
    -2
287
     1
 67
     0
278
    -2
288
     1
 68
     0
279
    -2
289
     1
 69
     0
  0
VISUALSTYLE
  5
2F
102
{ACAD_REACTORS
330
2A
102
}
330
2A
100
AcDbVisualStyle
  2
2dWireframe
 70
     4
177
     3
291
     0
 70
    58
 90
        0
176
     1
 90
        2
176
     1
 90
        0
176
     1
 90
        0
176
     1
 40
0.6
176
     1
 40
30.0
176
     1
 62
     7
420
 16777215
176
     1
 90
        1
176
     1
 90
        4
176
     1
 62
     7
176
     1
 62
   257
176
     1
 90
        1
176
     1
 90
        1
176
     1
 40
1.0
176
     1
 90
        0
176
     1
 62
   257
176
     1
 40
1.0
176
     1
 90
        1
176
     1
 90
        6
176
     1
 90
        2
176
     1
 62
     7
176
     1
 90
        5
176
     1
 90
        0
176
     1
 90
        0
176
     1
290
     0
176
     1
 90
        1
176
     1
 40
0.0
176
     1
 90
        0
176
     1
290
     1
176
     1
290
     1
176
     1
290
     0
176
     1
290
     0
176
     1
290
     0
176
     1
290
     0
176
     1
290
     0
176
     1
290
     0
176
     1
290
     0
176
     1
 90
       50
176
     1
 40
0.0
176
     1
 40
1.0
176
     1
 90
        0
176
     1
 62
    18
420
        0
176
     1
 90
       50
176
     1
 90
        3
176
     1
 62
     5
420
      255
176
     1
290
     0
176
     1
 90
       50
176
     1
 90
       50
176
     1
 90
       50
176
     1
290
     0
176
     1
 90
       50
176
     1
 62
   256
176
     0
 40
1.0
176
     0
 90
        2
176
     1
  1
strokes_ogs.tif
176
     1
290
     0
176
     1
 40
1.0
176
     1
 40
1.0
176
     1
  0
VISUALSTYLE
  5
32
102
{ACAD_REACTORS
330
2A
102
}
330
2A
100
AcDbVisualStyle
  2
Basic
 70
     7
177
     3
291
     1
 70
    58
 90
        1
176
     1
 90
        0
176
     1
 90
        1
176
     1
 90
        0
176
     1
 40
0.6
176
     1
 40
30.0
176
     1
 62
     7
420
 16777215
176
     1
 90
        0
176
     1
 90
        4
176
     1
 62
     7
176
     1
 62
   257
176
     1
 90
        1
176
     1
 90
        1
176
     1
 40
1.0
176
     1
 90
        8
176
     1
 62
     7
176
     1
 40
1.0
176
     1
 90
        1
176
     1
 90
        6
176
     1
 90
        2
176
     1
 62
     7
176
     1
 90
        5
176
     1
 90
        0
176
     1
 90
        0
176
     1
290
     0
176
     1
 90
        1
176
     1
 40
0.0
176
     1
 90
        0
176
     1
290
     0
176
     1
290
     1
176
     1
290
     1
176
     1
290
     0
176
     1
290
     0
176
     1
290
     0
176
     1
290
     0
176
     1
290
     0
176
     1
290
     0
176
     1
 90
       50
176
     1
 40
0.0
176
     1
 40
1.0
176
     1
 90
        0
176
     1
 62
    18
420
        0
176
     1
 90
       50
176
     1
 90
        3
176
     1
 62
     5
420
      255
176
     1
290
     0
176
     1
 90
       50
176
     1
 90
       50
176
     1
 90
       50
176
     1
290
     0
176
     1
 90
       50
176
     1
 62
   256
176
     0
 40
1.0
176
     0
 90
        2
176
     1
  1
strokes_ogs.tif
176
     1
290
     0
176
     1
 40
1.0
176
     1
 40
1.0
176
     1
  0
VISUALSTYLE
  5
36
102
{ACAD_REACTORS
330
2A
102
}
330
2A
100
AcDbVisualStyle
  2
Brighten
 70
    12
177
     3
291
     1
 70
    58
 90
        2
176
     1
 90
        2
176
     1
 90
        0
176
     1
 90
        0
176
     1
 40
0.6
176
     1
 40
30.0
176
     1
 62
     7
420
 16777215
176
     1
 90
        1
176
     1
 90
        4
176
     1
 62
     7
176
     1
 62
   257
176
     1
 90
        1
176
     1
 90
        1
176
     1
 40
1.0
176
     1
 90
        8
176
     1
 62
     7
176
     1
 40
1.0
176
     1
 90
        1
176
     1
 90
        6
176
     1
 90
        2
176
     1
 62
     7
176
     1
 90
        5
176
     1
 90
        0
176
     1
 90
        0
176
     1
290
     0
176
     1
 90
        1
176
     1
 40
50.0
176
     1
 90
        0
176
     1
290
     0
176
     1
290
     1
176
     1
290
     1
176
     1
290
     0
176
     1
290
     0
176
     1
290
     0
176
     1
290
     0
176
     1
290
     0
176
     1
290
     0
176
     1
 90
       50
176
     1
 40
0.0
176
     1
 40
1.0
176
     1
 90
        0
176
     1
 62
    18
420
        0
176
     1
 90
       50
176
     1
 90
        3
176
     1
 62
     5
420
      255
176
     1
290
     0
176
     1
 90
       50
176
     1
 90
       50
176
     1
 90
       50
176
     1
290
     0
176
     1
 90
       50
176
     1
 62
   256
176
     0
 40
1.0
176
     0
 90
        2
176
     1
  1
strokes_ogs.tif
176
     1
290
     0
176
     1
 40
1.0
176
     1
 40
1.0
176
     1
  0
VISUALSTYLE
  5
3A
102
{ACAD_REACTORS
330
2A
102
}
330
2A
100
AcDbVisualStyle
  2
ColorChange
 70
    16
177
     3
291
     1
 70
    58
 90
        2
176
     1
 90
        2
176
     1
 90
        3
176
     1
 90
        0
176
     1
 40
0.6
176
     1
 40
30.0
176
     1
 62
     8
420
  8421504
176
     1
 90
        1
176
     1
 90
        4
176
     1
 62
     7
176
     1
 62
   257
176
     1
 90
        1
176
     1
 90
        1
176
     1
 40
1.0
176
     1
 90
        8
176
     1
 62
     8
420
  8421504
176
     1
 40
1.0
176
     1
 90
        1
176
     1
 90
        6
176
     1
 90
        2
176
     1
 62
     7
176
     1
 90
        5
176
     1
 90
        0
176
     1
 90
        0
176
     1
290
     0
176
     1
 90
        1
176
     1
 40
0.0
176
     1
 90
        0
176
     1
290
     0
176
     1
290
     1
176
     1
290
     1
176
     1
290
     0
176
     1
290
     0
176
     1
290
     0
176
     1
290
     0
176
     1
290
     0
176
     1
290
     0
176
     1
 90
       50
176
     1
 40
0.0
176
     1
 40
1.0
176
     1
 90
        0
176
     1
 62
    18
420
        0
176
     1
 90
       50
176
     1
 90
        3
176
     1
 62
     5
420
      255
176
     1
290
     0
176
     1
 90
       50
176
     1
 90
       50
176
     1
 90
       50
176
     1
290
     0
176
     1
 90
       50
176
     1
 62
   256
176
     0
 40
1.0
176
     0
 90
        2
176
     1
  1
strokes_ogs.tif
176
     1
290
     0
176
     1
 40
1.0
176
     1
 40
1.0
176
     1
  0
VISUALSTYLE
  5
34
102
{ACAD_REACTORS
330
2A
102
}
330
2A
100
AcDbVisualStyle
  2
Conceptual
 70
     9
177
     3
291
     0
 70
    58
 90
        3
176
     1
 90
        2
176
     1
 90
        0
176
     1
 90
        0
176
     1
 40
0.6
176
     1
 40
30.0
176
     1
 62
     7
420
 16777215
176
     1
 90
        2
176
     1
 90
        2
176
     1
 62
     7
176
     1
 62
   257
176
     1
 90
        1
176
     1
 90
        1
176
     1
 40
179.0
176
     1
 90
        8
176
     1
 62
     7
176
     1
 40
1.0
176
     1
 90
        1
176
     1
 90
        6
176
     1
 90
        2
176
     1
 62
     7
176
     1
 90
        3
176
     1
 90
        0
176
     1
 90
        0
176
     1
290
     0
176
     1
 90
        1
176
     1
 40
0.0
176
     1
 90
        0
176
     1
290
     0
176
     1
290
     1
176
     1
290
     1
176
     1
290
     0
176
     1
290
     0
176
     1
290
     0
176
     1
290
     0
176
     1
290
     0
176
     1
290
     0
176
     1
 90
       50
176
     1
 40
0.0
176
     1
 40
1.0
176
     1
 90
        0
176
     1
 62
    18
420
        0
176
     1
 90
       50
176
     1
 90
        3
176
     1
 62
     5
420
      255
176
     1
290
     0
176
     1
 90
       50
176
     1
 90
       50
176
     1
 90
       50
176
     1
290
     0
176
     1
 90
       50
176
     1
 62
   256
176
     0
 40
1.0
176
     0
 90
        2
176
     1
  1
strokes_ogs.tif
176
     1
290
     0
176
     1
 40
1.0
176
     1
 40
1.0
176
     1
  0
VISUALSTYLE
  5
35
102
{ACAD_REACTORS
330
2A
102
}
330
2A
100
AcDbVisualStyle
  2
Dim
 70
    11
177
     3
291
     1
 70
    58
 90
        2
176
     1
 90
        2
176
     1
 90
        0
176
     1
 90
        0
176
     1
 40
0.6
176
     1
 40
30.0
176
     1
 62
     7
420
 16777215
176
     1
 90
        1
176
     1
 90
        4
176
     1
 62
     7
176
     1
 62
   257
176
     1
 90
        1
176
     1
 90
        1
176
     1
 40
1.0
176
     1
 90
        8
176
     1
 62
     7
176
     1
 40
1.0
176
     1
 90
        1
176
     1
 90
        6
176
     1
 90
        2
176
     1
 62
     7
176
     1
 90
        5
176
     1
 90
        0
176
     1
 90
        0
176
     1
290
     0
176
     1
 90
        1
176
     1
 40
-50.0
176
     1
 90
        0
176
     1
290
     0
176
     1
290
     1
176
     1
290
     1
176
     1
290
     0
176
     1
290
     0
176
     1
290
     0
176
     1
290
     0
176
     1
290
     0
176
     1
290
     0
176
     1
 90
       50
176
     1
 40
0.0
176
     1
 40
1.0
176
     1
 90
        0
176
     1
 62
    18
420
        0
176
     1
 90
       50
176
     1
 90
        3
176
     1
 62
     5
420
      255
176
     1
290
     0
176
     1
 90
       50
176
     1
 90
       50
176
     1
 90
       50
176
     1
290
     0
176
     1
 90
       50
176
     1
 62
   256
176
     0
 40
1.0
176
     0
 90
        2
176
     1
  1
strokes_ogs.tif
176
     1
290
     0
176
     1
 40
1.0
176
     1
 40
1.0
176
     1
  0
VISUALSTYLE
  5
3D
102
{ACAD_REACTORS
330
2A
102
}
330
2A
100
AcDbVisualStyle
  2
EdgeColorOff
 70
    22
177
     3
291
     1
 70
    58
 90
        2
176
     0
 90
        2
176
     0
 90
        0
176
     0
 90
        0
176
     0
 40
0.6
176
     0
 40
30.0
176
     0
 62
     7
420
 16777215
176
     0
 90
        1
176
     0
 90
        4
176
     0
 62
     7
176
     0
 62
   257
176
     0
 90
        1
176
     0
 90
        1
176
     0
 40
1.0
176
     0
 90
        8
176
     2
 62
     7
176
     0
 40
1.0
176
     0
 90
        1
176
     0
 90
        6
176
     0
 90
        2
176
     0
 62
     7
176
     0
 90
        5
176
     0
 90
        0
176
     0
 90
        0
176
     0
290
     0
176
     0
 90
        1
176
     0
 40
0.0
176
     0
 90
        0
176
     0
290
     0
176
     0
290
     1
176
     0
290
     1
176
     0
290
     0
176
     0
290
     0
176
     0
290
     0
176
     0
290
     0
176
     0
290
     0
176
     0
290
     0
176
     0
 90
       50
176
     0
 40
0.0
176
     0
 40
1.0
176
     0
 90
        0
176
     0
 62
    18
420
        0
176
     0
 90
       50
176
     0
 90
        3
176
     0
 62
     5
420
      255
176
     0
290
     0
176
     0
 90
       50
176
     0
 90
       50
176
     0
 90
       50
176
     0
290
     0
176
     0
 90
       50
176
     0
 62
   256
176
     0
 40
1.0
176
     0
 90
        2
176
     0
  1
strokes_ogs.tif
176
     0
290
     0
176
     0
 40
1.0
176
     0
 40
1.0
176
     0
  0
VISUALSTYLE
  5
39
102
{ACAD_REACTORS
330
2A
102
}
330
2A
100
AcDbVisualStyle
  2
Facepattern
 70
    15
177
     3
291
     1
 70
    58
 90
        2
176
     1
 90
        2
176
     1
 90
        0
176
     1
 90
        0
176
     1
 40
0.6
176
     1
 40
30.0
176
     1
 62
     7
420
 16777215
176
     1
 90
        1
176
     1
 90
        4
176
     1
 62
     7
176
     1
 62
   257
176
     1
 90
        1
176
     1
 90
        1
176
     1
 40
1.0
176
     1
 90
        8
176
     1
 62
     7
176
     1
 40
1.0
176
     1
 90
        1
176
     1
 90
        6
176
     1
 90
        2
176
     1
 62
     7
176
     1
 90
        5
176
     1
 90
        0
176
     1
 90
        0
176
     1
290
     0
176
     1
 90
        1
176
     1
 40
0.0
176
     1
 90
        0
176
     1
290
     0
176
     1
290
     1
176
     1
290
     1
176
     1
290
     0
176
     1
290
     0
176
     1
290
     0
176
     1
290
     0
176
     1
290
     0
176
     1
290
     0
176
     1
 90
       50
176
     1
 40
0.0
176
     1
 40
1.0
176
     1
 90
        0
176
     1
 62
    18
420
        0
176
     1
 90
       50
176
     1
 90
        3
176
     1
 62
     5
420
      255
176
     1
290
     0
176
     1
 90
       50
176
     1
 90
       50
176
     1
 90
       50
176
     1
290
     0
176
     1
 90
       50
176
     1
 62
   256
176
     0
 40
1.0
176
     0
 90
        2
176
     1
  1
strokes_ogs.tif
176
     1
290
     0
176
     1
 40
1.0
176
     1
 40
1.0
176
     1
  0
VISUALSTYLE
  5
2B
102
{ACAD_REACTORS
330
2A
102
}
330
2A
100
AcDbVisualStyle
  2
Flat
 70
     0
177
     3
291
     1
 70
    58
 90
        2
176
     1
 90
        1
176
     1
 90
        1
176
     1
 90
        2
176
     1
 40
0.6
176
     1
 40
30.0
176
     1
 62
     7
420
 16777215
176
     1
 90
        0
176
     1
 90
        0
176
     1
 62
     7
176
     1
 62
   257
176
     1
 90
        1
176
     1
 90
        1
176
     1
 40
1.0
176
     1
 90
        8
176
     1
 62
     7
176
     1
 40
1.0
176
     1
 90
        1
176
     1
 90
        6
176
     1
 90
        2
176
     1
 62
     7
176
     1
 90
        5
176
     1
 90
        0
176
     1
 90
        0
176
     1
290
     0
176
     1
 90
       13
176
     1
 40
0.0
176
     1
 90
        0
176
     1
290
     0
176
     1
290
     1
176
     1
290
     1
176
     1
290
     0
176
     1
290
     0
176
     1
290
     0
176
     1
290
     0
176
     1
290
     0
176
     1
290
     0
176
     1
 90
       50
176
     1
 40
0.0
176
     1
 40
1.0
176
     1
 90
        0
176
     1
 62
    18
420
        0
176
     1
 90
       50
176
     1
 90
        3
176
     1
 62
     5
420
      255
176
     1
290
     0
176
     1
 90
       50
176
     1
 90
       50
176
     1
 90
       50
176
     1
290
     0
176
     1
 90
       50
176
     1
 62
   256
176
     0
 40
1.0
176
     0
 90
        2
176
     1
  1
strokes_ogs.tif
176
     1
290
     0
176
     1
 40
1.0
176
     1
 40
1.0
176
     1
  0
VISUALSTYLE
  5
2C
102
{ACAD_REACTORS
330
2A
102
}
330
2A
100
AcDbVisualStyle
  2
FlatWithEdges
 70
     1
177
     3
291
     1
 70
    58
 90
        2
176
     1
 90
        1
176
     1
 90
        1
176
     1
 90
        2
176
     1
 40
0.6
176
     1
 40
30.0
176
     1
 62
     7
420
 16777215
176
     1
 90
        1
176
     1
 90
        0
176
     1
 62
     7
176
     1
 62
   257
176
     1
 90
        1
176
     1
 90
        1
176
     1
 40
1.0
176
     1
 90
        0
176
     1
 62
   257
176
     1
 40
1.0
176
     1
 90
        1
176
     1
 90
        6
176
     1
 90
        2
176
     1
 62
     7
176
     1
 90
        5
176
     1
 90
        0
176
     1
 90
        0
176
     1
290
     0
176
     1
 90
       13
176
     1
 40
0.0
176
     1
 90
        0
176
     1
290
     0
176
     1
290
     1
176
     1
290
     1
176
     1
290
     0
176
     1
290
     0
176
     1
290
     0
176
     1
290
     0
176
     1
290
     0
176
     1
290
     0
176
     1
 90
       50
176
     1
 40
0.0
176
     1
 40
1.0
176
     1
 90
        0
176
     1
 62
    18
420
        0
176
     1
 90
       50
176
     1
 90
        3
176
     1
 62
     5
420
      255
176
     1
290
     0
176
     1
 90
       50
176
     1
 90
       50
176
     1
 90
       50
176
     1
290
     0
176
     1
 90
       50
176
     1
 62
   256
176
     0
 40
1.0
176
     0
 90
        2
176
     1
  1
strokes_ogs.tif
176
     1
290
     0
176
     1
 40
1.0
176
     1
 40
1.0
176
     1
  0
VISUALSTYLE
  5
2D
102
{ACAD_REACTORS
330
2A
102
}
330
2A
100
AcDbVisualStyle
  2
Gouraud
 70
     2
177
     3
291
     1
 70
    58
 90
        2
176
     1
 90
        2
176
     1
 90
        1
176
     1
 90
        2
176
     1
 40
0.6
176
     1
 40
30.0
176
     1
 62
     7
420
 16777215
176
     1
 90
        0
176
     1
 90
        0
176
     1
 62
     7
176
     1
 62
   257
176
     1
 90
        1
176
     1
 90
        1
176
     1
 40
1.0
176
     1
 90
        0
176
     1
 62
     7
176
     1
 40
1.0
176
     1
 90
        1
176
     1
 90
        6
176
     1
 90
        2
176
     1
 62
     7
176
     1
 90
        5
176
     1
 90
        0
176
     1
 90
        0
176
     1
290
     0
176
     1
 90
       13
176
     1
 40
0.0
176
     1
 90
        0
176
     1
290
     0
176
     1
290
     1
176
     1
290
     1
176
     1
290
     0
176
     1
290
     0
176
     1
290
     0
176
     1
290
     0
176
     1
290
     0
176
     1
290
     0
176
     1
 90
       50
176
     1
 40
0.0
176
     1
 40
1.0
176
     1
 90
        0
176
     1
 62
    18
420
        0
176
     1
 90
       50
176
     1
 90
        3
176
     1
 62
     5
420
      255
176
     1
290
     0
176
     1
 90
       50
176
     1
 90
       50
176
     1
 90
       50
176
     1
290
     0
176
     1
 90
       50
176
     1
 62
   256
176
     0
 40
1.0
176
     0
 90
        2
176
     1
  1
strokes_ogs.tif
176
     1
290
     0
176
     1
 40
1.0
176
     1
 40
1.0
176
     1
  0
VISUALSTYLE
  5
2E
102
{ACAD_REACTORS
330
2A
102
}
330
2A
100
AcDbVisualStyle
  2
GouraudWithEdges
 70
     3
177
     3
291
     1
 70
    58
 90
        2
176
     1
 90
        2
176
     1
 90
        1
176
     1
 90
        2
176
     1
 40
0.6
176
     1
 40
30.0
176
     1
 62
     7
420
 16777215
176
     1
 90
        1
176
     1
 90
        0
176
     1
 62
     7
176
     1
 62
   257
176
     1
 90
        1
176
     1
 90
        1
176
     1
 40
1.0
176
     1
 90
        0
176
     1
 62
   257
176
     1
 40
1.0
176
     1
 90
        1
176
     1
 90
        6
176
     1
 90
        2
176
     1
 62
     7
176
     1
 90
        5
176
     1
 90
        0
176
     1
 90
        0
176
     1
290
     0
176
     1
 90
       13
176
     1
 40
0.0
176
     1
 90
        0
176
     1
290
     0
176
     1
290
     1
176
     1
290
     1
176
     1
290
     0
176
     1
290
     0
176
     1
290
     0
176
     1
290
     0
176
     1
290
     0
176
     1
290
     0
176
     1
 90
       50
176
     1
 40
0.0
176
     1
 40
1.0
176
     1
 90
        0
176
     1
 62
    18
420
        0
176
     1
 90
       50
176
     1
 90
        3
176
     1
 62
     5
420
      255
176
     1
290
     0
176
     1
 90
       50
176
     1
 90
       50
176
     1
 90
       50
176
     1
290
     0
176
     1
 90
       50
176
     1
 62
   256
176
     0
 40
1.0
176
     0
 90
        2
176
     1
  1
strokes_ogs.tif
176
     1
290
     0
176
     1
 40
1.0
176
     1
 40
1.0
176
     1
  0
VISUALSTYLE
  5
31
102
{ACAD_REACTORS
330
2A
102
}
330
2A
100
AcDbVisualStyle
  2
Hidden
 70
     6
177
     3
291
     0
 70
    58
 90
        1
176
     1
 90
        2
176
     1
 90
        2
176
     1
 90
        0
176
     1
 40
0.6
176
     1
 40
30.0
176
     1
 62
     7
420
 16777215
176
     1
 90
        2
176
     1
 90
        2
176
     1
 62
     7
176
     1
 62
   257
176
     1
 90
        2
176
     1
 90
        1
176
     1
 40
40.0
176
     1
 90
        0
176
     1
 62
   257
176
     1
 40
1.0
176
     1
 90
        1
176
     1
 90
        6
176
     1
 90
        2
176
     1
 62
     7
176
     1
 90
        3
176
     1
 90
        0
176
     1
 90
        0
176
     1
290
     0
176
     1
 90
        1
176
     1
 40
0.0
176
     1
 90
        0
176
     1
290
     0
176
     1
290
     1
176
     1
290
     1
176
     1
290
     0
176
     1
290
     0
176
     1
290
     0
176
     1
290
     0
176
     1
290
     0
176
     1
290
     0
176
     1
 90
       50
176
     1
 40
0.0
176
     1
 40
1.0
176
     1
 90
        0
176
     1
 62
    18
420
        0
176
     1
 90
       50
176
     1
 90
        3
176
     1
 62
     5
420
      255
176
     1
290
     0
176
     1
 90
       50
176
     1
 90
       50
176
     1
 90
       50
176
     1
290
     0
176
     1
 90
       50
176
     1
 62
   256
176
     0
 40
1.0
176
     0
 90
        2
176
     1
  1
strokes_ogs.tif
176
     1
290
     0
176
     1
 40
1.0
176
     1
 40
1.0
176
     1
  0
VISUALSTYLE
  5
3B
102
{ACAD_REACTORS
330
2A
102
}
330
2A
100
AcDbVisualStyle
  2
JitterOff
 70
    20
177
     3
291
     1
 70
    58
 90
        2
176
     0
 90
        2
176
     0
 90
        0
176
     0
 90
        0
176
     0
 40
0.6
176
     0
 40
30.0
176
     0
 62
     7
420
 16777215
176
     0
 90
        1
176
     0
 90
        4
176
     0
 62
     7
176
     0
 62
   257
176
     0
 90
        1
176
     0
 90
        1
176
     0
 40
1.0
176
     0
 90
       10
176
     2
 62
     7
176
     0
 40
1.0
176
     0
 90
        1
176
     0
 90
        6
176
     0
 90
        2
176
     0
 62
     7
176
     0
 90
        5
176
     0
 90
        0
176
     0
 90
        0
176
     0
290
     0
176
     0
 90
        1
176
     0
 40
0.0
176
     0
 90
        0
176
     0
290
     0
176
     0
290
     1
176
     0
290
     1
176
     0
290
     0
176
     0
290
     0
176
     0
290
     0
176
     0
290
     0
176
     0
290
     0
176
     0
290
     0
176
     0
 90
       50
176
     0
 40
0.0
176
     0
 40
1.0
176
     0
 90
        0
176
     0
 62
    18
420
        0
176
     0
 90
       50
176
     0
 90
        3
176
     0
 62
     5
420
      255
176
     0
290
     0
176
     0
 90
       50
176
     0
 90
       50
176
     0
 90
       50
176
     0
290
     0
176
     0
 90
       50
176
     0
 62
   256
176
     0
 40
1.0
176
     0
 90
        2
176
     0
  1
strokes_ogs.tif
176
     0
290
     0
176
     0
 40
1.0
176
     0
 40
1.0
176
     0
  0
VISUALSTYLE
  5
38
102
{ACAD_REACTORS
330
2A
102
}
330
2A
100
AcDbVisualStyle
  2
Linepattern
 70
    14
177
     3
291
     1
 70
    58
 90
        2
176
     1
 90
        2
176
     1
 90
        0
176
     1
 90
        0
176
     1
 40
0.6
176
     1
 40
30.0
176
     1
 62
     7
420
 16777215
176
     1
 90
        1
176
     1
 90
        4
176
     1
 62
     7
176
     1
 62
   257
176
     1
 90
        7
176
     1
 90
        7
176
     1
 40
1.0
176
     1
 90
        8
176
     1
 62
     7
176
     1
 40
1.0
176
     1
 90
        1
176
     1
 90
        6
176
     1
 90
        2
176
     1
 62
     7
176
     1
 90
        5
176
     1
 90
        0
176
     1
 90
        0
176
     1
290
     0
176
     1
 90
        1
176
     1
 40
0.0
176
     1
 90
        0
176
     1
290
     0
176
     1
290
     1
176
     1
290
     1
176
     1
290
     0
176
     1
290
     0
176
     1
290
     0
176
     1
290
     0
176
     1
290
     0
176
     1
290
     0
176
     1
 90
       50
176
     1
 40
0.0
176
     1
 40
1.0
176
     1
 90
        0
176
     1
 62
    18
420
        0
176
     1
 90
       50
176
     1
 90
        3
176
     1
 62
     5
420
      255
176
     1
290
     0
176
     1
 90
       50
176
     1
 90
       50
176
     1
 90
       50
176
     1
290
     0
176
     1
 90
       50
176
     1
 62
   256
176
     0
 40
1.0
176
     0
 90
        2
176
     1
  1
strokes_ogs.tif
176
     1
290
     0
176
     1
 40
1.0
176
     1
 40
1.0
176
     1
  0
VISUALSTYLE
  5
3C
102
{ACAD_REACTORS
330
2A
102
}
330
2A
100
AcDbVisualStyle
  2
OverhangOff
 70
    21
177
     3
291
     1
 70
    58
 90
        2
176
     0
 90
        2
176
     0
 90
        0
176
     0
 90
        0
176
     0
 40
0.6
176
     0
 40
30.0
176
     0
 62
     7
420
 16777215
176
     0
 90
        1
176
     0
 90
        4
176
     0
 62
     7
176
     0
 62
   257
176
     0
 90
        1
176
     0
 90
        1
176
     0
 40
1.0
176
     0
 90
        9
176
     2
 62
     7
176
     0
 40
1.0
176
     0
 90
        1
176
     0
 90
        6
176
     0
 90
        2
176
     0
 62
     7
176
     0
 90
        5
176
     0
 90
        0
176
     0
 90
        0
176
     0
290
     0
176
     0
 90
        1
176
     0
 40
0.0
176
     0
 90
        0
176
     0
290
     0
176
     0
290
     1
176
     0
290
     1
176
     0
290
     0
176
     0
290
     0
176
     0
290
     0
176
     0
290
     0
176
     0
290
     0
176
     0
290
     0
176
     0
 90
       50
176
     0
 40
0.0
176
     0
 40
1.0
176
     0
 90
        0
176
     0
 62
    18
420
        0
176
     0
 90
       50
176
     0
 90
        3
176
     0
 62
     5
420
      255
176
     0
290
     0
176
     0
 90
       50
176
     0
 90
       50
176
     0
 90
       50
176
     0
290
     0
176
     0
 90
       50
176
     0
 62
   256
176
     0
 40
1.0
176
     0
 90
        2
176
     0
  1
strokes_ogs.tif
176
     0
290
     0
176
     0
 40
1.0
176
     0
 40
1.0
176
     0
  0
VISUALSTYLE
  5
33
102
{ACAD_REACTORS
330
2A
102
}
330
2A
100
AcDbVisualStyle
  2
Realistic
 70
     8
177
     3
291
     0
 70
    58
 90
        2
176
     1
 90
        3
176
     1
 90
        0
176
     1
 90
        2
176
     1
 40
0.6
176
     1
 40
30.0
176
     1
 62
     7
420
 16777215
176
     1
 90
        0
176
     1
 90
        0
176
     1
 62
     7
176
     1
 62
   257
176
     1
 90
        1
176
     1
 90
        1
176
     1
 40
1.0
176
     1
 90
        8
176
     1
 62
   257
176
     1
 40
1.0
176
     1
 90
        1
176
     1
 90
        6
176
     1
 90
        2
176
     1
 62
     7
176
     1
 90
        3
176
     1
 90
        0
176
     1
 90
        0
176
     1
290
     0
176
     1
 90
       13
176
     1
 40
0.0
176
     1
 90
        0
176
     1
290
     0
176
     1
290
     1
176
     1
290
     1
176
     1
290
     0
176
     1
290
     0
176
     1
290
     0
176
     1
290
     0
176
     1
290
     0
176
     1
290
     0
176
     1
 90
       50
176
     1
 40
0.0
176
     1
 40
1.0
176
     1
 90
        0
176
     1
 62
    18
420
        0
176
     1
 90
       50
176
     1
 90
        3
176
     1
 62
     5
420
      255
176
     1
290
     0
176
     1
 90
       50
176
     1
 90
       50
176
     1
 90
       50
176
     1
290
     0
176
     1
 90
       50
176
     1
 62
   256
176
     0
 40
1.0
176
     0
 90
        2
176
     1
  1
strokes_ogs.tif
176
     1
290
     0
176
     1
 40
1.0
176
     1
 40
1.0
176
     1
  0
VISUALSTYLE
  5
42
102
{ACAD_REACTORS
330
2A
102
}
330
2A
100
AcDbVisualStyle
  2
Shaded
 70
    27
177
     3
291
     0
 70
    58
 90
        2
176
     1
 90
        2
176
     1
 90
        1
176
     1
 90
        2
176
     1
 40
0.6
176
     1
 40
30.0
176
     1
 62
     7
420
 16777215
176
     1
 90
        0
176
     1
 90
        4
176
     1
 62
     7
176
     1
 62
   257
176
     1
 90
        1
176
     1
 90
        1
176
     1
 40
1.0
176
     1
 90
        8
176
     1
 62
   257
176
     1
 40
1.0
176
     1
 90
        1
176
     1
 90
        6
176
     1
 90
        2
176
     1
 62
     8
420
  7895160
176
     1
 90
        3
176
     1
 90
        0
176
     1
 90
        0
176
     1
290
     0
176
     1
 90
        5
176
     1
 40
0.0
176
     1
 90
        0
176
     1
290
     0
176
     1
290
     1
176
     1
290
     1
176
     1
290
     0
176
     1
290
     0
176
     1
290
     0
176
     1
290
     0
176
     1
290
     0
176
     1
290
     0
176
     1
 90
       50
176
     1
 40
0.0
176
     1
 40
1.0
176
     1
 90
        0
176
     1
 62
    18
420
        0
176
     1
 90
       50
176
     1
 90
        3
176
     1
 62
     5
420
      255
176
     1
290
     0
176
     1
 90
       50
176
     1
 90
       50
176
     1
 90
       50
176
     1
290
     0
176
     1
 90
       50
176
     1
 62
   256
176
     0
 40
1.0
176
     0
 90
        2
176
     1
  1
strokes_ogs.tif
176
     1
290
     0
176
     1
 40
1.0
176
     1
 40
1.0
176
     1
  0
VISUALSTYLE
  5
41
102
{ACAD_REACTORS
330
2A
102
}
330
2A
100
AcDbVisualStyle
  2
Shaded with edges
 70
    26
177
     3
291
     0
 70
    58
 90
        2
176
     1
 90
        2
176
     1
 90
        1
176
     1
 90
        2
176
     1
 40
0.6
176
     1
 40
30.0
176
     1
 62
     7
420
 16777215
176
     1
 90
        1
176
     1
 90
       10
176
     1
 62
     7
176
     1
 62
   257
176
     1
 90
        2
176
     1
 90
        1
176
     1
 40
1.0
176
     1
 90
        8
176
     1
 62
   257
176
     1
 40
1.0
176
     1
 90
        1
176
     1
 90
        6
176
     1
 90
        2
176
     1
 62
     7
176
     1
 90
        3
176
     1
 90
        0
176
     1
 90
        0
176
     1
290
     0
176
     1
 90
        5
176
     1
 40
0.0
176
     1
 90
        0
176
     1
290
     0
176
     1
290
     1
176
     1
290
     1
176
     1
290
     0
176
     1
290
     0
176
     1
290
     0
176
     1
290
     0
176
     1
290
     0
176
     1
290
     0
176
     1
 90
       50
176
     1
 40
0.0
176
     1
 40
1.0
176
     1
 90
        0
176
     1
 62
    18
420
        0
176
     1
 90
       50
176
     1
 90
        3
176
     1
 62
     5
420
      255
176
     1
290
     0
176
     1
 90
       50
176
     1
 90
       50
176
     1
 90
       50
176
     1
290
     0
176
     1
 90
       50
176
     1
 62
   256
176
     0
 40
1.0
176
     0
 90
        2
176
     1
  1
strokes_ogs.tif
176
     1
290
     0
176
     1
 40
1.0
176
     1
 40
1.0
176
     1
  0
VISUALSTYLE
  5
3E
102
{ACAD_REACTORS
330
2A
102
}
330
2A
100
AcDbVisualStyle
  2
Shades of Gray
 70
    23
177
     3
291
     0
 70
    58
 90
        2
176
     1
 90
        2
176
     1
 90
        3
176
     1
 90
        0
176
     1
 40
0.6
176
     1
 40
30.0
176
     1
 62
     7
420
 16777215
176
     1
 90
        2
176
     1
 90
        2
176
     1
 62
     7
176
     1
 62
     7
176
     1
 90
        1
176
     1
 90
        1
176
     1
 40
40.0
176
     1
 90
        8
176
     1
 62
     7
176
     1
 40
1.0
176
     1
 90
        1
176
     1
 90
        6
176
     1
 90
        2
176
     1
 62
     7
176
     1
 90
        3
176
     1
 90
        0
176
     1
 90
        0
176
     1
290
     0
176
     1
 90
        1
176
     1
 40
0.0
176
     1
 90
        0
176
     1
290
     0
176
     1
290
     1
176
     1
290
     1
176
     1
290
     0
176
     1
290
     0
176
     1
290
     0
176
     1
290
     0
176
     1
290
     0
176
     1
290
     0
176
     1
 90
       50
176
     1
 40
0.0
176
     1
 40
1.0
176
     1
 90
        0
176
     1
 62
    18
420
        0
176
     1
 90
       50
176
     1
 90
        3
176
     1
 62
     5
420
      255
176
     1
290
     0
176
     1
 90
       50
176
     1
 90
       50
176
     1
 90
       50
176
     1
290
     0
176
     1
 90
       50
176
     1
 62
   256
176
     0
 40
1.0
176
     0
 90
        2
176
     1
  1
strokes_ogs.tif
176
     1
290
     0
176
     1
 40
1.0
176
     1
 40
1.0
176
     1
  0
VISUALSTYLE
  5
3F
102
{ACAD_REACTORS
330
2A
102
}
330
2A
100
AcDbVisualStyle
  2
Sketchy
 70
    24
177
     3
291
     0
 70
    58
 90
        1
176
     1
 90
        2
176
     1
 90
        2
176
     1
 90
        0
176
     1
 40
0.6
176
     1
 40
30.0
176
     1
 62
     7
420
 16777215
176
     1
 90
        2
176
     1
 90
        2
176
     1
 62
     7
176
     1
 62
     7
176
     1
 90
        1
176
     1
 90
        1
176
     1
 40
40.0
176
     1
 90
       11
176
     1
 62
     7
176
     1
 40
1.0
176
     1
 90
        1
176
     1
 90
        6
176
     1
 90
        2
176
     1
 62
     7
176
     1
 90
        6
176
     1
 90
        0
176
     1
 90
        0
176
     1
290
     0
176
     1
 90
        1
176
     1
 40
0.0
176
     1
 90
        0
176
     1
290
     0
176
     1
290
     1
176
     1
290
     1
176
     1
290
     0
176
     1
290
     0
176
     1
290
     0
176
     1
290
     0
176
     1
290
     0
176
     1
290
     0
176
     1
 90
       50
176
     1
 40
0.0
176
     1
 40
1.0
176
     1
 90
        0
176
     1
 62
    18
420
        0
176
     1
 90
       50
176
     1
 90
        3
176
     1
 62
     5
420
      255
176
     1
290
     0
176
     1
 90
       50
176
     1
 90
       50
176
     1
 90
       50
176
     1
290
     0
176
     1
 90
       50
176
     1
 62
   256
176
     0
 40
1.0
176
     0
 90
        2
176
     1
  1
strokes_ogs.tif
176
     1
290
     0
176
     1
 40
1.0
176
     1
 40
1.0
176
     1
  0
VISUALSTYLE
  5
37
102
{ACAD_REACTORS
330
2A
102
}
330
2A
100
AcDbVisualStyle
  2
Thicken
 70
    13
177
     3
291
     1
 70
    58
 90
        2
176
     1
 90
        2
176
     1
 90
        0
176
     1
 90
        0
176
     1
 40
0.6
176
     1
 40
30.0
176
     1
 62
     7
420
 16777215
176
     1
 90
        1
176
     1
 90
        4
176
     1
 62
     7
176
     1
 62
   257
176
     1
 90
        1
176
     1
 90
        1
176
     1
 40
1.0
176
     1
 90
       12
176
     1
 62
     7
176
     1
 40
1.0
176
     1
 90
        1
176
     1
 90
        6
176
     1
 90
        2
176
     1
 62
     7
176
     1
 90
        5
176
     1
 90
        0
176
     1
 90
        0
176
     1
290
     0
176
     1
 90
        1
176
     1
 40
0.0
176
     1
 90
        0
176
     1
290
     0
176
     1
290
     1
176
     1
290
     1
176
     1
290
     0
176
     1
290
     0
176
     1
290
     0
176
     1
290
     0
176
     1
290
     0
176
     1
290
     0
176
     1
 90
       50
176
     1
 40
0.0
176
     1
 40
1.0
176
     1
 90
        0
176
     1
 62
    18
420
        0
176
     1
 90
       50
176
     1
 90
        3
176
     1
 62
     5
420
      255
176
     1
290
     0
176
     1
 90
       50
176
     1
 90
       50
176
     1
 90
       50
176
     1
290
     0
176
     1
 90
       50
176
     1
 62
   256
176
     0
 40
1.0
176
     0
 90
        2
176
     1
  1
strokes_ogs.tif
176
     1
290
     0
176
     1
 40
1.0
176
     1
 40
1.0
176
     1
  0
VISUALSTYLE
  5
30
102
{ACAD_REACTORS
330
2A
102
}
330
2A
100
AcDbVisualStyle
  2
Wireframe
 70
     5
177
     3
291
     0
 70
    58
 90
        0
176
     1
 90
        2
176
     1
 90
        0
176
     1
 90
        0
176
     1
 40
0.6
176
     1
 40
30.0
176
     1
 62
     7
420
 16777215
176
     1
 90
        1
176
     1
 90
        4
176
     1
 62
     7
176
     1
 62
   257
176
     1
 90
        1
176
     1
 90
        1
176
     1
 40
1.0
176
     1
 90
        0
176
     1
 62
   257
176
     1
 40
1.0
176
     1
 90
        1
176
     1
 90
        6
176
     1
 90
        2
176
     1
 62
     7
176
     1
 90
        3
176
     1
 90
        0
176
     1
 90
        0
176
     1
290
     0
176
     1
 90
        1
176
     1
 40
0.0
176
     1
 90
        0
176
     1
290
     0
176
     1
290
     1
176
     1
290
     1
176
     1
290
     0
176
     1
290
     0
176
     1
290
     0
176
     1
290
     0
176
     1
290
     0
176
     1
290
     0
176
     1
 90
       50
176
     1
 40
0.0
176
     1
 40
1.0
176
     1
 90
        0
176
     1
 62
    18
420
        0
176
     1
 90
       50
176
     1
 90
        3
176
     1
 62
     5
420
      255
176
     1
290
     0
176
     1
 90
       50
176
     1
 90
       50
176
     1
 90
       50
176
     1
290
     0
176
     1
 90
       50
176
     1
 62
   256
176
     0
 40
1.0
176
     0
 90
        2
176
     1
  1
strokes_ogs.tif
176
     1
290
     0
176
     1
 40
1.0
176
     1
 40
1.0
176
     1
  0
VISUALSTYLE
  5
40
102
{ACAD_REACTORS
330
2A
102
}
330
2A
100
AcDbVisualStyle
  2
X-Ray
 70
    25
177
     3
291
     0
 70
    58
 90
        2
176
     1
 90
        2
176
     1
 90
        1
176
     1
 90
        1
176
     1
 40
0.5
176
     1
 40
30.0
176
     1
 62
     7
420
 16777215
176
     1
 90
        1
176
     1
 90
        0
176
     1
 62
     7
176
     1
 62
   257
176
     1
 90
        1
176
     1
 90
        1
176
     1
 40
1.0
176
     1
 90
        8
176
     1
 62
     7
176
     1
 40
1.0
176
     1
 90
        1
176
     1
 90
        6
176
     1
 90
        2
176
     1
 62
     7
176
     1
 90
        3
176
     1
 90
        0
176
     1
 90
        0
176
     1
290
     0
176
     1
 90
       13
176
     1
 40
0.0
176
     1
 90
        0
176
     1
290
     0
176
     1
290
     1
176
     1
290
     1
176
     1
290
     0
176
     1
290
     0
176
     1
290
     0
176
     1
290
     0
176
     1
290
     0
176
     1
290
     0
176
     1
 90
       50
176
     1
 40
0.0
176
     1
 40
1.0
176
     1
 90
        0
176
     1
 62
    18
420
        0
176
     1
 90
       50
176
     1
 90
        3
176
     1
 62
     5
420
      255
176
     1
290
     0
176
     1
 90
       50
176
     1
 90
       50
176
     1
 90
       50
176
     1
290
     0
176
     1
 90
       50
176
     1
 62
   256
176
     0
 40
1.0
176
     0
 90
        2
176
     1
  1
strokes_ogs.tif
176
     1
290
     0
176
     1
 40
1.0
176
     1
 40
1.0
176
     1
  0
DICTIONARYVAR
  5
40F
102
{ACAD_REACTORS
330
40E
102
}
330
40E
100
DictionaryVariables
280
     0
  1
1:1
  0
DICTIONARYVAR
  5
417
102
{ACAD_REACTORS
330
40E
102
}
330
40E
100
DictionaryVariables
280
     0
  1
3.500000
  0
DICTIONARYVAR
  5
418
102
{ACAD_REACTORS
330
40E
102
}
330
40E
100
DictionaryVariables
280
     0
  1
acadiso.lin
  0
DICTIONARYVAR
  5
414
102
{ACAD_REACTORS
330
40E
102
}
330
40E
100
DictionaryVariables
280
     0
  1
Standard
  0
DICTIONARYVAR
  5
413
102
{ACAD_REACTORS
330
40E
102
}
330
40E
100
DictionaryVariables
280
     0
  1
Standard
  0
DICTIONARY
  5
410
330
6A
100
AcDbDictionary
280
     1
281
     1
  3
ACAD_ROUNDTRIP_2008_TABLESTYLE_CELLSTYLEMAP
360
411
  0
CELLSTYLEMAP
  5
411
102
{ACAD_REACTORS
330
410
102
}
330
410
100
AcDbCellStyleMap
 90
        3
300
CELLSTYLE
  1
TABLEFORMAT_BEGIN
 90
        5
170
     1
 91
        0
 92
    32768
 62
   257
 93
        1
300
CONTENTFORMAT
  1
CONTENTFORMAT_BEGIN
 90
        0
 91
        0
 92
        4
 93
        0
300

 40
0.0
140
1.0
 94
        5
 62
     0
340
11
144
6.0
309
CONTENTFORMAT_END
171
     1
301
MARGIN
  1
CELLMARGIN_BEGIN
 40
1.5
 40
1.5
 40
1.5
 40
1.5
 40
1.5
 40
1.5
309
CELLMARGIN_END
 94
        6
 95
        1
302
GRIDFORMAT
  1
GRIDFORMAT_BEGIN
 90
        0
 91
        1
 62
     0
 92
       -2
340
14
 93
        0
 40
0.045
309
GRIDFORMAT_END
 95
        2
302
GRIDFORMAT
  1
GRIDFORMAT_BEGIN
 90
        0
 91
        1
 62
     0
 92
       -2
340
14
 93
        0
 40
0.045
309
GRIDFORMAT_END
 95
        4
302
GRIDFORMAT
  1
GRIDFORMAT_BEGIN
 90
        0
 91
        1
 62
     0
 92
       -2
340
14
 93
        0
 40
0.045
309
GRIDFORMAT_END
 95
        8
302
GRIDFORMAT
  1
GRIDFORMAT_BEGIN
 90
        0
 91
        1
 62
     0
 92
       -2
340
14
 93
        0
 40
0.045
309
GRIDFORMAT_END
 95
       16
302
GRIDFORMAT
  1
GRIDFORMAT_BEGIN
 90
        0
 91
        1
 62
     0
 92
       -2
340
14
 93
        0
 40
0.045
309
GRIDFORMAT_END
 95
       32
302
GRIDFORMAT
  1
GRIDFORMAT_BEGIN
 90
        0
 91
        1
 62
     0
 92
       -2
340
14
 93
        0
 40
0.045
309
GRIDFORMAT_END
309
TABLEFORMAT_END
  1
CELLSTYLE_BEGIN
 90
        1
 91
        1
300
_TITLE
309
CELLSTYLE_END
300
CELLSTYLE
  1
TABLEFORMAT_BEGIN
 90
        5
170
     1
 91
        0
 92
        0
 62
   257
 93
        1
300
CONTENTFORMAT
  1
CONTENTFORMAT_BEGIN
 90
        0
 91
        0
 92
        4
 93
        0
300

 40
0.0
140
1.0
 94
        5
 62
     0
340
11
144
4.5
309
CONTENTFORMAT_END
171
     1
301
MARGIN
  1
CELLMARGIN_BEGIN
 40
1.5
 40
1.5
 40
1.5
 40
1.5
 40
1.5
 40
1.5
309
CELLMARGIN_END
 94
        6
 95
        1
302
GRIDFORMAT
  1
GRIDFORMAT_BEGIN
 90
        0
 91
        1
 62
     0
 92
       -2
340
14
 93
        0
 40
0.045
309
GRIDFORMAT_END
 95
        2
302
GRIDFORMAT
  1
GRIDFORMAT_BEGIN
 90
        0
 91
        1
 62
     0
 92
       -2
340
14
 93
        0
 40
0.045
309
GRIDFORMAT_END
 95
        4
302
GRIDFORMAT
  1
GRIDFORMAT_BEGIN
 90
        0
 91
        1
 62
     0
 92
       -2
340
14
 93
        0
 40
0.045
309
GRIDFORMAT_END
 95
        8
302
GRIDFORMAT
  1
GRIDFORMAT_BEGIN
 90
        0
 91
        1
 62
     0
 92
       -2
340
14
 93
        0
 40
0.045
309
GRIDFORMAT_END
 95
       16
302
GRIDFORMAT
  1
GRIDFORMAT_BEGIN
 90
        0
 91
        1
 62
     0
 92
       -2
340
14
 93
        0
 40
0.045
309
GRIDFORMAT_END
 95
       32
302
GRIDFORMAT
  1
GRIDFORMAT_BEGIN
 90
        0
 91
        1
 62
     0
 92
       -2
340
14
 93
        0
 40
0.045
309
GRIDFORMAT_END
309
TABLEFORMAT_END
  1
CELLSTYLE_BEGIN
 90
        2
 91
        1
300
_HEADER
309
CELLSTYLE_END
300
CELLSTYLE
  1
TABLEFORMAT_BEGIN
 90
        5
170
     1
 91
        0
 92
        0
 62
   257
 93
        1
300
CONTENTFORMAT
  1
CONTENTFORMAT_BEGIN
 90
        0
 91
        0
 92
        4
 93
        0
300

 40
0.0
140
1.0
 94
        2
 62
     0
340
11
144
4.5
309
CONTENTFORMAT_END
171
     1
301
MARGIN
  1
CELLMARGIN_BEGIN
 40
1.5
 40
1.5
 40
1.5
 40
1.5
 40
1.5
 40
1.5
309
CELLMARGIN_END
 94
        6
 95
        1
302
GRIDFORMAT
  1
GRIDFORMAT_BEGIN
 90
        0
 91
        1
 62
     0
 92
       -2
340
14
 93
        0
 40
0.045
309
GRIDFORMAT_END
 95
        2
302
GRIDFORMAT
  1
GRIDFORMAT_BEGIN
 90
        0
 91
        1
 62
     0
 92
       -2
340
14
 93
        0
 40
0.045
309
GRIDFORMAT_END
 95
        4
302
GRIDFORMAT
  1
GRIDFORMAT_BEGIN
 90
        0
 91
        1
 62
     0
 92
       -2
340
14
 93
        0
 40
0.045
309
GRIDFORMAT_END
 95
        8
302
GRIDFORMAT
  1
GRIDFORMAT_BEGIN
 90
        0
 91
        1
 62
     0
 92
       -2
340
14
 93
        0
 40
0.045
309
GRIDFORMAT_END
 95
       16
302
GRIDFORMAT
  1
GRIDFORMAT_BEGIN
 90
        0
 91
        1
 62
     0
 92
       -2
340
14
 93
        0
 40
0.045
309
GRIDFORMAT_END
 95
       32
302
GRIDFORMAT
  1
GRIDFORMAT_BEGIN
 90
        0
 91
        1
 62
     0
 92
       -2
340
14
 93
        0
 40
0.045
309
GRIDFORMAT_END
309
TABLEFORMAT_END
  1
CELLSTYLE_BEGIN
 90
        3
 91
        2
300
_DATA
309
CELLSTYLE_END
  0
ENDSEC
  0
EOF
